999
DXF file: C:\Prowork\plots\490x_right.dxf
999
Pro/ENGINEER 2018500 by Parametric Technology Corporation
  0
SECTION
  2
HEADER
  9
$ACADVER
  1
AC1032
  9
$DWGCODEPAGE
  3
ANSI_1252
  9
$EXTMAX
 10
8.5
 20
11.0
 30
0.0
  9
$EXTMIN
 10
0.0
 20
0.0
 30
0.0
  9
$LIMMIN
 10
0.0
 20
0.0
  9
$LIMMAX
 10
8.5
 20
11.0
  9
$VIEWCTR
 10
4.25
 20
5.5
  9
$VIEWSIZE
 40
11.0
  9
$CLAYER
  8
0
  9
$LTSCALE
 40
0.717037037
  9
$CELTYPE
  6
BYLAYER
  9
$DIMSCALE
 40
1.0
  9
$DIMASZ
 40
0.1
  9
$DIMEXO
 40
0.0625
  9
$DIMDLI
 40
0.4954074074
  9
$DIMEXE
 40
0.125
  9
$DIMCEN
 40
0.1173333333
  9
$DIMLFAC
 40
1.0
  9
$DIMBLK
  1
_FILLED
  9
$DIMALT
 70
1
  9
$DIMALTD
 70
2
  9
$DIMALTTD
 70
2
  9
$DIMALTF
 40
25.4
  9
$DIMTXT
 40
0.08
  9
$DIMTOL
 70
1
  9
$DIMLIM
 70
0
  9
$DIMTFAC
 40
1.0
  9
$DIMTP
 40
0.001
  9
$DIMTM
 40
0.001
  9
$DIMGAP
 40
0.09
  9
$DIMDSEP
 70
46
  9
$AUNITS
 70
0
  9
$PDMODE
 70
3
  9
$PDSIZE
 40
0.06
  9
$HANDSEED
  5
5B5
  9
$TILEMODE
 70
1
  9
$MEASUREMENT
 70
0
  9
$INSUNITS
 70
1
  0
ENDSEC
  0
SECTION
  2
CLASSES
  0
CLASS
  1
ACDBDICTIONARYWDFLT
  2
AcDbDictionaryWithDefault
  3
AutoCAD 2000
 90
0
 91
1
280
0
281
0
  0
CLASS
  1
ACDBPLACEHOLDER
  2
AcDbPlaceHolder
  3
AutoCAD 2000
 90
0
 91
1
280
0
281
0
  0
CLASS
  1
LAYOUT
  2
AcDbLayout
  3
AutoCAD 2000
 90
0
 91
0
280
0
281
0
  0
ENDSEC
  0
SECTION
  2
TABLES
  0
TABLE
  2
VPORT
  5
8
100
AcDbSymbolTable
 70
2
  0
VPORT
  5
1F4
100
AcDbSymbolTableRecord
100
AcDbViewportTableRecord
  2
*ACTIVE
 70
0
 10
0.0
 20
0.0
 11
1.0
 21
1.0
 12
4.25
 22
5.5
 13
0.0
 23
0.0
 14
1.0
 24
1.0
 15
0.0
 25
0.0
 16
0.0
 26
0.0
 36
1.0
 17
0.0
 27
0.0
 37
0.0
 40
11.0
 41
0.7727272727
 42
50.0
 43
0.0
 44
0.0
 50
0.0
 51
0.0
 71
0
 72
100
 73
1
 74
1
 75
0
 76
0
 77
0
 78
0
  0
ENDTAB
  0
TABLE
  2
LTYPE
  5
5
100
AcDbSymbolTable
 70
6
  0
LTYPE
  5
14
100
AcDbSymbolTableRecord
100
AcDbLinetypeTableRecord
  2
BYBLOCK
 70
0
  3

 72
65
 73
0
 40
0.0
  0
LTYPE
  5
15
100
AcDbSymbolTableRecord
100
AcDbLinetypeTableRecord
  2
BYLAYER
 70
0
  3

 72
65
 73
0
 40
0.0
  0
LTYPE
  5
16
100
AcDbSymbolTableRecord
100
AcDbLinetypeTableRecord
  2
CONTINUOUS
 70
64
  3
Solid line
 72
65
 73
0
 40
0.0
  0
LTYPE
  5
1F5
100
AcDbSymbolTableRecord
100
AcDbLinetypeTableRecord
  2
CENTER
 70
64
  3
____ _ ____ _ ____ _ ____ _ ____ _ ____ _ ____
 72
65
 73
4
 40
0.6
 49
0.375
 74
0
 49
-0.075
 74
0
 49
0.075
 74
0
 49
-0.075
 74
0
  0
LTYPE
  5
1F6
100
AcDbSymbolTableRecord
100
AcDbLinetypeTableRecord
  2
HIDDEN
 70
64
  3
- - - - - - - - - - - - - - - - - - - -
 72
65
 73
2
 40
0.2
 49
0.1
 74
0
 49
-0.1
 74
0
  0
LTYPE
  5
1F7
100
AcDbSymbolTableRecord
100
AcDbLinetypeTableRecord
  2
PHANTOM
 70
64
  3
_____ _ _ _____ _ _ _____ _ _ _____
 72
65
 73
6
 40
0.8
 49
0.45
 74
0
 49
-0.05
 74
0
 49
0.1
 74
0
 49
-0.05
 74
0
 49
0.1
 74
0
 49
-0.05
 74
0
  0
LTYPE
  5
1F8
100
AcDbSymbolTableRecord
100
AcDbLinetypeTableRecord
  2
DOT
 70
64
  3
. . . . . . . . . . . . . . . . . . . .
 72
65
 73
2
 40
0.2
 49
0.1
 74
0
 49
-0.1
 74
0
  0
LTYPE
  5
1F9
100
AcDbSymbolTableRecord
100
AcDbLinetypeTableRecord
  2
DASHED
 70
64
  3
- - - - - - - - - - - - - - - - - - - -
 72
65
 73
2
 40
0.2
 49
0.1
 74
0
 49
-0.1
 74
0
  0
ENDTAB
  0
TABLE
  2
LAYER
  5
2
100
AcDbSymbolTable
 70
36
  0
LAYER
  5
10
100
AcDbSymbolTableRecord
100
AcDbLayerTableRecord
  2
0
 70
0
 62
7
  6
CONTINUOUS
370
-3
390
F
  0
LAYER
  5
1FA
100
AcDbSymbolTableRecord
100
AcDbLayerTableRecord
  2
DEFAULT_1
 70
0
 62
7
  6
CENTER
370
-3
390
F
  0
LAYER
  5
1FB
100
AcDbSymbolTableRecord
100
AcDbLayerTableRecord
  2
DEFAULT_2
 70
0
 62
8
  6
HIDDEN
370
-3
390
F
  0
LAYER
  5
1FC
100
AcDbSymbolTableRecord
100
AcDbLayerTableRecord
  2
DEFAULT_3
 70
0
 62
7
  6
PHANTOM
370
-3
390
F
  0
LAYER
  5
1FD
100
AcDbSymbolTableRecord
100
AcDbLayerTableRecord
  2
1-257
 70
0
 62
7
  6
CONTINUOUS
370
-3
390
F
  0
LAYER
  5
1FE
100
AcDbSymbolTableRecord
100
AcDbLayerTableRecord
  2
1-257_1
 70
0
 62
7
  6
CONTINUOUS
370
-3
390
F
  0
LAYER
  5
1FF
100
AcDbSymbolTableRecord
100
AcDbLayerTableRecord
  2
10182
 70
0
 62
7
  6
CONTINUOUS
370
-3
390
F
  0
LAYER
  5
200
100
AcDbSymbolTableRecord
100
AcDbLayerTableRecord
  2
10182_1
 70
0
 62
7
  6
CONTINUOUS
370
-3
390
F
  0
LAYER
  5
201
100
AcDbSymbolTableRecord
100
AcDbLayerTableRecord
  2
404X
 70
0
 62
7
  6
CONTINUOUS
370
-3
390
F
  0
LAYER
  5
202
100
AcDbSymbolTableRecord
100
AcDbLayerTableRecord
  2
404X_1
 70
0
 62
7
  6
CONTINUOUS
370
-3
390
F
  0
LAYER
  5
203
100
AcDbSymbolTableRecord
100
AcDbLayerTableRecord
  2
432
 70
0
 62
7
  6
CONTINUOUS
370
-3
390
F
  0
LAYER
  5
204
100
AcDbSymbolTableRecord
100
AcDbLayerTableRecord
  2
432_1
 70
0
 62
7
  6
CONTINUOUS
370
-3
390
F
  0
LAYER
  5
205
100
AcDbSymbolTableRecord
100
AcDbLayerTableRecord
  2
440
 70
0
 62
7
  6
CONTINUOUS
370
-3
390
F
  0
LAYER
  5
206
100
AcDbSymbolTableRecord
100
AcDbLayerTableRecord
  2
440_1
 70
0
 62
7
  6
CONTINUOUS
370
-3
390
F
  0
LAYER
  5
207
100
AcDbSymbolTableRecord
100
AcDbLayerTableRecord
  2
451
 70
0
 62
7
  6
CONTINUOUS
370
-3
390
F
  0
LAYER
  5
208
100
AcDbSymbolTableRecord
100
AcDbLayerTableRecord
  2
451_1
 70
0
 62
7
  6
CONTINUOUS
370
-3
390
F
  0
LAYER
  5
209
100
AcDbSymbolTableRecord
100
AcDbLayerTableRecord
  2
50350
 70
0
 62
7
  6
CONTINUOUS
370
-3
390
F
  0
LAYER
  5
20A
100
AcDbSymbolTableRecord
100
AcDbLayerTableRecord
  2
50350_1
 70
0
 62
7
  6
CONTINUOUS
370
-3
390
F
  0
LAYER
  5
20B
100
AcDbSymbolTableRecord
100
AcDbLayerTableRecord
  2
50356
 70
0
 62
7
  6
CONTINUOUS
370
-3
390
F
  0
LAYER
  5
20C
100
AcDbSymbolTableRecord
100
AcDbLayerTableRecord
  2
50356_1
 70
0
 62
7
  6
CONTINUOUS
370
-3
390
F
  0
LAYER
  5
20D
100
AcDbSymbolTableRecord
100
AcDbLayerTableRecord
  2
50359
 70
0
 62
7
  6
CONTINUOUS
370
-3
390
F
  0
LAYER
  5
20E
100
AcDbSymbolTableRecord
100
AcDbLayerTableRecord
  2
50359_1
 70
0
 62
7
  6
CONTINUOUS
370
-3
390
F
  0
LAYER
  5
20F
100
AcDbSymbolTableRecord
100
AcDbLayerTableRecord
  2
50663
 70
0
 62
7
  6
CONTINUOUS
370
-3
390
F
  0
LAYER
  5
210
100
AcDbSymbolTableRecord
100
AcDbLayerTableRecord
  2
50663_1
 70
0
 62
7
  6
CONTINUOUS
370
-3
390
F
  0
LAYER
  5
211
100
AcDbSymbolTableRecord
100
AcDbLayerTableRecord
  2
50664
 70
0
 62
7
  6
CONTINUOUS
370
-3
390
F
  0
LAYER
  5
212
100
AcDbSymbolTableRecord
100
AcDbLayerTableRecord
  2
50664_1
 70
0
 62
7
  6
CONTINUOUS
370
-3
390
F
  0
LAYER
  5
213
100
AcDbSymbolTableRecord
100
AcDbLayerTableRecord
  2
50669
 70
0
 62
7
  6
CONTINUOUS
370
-3
390
F
  0
LAYER
  5
214
100
AcDbSymbolTableRecord
100
AcDbLayerTableRecord
  2
50669_1
 70
0
 62
7
  6
CONTINUOUS
370
-3
390
F
  0
LAYER
  5
215
100
AcDbSymbolTableRecord
100
AcDbLayerTableRecord
  2
50675
 70
0
 62
7
  6
CONTINUOUS
370
-3
390
F
  0
LAYER
  5
216
100
AcDbSymbolTableRecord
100
AcDbLayerTableRecord
  2
50675_1
 70
0
 62
7
  6
CONTINUOUS
370
-3
390
F
  0
LAYER
  5
217
100
AcDbSymbolTableRecord
100
AcDbLayerTableRecord
  2
50677
 70
0
 62
7
  6
CONTINUOUS
370
-3
390
F
  0
LAYER
  5
218
100
AcDbSymbolTableRecord
100
AcDbLayerTableRecord
  2
50677_1
 70
0
 62
7
  6
CONTINUOUS
370
-3
390
F
  0
LAYER
  5
219
100
AcDbSymbolTableRecord
100
AcDbLayerTableRecord
  2
50680
 70
0
 62
7
  6
CONTINUOUS
370
-3
390
F
  0
LAYER
  5
21A
100
AcDbSymbolTableRecord
100
AcDbLayerTableRecord
  2
50680_1
 70
0
 62
7
  6
CONTINUOUS
370
-3
390
F
  0
LAYER
  5
21B
100
AcDbSymbolTableRecord
100
AcDbLayerTableRecord
  2
50846
 70
0
 62
7
  6
CONTINUOUS
370
-3
390
F
  0
LAYER
  5
21C
100
AcDbSymbolTableRecord
100
AcDbLayerTableRecord
  2
50846_1
 70
0
 62
7
  6
CONTINUOUS
370
-3
390
F
  0
LAYER
  5
21D
100
AcDbSymbolTableRecord
100
AcDbLayerTableRecord
  2
50860
 70
0
 62
7
  6
CONTINUOUS
370
-3
390
F
  0
LAYER
  5
21E
100
AcDbSymbolTableRecord
100
AcDbLayerTableRecord
  2
50860_1
 70
0
 62
7
  6
CONTINUOUS
370
-3
390
F
  0
LAYER
  5
21F
100
AcDbSymbolTableRecord
100
AcDbLayerTableRecord
  2
6-404
 70
0
 62
7
  6
CONTINUOUS
370
-3
390
F
  0
LAYER
  5
220
100
AcDbSymbolTableRecord
100
AcDbLayerTableRecord
  2
6-404_1
 70
0
 62
7
  6
CONTINUOUS
370
-3
390
F
  0
LAYER
  5
221
100
AcDbSymbolTableRecord
100
AcDbLayerTableRecord
  2
92000
 70
0
 62
7
  6
CONTINUOUS
370
-3
390
F
  0
LAYER
  5
222
100
AcDbSymbolTableRecord
100
AcDbLayerTableRecord
  2
92000_1
 70
0
 62
7
  6
CONTINUOUS
370
-3
390
F
  0
LAYER
  5
223
100
AcDbSymbolTableRecord
100
AcDbLayerTableRecord
  2
ALL_FEATURES_14
 70
0
 62
7
  6
CONTINUOUS
370
-3
390
F
  0
LAYER
  5
224
100
AcDbSymbolTableRecord
100
AcDbLayerTableRecord
  2
COLOR147
 70
0
 62
7
  6
CONTINUOUS
370
-3
390
F
  0
LAYER
  5
225
100
AcDbSymbolTableRecord
100
AcDbLayerTableRecord
  2
COLOR148
 70
0
 62
7
  6
CONTINUOUS
370
-3
390
F
  0
LAYER
  5
226
100
AcDbSymbolTableRecord
100
AcDbLayerTableRecord
  2
DEFAULT_COORDINATE_SYSTEM
 70
0
 62
7
  6
CONTINUOUS
370
-3
390
F
  0
LAYER
  5
227
100
AcDbSymbolTableRecord
100
AcDbLayerTableRecord
  2
DEFAULT_DATUM_AXES
 70
0
 62
7
  6
CONTINUOUS
370
-3
390
F
  0
LAYER
  5
228
100
AcDbSymbolTableRecord
100
AcDbLayerTableRecord
  2
DEFAULT_DATUM_PLANES
 70
0
 62
7
  6
CONTINUOUS
370
-3
390
F
  0
LAYER
  5
229
100
AcDbSymbolTableRecord
100
AcDbLayerTableRecord
  2
DEFAULT_SURFACES
 70
0
 62
7
  6
CONTINUOUS
370
-3
390
F
  0
LAYER
  5
22A
100
AcDbSymbolTableRecord
100
AcDbLayerTableRecord
  2
INTF_10182
 70
0
 62
7
  6
CONTINUOUS
370
-3
390
F
  0
LAYER
  5
22B
100
AcDbSymbolTableRecord
100
AcDbLayerTableRecord
  2
INTF_440
 70
0
 62
7
  6
CONTINUOUS
370
-3
390
F
  0
LAYER
  5
22C
100
AcDbSymbolTableRecord
100
AcDbLayerTableRecord
  2
INTF_50350
 70
0
 62
7
  6
CONTINUOUS
370
-3
390
F
  0
LAYER
  5
22D
100
AcDbSymbolTableRecord
100
AcDbLayerTableRecord
  2
INTF_50356
 70
0
 62
7
  6
CONTINUOUS
370
-3
390
F
  0
LAYER
  5
22E
100
AcDbSymbolTableRecord
100
AcDbLayerTableRecord
  2
INTF_50359
 70
0
 62
7
  6
CONTINUOUS
370
-3
390
F
  0
LAYER
  5
22F
100
AcDbSymbolTableRecord
100
AcDbLayerTableRecord
  2
INTF_50663
 70
0
 62
7
  6
CONTINUOUS
370
-3
390
F
  0
LAYER
  5
230
100
AcDbSymbolTableRecord
100
AcDbLayerTableRecord
  2
INTF_50664
 70
0
 62
7
  6
CONTINUOUS
370
-3
390
F
  0
LAYER
  5
231
100
AcDbSymbolTableRecord
100
AcDbLayerTableRecord
  2
INTF_50669
 70
0
 62
7
  6
CONTINUOUS
370
-3
390
F
  0
LAYER
  5
232
100
AcDbSymbolTableRecord
100
AcDbLayerTableRecord
  2
INTF_50675
 70
0
 62
7
  6
CONTINUOUS
370
-3
390
F
  0
LAYER
  5
233
100
AcDbSymbolTableRecord
100
AcDbLayerTableRecord
  2
INTF_50677
 70
0
 62
7
  6
CONTINUOUS
370
-3
390
F
  0
LAYER
  5
234
100
AcDbSymbolTableRecord
100
AcDbLayerTableRecord
  2
INTF_50680
 70
0
 62
7
  6
CONTINUOUS
370
-3
390
F
  0
LAYER
  5
235
100
AcDbSymbolTableRecord
100
AcDbLayerTableRecord
  2
INTF_50846
 70
0
 62
7
  6
CONTINUOUS
370
-3
390
F
  0
LAYER
  5
236
100
AcDbSymbolTableRecord
100
AcDbLayerTableRecord
  2
INTF_50860
 70
0
 62
7
  6
CONTINUOUS
370
-3
390
F
  0
LAYER
  5
237
100
AcDbSymbolTableRecord
100
AcDbLayerTableRecord
  2
INTF_92000
 70
0
 62
7
  6
CONTINUOUS
370
-3
390
F
  0
LAYER
  5
238
100
AcDbSymbolTableRecord
100
AcDbLayerTableRecord
  2
INTF_BLANK
 70
0
 62
7
  6
CONTINUOUS
370
-3
390
F
  0
LAYER
  5
239
100
AcDbSymbolTableRecord
100
AcDbLayerTableRecord
  2
PLATED_SURFACE
 70
0
 62
7
  6
CONTINUOUS
370
-3
390
F
  0
LAYER
  5
23A
100
AcDbSymbolTableRecord
100
AcDbLayerTableRecord
  2
PLATED_SURFACE_1
 70
0
 62
7
  6
CONTINUOUS
370
-3
390
F
  0
LAYER
  5
23B
100
AcDbSymbolTableRecord
100
AcDbLayerTableRecord
  2
WETTED_SURFACES
 70
0
 62
7
  6
CONTINUOUS
370
-3
390
F
  0
LAYER
  5
23C
100
AcDbSymbolTableRecord
100
AcDbLayerTableRecord
  2
_BLACK_HOLE
 70
0
 62
7
  6
CONTINUOUS
370
-3
390
F
  0
ENDTAB
  0
TABLE
  2
STYLE
  5
3
100
AcDbSymbolTable
 70
1
  0
STYLE
  5
11
100
AcDbSymbolTableRecord
100
AcDbTextStyleTableRecord
  2
STANDARD
 70
0
 40
0.0
 41
0.8
 50
0.0
 71
0
 42
0.2
  3
txt
  4

  0
STYLE
  5
23D
100
AcDbSymbolTableRecord
100
AcDbTextStyleTableRecord
  2
TEXTSTYLE_1
 70
0
 40
0.0
 41
0.8
 50
0.0
 71
0
 42
0.2
  3
gdt
  4

  0
ENDTAB
  0
TABLE
  2
VIEW
  5
6
100
AcDbSymbolTable
 70
0
  0
ENDTAB
  0
TABLE
  2
UCS
  5
7
100
AcDbSymbolTable
 70
0
  0
ENDTAB
  0
TABLE
  2
APPID
  5
9
100
AcDbSymbolTable
 70
1
  0
APPID
  5
23E
100
AcDbSymbolTableRecord
100
AcDbRegAppTableRecord
  2
ACAD
 70
0
  0
ENDTAB
  0
TABLE
  2
BLOCK_RECORD
  5
1
100
AcDbSymbolTable
 70
0
  0
BLOCK_RECORD
  5
23F
100
AcDbSymbolTableRecord
100
AcDbBlockTableRecord
  2
*Model_Space
  0
BLOCK_RECORD
  5
240
100
AcDbSymbolTableRecord
100
AcDbBlockTableRecord
  2
*Paper_Space
  0
BLOCK_RECORD
  5
241
100
AcDbSymbolTableRecord
100
AcDbBlockTableRecord
  2
_FILLED
  0
ENDTAB
  0
TABLE
  2
DIMSTYLE
  5
A
100
AcDbSymbolTable
 70
1
100
AcDbDimStyleTable
 71
0
  0
DIMSTYLE
105
242
100
AcDbSymbolTableRecord
100
AcDbDimStyleTableRecord
  2
STANDARD
 70
0
  3

  4

 40
1.0
 41
0.1
 42
0.0625
 43
0.38
 44
0.125
 45
0.0
 46
0.0
 47
0.001
 48
0.001
140
0.08
141
0.09
142
0.0
143
25.4
144
1.0
145
0.0
146
1.0
147
0.09
 71
1.0
 72
0.0
 73
1
 74
1
 75
0
 76
0
 77
0
 78
4
 79
1
170
1
171
2
172
0
173
0
174
0
175
0
176
0
177
0
178
0
270
2
179
3
271
3
272
3
273
2
274
2
275
0
280
0
281
0
282
0
283
1
284
4
285
0
286
0
287
3
288
0
340
11
278
46
341
241
342
241
343
241
344
241
  0
ENDTAB
  0
ENDSEC
  0
SECTION
  2
BLOCKS
  0
BLOCK
  5
20
100
AcDbEntity
  8
0
100
AcDbBlockBegin
  2
*Model_Space
 70
0
 10
0.0
 20
0.0
 30
0.0
  3
*Model_Space
  1

  0
ENDBLK
  5
21
100
AcDbEntity
  8
0
100
AcDbBlockEnd
  0
BLOCK
  5
1C
100
AcDbEntity
  8
0
100
AcDbBlockBegin
  2
*Paper_Space
 70
0
 10
0.0
 20
0.0
 30
0.0
  3
*Paper_Space
  1

  0
ENDBLK
  5
1D
100
AcDbEntity
  8
0
100
AcDbBlockEnd
  0
BLOCK
  5
243
100
AcDbEntity
  8
0
100
AcDbBlockBegin
  2
_FILLED
 70
64
 10
0.0
 20
0.0
  3
_FILLED
  1

  0
SOLID
  5
244
100
AcDbEntity
  8
0
  6
BYBLOCK
 62
0
100
AcDbTrace
 10
0.0
 20
0.0
 11
-1.0
 21
0.2
 12
-1.0
 22
-0.2
 13
-1.0
 23
-0.2
  0
ENDBLK
  5
245
100
AcDbEntity
  8
0
  6
BYBLOCK
 62
0
100
AcDbBlockEnd
  0
ENDSEC
  0
SECTION
  2
ENTITIES
  0
MTEXT
  5
246
100
AcDbEntity
  8
0
100
AcDbMText
 62
7
  6
CONTINUOUS
  7
STANDARD
 71
1
 72
1
 10
6.9239906832
 20
0.439689441
 30
0.0
 11
1.0
 21
0.0
 31
0.0
 73
2
 44
0.9
  1
SCALE: .50
 40
0.08
 41
0.64
  0
LINE
  5
247
100
AcDbEntity
  8
0
100
AcDbLine
 62
7
  6
CONTINUOUS
 10
0.0
 20
0.0
 11
8.5
 21
0.0
  0
LINE
  5
248
100
AcDbEntity
  8
0
100
AcDbLine
 62
7
  6
CONTINUOUS
 10
0.0
 20
0.0
 11
0.0
 21
11.0
  0
LINE
  5
249
100
AcDbEntity
  8
0
100
AcDbLine
 62
7
  6
CONTINUOUS
 10
8.5
 20
0.0
 11
8.5
 21
11.0
  0
LINE
  5
24A
100
AcDbEntity
  8
0
100
AcDbLine
 62
7
  6
CONTINUOUS
 10
0.0
 20
11.0
 11
8.5
 21
11.0
  0
LINE
  5
24B
100
AcDbEntity
  8
0
100
AcDbLine
 62
7
  6
CONTINUOUS
 10
2.7429743789
 20
10.7876833201
 11
2.7449743789
 21
10.7888664596
  0
LINE
  5
24C
100
AcDbEntity
  8
0
100
AcDbLine
 62
7
  6
CONTINUOUS
 10
5.1894640004
 20
0.7433840605
 11
5.1856374845
 21
0.7432649215
  0
LINE
  5
24D
100
AcDbEntity
  8
0
100
AcDbLine
 62
7
  6
CONTINUOUS
 10
5.1616860863
 20
0.7425191925
 11
5.1578597803
 21
0.7424000601
  0
LINE
  5
24E
100
AcDbEntity
  8
0
100
AcDbLine
 62
7
  6
CONTINUOUS
 10
2.6429989788
 20
0.6551432303
 11
2.5588790462
 21
0.6551432303
  0
LINE
  5
24F
100
AcDbEntity
  8
0
100
AcDbLine
 62
9
  6
CONTINUOUS
 10
2.557465584
 20
0.6584925952
 11
2.644412441
 21
0.6584925952
  0
LINE
  5
250
100
AcDbEntity
  8
0
100
AcDbLine
 62
7
  6
CONTINUOUS
 10
2.6587243789
 20
0.6888664596
 11
2.6712243789
 21
0.6888664596
  0
LINE
  5
251
100
AcDbEntity
  8
0
100
AcDbLine
 62
7
  6
CONTINUOUS
 10
2.7492243789
 20
0.7007414596
 11
2.722062603
 21
0.7007414596
  0
LINE
  5
252
100
AcDbEntity
  8
0
100
AcDbLine
 62
7
  6
CONTINUOUS
 10
2.7013861548
 20
0.7007414596
 11
2.6970738112
 21
0.7007414596
  0
LINE
  5
253
100
AcDbEntity
  8
0
100
AcDbLine
 62
7
  6
CONTINUOUS
 10
2.6763751786
 20
0.7007414596
 11
2.6720643046
 21
0.7007414596
  0
LINE
  5
254
100
AcDbEntity
  8
0
100
AcDbLine
 62
7
  6
CONTINUOUS
 10
2.7992243789
 20
0.7038664596
 11
3.1242243789
 21
0.7038664596
  0
LINE
  5
255
100
AcDbEntity
  8
0
100
AcDbLine
 62
7
  6
CONTINUOUS
 10
3.2246272948
 20
0.7038664596
 11
3.3613209848
 21
0.7038664596
  0
LINE
  5
256
100
AcDbEntity
  8
0
100
AcDbLine
 62
7
  6
CONTINUOUS
 10
3.1242243789
 20
0.7088664596
 11
3.2117243789
 21
0.7088664596
  0
LINE
  5
257
100
AcDbEntity
  8
0
100
AcDbLine
 62
7
  6
CONTINUOUS
 10
2.7101618789
 20
0.7159414596
 11
2.7132868789
 21
0.7159414596
  0
LINE
  5
258
100
AcDbEntity
  8
0
100
AcDbLine
 62
7
  6
CONTINUOUS
 10
2.685157485
 20
0.715959112
 11
2.688282485
 21
0.715959112
  0
LINE
  5
259
100
AcDbEntity
  8
0
100
AcDbLine
 62
7
  6
CONTINUOUS
 10
2.7992243789
 20
0.7163664596
 11
2.7492243789
 21
0.7163664596
  0
LINE
  5
25A
100
AcDbEntity
  8
0
100
AcDbLine
 62
7
  6
CONTINUOUS
 10
3.5314688233
 20
0.7351164596
 11
4.8992243789
 21
0.7351164596
  0
LINE
  5
25B
100
AcDbEntity
  8
0
100
AcDbLine
 62
7
  6
CONTINUOUS
 10
3.5242243789
 20
0.7401164596
 11
3.5210868789
 21
0.7401164596
  0
LINE
  5
25C
100
AcDbEntity
  8
0
100
AcDbLine
 62
7
  6
CONTINUOUS
 10
2.5037243789
 20
0.7466164596
 11
2.5162243789
 21
0.7466164596
  0
LINE
  5
25D
100
AcDbEntity
  8
0
100
AcDbLine
 62
7
  6
CONTINUOUS
 10
3.481169035
 20
0.7541398554
 11
3.4846411057
 21
0.7541398554
  0
LINE
  5
25E
100
AcDbEntity
  8
0
100
AcDbLine
 62
7
  6
CONTINUOUS
 10
3.4533917836
 20
0.7550049131
 11
3.4568636954
 21
0.755004913
  0
LINE
  5
25F
100
AcDbEntity
  8
0
100
AcDbLine
 62
7
  6
CONTINUOUS
 10
3.4256142518
 20
0.7558700206
 11
3.429086702
 21
0.7558700208
  0
LINE
  5
260
100
AcDbEntity
  8
0
100
AcDbLine
 62
7
  6
CONTINUOUS
 10
3.3978369001
 20
0.7567350474
 11
3.4013091224
 21
0.7567350474
  0
LINE
  5
261
100
AcDbEntity
  8
0
100
AcDbLine
 62
7
  6
CONTINUOUS
 10
5.1721376625
 20
0.7606266789
 11
5.1756098847
 21
0.7606266789
  0
LINE
  5
262
100
AcDbEntity
  8
0
100
AcDbLine
 62
7
  6
CONTINUOUS
 10
5.1999149947
 20
0.7614912596
 11
5.2033873052
 21
0.7614912596
  0
LINE
  5
263
100
AcDbEntity
  8
0
100
AcDbLine
 62
9
  6
CONTINUOUS
 10
2.644412441
 20
0.7703542099
 11
2.557465584
 21
0.7703542099
  0
LINE
  5
264
100
AcDbEntity
  8
0
100
AcDbLine
 62
9
  6
CONTINUOUS
 10
2.557465584
 20
0.792004845
 11
2.644412441
 21
0.792004845
  0
LINE
  5
265
100
AcDbEntity
  8
0
100
AcDbLine
 62
7
  6
CONTINUOUS
 10
2.4949015161
 20
0.8101164596
 11
2.5037243789
 21
0.8101164596
  0
LINE
  5
266
100
AcDbEntity
  8
0
100
AcDbLine
 62
7
  6
CONTINUOUS
 10
2.7992243789
 20
0.8210237471
 11
3.1242243789
 21
0.8210237471
  0
LINE
  5
267
100
AcDbEntity
  8
0
100
AcDbLine
 62
7
  6
CONTINUOUS
 10
3.2617243632
 20
0.8210237471
 11
3.3242244038
 21
0.8210237471
  0
LINE
  5
268
100
AcDbEntity
  8
0
100
AcDbLine
 62
7
  6
CONTINUOUS
 10
3.3839850109
 20
0.7394921659
 11
3.3878112897
 21
0.7393730344
  0
LINE
  5
269
100
AcDbEntity
  8
0
100
AcDbLine
 62
7
  6
CONTINUOUS
 10
3.4117627177
 20
0.7386273044
 11
3.4155891936
 21
0.7385081668
  0
LINE
  5
26A
100
AcDbEntity
  8
0
100
AcDbLine
 62
7
  6
CONTINUOUS
 10
3.4395403776
 20
0.7377624444
 11
3.4433671422
 21
0.7376432977
  0
LINE
  5
26B
100
AcDbEntity
  8
0
100
AcDbLine
 62
7
  6
CONTINUOUS
 10
3.4673179904
 20
0.7368975859
 11
3.4711451357
 21
0.7367784273
  0
LINE
  5
26C
100
AcDbEntity
  8
0
100
AcDbLine
 62
7
  6
CONTINUOUS
 10
3.4950955561
 20
0.7360327288
 11
3.4989231738
 21
0.7359135555
  0
LINE
  5
26D
100
AcDbEntity
  8
0
100
AcDbLine
 62
7
  6
CONTINUOUS
 10
3.1784743789
 20
10.5838664596
 11
3.1804743789
 21
10.5850495992
  0
LINE
  5
26E
100
AcDbEntity
  8
0
100
AcDbLine
 62
7
  6
CONTINUOUS
 10
3.5208899266
 20
0.7399195073
 11
3.5206433861
 21
0.7398570808
  0
LINE
  5
26F
100
AcDbEntity
  8
0
100
AcDbLine
 62
7
  6
CONTINUOUS
 10
3.3978738702
 20
1.0686731842
 11
3.401700236
 21
1.0687923185
  0
LINE
  5
270
100
AcDbEntity
  8
0
100
AcDbLine
 62
7
  6
CONTINUOUS
 10
3.4256515535
 20
1.069538045
 11
3.4294781623
 21
1.0696571868
  0
LINE
  5
271
100
AcDbEntity
  8
0
100
AcDbLine
 62
7
  6
CONTINUOUS
 10
3.4534291899
 20
1.0704029043
 11
3.4572561334
 21
1.0705220565
  0
LINE
  5
272
100
AcDbEntity
  8
0
100
AcDbLine
 62
7
  6
CONTINUOUS
 10
3.4812067791
 20
1.0712677621
 11
3.4850341492
 21
1.0713869276
  0
LINE
  5
273
100
AcDbEntity
  8
0
100
AcDbLine
 62
7
  6
CONTINUOUS
 10
3.5089843214
 20
1.0721326185
 11
3.5128122096
 21
1.0722518001
  0
LINE
  5
274
100
AcDbEntity
  8
0
100
AcDbLine
 62
7
  6
CONTINUOUS
 10
2.7992243789
 20
0.9867091721
 11
3.1242243789
 21
0.9867091721
  0
LINE
  5
275
100
AcDbEntity
  8
0
100
AcDbLine
 62
7
  6
CONTINUOUS
 10
3.2617243638
 20
0.9867091721
 11
3.3242243789
 21
0.9867091721
  0
LINE
  5
276
100
AcDbEntity
  8
0
100
AcDbLine
 62
7
  6
CONTINUOUS
 10
2.4949015158
 20
0.9976164596
 11
2.5037243789
 21
0.9976164596
  0
LINE
  5
277
100
AcDbEntity
  8
0
100
AcDbLine
 62
9
  6
CONTINUOUS
 10
2.644412441
 20
1.0157280743
 11
2.557465584
 21
1.0157280743
  0
LINE
  5
278
100
AcDbEntity
  8
0
100
AcDbLine
 62
9
  6
CONTINUOUS
 10
2.557465584
 20
1.0373787094
 11
2.644412441
 21
1.0373787094
  0
LINE
  5
279
100
AcDbEntity
  8
0
100
AcDbLine
 62
7
  6
CONTINUOUS
 10
5.1894985508
 20
1.046673935
 11
5.1860263285
 21
1.046673935
  0
LINE
  5
27A
100
AcDbEntity
  8
0
100
AcDbLine
 62
7
  6
CONTINUOUS
 10
5.1617212182
 20
1.047538565
 11
5.158248996
 21
1.047538565
  0
LINE
  5
27B
100
AcDbEntity
  8
0
100
AcDbLine
 62
7
  6
CONTINUOUS
 10
3.3874204486
 20
1.0505653886
 11
3.3839482264
 21
1.0505653886
  0
LINE
  5
27C
100
AcDbEntity
  8
0
100
AcDbLine
 62
7
  6
CONTINUOUS
 10
3.4151977975
 20
1.0514303751
 11
3.4117255752
 21
1.0514303751
  0
LINE
  5
27D
100
AcDbEntity
  8
0
100
AcDbLine
 62
7
  6
CONTINUOUS
 10
3.4429751521
 20
1.0522954423
 11
3.4395029299
 21
1.0522954423
  0
LINE
  5
27E
100
AcDbEntity
  8
0
100
AcDbLine
 62
7
  6
CONTINUOUS
 10
3.4707525131
 20
1.0531605903
 11
3.4672802911
 21
1.0531605903
  0
LINE
  5
27F
100
AcDbEntity
  8
0
100
AcDbLine
 62
7
  6
CONTINUOUS
 10
2.5162243789
 20
1.0611164596
 11
2.5037243789
 21
1.0611164596
  0
LINE
  5
280
100
AcDbEntity
  8
0
100
AcDbLine
 62
7
  6
CONTINUOUS
 10
3.5207462887
 20
1.0676164596
 11
3.5242243789
 21
1.0676164596
  0
LINE
  5
281
100
AcDbEntity
  8
0
100
AcDbLine
 62
7
  6
CONTINUOUS
 10
4.8992243789
 20
1.0726164596
 11
3.5314688233
 21
1.0726164596
  0
LINE
  5
282
100
AcDbEntity
  8
0
100
AcDbLine
 62
7
  6
CONTINUOUS
 10
2.7492243789
 20
1.0913664596
 11
2.7992243789
 21
1.0913664596
  0
LINE
  5
283
100
AcDbEntity
  8
0
100
AcDbLine
 62
7
  6
CONTINUOUS
 10
2.6976618789
 20
1.0917814277
 11
2.7007868789
 21
1.0917814277
  0
LINE
  5
284
100
AcDbEntity
  8
0
100
AcDbLine
 62
7
  6
CONTINUOUS
 10
2.6757841778
 20
1.0917886863
 11
2.6726591778
 21
1.0917886863
  0
LINE
  5
285
100
AcDbEntity
  8
0
100
AcDbLine
 62
7
  6
CONTINUOUS
 10
3.2117243789
 20
1.0988664596
 11
3.1242243789
 21
1.0988664596
  0
LINE
  5
286
100
AcDbEntity
  8
0
100
AcDbLine
 62
7
  6
CONTINUOUS
 10
3.1242243789
 20
1.1038664596
 11
3.0753574534
 21
1.1038664596
  0
LINE
  5
287
100
AcDbEntity
  8
0
100
AcDbLine
 62
7
  6
CONTINUOUS
 10
2.8480913044
 20
1.1038664596
 11
2.7992243789
 21
1.1038664596
  0
LINE
  5
288
100
AcDbEntity
  8
0
100
AcDbLine
 62
7
  6
CONTINUOUS
 10
3.2246272948
 20
1.1038664596
 11
3.3613209848
 21
1.1038664596
  0
LINE
  5
289
100
AcDbEntity
  8
0
100
AcDbLine
 62
7
  6
CONTINUOUS
 10
2.6888674483
 20
1.1069914596
 11
2.6845644199
 21
1.1069914596
  0
LINE
  5
28A
100
AcDbEntity
  8
0
100
AcDbLine
 62
7
  6
CONTINUOUS
 10
2.7095816532
 20
1.1069914596
 11
2.7492243789
 21
1.1069914596
  0
LINE
  5
28B
100
AcDbEntity
  8
0
100
AcDbLine
 62
7
  6
CONTINUOUS
 10
2.6587243789
 20
1.1188664596
 11
2.6712243789
 21
1.1188664596
  0
LINE
  5
28C
100
AcDbEntity
  8
0
100
AcDbLine
 62
9
  6
CONTINUOUS
 10
2.644412441
 20
1.149240324
 11
2.557465584
 21
1.149240324
  0
LINE
  5
28D
100
AcDbEntity
  8
0
100
AcDbLine
 62
7
  6
CONTINUOUS
 10
2.6429989788
 20
1.1525896889
 11
2.5588790462
 21
1.1525896889
  0
LINE
  5
28E
100
AcDbEntity
  8
0
100
AcDbLine
 62
7
  6
CONTINUOUS
 10
3.1179743789
 20
1.2098664596
 11
2.8054743789
 21
1.2098664596
  0
LINE
  5
28F
100
AcDbEntity
  8
0
100
AcDbLine
 62
7
  6
CONTINUOUS
 10
5.1755750378
 20
1.0647812929
 11
5.1717486378
 21
1.0649004282
  0
LINE
  5
290
100
AcDbEntity
  8
0
100
AcDbLine
 62
7
  6
CONTINUOUS
 10
3.5314688233
 20
0.7351164596
 11
3.5242243789
 21
0.7384945995
  0
LINE
  5
291
100
AcDbEntity
  8
0
100
AcDbLine
 62
7
  6
CONTINUOUS
 10
3.5197453487
 20
0.7405832056
 11
3.505465998
 21
0.7472417762
  0
LINE
  5
292
100
AcDbEntity
  8
0
100
AcDbLine
 62
7
  6
CONTINUOUS
 10
2.722062603
 20
0.7007414596
 11
2.7219291103
 21
0.7008557704
  0
LINE
  5
293
100
AcDbEntity
  8
0
100
AcDbLine
 62
7
  6
CONTINUOUS
 10
2.688282485
 20
0.715959112
 11
2.6881368535
 21
0.716085032
  0
LINE
  5
294
100
AcDbEntity
  8
0
100
AcDbLine
 62
7
  6
CONTINUOUS
 10
2.9427366741
 20
1.2030989209
 11
2.9863374297
 21
1.2042345522
  0
LINE
  5
295
100
AcDbEntity
  8
0
100
AcDbLine
 62
7
  6
CONTINUOUS
 10
2.9427366741
 20
1.2057039209
 11
2.9863374297
 21
1.2068395522
  0
LINE
  5
296
100
AcDbEntity
  8
0
100
AcDbLine
 62
7
  6
CONTINUOUS
 10
3.1179743789
 20
1.4193664596
 11
2.8054743789
 21
1.4193664596
  0
LINE
  5
297
100
AcDbEntity
  8
0
100
AcDbLine
 62
7
  6
CONTINUOUS
 10
5.2069942533
 20
0.7550226614
 11
5.2071493067
 21
0.7549781467
  0
LINE
  5
298
100
AcDbEntity
  8
0
100
AcDbLine
 62
7
  6
CONTINUOUS
 10
2.8211019367
 20
1.125001308
 11
2.8338017057
 21
1.1176689596
  0
LINE
  5
299
100
AcDbEntity
  8
0
100
AcDbLine
 62
7
  6
CONTINUOUS
 10
2.8212208176
 20
1.145688956
 11
2.8339485727
 21
1.1383326774
  0
LINE
  5
29A
100
AcDbEntity
  8
0
100
AcDbLine
 62
7
  6
CONTINUOUS
 10
2.8212220644
 20
1.1665165956
 11
2.8339389648
 21
1.1591671354
  0
LINE
  5
29B
100
AcDbEntity
  8
0
100
AcDbLine
 62
7
  6
CONTINUOUS
 10
2.8212090549
 20
1.2081927722
 11
2.8339249161
 21
1.2008447087
  0
LINE
  5
29C
100
AcDbEntity
  8
0
100
AcDbLine
 62
7
  6
CONTINUOUS
 10
3.1022362683
 20
1.1182606347
 11
3.0895221016
 21
1.1256078109
  0
LINE
  5
29D
100
AcDbEntity
  8
0
100
AcDbLine
 62
7
  6
CONTINUOUS
 10
3.1022284849
 20
1.1391004729
 11
3.0895157417
 21
1.1464471938
  0
LINE
  5
29E
100
AcDbEntity
  8
0
100
AcDbLine
 62
7
  6
CONTINUOUS
 10
3.1022458876
 20
1.1807384913
 11
3.0894964204
 21
1.1881075368
  0
LINE
  5
29F
100
AcDbEntity
  8
0
100
AcDbLine
 62
7
  6
CONTINUOUS
 10
3.1022193964
 20
1.2016025619
 11
3.089495236
 21
1.2089570603
  0
LINE
  5
2A0
100
AcDbEntity
  8
0
100
AcDbLine
 62
7
  6
CONTINUOUS
 10
2.8212286938
 20
1.1873758366
 11
2.8339889623
 21
1.1799984382
  0
LINE
  5
2A1
100
AcDbEntity
  8
0
100
AcDbLine
 62
7
  6
CONTINUOUS
 10
3.1022225788
 20
1.1599013276
 11
3.0894510189
 21
1.1672857581
  0
LINE
  5
2A2
100
AcDbEntity
  8
0
100
AcDbLine
 62
7
  6
CONTINUOUS
 10
2.6888861548
 20
1.1069914596
 11
2.6890198784
 21
1.106876753
  0
LINE
  5
2A3
100
AcDbEntity
  8
0
100
AcDbLine
 62
7
  6
CONTINUOUS
 10
2.7131425423
 20
0.7160665304
 11
2.7132868789
 21
0.7159414596
  0
LINE
  5
2A4
100
AcDbEntity
  8
0
100
AcDbLine
 62
7
  6
CONTINUOUS
 10
2.6978065634
 20
1.0916545336
 11
2.6976618789
 21
1.0917814277
  0
LINE
  5
2A5
100
AcDbEntity
  8
0
100
AcDbLine
 62
7
  6
CONTINUOUS
 10
2.6970626073
 20
0.7007414596
 11
2.6969233427
 21
0.7008658604
  0
LINE
  5
2A6
100
AcDbEntity
  8
0
100
AcDbLine
 62
9
  6
CONTINUOUS
 10
3.0655626806
 20
1.1650639596
 11
3.0758714274
 21
1.1577316112
  0
LINE
  5
2A7
100
AcDbEntity
  8
0
100
AcDbLine
 62
7
  6
CONTINUOUS
 10
3.4852473443
 20
1.0712141088
 11
3.4850341492
 21
1.0713869276
  0
LINE
  5
2A8
100
AcDbEntity
  8
0
100
AcDbLine
 62
7
  6
CONTINUOUS
 10
3.4574710894
 20
1.0703475548
 11
3.4572561334
 21
1.0705220565
  0
LINE
  5
2A9
100
AcDbEntity
  8
0
100
AcDbLine
 62
7
  6
CONTINUOUS
 10
3.4296948158
 20
1.0694809866
 11
3.4294781623
 21
1.0696571868
  0
LINE
  5
2AA
100
AcDbEntity
  8
0
100
AcDbLine
 62
7
  6
CONTINUOUS
 10
3.4019185895
 20
1.0686144079
 11
3.401700236
 21
1.0687923185
  0
LINE
  5
2AB
100
AcDbEntity
  8
0
100
AcDbLine
 62
7
  6
CONTINUOUS
 10
3.5130214884
 20
1.0720806237
 11
3.5128122096
 21
1.0722518001
  0
LINE
  5
2AC
100
AcDbEntity
  8
0
100
AcDbLine
 62
7
  6
CONTINUOUS
 10
3.3837684165
 20
0.7396804325
 11
3.3839850109
 21
0.7394921659
  0
LINE
  5
2AD
100
AcDbEntity
  8
0
100
AcDbLine
 62
7
  6
CONTINUOUS
 10
3.4115470054
 20
0.7388152473
 11
3.4117627177
 21
0.7386273044
  0
LINE
  5
2AE
100
AcDbEntity
  8
0
100
AcDbLine
 62
7
  6
CONTINUOUS
 10
3.4393255447
 20
0.7379500552
 11
3.4395403776
 21
0.7377624444
  0
LINE
  5
2AF
100
AcDbEntity
  8
0
100
AcDbLine
 62
7
  6
CONTINUOUS
 10
3.4671041493
 20
0.7370848512
 11
3.4673179904
 21
0.7368975859
  0
LINE
  5
2B0
100
AcDbEntity
  8
0
100
AcDbLine
 62
7
  6
CONTINUOUS
 10
3.4948826038
 20
0.7362196404
 11
3.4950955561
 21
0.7360327288
  0
LINE
  5
2B1
100
AcDbEntity
  8
0
100
AcDbLine
 62
7
  6
CONTINUOUS
 10
2.7813024198
 20
1.2340384187
 11
2.8054743789
 21
1.2098664596
  0
LINE
  5
2B2
100
AcDbEntity
  8
0
100
AcDbLine
 62
7
  6
CONTINUOUS
 10
3.1179743789
 20
1.4193664596
 11
3.142146338
 21
1.3951945005
  0
LINE
  5
2B3
100
AcDbEntity
  8
0
100
AcDbLine
 62
7
  6
CONTINUOUS
 10
2.8339249161
 20
1.2008447087
 11
2.8337994166
 21
1.2009894295
  0
LINE
  5
2B4
100
AcDbEntity
  8
0
100
AcDbLine
 62
7
  6
CONTINUOUS
 10
3.0895221016
 20
1.1256078109
 11
3.0896493203
 21
1.125461025
  0
LINE
  5
2B5
100
AcDbEntity
  8
0
100
AcDbLine
 62
7
  6
CONTINUOUS
 10
2.8339485727
 20
1.1383326774
 11
2.8338188338
 21
1.1384826991
  0
LINE
  5
2B6
100
AcDbEntity
  8
0
100
AcDbLine
 62
7
  6
CONTINUOUS
 10
3.0895817148
 20
1.1671345571
 11
3.0894510189
 21
1.1672857581
  0
LINE
  5
2B7
100
AcDbEntity
  8
0
100
AcDbLine
 62
7
  6
CONTINUOUS
 10
2.8339389648
 20
1.1591671354
 11
2.8338104976
 21
1.1593157724
  0
LINE
  5
2B8
100
AcDbEntity
  8
0
100
AcDbLine
 62
7
  6
CONTINUOUS
 10
3.0895157417
 20
1.1464471938
 11
3.0896433192
 21
1.1462995512
  0
LINE
  5
2B9
100
AcDbEntity
  8
0
100
AcDbLine
 62
7
  6
CONTINUOUS
 10
3.0896228487
 20
1.2088093156
 11
3.089495236
 21
1.2089570603
  0
LINE
  5
2BA
100
AcDbEntity
  8
0
100
AcDbLine
 62
7
  6
CONTINUOUS
 10
2.6881368535
 20
0.716085032
 11
2.6958623762
 21
0.7027136632
  0
LINE
  5
2BB
100
AcDbEntity
  8
0
100
AcDbLine
 62
7
  6
CONTINUOUS
 10
2.7131425423
 20
0.7160665304
 11
2.7208581688
 21
0.7027109767
  0
LINE
  5
2BC
100
AcDbEntity
  8
0
100
AcDbLine
 62
9
  6
CONTINUOUS
 10
2.277097337
 20
0.7507631264
 11
2.277100359
 21
0.7507575719
  0
LINE
  5
2BD
100
AcDbEntity
  8
0
100
AcDbLine
 62
9
  6
CONTINUOUS
 10
2.4703483987
 20
0.6223303493
 11
2.4703514208
 21
0.6223247948
  0
LINE
  5
2BE
100
AcDbEntity
  8
0
100
AcDbLine
 62
9
  6
CONTINUOUS
 10
2.277100359
 20
1.18540257
 11
2.277097337
 21
1.1854081244
  0
LINE
  5
2BF
100
AcDbEntity
  8
0
100
AcDbLine
 62
9
  6
CONTINUOUS
 10
2.4703514208
 20
1.0569697929
 11
2.4703483987
 21
1.0569753473
  0
LINE
  5
2C0
100
AcDbEntity
  8
0
100
AcDbLine
 62
9
  6
CONTINUOUS
 10
2.6888861548
 20
1.1069806162
 11
2.6976618789
 21
1.0917814277
  0
LINE
  5
2C1
100
AcDbEntity
  8
0
100
AcDbLine
 62
7
  6
CONTINUOUS
 10
2.5573437119
 20
0.6584357653
 11
2.5162243789
 21
0.7466164596
  0
LINE
  5
2C2
100
AcDbEntity
  8
0
100
AcDbLine
 62
7
  6
CONTINUOUS
 10
2.5588790462
 20
0.6551432303
 11
2.557465584
 21
0.6584925952
  0
LINE
  5
2C3
100
AcDbEntity
  8
0
100
AcDbLine
 62
7
  6
CONTINUOUS
 10
5.1576347807
 20
0.7425849062
 11
5.1578597803
 21
0.7424000601
  0
LINE
  5
2C4
100
AcDbEntity
  8
0
100
AcDbLine
 62
7
  6
CONTINUOUS
 10
5.1854108751
 20
0.7434515175
 11
5.1856374845
 21
0.7432649215
  0
LINE
  5
2C5
100
AcDbEntity
  8
0
100
AcDbLine
 62
7
  6
CONTINUOUS
 10
3.3741002109
 20
0.756414169
 11
3.3795362973
 21
0.7470143978
  0
LINE
  5
2C6
100
AcDbEntity
  8
0
100
AcDbLine
 62
7
  6
CONTINUOUS
 10
3.4010758668
 20
0.7569366372
 11
3.4073149698
 21
0.7461482158
  0
LINE
  5
2C7
100
AcDbEntity
  8
0
100
AcDbLine
 62
7
  6
CONTINUOUS
 10
3.4288546591
 20
0.75607036
 11
3.4350936389
 21
0.7452819567
  0
LINE
  5
2C8
100
AcDbEntity
  8
0
100
AcDbLine
 62
7
  6
CONTINUOUS
 10
3.4566334475
 20
0.755204011
 11
3.4628723054
 21
0.7444156202
  0
LINE
  5
2C9
100
AcDbEntity
  8
0
100
AcDbLine
 62
7
  6
CONTINUOUS
 10
3.3841825691
 20
1.0503627664
 11
3.3757103184
 21
1.0650116027
  0
LINE
  5
2CA
100
AcDbEntity
  8
0
100
AcDbLine
 62
7
  6
CONTINUOUS
 10
3.4119585352
 20
1.0512289349
 11
3.4034864715
 21
1.0658777123
  0
LINE
  5
2CB
100
AcDbEntity
  8
0
100
AcDbLine
 62
7
  6
CONTINUOUS
 10
3.4844121728
 20
0.7543376934
 11
3.4939458415
 21
0.7378508548
  0
LINE
  5
2CC
100
AcDbEntity
  8
0
100
AcDbLine
 62
7
  6
CONTINUOUS
 10
2.6587243789
 20
1.1188664596
 11
2.6445343131
 21
1.1492971539
  0
LINE
  5
2CD
100
AcDbEntity
  8
0
100
AcDbLine
 62
7
  6
CONTINUOUS
 10
2.644412441
 20
1.149240324
 11
2.6429989788
 21
1.1525896889
  0
LINE
  5
2CE
100
AcDbEntity
  8
0
100
AcDbLine
 62
7
  6
CONTINUOUS
 10
2.6436299163
 20
1.1510895326
 11
2.6434369186
 21
1.1515491646
  0
LINE
  5
2CF
100
AcDbEntity
  8
0
100
AcDbLine
 62
7
  6
CONTINUOUS
 10
2.6430153937
 20
1.1525488741
 11
2.6429989788
 21
1.1525896889
  0
LINE
  5
2D0
100
AcDbEntity
  8
0
100
AcDbLine
 62
7
  6
CONTINUOUS
 10
5.175795029
 20
1.0645917906
 11
5.1755750378
 21
1.0647812929
  0
LINE
  5
2D1
100
AcDbEntity
  8
0
100
AcDbLine
 62
7
  6
CONTINUOUS
 10
3.4397345156
 20
1.052095177
 11
3.4312626367
 21
1.0667439037
  0
LINE
  5
2D2
100
AcDbEntity
  8
0
100
AcDbLine
 62
7
  6
CONTINUOUS
 10
3.4675105111
 20
1.0529614927
 11
3.4590388147
 21
1.067610177
  0
LINE
  5
2D3
100
AcDbEntity
  8
0
100
AcDbLine
 62
7
  6
CONTINUOUS
 10
3.4945042632
 20
1.0551803897
 11
3.4868150061
 21
1.0684765323
  0
LINE
  5
2D4
100
AcDbEntity
  8
0
100
AcDbLine
 62
7
  6
CONTINUOUS
 10
3.5167687082
 20
1.065576506
 11
3.5145911618
 21
1.0693422095
  0
LINE
  5
2D5
100
AcDbEntity
  8
0
100
AcDbLine
 62
7
  6
CONTINUOUS
 10
5.1983931669
 20
1.0620736806
 11
5.2242243789
 21
1.0345822636
  0
LINE
  5
2D6
100
AcDbEntity
  8
0
100
AcDbLine
 62
9
  6
CONTINUOUS
 10
2.2389743886
 20
0.9037920207
 11
2.2389743789
 21
0.9038674381
  0
LINE
  5
2D7
100
AcDbEntity
  8
0
100
AcDbLine
 62
7
  6
CONTINUOUS
 10
2.6792780365
 20
0.8866041414
 11
2.6784584896
 21
0.9252280886
  0
LINE
  5
2D8
100
AcDbEntity
  8
0
100
AcDbLine
 62
7
  6
CONTINUOUS
 10
2.6824030365
 20
0.8866041414
 11
2.6815834896
 21
0.9252280886
  0
LINE
  5
2D9
100
AcDbEntity
  8
0
100
AcDbLine
 62
7
  6
CONTINUOUS
 10
2.7044043092
 20
0.8806701337
 11
2.7036104842
 21
0.91808754
  0
LINE
  5
2DA
100
AcDbEntity
  8
0
100
AcDbLine
 62
7
  6
CONTINUOUS
 10
2.7067354524
 20
0.9180890351
 11
2.7075292784
 21
0.8806715782
  0
LINE
  5
2DB
100
AcDbEntity
  8
0
100
AcDbLine
 62
7
  6
CONTINUOUS
 10
2.5037243789
 20
1.0611164596
 11
2.5037243789
 21
0.7466164596
  0
LINE
  5
2DC
100
AcDbEntity
  8
0
100
AcDbLine
 62
7
  6
CONTINUOUS
 10
2.5162243789
 20
0.7466164596
 11
2.5162243789
 21
1.0611164596
  0
LINE
  5
2DD
100
AcDbEntity
  8
0
100
AcDbLine
 62
7
  6
CONTINUOUS
 10
2.6587243789
 20
1.1188664596
 11
2.6587243789
 21
0.6888664596
  0
LINE
  5
2DE
100
AcDbEntity
  8
0
100
AcDbLine
 62
7
  6
CONTINUOUS
 10
2.6712243789
 20
1.1188329169
 11
2.6712243789
 21
0.6891393128
  0
LINE
  5
2DF
100
AcDbEntity
  8
0
100
AcDbLine
 62
7
  6
CONTINUOUS
 10
5.203145887
 20
0.7616999295
 11
5.2052238738
 21
0.7581076981
  0
LINE
  5
2E0
100
AcDbEntity
  8
0
100
AcDbLine
 62
7
  6
CONTINUOUS
 10
5.1528205049
 20
0.7509323316
 11
5.1560668325
 21
0.7453191592
  0
LINE
  5
2E1
100
AcDbEntity
  8
0
100
AcDbLine
 62
7
  6
CONTINUOUS
 10
5.1753699221
 20
0.7608341036
 11
5.1838429437
 21
0.7461849472
  0
LINE
  5
2E2
100
AcDbEntity
  8
0
100
AcDbLine
 62
7
  6
CONTINUOUS
 10
2.7429743789
 20
10.5850496174
 11
2.7429743789
 21
10.7876833018
  0
LINE
  5
2E3
100
AcDbEntity
  8
0
100
AcDbLine
 62
7
  6
CONTINUOUS
 10
2.7449743789
 20
10.7888664596
 11
2.7449743789
 21
10.8338664596
  0
LINE
  5
2E4
100
AcDbEntity
  8
0
100
AcDbLine
 62
7
  6
CONTINUOUS
 10
2.7492243789
 20
1.1069599133
 11
2.7492243789
 21
0.7007730059
  0
LINE
  5
2E5
100
AcDbEntity
  8
0
100
AcDbLine
 62
7
  6
CONTINUOUS
 10
2.7575508553
 20
10.7697881131
 11
2.7575508553
 21
10.6029448061
  0
LINE
  5
2E6
100
AcDbEntity
  8
0
100
AcDbLine
 62
7
  6
CONTINUOUS
 10
2.7813024198
 20
1.2340384187
 11
2.7813024198
 21
1.3951945005
  0
LINE
  5
2E7
100
AcDbEntity
  8
0
100
AcDbLine
 62
7
  6
CONTINUOUS
 10
2.7992243789
 20
1.1038664596
 11
2.7992243789
 21
0.7038664596
  0
LINE
  5
2E8
100
AcDbEntity
  8
0
100
AcDbLine
 62
7
  6
CONTINUOUS
 10
2.8210993789
 20
1.1910516112
 11
2.8210993789
 21
1.187486308
  0
LINE
  5
2E9
100
AcDbEntity
  8
0
100
AcDbLine
 62
7
  6
CONTINUOUS
 10
2.8210993789
 20
1.1702166112
 11
2.8210993789
 21
1.166651308
  0
LINE
  5
2EA
100
AcDbEntity
  8
0
100
AcDbLine
 62
7
  6
CONTINUOUS
 10
2.8210993789
 20
1.1493816112
 11
2.8210993789
 21
1.145816308
  0
LINE
  5
2EB
100
AcDbEntity
  8
0
100
AcDbLine
 62
7
  6
CONTINUOUS
 10
2.8337994166
 20
1.2009894295
 11
2.8337994166
 21
1.1983844295
  0
LINE
  5
2EC
100
AcDbEntity
  8
0
100
AcDbLine
 62
7
  6
CONTINUOUS
 10
2.8338017057
 20
1.1150639596
 11
2.8338017057
 21
1.1176689596
  0
LINE
  5
2ED
100
AcDbEntity
  8
0
100
AcDbLine
 62
7
  6
CONTINUOUS
 10
2.8338104976
 20
1.1593157724
 11
2.8338104976
 21
1.1567107724
  0
LINE
  5
2EE
100
AcDbEntity
  8
0
100
AcDbLine
 62
7
  6
CONTINUOUS
 10
2.8338188338
 20
1.1384826991
 11
2.8338188338
 21
1.1358776991
  0
LINE
  5
2EF
100
AcDbEntity
  8
0
100
AcDbLine
 62
7
  6
CONTINUOUS
 10
2.8338587355
 20
1.1801491231
 11
2.8338587355
 21
1.1775441231
  0
LINE
  5
2F0
100
AcDbEntity
  8
0
100
AcDbLine
 62
7
  6
CONTINUOUS
 10
2.8404743789
 20
10.5523664596
 11
2.8404743789
 21
10.5838664596
  0
LINE
  5
2F1
100
AcDbEntity
  8
0
100
AcDbLine
 62
7
  6
CONTINUOUS
 10
2.8679743789
 20
1.4193664596
 11
2.8679743789
 21
10.5523664596
  0
LINE
  5
2F2
100
AcDbEntity
  8
0
100
AcDbLine
 62
7
  6
CONTINUOUS
 10
2.8715133993
 20
1.2340384187
 11
2.8715133993
 21
1.3951945005
  0
LINE
  5
2F3
100
AcDbEntity
  8
0
100
AcDbLine
 62
7
  6
CONTINUOUS
 10
2.9471479024
 20
10.6029448061
 11
2.9471479024
 21
10.7697881131
  0
LINE
  5
2F4
100
AcDbEntity
  8
0
100
AcDbLine
 62
7
  6
CONTINUOUS
 10
2.9763008553
 20
10.7697881131
 11
2.9763008553
 21
10.6029448061
  0
LINE
  5
2F5
100
AcDbEntity
  8
0
100
AcDbLine
 62
7
  6
CONTINUOUS
 10
2.8210993789
 20
1.1285466112
 11
2.8210993789
 21
1.1038664596
  0
LINE
  5
2F6
100
AcDbEntity
  8
0
100
AcDbLine
 62
7
  6
CONTINUOUS
 10
5.1584881188
 20
1.0473318808
 11
5.1492243789
 21
1.0633499719
  0
LINE
  5
2F7
100
AcDbEntity
  8
0
100
AcDbLine
 62
7
  6
CONTINUOUS
 10
5.1862669452
 20
1.0464659532
 11
5.1800272446
 21
1.0572544799
  0
LINE
  5
2F8
100
AcDbEntity
  8
0
100
AcDbLine
 62
7
  6
CONTINUOUS
 10
3.0519353584
 20
1.2340384187
 11
3.0519353584
 21
1.3951945005
  0
LINE
  5
2F9
100
AcDbEntity
  8
0
100
AcDbLine
 62
7
  6
CONTINUOUS
 10
3.0554743789
 20
10.5523664596
 11
3.0554743789
 21
1.4193664596
  0
LINE
  5
2FA
100
AcDbEntity
  8
0
100
AcDbLine
 62
9
  6
CONTINUOUS
 10
3.0655626806
 20
1.1676689596
 11
3.0655626806
 21
1.1650639596
  0
LINE
  5
2FB
100
AcDbEntity
  8
0
100
AcDbLine
 62
7
  6
CONTINUOUS
 10
3.0829743789
 20
10.5838664596
 11
3.0829743789
 21
10.5523664596
  0
LINE
  5
2FC
100
AcDbEntity
  8
0
100
AcDbLine
 62
7
  6
CONTINUOUS
 10
3.0895817148
 20
1.1671345571
 11
3.0895817148
 21
1.1697395571
  0
LINE
  5
2FD
100
AcDbEntity
  8
0
100
AcDbLine
 62
7
  6
CONTINUOUS
 10
3.0896253724
 20
1.1879586941
 11
3.0896253724
 21
1.1905636941
  0
LINE
  5
2FE
100
AcDbEntity
  8
0
100
AcDbLine
 62
7
  6
CONTINUOUS
 10
3.0896433192
 20
1.1462995512
 11
3.0896433192
 21
1.1489045512
  0
LINE
  5
2FF
100
AcDbEntity
  8
0
100
AcDbLine
 62
7
  6
CONTINUOUS
 10
3.0896493203
 20
1.125461025
 11
3.0896493203
 21
1.128066025
  0
LINE
  5
300
100
AcDbEntity
  8
0
100
AcDbLine
 62
7
  6
CONTINUOUS
 10
3.1023493789
 20
1.1038664596
 11
3.1023493789
 21
1.1181291112
  0
LINE
  5
301
100
AcDbEntity
  8
0
100
AcDbLine
 62
7
  6
CONTINUOUS
 10
3.1023493789
 20
1.135398808
 11
3.1023493789
 21
1.1389641112
  0
LINE
  5
302
100
AcDbEntity
  8
0
100
AcDbLine
 62
7
  6
CONTINUOUS
 10
3.1023493789
 20
1.156233808
 11
3.1023493789
 21
1.1597991112
  0
LINE
  5
303
100
AcDbEntity
  8
0
100
AcDbLine
 62
7
  6
CONTINUOUS
 10
3.1023493789
 20
1.177068808
 11
3.1023493789
 21
1.1806341112
  0
LINE
  5
304
100
AcDbEntity
  8
0
100
AcDbLine
 62
7
  6
CONTINUOUS
 10
3.1023493789
 20
1.197903808
 11
3.1023493789
 21
1.2014691112
  0
LINE
  5
305
100
AcDbEntity
  8
0
100
AcDbLine
 62
7
  6
CONTINUOUS
 10
3.1242243789
 20
1.1038664596
 11
3.1242243789
 21
0.7038664596
  0
LINE
  5
306
100
AcDbEntity
  8
0
100
AcDbLine
 62
7
  6
CONTINUOUS
 10
3.142146338
 20
1.2340384187
 11
3.142146338
 21
1.3951945005
  0
LINE
  5
307
100
AcDbEntity
  8
0
100
AcDbLine
 62
7
  6
CONTINUOUS
 10
3.1658979024
 20
10.6029448061
 11
3.1658979024
 21
10.7697881131
  0
LINE
  5
308
100
AcDbEntity
  8
0
100
AcDbLine
 62
7
  6
CONTINUOUS
 10
3.1784743789
 20
10.7888664596
 11
3.1784743789
 21
10.8338664596
  0
LINE
  5
309
100
AcDbEntity
  8
0
100
AcDbLine
 62
7
  6
CONTINUOUS
 10
3.1804743789
 20
10.7876833018
 11
3.1804743789
 21
10.5850496174
  0
LINE
  5
30A
100
AcDbEntity
  8
0
100
AcDbLine
 62
7
  6
CONTINUOUS
 10
3.2117243789
 20
0.7088664596
 11
3.2117243789
 21
1.0988664596
  0
LINE
  5
30B
100
AcDbEntity
  8
0
100
AcDbLine
 62
7
  6
CONTINUOUS
 10
3.3741002109
 20
1.0738664596
 11
3.3741002109
 21
0.7338664596
  0
LINE
  5
30C
100
AcDbEntity
  8
0
100
AcDbLine
 62
7
  6
CONTINUOUS
 10
3.5163416489
 20
1.0216170036
 11
3.5163416489
 21
0.8868310022
  0
LINE
  5
30D
100
AcDbEntity
  8
0
100
AcDbLine
 62
7
  6
CONTINUOUS
 10
3.5207523714
 20
1.0465857343
 11
3.5207462887
 21
1.0676164596
  0
LINE
  5
30E
100
AcDbEntity
  8
0
100
AcDbLine
 62
7
  6
CONTINUOUS
 10
3.5210868789
 20
0.7401164596
 11
3.5210868789
 21
0.7637431819
  0
LINE
  5
30F
100
AcDbEntity
  8
0
100
AcDbLine
 62
7
  6
CONTINUOUS
 10
3.5242243789
 20
1.0692383197
 11
3.5242243789
 21
0.7384945995
  0
LINE
  5
310
100
AcDbEntity
  8
0
100
AcDbLine
 62
7
  6
CONTINUOUS
 10
3.5314688233
 20
1.0726164596
 11
3.5314688233
 21
0.7351164596
  0
LINE
  5
311
100
AcDbEntity
  8
0
100
AcDbLine
 62
7
  6
CONTINUOUS
 10
2.558250265
 20
1.151094654
 11
2.5588790462
 21
1.1525896889
  0
LINE
  5
312
100
AcDbEntity
  8
0
100
AcDbLine
 62
7
  6
CONTINUOUS
 10
2.557465584
 20
1.149240324
 11
2.5588790462
 21
1.1525896889
  0
LINE
  5
313
100
AcDbEntity
  8
0
100
AcDbLine
 62
7
  6
CONTINUOUS
 10
4.8992243789
 20
0.6631773536
 11
4.8999722718
 21
0.6571081444
  0
LINE
  5
314
100
AcDbEntity
  8
0
100
AcDbLine
 62
7
  6
CONTINUOUS
 10
2.6429989788
 20
0.6551432303
 11
2.6430154697
 21
0.6551841244
  0
LINE
  5
315
100
AcDbEntity
  8
0
100
AcDbLine
 62
7
  6
CONTINUOUS
 10
2.6430154697
 20
0.6551841244
 11
2.644412441
 21
0.6584925952
  0
LINE
  5
316
100
AcDbEntity
  8
0
100
AcDbLine
 62
7
  6
CONTINUOUS
 10
2.5162243789
 20
1.0611164596
 11
2.5573437119
 21
1.1492971539
  0
LINE
  5
317
100
AcDbEntity
  8
0
100
AcDbLine
 62
7
  6
CONTINUOUS
 10
2.6445343131
 20
0.6584357653
 11
2.6587243789
 21
0.6888664596
  0
LINE
  5
318
100
AcDbEntity
  8
0
100
AcDbLine
 62
9
  6
CONTINUOUS
 10
2.2771005421
 20
1.0569756837
 11
2.277097337
 21
1.0569697929
  0
LINE
  5
319
100
AcDbEntity
  8
0
100
AcDbLine
 62
9
  6
CONTINUOUS
 10
2.4703514208
 20
1.1854081244
 11
2.4703482157
 21
1.1854022336
  0
LINE
  5
31A
100
AcDbEntity
  8
0
100
AcDbLine
 62
9
  6
CONTINUOUS
 10
2.277097337
 20
0.6223247948
 11
2.2771005421
 21
0.6223306856
  0
LINE
  5
31B
100
AcDbEntity
  8
0
100
AcDbLine
 62
7
  6
CONTINUOUS
 10
4.8992243789
 20
1.1445555657
 11
4.8992243789
 21
0.6632148513
  0
LINE
  5
31C
100
AcDbEntity
  8
0
100
AcDbLine
 62
9
  6
CONTINUOUS
 10
4.8999722718
 20
0.6571081444
 11
4.8999722718
 21
1.1503452814
  0
LINE
  5
31D
100
AcDbEntity
  8
0
100
AcDbLine
 62
9
  6
CONTINUOUS
 10
5.0462483535
 20
1.4747250384
 11
5.0462483535
 21
0.3330078808
  0
LINE
  5
31E
100
AcDbEntity
  8
0
100
AcDbLine
 62
7
  6
CONTINUOUS
 10
5.1492243789
 20
1.5288664596
 11
5.1492243789
 21
0.2788664596
  0
LINE
  5
31F
100
AcDbEntity
  8
0
100
AcDbLine
 62
7
  6
CONTINUOUS
 10
5.2242243789
 20
1.0345822636
 11
5.2242243789
 21
0.7731506556
  0
LINE
  5
320
100
AcDbEntity
  8
0
100
AcDbLine
 62
9
  6
CONTINUOUS
 10
2.4703482157
 20
0.7507572355
 11
2.4703514208
 21
0.7507631264
  0
LINE
  5
321
100
AcDbEntity
  8
0
100
AcDbLine
 62
9
  6
CONTINUOUS
 10
2.7007868789
 20
1.0917814277
 11
2.709562603
 21
1.1069806162
  0
LINE
  5
322
100
AcDbEntity
  8
0
100
AcDbLine
 62
7
  6
CONTINUOUS
 10
2.6844271895
 20
1.10687376
 11
2.6756407491
 21
1.091664714
  0
LINE
  5
323
100
AcDbEntity
  8
0
100
AcDbLine
 62
7
  6
CONTINUOUS
 10
4.8992243789
 20
1.1445555657
 11
4.8999722718
 21
1.1506247748
  0
LINE
  5
324
100
AcDbEntity
  8
0
100
AcDbLine
 62
7
  6
CONTINUOUS
 10
2.6765018769
 20
0.7008513534
 11
2.6853038584
 21
0.7160858872
  0
LINE
  5
325
100
AcDbEntity
  8
0
100
AcDbLine
 62
7
  6
CONTINUOUS
 10
2.7015188688
 20
0.7008557698
 11
2.7103062149
 21
0.7160665294
  0
LINE
  5
326
100
AcDbEntity
  8
0
100
AcDbLine
 62
7
  6
CONTINUOUS
 10
3.4254442987
 20
1.069350506
 11
3.4149652635
 21
1.0512294117
  0
LINE
  5
327
100
AcDbEntity
  8
0
100
AcDbLine
 62
7
  6
CONTINUOUS
 10
3.453222252
 20
1.0702156855
 11
3.4427440537
 21
1.0520957247
  0
LINE
  5
328
100
AcDbEntity
  8
0
100
AcDbLine
 62
7
  6
CONTINUOUS
 10
3.4810001624
 20
1.0710808743
 11
3.4705228403
 21
1.0529621097
  0
LINE
  5
329
100
AcDbEntity
  8
0
100
AcDbLine
 62
7
  6
CONTINUOUS
 10
3.5087780283
 20
1.071946075
 11
3.5007771813
 21
1.0581092762
  0
LINE
  5
32A
100
AcDbEntity
  8
0
100
AcDbLine
 62
7
  6
CONTINUOUS
 10
3.4991203916
 20
0.7360860269
 11
3.5056364744
 21
0.7473542797
  0
LINE
  5
32B
100
AcDbEntity
  8
0
100
AcDbLine
 62
7
  6
CONTINUOUS
 10
3.3976663008
 20
1.0684853343
 11
3.3871864689
 21
1.0503631703
  0
LINE
  5
32C
100
AcDbEntity
  8
0
100
AcDbLine
 62
7
  6
CONTINUOUS
 10
3.3880162371
 20
0.7395522665
 11
3.3980705504
 21
0.7569370777
  0
LINE
  5
32D
100
AcDbEntity
  8
0
100
AcDbLine
 62
7
  6
CONTINUOUS
 10
3.4157921759
 20
0.7386856914
 11
3.4258465236
 21
0.7560708725
  0
LINE
  5
32E
100
AcDbEntity
  8
0
100
AcDbLine
 62
7
  6
CONTINUOUS
 10
3.4435681804
 20
0.7378191255
 11
3.4536225114
 21
0.7552045936
  0
LINE
  5
32F
100
AcDbEntity
  8
0
100
AcDbLine
 62
7
  6
CONTINUOUS
 10
3.471344252
 20
0.7369525702
 11
3.4813986038
 21
0.7543383951
  0
LINE
  5
330
100
AcDbEntity
  8
0
100
AcDbLine
 62
7
  6
CONTINUOUS
 10
2.8210993789
 20
1.1910516112
 11
2.8212101884
 21
1.1911832593
  0
LINE
  5
331
100
AcDbEntity
  8
0
100
AcDbLine
 62
7
  6
CONTINUOUS
 10
2.8210993789
 20
1.1702166112
 11
2.8212117017
 21
1.1703491553
  0
LINE
  5
332
100
AcDbEntity
  8
0
100
AcDbLine
 62
7
  6
CONTINUOUS
 10
2.8210993789
 20
1.1493816112
 11
2.8212119533
 21
1.1495143037
  0
LINE
  5
333
100
AcDbEntity
  8
0
100
AcDbLine
 62
7
  6
CONTINUOUS
 10
2.8338587355
 20
1.1775441231
 11
2.8339896146
 21
1.1776953741
  0
LINE
  5
334
100
AcDbEntity
  8
0
100
AcDbLine
 62
7
  6
CONTINUOUS
 10
2.8339488672
 20
1.1360279764
 11
2.8338188338
 21
1.1358776991
  0
LINE
  5
335
100
AcDbEntity
  8
0
100
AcDbLine
 62
7
  6
CONTINUOUS
 10
2.8339399335
 20
1.1568602498
 11
2.8338104976
 21
1.1567107724
  0
LINE
  5
336
100
AcDbEntity
  8
0
100
AcDbLine
 62
7
  6
CONTINUOUS
 10
2.8210993789
 20
1.1285466112
 11
2.8212166564
 21
1.1286820475
  0
LINE
  5
337
100
AcDbEntity
  8
0
100
AcDbLine
 62
7
  6
CONTINUOUS
 10
2.8337994166
 20
1.1983844295
 11
2.8339246328
 21
1.198528832
  0
LINE
  5
338
100
AcDbEntity
  8
0
100
AcDbLine
 62
7
  6
CONTINUOUS
 10
3.1023493789
 20
1.156233808
 11
3.1022378156
 21
1.156101713
  0
LINE
  5
339
100
AcDbEntity
  8
0
100
AcDbLine
 62
7
  6
CONTINUOUS
 10
3.1023493789
 20
1.135398808
 11
3.1022353763
 21
1.1352652764
  0
LINE
  5
33A
100
AcDbEntity
  8
0
100
AcDbLine
 62
7
  6
CONTINUOUS
 10
3.1023493789
 20
1.177068808
 11
3.1022333522
 21
1.1769340961
  0
LINE
  5
33B
100
AcDbEntity
  8
0
100
AcDbLine
 62
7
  6
CONTINUOUS
 10
3.0894979957
 20
1.190416218
 11
3.0896253724
 21
1.1905636941
  0
LINE
  5
33C
100
AcDbEntity
  8
0
100
AcDbLine
 62
7
  6
CONTINUOUS
 10
3.0894506235
 20
1.1695880132
 11
3.0895817148
 21
1.1697395571
  0
LINE
  5
33D
100
AcDbEntity
  8
0
100
AcDbLine
 62
7
  6
CONTINUOUS
 10
3.089514486
 20
1.1487558195
 11
3.0896433192
 21
1.1489045512
  0
LINE
  5
33E
100
AcDbEntity
  8
0
100
AcDbLine
 62
7
  6
CONTINUOUS
 10
3.0895224597
 20
1.1279196338
 11
3.0896493203
 21
1.128066025
  0
LINE
  5
33F
100
AcDbEntity
  8
0
100
AcDbLine
 62
7
  6
CONTINUOUS
 10
2.8210993789
 20
1.1077116112
 11
2.8212212603
 21
1.1078496806
  0
LINE
  5
340
100
AcDbEntity
  8
0
100
AcDbLine
 62
7
  6
CONTINUOUS
 10
3.1023493789
 20
1.197903808
 11
3.1022200386
 21
1.1977615759
  0
LINE
  5
341
100
AcDbEntity
  8
0
100
AcDbLine
 62
7
  6
CONTINUOUS
 10
2.8339468302
 20
1.1151954182
 11
2.8338191905
 21
1.1150639596
  0
LINE
  5
342
100
AcDbEntity
  8
0
100
AcDbLine
 62
7
  6
CONTINUOUS
 10
2.8054743789
 20
1.4193664596
 11
2.7813024198
 21
1.3951945005
  0
LINE
  5
343
100
AcDbEntity
  8
0
100
AcDbLine
 62
7
  6
CONTINUOUS
 10
3.142146338
 20
1.2340384187
 11
3.1179743789
 21
1.2098664596
  0
LINE
  5
344
100
AcDbEntity
  8
0
100
AcDbLine
 62
7
  6
CONTINUOUS
 10
2.709562603
 20
1.1069914596
 11
2.7094240285
 21
1.1068682809
  0
LINE
  5
345
100
AcDbEntity
  8
0
100
AcDbLine
 62
7
  6
CONTINUOUS
 10
2.6845626037
 20
1.1069914596
 11
2.6844271458
 21
1.10687376
  0
LINE
  5
346
100
AcDbEntity
  8
0
100
AcDbLine
 62
7
  6
CONTINUOUS
 10
2.6853038584
 20
0.7160858872
 11
2.685157485
 21
0.715959112
  0
LINE
  5
347
100
AcDbEntity
  8
0
100
AcDbLine
 62
7
  6
CONTINUOUS
 10
2.6757841778
 20
1.0917886863
 11
2.6756407491
 21
1.091664714
  0
LINE
  5
348
100
AcDbEntity
  8
0
100
AcDbLine
 62
7
  6
CONTINUOUS
 10
2.734562603
 20
1.1069914596
 11
2.7344288787
 21
1.1068767519
  0
LINE
  5
349
100
AcDbEntity
  8
0
100
AcDbLine
 62
7
  6
CONTINUOUS
 10
2.7103062149
 20
0.7160665294
 11
2.7101618789
 21
0.7159414596
  0
LINE
  5
34A
100
AcDbEntity
  8
0
100
AcDbLine
 62
7
  6
CONTINUOUS
 10
2.7013861548
 20
0.7007414596
 11
2.7015196468
 21
0.7008557693
  0
LINE
  5
34B
100
AcDbEntity
  8
0
100
AcDbLine
 62
7
  6
CONTINUOUS
 10
2.6763861506
 20
0.7007414596
 11
2.6765170369
 21
0.7008513437
  0
LINE
  5
34C
100
AcDbEntity
  8
0
100
AcDbLine
 62
9
  6
CONTINUOUS
 10
3.0758714274
 20
1.175001308
 11
3.0655626806
 21
1.1676689596
  0
LINE
  5
34D
100
AcDbEntity
  8
0
100
AcDbLine
 62
7
  6
CONTINUOUS
 10
2.8339246328
 20
1.198528832
 11
2.8230335938
 21
1.19223521
  0
LINE
  5
34E
100
AcDbEntity
  8
0
100
AcDbLine
 62
7
  6
CONTINUOUS
 10
5.1715356547
 20
1.064714291
 11
5.161481966
 21
1.0473317473
  0
LINE
  5
34F
100
AcDbEntity
  8
0
100
AcDbLine
 62
7
  6
CONTINUOUS
 10
5.198255975
 20
1.0620228671
 11
5.1892578754
 21
1.0464659013
  0
LINE
  5
350
100
AcDbEntity
  8
0
100
AcDbLine
 62
7
  6
CONTINUOUS
 10
5.1618949241
 20
0.7427082242
 11
5.1723775309
 21
0.7608340107
  0
LINE
  5
351
100
AcDbEntity
  8
0
100
AcDbLine
 62
7
  6
CONTINUOUS
 10
5.1896731743
 20
0.7435733809
 11
5.2001563621
 21
0.7616998936
  0
LINE
  5
352
100
AcDbEntity
  8
0
100
AcDbLine
 62
7
  6
CONTINUOUS
 10
2.8339896146
 20
1.1776953741
 11
2.8230883206
 21
1.1713926425
  0
LINE
  5
353
100
AcDbEntity
  8
0
100
AcDbLine
 62
7
  6
CONTINUOUS
 10
3.0894506235
 20
1.1695880132
 11
3.100239307
 21
1.1758260576
  0
LINE
  5
354
100
AcDbEntity
  8
0
100
AcDbLine
 62
7
  6
CONTINUOUS
 10
2.8339399335
 20
1.1568602498
 11
2.8230374374
 21
1.1505592683
  0
LINE
  5
355
100
AcDbEntity
  8
0
100
AcDbLine
 62
7
  6
CONTINUOUS
 10
2.8339488672
 20
1.1360279764
 11
2.823041429
 21
1.1297236999
  0
LINE
  5
356
100
AcDbEntity
  8
0
100
AcDbLine
 62
7
  6
CONTINUOUS
 10
3.0894979957
 20
1.190416218
 11
3.1003052171
 21
1.1966626798
  0
LINE
  5
357
100
AcDbEntity
  8
0
100
AcDbLine
 62
7
  6
CONTINUOUS
 10
3.089514486
 20
1.1487558195
 11
3.1003007138
 21
1.1549893357
  0
LINE
  5
358
100
AcDbEntity
  8
0
100
AcDbLine
 62
7
  6
CONTINUOUS
 10
3.0895224597
 20
1.1279196338
 11
3.1003039688
 21
1.1341500414
  0
LINE
  5
359
100
AcDbEntity
  8
0
100
AcDbLine
 62
7
  6
CONTINUOUS
 10
2.8339468302
 20
1.1151954182
 11
2.8211019367
 21
1.1077316112
  0
LINE
  5
35A
100
AcDbEntity
  8
0
100
AcDbLine
 62
7
  6
CONTINUOUS
 10
3.4943243969
 20
1.0552957291
 11
3.5010842846
 21
1.0584479165
  0
LINE
  5
35B
100
AcDbEntity
  8
0
100
AcDbLine
 62
7
  6
CONTINUOUS
 10
3.5166048254
 20
1.0656852635
 11
3.5207462887
 21
1.0676164596
  0
LINE
  5
35C
100
AcDbEntity
  8
0
100
AcDbLine
 62
7
  6
CONTINUOUS
 10
3.5242243789
 20
1.0692383197
 11
3.5314688233
 21
1.0726164596
  0
LINE
  5
35D
100
AcDbEntity
  8
0
100
AcDbLine
 62
7
  6
CONTINUOUS
 10
2.7449743789
 20
10.5838664596
 11
2.7429743789
 21
10.5850495992
  0
LINE
  5
35E
100
AcDbEntity
  8
0
100
AcDbLine
 62
7
  6
CONTINUOUS
 10
5.2242243789
 20
0.7731506556
 11
5.2071493067
 21
0.7549781467
  0
LINE
  5
35F
100
AcDbEntity
  8
0
100
AcDbLine
 62
7
  6
CONTINUOUS
 10
3.1804743789
 20
10.7876833201
 11
3.1784743789
 21
10.7888664596
  0
LINE
  5
360
100
AcDbEntity
  8
0
100
AcDbLine
 62
7
  6
CONTINUOUS
 10
3.0829743789
 20
10.5523664596
 11
2.8404743789
 21
10.5523664596
  0
LINE
  5
361
100
AcDbEntity
  8
0
100
AcDbLine
 62
7
  6
CONTINUOUS
 10
2.7450080043
 20
10.5838664596
 11
3.1784407535
 21
10.5838664596
  0
LINE
  5
362
100
AcDbEntity
  8
0
100
AcDbLine
 62
7
  6
CONTINUOUS
 10
2.7429743789
 20
10.6029448061
 11
2.7575508553
 21
10.6029448061
  0
LINE
  5
363
100
AcDbEntity
  8
0
100
AcDbLine
 62
7
  6
CONTINUOUS
 10
2.9471479024
 20
10.6029448061
 11
2.9763008553
 21
10.6029448061
  0
LINE
  5
364
100
AcDbEntity
  8
0
100
AcDbLine
 62
7
  6
CONTINUOUS
 10
3.1658979024
 20
10.6029448061
 11
3.1804743789
 21
10.6029448061
  0
LINE
  5
365
100
AcDbEntity
  8
0
100
AcDbLine
 62
7
  6
CONTINUOUS
 10
3.1804743789
 20
10.7697881131
 11
3.1658979024
 21
10.7697881131
  0
LINE
  5
366
100
AcDbEntity
  8
0
100
AcDbLine
 62
7
  6
CONTINUOUS
 10
2.9763008553
 20
10.7697881131
 11
2.9471479024
 21
10.7697881131
  0
LINE
  5
367
100
AcDbEntity
  8
0
100
AcDbLine
 62
7
  6
CONTINUOUS
 10
2.7575508553
 20
10.7697881131
 11
2.7429743789
 21
10.7697881131
  0
LINE
  5
368
100
AcDbEntity
  8
0
100
AcDbLine
 62
7
  6
CONTINUOUS
 10
2.7449743789
 20
10.7888664596
 11
3.1784743789
 21
10.7888664596
  0
LINE
  5
369
100
AcDbEntity
  8
0
100
AcDbLine
 62
7
  6
CONTINUOUS
 10
2.7450080482
 20
10.8338664596
 11
3.1784407096
 21
10.8338664596
  0
ARC
  5
36A
100
AcDbEntity
  8
0
100
AcDbCircle
 62
7
  6
CONTINUOUS
 10
-26.3949230858
 20
0.3617118173
 40
29.0907697614
100
AcDbArc
 50
1.1059072522
 51
1.2842168675
  0
ARC
  5
36B
100
AcDbEntity
  8
0
100
AcDbCircle
 62
7
  6
CONTINUOUS
 10
-25.2478859478
 20
0.3820678073
 40
27.968552487
100
AcDbArc
 50
1.1052887864
 51
1.3077435311
  0
ARC
  5
36C
100
AcDbEntity
  8
0
100
AcDbCircle
 62
7
  6
CONTINUOUS
 10
-22.7854200207
 20
0.433093738
 40
25.4848934385
100
AcDbArc
 50
1.098263998
 51
1.320436505
  0
ARC
  5
36D
100
AcDbEntity
  8
0
100
AcDbCircle
 62
7
  6
CONTINUOUS
 10
-16.6014645552
 20
0.5268679989
 40
19.2871623796
100
AcDbArc
 50
1.1834802092
 51
1.4471693512
  0
ARC
  5
36E
100
AcDbEntity
  8
0
100
AcDbCircle
 62
7
  6
CONTINUOUS
 10
-16.6045895548
 20
0.5268679989
 40
19.2871623792
100
AcDbArc
 50
1.1834802092
 51
1.4471693512
  0
ARC
  5
36F
100
AcDbEntity
  8
0
100
AcDbCircle
 62
7
  6
CONTINUOUS
 10
-16.0283429885
 20
0.5369793447
 40
18.7358299618
100
AcDbArc
 50
1.1655420264
 51
1.4808125138
  0
ARC
  5
370
100
AcDbEntity
  8
0
100
AcDbCircle
 62
7
  6
CONTINUOUS
 10
-16.0245272934
 20
0.5369951598
 40
18.7351390866
100
AcDbArc
 50
1.1655412103
 51
1.4808238912
  0
ARC
  5
371
100
AcDbEntity
  8
0
100
AcDbCircle
 62
7
  6
CONTINUOUS
 10
-11.2747826631
 20
0.4536507149
 40
16.4357284933
100
AcDbArc
 50
1.5111318508
 51
1.6289899992
  0
ARC
  5
372
100
AcDbEntity
  8
0
100
AcDbCircle
 62
7
  6
CONTINUOUS
 10
-4.4647351432
 20
0.851340177
 40
7.1551124092
100
AcDbArc
 50
1.4262702492
 51
1.543285538
  0
ARC
  5
373
100
AcDbEntity
  8
0
100
AcDbCircle
 62
7
  6
CONTINUOUS
 10
-4.2390411834
 20
0.8332662022
 40
6.9209465484
100
AcDbArc
 50
1.4961357275
 51
1.6206031897
  0
ARC
  5
374
100
AcDbEntity
  8
0
100
AcDbCircle
 62
7
  6
CONTINUOUS
 10
-4.2421661822
 20
0.8332662022
 40
6.9209465471
100
AcDbArc
 50
1.4961357274
 51
1.6206031897
  0
ARC
  5
375
100
AcDbEntity
  8
0
100
AcDbCircle
 62
7
  6
CONTINUOUS
 10
-3.6210158808
 20
0.8727299734
 40
6.336114228
100
AcDbArc
 50
1.462428694
 51
1.5806208218
  0
ARC
  5
376
100
AcDbEntity
  8
0
100
AcDbCircle
 62
7
  6
CONTINUOUS
 10
-3.2590704045
 20
0.8827307839
 40
5.953362059
100
AcDbArc
 50
1.4600734013
 51
1.5858725699
  0
ARC
  5
377
100
AcDbEntity
  8
0
100
AcDbCircle
 62
7
  6
CONTINUOUS
 10
-3.0988984525
 20
0.8641383278
 40
5.802253219
100
AcDbArc
 50
1.5506790087
 51
1.689251241
  0
ARC
  5
378
100
AcDbEntity
  8
0
100
AcDbCircle
 62
7
  6
CONTINUOUS
 10
-2.7529185464
 20
0.8738347422
 40
5.4592614927
100
AcDbArc
 50
1.5463431036
 51
1.6936197685
  0
ARC
  5
379
100
AcDbEntity
  8
0
100
AcDbCircle
 62
7
  6
CONTINUOUS
 10
-2.1701783056
 20
0.9128906843
 40
4.8597302103
100
AcDbArc
 50
1.5464591976
 51
1.7038154141
  0
ARC
  5
37A
100
AcDbEntity
  8
0
100
AcDbCircle
 62
7
  6
CONTINUOUS
 10
-2.0223120912
 20
0.8957103675
 40
4.7033381445
100
AcDbArc
 50
1.6239206623
 51
1.7913751806
  0
ARC
  5
37B
100
AcDbEntity
  8
0
100
AcDbCircle
 62
7
  6
CONTINUOUS
 10
-2.0254370909
 20
0.8957103675
 40
4.7033381442
100
AcDbArc
 50
1.6239206623
 51
1.7913751806
  0
ARC
  5
37C
100
AcDbEntity
  8
0
100
AcDbCircle
 62
7
  6
CONTINUOUS
 10
-1.7380194546
 20
0.9244398238
 40
4.4524079449
100
AcDbArc
 50
1.5838318918
 51
1.7379229015
  0
ARC
  5
37D
100
AcDbEntity
  8
0
100
AcDbCircle
 62
7
  6
CONTINUOUS
 10
-1.249912494
 20
0.9184150772
 40
3.9524708137
100
AcDbArc
 50
1.6929127951
 51
1.877448253
  0
ARC
  5
37E
100
AcDbEntity
  8
0
100
AcDbCircle
 62
7
  6
CONTINUOUS
 10
-0.1898152371
 20
0.8816409106
 40
3.7087992896
100
AcDbArc
 50
2.1629492322
 51
2.4622338057
  0
ARC
  5
37F
100
AcDbEntity
  8
0
100
AcDbCircle
 62
7
  6
CONTINUOUS
 10
-0.9837963861
 20
0.9266118549
 40
3.6893523656
100
AcDbArc
 50
1.6863553812
 51
1.8840480782
  0
ARC
  5
380
100
AcDbEntity
  8
0
100
AcDbCircle
 62
7
  6
CONTINUOUS
 10
-0.384789029
 20
0.9467512386
 40
3.0618963631
100
AcDbArc
 50
1.7964505161
 51
2.0268836439
  0
ARC
  5
381
100
AcDbEntity
  8
0
100
AcDbCircle
 62
7
  6
CONTINUOUS
 10
-0.3816640288
 20
0.9467512386
 40
3.0618963629
100
AcDbArc
 50
1.7964505161
 51
2.0268836439
  0
ARC
  5
382
100
AcDbEntity
  8
0
100
AcDbCircle
 62
7
  6
CONTINUOUS
 10
0.1535426964
 20
0.964181847
 40
2.548269624
100
AcDbArc
 50
1.8827883047
 51
2.1369786494
  0
ARC
  5
383
100
AcDbEntity
  8
0
100
AcDbCircle
 62
7
  6
CONTINUOUS
 10
0.8004509856
 20
0.9883532163
 40
1.8790495669
100
AcDbArc
 50
2.0340061072
 51
2.3610700422
  0
ARC
  5
384
100
AcDbEntity
  8
0
100
AcDbCircle
 62
7
  6
CONTINUOUS
 10
0.7973259859
 20
0.9883532163
 40
1.8790495666
100
AcDbArc
 50
2.0340061072
 51
2.3610700422
  0
ARC
  5
385
100
AcDbEntity
  8
0
100
AcDbCircle
 62
7
  6
CONTINUOUS
 10
2.9282892968
 20
-0.9204701404
 40
2.0318541336
100
AcDbArc
 50
91.9919184203
 51
92.2544385455
  0
ARC
  5
386
100
AcDbEntity
  8
0
100
AcDbCircle
 62
7
  6
CONTINUOUS
 10
2.8929556092
 20
-0.0355711632
 40
1.1462502539
100
AcDbArc
 50
92.2296022706
 51
92.6321854801
  0
ARC
  5
387
100
AcDbEntity
  8
0
100
AcDbCircle
 62
7
  6
CONTINUOUS
 10
5.1492243789
 20
0.4038664596
 40
0.125
100
AcDbArc
 50
214.5321532154
 51
270.0
  0
ARC
  5
388
100
AcDbEntity
  8
0
100
AcDbCircle
 62
7
  6
CONTINUOUS
 10
2.3737243789
 20
0.5697585055
 40
0.11
100
AcDbArc
 50
151.4532700444
 51
28.5467299556
  0
ARC
  5
389
100
AcDbEntity
  8
0
100
AcDbCircle
 62
7
  6
CONTINUOUS
 10
3.2322118786
 20
0.7438158204
 40
0.5374225769
100
AcDbArc
 50
182.6358864924
 51
183.4026494698
  0
ARC
  5
38A
100
AcDbEntity
  8
0
100
AcDbCircle
 62
7
  6
CONTINUOUS
 10
2.861703139
 20
0.6973221116
 40
0.4923740117
100
AcDbArc
 50
93.1747448543
 51
93.3123464847
  0
ARC
  5
38B
100
AcDbEntity
  8
0
100
AcDbCircle
 62
7
  6
CONTINUOUS
 10
2.8612097533
 20
0.664455535
 40
0.4835579918
100
AcDbArc
 50
93.1726203897
 51
93.3142451414
  0
ARC
  5
38C
100
AcDbEntity
  8
0
100
AcDbCircle
 62
7
  6
CONTINUOUS
 10
2.8736119404
 20
0.7524600522
 40
0.4508333681
100
AcDbArc
 50
92.9396920372
 51
93.7542760543
  0
ARC
  5
38D
100
AcDbEntity
  8
0
100
AcDbCircle
 62
7
  6
CONTINUOUS
 10
2.8736119404
 20
0.7498550522
 40
0.4508333681
100
AcDbArc
 50
92.9396920372
 51
93.7542760543
  0
ARC
  5
38E
100
AcDbEntity
  8
0
100
AcDbCircle
 62
7
  6
CONTINUOUS
 10
2.5932620737
 20
0.7983449266
 40
0.3511446377
100
AcDbArc
 50
166.1379776138
 51
166.9330425402
  0
ARC
  5
38F
100
AcDbEntity
  8
0
100
AcDbCircle
 62
7
  6
CONTINUOUS
 10
2.5332917539
 20
0.7774371134
 40
0.2871412404
100
AcDbArc
 50
160.168290197
 51
161.6397348208
  0
ARC
  5
390
100
AcDbEntity
  8
0
100
AcDbCircle
 62
7
  6
CONTINUOUS
 10
2.4503886248
 20
0.6879667988
 40
0.2107911923
100
AcDbArc
 50
22.6489578483
 51
23.0073028177
  0
ARC
  5
391
100
AcDbEntity
  8
0
100
AcDbCircle
 62
7
  6
CONTINUOUS
 10
2.4552707907
 20
0.6900014199
 40
0.2055020316
100
AcDbArc
 50
22.1302255653
 51
22.6496074825
  0
ARC
  5
392
100
AcDbEntity
  8
0
100
AcDbCircle
 62
7
  6
CONTINUOUS
 10
2.4612904895
 20
0.7363224743
 40
0.1989752226
100
AcDbArc
 50
336.9736997834
 51
339.9180053464
  0
ARC
  5
393
100
AcDbEntity
  8
0
100
AcDbCircle
 62
7
  6
CONTINUOUS
 10
2.4614715123
 20
0.6925202779
 40
0.1988092305
100
AcDbArc
 50
21.4622395908
 51
22.1309744492
  0
ARC
  5
394
100
AcDbEntity
  8
0
100
AcDbCircle
 62
7
  6
CONTINUOUS
 10
2.4680618856
 20
0.6951111558
 40
0.1917278698
100
AcDbArc
 50
20.7705025216
 51
21.4622738535
  0
ARC
  5
395
100
AcDbEntity
  8
0
100
AcDbCircle
 62
7
  6
CONTINUOUS
 10
2.4362742966
 20
0.8065724375
 40
0.1858155662
100
AcDbArc
 50
164.9889959508
 51
166.9504592657
  0
ARC
  5
396
100
AcDbEntity
  8
0
100
AcDbCircle
 62
7
  6
CONTINUOUS
 10
2.4744906695
 20
0.6975486739
 40
0.1848524966
100
AcDbArc
 50
20.023870965
 51
20.7707231538
  0
ARC
  5
397
100
AcDbEntity
  8
0
100
AcDbCircle
 62
7
  6
CONTINUOUS
 10
2.4880522122
 20
0.7264132959
 40
0.1704381337
100
AcDbArc
 50
339.9575705495
 51
343.2982538104
  0
ARC
  5
398
100
AcDbEntity
  8
0
100
AcDbCircle
 62
7
  6
CONTINUOUS
 10
2.4900066655
 20
0.7030692969
 40
0.1683841636
100
AcDbArc
 50
17.1717715667
 51
20.0667296718
  0
ARC
  5
399
100
AcDbEntity
  8
0
100
AcDbCircle
 62
7
  6
CONTINUOUS
 10
2.5307728414
 20
0.7152946425
 40
0.1262447623
100
AcDbArc
 50
351.2303392065
 51
352.8498548957
  0
ARC
  5
39A
100
AcDbEntity
  8
0
100
AcDbCircle
 62
7
  6
CONTINUOUS
 10
2.53449315
 20
0.714837331
 40
0.122496464
100
AcDbArc
 50
352.8454996532
 51
355.5039686087
  0
ARC
  5
39B
100
AcDbEntity
  8
0
100
AcDbCircle
 62
7
  6
CONTINUOUS
 10
2.5404629606
 20
0.7144233859
 40
0.1165125879
100
AcDbArc
 50
355.4767733147
 51
4.5221057579
  0
ARC
  5
39C
100
AcDbEntity
  8
0
100
AcDbCircle
 62
7
  6
CONTINUOUS
 10
2.3262084167
 20
0.8218086709
 40
0.0744029519
100
AcDbArc
 50
179.9742779436
 51
182.1812688266
  0
ARC
  5
39D
100
AcDbEntity
  8
0
100
AcDbCircle
 62
7
  6
CONTINUOUS
 10
3.2617243789
 20
0.7373880196
 40
0.05
100
AcDbArc
 50
187.5
 51
222.1003536611
  0
ARC
  5
39E
100
AcDbEntity
  8
0
100
AcDbCircle
 62
7
  6
CONTINUOUS
 10
2.1693145667
 20
0.9818584496
 40
1.3475426634
100
AcDbArc
 50
2.5143291641
 51
2.8597616404
  0
ARC
  5
39F
100
AcDbEntity
  8
0
100
AcDbCircle
 62
7
  6
CONTINUOUS
 10
2.571495357
 20
0.9038643795
 40
0.3325209782
100
AcDbArc
 50
178.5008434875
 51
181.502171116
  0
ARC
  5
3A0
100
AcDbEntity
  8
0
100
AcDbCircle
 62
7
  6
CONTINUOUS
 10
2.5709305933
 20
0.9038298791
 40
0.331955396
100
AcDbArc
 50
181.4980582589
 51
185.9951923345
  0
ARC
  5
3A1
100
AcDbEntity
  8
0
100
AcDbCircle
 62
7
  6
CONTINUOUS
 10
2.5695553634
 20
0.9036913608
 40
0.3305732201
100
AcDbArc
 50
185.9962106272
 51
187.4939450824
  0
ARC
  5
3A2
100
AcDbEntity
  8
0
100
AcDbCircle
 62
7
  6
CONTINUOUS
 10
2.5694075378
 20
0.9040208723
 40
0.330429795
100
AcDbArc
 50
169.5181728575
 51
178.5184983677
  0
ARC
  5
3A3
100
AcDbEntity
  8
0
100
AcDbCircle
 62
7
  6
CONTINUOUS
 10
2.5678224193
 20
0.9034527609
 40
0.3288239594
100
AcDbArc
 50
187.4921069975
 51
190.4876472102
  0
ARC
  5
3A4
100
AcDbEntity
  8
0
100
AcDbCircle
 62
7
  6
CONTINUOUS
 10
2.1901107904
 20
0.9008844235
 40
0.3180235564
100
AcDbArc
 50
338.2926289534
 51
344.9970612953
  0
ARC
  5
3A5
100
AcDbEntity
  8
0
100
AcDbCircle
 62
7
  6
CONTINUOUS
 10
2.1901107915
 20
0.906848496
 40
0.3180235552
100
AcDbArc
 50
15.0029387054
 51
21.7073731134
  0
ARC
  5
3A6
100
AcDbEntity
  8
0
100
AcDbCircle
 62
7
  6
CONTINUOUS
 10
2.5489693936
 20
0.9098649671
 40
0.3091362063
100
AcDbArc
 50
154.3797331464
 51
162.5513383732
  0
ARC
  5
3A7
100
AcDbEntity
  8
0
100
AcDbCircle
 62
7
  6
CONTINUOUS
 10
2.548969391
 20
0.8978679511
 40
0.3091362035
100
AcDbArc
 50
197.4486615955
 51
205.6202693632
  0
ARC
  5
3A8
100
AcDbEntity
  8
0
100
AcDbCircle
 62
7
  6
CONTINUOUS
 10
2.2031890244
 20
0.8957974602
 40
0.3039912894
100
AcDbArc
 50
331.503811656
 51
338.2717122686
  0
ARC
  5
3A9
100
AcDbEntity
  8
0
100
AcDbCircle
 62
7
  6
CONTINUOUS
 10
2.2031890271
 20
0.9119354603
 40
0.3039912864
100
AcDbArc
 50
21.7282898301
 51
28.4961883729
  0
ARC
  5
3AA
100
AcDbEntity
  8
0
100
AcDbCircle
 62
7
  6
CONTINUOUS
 10
2.5377831527
 20
0.9151782231
 40
0.2967523274
100
AcDbArc
 50
151.4574581305
 51
154.3708267967
  0
ARC
  5
3AB
100
AcDbEntity
  8
0
100
AcDbCircle
 62
7
  6
CONTINUOUS
 10
2.5377831501
 20
0.8925546948
 40
0.2967523244
100
AcDbArc
 50
205.6291757507
 51
208.5425418773
  0
ARC
  5
3AC
100
AcDbEntity
  8
0
100
AcDbCircle
 62
9
  6
CONTINUOUS
 10
2.5164624993
 20
0.9038050316
 40
0.2774881015
100
AcDbArc
 50
169.9872792206
 51
190.0209994146
  0
ARC
  5
3AD
100
AcDbEntity
  8
0
100
AcDbCircle
 62
9
  6
CONTINUOUS
 10
2.510709632
 20
0.9028462467
 40
0.2716561684
100
AcDbArc
 50
190.0329990126
 51
192.048032333
  0
ARC
  5
3AE
100
AcDbEntity
  8
0
100
AcDbCircle
 62
9
  6
CONTINUOUS
 10
2.5081229792
 20
0.9053163054
 40
0.2690396122
100
AcDbArc
 50
165.9104440526
 51
169.9580763212
  0
ARC
  5
3AF
100
AcDbEntity
  8
0
100
AcDbCircle
 62
9
  6
CONTINUOUS
 10
2.2664777735
 20
0.9147665701
 40
0.2402537408
100
AcDbArc
 50
20.9768481119
 51
24.058833439
  0
ARC
  5
3B0
100
AcDbEntity
  8
0
100
AcDbCircle
 62
7
  6
CONTINUOUS
 10
2.1677368718
 20
0.9038663224
 40
0.0872477067
100
AcDbArc
 50
358.4607777557
 51
1.5421618774
  0
ARC
  5
3B1
100
AcDbEntity
  8
0
100
AcDbCircle
 62
7
  6
CONTINUOUS
 10
4.4033419899
 20
0.8052012838
 40
0.911760884
100
AcDbArc
 50
182.9216025127
 51
183.1698817037
  0
ARC
  5
3B2
100
AcDbEntity
  8
0
100
AcDbCircle
 62
7
  6
CONTINUOUS
 10
4.3702151156
 20
0.8058840216
 40
0.9064153898
100
AcDbArc
 50
182.9360353247
 51
183.1766515108
  0
ARC
  5
3B3
100
AcDbEntity
  8
0
100
AcDbCircle
 62
7
  6
CONTINUOUS
 10
4.3366408986
 20
0.8065342976
 40
0.9006218342
100
AcDbArc
 50
182.9517023476
 51
183.1829549377
  0
ARC
  5
3B4
100
AcDbEntity
  8
0
100
AcDbCircle
 62
7
  6
CONTINUOUS
 10
4.3041198016
 20
0.8072471669
 40
0.8958829402
100
AcDbArc
 50
182.966177119
 51
183.1896107779
  0
ARC
  5
3B5
100
AcDbEntity
  8
0
100
AcDbCircle
 62
7
  6
CONTINUOUS
 10
4.2702376224
 20
0.8078850037
 40
0.8897810184
100
AcDbArc
 50
182.9809128954
 51
183.1963666848
  0
ARC
  5
3B6
100
AcDbEntity
  8
0
100
AcDbCircle
 62
7
  6
CONTINUOUS
 10
4.0877056417
 20
0.7923059617
 40
0.6197522962
100
AcDbArc
 50
183.0448187855
 51
183.7831859383
  0
ARC
  5
3B7
100
AcDbEntity
  8
0
100
AcDbCircle
 62
7
  6
CONTINUOUS
 10
4.0524351867
 20
0.7928496426
 40
0.6122593703
100
AcDbArc
 50
183.0659400959
 51
183.8087391298
  0
ARC
  5
3B8
100
AcDbEntity
  8
0
100
AcDbCircle
 62
7
  6
CONTINUOUS
 10
4.0169400986
 20
0.7933774213
 40
0.6045412971
100
AcDbArc
 50
183.087809706
 51
183.8353247403
  0
ARC
  5
3B9
100
AcDbEntity
  8
0
100
AcDbCircle
 62
7
  6
CONTINUOUS
 10
3.9824763919
 20
0.7939568507
 40
0.597856012
100
AcDbArc
 50
183.1077164792
 51
183.8590794982
  0
ARC
  5
3BA
100
AcDbEntity
  8
0
100
AcDbCircle
 62
7
  6
CONTINUOUS
 10
3.3242243789
 20
0.7373880196
 40
0.05
100
AcDbArc
 50
317.8996463389
 51
355.9612457797
  0
ARC
  5
3BB
100
AcDbEntity
  8
0
100
AcDbCircle
 62
7
  6
CONTINUOUS
 10
4.3098408299
 20
0.9970408222
 40
0.8692814021
100
AcDbArc
 50
3.0435511992
 51
3.2265240921
  0
ARC
  5
3BC
100
AcDbEntity
  8
0
100
AcDbCircle
 62
7
  6
CONTINUOUS
 10
2.7187398612
 20
1.0071484739
 40
0.7936813005
100
AcDbArc
 50
2.8578953872
 51
3.4101891663
  0
ARC
  5
3BD
100
AcDbEntity
  8
0
100
AcDbCircle
 62
7
  6
CONTINUOUS
 10
2.7404309771
 20
1.0115721636
 40
0.7200837335
100
AcDbArc
 50
2.9250087606
 51
3.5553333634
  0
ARC
  5
3BE
100
AcDbEntity
  8
0
100
AcDbCircle
 62
7
  6
CONTINUOUS
 10
2.7181019162
 20
1.01091667
 40
0.7146370987
100
AcDbArc
 50
2.9392358852
 51
3.5710766376
  0
ARC
  5
3BF
100
AcDbEntity
  8
0
100
AcDbCircle
 62
7
  6
CONTINUOUS
 10
2.6960772697
 20
1.0102768131
 40
0.7088857551
100
AcDbArc
 50
2.9537834159
 51
3.5874362393
  0
ARC
  5
3C0
100
AcDbEntity
  8
0
100
AcDbCircle
 62
7
  6
CONTINUOUS
 10
2.6743719995
 20
1.0096488557
 40
0.7028149658
100
AcDbArc
 50
2.9690226646
 51
3.6047603322
  0
ARC
  5
3C1
100
AcDbEntity
  8
0
100
AcDbCircle
 62
7
  6
CONTINUOUS
 10
2.8388958303
 20
1.016514333
 40
0.6801524477
100
AcDbArc
 50
2.4488004247
 51
3.0630317908
  0
ARC
  5
3C2
100
AcDbEntity
  8
0
100
AcDbCircle
 62
7
  6
CONTINUOUS
 10
4.5917016407
 20
1.0129714443
 40
0.5869707596
100
AcDbArc
 50
3.2225027375
 51
3.6982838255
  0
ARC
  5
3C3
100
AcDbEntity
  8
0
100
AcDbCircle
 62
7
  6
CONTINUOUS
 10
4.6039114205
 20
1.011513068
 40
0.5710278177
100
AcDbArc
 50
3.1895340556
 51
3.9577435045
  0
ARC
  5
3C4
100
AcDbEntity
  8
0
100
AcDbCircle
 62
7
  6
CONTINUOUS
 10
3.048952495
 20
1.0271715398
 40
0.4628624644
100
AcDbArc
 50
3.3674487828
 51
4.1533616255
  0
ARC
  5
3C5
100
AcDbEntity
  8
0
100
AcDbCircle
 62
7
  6
CONTINUOUS
 10
2.5887921014
 20
1.0082829987
 40
0.3465401106
100
AcDbArc
 50
193.0476686375
 51
193.86170552
  0
ARC
  5
3C6
100
AcDbEntity
  8
0
100
AcDbCircle
 62
7
  6
CONTINUOUS
 10
2.4620297932
 20
1.1149035666
 40
0.1981755124
100
AcDbArc
 50
336.9712532876
 51
340.1025336215
  0
ARC
  5
3C7
100
AcDbEntity
  8
0
100
AcDbCircle
 62
7
  6
CONTINUOUS
 10
2.7357070658
 20
1.1132807763
 40
0.1937295785
100
AcDbArc
 50
200.0418022628
 51
203.0661671664
  0
ARC
  5
3C8
100
AcDbEntity
  8
0
100
AcDbCircle
 62
7
  6
CONTINUOUS
 10
2.4661710795
 20
1.0733383066
 40
0.1937294485
100
AcDbArc
 50
20.0417861243
 51
23.0661676536
  0
ARC
  5
3C9
100
AcDbEntity
  8
0
100
AcDbCircle
 62
7
  6
CONTINUOUS
 10
3.0823010436
 20
1.3479813043
 40
0.1724577566
100
AcDbArc
 50
273.8882709888
 51
274.8838411663
  0
ARC
  5
3CA
100
AcDbEntity
  8
0
100
AcDbCircle
 62
7
  6
CONTINUOUS
 10
2.4888942121
 20
1.1050243844
 40
0.1695526164
100
AcDbArc
 50
340.1520206745
 51
343.3054993131
  0
ARC
  5
3CB
100
AcDbEntity
  8
0
100
AcDbCircle
 62
7
  6
CONTINUOUS
 10
2.4919734659
 20
1.0826219248
 40
0.1663080772
100
AcDbArc
 50
16.659592508
 51
20.0835369705
  0
ARC
  5
3CC
100
AcDbEntity
  8
0
100
AcDbCircle
 62
7
  6
CONTINUOUS
 10
2.8874327868
 20
1.289355842
 40
0.1498848773
100
AcDbArc
 50
132.3108918416
 51
135.0788495358
  0
ARC
  5
3CD
100
AcDbEntity
  8
0
100
AcDbCircle
 62
7
  6
CONTINUOUS
 10
2.5337230991
 20
1.0928300258
 40
0.1232692832
100
AcDbArc
 50
4.497278752
 51
8.7976117461
  0
ARC
  5
3CE
100
AcDbEntity
  8
0
100
AcDbCircle
 62
7
  6
CONTINUOUS
 10
2.5404629606
 20
1.0933095
 40
0.1165125879
100
AcDbArc
 50
355.4767733147
 51
4.5221057577
  0
ARC
  5
3CF
100
AcDbEntity
  8
0
100
AcDbCircle
 62
7
  6
CONTINUOUS
 10
2.3737243789
 20
1.2379744137
 40
0.11
100
AcDbArc
 50
331.4532700444
 51
208.5467299556
  0
ARC
  5
3D0
100
AcDbEntity
  8
0
100
AcDbCircle
 62
7
  6
CONTINUOUS
 10
3.3242243789
 20
1.0703448997
 40
0.05
100
AcDbArc
 50
4.0387542203
 51
42.1003536611
  0
ARC
  5
3D1
100
AcDbEntity
  8
0
100
AcDbCircle
 62
7
  6
CONTINUOUS
 10
3.2617243789
 20
1.0703448997
 40
0.05
100
AcDbArc
 50
137.8996463389
 51
172.5
  0
ARC
  5
3D2
100
AcDbEntity
  8
0
100
AcDbCircle
 62
7
  6
CONTINUOUS
 10
2.8264402232
 20
1.2492142908
 40
0.0393478445
100
AcDbArc
 50
263.1049219161
 51
269.9529469438
  0
ARC
  5
3D3
100
AcDbEntity
  8
0
100
AcDbCircle
 62
7
  6
CONTINUOUS
 10
7.5415789505
 20
0.9165137245
 40
4.858596366
100
AcDbArc
 50
181.5920244297
 51
181.7425058559
  0
ARC
  5
3D4
100
AcDbEntity
  8
0
100
AcDbCircle
 62
7
  6
CONTINUOUS
 10
7.5310721508
 20
0.9163001773
 40
4.8512114828
100
AcDbArc
 50
181.5919254582
 51
181.7436680192
  0
ARC
  5
3D5
100
AcDbEntity
  8
0
100
AcDbCircle
 62
7
  6
CONTINUOUS
 10
7.5368968817
 20
0.9155924087
 40
4.8289003708
100
AcDbArc
 50
181.6136133921
 51
181.7730351671
  0
ARC
  5
3D6
100
AcDbEntity
  8
0
100
AcDbCircle
 62
7
  6
CONTINUOUS
 10
7.218788525
 20
0.9062806226
 40
4.5137797291
100
AcDbArc
 50
181.6080599577
 51
181.7786101395
  0
ARC
  5
3D7
100
AcDbEntity
  8
0
100
AcDbCircle
 62
7
  6
CONTINUOUS
 10
5.8993709532
 20
0.8651737945
 40
3.190598478
100
AcDbArc
 50
181.7779047696
 51
181.9945536366
  0
ARC
  5
3D8
100
AcDbEntity
  8
0
100
AcDbCircle
 62
7
  6
CONTINUOUS
 10
5.3467815242
 20
0.8295717253
 40
2.6744097494
100
AcDbArc
 50
181.6975152583
 51
182.1775937637
  0
ARC
  5
3D9
100
AcDbEntity
  8
0
100
AcDbCircle
 62
7
  6
CONTINUOUS
 10
6.0122128916
 20
0.8290158189
 40
2.4942258645
100
AcDbArc
 50
181.4536442509
 51
181.6413465355
  0
ARC
  5
3DA
100
AcDbEntity
  8
0
100
AcDbCircle
 62
7
  6
CONTINUOUS
 10
5.8700565568
 20
0.8998765112
 40
1.0
100
AcDbArc
 50
194.0499894109
 51
214.5321532154
  0
ARC
  5
3DB
100
AcDbEntity
  8
0
100
AcDbCircle
 62
7
  6
CONTINUOUS
 10
5.8700565568
 20
0.907856408
 40
1.0
100
AcDbArc
 50
145.4678467846
 51
165.9500105891
  0
ARC
  5
3DC
100
AcDbEntity
  8
0
100
AcDbCircle
 62
7
  6
CONTINUOUS
 10
5.839406231
 20
0.799986079
 40
0.6848173326
100
AcDbArc
 50
183.0163948777
 51
183.6585468125
  0
ARC
  5
3DD
100
AcDbEntity
  8
0
100
AcDbCircle
 62
7
  6
CONTINUOUS
 10
5.8608494107
 20
0.8006066921
 40
0.6784846878
100
AcDbArc
 50
183.033579233
 51
183.6780389222
  0
ARC
  5
3DE
100
AcDbEntity
  8
0
100
AcDbCircle
 62
7
  6
CONTINUOUS
 10
3.0384864226
 20
2.1337211807
 40
0.9594492244
100
AcDbArc
 50
272.2342031271
 51
272.5574108003
  0
ARC
  5
3DF
100
AcDbEntity
  8
0
100
AcDbCircle
 62
7
  6
CONTINUOUS
 10
3.0612060163
 20
1.7012434514
 40
0.5019981751
100
AcDbArc
 50
273.172551916
 51
273.310463071
  0
ARC
  5
3E0
100
AcDbEntity
  8
0
100
AcDbCircle
 62
7
  6
CONTINUOUS
 10
3.0619820657
 20
1.624911369
 40
0.4881510077
100
AcDbArc
 50
273.1742635421
 51
273.3132347237
  0
ARC
  5
3E1
100
AcDbEntity
  8
0
100
AcDbCircle
 62
7
  6
CONTINUOUS
 10
3.063377501
 20
1.6416694938
 40
0.4632038616
100
AcDbArc
 50
273.1643350515
 51
273.3189812396
  0
ARC
  5
3E2
100
AcDbEntity
  8
0
100
AcDbCircle
 62
7
  6
CONTINUOUS
 10
5.1492243789
 20
1.4038664596
 40
0.125
100
AcDbArc
 50
90.0
 51
145.4678467846
  0
ARC
  5
3E3
100
AcDbEntity
  8
0
100
AcDbCircle
 62
7
  6
CONTINUOUS
 10
14.2398470156
 20
1.0936427938
 40
11.5592099272
100
AcDbArc
 50
181.3048152498
 51
181.4717643616
  0
ARC
  5
3E4
100
AcDbEntity
  8
0
100
AcDbCircle
 62
7
  6
CONTINUOUS
 10
14.2367220153
 20
1.0936427938
 40
11.5592099269
100
AcDbArc
 50
181.3048152498
 51
181.4717643616
  0
ARC
  5
3E5
100
AcDbEntity
  8
0
100
AcDbCircle
 62
7
  6
CONTINUOUS
 10
11.9176905607
 20
1.0955989649
 40
8.5388790465
100
AcDbArc
 50
181.6277211625
 51
181.8385833173
  0
ARC
  5
3E6
100
AcDbEntity
  8
0
100
AcDbCircle
 62
7
  6
CONTINUOUS
 10
9.7669266236
 20
0.9780239053
 40
7.0598038287
100
AcDbArc
 50
181.4913993295
 51
181.6104564479
  0
ARC
  5
3E7
100
AcDbEntity
  8
0
100
AcDbCircle
 62
7
  6
CONTINUOUS
 10
9.7133255041
 20
0.9529300676
 40
7.0177110104
100
AcDbArc
 50
181.425930372
 51
181.5452356599
  0
ARC
  5
3E8
100
AcDbEntity
  8
0
100
AcDbCircle
 62
7
  6
CONTINUOUS
 10
9.6594140593
 20
0.9759857741
 40
6.9803900686
100
AcDbArc
 50
181.4713275883
 51
181.5963216526
  0
ARC
  5
3E9
100
AcDbEntity
  8
0
100
AcDbCircle
 62
7
  6
CONTINUOUS
 10
9.6625390585
 20
0.9759857741
 40
6.9803900678
100
AcDbArc
 50
181.4713275883
 51
181.5963216526
  0
ARC
  5
3EA
100
AcDbEntity
  8
0
100
AcDbCircle
 62
7
  6
CONTINUOUS
 10
9.6449193954
 20
0.9518359248
 40
6.9742913202
100
AcDbArc
 50
181.4258188317
 51
181.5458667507
  0
ARC
  5
3EB
100
AcDbEntity
  8
0
100
AcDbCircle
 62
7
  6
CONTINUOUS
 10
9.4183746834
 20
0.9452994856
 40
6.7269832391
100
AcDbArc
 50
181.4224413767
 51
181.5469123408
  0
ARC
  5
3EC
100
AcDbEntity
  8
0
100
AcDbCircle
 62
7
  6
CONTINUOUS
 10
9.4082144342
 20
0.9444190546
 40
6.6918121775
100
AcDbArc
 50
181.4223784339
 51
181.5475035995
  0
ARC
  5
3ED
100
AcDbEntity
  8
0
100
AcDbCircle
 62
7
  6
CONTINUOUS
 10
9.3479595249
 20
0.9667647868
 40
6.6438095734
100
AcDbArc
 50
181.4876807252
 51
181.6141915895
  0
ARC
  5
3EE
100
AcDbEntity
  8
0
100
AcDbCircle
 62
7
  6
CONTINUOUS
 10
30.1656758758
 20
1.4149906348
 40
27.475284531
100
AcDbArc
 50
181.1062203
 51
181.2950151994
  0
ARC
  5
3EF
100
AcDbEntity
  8
0
100
AcDbCircle
 62
7
  6
CONTINUOUS
 10
25.0715585044
 20
1.3513347647
 40
22.3689814164
100
AcDbArc
 50
181.2056444581
 51
181.4269864909
  0
ARC
  5
3F0
100
AcDbEntity
  8
0
100
AcDbCircle
 62
7
  6
CONTINUOUS
 10
24.2017708112
 20
1.2881743352
 40
21.4893671838
100
AcDbArc
 50
181.0761914769
 51
181.3175585724
  0
ARC
  5
3F1
100
AcDbEntity
  8
0
100
AcDbCircle
 62
7
  6
CONTINUOUS
 10
21.9665862561
 20
1.3647549488
 40
16.8220212094
100
AcDbArc
 50
181.5120048711
 51
181.6272511625
  0
ARC
  5
3F2
100
AcDbEntity
  8
0
100
AcDbCircle
 62
7
  6
CONTINUOUS
 10
19.0600511202
 20
1.2132734771
 40
16.3590283771
100
AcDbArc
 50
181.1649906509
 51
181.4676476754
  0
ARC
  5
3F3
100
AcDbEntity
  8
0
100
AcDbCircle
 62
7
  6
CONTINUOUS
 10
18.9198933314
 20
1.170980712
 40
16.2311852798
100
AcDbArc
 50
181.1449740482
 51
181.3306635227
  0
ARC
  5
3F4
100
AcDbEntity
  8
0
100
AcDbCircle
 62
7
  6
CONTINUOUS
 10
2.8511534123
 20
10.5274281787
 40
0.2602042984
100
AcDbArc
 50
97.1911028348
 51
97.8229814755
  0
ARC
  5
3F5
100
AcDbEntity
  8
0
100
AcDbCircle
 62
7
  6
CONTINUOUS
 10
3.0722953604
 20
10.5274282549
 40
0.2602042223
100
AcDbArc
 50
82.1770126147
 51
82.8089135507
  0
ARC
  5
3F6
100
AcDbEntity
  8
0
100
AcDbCircle
 62
7
  6
CONTINUOUS
 10
3.0699033468
 20
10.5274285645
 40
0.2602039121
100
AcDbArc
 50
97.1911714759
 51
97.8229386872
  0
ARC
  5
3F7
100
AcDbEntity
  8
0
100
AcDbCircle
 62
7
  6
CONTINUOUS
 10
2.8535454142
 20
10.527428667
 40
0.2602038107
100
AcDbArc
 50
82.1769200877
 51
82.8088405668
  0
ARC
  5
3F8
100
AcDbEntity
  8
0
100
AcDbCircle
 62
7
  6
CONTINUOUS
 10
2.8506662999
 20
10.5308676751
 40
0.2567305104
100
AcDbArc
 50
97.8197635259
 51
101.0891634674
  0
ARC
  5
3F9
100
AcDbEntity
  8
0
100
AcDbCircle
 62
7
  6
CONTINUOUS
 10
3.0694162651
 20
10.5308678593
 40
0.256730328
100
AcDbArc
 50
97.8197208082
 51
101.0890441487
  0
ARC
  5
3FA
100
AcDbEntity
  8
0
100
AcDbCircle
 62
7
  6
CONTINUOUS
 10
3.072962685
 20
10.5319499342
 40
0.2556337974
100
AcDbArc
 50
78.9038906412
 51
82.187245229
  0
ARC
  5
3FB
100
AcDbEntity
  8
0
100
AcDbCircle
 62
7
  6
CONTINUOUS
 10
2.8542126878
 20
10.5319499747
 40
0.2556337607
100
AcDbArc
 50
78.9040183731
 51
82.1871510701
  0
ARC
  5
3FC
100
AcDbEntity
  8
0
100
AcDbCircle
 62
7
  6
CONTINUOUS
 10
2.8488973125
 20
10.5399794716
 40
0.2474485997
100
AcDbArc
 50
101.0930004528
 51
103.5912340785
  0
ARC
  5
3FD
100
AcDbEntity
  8
0
100
AcDbCircle
 62
7
  6
CONTINUOUS
 10
3.0745514633
 20
10.5399795865
 40
0.2474484851
100
AcDbArc
 50
76.40873841
 51
78.9070692959
  0
ARC
  5
3FE
100
AcDbEntity
  8
0
100
AcDbCircle
 62
7
  6
CONTINUOUS
 10
2.8558015465
 20
10.5399800759
 40
0.2474479924
100
AcDbArc
 50
76.4084767071
 51
78.9071995085
  0
ARC
  5
3FF
100
AcDbEntity
  8
0
100
AcDbCircle
 62
7
  6
CONTINUOUS
 10
3.0676472055
 20
10.5399800845
 40
0.2474479826
100
AcDbArc
 50
101.0928793545
 51
103.5914411554
  0
ARC
  5
400
100
AcDbEntity
  8
0
100
AcDbCircle
 62
7
  6
CONTINUOUS
 10
2.8573904897
 20
10.5466511859
 40
0.2405903038
100
AcDbArc
 50
75.0288006419
 51
76.4029389635
  0
ARC
  5
401
100
AcDbEntity
  8
0
100
AcDbCircle
 62
7
  6
CONTINUOUS
 10
3.0660581962
 20
10.546651472
 40
0.2405900088
100
AcDbArc
 50
103.5969768068
 51
104.971453275
  0
ARC
  5
402
100
AcDbEntity
  8
0
100
AcDbCircle
 62
7
  6
CONTINUOUS
 10
3.0761406233
 20
10.5466516353
 40
0.2405898328
100
AcDbArc
 50
75.0282004551
 51
76.4032057446
  0
ARC
  5
403
100
AcDbEntity
  8
0
100
AcDbCircle
 62
7
  6
CONTINUOUS
 10
2.8473080572
 20
10.5466519039
 40
0.2405895523
100
AcDbArc
 50
103.5967653434
 51
104.9720450691
  0
ARC
  5
404
100
AcDbEntity
  8
0
100
AcDbCircle
 62
7
  6
CONTINUOUS
 10
3.0643625526
 20
10.5529428128
 40
0.2340741813
100
AcDbArc
 50
104.9683217048
 51
108.0502808403
  0
ARC
  5
405
100
AcDbEntity
  8
0
100
AcDbCircle
 62
7
  6
CONTINUOUS
 10
2.8456122525
 20
10.5529436716
 40
0.2340732707
100
AcDbArc
 50
104.9689188756
 51
108.0500783027
  0
ARC
  5
406
100
AcDbEntity
  8
0
100
AcDbCircle
 62
7
  6
CONTINUOUS
 10
2.8595504731
 20
10.5545092458
 40
0.2324409903
100
AcDbArc
 50
71.938815664
 51
75.0427682246
  0
ARC
  5
407
100
AcDbEntity
  8
0
100
AcDbCircle
 62
7
  6
CONTINUOUS
 10
3.0783006514
 20
10.5545097103
 40
0.2324404927
100
AcDbArc
 50
71.9390382336
 51
75.0421567131
  0
ARC
  5
408
100
AcDbEntity
  8
0
100
AcDbCircle
 62
7
  6
CONTINUOUS
 10
3.0610941792
 20
10.5630597867
 40
0.2234424058
100
AcDbArc
 50
108.0572656018
 51
112.3018643233
  0
ARC
  5
409
100
AcDbEntity
  8
0
100
AcDbCircle
 62
7
  6
CONTINUOUS
 10
2.8423441488
 20
10.5630598233
 40
0.2234423604
100
AcDbArc
 50
108.0570538569
 51
112.3018606777
  0
ARC
  5
40A
100
AcDbEntity
  8
0
100
AcDbCircle
 62
7
  6
CONTINUOUS
 10
2.863018755
 20
10.5648669501
 40
0.2215183887
100
AcDbArc
 50
67.6796940955
 51
71.9611014066
  0
ARC
  5
40B
100
AcDbEntity
  8
0
100
AcDbCircle
 62
7
  6
CONTINUOUS
 10
3.0817687758
 20
10.5648669887
 40
0.221518345
100
AcDbArc
 50
67.6796952674
 51
71.9613303595
  0
SPLINE
  5
40C
100
AcDbEntity
  8
0
100
AcDbSpline
 62
7
  6
CONTINUOUS
 70
0
 71
3
 72
9
 73
5
 74
0
 42
0.0000001
 43
0.0000001
 44
0.0000000001
 40
0.0
 40
0.0
 40
0.0
 40
0.0
 40
0.4999999975
 40
1.0
 40
1.0
 40
1.0
 40
1.0
 10
3.1048674356
 20
10.7855857596
 30
0.0
 10
3.093678372
 20
10.7869975532
 30
0.0
 10
3.0710991797
 20
10.788369066
 30
0.0
 10
3.048519989
 20
10.7869975233
 30
0.0
 10
3.0373309273
 20
10.7855857131
 30
0.0
  0
SPLINE
  5
40D
100
AcDbEntity
  8
0
100
AcDbSpline
 62
7
  6
CONTINUOUS
 70
0
 71
3
 72
11
 73
7
 74
0
 42
0.0000001
 43
0.0000001
 44
0.0000000001
 40
0.0
 40
0.0
 40
0.0
 40
0.0
 40
0.2511004771
 40
0.4999999936
 40
0.7488995076
 40
1.0
 40
1.0
 40
1.0
 40
1.0
 10
2.7575508553
 20
10.6029448061
 30
0.0
 10
2.7725596315
 20
10.5967802449
 30
0.0
 10
2.8039009203
 20
10.5878515683
 30
0.0
 10
2.8523493777
 20
10.5836548102
 30
0.0
 10
2.9007978386
 20
10.5878515575
 30
0.0
 10
2.9321391253
 20
10.5967802445
 30
0.0
 10
2.9471479024
 20
10.6029448061
 30
0.0
  0
SPLINE
  5
40E
100
AcDbEntity
  8
0
100
AcDbSpline
 62
7
  6
CONTINUOUS
 70
0
 71
3
 72
11
 73
7
 74
0
 42
0.0000001
 43
0.0000001
 44
0.0000000001
 40
0.0
 40
0.0
 40
0.0
 40
0.0
 40
0.2511004909
 40
0.500000007
 40
0.7488995213
 40
1.0
 40
1.0
 40
1.0
 40
1.0
 10
2.9763008553
 20
10.6029448061
 30
0.0
 10
2.9913096324
 20
10.5967802446
 30
0.0
 10
3.02265092
 20
10.5878515603
 30
0.0
 10
3.0710993801
 20
10.5836548115
 30
0.0
 10
3.1195478383
 20
10.5878515648
 30
0.0
 10
3.1508891261
 20
10.5967802449
 30
0.0
 10
3.1658979024
 20
10.6029448061
 30
0.0
  0
SPLINE
  5
40F
100
AcDbEntity
  8
0
100
AcDbSpline
 62
7
  6
CONTINUOUS
 70
0
 71
3
 72
13
 73
9
 74
0
 42
0.0000001
 43
0.0000001
 44
0.0000000001
 40
0.0
 40
0.0
 40
0.0
 40
0.0
 40
0.3011610758
 40
0.5780621297
 40
0.7025435573
 40
0.8153683978
 40
0.9150072462
 40
1.0
 40
1.0
 40
1.0
 40
1.0
 10
5.1513490009
 20
0.8870587909
 30
0.0
 10
5.1517007251
 20
0.8746978251
 30
0.0
 10
5.1523958375
 20
0.8509722297
 30
0.0
 10
5.1532075193
 20
0.8221364308
 30
0.0
 10
5.1539209069
 20
0.8010345521
 30
0.0
 10
5.1544573424
 20
0.7872095954
 30
0.0
 10
5.1549884968
 20
0.775007276
 30
0.0
 10
5.1553527714
 20
0.7674348049
 30
0.0
 10
5.1555377003
 20
0.7639498223
 30
0.0
  0
LINE
  5
410
100
AcDbEntity
  8
0
100
AcDbLine
 62
7
  6
CONTINUOUS
 10
5.1559845247
 20
0.7562876762
 11
5.1564390895
 21
0.7502472854
  0
SPLINE
  5
411
100
AcDbEntity
  8
0
100
AcDbSpline
 62
7
  6
CONTINUOUS
 70
0
 71
3
 72
12
 73
8
 74
0
 42
0.0000001
 43
0.0000001
 44
0.0000000001
 40
0.0
 40
0.0
 40
0.0
 40
0.0
 40
0.3817058648
 40
0.6756828958
 40
0.8814854735
 40
0.9514710933
 40
1.0
 40
1.0
 40
1.0
 40
1.0
 10
5.1564390895
 20
0.7502472854
 30
0.0
 10
5.1565269129
 20
0.7492618016
 30
0.0
 10
5.1566973588
 20
0.7475181713
 30
0.0
 10
5.1569902404
 20
0.7452528448
 30
0.0
 10
5.1572455674
 20
0.7437951898
 30
0.0
 10
5.1574685442
 20
0.7429850156
 30
0.0
 10
5.1575805287
 20
0.7426965296
 30
0.0
 10
5.15764322
 20
0.7425874773
 30
0.0
  0
SPLINE
  5
412
100
AcDbEntity
  8
0
100
AcDbSpline
 62
7
  6
CONTINUOUS
 70
0
 71
3
 72
15
 73
11
 74
0
 42
0.0000001
 43
0.0000001
 44
0.0000000001
 40
0.0
 40
0.0
 40
0.0
 40
0.0
 40
0.0264372656
 40
0.0485657399
 40
0.0776364603
 40
0.1574763869
 40
0.2668104935
 40
0.4057914309
 40
0.5743908337
 40
1.0
 40
1.0
 40
1.0
 40
1.0
 10
5.1717486378
 20
1.0649004282
 30
0.0
 10
5.171820258
 20
1.0648981983
 30
0.0
 10
5.1719245786
 20
1.0647789474
 30
0.0
 10
5.1720142223
 20
1.0645973018
 30
0.0
 10
5.1721399502
 20
1.0642605205
 30
0.0
 10
5.1722811907
 20
1.0636875882
 30
0.0
 10
5.1724449336
 20
1.062812137
 30
0.0
 10
5.1726089789
 20
1.0616942786
 30
0.0
 10
5.1728505971
 20
1.0597215335
 30
0.0
 10
5.1730041163
 20
1.0581181502
 30
0.0
 10
5.1731062386
 20
1.0569691202
 30
0.0
  0
LINE
  5
413
100
AcDbEntity
  8
0
100
AcDbLine
 62
7
  6
CONTINUOUS
 10
5.1731062386
 20
1.0569691202
 11
5.1735774656
 21
1.0509258285
  0
SPLINE
  5
414
100
AcDbEntity
  8
0
100
AcDbSpline
 62
7
  6
CONTINUOUS
 70
0
 71
3
 72
20
 73
16
 74
0
 42
0.0000001
 43
0.0000001
 44
0.0000000001
 40
0.0
 40
0.0
 40
0.0
 40
0.0
 40
0.0918610994
 40
0.1486611934
 40
0.2114798626
 40
0.2792272791
 40
0.350743381
 40
0.5001699719
 40
0.6495825117
 40
0.7210782766
 40
0.7887940624
 40
0.8515691379
 40
0.9083128681
 40
0.9580866039
 40
1.0
 40
1.0
 40
1.0
 40
1.0
 10
5.1740546843
 20
1.0432845554
 30
0.0
 10
5.1745364438
 20
1.0347629265
 30
0.0
 10
5.1750983305
 20
1.0209603928
 30
0.0
 10
5.1757867112
 20
1.0013231493
 30
0.0
 10
5.1763707369
 20
0.9839238261
 30
0.0
 10
5.1769695441
 20
0.9651569971
 30
0.0
 10
5.1777478756
 20
0.9383447263
 30
0.0
 10
5.1786282537
 20
0.903944533
 30
0.0
 10
5.1796387369
 20
0.8695498198
 30
0.0
 10
5.1804114106
 20
0.8427435718
 30
0.0
 10
5.1809575732
 20
0.823984013
 30
0.0
 10
5.1815163674
 20
0.8065961088
 30
0.0
 10
5.1821080483
 20
0.7908773997
 30
0.0
 10
5.1827001718
 20
0.777098696
 30
0.0
 10
5.1831079587
 20
0.7685892921
 30
0.0
 10
5.1833154897
 20
0.76470046
 30
0.0
  0
LINE
  5
415
100
AcDbEntity
  8
0
100
AcDbLine
 62
7
  6
CONTINUOUS
 10
5.1837622116
 20
0.7570820288
 11
5.1842165536
 21
0.7510742031
  0
SPLINE
  5
416
100
AcDbEntity
  8
0
100
AcDbSpline
 62
7
  6
CONTINUOUS
 70
0
 71
3
 72
12
 73
8
 74
0
 42
0.0000001
 43
0.0000001
 44
0.0000000001
 40
0.0
 40
0.0
 40
0.0
 40
0.0
 40
0.3813780404
 40
0.6752413147
 40
0.8811502076
 40
0.9512744838
 40
1.0
 40
1.0
 40
1.0
 40
1.0
 10
5.1842165536
 20
0.7510742031
 30
0.0
 10
5.1843042481
 20
0.7500946058
 30
0.0
 10
5.1844744386
 20
0.7483610458
 30
0.0
 10
5.1847667806
 20
0.7461082169
 30
0.0
 10
5.1850217848
 20
0.7446578104
 30
0.0
 10
5.1852444865
 20
0.7438507879
 30
0.0
 10
5.1853564152
 20
0.7435630599
 30
0.0
 10
5.1854189973
 20
0.7434540976
 30
0.0
  0
SPLINE
  5
417
100
AcDbEntity
  8
0
100
AcDbSpline
 62
7
  6
CONTINUOUS
 70
0
 71
3
 72
18
 73
14
 74
0
 42
0.0000001
 43
0.0000001
 44
0.0000000001
 40
0.0
 40
0.0
 40
0.0
 40
0.0
 40
0.008905568
 40
0.0247627557
 40
0.0478259171
 40
0.0781505819
 40
0.1157455545
 40
0.1606031982
 40
0.2720423494
 40
0.4123146733
 40
0.5810205838
 40
0.7772450315
 40
1.0
 40
1.0
 40
1.0
 40
1.0
 10
5.1983931669
 20
1.0620736806
 30
0.0
 10
5.1984385526
 20
1.0620253779
 30
0.0
 10
5.1985027471
 20
1.0618444781
 30
0.0
 10
5.1985859389
 20
1.061502905
 30
0.0
 10
5.1986681735
 20
1.0609915644
 30
0.0
 10
5.1987530028
 20
1.0603206473
 30
0.0
 10
5.1988380017
 20
1.0594852023
 30
0.0
 10
5.1989616393
 20
1.0580475913
 30
0.0
 10
5.1991123391
 20
1.0558452861
 30
0.0
 10
5.1992896012
 20
1.0527213711
 30
0.0
 10
5.1994736481
 20
1.0489658462
 30
0.0
 10
5.1996614864
 20
1.0445960094
 30
0.0
 10
5.1997799818
 20
1.0414799845
 30
0.0
 10
5.1998396298
 20
1.0398231997
 30
0.0
  0
SPLINE
  5
418
100
AcDbEntity
  8
0
100
AcDbSpline
 62
7
  6
CONTINUOUS
 70
0
 71
3
 72
21
 73
17
 74
0
 42
0.0000001
 43
0.0000001
 44
0.0000000001
 40
0.0
 40
0.0
 40
0.0
 40
0.0
 40
0.0961789983
 40
0.1554976246
 40
0.221013261
 40
0.2914876863
 40
0.3655973719
 40
0.4419626049
 40
0.5191612889
 40
0.6703291307
 40
0.7414277482
 40
0.8076721423
 40
0.867712414
 40
0.9204292739
 40
0.9648228134
 40
1.0
 40
1.0
 40
1.0
 40
1.0
 10
5.1998396298
 20
1.0398231997
 30
0.0
 10
5.2001545813
 20
1.0310750843
 30
0.0
 10
5.2005159395
 20
1.016926488
 30
0.0
 10
5.2009631607
 20
0.9968159383
 30
0.0
 10
5.2013503194
 20
0.9790439999
 30
0.0
 10
5.2017460358
 20
0.9599257528
 30
0.0
 10
5.2021191226
 20
0.9398193751
 30
0.0
 10
5.2024760454
 20
0.9191006161
 30
0.0
 10
5.2029707776
 20
0.8913696971
 30
0.0
 10
5.2035111215
 20
0.8641190586
 30
0.0
 10
5.2040099739
 20
0.8378648329
 30
0.0
 10
5.2043721286
 20
0.8199035181
 30
0.0
 10
5.2047609719
 20
0.8036161944
 30
0.0
 10
5.2051634524
 20
0.7893186507
 30
0.0
 10
5.2055454032
 20
0.7772845119
 30
0.0
 10
5.2058134003
 20
0.7700471298
 30
0.0
 10
5.2059588911
 20
0.7668487667
 30
0.0
  0
SPLINE
  5
419
100
AcDbEntity
  8
0
100
AcDbSpline
 62
7
  6
CONTINUOUS
 70
0
 71
3
 72
11
 73
7
 74
0
 42
0.0000001
 43
0.0000001
 44
0.0000000001
 40
0.0
 40
0.0
 40
0.0
 40
0.0
 40
0.3686051666
 40
0.6589430551
 40
0.8695113232
 40
1.0
 40
1.0
 40
1.0
 40
1.0
 10
5.2059588911
 20
0.7668487667
 30
0.0
 10
5.206022515
 20
0.7654501044
 30
0.0
 10
5.2061463793
 20
0.7629504333
 30
0.0
 10
5.20635607
 20
0.7596533453
 30
0.0
 10
5.2065748598
 20
0.7572663648
 30
0.0
 10
5.2067401475
 20
0.7559783351
 30
0.0
 10
5.2068497565
 20
0.7554949589
 30
0.0
  0
LINE
  5
41A
100
AcDbEntity
  8
0
100
AcDbLine
 62
7
  6
CONTINUOUS
 10
5.2068497565
 20
0.7554949589
 11
5.2070000581
 21
0.7550314183
  0
SPLINE
  5
41B
100
AcDbEntity
  8
0
100
AcDbSpline
 62
7
  6
CONTINUOUS
 70
0
 71
3
 72
14
 73
10
 74
0
 42
0.0000001
 43
0.0000001
 44
0.0000000001
 40
0.0
 40
0.0
 40
0.0
 40
0.0
 40
0.0260646514
 40
0.0478580206
 40
0.076612628
 40
0.1559684744
 40
0.2650698211
 40
0.5729676866
 40
1.0
 40
1.0
 40
1.0
 40
1.0
 10
5.1894640004
 20
0.7433840605
 30
0.0
 10
5.1893942738
 20
0.7433818895
 30
0.0
 10
5.1892861332
 20
0.7434939896
 30
0.0
 10
5.1891971453
 20
0.7436701546
 30
0.0
 10
5.1890705731
 20
0.7439985455
 30
0.0
 10
5.1889298166
 20
0.7445613306
 30
0.0
 10
5.1886831755
 20
0.7458683231
 30
0.0
 10
5.1884012972
 20
0.7481102149
 30
0.0
 10
5.1882099074
 20
0.750068023
 30
0.0
 10
5.1881081175
 20
0.7512064064
 30
0.0
  0
LINE
  5
41C
100
AcDbEntity
  8
0
100
AcDbLine
 62
7
  6
CONTINUOUS
 10
5.1881081175
 20
0.7512064064
 11
5.1871576243
 21
0.7648231422
  0
SPLINE
  5
41D
100
AcDbEntity
  8
0
100
AcDbSpline
 62
7
  6
CONTINUOUS
 70
0
 71
3
 72
20
 73
16
 74
0
 42
0.0000001
 43
0.0000001
 44
0.0000000001
 40
0.0
 40
0.0
 40
0.0
 40
0.0
 40
0.091713691
 40
0.1484688338
 40
0.2112526279
 40
0.2789737236
 40
0.3504728322
 40
0.4998892313
 40
0.6493114873
 40
0.7208197729
 40
0.7885566476
 40
0.8513662887
 40
0.9081613166
 40
0.9580027078
 40
1.0
 40
1.0
 40
1.0
 40
1.0
 10
5.1871576243
 20
0.7648231422
 30
0.0
 10
5.1866735501
 20
0.7733244371
 30
0.0
 10
5.1861116897
 20
0.7870986382
 30
0.0
 10
5.1854241605
 20
0.806699853
 30
0.0
 10
5.1848391845
 20
0.8240760525
 30
0.0
 10
5.1842387967
 20
0.8428212957
 30
0.0
 10
5.1834594752
 20
0.8696081835
 30
0.0
 10
5.1825806841
 20
0.9039806467
 30
0.0
 10
5.1815691545
 20
0.9383502971
 30
0.0
 10
5.1807967869
 20
0.9651401964
 30
0.0
 10
5.1802513656
 20
0.9838918451
 30
0.0
 10
5.1796933904
 20
1.0012764873
 30
0.0
 10
5.1791022916
 20
1.0169975228
 30
0.0
 10
5.1785106474
 20
1.0307846111
 30
0.0
 10
5.178103249
 20
1.0393016389
 30
0.0
 10
5.1778960803
 20
1.0431953279
 30
0.0
  0
LINE
  5
41E
100
AcDbEntity
  8
0
100
AcDbLine
 62
7
  6
CONTINUOUS
 10
5.1774500635
 20
1.0508324775
 11
5.1769967828
 21
1.0568683288
  0
SPLINE
  5
41F
100
AcDbEntity
  8
0
100
AcDbSpline
 62
7
  6
CONTINUOUS
 70
0
 71
3
 72
12
 73
8
 74
0
 42
0.0000001
 43
0.0000001
 44
0.0000000001
 40
0.0
 40
0.0
 40
0.0
 40
0.0
 40
0.3813760229
 40
0.6752629825
 40
0.8811844522
 40
0.9512993911
 40
1.0
 40
1.0
 40
1.0
 40
1.0
 10
5.1769967828
 20
1.0568683288
 30
0.0
 10
5.1769087326
 20
1.0578608055
 30
0.0
 10
5.1767379395
 20
1.0596172527
 30
0.0
 10
5.1764445424
 20
1.0618999915
 30
0.0
 10
5.1761884267
 20
1.0633698214
 30
0.0
 10
5.1759642493
 20
1.06418773
 30
0.0
 10
5.1758514268
 20
1.0644793506
 30
0.0
 10
5.1757882389
 20
1.0645897854
 30
0.0
  0
SPLINE
  5
420
100
AcDbEntity
  8
0
100
AcDbSpline
 62
7
  6
CONTINUOUS
 70
0
 71
3
 72
14
 73
10
 74
0
 42
0.0000001
 43
0.0000001
 44
0.0000000001
 40
0.0
 40
0.0
 40
0.0
 40
0.0
 40
0.0260114936
 40
0.0477888446
 40
0.0765324007
 40
0.1558771348
 40
0.2649785885
 40
0.572904928
 40
1.0
 40
1.0
 40
1.0
 40
1.0
 10
5.1616860863
 20
0.7425191925
 30
0.0
 10
5.1616162042
 20
0.7425170167
 30
0.0
 10
5.1615079376
 20
0.7426297625
 30
0.0
 10
5.1614189975
 20
0.7428066025
 30
0.0
 10
5.1612924058
 20
0.7431365131
 30
0.0
 10
5.1611517654
 20
0.7437017982
 30
0.0
 10
5.160905382
 20
0.7450146881
 30
0.0
 10
5.1606239909
 20
0.7472666084
 30
0.0
 10
5.1604328757
 20
0.7492331491
 30
0.0
 10
5.1603312018
 20
0.7503766216
 30
0.0
  0
LINE
  5
421
100
AcDbEntity
  8
0
100
AcDbLine
 62
7
  6
CONTINUOUS
 10
5.1603312018
 20
0.7503766216
 11
5.1593803985
 21
0.764067272
  0
SPLINE
  5
422
100
AcDbEntity
  8
0
100
AcDbSpline
 62
7
  6
CONTINUOUS
 70
0
 71
3
 72
12
 73
8
 74
0
 42
0.0000001
 43
0.0000001
 44
0.0000000001
 40
0.0
 40
0.0
 40
0.0
 40
0.0
 40
0.1846555806
 40
0.2974869116
 40
0.4219704056
 40
0.6988582664
 40
1.0
 40
1.0
 40
1.0
 40
1.0
 10
5.1593803985
 20
0.764067272
 30
0.0
 10
5.1589517836
 20
0.7716312667
 30
0.0
 10
5.1584372549
 20
0.7838267722
 30
0.0
 10
5.1578194147
 20
0.8011283512
 30
0.0
 10
5.1571063975
 20
0.8222132857
 30
0.0
 10
5.1561816463
 20
0.8510215341
 30
0.0
 10
5.1555575623
 20
0.8747290582
 30
0.0
 10
5.1552298168
 20
0.8870800834
 30
0.0
  0
SPLINE
  5
423
100
AcDbEntity
  8
0
100
AcDbSpline
 62
7
  6
CONTINUOUS
 70
0
 71
3
 72
13
 73
9
 74
0
 42
0.0000001
 43
0.0000001
 44
0.0000000001
 40
0.0
 40
0.0
 40
0.0
 40
0.0
 40
0.3009990737
 40
0.5778076409
 40
0.7022913781
 40
0.8151586787
 40
0.9148808886
 40
1.0
 40
1.0
 40
1.0
 40
1.0
 10
5.1543034875
 20
0.9208758876
 30
0.0
 10
5.1539516969
 20
0.933225749
 30
0.0
 10
5.1532560911
 20
0.9569323382
 30
0.0
 10
5.1524455856
 20
0.9857474321
 30
0.0
 10
5.15173351
 20
1.0068397952
 30
0.0
 10
5.1511978534
 20
1.0206650641
 30
0.0
 10
5.150667255
 20
1.0328733712
 30
0.0
 10
5.1503031326
 20
1.0404517362
 30
0.0
 10
5.1501184133
 20
1.0439406665
 30
0.0
  0
SPLINE
  5
424
100
AcDbEntity
  8
0
100
AcDbSpline
 62
7
  6
CONTINUOUS
 70
0
 71
3
 72
11
 73
7
 74
0
 42
0.0000001
 43
0.0000001
 44
0.0000000001
 40
0.0
 40
0.0
 40
0.0
 40
0.0
 40
0.2737126706
 40
0.5316280506
 40
0.7727116648
 40
1.0
 40
1.0
 40
1.0
 40
1.0
 10
2.7813024198
 20
1.2340384187
 30
0.0
 10
2.7843830561
 20
1.2309577824
 30
0.0
 10
2.7905951995
 20
1.2251922607
 30
0.0
 10
2.8005116416
 20
1.2178578329
 30
0.0
 10
2.8108235751
 20
1.2124929682
 30
0.0
 10
2.8181247431
 20
1.2105842455
 30
0.0
 10
2.8217164532
 20
1.2101510234
 30
0.0
  0
SPLINE
  5
425
100
AcDbEntity
  8
0
100
AcDbSpline
 62
7
  6
CONTINUOUS
 70
0
 71
3
 72
11
 73
7
 74
0
 42
0.0000001
 43
0.0000001
 44
0.0000000001
 40
0.0
 40
0.0
 40
0.0
 40
0.0
 40
0.2760303737
 40
0.5340859061
 40
0.7735185451
 40
1.0
 40
1.0
 40
1.0
 40
1.0
 10
3.142146338
 20
1.3951945005
 30
0.0
 10
3.1387356964
 20
1.3986051421
 30
0.0
 10
3.1318564468
 20
1.4049390907
 30
0.0
 10
3.1207862884
 20
1.412786704
 30
0.0
 10
3.1091774405
 20
1.418070604
 30
0.0
 10
3.1009984023
 20
1.4193664596
 30
0.0
 10
3.0970408482
 20
1.4193664596
 30
0.0
  0
SPLINE
  5
426
100
AcDbEntity
  8
0
100
AcDbSpline
 62
7
  6
CONTINUOUS
 70
0
 71
3
 72
11
 73
7
 74
0
 42
0.0000001
 43
0.0000001
 44
0.0000000001
 40
0.0
 40
0.0
 40
0.0
 40
0.0
 40
0.270345439
 40
0.5289739191
 40
0.7730672557
 40
1.0
 40
1.0
 40
1.0
 40
1.0
 10
3.5210327225
 20
0.9581531109
 30
0.0
 10
3.5206574925
 20
0.9638755742
 30
0.0
 10
3.5198853576
 20
0.9750699712
 30
0.0
 10
3.5187417045
 20
0.9914288578
 30
0.0
 10
3.5175906039
 20
1.0068640911
 30
0.0
 10
3.5167546623
 20
1.0168209014
 30
0.0
 10
3.5163416489
 20
1.0216170036
 30
0.0
  0
SPLINE
  5
427
100
AcDbEntity
  8
0
100
AcDbSpline
 62
7
  6
CONTINUOUS
 70
0
 71
3
 72
14
 73
10
 74
0
 42
0.0000001
 43
0.0000001
 44
0.0000000001
 40
0.0
 40
0.0
 40
0.0
 40
0.0
 40
0.3777794547
 40
0.5356715941
 40
0.6723232426
 40
0.7873161793
 40
0.8803241997
 40
0.9512199711
 40
1.0
 40
1.0
 40
1.0
 40
1.0
 10
3.515179057
 20
1.0490894218
 30
0.0
 10
3.5150354709
 20
1.0519342877
 30
0.0
 10
3.5148152269
 20
1.0559674597
 30
0.0
 10
3.5144737175
 20
1.0610253631
 30
0.0
 10
3.5142313334
 20
1.0641039094
 30
0.0
 10
3.5139866751
 20
1.06669109
 30
0.0
 10
3.5137412928
 20
1.0687802489
 30
0.0
 10
3.5134971889
 20
1.0703648663
 30
0.0
 10
3.5133104007
 20
1.0712499133
 30
0.0
 10
3.5132032199
 20
1.0716017556
 30
0.0
  0
LINE
  5
428
100
AcDbEntity
  8
0
100
AcDbLine
 62
7
  6
CONTINUOUS
 10
3.5132032199
 20
1.0716017556
 11
3.5130132979
 21
1.0720787534
  0
SPLINE
  5
429
100
AcDbEntity
  8
0
100
AcDbSpline
 62
7
  6
CONTINUOUS
 70
0
 71
3
 72
15
 73
11
 74
0
 42
0.0000001
 43
0.0000001
 44
0.0000000001
 40
0.0
 40
0.0
 40
0.0
 40
0.0
 40
0.0255220758
 40
0.0474397258
 40
0.0763905692
 40
0.156164628
 40
0.2655833063
 40
0.404756517
 40
0.5736333785
 40
1.0
 40
1.0
 40
1.0
 40
1.0
 10
3.4989231738
 20
0.7359135555
 30
0.0
 10
3.4988503937
 20
0.7359158215
 30
0.0
 10
3.4987471766
 20
0.7360443268
 30
0.0
 10
3.4986584107
 20
0.7362331477
 30
0.0
 10
3.4985320235
 20
0.7365891494
 30
0.0
 10
3.498389606
 20
0.7371928942
 30
0.0
 10
3.4982236866
 20
0.7381164248
 30
0.0
 10
3.4980571023
 20
0.739295494
 30
0.0
 10
3.4978115552
 20
0.7413766972
 30
0.0
 10
3.49765594
 20
0.743067975
 30
0.0
 10
3.4975528141
 20
0.7442800358
 30
0.0
  0
LINE
  5
42A
100
AcDbEntity
  8
0
100
AcDbLine
 62
7
  6
CONTINUOUS
 10
3.4975528141
 20
0.7442800358
 11
3.4966051961
 21
0.7586554884
  0
SPLINE
  5
42B
100
AcDbEntity
  8
0
100
AcDbSpline
 62
7
  6
CONTINUOUS
 70
0
 71
3
 72
20
 73
16
 74
0
 42
0.0000001
 43
0.0000001
 44
0.0000000001
 40
0.0
 40
0.0
 40
0.0
 40
0.0
 40
0.0920902947
 40
0.1489721406
 40
0.2118507174
 40
0.2796362173
 40
0.3511695838
 40
0.5005760829
 40
0.6499160781
 40
0.7213606801
 40
0.7890191758
 40
0.8517343771
 40
0.9084194881
 40
0.9581376605
 40
1.0
 40
1.0
 40
1.0
 40
1.0
 10
3.4966051961
 20
0.7586554884
 30
0.0
 10
3.496127344
 20
0.7675621692
 30
0.0
 10
3.4955632292
 20
0.7819810135
 30
0.0
 10
3.4948705433
 20
0.8024880905
 30
0.0
 10
3.4942887376
 20
0.8206437697
 30
0.0
 10
3.4936945149
 20
0.8402187702
 30
0.0
 10
3.4929181605
 20
0.8681727889
 30
0.0
 10
3.4920292528
 20
0.904025608
 30
0.0
 10
3.4910273009
 20
0.9398668354
 30
0.0
 10
3.4902561618
 20
0.9677936073
 30
0.0
 10
3.4897080448
 20
0.9873332233
 30
0.0
 10
3.4891478827
 20
1.005442366
 30
0.0
 10
3.4885579356
 20
1.0218119521
 30
0.0
 10
3.4879685083
 20
1.036160281
 30
0.0
 10
3.4875617483
 20
1.0450211616
 30
0.0
 10
3.487354336
 20
1.0490704685
 30
0.0
  0
SPLINE
  5
42C
100
AcDbEntity
  8
0
100
AcDbSpline
 62
7
  6
CONTINUOUS
 70
0
 71
3
 72
10
 73
6
 74
0
 42
0.0000001
 43
0.0000001
 44
0.0000000001
 40
0.0
 40
0.0
 40
0.0
 40
0.0
 40
0.6023982395
 40
0.8275482776
 40
1.0
 40
1.0
 40
1.0
 40
1.0
 10
3.487354336
 20
1.0490704685
 30
0.0
 10
3.4871616666
 20
1.0528319506
 30
0.0
 10
3.4868784587
 20
1.0579990306
 30
0.0
 10
3.4863810588
 20
1.0642317842
 30
0.0
 10
3.4861184325
 20
1.0667045285
 30
0.0
 10
3.4859764743
 20
1.0677733737
 30
0.0
  0
SPLINE
  5
42D
100
AcDbEntity
  8
0
100
AcDbSpline
 62
7
  6
CONTINUOUS
 70
0
 71
3
 72
11
 73
7
 74
0
 42
0.0000001
 43
0.0000001
 44
0.0000000001
 40
0.0
 40
0.0
 40
0.0
 40
0.0
 40
0.3632974545
 40
0.6507545229
 40
0.8625530061
 40
1.0
 40
1.0
 40
1.0
 40
1.0
 10
3.4859764743
 20
1.0677733737
 30
0.0
 10
3.4859202301
 20
1.0681968533
 30
0.0
 10
3.4858109218
 20
1.0689540772
 30
0.0
 10
3.4856310767
 20
1.0699534926
 30
0.0
 10
3.4854542715
 20
1.070679673
 30
0.0
 10
3.4853182969
 20
1.0710716948
 30
0.0
 10
3.4852374067
 20
1.0712116186
 30
0.0
  0
SPLINE
  5
42E
100
AcDbEntity
  8
0
100
AcDbSpline
 62
7
  6
CONTINUOUS
 70
0
 71
3
 72
15
 73
11
 74
0
 42
0.0000001
 43
0.0000001
 44
0.0000000001
 40
0.0
 40
0.0
 40
0.0
 40
0.0
 40
0.0256251538
 40
0.04756603
 40
0.0765299566
 40
0.1563110076
 40
0.2657201828
 40
0.4048720475
 40
0.573718091
 40
1.0
 40
1.0
 40
1.0
 40
1.0
 10
3.4711451357
 20
0.7367784273
 30
0.0
 10
3.4710724744
 20
0.7367806896
 30
0.0
 10
3.4709690824
 20
0.7369081291
 30
0.0
 10
3.4708802101
 20
0.737096167
 30
0.0
 10
3.4707538852
 20
0.7374499926
 30
0.0
 10
3.4706116111
 20
0.7380502663
 30
0.0
 10
3.4704459548
 20
0.7389683641
 30
0.0
 10
3.4702796791
 20
0.7401405179
 30
0.0
 10
3.470034595
 20
0.7422094579
 30
0.0
 10
3.4698791994
 20
0.7438907934
 30
0.0
 10
3.4697761577
 20
0.7450957226
 30
0.0
  0
LINE
  5
42F
100
AcDbEntity
  8
0
100
AcDbLine
 62
7
  6
CONTINUOUS
 10
3.4697761577
 20
0.7450957226
 11
3.4693038638
 21
0.7514140346
  0
SPLINE
  5
430
100
AcDbEntity
  8
0
100
AcDbSpline
 62
7
  6
CONTINUOUS
 70
0
 71
3
 72
20
 73
16
 74
0
 42
0.0000001
 43
0.0000001
 44
0.0000000001
 40
0.0
 40
0.0
 40
0.0
 40
0.0
 40
0.0920710085
 40
0.1489459394
 40
0.2118194344
 40
0.2796017023
 40
0.3511335849
 40
0.5005417054
 40
0.6498876935
 40
0.7213366256
 40
0.7890000165
 40
0.8517203256
 40
0.9084103971
 40
0.9581332791
 40
1.0
 40
1.0
 40
1.0
 40
1.0
 10
3.4688282559
 20
0.7593865148
 30
0.0
 10
3.4683498215
 20
0.7682456998
 30
0.0
 10
3.4677861965
 20
0.7825883337
 30
0.0
 10
3.4670943244
 20
0.8029875995
 30
0.0
 10
3.4665121463
 20
0.8210490122
 30
0.0
 10
3.4659171408
 20
0.8405230139
 30
0.0
 10
3.4651405485
 20
0.8683339025
 30
0.0
 10
3.4642532956
 20
0.9040042009
 30
0.0
 10
3.4632496981
 20
0.9396634086
 30
0.0
 10
3.4624784782
 20
0.967448959
 30
0.0
 10
3.4619309055
 20
0.9868901359
 30
0.0
 10
3.4613710485
 20
1.0049081891
 30
0.0
 10
3.4607806658
 20
1.0211955043
 30
0.0
 10
3.460190673
 20
1.0354717874
 30
0.0
 10
3.4597838951
 20
1.0442882102
 30
0.0
 10
3.4595765704
 20
1.0483172167
 30
0.0
  0
LINE
  5
431
100
AcDbEntity
  8
0
100
AcDbLine
 62
7
  6
CONTINUOUS
 10
3.4591288197
 20
1.0562263266
 11
3.4586729474
 21
1.0624525665
  0
SPLINE
  5
432
100
AcDbEntity
  8
0
100
AcDbSpline
 62
7
  6
CONTINUOUS
 70
0
 71
3
 72
13
 73
9
 74
0
 42
0.0000001
 43
0.0000001
 44
0.0000000001
 40
0.0
 40
0.0
 40
0.0
 40
0.0
 40
0.3836289099
 40
0.6782668877
 40
0.7920572351
 40
0.8834744337
 40
0.9526365382
 40
1.0
 40
1.0
 40
1.0
 40
1.0
 10
3.4586729474
 20
1.0624525665
 30
0.0
 10
3.4585843967
 20
1.0634727201
 30
0.0
 10
3.4584114458
 20
1.0652749288
 30
0.0
 10
3.4581500652
 20
1.0673737219
 30
0.0
 10
3.4579301839
 20
1.0686896928
 30
0.0
 10
3.4577819219
 20
1.069407545
 30
0.0
 10
3.4576364706
 20
1.0699427705
 30
0.0
 10
3.4575245089
 20
1.0702355832
 30
0.0
 10
3.457461266
 20
1.0703450511
 30
0.0
  0
SPLINE
  5
433
100
AcDbEntity
  8
0
100
AcDbSpline
 62
7
  6
CONTINUOUS
 70
0
 71
3
 72
15
 73
11
 74
0
 42
0.0000001
 43
0.0000001
 44
0.0000000001
 40
0.0
 40
0.0
 40
0.0
 40
0.0
 40
0.0257379197
 40
0.0477043125
 40
0.0766825444
 40
0.1564709046
 40
0.2658691046
 40
0.4049970702
 40
0.5738091663
 40
1.0
 40
1.0
 40
1.0
 40
1.0
 10
3.4433671422
 20
0.7376432977
 30
0.0
 10
3.4432946524
 20
0.7376455547
 30
0.0
 10
3.443191137
 20
0.7377717659
 30
0.0
 10
3.4431021894
 20
0.7379588383
 30
0.0
 10
3.4429759899
 20
0.7383100966
 30
0.0
 10
3.4428339224
 20
0.7389062532
 30
0.0
 10
3.4426686074
 20
0.739817927
 30
0.0
 10
3.4425027189
 20
0.7409819056
 30
0.0
 10
3.4422582201
 20
0.7430363682
 30
0.0
 10
3.4421031312
 20
0.7447059695
 30
0.0
 10
3.4420002357
 20
0.7459024851
 30
0.0
  0
LINE
  5
434
100
AcDbEntity
  8
0
100
AcDbLine
 62
7
  6
CONTINUOUS
 10
3.4420002357
 20
0.7459024851
 11
3.4415280843
 21
0.752179646
  0
SPLINE
  5
435
100
AcDbEntity
  8
0
100
AcDbSpline
 62
7
  6
CONTINUOUS
 70
0
 71
3
 72
20
 73
16
 74
0
 42
0.0000001
 43
0.0000001
 44
0.0000000001
 40
0.0
 40
0.0
 40
0.0
 40
0.0
 40
0.0920338916
 40
0.1488956435
 40
0.2117595376
 40
0.279535738
 40
0.3510649146
 40
0.5004764158
 40
0.6498343151
 40
0.7212915296
 40
0.7889641304
 40
0.8516940245
 40
0.908393486
 40
0.9581252347
 40
1.0
 40
1.0
 40
1.0
 40
1.0
 10
3.4410521792
 20
0.760102818
 30
0.0
 10
3.440573139
 20
0.7689131743
 30
0.0
 10
3.4400099131
 20
0.7831778943
 30
0.0
 10
3.4393187219
 20
0.8034674635
 30
0.0
 10
3.4387361459
 20
0.8214340549
 30
0.0
 10
3.4381403731
 20
0.84080704
 30
0.0
 10
3.4373635071
 20
0.8684757153
 30
0.0
 10
3.4364777388
 20
0.9039655581
 30
0.0
 10
3.4354725148
 20
0.9394453054
 30
0.0
 10
3.4347011921
 20
0.9670921135
 30
0.0
 10
3.4341541347
 20
0.9864368523
 30
0.0
 10
3.4335945655
 20
1.0043658046
 30
0.0
 10
3.4330037402
 20
1.0205727523
 30
0.0
 10
3.4324131294
 20
1.0347787318
 30
0.0
 10
3.4320062042
 20
1.0435517926
 30
0.0
 10
3.4317988935
 20
1.0475610068
 30
0.0
  0
LINE
  5
436
100
AcDbEntity
  8
0
100
AcDbLine
 62
7
  6
CONTINUOUS
 10
3.4313514029
 20
1.0554290564
 11
3.4308958202
 21
1.0616244469
  0
SPLINE
  5
437
100
AcDbEntity
  8
0
100
AcDbSpline
 62
7
  6
CONTINUOUS
 70
0
 71
3
 72
13
 73
9
 74
0
 42
0.0000001
 43
0.0000001
 44
0.0000000001
 40
0.0
 40
0.0
 40
0.0
 40
0.0
 40
0.3833085722
 40
0.6778353132
 40
0.7916502854
 40
0.8831468976
 40
0.9524444909
 40
1.0
 40
1.0
 40
1.0
 40
1.0
 10
3.4308958202
 20
1.0616244469
 30
0.0
 10
3.4308073914
 20
1.0626388547
 30
0.0
 10
3.4306346614
 20
1.0644312601
 30
0.0
 10
3.4303736097
 20
1.0665188407
 30
0.0
 10
3.4301539635
 20
1.0678283849
 30
0.0
 10
3.4300057602
 20
1.0685433231
 30
0.0
 10
3.4298603101
 20
1.0690769455
 30
0.0
 10
3.4297483331
 20
1.0693690613
 30
0.0
 10
3.4296851734
 20
1.0694784701
 30
0.0
  0
SPLINE
  5
438
100
AcDbEntity
  8
0
100
AcDbSpline
 62
7
  6
CONTINUOUS
 70
0
 71
3
 72
15
 73
11
 74
0
 42
0.0000001
 43
0.0000001
 44
0.0000000001
 40
0.0
 40
0.0
 40
0.0
 40
0.0
 40
0.0258555175
 40
0.0478485249
 40
0.0768416192
 40
0.1566373657
 40
0.2660238314
 40
0.4051266514
 40
0.5739032982
 40
1.0
 40
1.0
 40
1.0
 40
1.0
 10
3.4155891936
 20
0.7385081668
 30
0.0
 10
3.415516896
 20
0.7385104178
 30
0.0
 10
3.4154132826
 20
0.7386353389
 30
0.0
 10
3.4153242742
 20
0.7388213724
 30
0.0
 10
3.4151982325
 20
0.7391699117
 30
0.0
 10
3.4150564063
 20
0.7397616982
 30
0.0
 10
3.4148914759
 20
0.7406665609
 30
0.0
 10
3.4147260181
 20
0.7418218716
 30
0.0
 10
3.4144821684
 20
0.7438609911
 30
0.0
 10
3.4143274248
 20
0.7455181571
 30
0.0
 10
3.4142247002
 20
0.7467057572
 30
0.0
  0
LINE
  5
439
100
AcDbEntity
  8
0
100
AcDbLine
 62
7
  6
CONTINUOUS
 10
3.4142247002
 20
0.7467057572
 11
3.4137527209
 21
0.7529402189
  0
SPLINE
  5
43A
100
AcDbEntity
  8
0
100
AcDbSpline
 62
7
  6
CONTINUOUS
 70
0
 71
3
 72
20
 73
16
 74
0
 42
0.0000001
 43
0.0000001
 44
0.0000000001
 40
0.0
 40
0.0
 40
0.0
 40
0.0
 40
0.0919897297
 40
0.1488361342
 40
0.2116891035
 40
0.2794586928
 40
0.3509853035
 40
0.5004020459
 40
0.6497748451
 40
0.7212419986
 40
0.7889253974
 40
0.8516662377
 40
0.9083760537
 40
0.9581171745
 40
1.0
 40
1.0
 40
1.0
 40
1.0
 10
3.4132765026
 20
0.7608129807
 30
0.0
 10
3.4127967983
 20
0.7695740933
 30
0.0
 10
3.4122339541
 20
0.7837604341
 30
0.0
 10
3.4115434315
 20
0.8039398776
 30
0.0
 10
3.410960422
 20
0.8218117486
 30
0.0
 10
3.4103638353
 20
0.8410840634
 30
0.0
 10
3.4095866538
 20
0.8686113756
 30
0.0
 10
3.4087024257
 20
0.9039221352
 30
0.0
 10
3.4076955697
 20
0.9392239259
 30
0.0
 10
3.4069239395
 20
0.9667332583
 30
0.0
 10
3.4063772193
 20
0.9859824615
 30
0.0
 10
3.40581787
 20
1.0038231146
 30
0.0
 10
3.4052267007
 20
1.0199503551
 30
0.0
 10
3.4046355977
 20
1.0340865151
 30
0.0
 10
3.4042285312
 20
1.0428164718
 30
0.0
 10
3.4040212174
 20
1.046805989
 30
0.0
  0
LINE
  5
43B
100
AcDbEntity
  8
0
100
AcDbLine
 62
7
  6
CONTINUOUS
 10
3.4035739441
 20
1.0546329798
 11
3.4031186193
 21
1.0607972742
  0
SPLINE
  5
43C
100
AcDbEntity
  8
0
100
AcDbSpline
 62
7
  6
CONTINUOUS
 70
0
 71
3
 72
13
 73
9
 74
0
 42
0.0000001
 43
0.0000001
 44
0.0000000001
 40
0.0
 40
0.0
 40
0.0
 40
0.0
 40
0.3829846779
 40
0.6773987832
 40
0.7912385828
 40
0.8828154704
 40
0.9522501218
 40
1.0
 40
1.0
 40
1.0
 40
1.0
 10
3.4031186193
 20
1.0607972742
 30
0.0
 10
3.4030303163
 20
1.0618058113
 30
0.0
 10
3.4028578193
 20
1.0635881926
 30
0.0
 10
3.4025971263
 20
1.0656643044
 30
0.0
 10
3.4023777437
 20
1.066967262
 30
0.0
 10
3.4022296183
 20
1.0676792001
 30
0.0
 10
3.4020841873
 20
1.0682111562
 30
0.0
 10
3.4019722093
 20
1.068502542
 30
0.0
 10
3.4019091399
 20
1.0686118795
 30
0.0
  0
SPLINE
  5
43D
100
AcDbEntity
  8
0
100
AcDbSpline
 62
7
  6
CONTINUOUS
 70
0
 71
3
 72
15
 73
11
 74
0
 42
0.0000001
 43
0.0000001
 44
0.0000000001
 40
0.0
 40
0.0
 40
0.0
 40
0.0
 40
0.0259637756
 40
0.0479818137
 40
0.0769892799
 40
0.1567934002
 40
0.2661705072
 40
0.4052510524
 40
0.573994937
 40
1.0
 40
1.0
 40
1.0
 40
1.0
 10
3.3878112897
 20
0.7393730344
 30
0.0
 10
3.3877390989
 20
0.7393752821
 30
0.0
 10
3.3876353073
 20
0.7394991572
 30
0.0
 10
3.3875461599
 20
0.7396844212
 30
0.0
 10
3.3874201462
 20
0.7400308276
 30
0.0
 10
3.3872784075
 20
0.7406192086
 30
0.0
 10
3.3871136762
 20
0.7415187455
 30
0.0
 10
3.3869484623
 20
0.7426672736
 30
0.0
 10
3.3867049951
 20
0.7446943602
 30
0.0
 10
3.3865504449
 20
0.7463417735
 30
0.0
 10
3.3864478011
 20
0.7475223775
 30
0.0
  0
LINE
  5
43E
100
AcDbEntity
  8
0
100
AcDbLine
 62
7
  6
CONTINUOUS
 10
3.3864478011
 20
0.7475223775
 11
3.3859759582
 21
0.7537195091
  0
SPLINE
  5
43F
100
AcDbEntity
  8
0
100
AcDbSpline
 62
7
  6
CONTINUOUS
 70
0
 71
3
 72
9
 73
5
 74
0
 42
0.0000001
 43
0.0000001
 44
0.0000000001
 40
0.0
 40
0.0
 40
0.0
 40
0.0
 40
0.4345738201
 40
1.0
 40
1.0
 40
1.0
 40
1.0
 10
3.3854996001
 20
0.7615451073
 30
0.0
 10
3.3850203175
 20
0.7702434365
 30
0.0
 10
3.3842246529
 20
0.7902752049
 30
0.0
 10
3.3835704858
 20
0.8103102664
 30
0.0
 10
3.3832074867
 20
0.8216390592
 30
0.0
  0
LINE
  5
440
100
AcDbEntity
  8
0
100
AcDbLine
 62
7
  6
CONTINUOUS
 10
3.3822570472
 20
0.8530497799
 11
3.3794782339
 21
0.9546039355
  0
LINE
  5
441
100
AcDbEntity
  8
0
100
AcDbLine
 62
7
  6
CONTINUOUS
 10
3.3794782339
 20
0.9546039355
 11
3.37857738
 21
0.9859815037
  0
SPLINE
  5
442
100
AcDbEntity
  8
0
100
AcDbSpline
 62
7
  6
CONTINUOUS
 70
0
 71
3
 72
11
 73
7
 74
0
 42
0.0000001
 43
0.0000001
 44
0.0000000001
 40
0.0
 40
0.0
 40
0.0
 40
0.0
 40
0.2972477043
 40
0.5659224801
 40
0.8015789198
 40
1.0
 40
1.0
 40
1.0
 40
1.0
 10
3.37857738
 20
0.9859815037
 30
0.0
 10
3.3783984068
 20
0.9919353329
 30
0.0
 10
3.3780413121
 20
1.0032702168
 30
0.0
 10
3.3774498591
 20
1.0193221781
 30
0.0
 10
3.3768582848
 20
1.033392162
 30
0.0
 10
3.3764509671
 20
1.0420811545
 30
0.0
 10
3.3762435659
 20
1.0460518829
 30
0.0
  0
LINE
  5
443
100
AcDbEntity
  8
0
100
AcDbLine
 62
7
  6
CONTINUOUS
 10
3.3757964516
 20
1.0538372495
 11
3.3753413441
 21
1.0599701596
  0
SPLINE
  5
444
100
AcDbEntity
  8
0
100
AcDbSpline
 62
7
  6
CONTINUOUS
 70
0
 71
3
 72
13
 73
9
 74
0
 42
0.0000001
 43
0.0000001
 44
0.0000000001
 40
0.0
 40
0.0
 40
0.0
 40
0.0
 40
0.0909845025
 40
0.1720572641
 40
0.2804601396
 40
0.4171019285
 40
0.5824275257
 40
1.0
 40
1.0
 40
1.0
 40
1.0
 10
5.1999149701
 20
0.7614665055
 30
0.0
 10
5.1998158549
 20
0.7614644385
 30
0.0
 10
5.1996729172
 20
0.761650362
 30
0.0
 10
5.1995557056
 20
0.7619153516
 30
0.0
 10
5.1994402013
 20
0.7622579931
 30
0.0
 10
5.1993284671
 20
0.7626889237
 30
0.0
 10
5.1991632736
 20
0.7634565355
 30
0.0
 10
5.1990606333
 20
0.7640832238
 30
0.0
 10
5.1989932014
 20
0.7645331865
 30
0.0
  0
LINE
  5
445
100
AcDbEntity
  8
0
100
AcDbLine
 62
7
  6
CONTINUOUS
 10
5.1989932014
 20
0.7645331865
 11
5.1985089715
 21
0.7686009302
  0
LINE
  5
446
100
AcDbEntity
  8
0
100
AcDbLine
 62
7
  6
CONTINUOUS
 10
5.1985089715
 20
0.7686009302
 11
5.1975419296
 21
0.7814991646
  0
SPLINE
  5
447
100
AcDbEntity
  8
0
100
AcDbSpline
 62
7
  6
CONTINUOUS
 70
0
 71
3
 72
24
 73
20
 74
0
 42
0.0000001
 43
0.0000001
 44
0.0000000001
 40
0.0
 40
0.0
 40
0.0
 40
0.0
 40
0.0485334515
 40
0.1071214729
 40
0.2488868601
 40
0.4113121317
 40
0.4953910118
 40
0.5787187415
 40
0.659289201
 40
0.7351171281
 40
0.8042438441
 40
0.8649866852
 40
0.9160663522
 40
0.9376016848
 40
0.9562801501
 40
0.9719653836
 40
0.9845233293
 40
0.9938630165
 40
1.0
 40
1.0
 40
1.0
 40
1.0
 10
5.1975419296
 20
0.7814991646
 30
0.0
 10
5.197282468
 20
0.7857733795
 30
0.0
 10
5.1967880408
 20
0.7952119925
 30
0.0
 10
5.1958261136
 20
0.8171501751
 30
0.0
 10
5.1946901619
 20
0.8491382025
 30
0.0
 10
5.193608197
 20
0.8833778842
 30
0.0
 10
5.1927086375
 20
0.9124648934
 30
0.0
 10
5.1920261534
 20
0.9343331412
 30
0.0
 10
5.1913446621
 20
0.955473087
 30
0.0
 10
5.1906650933
 20
0.9753594636
 30
0.0
 10
5.1899875002
 20
0.9934954623
 30
0.0
 10
5.1893111575
 20
1.009446241
 30
0.0
 10
5.1887252532
 20
1.0211980172
 30
0.0
 10
5.1882423658
 20
1.029238333
 30
0.0
 10
5.1879027997
 20
1.0341587799
 30
0.0
 10
5.1875648833
 20
1.0382846661
 30
0.0
 10
5.18723317
 20
1.0415851077
 30
0.0
 10
5.1869023106
 20
1.0440351296
 30
0.0
 10
5.186648378
 20
1.0453810652
 30
0.0
 10
5.186493831
 20
1.045900004
 30
0.0
  0
LINE
  5
448
100
AcDbEntity
  8
0
100
AcDbLine
 62
7
  6
CONTINUOUS
 10
5.186493831
 20
1.045900004
 11
5.1862669854
 21
1.046475654
  0
SPLINE
  5
449
100
AcDbEntity
  8
0
100
AcDbSpline
 62
7
  6
CONTINUOUS
 70
0
 71
3
 72
15
 73
11
 74
0
 42
0.0000001
 43
0.0000001
 44
0.0000000001
 40
0.0
 40
0.0
 40
0.0
 40
0.0
 40
0.0256197397
 40
0.047424198
 40
0.0762424826
 40
0.1558531506
 40
0.2654259273
 40
0.404974755
 40
0.5741844987
 40
1.0
 40
1.0
 40
1.0
 40
1.0
 10
5.1894985428
 20
1.0467035847
 30
0.0
 10
5.189584983
 20
1.0467029308
 30
0.0
 10
5.1897122337
 20
1.0465557615
 30
0.0
 10
5.1898202996
 20
1.0463338753
 30
0.0
 10
5.1899745358
 20
1.0459163049
 30
0.0
 10
5.1901478473
 20
1.0452036086
 30
0.0
 10
5.1903492042
 20
1.0441112057
 30
0.0
 10
5.1905505078
 20
1.0427144144
 30
0.0
 10
5.1908452498
 20
1.0402531358
 30
0.0
 10
5.1910299826
 20
1.0382537475
 30
0.0
 10
5.191151435
 20
1.036822162
 30
0.0
  0
SPLINE
  5
44A
100
AcDbEntity
  8
0
100
AcDbSpline
 62
7
  6
CONTINUOUS
 70
0
 71
3
 72
18
 73
14
 74
0
 42
0.0000001
 43
0.0000001
 44
0.0000000001
 40
0.0
 40
0.0
 40
0.0
 40
0.0
 40
0.0340334818
 40
0.077881812
 40
0.1306314155
 40
0.1912698779
 40
0.3308970259
 40
0.4852020657
 40
0.641627897
 40
0.7873031988
 40
0.9099622087
 40
0.9595875922
 40
1.0
 40
1.0
 40
1.0
 40
1.0
 10
5.191151435
 20
1.036822162
 30
0.0
 10
5.19140128
 20
1.0338771861
 30
0.0
 10
5.1918640049
 20
1.027128902
 30
0.0
 10
5.1924801762
 20
1.0158012262
 30
0.0
 10
5.193102054
 20
1.0021604158
 30
0.0
 10
5.1939774124
 20
0.9802053171
 30
0.0
 10
5.1950280795
 20
0.9494312342
 30
0.0
 10
5.1962480987
 20
0.9103400548
 30
0.0
 10
5.1974706422
 20
0.8707233888
 30
0.0
 10
5.1986839671
 20
0.8338561386
 30
0.0
 10
5.199741941
 20
0.806263437
 30
0.0
 10
5.200635386
 20
0.7878138185
 30
0.0
 10
5.2010934683
 20
0.7800077864
 30
0.0
 10
5.2013353507
 20
0.7765066145
 30
0.0
  0
SPLINE
  5
44B
100
AcDbEntity
  8
0
100
AcDbSpline
 62
7
  6
CONTINUOUS
 70
0
 71
3
 72
11
 73
7
 74
0
 42
0.0000001
 43
0.0000001
 44
0.0000000001
 40
0.0
 40
0.0
 40
0.0
 40
0.0
 40
0.3552177961
 40
0.6409920238
 40
0.8559136405
 40
1.0
 40
1.0
 40
1.0
 40
1.0
 10
5.2013353507
 20
0.7765066145
 30
0.0
 10
5.2014498038
 20
0.7748499408
 30
0.0
 10
5.2016718601
 20
0.7718616694
 30
0.0
 10
5.2020349078
 20
0.7678758757
 30
0.0
 10
5.2023963295
 20
0.7648841659
 30
0.0
 10
5.2026736281
 20
0.7632254013
 30
0.0
 10
5.2028394485
 20
0.7625725351
 30
0.0
  0
LINE
  5
44C
100
AcDbEntity
  8
0
100
AcDbLine
 62
7
  6
CONTINUOUS
 10
5.2028394485
 20
0.7625725351
 11
5.2031457873
 21
0.7617020369
  0
SPLINE
  5
44D
100
AcDbEntity
  8
0
100
AcDbSpline
 62
7
  6
CONTINUOUS
 70
0
 71
3
 72
15
 73
11
 74
0
 42
0.0000001
 43
0.0000001
 44
0.0000000001
 40
0.0
 40
0.0
 40
0.0
 40
0.0
 40
0.18739865
 40
0.3058177582
 40
0.4362981036
 40
0.5750088269
 40
0.7179528633
 40
0.7897640502
 40
0.8611067471
 40
1.0
 40
1.0
 40
1.0
 40
1.0
 10
3.5210868789
 20
0.7637431819
 30
0.0
 10
3.5210865104
 20
0.7758861362
 30
0.0
 10
3.5210868428
 20
0.7957023463
 30
0.0
 10
3.5210903231
 20
0.8239733502
 30
0.0
 10
3.5210771049
 20
0.8490894994
 30
0.0
 10
3.5210870349
 20
0.8757948007
 30
0.0
 10
3.5211231008
 20
0.8986984869
 30
0.0
 10
3.5210846104
 20
0.9172369011
 30
0.0
 10
3.5209911141
 20
0.935512583
 30
0.0
 10
3.5209165838
 20
0.9491352346
 30
0.0
 10
3.5209165838
 20
0.9581351629
 30
0.0
  0
SPLINE
  5
44E
100
AcDbEntity
  8
0
100
AcDbSpline
 62
7
  6
CONTINUOUS
 70
0
 71
3
 72
14
 73
10
 74
0
 42
0.0000001
 43
0.0000001
 44
0.0000000001
 40
0.0
 40
0.0
 40
0.0
 40
0.0
 40
0.0273465487
 40
0.0493947507
 40
0.0782217952
 40
0.157375674
 40
0.2660685532
 40
0.5734185403
 40
1.0
 40
1.0
 40
1.0
 40
1.0
 10
5.1721376291
 20
0.7606017802
 30
0.0
 10
5.1720660556
 20
0.7606000491
 30
0.0
 10
5.1719527505
 20
0.7607045348
 30
0.0
 10
5.1718556195
 20
0.7608777932
 30
0.0
 10
5.1717206142
 20
0.7611941723
 30
0.0
 10
5.171568045
 20
0.7617400035
 30
0.0
 10
5.1713011079
 20
0.76301
 30
0.0
 10
5.1709968549
 20
0.7651961523
 30
0.0
 10
5.1707947496
 20
0.7671070076
 30
0.0
 10
5.1706884736
 20
0.768218748
 30
0.0
  0
SPLINE
  5
44F
100
AcDbEntity
  8
0
100
AcDbSpline
 62
7
  6
CONTINUOUS
 70
0
 71
3
 72
28
 73
24
 74
0
 42
0.0000001
 43
0.0000001
 44
0.0000000001
 40
0.0
 40
0.0
 40
0.0
 40
0.0
 40
0.0350947246
 40
0.0830612746
 40
0.14255178
 40
0.2120133248
 40
0.2894071898
 40
0.3724447431
 40
0.4587295058
 40
0.5458222352
 40
0.6312791437
 40
0.7126609531
 40
0.7875598943
 40
0.8537175379
 40
0.8829850631
 40
0.9094580538
 40
0.9329502386
 40
0.9532862692
 40
0.9702937549
 40
0.9838028679
 40
0.993698741
 40
0.9972948763
 40
1.0
 40
1.0
 40
1.0
 40
1.0
 10
5.1706884736
 20
0.768218748
 30
0.0
 10
5.170377965
 20
0.77146694
 30
0.0
 10
5.1698297187
 20
0.7791717505
 30
0.0
 10
5.1691088311
 20
0.7924059982
 30
0.0
 10
5.1683811864
 20
0.8088395944
 30
0.0
 10
5.167647607
 20
0.8280109753
 30
0.0
 10
5.166911038
 20
0.8493730732
 30
0.0
 10
5.1661730219
 20
0.8723001143
 30
0.0
 10
5.1654342425
 20
0.8961293511
 30
0.0
 10
5.1646948474
 20
0.9201836165
 30
0.0
 10
5.1639560532
 20
0.943781823
 30
0.0
 10
5.1632192493
 20
0.9662457851
 30
0.0
 10
5.1624852797
 20
0.9869144267
 30
0.0
 10
5.1618518946
 20
1.0027380748
 30
0.0
 10
5.1613348318
 20
1.0140600248
 30
0.0
 10
5.1609637523
 20
1.0214175147
 30
0.0
 10
5.160593792
 20
1.0279435041
 30
0.0
 10
5.1602252471
 20
1.0335878324
 30
0.0
 10
5.1598602794
 20
1.0383021873
 30
0.0
 10
5.1594981379
 20
1.0420420325
 30
0.0
 10
5.1591804332
 20
1.0445338599
 30
0.0
 10
5.1589078698
 20
1.0460151101
 30
0.0
 10
5.1587697536
 20
1.0465853693
 30
0.0
 10
5.1586952906
 20
1.0468256079
 30
0.0
  0
LINE
  5
450
100
AcDbEntity
  8
0
100
AcDbLine
 62
7
  6
CONTINUOUS
 10
5.1586952906
 20
1.0468256079
 11
5.1584881702
 21
1.0473380381
  0
SPLINE
  5
451
100
AcDbEntity
  8
0
100
AcDbSpline
 62
7
  6
CONTINUOUS
 70
0
 71
3
 72
15
 73
11
 74
0
 42
0.0000001
 43
0.0000001
 44
0.0000000001
 40
0.0
 40
0.0
 40
0.0
 40
0.0
 40
0.0254422156
 40
0.0471878118
 40
0.0759627294
 40
0.1555304358
 40
0.2651188422
 40
0.4047252502
 40
0.574016407
 40
1.0
 40
1.0
 40
1.0
 40
1.0
 10
5.1617212072
 20
1.0475676706
 30
0.0
 10
5.1618081512
 20
1.0475671709
 30
0.0
 10
5.1619358649
 20
1.0474178003
 30
0.0
 10
5.1620440181
 20
1.0471937122
 30
0.0
 10
5.1621988347
 20
1.0467706936
 30
0.0
 10
5.1623726422
 20
1.0460487835
 30
0.0
 10
5.1625746542
 20
1.0449418637
 30
0.0
 10
5.1627766016
 20
1.0435263536
 30
0.0
 10
5.1630723186
 20
1.041032088
 30
0.0
 10
5.163257686
 20
1.0390060326
 30
0.0
 10
5.1633795686
 20
1.0375554009
 30
0.0
  0
SPLINE
  5
452
100
AcDbEntity
  8
0
100
AcDbSpline
 62
7
  6
CONTINUOUS
 70
0
 71
3
 72
26
 73
22
 74
0
 42
0.0000001
 43
0.0000001
 44
0.0000000001
 40
0.0
 40
0.0
 40
0.0
 40
0.0
 40
0.0379534924
 40
0.0879759123
 40
0.1487474279
 40
0.2186795419
 40
0.2957930559
 40
0.3779922756
 40
0.4630495485
 40
0.5486994427
 40
0.6326330875
 40
0.7125511376
 40
0.7861825527
 40
0.8515087091
 40
0.9069550932
 40
0.9305046849
 40
0.9510336941
 40
0.9683660044
 40
0.9823363235
 40
0.9928793323
 40
1.0
 40
1.0
 40
1.0
 40
1.0
 10
5.1633795686
 20
1.0375554009
 30
0.0
 10
5.1636720556
 20
1.0340742572
 30
0.0
 10
5.1642032732
 20
1.0259930451
 30
0.0
 10
5.1649067067
 20
1.0123197563
 30
0.0
 10
5.1656167873
 20
0.9956998631
 30
0.0
 10
5.166331936
 20
0.9765847948
 30
0.0
 10
5.1670497508
 20
0.9554962503
 30
0.0
 10
5.1677682829
 20
0.9330148147
 30
0.0
 10
5.1684881809
 20
0.9097473101
 30
0.0
 10
5.16920886
 20
0.8863201119
 30
0.0
 10
5.1699288838
 20
0.8633661531
 30
0.0
 10
5.1706469408
 20
0.8415189305
 30
0.0
 10
5.1713632382
 20
0.821385323
 30
0.0
 10
5.1720789601
 20
0.8035057842
 30
0.0
 10
5.1726982054
 20
0.7902359317
 30
0.0
 10
5.1732078836
 20
0.7810893593
 30
0.0
 10
5.1735674432
 20
0.7754481137
 30
0.0
 10
5.1739250598
 20
0.7706907931
 30
0.0
 10
5.1742781761
 20
0.7668544987
 30
0.0
 10
5.1746295018
 20
0.7639647588
 30
0.0
 10
5.1748992389
 20
0.7623582595
 30
0.0
 10
5.1750591588
 20
0.7617226507
 30
0.0
  0
LINE
  5
453
100
AcDbEntity
  8
0
100
AcDbLine
 62
7
  6
CONTINUOUS
 10
5.1750591588
 20
0.7617226507
 11
5.1753699029
 21
0.7608351118
  0
LINE
  5
454
100
AcDbEntity
  8
0
100
AcDbLine
 62
7
  6
CONTINUOUS
 10
3.3756529123
 20
0.9545302135
 11
3.3784312305
 21
0.8530372023
  0
LINE
  5
455
100
AcDbEntity
  8
0
100
AcDbLine
 62
7
  6
CONTINUOUS
 10
3.3784312305
 20
0.8530372023
 11
3.3793333517
 21
0.821647059
  0
SPLINE
  5
456
100
AcDbEntity
  8
0
100
AcDbSpline
 62
7
  6
CONTINUOUS
 70
0
 71
3
 72
11
 73
7
 74
0
 42
0.0000001
 43
0.0000001
 44
0.0000000001
 40
0.0
 40
0.0
 40
0.0
 40
0.0
 40
0.2969370869
 40
0.5654931114
 40
0.8012454119
 40
1.0
 40
1.0
 40
1.0
 40
1.0
 10
3.3793333517
 20
0.821647059
 30
0.0
 10
3.3795119948
 20
0.8157031139
 30
0.0
 10
3.3798681631
 20
0.8043837943
 30
0.0
 10
3.3804569721
 20
0.7883483229
 30
0.0
 10
3.3810462391
 20
0.7742806955
 30
0.0
 10
3.3814533656
 20
0.7655884499
 30
0.0
 10
3.3816605541
 20
0.7616134749
 30
0.0
  0
LINE
  5
457
100
AcDbEntity
  8
0
100
AcDbLine
 62
7
  6
CONTINUOUS
 10
3.3818408345
 20
0.7582724242
 11
3.3825608806
 21
0.7476168857
  0
SPLINE
  5
458
100
AcDbEntity
  8
0
100
AcDbSpline
 62
7
  6
CONTINUOUS
 70
0
 71
3
 72
13
 73
9
 74
0
 42
0.0000001
 43
0.0000001
 44
0.0000000001
 40
0.0
 40
0.0
 40
0.0
 40
0.0
 40
0.382177555
 40
0.676337794
 40
0.7902491932
 40
0.8820271087
 40
0.9517915793
 40
1.0
 40
1.0
 40
1.0
 40
1.0
 10
3.3825608806
 20
0.7476168857
 30
0.0
 10
3.3826491987
 20
0.7465952773
 30
0.0
 10
3.3828213764
 20
0.7447887449
 30
0.0
 10
3.3830811667
 20
0.7426835865
 30
0.0
 10
3.3833004934
 20
0.7413604649
 30
0.0
 10
3.3834492256
 20
0.7406358773
 30
0.0
 10
3.383595965
 20
0.7400929194
 30
0.0
 10
3.3837094998
 20
0.7397948945
 30
0.0
 10
3.383773528
 20
0.7396825057
 30
0.0
  0
SPLINE
  5
459
100
AcDbEntity
  8
0
100
AcDbSpline
 62
7
  6
CONTINUOUS
 70
0
 71
3
 72
14
 73
10
 74
0
 42
0.0000001
 43
0.0000001
 44
0.0000000001
 40
0.0
 40
0.0
 40
0.0
 40
0.0
 40
0.0258001216
 40
0.0475162976
 40
0.0762187335
 40
0.1555245053
 40
0.2646300252
 40
0.5726692716
 40
1.0
 40
1.0
 40
1.0
 40
1.0
 10
3.3978738702
 20
1.0686731842
 30
0.0
 10
3.3979444595
 20
1.068675382
 30
0.0
 10
3.3980533357
 20
1.0685598694
 30
0.0
 10
3.3981422193
 20
1.0683801168
 30
0.0
 10
3.3982690966
 20
1.0680436722
 30
0.0
 10
3.3984095502
 20
1.0674676291
 30
0.0
 10
3.3986554126
 20
1.0661293865
 30
0.0
 10
3.3989354417
 20
1.0638343532
 30
0.0
 10
3.3991257408
 20
1.0618302484
 30
0.0
 10
3.3992270576
 20
1.0606648983
 30
0.0
  0
LINE
  5
45A
100
AcDbEntity
  8
0
100
AcDbLine
 62
7
  6
CONTINUOUS
 10
3.3992270576
 20
1.0606648983
 11
3.4001780703
 21
1.0466820573
  0
SPLINE
  5
45B
100
AcDbEntity
  8
0
100
AcDbSpline
 62
7
  6
CONTINUOUS
 70
0
 71
3
 72
20
 73
16
 74
0
 42
0.0000001
 43
0.0000001
 44
0.0000000001
 40
0.0
 40
0.0
 40
0.0
 40
0.0
 40
0.0916553786
 40
0.1483798917
 40
0.2111329737
 40
0.2788253151
 40
0.3502992874
 40
0.49968143
 40
0.6490960168
 40
0.7206143951
 40
0.7883717046
 40
0.8512120713
 40
0.9080477119
 40
0.9579402316
 40
1.0
 40
1.0
 40
1.0
 40
1.0
 10
3.4001780703
 20
1.0466820573
 30
0.0
 10
3.4006625811
 20
1.0379592423
 30
0.0
 10
3.4012245412
 20
1.0238261792
 30
0.0
 10
3.4019111495
 20
1.0037137246
 30
0.0
 10
3.4024955662
 20
0.9858828628
 30
0.0
 10
3.4030958674
 20
0.9666460006
 30
0.0
 10
3.4038760165
 20
0.9391536224
 30
0.0
 10
3.4047558998
 20
0.9038716681
 30
0.0
 10
3.4057641025
 20
0.8685889286
 30
0.0
 10
3.4065369837
 20
0.8410828726
 30
0.0
 10
3.4070837326
 20
0.8218256539
 30
0.0
 10
3.4076419369
 20
0.8039688553
 30
0.0
 10
3.4082313501
 20
0.7878168554
 30
0.0
 10
3.4088214338
 20
0.7736471766
 30
0.0
 10
3.4092294529
 20
0.7648920218
 30
0.0
 10
3.4094371155
 20
0.760888418
 30
0.0
  0
LINE
  5
45C
100
AcDbEntity
  8
0
100
AcDbLine
 62
7
  6
CONTINUOUS
 10
3.4096247009
 20
0.7573998274
 11
3.4103381128
 21
0.7468051241
  0
SPLINE
  5
45D
100
AcDbEntity
  8
0
100
AcDbSpline
 62
7
  6
CONTINUOUS
 70
0
 71
3
 72
13
 73
9
 74
0
 42
0.0000001
 43
0.0000001
 44
0.0000000001
 40
0.0
 40
0.0
 40
0.0
 40
0.0
 40
0.3823810304
 40
0.6766120816
 40
0.7905076836
 40
0.8822348712
 40
0.9519130596
 40
1.0
 40
1.0
 40
1.0
 40
1.0
 10
3.4103381128
 20
0.7468051241
 30
0.0
 10
3.410426495
 20
0.7457761964
 30
0.0
 10
3.4105987304
 20
0.7439569322
 30
0.0
 10
3.4108585596
 20
0.7418370159
 30
0.0
 10
3.4110780022
 20
0.74050496
 30
0.0
 10
3.41122682
 20
0.7397758391
 30
0.0
 10
3.411373704
 20
0.7392298214
 30
0.0
 10
3.4114874289
 20
0.738930209
 30
0.0
 10
3.411551666
 20
0.7388173371
 30
0.0
  0
SPLINE
  5
45E
100
AcDbEntity
  8
0
100
AcDbSpline
 62
7
  6
CONTINUOUS
 70
0
 71
3
 72
14
 73
10
 74
0
 42
0.0000001
 43
0.0000001
 44
0.0000000001
 40
0.0
 40
0.0
 40
0.0
 40
0.0
 40
0.0257496762
 40
0.0474510722
 40
0.0761434715
 40
0.1554394848
 40
0.2645456106
 40
0.5726117299
 40
1.0
 40
1.0
 40
1.0
 40
1.0
 10
3.4256515535
 20
1.069538045
 30
0.0
 10
3.4257223118
 20
1.069540248
 30
0.0
 10
3.4258313294
 20
1.0694240665
 30
0.0
 10
3.4259201898
 20
1.0692436129
 30
0.0
 10
3.4260471197
 20
1.0689055909
 30
0.0
 10
3.4261875027
 20
1.0683269524
 30
0.0
 10
3.4264331883
 20
1.066982589
 30
0.0
 10
3.4267128222
 20
1.0646771454
 30
0.0
 10
3.4269028881
 20
1.0626639705
 30
0.0
 10
3.4270041034
 20
1.0614933366
 30
0.0
  0
LINE
  5
45F
100
AcDbEntity
  8
0
100
AcDbLine
 62
7
  6
CONTINUOUS
 10
3.4270041034
 20
1.0614933366
 11
3.4279553617
 21
1.0474361802
  0
SPLINE
  5
460
100
AcDbEntity
  8
0
100
AcDbSpline
 62
7
  6
CONTINUOUS
 70
0
 71
3
 72
20
 73
16
 74
0
 42
0.0000001
 43
0.0000001
 44
0.0000000001
 40
0.0
 40
0.0
 40
0.0
 40
0.0
 40
0.0916447897
 40
0.1483637106
 40
0.2111111746
 40
0.2787982722
 40
0.3502677046
 40
0.4996436919
 40
0.6490567138
 40
0.7205769201
 40
0.7883380242
 40
0.8511840323
 40
0.9080270319
 40
0.9579288145
 40
1.0
 40
1.0
 40
1.0
 40
1.0
 10
3.4279553617
 20
1.0474361802
 30
0.0
 10
3.4284400616
 20
1.0386689781
 30
0.0
 10
3.4290024544
 20
1.0244640246
 30
0.0
 10
3.4296892124
 20
1.00424915
 30
0.0
 10
3.4302734143
 20
0.9863272118
 30
0.0
 10
3.4308733353
 20
0.9669918713
 30
0.0
 10
3.431653047
 20
0.9393581999
 30
0.0
 10
3.432532629
 20
0.9038941748
 30
0.0
 10
3.4335410993
 20
0.8684287292
 30
0.0
 10
3.4343144681
 20
0.8407794198
 30
0.0
 10
3.4348615031
 20
0.8214210978
 30
0.0
 10
3.435419607
 20
0.8034699143
 30
0.0
 10
3.436008431
 20
0.7872318146
 30
0.0
 10
3.436597985
 20
0.7729857522
 30
0.0
 10
3.4370061285
 20
0.764183079
 30
0.0
 10
3.4372139223
 20
0.7601575509
 30
0.0
  0
LINE
  5
461
100
AcDbEntity
  8
0
100
AcDbLine
 62
7
  6
CONTINUOUS
 10
3.4374084298
 20
0.7565277441
 11
3.4381156575
 21
0.7459895855
  0
SPLINE
  5
462
100
AcDbEntity
  8
0
100
AcDbSpline
 62
7
  6
CONTINUOUS
 70
0
 71
3
 72
13
 73
9
 74
0
 42
0.0000001
 43
0.0000001
 44
0.0000000001
 40
0.0
 40
0.0
 40
0.0
 40
0.0
 40
0.3825747967
 40
0.6768727397
 40
0.7907530627
 40
0.8824318701
 40
0.9520281021
 40
1.0
 40
1.0
 40
1.0
 40
1.0
 10
3.4381156575
 20
0.7459895855
 30
0.0
 10
3.4382040863
 20
0.7449538407
 30
0.0
 10
3.438376339
 20
0.743122726
 30
0.0
 10
3.4386361307
 20
0.7409890752
 30
0.0
 10
3.4388556186
 20
0.7396487158
 30
0.0
 10
3.439004475
 20
0.7389153929
 30
0.0
 10
3.4391514581
 20
0.738366549
 30
0.0
 10
3.4392653374
 20
0.7380654727
 30
0.0
 10
3.4393297611
 20
0.7379521595
 30
0.0
  0
SPLINE
  5
463
100
AcDbEntity
  8
0
100
AcDbSpline
 62
7
  6
CONTINUOUS
 70
0
 71
3
 72
14
 73
10
 74
0
 42
0.0000001
 43
0.0000001
 44
0.0000000001
 40
0.0
 40
0.0
 40
0.0
 40
0.0
 40
0.0256989877
 40
0.0473866089
 40
0.076070105
 40
0.1553584222
 40
0.2644665392
 40
0.5725593175
 40
1.0
 40
1.0
 40
1.0
 40
1.0
 10
3.4534291899
 20
1.0704029043
 30
0.0
 10
3.4535001438
 20
1.0704051134
 30
0.0
 10
3.4536093378
 20
1.0702882069
 30
0.0
 10
3.4536982289
 20
1.0701069888
 30
0.0
 10
3.4538252973
 20
1.069767253
 30
0.0
 10
3.4539657307
 20
1.0691857901
 30
0.0
 10
3.4542114621
 20
1.0678347743
 30
0.0
 10
3.4544909448
 20
1.0655180118
 30
0.0
 10
3.4546808615
 20
1.0634949651
 30
0.0
 10
3.454781991
 20
1.0623185844
 30
0.0
  0
LINE
  5
464
100
AcDbEntity
  8
0
100
AcDbLine
 62
7
  6
CONTINUOUS
 10
3.454781991
 20
1.0623185844
 11
3.4557325628
 21
1.0481903846
  0
SPLINE
  5
465
100
AcDbEntity
  8
0
100
AcDbSpline
 62
7
  6
CONTINUOUS
 70
0
 71
3
 72
20
 73
16
 74
0
 42
0.0000001
 43
0.0000001
 44
0.0000000001
 40
0.0
 40
0.0
 40
0.0
 40
0.0
 40
0.091625434
 40
0.1483322388
 40
0.2110667313
 40
0.2787408314
 40
0.3501980256
 40
0.4995549101
 40
0.6489607132
 40
0.7204836896
 40
0.7882525133
 40
0.8511114912
 40
0.907972863
 40
0.9578987156
 40
1.0
 40
1.0
 40
1.0
 40
1.0
 10
3.4557325628
 20
1.0481903846
 30
0.0
 10
3.4562168916
 20
1.0393805305
 30
0.0
 10
3.456779389
 20
1.025106641
 30
0.0
 10
3.4574661969
 20
1.0047936382
 30
0.0
 10
3.458049943
 20
0.9867845723
 30
0.0
 10
3.4586494188
 20
0.9673549664
 30
0.0
 10
3.4594296874
 20
0.9395856426
 30
0.0
 10
3.4603116192
 20
0.9039458314
 30
0.0
 10
3.4613166205
 20
0.8683029565
 30
0.0
 10
3.4620896153
 20
0.8405133034
 30
0.0
 10
3.4626375122
 20
0.821054712
 30
0.0
 10
3.4631961745
 20
0.8030088617
 30
0.0
 10
3.4637845066
 20
0.786683133
 30
0.0
 10
3.4643734082
 20
0.7723578424
 30
0.0
 10
3.4647816364
 20
0.7635053132
 30
0.0
 10
3.4649895411
 20
0.7594564648
 30
0.0
  0
LINE
  5
466
100
AcDbEntity
  8
0
100
AcDbLine
 62
7
  6
CONTINUOUS
 10
3.4651924975
 20
0.7556553501
 11
3.4658920213
 21
0.7451927113
  0
SPLINE
  5
467
100
AcDbEntity
  8
0
100
AcDbSpline
 62
7
  6
CONTINUOUS
 70
0
 71
3
 72
13
 73
9
 74
0
 42
0.0000001
 43
0.0000001
 44
0.0000000001
 40
0.0
 40
0.0
 40
0.0
 40
0.0
 40
0.3828161788
 40
0.6771998879
 40
0.7910622042
 40
0.8826810232
 40
0.9521741898
 40
1.0
 40
1.0
 40
1.0
 40
1.0
 10
3.4658920213
 20
0.7451927113
 30
0.0
 10
3.4659805908
 20
0.7441476313
 30
0.0
 10
3.4661530266
 20
0.7423002619
 30
0.0
 10
3.4664130059
 20
0.7401477653
 30
0.0
 10
3.466632737
 20
0.7387959747
 30
0.0
 10
3.4667817616
 20
0.7380568335
 30
0.0
 10
3.46692898
 20
0.7375040489
 30
0.0
 10
3.4670431318
 20
0.7372009232
 30
0.0
 10
3.4671078351
 20
0.7370869814
 30
0.0
  0
SPLINE
  5
468
100
AcDbEntity
  8
0
100
AcDbSpline
 62
7
  6
CONTINUOUS
 70
0
 71
3
 72
14
 73
10
 74
0
 42
0.0000001
 43
0.0000001
 44
0.0000000001
 40
0.0
 40
0.0
 40
0.0
 40
0.0
 40
0.0256529508
 40
0.047327301
 40
0.0760018171
 40
0.1552813856
 40
0.2643899761
 40
0.5725068184
 40
1.0
 40
1.0
 40
1.0
 40
1.0
 10
3.4812067791
 20
1.0712677621
 30
0.0
 10
3.4812778906
 20
1.0712699762
 30
0.0
 10
3.4813872145
 20
1.071152447
 30
0.0
 10
3.4814760935
 20
1.0709705817
 30
0.0
 10
3.4816032249
 20
1.0706293822
 30
0.0
 10
3.481743618
 20
1.0700455112
 30
0.0
 10
3.481989233
 20
1.0686888115
 30
0.0
 10
3.482268402
 20
1.0663623721
 30
0.0
 10
3.4824581127
 20
1.0643308892
 30
0.0
 10
3.4825591445
 20
1.0631495924
 30
0.0
  0
LINE
  5
469
100
AcDbEntity
  8
0
100
AcDbLine
 62
7
  6
CONTINUOUS
 10
3.4825591445
 20
1.0631495924
 11
3.4835098956
 21
1.0489488882
  0
SPLINE
  5
46A
100
AcDbEntity
  8
0
100
AcDbSpline
 62
7
  6
CONTINUOUS
 70
0
 71
3
 72
20
 73
16
 74
0
 42
0.0000001
 43
0.0000001
 44
0.0000000001
 40
0.0
 40
0.0
 40
0.0
 40
0.0
 40
0.0916090313
 40
0.1483079644
 40
0.2110350806
 40
0.2787026456
 40
0.350154374
 40
0.4995045046
 40
0.648910202
 40
0.7204362108
 40
0.7882102308
 40
0.851076563
 40
0.9079473571
 40
0.9578847982
 40
1.0
 40
1.0
 40
1.0
 40
1.0
 10
3.4835098956
 20
1.0489488882
 30
0.0
 10
3.4839943335
 20
1.0400952115
 30
0.0
 10
3.4845571795
 20
1.0257502187
 30
0.0
 10
3.4852440445
 20
1.0053357534
 30
0.0
 10
3.4858274019
 20
0.9872361229
 30
0.0
 10
3.4864263984
 20
0.9677084171
 30
0.0
 10
3.4872066146
 20
0.9397980642
 30
0.0
 10
3.4880894409
 20
0.9039761722
 30
0.0
 10
3.4890934663
 20
0.8681502949
 30
0.0
 10
3.4898665155
 20
0.8402169095
 30
0.0
 10
3.4904147402
 20
0.8206567236
 30
0.0
 10
3.4909734602
 20
0.8025159055
 30
0.0
 10
3.4915613368
 20
0.7861033931
 30
0.0
 10
3.4921498036
 20
0.7717009459
 30
0.0
 10
3.4925581712
 20
0.7628003541
 30
0.0
 10
3.4927662028
 20
0.7587292978
 30
0.0
  0
LINE
  5
46B
100
AcDbEntity
  8
0
100
AcDbLine
 62
7
  6
CONTINUOUS
 10
3.4929761278
 20
0.7547839581
 11
3.4936694887
 21
0.7443779265
  0
SPLINE
  5
46C
100
AcDbEntity
  8
0
100
AcDbSpline
 62
7
  6
CONTINUOUS
 70
0
 71
3
 72
10
 73
6
 74
0
 42
0.0000001
 43
0.0000001
 44
0.0000000001
 40
0.0
 40
0.0
 40
0.0
 40
0.0
 40
0.6199246768
 40
0.840042951
 40
1.0
 40
1.0
 40
1.0
 40
1.0
 10
3.4936694887
 20
0.7443779265
 30
0.0
 10
3.4937988006
 20
0.7428427374
 30
0.0
 10
3.4939929695
 20
0.7407628527
 30
0.0
 10
3.4943417545
 20
0.7383022671
 30
0.0
 10
3.49451876
 20
0.7373731922
 30
0.0
 10
3.4946168437
 20
0.7369879603
 30
0.0
  0
LINE
  5
46D
100
AcDbEntity
  8
0
100
AcDbLine
 62
7
  6
CONTINUOUS
 10
3.4946168437
 20
0.7369879603
 11
3.4948858445
 21
0.7362217846
  0
SPLINE
  5
46E
100
AcDbEntity
  8
0
100
AcDbSpline
 62
7
  6
CONTINUOUS
 70
0
 71
3
 72
16
 73
12
 74
0
 42
0.0000001
 43
0.0000001
 44
0.0000000001
 40
0.0
 40
0.0
 40
0.0
 40
0.0
 40
0.0232811282
 40
0.0444222736
 40
0.0728018587
 40
0.1086223976
 40
0.1519684182
 40
0.2613476616
 40
0.4010062348
 40
0.5708554186
 40
1.0
 40
1.0
 40
1.0
 40
1.0
 10
3.5089843214
 20
1.0721326185
 30
0.0
 10
3.5090746651
 20
1.0721354313
 30
0.0
 10
3.5092026348
 20
1.0719577389
 30
0.0
 10
3.509304247
 20
1.0717114403
 30
0.0
 10
3.509405348
 20
1.0713892368
 30
0.0
 10
3.5095021176
 20
1.0709851802
 30
0.0
 10
3.5096447355
 20
1.0702659992
 30
0.0
 10
3.5098141402
 20
1.069143768
 30
0.0
 10
3.5100087635
 20
1.0675287934
 30
0.0
 10
3.5102944597
 20
1.0646752715
 30
0.0
 10
3.5104780821
 20
1.0623566921
 30
0.0
 10
3.5105993725
 20
1.060694986
 30
0.0
  0
SPLINE
  5
46F
100
AcDbEntity
  8
0
100
AcDbSpline
 62
7
  6
CONTINUOUS
 70
0
 71
3
 72
12
 73
8
 74
0
 42
0.0000001
 43
0.0000001
 44
0.0000000001
 40
0.0
 40
0.0
 40
0.0
 40
0.0
 40
0.0860150679
 40
0.1876577431
 40
0.4297723576
 40
0.7076955915
 40
1.0
 40
1.0
 40
1.0
 40
1.0
 10
3.5114340336
 20
1.0467206326
 30
0.0
 10
3.5116650896
 20
1.0421399174
 30
0.0
 10
3.5121063866
 20
1.0321430923
 30
0.0
 10
3.5129563784
 20
1.0092422347
 30
0.0
 10
3.5139571467
 20
0.9761075744
 30
0.0
 10
3.5152009928
 20
0.9328092903
 30
0.0
 10
3.5159189347
 20
0.9024116722
 30
0.0
 10
3.5163416489
 20
0.8868310022
 30
0.0
  0
LINE
  5
470
100
AcDbEntity
  8
0
100
AcDbLine
 62
7
  6
CONTINUOUS
 10
3.5209165838
 20
0.9581351629
 11
3.5207523714
 21
1.0465857343
  0
SPLINE
  5
471
100
AcDbEntity
  8
0
100
AcDbSpline
 62
7
  6
CONTINUOUS
 70
0
 71
3
 72
13
 73
9
 74
0
 42
0.0000001
 43
0.0000001
 44
0.0000000001
 40
0.0
 40
0.0
 40
0.0
 40
0.0
 40
0.0448933545
 40
0.1123227089
 40
0.2028096058
 40
0.3164081495
 40
0.6126142697
 40
1.0
 40
1.0
 40
1.0
 40
1.0
 10
3.4945077997
 20
1.0551802578
 30
0.0
 10
3.4945567007
 20
1.0550945577
 30
0.0
 10
3.4946408697
 20
1.0548601125
 30
0.0
 10
3.4947501191
 20
1.0544285215
 30
0.0
 10
3.4948620428
 20
1.0538417544
 30
0.0
 10
3.4950298611
 20
1.0527551127
 30
0.0
 10
3.4952312037
 20
1.0510139682
 30
0.0
 10
3.4953665974
 20
1.0495176264
 30
0.0
 10
3.495436617
 20
1.0486690825
 30
0.0
  0
SPLINE
  5
472
100
AcDbEntity
  8
0
100
AcDbSpline
 62
7
  6
CONTINUOUS
 70
0
 71
3
 72
23
 73
19
 74
0
 42
0.0000001
 43
0.0000001
 44
0.0000000001
 40
0.0
 40
0.0
 40
0.0
 40
0.0
 40
0.029621505
 40
0.0704524256
 40
0.1214597214
 40
0.1814431408
 40
0.249007021
 40
0.3226029068
 40
0.4004803144
 40
0.4808349216
 40
0.5618088997
 40
0.6415605512
 40
0.7182784449
 40
0.7902167888
 40
0.8557237143
 40
0.9133187708
 40
0.961768458
 40
1.0
 40
1.0
 40
1.0
 40
1.0
 10
3.495436617
 20
1.0486690825
 30
0.0
 10
3.4956707005
 20
1.0458323056
 30
0.0
 10
3.4960687072
 20
1.0390727673
 30
0.0
 10
3.4965629525
 20
1.0274120062
 30
0.0
 10
3.4970876702
 20
1.0128322885
 30
0.0
 10
3.4976485264
 20
0.9956836138
 30
0.0
 10
3.4981852075
 20
0.9763625247
 30
0.0
 10
3.4986875729
 20
0.9553205783
 30
0.0
 10
3.4992146026
 20
0.9330497823
 30
0.0
 10
3.4997772097
 20
0.9100706508
 30
0.0
 10
3.5003160035
 20
0.8869107911
 30
0.0
 10
3.5008166681
 20
0.8640996312
 30
0.0
 10
3.5013372684
 20
0.842157382
 30
0.0
 10
3.5018933786
 20
0.8215852936
 30
0.0
 10
3.5024289213
 20
0.8028509498
 30
0.0
 10
3.5029244457
 20
0.7863734458
 30
0.0
 10
3.5034290618
 20
0.7725185621
 30
0.0
 10
3.5038307766
 20
0.7641984114
 30
0.0
 10
3.5040443335
 20
0.7605308411
 30
0.0
  0
SPLINE
  5
473
100
AcDbEntity
  8
0
100
AcDbSpline
 62
7
  6
CONTINUOUS
 70
0
 71
3
 72
11
 73
7
 74
0
 42
0.0000001
 43
0.0000001
 44
0.0000000001
 40
0.0
 40
0.0
 40
0.0
 40
0.0
 40
0.3544702059
 40
0.6400479247
 40
0.8553905182
 40
1.0
 40
1.0
 40
1.0
 40
1.0
 10
3.5040443335
 20
0.7605308411
 30
0.0
 10
3.5041292692
 20
0.7590721767
 30
0.0
 10
3.5042940259
 20
0.7564390805
 30
0.0
 10
3.5045561706
 20
0.7529224249
 30
0.0
 10
3.5048101253
 20
0.7502741742
 30
0.0
 10
3.5050017389
 20
0.7488010589
 30
0.0
 10
3.50511634
 20
0.7482160951
 30
0.0
  0
LINE
  5
474
100
AcDbEntity
  8
0
100
AcDbLine
 62
7
  6
CONTINUOUS
 10
3.50511634
 20
0.7482160951
 11
3.505465998
 21
0.7472417762
  0
LINE
  5
475
100
AcDbEntity
  8
0
100
AcDbLine
 62
7
  6
CONTINUOUS
 10
3.5167731926
 20
1.0655764736
 11
3.5173482916
 21
1.0626146668
  0
LINE
  5
476
100
AcDbEntity
  8
0
100
AcDbLine
 62
7
  6
CONTINUOUS
 10
3.5173482916
 20
1.0626146668
 11
3.5177202238
 21
1.0585609674
  0
LINE
  5
477
100
AcDbEntity
  8
0
100
AcDbLine
 62
7
  6
CONTINUOUS
 10
3.5177202238
 20
1.0585609674
 11
3.5180765816
 21
1.0528579587
  0
SPLINE
  5
478
100
AcDbEntity
  8
0
100
AcDbSpline
 62
7
  6
CONTINUOUS
 70
0
 71
3
 72
11
 73
7
 74
0
 42
0.0000001
 43
0.0000001
 44
0.0000000001
 40
0.0
 40
0.0
 40
0.0
 40
0.0
 40
0.1876103233
 40
0.4220073794
 40
0.696190679
 40
1.0
 40
1.0
 40
1.0
 40
1.0
 10
3.5184271634
 20
1.0455749478
 30
0.0
 10
3.5186666888
 20
1.0401108646
 30
0.0
 10
3.5191392434
 20
1.0278172046
 30
0.0
 10
3.519802039
 20
1.0075320221
 30
0.0
 10
3.5203312252
 20
0.9838543928
 30
0.0
 10
3.5206642153
 20
0.9670077274
 30
0.0
 10
3.5208624274
 20
0.9581531109
 30
0.0
  0
SPLINE
  5
479
100
AcDbEntity
  8
0
100
AcDbSpline
 62
7
  6
CONTINUOUS
 70
0
 71
3
 72
11
 73
7
 74
0
 42
0.0000001
 43
0.0000001
 44
0.0000000001
 40
0.0
 40
0.0
 40
0.0
 40
0.0
 40
0.2499865103
 40
0.5000066224
 40
0.7500315182
 40
1.0
 40
1.0
 40
1.0
 40
1.0
 10
2.9617243789
 20
1.4193664596
 30
0.0
 10
2.9538745545
 20
1.4193664596
 30
0.0
 10
2.9381507121
 20
1.4181612651
 30
0.0
 10
2.9150970607
 20
1.4130406178
 30
0.0
 10
2.8928284823
 20
1.4052436451
 30
0.0
 10
2.8785339894
 20
1.3987047955
 30
0.0
 10
2.8715133993
 20
1.3951945005
 30
0.0
  0
SPLINE
  5
47A
100
AcDbEntity
  8
0
100
AcDbSpline
 62
7
  6
CONTINUOUS
 70
0
 71
3
 72
11
 73
7
 74
0
 42
0.0000001
 43
0.0000001
 44
0.0000000001
 40
0.0
 40
0.0
 40
0.0
 40
0.0
 40
0.2499684811
 40
0.4999933771
 40
0.7500134893
 40
1.0
 40
1.0
 40
1.0
 40
1.0
 10
3.0519353584
 20
1.3951945005
 30
0.0
 10
3.0449147684
 20
1.3987047955
 30
0.0
 10
3.0306202756
 20
1.4052436453
 30
0.0
 10
3.0083516973
 20
1.4130406187
 30
0.0
 10
2.9852980458
 20
1.4181612659
 30
0.0
 10
2.9695742033
 20
1.4193664596
 30
0.0
 10
2.9617243789
 20
1.4193664596
 30
0.0
  0
SPLINE
  5
47B
100
AcDbEntity
  8
0
100
AcDbSpline
 62
7
  6
CONTINUOUS
 70
0
 71
3
 72
11
 73
7
 74
0
 42
0.0000001
 43
0.0000001
 44
0.0000000001
 40
0.0
 40
0.0
 40
0.0
 40
0.0
 40
0.249977254
 40
0.5000008954
 40
0.7500154323
 40
1.0
 40
1.0
 40
1.0
 40
1.0
 10
2.8715133993
 20
1.2340384187
 30
0.0
 10
2.8785342369
 20
1.2305279999
 30
0.0
 10
2.8928288811
 20
1.2239888683
 30
0.0
 10
2.9150976943
 20
1.2161924186
 30
0.0
 10
2.9381509639
 20
1.2110713161
 30
0.0
 10
2.9538746142
 20
1.2098664596
 30
0.0
 10
2.9617243789
 20
1.2098664596
 30
0.0
  0
SPLINE
  5
47C
100
AcDbEntity
  8
0
100
AcDbSpline
 62
7
  6
CONTINUOUS
 70
0
 71
3
 72
11
 73
7
 74
0
 42
0.0000001
 43
0.0000001
 44
0.0000000001
 40
0.0
 40
0.0
 40
0.0
 40
0.0
 40
0.226479344
 40
0.4659075631
 40
0.723959715
 40
1.0
 40
1.0
 40
1.0
 40
1.0
 10
2.8264079095
 20
1.2098664596
 30
0.0
 10
2.8303654288
 20
1.2098664596
 30
0.0
 10
2.8385444268
 20
1.2111620006
 30
0.0
 10
2.850152933
 20
1.216446278
 30
0.0
 10
2.861223392
 20
1.2242934832
 30
0.0
 10
2.8681026334
 20
1.2306276529
 30
0.0
 10
2.8715133993
 20
1.2340384187
 30
0.0
  0
SPLINE
  5
47D
100
AcDbEntity
  8
0
100
AcDbSpline
 62
7
  6
CONTINUOUS
 70
0
 71
3
 72
11
 73
7
 74
0
 42
0.0000001
 43
0.0000001
 44
0.0000000001
 40
0.0
 40
0.0
 40
0.0
 40
0.0
 40
0.229893149
 40
0.4703182021
 40
0.7268266406
 40
1.0
 40
1.0
 40
1.0
 40
1.0
 10
2.8264079095
 20
1.4193664596
 30
0.0
 10
2.8229438621
 20
1.4193664596
 30
0.0
 10
2.8158297453
 20
1.4183851803
 30
0.0
 10
2.805583402
 20
1.4143005313
 30
0.0
 10
2.7957351667
 20
1.4080766086
 30
0.0
 10
2.7895825863
 20
1.4029655496
 30
0.0
 10
2.7865373164
 20
1.4001961798
 30
0.0
  0
SPLINE
  5
47E
100
AcDbEntity
  8
0
100
AcDbSpline
 62
7
  6
CONTINUOUS
 70
0
 71
3
 72
11
 73
7
 74
0
 42
0.0000001
 43
0.0000001
 44
0.0000000001
 40
0.0
 40
0.0
 40
0.0
 40
0.0
 40
0.2760303737
 40
0.5340859061
 40
0.7735185451
 40
1.0
 40
1.0
 40
1.0
 40
1.0
 10
2.8715133993
 20
1.3951945005
 30
0.0
 10
2.8681027577
 20
1.3986051421
 30
0.0
 10
2.8612235081
 20
1.4049390907
 30
0.0
 10
2.8501533498
 20
1.412786704
 30
0.0
 10
2.8385445018
 20
1.418070604
 30
0.0
 10
2.8303654637
 20
1.4193664596
 30
0.0
 10
2.8264079095
 20
1.4193664596
 30
0.0
  0
SPLINE
  5
47F
100
AcDbEntity
  8
0
100
AcDbSpline
 62
7
  6
CONTINUOUS
 70
0
 71
3
 72
13
 73
9
 74
0
 42
0.0000001
 43
0.0000001
 44
0.0000000001
 40
0.0
 40
0.0
 40
0.0
 40
0.0
 40
0.0480517344
 40
0.1175869736
 40
0.2091250248
 40
0.3228438759
 40
0.6169861777
 40
1.0
 40
1.0
 40
1.0
 40
1.0
 10
3.4010758452
 20
0.7569420698
 30
0.0
 10
3.4010060862
 20
0.7570656408
 30
0.0
 10
3.4008829035
 20
0.7573931113
 30
0.0
 10
3.4007244087
 20
0.7579895966
 30
0.0
 10
3.4005641296
 20
0.7587857946
 30
0.0
 10
3.4003275459
 20
0.7602414972
 30
0.0
 10
3.4000457665
 20
0.7625608159
 30
0.0
 10
3.3998560675
 20
0.7645515247
 30
0.0
 10
3.3997576408
 20
0.7656783136
 30
0.0
  0
SPLINE
  5
480
100
AcDbEntity
  8
0
100
AcDbSpline
 62
7
  6
CONTINUOUS
 70
0
 71
3
 72
32
 73
28
 74
0
 42
0.0000001
 43
0.0000001
 44
0.0000000001
 40
0.0
 40
0.0
 40
0.0
 40
0.0
 40
0.0382575105
 40
0.0899736041
 40
0.1535053217
 40
0.2270191373
 40
0.3084069288
 40
0.3951075696
 40
0.4844757714
 40
0.5738248239
 40
0.6604811408
 40
0.7418013979
 40
0.7796861418
 40
0.8153309335
 40
0.8484462011
 40
0.8787829325
 40
0.9061286165
 40
0.9302724093
 40
0.9510114079
 40
0.9682066477
 40
0.9817536919
 40
0.99155472
 40
0.9950280588
 40
0.9975549558
 40
0.9984718224
 40
0.9991679687
 40
1.0
 40
1.0
 40
1.0
 40
1.0
 10
3.3997576408
 20
0.7656783136
 30
0.0
 10
3.3994409488
 20
0.7693038047
 30
0.0
 10
3.3988814251
 20
0.777845695
 30
0.0
 10
3.3981407418
 20
0.7924291452
 30
0.0
 10
3.3973924367
 20
0.8103700537
 30
0.0
 10
3.3966377185
 20
0.8311351064
 30
0.0
 10
3.3958826417
 20
0.8541054791
 30
0.0
 10
3.3951243611
 20
0.8785846431
 30
0.0
 10
3.3943644161
 20
0.9038214363
 30
0.0
 10
3.393605008
 20
0.9290540259
 30
0.0
 10
3.3928470185
 20
0.9535207352
 30
0.0
 10
3.3922013383
 20
0.9730929487
 30
0.0
 10
3.391676847
 20
0.9878139101
 30
0.0
 10
3.391293244
 20
0.9979513944
 30
0.0
 10
3.3909101172
 20
1.0073703354
 30
0.0
 10
3.390527603
 20
1.0159991371
 30
0.0
 10
3.3901458961
 20
1.0237736343
 30
0.0
 10
3.3897655416
 20
1.0306339987
 30
0.0
 10
3.3893856982
 20
1.0365271133
 30
0.0
 10
3.38900964
 20
1.0414101098
 30
0.0
 10
3.3886350646
 20
1.0452489329
 30
0.0
 10
3.3883112011
 20
1.0477804124
 30
0.0
 10
3.3880270981
 20
1.0492583385
 30
0.0
 10
3.3878649708
 20
1.0498945608
 30
0.0
 10
3.3877209688
 20
1.0502662557
 30
0.0
 10
3.3876193392
 20
1.0504657888
 30
0.0
 10
3.3874995968
 20
1.0505943597
 30
0.0
 10
3.3874204495
 20
1.0505939951
 30
0.0
  0
SPLINE
  5
481
100
AcDbEntity
  8
0
100
AcDbSpline
 62
7
  6
CONTINUOUS
 70
0
 71
3
 72
12
 73
8
 74
0
 42
0.0000001
 43
0.0000001
 44
0.0000000001
 40
0.0
 40
0.0
 40
0.0
 40
0.0
 40
0.0518565799
 40
0.1242355888
 40
0.332052255
 40
0.6241988426
 40
1.0
 40
1.0
 40
1.0
 40
1.0
 10
3.4288546739
 20
0.7560594652
 30
0.0
 10
3.4287971
 20
0.756162252
 30
0.0
 10
3.4286924013
 20
0.7564262097
 30
0.0
 10
3.4284863983
 20
0.757151898
 30
0.0
 10
3.4282500667
 20
0.7584329861
 30
0.0
 10
3.4279785691
 20
0.7604035923
 30
0.0
 10
3.4278167554
 20
0.7619128686
 30
0.0
 10
3.4277325171
 20
0.7627624848
 30
0.0
  0
SPLINE
  5
482
100
AcDbEntity
  8
0
100
AcDbSpline
 62
7
  6
CONTINUOUS
 70
0
 71
3
 72
34
 73
30
 74
0
 42
0.0000001
 43
0.0000001
 44
0.0000000001
 40
0.0
 40
0.0
 40
0.0
 40
0.0
 40
0.0156034911
 40
0.0349174269
 40
0.0839996593
 40
0.1456840856
 40
0.2180416703
 40
0.2988335194
 40
0.3855318575
 40
0.4754338009
 40
0.5657405164
 40
0.6536295651
 40
0.7363122945
 40
0.7748649857
 40
0.811177856
 40
0.8449781181
 40
0.8759955752
 40
0.9039869034
 40
0.9287255303
 40
0.9499857825
 40
0.9675660913
 40
0.9813755063
 40
0.9868494653
 40
0.9913621111
 40
0.9949104977
 40
0.9974975542
 40
0.9984373444
 40
0.9991512103
 40
1.0
 40
1.0
 40
1.0
 40
1.0
 10
3.4277325171
 20
0.7627624848
 30
0.0
 10
3.4275841321
 20
0.7642590755
 30
0.0
 10
3.4273005474
 20
0.767612902
 30
0.0
 10
3.4267446672
 20
0.7756901646
 30
0.0
 10
3.42608368
 20
0.7882110548
 30
0.0
 10
3.4253244317
 20
0.805845016
 30
0.0
 10
3.4245596634
 20
0.8265375824
 30
0.0
 10
3.4237921051
 20
0.8496423683
 30
0.0
 10
3.423023016
 20
0.8744389717
 30
0.0
 10
3.422251551
 20
0.9001529966
 30
0.0
 10
3.4214798245
 20
0.9259818325
 30
0.0
 10
3.4207099578
 20
0.9511145907
 30
0.0
 10
3.4200554202
 20
0.9712602663
 30
0.0
 10
3.4195227803
 20
0.9864360844
 30
0.0
 10
3.4191328576
 20
0.9969024934
 30
0.0
 10
3.4187434375
 20
1.0066421097
 30
0.0
 10
3.4183546669
 20
1.0155789985
 30
0.0
 10
3.4179668615
 20
1.0236416376
 30
0.0
 10
3.4175802348
 20
1.0307626831
 30
0.0
 10
3.417195845
 20
1.0368787656
 30
0.0
 10
3.4168123565
 20
1.0419390276
 30
0.0
 10
3.4164768838
 20
1.0454766458
 30
0.0
 10
3.4161968624
 20
1.0477533843
 30
0.0
 10
3.4160055641
 20
1.0490436545
 30
0.0
 10
3.4158142636
 20
1.0500534331
 30
0.0
 10
3.415649523
 20
1.050713423
 30
0.0
 10
3.4155033353
 20
1.0511005453
 30
0.0
 10
3.4153998857
 20
1.0513081957
 30
0.0
 10
3.4152795489
 20
1.0514444516
 30
0.0
 10
3.4151977535
 20
1.0514459862
 30
0.0
  0
SPLINE
  5
483
100
AcDbEntity
  8
0
100
AcDbSpline
 62
7
  6
CONTINUOUS
 70
0
 71
3
 72
13
 73
9
 74
0
 42
0.0000001
 43
0.0000001
 44
0.0000000001
 40
0.0
 40
0.0
 40
0.0
 40
0.0
 40
0.0480122578
 40
0.1176844844
 40
0.2095969791
 40
0.3237906222
 40
0.6184147554
 40
1.0
 40
1.0
 40
1.0
 40
1.0
 10
3.4566334602
 20
0.75518319
 30
0.0
 10
3.4565649307
 20
0.7553048267
 30
0.0
 10
3.4564440173
 20
0.7556277466
 30
0.0
 10
3.4562885696
 20
0.7562166679
 30
0.0
 10
3.456131475
 20
0.7570037428
 30
0.0
 10
3.4558996304
 20
0.7584412351
 30
0.0
 10
3.4556234546
 20
0.7607237692
 30
0.0
 10
3.4554365615
 20
0.7626811981
 30
0.0
 10
3.4553395822
 20
0.7637865489
 30
0.0
  0
SPLINE
  5
484
100
AcDbEntity
  8
0
100
AcDbSpline
 62
7
  6
CONTINUOUS
 70
0
 71
3
 72
32
 73
28
 74
0
 42
0.0000001
 43
0.0000001
 44
0.0000000001
 40
0.0
 40
0.0
 40
0.0
 40
0.0
 40
0.0377495898
 40
0.0890350453
 40
0.1523742056
 40
0.2258680525
 40
0.3072045124
 40
0.3939026868
 40
0.4833548294
 40
0.5728835017
 40
0.6597708447
 40
0.7413132837
 40
0.7792448997
 40
0.8149072451
 40
0.8480671179
 40
0.8784917378
 40
0.9059512307
 40
0.9302284945
 40
0.9511106437
 40
0.9683862916
 40
0.9819005596
 40
0.991625334
 40
0.9950689675
 40
0.9975753093
 40
0.9984848728
 40
0.9991753981
 40
1.0
 40
1.0
 40
1.0
 40
1.0
 10
3.4553395822
 20
0.7637865489
 30
0.0
 10
3.4550217794
 20
0.767408802
 30
0.0
 10
3.4544586908
 20
0.7759678208
 30
0.0
 10
3.4537171406
 20
0.7906261407
 30
0.0
 10
3.4529686018
 20
0.8087311879
 30
0.0
 10
3.4522128764
 20
0.8297324137
 30
0.0
 10
3.4514546831
 20
0.8529849372
 30
0.0
 10
3.450695076
 20
0.877775298
 30
0.0
 10
3.4499338919
 20
0.9033550724
 30
0.0
 10
3.4491723828
 20
0.9289530656
 30
0.0
 10
3.4484122107
 20
0.9537888662
 30
0.0
 10
3.4477663278
 20
0.9736558242
 30
0.0
 10
3.4472408928
 20
0.9885898544
 30
0.0
 10
3.4468563211
 20
0.9988655603
 30
0.0
 10
3.4464721423
 20
1.0084176428
 30
0.0
 10
3.4460885613
 20
1.0171789381
 30
0.0
 10
3.4457057449
 20
1.0250837685
 30
0.0
 10
3.4453243601
 20
1.0320683289
 30
0.0
 10
3.4449444743
 20
1.0380703562
 30
0.0
 10
3.4445690646
 20
1.0430336418
 30
0.0
 10
3.4441937544
 20
1.0469184097
 30
0.0
 10
3.4438684207
 20
1.0494686113
 30
0.0
 10
3.4435834479
 20
1.050953237
 30
0.0
 10
3.443420924
 20
1.0515921576
 30
0.0
 10
3.4432765253
 20
1.051965591
 30
0.0
 10
3.4431746571
 20
1.0521660104
 30
0.0
 10
3.4430545567
 20
1.0522952725
 30
0.0
 10
3.4429751291
 20
1.0522949121
 30
0.0
  0
SPLINE
  5
485
100
AcDbEntity
  8
0
100
AcDbSpline
 62
7
  6
CONTINUOUS
 70
0
 71
3
 72
13
 73
9
 74
0
 42
0.0000001
 43
0.0000001
 44
0.0000000001
 40
0.0
 40
0.0
 40
0.0
 40
0.0
 40
0.045068158
 40
0.1126353349
 40
0.2033504894
 40
0.317312175
 40
0.6139285446
 40
1.0
 40
1.0
 40
1.0
 40
1.0
 10
3.4844122388
 20
0.7543130612
 30
0.0
 10
3.4843334506
 20
0.7544514853
 30
0.0
 10
3.4841984407
 20
0.7548298305
 30
0.0
 10
3.4840253351
 20
0.7555264539
 30
0.0
 10
3.4838504463
 20
0.7564735471
 30
0.0
 10
3.4835909989
 20
0.7582259742
 30
0.0
 10
3.4832830262
 20
0.761025479
 30
0.0
 10
3.4830747303
 20
0.7634291307
 30
0.0
 10
3.4829664705
 20
0.7647892483
 30
0.0
  0
SPLINE
  5
486
100
AcDbEntity
  8
0
100
AcDbSpline
 62
7
  6
CONTINUOUS
 70
0
 71
3
 72
32
 73
28
 74
0
 42
0.0000001
 43
0.0000001
 44
0.0000000001
 40
0.0
 40
0.0
 40
0.0
 40
0.0
 40
0.0402023875
 40
0.0933928862
 40
0.1581343367
 40
0.232565729
 40
0.3143404869
 40
0.4010111255
 40
0.4900565066
 40
0.5788916339
 40
0.6648872197
 40
0.745430119
 40
0.78284694
 40
0.8179877499
 40
0.8506326306
 40
0.8805631271
 40
0.9075623197
 40
0.9314255802
 40
0.9519552545
 40
0.9689549564
 40
0.9822533849
 40
0.9918058537
 40
0.9951819297
 40
0.9976343994
 40
0.9985225458
 40
0.9991956623
 40
1.0
 40
1.0
 40
1.0
 40
1.0
 10
3.4829664705
 20
0.7647892483
 30
0.0
 10
3.4826593657
 20
0.7686475472
 30
0.0
 10
3.4821041789
 20
0.7776228171
 30
0.0
 10
3.481368666
 20
0.7928294627
 30
0.0
 10
3.4806272317
 20
0.8113347039
 30
0.0
 10
3.4798804959
 20
0.8325934299
 30
0.0
 10
3.4791308435
 20
0.8559645068
 30
0.0
 10
3.4783798247
 20
0.8807431633
 30
0.0
 10
3.4776277184
 20
0.9062018298
 30
0.0
 10
3.4768755121
 20
0.9315954745
 30
0.0
 10
3.4761242891
 20
0.9561702016
 30
0.0
 10
3.4754857205
 20
0.9757957279
 30
0.0
 10
3.4749665554
 20
0.9905264099
 30
0.0
 10
3.4745867345
 20
1.0006477126
 30
0.0
 10
3.4742072964
 20
1.0100477399
 30
0.0
 10
3.4738283968
 20
1.0186632665
 30
0.0
 10
3.4734501207
 20
1.0264324717
 30
0.0
 10
3.4730731682
 20
1.0332955037
 30
0.0
 10
3.4726975698
 20
1.0391942357
 30
0.0
 10
3.4723268055
 20
1.0440738816
 30
0.0
 10
3.4719563789
 20
1.0478929015
 30
0.0
 10
3.4716351875
 20
1.0503981795
 30
0.0
 10
3.4713534829
 20
1.0518538004
 30
0.0
 10
3.4711931391
 20
1.0524788583
 30
0.0
 10
3.4710502131
 20
1.0528429696
 30
0.0
 10
3.4709499634
 20
1.0530379393
 30
0.0
 10
3.4708299116
 20
1.0531620297
 30
0.0
 10
3.4707525083
 20
1.0531597156
 30
0.0
  0
SPLINE
  5
487
100
AcDbEntity
  8
0
100
AcDbSpline
 62
7
  6
CONTINUOUS
 70
0
 71
3
 72
11
 73
7
 74
0
 42
0.0000001
 43
0.0000001
 44
0.0000000001
 40
0.0
 40
0.0
 40
0.0
 40
0.0
 40
0.1230064799
 40
0.327778145
 40
0.6190630454
 40
1.0
 40
1.0
 40
1.0
 40
1.0
 10
3.5207313753
 20
0.7399471242
 30
0.0
 10
3.5206635409
 20
0.7400180653
 30
0.0
 10
3.5205426044
 20
0.7402568112
 30
0.0
 10
3.5203766293
 20
0.7407195467
 30
0.0
 10
3.52019893
 20
0.7413985365
 30
0.0
 10
3.5200913104
 20
0.7419237741
 30
0.0
 10
3.520036033
 20
0.7422226764
 30
0.0
  0
LINE
  5
488
100
AcDbEntity
  8
0
100
AcDbLine
 62
7
  6
CONTINUOUS
 10
3.520036033
 20
0.7422226764
 11
3.5195795944
 21
0.7456949383
  0
LINE
  5
489
100
AcDbEntity
  8
0
100
AcDbLine
 62
7
  6
CONTINUOUS
 10
3.5195795944
 20
0.7456949383
 11
3.5192496548
 21
0.7508435377
  0
LINE
  5
48A
100
AcDbEntity
  8
0
100
AcDbLine
 62
7
  6
CONTINUOUS
 10
3.5192496548
 20
0.7508435377
 11
3.519010394
 21
0.7575737493
  0
SPLINE
  5
48B
100
AcDbEntity
  8
0
100
AcDbSpline
 62
7
  6
CONTINUOUS
 70
0
 71
3
 72
12
 73
8
 74
0
 42
0.0000001
 43
0.0000001
 44
0.0000000001
 40
0.0
 40
0.0
 40
0.0
 40
0.0
 40
0.1916129711
 40
0.4300693886
 40
0.5635126751
 40
0.7042683935
 40
1.0
 40
1.0
 40
1.0
 40
1.0
 10
3.5187897275
 20
0.7657419065
 30
0.0
 10
3.5185836659
 20
0.7734748704
 30
0.0
 10
3.5180856319
 20
0.7908303705
 30
0.0
 10
3.517624167
 20
0.8135757955
 30
0.0
 10
3.5172618179
 20
0.8342692817
 30
0.0
 10
3.5168559243
 20
0.8572746793
 30
0.0
 10
3.5165436434
 20
0.8748935735
 30
0.0
 10
3.5163416489
 20
0.8868310022
 30
0.0
  0
SPLINE
  5
48C
100
AcDbEntity
  8
0
100
AcDbSpline
 62
7
  6
CONTINUOUS
 70
0
 71
3
 72
11
 73
7
 74
0
 42
0.0000001
 43
0.0000001
 44
0.0000000001
 40
0.0
 40
0.0
 40
0.0
 40
0.0
 40
0.2264814552
 40
0.4659140937
 40
0.7239696248
 40
1.0
 40
1.0
 40
1.0
 40
1.0
 10
3.0970408482
 20
1.4193664596
 30
0.0
 10
3.0930832941
 20
1.4193664596
 30
0.0
 10
3.084904256
 20
1.4180706037
 30
0.0
 10
3.073295408
 20
1.4127867039
 30
0.0
 10
3.0622252496
 20
1.4049390908
 30
0.0
 10
3.0553460001
 20
1.3986051422
 30
0.0
 10
3.0519353584
 20
1.3951945005
 30
0.0
  0
SPLINE
  5
48D
100
AcDbEntity
  8
0
100
AcDbSpline
 62
7
  6
CONTINUOUS
 70
0
 71
3
 72
11
 73
7
 74
0
 42
0.0000001
 43
0.0000001
 44
0.0000000001
 40
0.0
 40
0.0
 40
0.0
 40
0.0
 40
0.249984628
 40
0.4999991853
 40
0.7500227605
 40
1.0
 40
1.0
 40
1.0
 40
1.0
 10
2.9617243789
 20
1.2098664596
 30
0.0
 10
2.9695741455
 20
1.2098664596
 30
0.0
 10
2.9852977975
 20
1.2110713214
 30
0.0
 10
3.0083510699
 20
1.216192414
 30
0.0
 10
3.0306198782
 20
1.2239888729
 30
0.0
 10
3.0449145212
 20
1.2305280001
 30
0.0
 10
3.0519353584
 20
1.2340384187
 30
0.0
  0
SPLINE
  5
48E
100
AcDbEntity
  8
0
100
AcDbSpline
 62
7
  6
CONTINUOUS
 70
0
 71
3
 72
11
 73
7
 74
0
 42
0.0000001
 43
0.0000001
 44
0.0000000001
 40
0.0
 40
0.0
 40
0.0
 40
0.0
 40
0.2760403089
 40
0.5340924968
 40
0.7735207157
 40
1.0
 40
1.0
 40
1.0
 40
1.0
 10
3.0519353584
 20
1.2340384187
 30
0.0
 10
3.0553461246
 20
1.2306276525
 30
0.0
 10
3.0622253651
 20
1.2242934796
 30
0.0
 10
3.0732958295
 20
1.2164462811
 30
0.0
 10
3.0849043317
 20
1.2111619952
 30
0.0
 10
3.09308333
 20
1.2098664596
 30
0.0
 10
3.0970408482
 20
1.2098664596
 30
0.0
  0
SPLINE
  5
48F
100
AcDbEntity
  8
0
100
AcDbSpline
 62
7
  6
CONTINUOUS
 70
0
 71
3
 72
9
 73
5
 74
0
 42
0.0000001
 43
0.0000001
 44
0.0000000001
 40
0.0
 40
0.0
 40
0.0
 40
0.0
 40
0.4939721195
 40
1.0
 40
1.0
 40
1.0
 40
1.0
 10
3.0970408482
 20
1.2098664596
 30
0.0
 10
3.0994435833
 20
1.2098664596
 30
0.0
 10
3.1043166532
 20
1.2103300868
 30
0.0
 10
3.1090284916
 20
1.2116308144
 30
0.0
 10
3.1113446553
 20
1.2124637345
 30
0.0
  0
SPLINE
  5
490
100
AcDbEntity
  8
0
100
AcDbSpline
 62
7
  6
CONTINUOUS
 70
0
 71
3
 72
9
 73
5
 74
0
 42
0.0000001
 43
0.0000001
 44
0.0000000001
 40
0.0
 40
0.0
 40
0.0
 40
0.0
 40
0.4790015759
 40
1.0
 40
1.0
 40
1.0
 40
1.0
 10
3.1113446553
 20
1.2124637345
 30
0.0
 10
3.1159163553
 20
1.2141077725
 30
0.0
 10
3.1249516121
 20
1.2189642004
 30
0.0
 10
3.1328612443
 20
1.2253632606
 30
0.0
 10
3.1367754832
 20
1.2289132398
 30
0.0
  0
LINE
  5
491
100
AcDbEntity
  8
0
100
AcDbLine
 62
7
  6
CONTINUOUS
 10
3.1367754832
 20
1.2289132398
 11
3.142146338
 21
1.2340384187
  0
SPLINE
  5
492
100
AcDbEntity
  8
0
100
AcDbSpline
 62
7
  6
CONTINUOUS
 70
0
 71
3
 72
15
 73
11
 74
0
 42
0.0000001
 43
0.0000001
 44
0.0000000001
 40
0.0
 40
0.0
 40
0.0
 40
0.0
 40
0.0238452154
 40
0.0451224654
 40
0.0735700951
 40
0.152801802
 40
0.2624392426
 40
0.40252008
 40
0.5725401558
 40
1.0
 40
1.0
 40
1.0
 40
1.0
 10
3.3978368721
 20
0.756707853
 30
0.0
 10
3.3977397764
 20
0.7567070077
 30
0.0
 10
3.3976019176
 20
0.7568904529
 30
0.0
 10
3.3974876309
 20
0.757150614
 30
0.0
 10
3.3973196101
 20
0.7576569354
 30
0.0
 10
3.3971323877
 20
0.7585177554
 30
0.0
 10
3.3969139103
 20
0.7598419002
 30
0.0
 10
3.3966959999
 20
0.7615365476
 30
0.0
 10
3.3963766003
 20
0.7645234403
 30
0.0
 10
3.3961762513
 20
0.766948319
 30
0.0
 10
3.3960443707
 20
0.7686839613
 30
0.0
  0
SPLINE
  5
493
100
AcDbEntity
  8
0
100
AcDbSpline
 62
7
  6
CONTINUOUS
 70
0
 71
3
 72
28
 73
24
 74
0
 42
0.0000001
 43
0.0000001
 44
0.0000000001
 40
0.0
 40
0.0
 40
0.0
 40
0.0
 40
0.0404245312
 40
0.0926340956
 40
0.1553451903
 40
0.2269549525
 40
0.3053917379
 40
0.388498846
 40
0.4740507391
 40
0.5597922301
 40
0.6434314886
 40
0.7226820635
 40
0.7952761778
 40
0.8592431561
 40
0.887508892
 40
0.9130468609
 40
0.9356813721
 40
0.9552438615
 40
0.9715669545
 40
0.984493583
 40
0.9939644062
 40
0.9974086148
 40
1.0
 40
1.0
 40
1.0
 40
1.0
 10
3.3960443707
 20
0.7686839613
 30
0.0
 10
3.3957569824
 20
0.7724661935
 30
0.0
 10
3.3952282956
 20
0.7811429139
 30
0.0
 10
3.3945234853
 20
0.7957023234
 30
0.0
 10
3.3938133156
 20
0.8131906982
 30
0.0
 10
3.3930993118
 20
0.8331415305
 30
0.0
 10
3.3923824669
 20
0.8550071999
 30
0.0
 10
3.3916645507
 20
0.8781817021
 30
0.0
 10
3.3909456618
 20
0.90204191
 30
0.0
 10
3.3902265119
 20
0.9259520651
 30
0.0
 10
3.3895079356
 20
0.9492706987
 30
0.0
 10
3.3887912308
 20
0.9713551399
 30
0.0
 10
3.3880759184
 20
0.9915926845
 30
0.0
 10
3.3874587721
 20
1.0070465862
 30
0.0
 10
3.3869551801
 20
1.0180858578
 30
0.0
 10
3.3865937816
 20
1.0252491645
 30
0.0
 10
3.3862334968
 20
1.0315947642
 30
0.0
 10
3.385874542
 20
1.0370741356
 30
0.0
 10
3.3855192637
 20
1.0416408504
 30
0.0
 10
3.3851657817
 20
1.0452567785
 30
0.0
 10
3.3848561321
 20
1.0476632115
 30
0.0
 10
3.3845906273
 20
1.0490939448
 30
0.0
 10
3.3844560437
 20
1.0496449425
 30
0.0
 10
3.3843834672
 20
1.0498770148
 30
0.0
  0
LINE
  5
494
100
AcDbEntity
  8
0
100
AcDbLine
 62
7
  6
CONTINUOUS
 10
3.3843834672
 20
1.0498770148
 11
3.3841826053
 21
1.0503698757
  0
SPLINE
  5
495
100
AcDbEntity
  8
0
100
AcDbSpline
 62
7
  6
CONTINUOUS
 70
0
 71
3
 72
15
 73
11
 74
0
 42
0.0000001
 43
0.0000001
 44
0.0000000001
 40
0.0
 40
0.0
 40
0.0
 40
0.0
 40
0.0239729475
 40
0.0452738239
 40
0.073729672
 40
0.1529507795
 40
0.2625604876
 40
0.4025949035
 40
0.5725657474
 40
1.0
 40
1.0
 40
1.0
 40
1.0
 10
3.425614231
 20
0.7558439575
 30
0.0
 10
3.4255190811
 20
0.7558432109
 30
0.0
 10
3.4253833342
 20
0.7560212288
 30
0.0
 10
3.425270674
 20
0.75627526
 30
0.0
 10
3.4251054089
 20
0.7567682271
 30
0.0
 10
3.4249211613
 20
0.7576069374
 30
0.0
 10
3.4247062433
 20
0.7588969008
 30
0.0
 10
3.4244918371
 20
0.7605480043
 30
0.0
 10
3.4241775725
 20
0.7634586164
 30
0.0
 10
3.4239804803
 20
0.7658217881
 30
0.0
 10
3.4238507534
 20
0.7675133828
 30
0.0
  0
SPLINE
  5
496
100
AcDbEntity
  8
0
100
AcDbSpline
 62
7
  6
CONTINUOUS
 70
0
 71
3
 72
26
 73
22
 74
0
 42
0.0000001
 43
0.0000001
 44
0.0000000001
 40
0.0
 40
0.0
 40
0.0
 40
0.0
 40
0.0398290292
 40
0.0914474645
 40
0.1535888692
 40
0.22467783
 40
0.3026613783
 40
0.3854007489
 40
0.4706856316
 40
0.5562760209
 40
0.6398904047
 40
0.7192524799
 40
0.7921070085
 40
0.8564513123
 40
0.9107641964
 40
0.9337079602
 40
0.9536134387
 40
0.9703108687
 40
0.9836391662
 40
0.9935315173
 40
1.0
 40
1.0
 40
1.0
 40
1.0
 10
3.4238507534
 20
0.7675133828
 30
0.0
 10
3.4235631032
 20
0.7712642442
 30
0.0
 10
3.4230349924
 20
0.7798861028
 30
0.0
 10
3.422331598
 20
0.7943756245
 30
0.0
 10
3.4216227378
 20
0.8118204845
 30
0.0
 10
3.4209100326
 20
0.8317570499
 30
0.0
 10
3.4201943727
 20
0.8536401454
 30
0.0
 10
3.4194775969
 20
0.876864672
 30
0.0
 10
3.4187598671
 20
0.9008079695
 30
0.0
 10
3.4180418831
 20
0.92483394
 30
0.0
 10
3.4173244217
 20
0.9483002646
 30
0.0
 10
3.4166085264
 20
0.9705631425
 30
0.0
 10
3.4158947913
 20
0.9910050474
 30
0.0
 10
3.4151820383
 20
1.009079436
 30
0.0
 10
3.414564761
 20
1.0224397406
 30
0.0
 10
3.4140558442
 20
1.0316026584
 30
0.0
 10
3.4136977177
 20
1.0372156729
 30
0.0
 10
3.4133414567
 20
1.0419180358
 30
0.0
 10
3.4129911994
 20
1.0456732257
 30
0.0
 10
3.4126417501
 20
1.0484541801
 30
0.0
 10
3.4123743206
 20
1.0499805328
 30
0.0
 10
3.412210002
 20
1.0505689729
 30
0.0
  0
LINE
  5
497
100
AcDbEntity
  8
0
100
AcDbLine
 62
7
  6
CONTINUOUS
 10
3.412210002
 20
1.0505689729
 11
3.4119585603
 21
1.0512341809
  0
SPLINE
  5
498
100
AcDbEntity
  8
0
100
AcDbSpline
 62
7
  6
CONTINUOUS
 70
0
 71
3
 72
14
 73
10
 74
0
 42
0.0000001
 43
0.0000001
 44
0.0000000001
 40
0.0
 40
0.0
 40
0.0
 40
0.0
 40
0.0272313892
 40
0.0492106067
 40
0.0779520708
 40
0.1569076637
 40
0.2654238508
 40
0.5727907299
 40
1.0
 40
1.0
 40
1.0
 40
1.0
 10
3.4533914804
 20
0.7549879148
 30
0.0
 10
3.4533220168
 20
0.7549868075
 30
0.0
 10
3.4532128457
 20
0.7550888839
 30
0.0
 10
3.4531189178
 20
0.7552573455
 30
0.0
 10
3.4529884438
 20
0.7555651204
 30
0.0
 10
3.4528409137
 20
0.7560960888
 30
0.0
 10
3.452582718
 20
0.7573331353
 30
0.0
 10
3.4522886952
 20
0.7594649887
 30
0.0
 10
3.4520935106
 20
0.7613288894
 30
0.0
 10
3.4519908156
 20
0.7624139321
 30
0.0
  0
SPLINE
  5
499
100
AcDbEntity
  8
0
100
AcDbSpline
 62
7
  6
CONTINUOUS
 70
0
 71
3
 72
28
 73
24
 74
0
 42
0.0000001
 43
0.0000001
 44
0.0000000001
 40
0.0
 40
0.0
 40
0.0
 40
0.0
 40
0.0345077669
 40
0.082002525
 40
0.1411655347
 40
0.2105193839
 40
0.2879755118
 40
0.3711799941
 40
0.4577287501
 40
0.5451863563
 40
0.6310552246
 40
0.7128318124
 40
0.7880431754
 40
0.8544349746
 40
0.8837841486
 40
0.9102989883
 40
0.9337862559
 40
0.9540629092
 40
0.9709475064
 40
0.984266613
 40
0.9939439603
 40
0.9974213782
 40
1.0
 40
1.0
 40
1.0
 40
1.0
 10
3.4519908156
 20
0.7624139321
 30
0.0
 10
3.4516769878
 20
0.7657297389
 30
0.0
 10
3.4511273158
 20
0.7736269561
 30
0.0
 10
3.4504034292
 20
0.7872325349
 30
0.0
 10
3.4496726107
 20
0.8042054959
 30
0.0
 10
3.4489362325
 20
0.8240719742
 30
0.0
 10
3.4481965643
 20
0.8462602664
 30
0.0
 10
3.4474545974
 20
0.8701089143
 30
0.0
 10
3.446711452
 20
0.8949233006
 30
0.0
 10
3.4459679379
 20
0.9199949473
 30
0.0
 10
3.4452248029
 20
0.9446058018
 30
0.0
 10
3.4444831999
 20
0.9680341693
 30
0.0
 10
3.4437437962
 20
0.989581712
 30
0.0
 10
3.4431058334
 20
1.0060694778
 30
0.0
 10
3.4425849291
 20
1.0178579113
 30
0.0
 10
3.4422110436
 20
1.025507644
 30
0.0
 10
3.44183826
 20
1.0322806498
 30
0.0
 10
3.4414668425
 20
1.0381225555
 30
0.0
 10
3.4410994573
 20
1.0429813344
 30
0.0
 10
3.4407340948
 20
1.0468130523
 30
0.0
 10
3.4404143232
 20
1.0493498581
 30
0.0
 10
3.4401388502
 20
1.0508433391
 30
0.0
 10
3.4399992739
 20
1.0514120064
 30
0.0
 10
3.4399233177
 20
1.0516490165
 30
0.0
  0
LINE
  5
49A
100
AcDbEntity
  8
0
100
AcDbLine
 62
7
  6
CONTINUOUS
 10
3.4399233177
 20
1.0516490165
 11
3.4397345452
 21
1.052104418
  0
SPLINE
  5
49B
100
AcDbEntity
  8
0
100
AcDbSpline
 62
7
  6
CONTINUOUS
 70
0
 71
3
 72
15
 73
11
 74
0
 42
0.0000001
 43
0.0000001
 44
0.0000000001
 40
0.0
 40
0.0
 40
0.0
 40
0.0
 40
0.024246205
 40
0.0455942475
 40
0.07401672
 40
0.1529027922
 40
0.2617861426
 40
0.4009662212
 40
0.5705948073
 40
1.0
 40
1.0
 40
1.0
 40
1.0
 10
3.4811689412
 20
0.7541415017
 30
0.0
 10
3.4810751103
 20
0.7541424592
 30
0.0
 10
3.4809425921
 20
0.7543157794
 30
0.0
 10
3.4808308198
 20
0.754564482
 30
0.0
 10
3.4806685915
 20
0.7550431234
 30
0.0
 10
3.4804870274
 20
0.7558563944
 30
0.0
 10
3.480275459
 20
0.7571062019
 30
0.0
 10
3.4800642257
 20
0.758708366
 30
0.0
 10
3.4797546321
 20
0.7615490086
 30
0.0
 10
3.4795619091
 20
0.7638595142
 30
0.0
 10
3.4794347558
 20
0.7655164932
 30
0.0
  0
SPLINE
  5
49C
100
AcDbEntity
  8
0
100
AcDbSpline
 62
7
  6
CONTINUOUS
 70
0
 71
3
 72
26
 73
22
 74
0
 42
0.0000001
 43
0.0000001
 44
0.0000000001
 40
0.0
 40
0.0
 40
0.0
 40
0.0
 40
0.0395184739
 40
0.0908773382
 40
0.152717854
 40
0.22359002
 40
0.3015424583
 40
0.3843482742
 40
0.4697430812
 40
0.5554447441
 40
0.6391757126
 40
0.7186703665
 40
0.7917369584
 40
0.8562867123
 40
0.9106813545
 40
0.9336199428
 40
0.9535085663
 40
0.9702101111
 40
0.9835894929
 40
0.9935275223
 40
1.0
 40
1.0
 40
1.0
 40
1.0
 10
3.4794347558
 20
0.7655164932
 30
0.0
 10
3.4791453897
 20
0.7692873268
 30
0.0
 10
3.4786165978
 20
0.777968984
 30
0.0
 10
3.4779112297
 20
0.7925670655
 30
0.0
 10
3.4771993393
 20
0.8101685192
 30
0.0
 10
3.4764848973
 20
0.8303165432
 30
0.0
 10
3.4757683251
 20
0.8524720291
 30
0.0
 10
3.4750491899
 20
0.8760179138
 30
0.0
 10
3.4743290125
 20
0.9003057019
 30
0.0
 10
3.4736092781
 20
0.9246820767
 30
0.0
 10
3.4728904238
 20
0.948493588
 30
0.0
 10
3.4721718435
 20
0.9710953554
 30
0.0
 10
3.4714558712
 20
0.9918606047
 30
0.0
 10
3.4707420235
 20
1.0102222349
 30
0.0
 10
3.4701233685
 20
1.023786613
 30
0.0
 10
3.4696125089
 20
1.0330767336
 30
0.0
 10
3.4692529069
 20
1.0387624931
 30
0.0
 10
3.4688947297
 20
1.0435309408
 30
0.0
 10
3.4685437604
 20
1.0473458638
 30
0.0
 10
3.4681937822
 20
1.0501737727
 30
0.0
 10
3.4679259282
 20
1.0517257249
 30
0.0
 10
3.4677604757
 20
1.0523226354
 30
0.0
  0
LINE
  5
49D
100
AcDbEntity
  8
0
100
AcDbLine
 62
7
  6
CONTINUOUS
 10
3.4677604757
 20
1.0523226354
 11
3.4675105385
 21
1.0529871413
  0
SPLINE
  5
49E
100
AcDbEntity
  8
0
100
AcDbSpline
 62
7
  6
CONTINUOUS
 70
0
 71
3
 72
13
 73
9
 74
0
 42
0.0000001
 43
0.0000001
 44
0.0000000001
 40
0.0
 40
0.0
 40
0.0
 40
0.0
 40
0.0594964584
 40
0.1215032308
 40
0.2002071195
 40
0.3030204714
 40
0.5921186664
 40
1.0
 40
1.0
 40
1.0
 40
1.0
 10
3.5010695797
 20
1.0584399791
 30
0.0
 10
3.501106867
 20
1.0584571202
 30
0.0
 10
3.5011939171
 20
1.0584752797
 30
0.0
 10
3.5013269944
 20
1.0584202081
 30
0.0
 10
3.5014475209
 20
1.0583002275
 30
0.0
 10
3.501625474
 20
1.0580272496
 30
0.0
 10
3.5018300314
 20
1.0575109319
 30
0.0
 10
3.5019620507
 20
1.0570489497
 30
0.0
 10
3.502031825
 20
1.0567763973
 30
0.0
  0
SPLINE
  5
49F
100
AcDbEntity
  8
0
100
AcDbSpline
 62
7
  6
CONTINUOUS
 70
0
 71
3
 72
10
 73
6
 74
0
 42
0.0000001
 43
0.0000001
 44
0.0000000001
 40
0.0
 40
0.0
 40
0.0
 40
0.0
 40
0.1743934119
 40
0.3994229091
 40
1.0
 40
1.0
 40
1.0
 40
1.0
 10
3.502031825
 20
1.0567763973
 30
0.0
 10
3.502153506
 20
1.056301087
 30
0.0
 10
3.5023831518
 20
1.0552001424
 30
0.0
 10
3.5028402412
 20
1.0524239188
 30
0.0
 10
3.5031188322
 20
1.050116822
 30
0.0
 10
3.5033042098
 20
1.0484373581
 30
0.0
  0
SPLINE
  5
4A0
100
AcDbEntity
  8
0
100
AcDbSpline
 62
7
  6
CONTINUOUS
 70
0
 71
3
 72
23
 73
19
 74
0
 42
0.0000001
 43
0.0000001
 44
0.0000000001
 40
0.0
 40
0.0
 40
0.0
 40
0.0
 40
0.0327048868
 40
0.075068787
 40
0.126244845
 40
0.1851478056
 40
0.250605826
 40
0.3213010367
 40
0.3958724571
 40
0.4728412689
 40
0.550695033
 40
0.6279256937
 40
0.7030296225
 40
0.774579704
 40
0.8412528962
 40
0.9017825205
 40
0.9550497098
 40
1.0
 40
1.0
 40
1.0
 40
1.0
 10
3.5033042098
 20
1.0484373581
 30
0.0
 10
3.5036445626
 20
1.0453538666
 30
0.0
 10
3.5042767829
 20
1.0382600461
 30
0.0
 10
3.505088357
 20
1.0263123626
 30
0.0
 10
3.5058821496
 20
1.0118739343
 30
0.0
 10
3.5066986771
 20
0.9952434227
 30
0.0
 10
3.507548559
 20
0.9767608757
 30
0.0
 10
3.5083921257
 20
0.9567903636
 30
0.0
 10
3.5091963876
 20
0.9357255589
 30
0.0
 10
3.5099922669
 20
0.9139809805
 30
0.0
 10
3.5108203928
 20
0.8919851719
 30
0.0
 10
3.5116674344
 20
0.8701671153
 30
0.0
 10
3.512489158
 20
0.8489464636
 30
0.0
 10
3.5132759425
 20
0.8287266346
 30
0.0
 10
3.5140678548
 20
0.8098905177
 30
0.0
 10
3.5148941366
 20
0.7927918614
 30
0.0
 10
3.5157208669
 20
0.7777565726
 30
0.0
 10
3.5162966636
 20
0.7684577841
 30
0.0
 10
3.5165902497
 20
0.7642041488
 30
0.0
  0
LINE
  5
4A1
100
AcDbEntity
  8
0
100
AcDbLine
 62
7
  6
CONTINUOUS
 10
3.5165902497
 20
0.7642041488
 11
3.5178186019
 21
0.7496266547
  0
SPLINE
  5
4A2
100
AcDbEntity
  8
0
100
AcDbSpline
 62
7
  6
CONTINUOUS
 70
0
 71
3
 72
10
 73
6
 74
0
 42
0.0000001
 43
0.0000001
 44
0.0000000001
 40
0.0
 40
0.0
 40
0.0
 40
0.0
 40
0.6096986322
 40
0.8323497346
 40
1.0
 40
1.0
 40
1.0
 40
1.0
 10
3.5178186019
 20
0.7496266547
 30
0.0
 10
3.5179963098
 20
0.7480248606
 30
0.0
 10
3.5182653962
 20
0.7458394616
 30
0.0
 10
3.5187339178
 20
0.7432377737
 30
0.0
 10
3.5189719446
 20
0.7422324082
 30
0.0
 10
3.5191003176
 20
0.7418082579
 30
0.0
  0
SPLINE
  5
4A3
100
AcDbEntity
  8
0
100
AcDbSpline
 62
7
  6
CONTINUOUS
 70
0
 71
3
 72
9
 73
5
 74
0
 42
0.0000001
 43
0.0000001
 44
0.0000000001
 40
0.0
 40
0.0
 40
0.0
 40
0.0
 40
0.4999999989
 40
1.0
 40
1.0
 40
1.0
 40
1.0
 10
2.8861177667
 20
10.7855857218
 30
0.0
 10
2.874928704
 20
10.7869975298
 30
0.0
 10
2.8523495113
 20
10.788369067
 30
0.0
 10
2.8297703178
 20
10.7869975465
 30
0.0
 10
2.8185812537
 20
10.7855857496
 30
0.0
  0
SPLINE
  5
4A4
100
AcDbEntity
  8
0
100
AcDbSpline
 62
7
  6
CONTINUOUS
 70
0
 71
3
 72
9
 73
5
 74
0
 42
0.0000001
 43
0.0000001
 44
0.0000000001
 40
0.0
 40
0.0
 40
0.0
 40
0.0
 40
0.5549548716
 40
1.0
 40
1.0
 40
1.0
 40
1.0
 10
2.2475205679
 20
0.9786471579
 30
0.0
 10
2.2479639456
 20
0.9805580806
 30
0.0
 10
2.2490264871
 20
0.9839513322
 30
0.0
 10
2.2508591594
 20
0.9870403593
 30
0.0
 10
2.2518947493
 20
0.9882245967
 30
0.0
  0
SPLINE
  5
4A5
100
AcDbEntity
  8
0
100
AcDbSpline
 62
7
  6
CONTINUOUS
 70
0
 71
3
 72
9
 73
5
 74
0
 42
0.0000001
 43
0.0000001
 44
0.0000000001
 40
0.0
 40
0.0
 40
0.0
 40
0.0
 40
0.5463289591
 40
1.0
 40
1.0
 40
1.0
 40
1.0
 10
2.2475203103
 20
0.8290854131
 30
0.0
 10
2.2479053799
 20
0.8274302553
 30
0.0
 10
2.2488081544
 20
0.8244393492
 30
0.0
 10
2.2502721755
 20
0.8216593842
 30
0.0
 10
2.2510970163
 20
0.8205144063
 30
0.0
  0
SPLINE
  5
4A6
100
AcDbEntity
  8
0
100
AcDbSpline
 62
7
  6
CONTINUOUS
 70
0
 71
3
 72
12
 73
8
 74
0
 42
0.0000001
 43
0.0000001
 44
0.0000000001
 40
0.0
 40
0.0
 40
0.0
 40
0.0
 40
0.2167744055
 40
0.3370790621
 40
0.4631442484
 40
0.726973646
 40
1.0
 40
1.0
 40
1.0
 40
1.0
 10
2.4703579429
 20
1.1854097413
 30
0.0
 10
2.4680532358
 20
1.1811796023
 30
0.0
 10
2.4649258594
 20
1.1743438431
 30
0.0
 10
2.4615042677
 20
1.1646331446
 30
0.0
 10
2.4583898633
 20
1.1537238316
 30
0.0
 10
2.4557161312
 20
1.1391974266
 30
0.0
 10
2.4549743789
 20
1.1272562434
 30
0.0
 10
2.4549743789
 20
1.1211889586
 30
0.0
  0
SPLINE
  5
4A7
100
AcDbEntity
  8
0
100
AcDbSpline
 62
7
  6
CONTINUOUS
 70
0
 71
3
 72
11
 73
7
 74
0
 42
0.0000001
 43
0.0000001
 44
0.0000000001
 40
0.0
 40
0.0
 40
0.0
 40
0.0
 40
0.2732745124
 40
0.5370257191
 40
0.7832095253
 40
1.0
 40
1.0
 40
1.0
 40
1.0
 10
2.2924743789
 20
1.1211889586
 30
0.0
 10
2.2924743789
 20
1.127260662
 30
0.0
 10
2.2917238602
 20
1.1392033828
 30
0.0
 10
2.2885739633
 20
1.1563612182
 30
0.0
 10
2.283674603
 20
1.1717870866
 30
0.0
 10
2.2794044379
 20
1.1811810375
 30
0.0
 10
2.2770961836
 20
1.1854086581
 30
0.0
  0
SPLINE
  5
4A8
100
AcDbEntity
  8
0
100
AcDbSpline
 62
7
  6
CONTINUOUS
 70
0
 71
3
 72
12
 73
8
 74
0
 42
0.0000001
 43
0.0000001
 44
0.0000000001
 40
0.0
 40
0.0
 40
0.0
 40
0.0
 40
0.2167744055
 40
0.3370790621
 40
0.4631442484
 40
0.726973646
 40
1.0
 40
1.0
 40
1.0
 40
1.0
 10
2.2770908148
 20
0.622323178
 30
0.0
 10
2.279395522
 20
0.626553317
 30
0.0
 10
2.2825228983
 20
0.6333890762
 30
0.0
 10
2.28594449
 20
0.6430997746
 30
0.0
 10
2.2890588945
 20
0.6540090876
 30
0.0
 10
2.2917326266
 20
0.6685354926
 30
0.0
 10
2.2924743789
 20
0.6804766758
 30
0.0
 10
2.2924743789
 20
0.6865439606
 30
0.0
  0
SPLINE
  5
4A9
100
AcDbEntity
  8
0
100
AcDbSpline
 62
7
  6
CONTINUOUS
 70
0
 71
3
 72
11
 73
7
 74
0
 42
0.0000001
 43
0.0000001
 44
0.0000000001
 40
0.0
 40
0.0
 40
0.0
 40
0.0
 40
0.2732745124
 40
0.5370257191
 40
0.7832095253
 40
1.0
 40
1.0
 40
1.0
 40
1.0
 10
2.4549743789
 20
0.6865439606
 30
0.0
 10
2.4549743789
 20
0.6804722572
 30
0.0
 10
2.4557248976
 20
0.6685295364
 30
0.0
 10
2.4588747945
 20
0.651371701
 30
0.0
 10
2.4637741548
 20
0.6359458327
 30
0.0
 10
2.4680443199
 20
0.6265518818
 30
0.0
 10
2.4703525742
 20
0.6223242611
 30
0.0
  0
SPLINE
  5
4AA
100
AcDbEntity
  8
0
100
AcDbSpline
 62
7
  6
CONTINUOUS
 70
0
 71
3
 72
13
 73
9
 74
0
 42
0.0000001
 43
0.0000001
 44
0.0000000001
 40
0.0
 40
0.0
 40
0.0
 40
0.0
 40
0.0903743759
 40
0.1919654847
 40
0.3046942497
 40
0.4279401895
 40
0.7011871019
 40
1.0
 40
1.0
 40
1.0
 40
1.0
 10
2.4972936423
 20
0.9891739854
 30
0.0
 10
2.4977731867
 20
0.9873807553
 30
0.0
 10
2.4985168717
 20
0.9834965599
 30
0.0
 10
2.4990234891
 20
0.9772497843
 30
0.0
 10
2.498953475
 20
0.9703084599
 30
0.0
 10
2.4980713805
 20
0.9598791278
 30
0.0
 10
2.4955424984
 20
0.9457945874
 30
0.0
 10
2.4925323849
 20
0.9344289287
 30
0.0
 10
2.4908086849
 20
0.9285384876
 30
0.0
  0
SPLINE
  5
4AB
100
AcDbEntity
  8
0
100
AcDbSpline
 62
7
  6
CONTINUOUS
 70
0
 71
3
 72
12
 73
8
 74
0
 42
0.0000001
 43
0.0000001
 44
0.0000000001
 40
0.0
 40
0.0
 40
0.0
 40
0.0
 40
0.2167744055
 40
0.3370790621
 40
0.4631442484
 40
0.726973646
 40
1.0
 40
1.0
 40
1.0
 40
1.0
 10
2.2770908148
 20
1.056968176
 30
0.0
 10
2.279395522
 20
1.061198315
 30
0.0
 10
2.2825228983
 20
1.0680340742
 30
0.0
 10
2.28594449
 20
1.0777447727
 30
0.0
 10
2.2890588945
 20
1.0886540857
 30
0.0
 10
2.2917326266
 20
1.1031804906
 30
0.0
 10
2.2924743789
 20
1.1151216739
 30
0.0
 10
2.2924743789
 20
1.1211889586
 30
0.0
  0
SPLINE
  5
4AC
100
AcDbEntity
  8
0
100
AcDbSpline
 62
7
  6
CONTINUOUS
 70
0
 71
3
 72
11
 73
7
 74
0
 42
0.0000001
 43
0.0000001
 44
0.0000000001
 40
0.0
 40
0.0
 40
0.0
 40
0.0
 40
0.2732745124
 40
0.5370257191
 40
0.7832095253
 40
1.0
 40
1.0
 40
1.0
 40
1.0
 10
2.4549743789
 20
1.1211889586
 30
0.0
 10
2.4549743789
 20
1.1151172552
 30
0.0
 10
2.4557248976
 20
1.1031745344
 30
0.0
 10
2.4588747945
 20
1.0860166991
 30
0.0
 10
2.4637741548
 20
1.0705908307
 30
0.0
 10
2.4680443199
 20
1.0611968798
 30
0.0
 10
2.4703525742
 20
1.0569692591
 30
0.0
  0
SPLINE
  5
4AD
100
AcDbEntity
  8
0
100
AcDbSpline
 62
7
  6
CONTINUOUS
 70
0
 71
3
 72
9
 73
5
 74
0
 42
0.0000001
 43
0.0000001
 44
0.0000000001
 40
0.0
 40
0.0
 40
0.0
 40
0.0
 40
0.4715273933
 40
1.0
 40
1.0
 40
1.0
 40
1.0
 10
2.2540576026
 20
0.8051733798
 30
0.0
 10
2.2533952267
 20
0.8072731318
 30
0.0
 10
2.2523694443
 20
0.8118487096
 30
0.0
 10
2.2519536797
 20
0.8165109641
 30
0.0
 10
2.2518593762
 20
0.8189768107
 30
0.0
  0
SPLINE
  5
4AE
100
AcDbEntity
  8
0
100
AcDbSpline
 62
7
  6
CONTINUOUS
 70
0
 71
3
 72
12
 73
8
 74
0
 42
0.0000001
 43
0.0000001
 44
0.0000000001
 40
0.0
 40
0.0
 40
0.0
 40
0.0
 40
0.2167744055
 40
0.3370790621
 40
0.4631442484
 40
0.726973646
 40
1.0
 40
1.0
 40
1.0
 40
1.0
 10
2.4703579429
 20
0.7507647432
 30
0.0
 10
2.4680532358
 20
0.7465346042
 30
0.0
 10
2.4649258594
 20
0.739698845
 30
0.0
 10
2.4615042677
 20
0.7299881466
 30
0.0
 10
2.4583898633
 20
0.7190788336
 30
0.0
 10
2.4557161312
 20
0.7045524286
 30
0.0
 10
2.4549743789
 20
0.6926112454
 30
0.0
 10
2.4549743789
 20
0.6865439606
 30
0.0
  0
SPLINE
  5
4AF
100
AcDbEntity
  8
0
100
AcDbSpline
 62
7
  6
CONTINUOUS
 70
0
 71
3
 72
11
 73
7
 74
0
 42
0.0000001
 43
0.0000001
 44
0.0000000001
 40
0.0
 40
0.0
 40
0.0
 40
0.0
 40
0.2732745124
 40
0.5370257191
 40
0.7832095253
 40
1.0
 40
1.0
 40
1.0
 40
1.0
 10
2.2924743789
 20
0.6865439606
 30
0.0
 10
2.2924743789
 20
0.692615664
 30
0.0
 10
2.2917238602
 20
0.7045583848
 30
0.0
 10
2.2885739633
 20
0.7217162201
 30
0.0
 10
2.283674603
 20
0.7371420885
 30
0.0
 10
2.2794044379
 20
0.7465360394
 30
0.0
 10
2.2770961836
 20
0.7507636601
 30
0.0
  0
SPLINE
  5
4B0
100
AcDbEntity
  8
0
100
AcDbSpline
 62
7
  6
CONTINUOUS
 70
0
 71
3
 72
9
 73
5
 74
0
 42
0.0000001
 43
0.0000001
 44
0.0000000001
 40
0.0
 40
0.0
 40
0.0
 40
0.0
 40
0.2551363058
 40
1.0
 40
1.0
 40
1.0
 40
1.0
 10
2.2631800403
 20
0.9328804304
 30
0.0
 10
2.2625732512
 20
0.9345651333
 30
0.0
 10
2.2602533919
 20
0.9411888906
 30
0.0
 10
2.2581782955
 20
0.9479006536
 30
0.0
 10
2.2568239026
 20
0.9529499063
 30
0.0
  0
SPLINE
  5
4B1
100
AcDbEntity
  8
0
100
AcDbSpline
 62
7
  6
CONTINUOUS
 70
0
 71
3
 72
11
 73
7
 74
0
 42
0.0000001
 43
0.0000001
 44
0.0000000001
 40
0.0
 40
0.0
 40
0.0
 40
0.0
 40
0.2896400556
 40
0.5555572176
 40
0.7930543263
 40
1.0
 40
1.0
 40
1.0
 40
1.0
 10
2.2568239026
 20
0.9529499063
 30
0.0
 10
2.2556668091
 20
0.9572636158
 30
0.0
 10
2.2537173909
 20
0.9656152603
 30
0.0
 10
2.2519759397
 20
0.9777388876
 30
0.0
 10
2.2516081122
 20
0.9887117993
 30
0.0
 10
2.252376413
 20
0.9955602642
 30
0.0
 10
2.2530433799
 20
0.9986808521
 30
0.0
  0
LINE
  5
4B2
100
AcDbEntity
  8
0
100
AcDbLine
 62
7
  6
CONTINUOUS
 10
2.2530433799
 20
0.9986808521
 11
2.2540583228
 21
1.0025586423
  0
SPLINE
  5
4B3
100
AcDbEntity
  8
0
100
AcDbSpline
 62
7
  6
CONTINUOUS
 70
0
 71
3
 72
13
 73
9
 74
0
 42
0.0000001
 43
0.0000001
 44
0.0000000001
 40
0.0
 40
0.0
 40
0.0
 40
0.0
 40
0.2479939186
 40
0.3737482245
 40
0.5000002345
 40
0.6262522188
 40
0.7520063814
 40
1.0
 40
1.0
 40
1.0
 40
1.0
 10
2.2631799549
 20
0.8748522457
 30
0.0
 10
2.2648389945
 20
0.879458438
 30
0.0
 10
2.2668217967
 20
0.8866098878
 30
0.0
 10
2.2681979191
 20
0.8963954407
 30
0.0
 10
2.2685399317
 20
0.9038663464
 30
0.0
 10
2.2681979518
 20
0.9113372503
 30
0.0
 10
2.2668218892
 20
0.9211228029
 30
0.0
 10
2.2648390803
 20
0.9282742446
 30
0.0
 10
2.2631800403
 20
0.9328804304
 30
0.0
  0
SPLINE
  5
4B4
100
AcDbEntity
  8
0
100
AcDbSpline
 62
7
  6
CONTINUOUS
 70
0
 71
3
 72
9
 73
5
 74
0
 42
0.0000001
 43
0.0000001
 44
0.0000000001
 40
0.0
 40
0.0
 40
0.0
 40
0.0
 40
0.4963304902
 40
1.0
 40
1.0
 40
1.0
 40
1.0
 10
2.4908086849
 20
0.9285384876
 30
0.0
 10
2.4896470747
 20
0.9245688893
 30
0.0
 10
2.4878216636
 20
0.9164087163
 30
0.0
 10
2.4871900147
 20
0.9080636847
 30
0.0
 10
2.4871900192
 20
0.9038664596
 30
0.0
  0
SPLINE
  5
4B5
100
AcDbEntity
  8
0
100
AcDbSpline
 62
7
  6
CONTINUOUS
 70
0
 71
3
 72
9
 73
5
 74
0
 42
0.0000001
 43
0.0000001
 44
0.0000000001
 40
0.0
 40
0.0
 40
0.0
 40
0.0
 40
0.5036694791
 40
1.0
 40
1.0
 40
1.0
 40
1.0
 10
2.4871900192
 20
0.9038664596
 30
0.0
 10
2.4871900238
 20
0.8996692495
 30
0.0
 10
2.4878217335
 20
0.8913242549
 30
0.0
 10
2.4896470801
 20
0.8831640994
 30
0.0
 10
2.4908086871
 20
0.8791945149
 30
0.0
  0
SPLINE
  5
4B6
100
AcDbEntity
  8
0
100
AcDbSpline
 62
7
  6
CONTINUOUS
 70
0
 71
3
 72
13
 73
9
 74
0
 42
0.0000001
 43
0.0000001
 44
0.0000000001
 40
0.0
 40
0.0
 40
0.0
 40
0.0
 40
0.2988138044
 40
0.5720611515
 40
0.6953067057
 40
0.8080351672
 40
0.9096259356
 40
1.0
 40
1.0
 40
1.0
 40
1.0
 10
2.4908086871
 20
0.8791945149
 30
0.0
 10
2.4925323954
 20
0.873304049
 30
0.0
 10
2.4955424852
 20
0.8619383413
 30
0.0
 10
2.4980713913
 20
0.8478537662
 30
0.0
 10
2.4989534482
 20
0.8374244232
 30
0.0
 10
2.499023468
 20
0.8304831121
 30
0.0
 10
2.4985168567
 20
0.8242363477
 30
0.0
 10
2.4977731762
 20
0.8203521603
 30
0.0
 10
2.4972936354
 20
0.8185589334
 30
0.0
  0
SPLINE
  5
4B7
100
AcDbEntity
  8
0
100
AcDbSpline
 62
7
  6
CONTINUOUS
 70
0
 71
3
 72
9
 73
5
 74
0
 42
0.0000001
 43
0.0000001
 44
0.0000000001
 40
0.0
 40
0.0
 40
0.0
 40
0.0
 40
0.4721193944
 40
1.0
 40
1.0
 40
1.0
 40
1.0
 10
2.2518054723
 20
0.821842073
 30
0.0
 10
2.2518054723
 20
0.8260834315
 30
0.0
 10
2.2525093324
 20
0.8350693988
 30
0.0
 10
2.2541875219
 20
0.8439083343
 30
0.0
 10
2.2552573808
 20
0.8485283768
 30
0.0
  0
SPLINE
  5
4B8
100
AcDbEntity
  8
0
100
AcDbSpline
 62
7
  6
CONTINUOUS
 70
0
 71
3
 72
9
 73
5
 74
0
 42
0.0000001
 43
0.0000001
 44
0.0000000001
 40
0.0
 40
0.0
 40
0.0
 40
0.0
 40
0.2454667925
 40
1.0
 40
1.0
 40
1.0
 40
1.0
 10
2.2567994821
 20
0.8546995152
 30
0.0
 10
2.2570906827
 20
0.8557879102
 30
0.0
 10
2.2583143574
 20
0.86021187
 30
0.0
 10
2.2596771176
 20
0.864596872
 30
0.0
 10
2.2607675282
 20
0.8678839947
 30
0.0
  0
SPLINE
  5
4B9
100
AcDbEntity
  8
0
100
AcDbSpline
 62
7
  6
CONTINUOUS
 70
0
 71
3
 72
10
 73
6
 74
0
 42
0.0000001
 43
0.0000001
 44
0.0000000001
 40
0.0
 40
0.0
 40
0.0
 40
0.0
 40
0.2290472512
 40
0.6135342483
 40
1.0
 40
1.0
 40
1.0
 40
1.0
 10
2.8861174599
 20
10.7855832772
 30
0.0
 10
2.8909070977
 20
10.784982097
 30
0.0
 10
2.9036927918
 20
10.7830238852
 30
0.0
 10
2.9242500144
 20
10.7782646403
 30
0.0
 10
2.9396296603
 20
10.772913521
 30
0.0
 10
2.9471479024
 20
10.7697881131
 30
0.0
  0
SPLINE
  5
4BA
100
AcDbEntity
  8
0
100
AcDbSpline
 62
7
  6
CONTINUOUS
 70
0
 71
3
 72
10
 73
6
 74
0
 42
0.0000001
 43
0.0000001
 44
0.0000000001
 40
0.0
 40
0.0
 40
0.0
 40
0.0
 40
0.2290512852
 40
0.6135362703
 40
1.0
 40
1.0
 40
1.0
 40
1.0
 10
3.1048671296
 20
10.7855833215
 30
0.0
 10
3.1096568773
 20
10.7849821313
 30
0.0
 10
3.1224426807
 20
10.7830239025
 30
0.0
 10
3.1430000059
 20
10.778264613
 30
0.0
 10
3.1583796535
 20
10.7729135044
 30
0.0
 10
3.1658979024
 20
10.7697881131
 30
0.0
  0
SPLINE
  5
4BB
100
AcDbEntity
  8
0
100
AcDbSpline
 62
7
  6
CONTINUOUS
 70
0
 71
3
 72
16
 73
12
 74
0
 42
0.0000001
 43
0.0000001
 44
0.0000000001
 40
0.0
 40
0.0
 40
0.0
 40
0.0
 40
0.009232221
 40
0.023800856
 40
0.0738342124
 40
0.1535232438
 40
0.2632086554
 40
0.4028585738
 40
0.5723326323
 40
0.7714476088
 40
1.0
 40
1.0
 40
1.0
 40
1.0
 10
3.0895965731
 20
1.1697395448
 30
0.0
 10
3.0895946358
 20
1.1697705237
 30
0.0
 10
3.0895440608
 20
1.1698427537
 30
0.0
 10
3.0893278991
 20
1.1699642995
 30
0.0
 10
3.0888573114
 20
1.1701020972
 30
0.0
 10
3.0880692254
 20
1.1702570932
 30
0.0
 10
3.0869731967
 20
1.1704156136
 30
0.0
 10
3.0855745975
 20
1.1705764012
 30
0.0
 10
3.0838733284
 20
1.1707382229
 30
0.0
 10
3.0818722864
 20
1.1709007265
 30
0.0
 10
3.0804379978
 20
1.171002342
 30
0.0
 10
3.0796713124
 20
1.1710537904
 30
0.0
  0
LINE
  5
4BC
100
AcDbEntity
  8
0
100
AcDbLine
 62
7
  6
CONTINUOUS
 10
2.8345345861
 20
1.1798118188
 11
2.8339961437
 21
1.1799984209
  0
SPLINE
  5
4BD
100
AcDbEntity
  8
0
100
AcDbSpline
 62
7
  6
CONTINUOUS
 70
0
 71
3
 72
16
 73
12
 74
0
 42
0.0000001
 43
0.0000001
 44
0.0000000001
 40
0.0
 40
0.0
 40
0.0
 40
0.0
 40
0.0209860194
 40
0.041474466
 40
0.0693767572
 40
0.147951199
 40
0.2572009684
 40
0.3972025873
 40
0.5679331629
 40
0.7691423254
 40
1.0
 40
1.0
 40
1.0
 40
1.0
 10
2.8338541832
 20
1.180149132
 30
0.0
 10
2.8338482884
 20
1.1802327627
 30
0.0
 10
2.8340393738
 20
1.1803429816
 30
0.0
 10
2.8342792749
 20
1.1804307142
 30
0.0
 10
2.8347800665
 20
1.1805670334
 30
0.0
 10
2.835621506
 20
1.1807165138
 30
0.0
 10
2.8369231498
 20
1.1808927555
 30
0.0
 10
2.8385905212
 20
1.1810680574
 30
0.0
 10
2.8406285308
 20
1.1812458807
 30
0.0
 10
2.8430299645
 20
1.1814238938
 30
0.0
 10
2.8447524992
 20
1.1815356009
 30
0.0
 10
2.8456730251
 20
1.1815922262
 30
0.0
  0
SPLINE
  5
4BE
100
AcDbEntity
  8
0
100
AcDbSpline
 62
7
  6
CONTINUOUS
 70
0
 71
3
 72
25
 73
21
 74
0
 42
0.0000001
 43
0.0000001
 44
0.0000000001
 40
0.0
 40
0.0
 40
0.0
 40
0.0
 40
0.0424207843
 40
0.0963038706
 40
0.2326172824
 40
0.3949825486
 40
0.4804867056
 40
0.5658374944
 40
0.6488124941
 40
0.7272830167
 40
0.799149204
 40
0.8623529911
 40
0.915100556
 40
0.9371937799
 40
0.95626305
 40
0.9721854768
 40
0.9848498865
 40
0.9941508799
 40
0.9975110216
 40
1.0
 40
1.0
 40
1.0
 40
1.0
 10
2.8456730251
 20
1.1815922262
 30
0.0
 10
2.8491114547
 20
1.181803738
 30
0.0
 10
2.8569226643
 20
1.1821963755
 30
0.0
 10
2.8757978548
 20
1.1829582602
 30
0.0
 10
2.9044155323
 20
1.1838475143
 30
0.0
 10
2.9356031087
 20
1.1846856704
 30
0.0
 10
2.9626543691
 20
1.1853863235
 30
0.0
 10
2.9832605786
 20
1.1859212044
 30
0.0
 10
3.0032954072
 20
1.186456074
 30
0.0
 10
3.0222347943
 20
1.1869898303
 30
0.0
 10
3.0395679884
 20
1.1875212808
 30
0.0
 10
3.0548112576
 20
1.1880498139
 30
0.0
 10
3.0660123373
 20
1.188510661
 30
0.0
 10
3.0736292383
 20
1.1888905766
 30
0.0
 10
3.0782573441
 20
1.1891575296
 30
0.0
 10
3.0821186134
 20
1.1894220141
 30
0.0
 10
3.0851840873
 20
1.1896847782
 30
0.0
 10
3.0872289932
 20
1.1899136514
 30
0.0
 10
3.0884434639
 20
1.1901108074
 30
0.0
 10
3.088908497
 20
1.1902108019
 30
0.0
 10
3.0891030739
 20
1.1902655274
 30
0.0
  0
LINE
  5
4BF
100
AcDbEntity
  8
0
100
AcDbLine
 62
7
  6
CONTINUOUS
 10
3.0891030739
 20
1.1902655274
 11
3.0895033742
 21
1.1904162009
  0
SPLINE
  5
4C0
100
AcDbEntity
  8
0
100
AcDbSpline
 62
7
  6
CONTINUOUS
 70
0
 71
3
 72
13
 73
9
 74
0
 42
0.0000001
 43
0.0000001
 44
0.0000000001
 40
0.0
 40
0.0
 40
0.0
 40
0.0
 40
0.3794831368
 40
0.6745029159
 40
0.7894028903
 40
0.8820881034
 40
0.9522687337
 40
1.0
 40
1.0
 40
1.0
 40
1.0
 10
2.8500112241
 20
1.1993031372
 30
0.0
 10
2.8480129758
 20
1.1994095398
 30
0.0
 10
2.8444621287
 20
1.1996146256
 30
0.0
 10
2.8403098646
 20
1.1999158484
 30
0.0
 10
2.8376716722
 20
1.2001688784
 30
0.0
 10
2.8362165355
 20
1.200340234
 30
0.0
 10
2.8351194917
 20
1.2005102816
 30
0.0
 10
2.8345098443
 20
1.200641454
 30
0.0
 10
2.83427014
 20
1.200718215
 30
0.0
  0
SPLINE
  5
4C1
100
AcDbEntity
  8
0
100
AcDbSpline
 62
7
  6
CONTINUOUS
 70
0
 71
3
 72
12
 73
8
 74
0
 42
0.0000001
 43
0.0000001
 44
0.0000000001
 40
0.0
 40
0.0
 40
0.0
 40
0.0
 40
0.0913682974
 40
0.1727448294
 40
0.2813488823
 40
0.583187874
 40
1.0
 40
1.0
 40
1.0
 40
1.0
 10
2.8338476379
 20
1.2009894324
 30
0.0
 10
2.8338480523
 20
1.2010532583
 30
0.0
 10
2.8339690141
 20
1.2011423606
 30
0.0
 10
2.8341398517
 20
1.201217216
 30
0.0
 10
2.8344712792
 20
1.2013265432
 30
0.0
 10
2.8350333924
 20
1.2014486038
 30
0.0
 10
2.8355299424
 20
1.201530614
 30
0.0
 10
2.8358179683
 20
1.2015733078
 30
0.0
  0
LINE
  5
4C2
100
AcDbEntity
  8
0
100
AcDbLine
 62
7
  6
CONTINUOUS
 10
2.8358179683
 20
1.2015733078
 11
2.8440924532
 21
1.2023259497
  0
SPLINE
  5
4C3
100
AcDbEntity
  8
0
100
AcDbSpline
 62
7
  6
CONTINUOUS
 70
0
 71
3
 72
11
 73
7
 74
0
 42
0.0000001
 43
0.0000001
 44
0.0000000001
 40
0.0
 40
0.0
 40
0.0
 40
0.0
 40
0.1845596485
 40
0.4210525434
 40
0.6974702389
 40
1.0
 40
1.0
 40
1.0
 40
1.0
 10
2.8504910424
 20
1.2027001547
 30
0.0
 10
2.856161571
 20
1.2029980201
 30
0.0
 10
2.8691053612
 20
1.2035381869
 30
0.0
 10
2.8905522904
 20
1.2042590372
 30
0.0
 10
2.9156305325
 20
1.2049850393
 30
0.0
 10
2.933436673
 20
1.2054597709
 30
0.0
 10
2.9427414049
 20
1.2057038563
 30
0.0
  0
SPLINE
  5
4C4
100
AcDbEntity
  8
0
100
AcDbSpline
 62
7
  6
CONTINUOUS
 70
0
 71
3
 72
11
 73
7
 74
0
 42
0.0000001
 43
0.0000001
 44
0.0000000001
 40
0.0
 40
0.0
 40
0.0
 40
0.0
 40
0.3081249223
 40
0.5865435072
 40
0.8214540079
 40
1.0
 40
1.0
 40
1.0
 40
1.0
 10
2.9863374297
 20
1.2068395522
 30
0.0
 10
2.9955128895
 20
1.207081802
 30
0.0
 10
3.0129789173
 20
1.2075532212
 30
0.0
 10
3.0374383559
 20
1.2082797461
 30
0.0
 10
3.0580358878
 20
1.2089968101
 30
0.0
 10
3.0703410909
 20
1.2095378314
 30
0.0
 10
3.0756510369
 20
1.2098422064
 30
0.0
  0
SPLINE
  5
4C5
100
AcDbEntity
  8
0
100
AcDbSpline
 62
7
  6
CONTINUOUS
 70
0
 71
3
 72
14
 73
10
 74
0
 42
0.0000001
 43
0.0000001
 44
0.0000000001
 40
0.0
 40
0.0
 40
0.0
 40
0.0
 40
0.0243297484
 40
0.0744231624
 40
0.153806925
 40
0.2631203918
 40
0.4025211771
 40
0.5720119495
 40
1.0
 40
1.0
 40
1.0
 40
1.0
 10
3.0896335492
 20
1.1280659649
 30
0.0
 10
3.0896322472
 20
1.1281289591
 30
0.0
 10
3.0894441675
 20
1.1282662003
 30
0.0
 10
3.0890855187
 20
1.1283766476
 30
0.0
 10
3.0884714867
 20
1.1285221833
 30
0.0
 10
3.0876373313
 20
1.1286567711
 30
0.0
 10
3.0865616615
 20
1.1287990624
 30
0.0
 10
3.0846650743
 20
1.1290032182
 30
0.0
 10
3.0831225026
 20
1.1291318495
 30
0.0
 10
3.0820173391
 20
1.1292161891
 30
0.0
  0
LINE
  5
4C6
100
AcDbEntity
  8
0
100
AcDbLine
 62
7
  6
CONTINUOUS
 10
2.8344666018
 20
1.1381475678
 11
2.8339460725
 21
1.1383325614
  0
SPLINE
  5
4C7
100
AcDbEntity
  8
0
100
AcDbSpline
 62
7
  6
CONTINUOUS
 70
0
 71
3
 72
15
 73
11
 74
0
 42
0.0000001
 43
0.0000001
 44
0.0000000001
 40
0.0
 40
0.0
 40
0.0
 40
0.0
 40
0.024731717
 40
0.0461800502
 40
0.074716027
 40
0.1539921213
 40
0.2634006696
 40
0.402925673
 40
0.5723770842
 40
1.0
 40
1.0
 40
1.0
 40
1.0
 10
3.0896335628
 20
1.1254609648
 30
0.0
 10
3.0896347306
 20
1.1254044977
 30
0.0
 10
3.0895356286
 20
1.125320367
 30
0.0
 10
3.0893882118
 20
1.1252508467
 30
0.0
 10
3.0891064345
 20
1.1251497469
 30
0.0
 10
3.0886250527
 20
1.1250371026
 30
0.0
 10
3.0878859178
 20
1.1249056727
 30
0.0
 10
3.0869397378
 20
1.1247744703
 30
0.0
 10
3.0852683553
 20
1.1245821201
 30
0.0
 10
3.0839099895
 20
1.1244619338
 30
0.0
 10
3.0829366394
 20
1.1243829282
 30
0.0
  0
SPLINE
  5
4C8
100
AcDbEntity
  8
0
100
AcDbSpline
 62
7
  6
CONTINUOUS
 70
0
 71
3
 72
26
 73
22
 74
0
 42
0.0000001
 43
0.0000001
 44
0.0000000001
 40
0.0
 40
0.0
 40
0.0
 40
0.0
 40
0.0346015113
 40
0.0820729073
 40
0.1410144087
 40
0.2097817092
 40
0.2864198011
 40
0.3687972455
 40
0.4545543973
 40
0.5412746065
 40
0.626485212
 40
0.7077827055
 40
0.7828782692
 40
0.8496349189
 40
0.9061374092
 40
0.9300135026
 40
0.9507684304
 40
0.9682586697
 40
0.9823461393
 40
0.9929427886
 40
1.0
 40
1.0
 40
1.0
 40
1.0
 10
3.0829366394
 20
1.1243829282
 30
0.0
 10
3.0800808675
 20
1.1241511289
 30
0.0
 10
3.0732961424
 20
1.1237429592
 30
0.0
 10
3.0616319576
 20
1.1232062483
 30
0.0
 10
3.0471361428
 20
1.1226641052
 30
0.0
 10
3.0302241295
 20
1.1221170356
 30
0.0
 10
3.011370629
 20
1.1215678417
 30
0.0
 10
2.9911097916
 20
1.1210177296
 30
0.0
 10
2.9700138357
 20
1.1204667552
 30
0.0
 10
2.9486832074
 20
1.1199156975
 30
0.0
 10
2.9277219783
 20
1.1193647346
 30
0.0
 10
2.907723651
 20
1.1188144152
 30
0.0
 10
2.8892539448
 20
1.1182658094
 30
0.0
 10
2.8728383327
 20
1.1177193777
 30
0.0
 10
2.8606638828
 20
1.1172463323
 30
0.0
 10
2.8522986612
 20
1.1168556572
 30
0.0
 10
2.8471619854
 20
1.1165804818
 30
0.0
 10
2.8428373592
 20
1.11630639
 30
0.0
 10
2.8393549495
 20
1.116036296
 30
0.0
 10
2.8367410685
 20
1.1157673403
 30
0.0
 10
2.8352913974
 20
1.1155619563
 30
0.0
 10
2.8347204372
 20
1.1154374889
 30
0.0
  0
LINE
  5
4C9
100
AcDbEntity
  8
0
100
AcDbLine
 62
7
  6
CONTINUOUS
 10
2.8347204372
 20
1.1154374889
 11
2.8339497358
 21
1.1151954243
  0
SPLINE
  5
4CA
100
AcDbEntity
  8
0
100
AcDbSpline
 62
7
  6
CONTINUOUS
 70
0
 71
3
 72
14
 73
10
 74
0
 42
0.0000001
 43
0.0000001
 44
0.0000000001
 40
0.0
 40
0.0
 40
0.0
 40
0.0
 40
0.0243091329
 40
0.0741890737
 40
0.1533385086
 40
0.2624706491
 40
0.4017998258
 40
0.5713771516
 40
1.0
 40
1.0
 40
1.0
 40
1.0
 10
2.8338146924
 20
1.1358776025
 30
0.0
 10
2.8338150733
 20
1.1358162386
 30
0.0
 10
2.8339955422
 20
1.1356797063
 30
0.0
 10
2.8343444091
 20
1.13557132
 30
0.0
 10
2.8349404571
 20
1.1354274381
 30
0.0
 10
2.8357522719
 20
1.1352948761
 30
0.0
 10
2.836800077
 20
1.1351544961
 30
0.0
 10
2.838650221
 20
1.1349531619
 30
0.0
 10
2.8401555544
 20
1.1348263802
 30
0.0
 10
2.8412343553
 20
1.1347432363
 30
0.0
  0
LINE
  5
4CB
100
AcDbEntity
  8
0
100
AcDbLine
 62
7
  6
CONTINUOUS
 10
3.0890220487
 20
1.1257843158
 11
3.0895057688
 21
1.1256077139
  0
SPLINE
  5
4CC
100
AcDbEntity
  8
0
100
AcDbSpline
 62
7
  6
CONTINUOUS
 70
0
 71
3
 72
16
 73
12
 74
0
 42
0.0000001
 43
0.0000001
 44
0.0000000001
 40
0.0
 40
0.0
 40
0.0
 40
0.0
 40
0.0084375024
 40
0.0223220309
 40
0.0715357596
 40
0.1511126746
 40
0.2611839742
 40
0.4014853664
 40
0.5716565018
 40
0.771299745
 40
1.0
 40
1.0
 40
1.0
 40
1.0
 10
2.8338147095
 20
1.1384826026
 30
0.0
 10
2.8338144998
 20
1.1385162718
 30
0.0
 10
2.8338718678
 20
1.1385983275
 30
0.0
 10
2.8341244277
 20
1.1387292114
 30
0.0
 10
2.8346794883
 20
1.1388809324
 30
0.0
 10
2.8356156127
 20
1.139048889
 30
0.0
 10
2.8369222124
 20
1.1392223036
 30
0.0
 10
2.8385908785
 20
1.139397761
 30
0.0
 10
2.8406190308
 20
1.1395746134
 30
0.0
 10
2.8430007827
 20
1.139752193
 30
0.0
 10
2.8447065005
 20
1.1398634328
 30
0.0
 10
2.8456173891
 20
1.1399197655
 30
0.0
  0
SPLINE
  5
4CD
100
AcDbEntity
  8
0
100
AcDbSpline
 62
7
  6
CONTINUOUS
 70
0
 71
3
 72
27
 73
23
 74
0
 42
0.0000001
 43
0.0000001
 44
0.0000000001
 40
0.0
 40
0.0
 40
0.0
 40
0.0
 40
0.0424897408
 40
0.0966515782
 40
0.2340352601
 40
0.3134993861
 40
0.3973364457
 40
0.4833148125
 40
0.5691104292
 40
0.6523939714
 40
0.7309413401
 40
0.8026119495
 40
0.8655297128
 40
0.8931522736
 40
0.9179671835
 40
0.93981613
 40
0.9585413951
 40
0.9739930811
 40
0.9860836846
 40
0.9947621698
 40
0.9978109616
 40
1.0
 40
1.0
 40
1.0
 40
1.0
 10
2.8456173891
 20
1.1399197655
 30
0.0
 10
2.8490643004
 20
1.1401329352
 30
0.0
 10
2.8569104494
 20
1.1405277513
 30
0.0
 10
2.8759170476
 20
1.1412943938
 30
0.0
 10
2.8979341438
 20
1.141975216
 30
0.0
 10
2.9223636521
 20
1.1426604631
 30
0.0
 10
2.9426175825
 20
1.1431977198
 30
0.0
 10
2.9633862591
 20
1.1437356926
 30
0.0
 10
2.9841099467
 20
1.1442733408
 30
0.0
 10
3.0042294513
 20
1.1448108062
 30
0.0
 10
3.0232005122
 20
1.1453470253
 30
0.0
 10
3.0405155839
 20
1.145882404
 30
0.0
 10
3.0536918408
 20
1.1463432678
 30
0.0
 10
3.063060164
 20
1.1467204134
 30
0.0
 10
3.0690920204
 20
1.1469904163
 30
0.0
 10
3.074399996
 20
1.1472594117
 30
0.0
 10
3.0789458011
 20
1.1475272792
 30
0.0
 10
3.0826973145
 20
1.1477925207
 30
0.0
 10
3.0856291967
 20
1.1480564686
 30
0.0
 10
3.0875528629
 20
1.1482858654
 30
0.0
 10
3.0886661419
 20
1.148485605
 30
0.0
 10
3.0890807317
 20
1.1485866428
 30
0.0
 10
3.0892494885
 20
1.1486430092
 30
0.0
  0
SPLINE
  5
4CE
100
AcDbEntity
  8
0
100
AcDbSpline
 62
7
  6
CONTINUOUS
 70
0
 71
3
 72
15
 73
11
 74
0
 42
0.0000001
 43
0.0000001
 44
0.0000000001
 40
0.0
 40
0.0
 40
0.0
 40
0.0
 40
0.0232905433
 40
0.0733969079
 40
0.153102506
 40
0.2628113707
 40
0.4025489298
 40
0.5722282466
 40
0.7715690029
 40
1.0
 40
1.0
 40
1.0
 40
1.0
 10
3.0896327971
 20
1.1489045605
 30
0.0
 10
3.0896281397
 20
1.1489808813
 30
0.0
 10
3.0893733409
 20
1.1491300575
 30
0.0
 10
3.0889246376
 20
1.1492556478
 30
0.0
 10
3.088134848
 20
1.1494183488
 30
0.0
 10
3.0870730745
 20
1.1495704785
 30
0.0
 10
3.0857031572
 20
1.1497306261
 30
0.0
 10
3.0840415254
 20
1.1498895236
 30
0.0
 10
3.0820862245
 20
1.1500498175
 30
0.0
 10
3.0806855118
 20
1.1501500727
 30
0.0
 10
3.0799372966
 20
1.1502008909
 30
0.0
  0
SPLINE
  5
4CF
100
AcDbEntity
  8
0
100
AcDbSpline
 62
7
  6
CONTINUOUS
 70
0
 71
3
 72
15
 73
11
 74
0
 42
0.0000001
 43
0.0000001
 44
0.0000000001
 40
0.0
 40
0.0
 40
0.0
 40
0.0
 40
0.0222985207
 40
0.0431967025
 40
0.0714630997
 40
0.1506497896
 40
0.2602757876
 40
0.4002541353
 40
0.5703762718
 40
1.0
 40
1.0
 40
1.0
 40
1.0
 10
3.0896328198
 20
1.1462995604
 30
0.0
 10
3.0896371428
 20
1.1462287275
 30
0.0
 10
3.089490132
 20
1.1461285161
 30
0.0
 10
3.0892927076
 20
1.1460494943
 30
0.0
 10
3.0888942233
 20
1.1459284655
 30
0.0
 10
3.0882207862
 20
1.1457954631
 30
0.0
 10
3.0871836708
 20
1.1456388382
 30
0.0
 10
3.0858577434
 20
1.1454829634
 30
0.0
 10
3.083514238
 20
1.1452540466
 30
0.0
 10
3.0816108657
 20
1.1451111781
 30
0.0
 10
3.080246827
 20
1.1450172337
 30
0.0
  0
SPLINE
  5
4D0
100
AcDbEntity
  8
0
100
AcDbSpline
 62
7
  6
CONTINUOUS
 70
0
 71
3
 72
26
 73
22
 74
0
 42
0.0000001
 43
0.0000001
 44
0.0000000001
 40
0.0
 40
0.0
 40
0.0
 40
0.0
 40
0.0390415025
 40
0.0902106717
 40
0.1521307313
 40
0.2230681064
 40
0.3011314896
 40
0.3841571938
 40
0.4698855754
 40
0.5559490543
 40
0.6399759681
 40
0.7196890601
 40
0.792885869
 40
0.8575676126
 40
0.911893438
 40
0.9347236156
 40
0.9544472657
 40
0.9709164517
 40
0.9840429485
 40
0.993756695
 40
1.0
 40
1.0
 40
1.0
 40
1.0
 10
3.080246827
 20
1.1450172337
 30
0.0
 10
3.077053319
 20
1.1447972895
 30
0.0
 10
3.0696670483
 20
1.1443975216
 30
0.0
 10
3.0572049624
 20
1.1438656948
 30
0.0
 10
3.0421257088
 20
1.1433301944
 30
0.0
 10
3.0248404034
 20
1.1427902859
 30
0.0
 10
3.0058238642
 20
1.1422494153
 30
0.0
 10
2.9855941803
 20
1.1417072402
 30
0.0
 10
2.9647083367
 20
1.1411647759
 30
0.0
 10
2.9437403803
 20
1.1406221586
 30
0.0
 10
2.9232657899
 20
1.1400796038
 30
0.0
 10
2.9038465158
 20
1.1395380893
 30
0.0
 10
2.8860139766
 20
1.1389981325
 30
0.0
 10
2.8702639718
 20
1.1384610937
 30
0.0
 10
2.8586436489
 20
1.1379944588
 30
0.0
 10
2.8507096769
 20
1.1376092922
 30
0.0
 10
2.8458776774
 20
1.1373389143
 30
0.0
 10
2.8418431205
 20
1.1370690273
 30
0.0
 10
2.8386299421
 20
1.1368048295
 30
0.0
 10
2.8362612648
 20
1.1365409095
 30
0.0
 10
2.8349647995
 20
1.1363409542
 30
0.0
 10
2.8344689371
 20
1.1362138313
 30
0.0
  0
LINE
  5
4D1
100
AcDbEntity
  8
0
100
AcDbLine
 62
7
  6
CONTINUOUS
 10
2.8344689371
 20
1.1362138313
 11
2.833944833
 21
1.1360279176
  0
SPLINE
  5
4D2
100
AcDbEntity
  8
0
100
AcDbSpline
 62
7
  6
CONTINUOUS
 70
0
 71
3
 72
15
 73
11
 74
0
 42
0.0000001
 43
0.0000001
 44
0.0000000001
 40
0.0
 40
0.0
 40
0.0
 40
0.0
 40
0.0224924071
 40
0.0719054564
 40
0.1512297503
 40
0.261037357
 40
0.4012820306
 40
0.571525613
 40
0.7712708023
 40
1.0
 40
1.0
 40
1.0
 40
1.0
 10
2.8338165014
 20
1.1567106415
 30
0.0
 10
2.8338182657
 20
1.1566322567
 30
0.0
 10
2.8340871462
 20
1.1564751566
 30
0.0
 10
2.8345558117
 20
1.1563490161
 30
0.0
 10
2.8353933227
 20
1.1561796524
 30
0.0
 10
2.836521495
 20
1.1560237567
 30
0.0
 10
2.8379810042
 20
1.1558585228
 30
0.0
 10
2.8397508176
 20
1.1556948102
 30
0.0
 10
2.8418317692
 20
1.1555293828
 30
0.0
 10
2.8433216767
 20
1.1554259384
 30
0.0
 10
2.844117262
 20
1.1553735098
 30
0.0
  0
SPLINE
  5
4D3
100
AcDbEntity
  8
0
100
AcDbSpline
 62
7
  6
CONTINUOUS
 70
0
 71
3
 72
15
 73
11
 74
0
 42
0.0000001
 43
0.0000001
 44
0.0000000001
 40
0.0
 40
0.0
 40
0.0
 40
0.0
 40
0.0227511265
 40
0.0437699961
 40
0.0720692463
 40
0.15120209
 40
0.2608452364
 40
0.4009253463
 40
0.5710870549
 40
1.0
 40
1.0
 40
1.0
 40
1.0
 10
2.8338165108
 20
1.1593156415
 30
0.0
 10
2.8338149176
 20
1.1593863707
 30
0.0
 10
2.8339591915
 20
1.1594832296
 30
0.0
 10
2.8341540845
 20
1.1595626757
 30
0.0
 10
2.8345430774
 20
1.1596817055
 30
0.0
 10
2.8352010082
 20
1.1598136569
 30
0.0
 10
2.8362142433
 20
1.1599680706
 30
0.0
 10
2.8375101624
 20
1.1601220292
 30
0.0
 10
2.8397979927
 20
1.1603478698
 30
0.0
 10
2.8416555749
 20
1.1604891249
 30
0.0
 10
2.8429860865
 20
1.1605820476
 30
0.0
  0
SPLINE
  5
4D4
100
AcDbEntity
  8
0
100
AcDbSpline
 62
7
  6
CONTINUOUS
 70
0
 71
3
 72
16
 73
12
 74
0
 42
0.0000001
 43
0.0000001
 44
0.0000000001
 40
0.0
 40
0.0
 40
0.0
 40
0.0
 40
0.0332061174
 40
0.0753397552
 40
0.1831677799
 40
0.3158665564
 40
0.4639653666
 40
0.6170073208
 40
0.7640736631
 40
0.8948851731
 40
1.0
 40
1.0
 40
1.0
 40
1.0
 10
2.8429860865
 20
1.1605820476
 30
0.0
 10
2.8454450488
 20
1.1607537812
 30
0.0
 10
2.8510287256
 20
1.161075547
 30
0.0
 10
2.8646112348
 20
1.1617023288
 30
0.0
 10
2.8855812018
 20
1.1624389446
 30
0.0
 10
2.9144171055
 20
1.1632865237
 30
0.0
 10
2.9466105849
 20
1.1641393373
 30
0.0
 10
2.9798708124
 20
1.1649946296
 30
0.0
 10
3.0118475116
 20
1.1658463779
 30
0.0
 10
3.0402651128
 20
1.1666933931
 30
0.0
 10
3.0577675007
 20
1.1673226303
 30
0.0
 10
3.0655626806
 20
1.1676689596
 30
0.0
  0
SPLINE
  5
4D5
100
AcDbEntity
  8
0
100
AcDbSpline
 62
7
  6
CONTINUOUS
 70
0
 71
3
 72
13
 73
9
 74
0
 42
0.0000001
 43
0.0000001
 44
0.0000000001
 40
0.0
 40
0.0
 40
0.0
 40
0.0
 40
0.0438706528
 40
0.1105415901
 40
0.2004910227
 40
0.3138218428
 40
0.6104989767
 40
1.0
 40
1.0
 40
1.0
 40
1.0
 10
3.1022339191
 20
1.1352648977
 30
0.0
 10
3.1021476438
 20
1.135214809
 30
0.0
 10
3.1019081593
 20
1.1351303574
 30
0.0
 10
3.1014660333
 20
1.1350220278
 30
0.0
 10
3.1008613168
 20
1.1349125245
 30
0.0
 10
3.0997362779
 20
1.1347494698
 30
0.0
 10
3.0979278659
 20
1.1345561922
 30
0.0
 10
3.0963729514
 20
1.1344263369
 30
0.0
 10
3.0954898087
 20
1.1343588227
 30
0.0
  0
LINE
  5
4D6
100
AcDbEntity
  8
0
100
AcDbLine
 62
7
  6
CONTINUOUS
 10
3.0954898087
 20
1.1343588227
 11
3.0835748727
 21
1.1336657662
  0
SPLINE
  5
4D7
100
AcDbEntity
  8
0
100
AcDbSpline
 62
7
  6
CONTINUOUS
 70
0
 71
3
 72
15
 73
11
 74
0
 42
0.0000001
 43
0.0000001
 44
0.0000000001
 40
0.0
 40
0.0
 40
0.0
 40
0.0
 40
0.0938862739
 40
0.2168948884
 40
0.3599697191
 40
0.5125697288
 40
0.6634465969
 40
0.801474523
 40
0.9164794948
 40
1.0
 40
1.0
 40
1.0
 40
1.0
 10
3.0835748727
 20
1.1336657662
 30
0.0
 10
3.0757843985
 20
1.1332976367
 30
0.0
 10
3.057777689
 20
1.1326515488
 30
0.0
 10
3.0278873231
 20
1.1317931631
 30
0.0
 10
2.993117781
 20
1.1309280076
 30
0.0
 10
2.9560328053
 20
1.1300572499
 30
0.0
 10
2.919367171
 20
1.1291881003
 30
0.0
 10
2.8858252163
 20
1.1283226094
 30
0.0
 10
2.8578806157
 20
1.1274773032
 30
0.0
 10
2.8414010141
 20
1.126816749
 30
0.0
 10
2.8344735565
 20
1.1264329901
 30
0.0
  0
LINE
  5
4D8
100
AcDbEntity
  8
0
100
AcDbLine
 62
7
  6
CONTINUOUS
 10
2.8344735565
 20
1.1264329901
 11
2.8335804086
 21
1.1263827803
  0
LINE
  5
4D9
100
AcDbEntity
  8
0
100
AcDbLine
 62
7
  6
CONTINUOUS
 10
2.8335804086
 20
1.1263827803
 11
2.8243057345
 21
1.1257058977
  0
LINE
  5
4DA
100
AcDbEntity
  8
0
100
AcDbLine
 62
7
  6
CONTINUOUS
 10
2.8243057345
 20
1.1257058977
 11
2.8219129594
 21
1.1253605934
  0
LINE
  5
4DB
100
AcDbEntity
  8
0
100
AcDbLine
 62
7
  6
CONTINUOUS
 10
2.8219129594
 20
1.1253605934
 11
2.8210993789
 21
1.124981308
  0
SPLINE
  5
4DC
100
AcDbEntity
  8
0
100
AcDbSpline
 62
7
  6
CONTINUOUS
 70
0
 71
3
 72
13
 73
9
 74
0
 42
0.0000001
 43
0.0000001
 44
0.0000000001
 40
0.0
 40
0.0
 40
0.0
 40
0.0
 40
0.0444737797
 40
0.1115946545
 40
0.201818934
 40
0.3152447603
 40
0.6115700893
 40
1.0
 40
1.0
 40
1.0
 40
1.0
 10
2.8212223525
 20
1.1456775137
 30
0.0
 10
2.8213106554
 20
1.1456276783
 30
0.0
 10
2.8215532198
 20
1.1455432757
 30
0.0
 10
2.8219997918
 20
1.145435057
 30
0.0
 10
2.8226080196
 20
1.1453257861
 30
0.0
 10
2.8237362005
 20
1.1451634196
 30
0.0
 10
2.8255463756
 20
1.1449709887
 30
0.0
 10
2.8271021417
 20
1.1448416018
 30
0.0
 10
2.8279851579
 20
1.1447743214
 30
0.0
  0
SPLINE
  5
4DD
100
AcDbEntity
  8
0
100
AcDbSpline
 62
7
  6
CONTINUOUS
 70
0
 71
3
 72
13
 73
9
 74
0
 42
0.0000001
 43
0.0000001
 44
0.0000000001
 40
0.0
 40
0.0
 40
0.0
 40
0.0
 40
0.0435385109
 40
0.1099990717
 40
0.1998369383
 40
0.3131438136
 40
0.6100122576
 40
1.0
 40
1.0
 40
1.0
 40
1.0
 10
3.1022363791
 20
1.1561040855
 30
0.0
 10
3.1021502856
 20
1.1560543512
 30
0.0
 10
3.1019108012
 20
1.1559704773
 30
0.0
 10
3.1014682352
 20
1.1558621689
 30
0.0
 10
3.1008617678
 20
1.1557521275
 30
0.0
 10
3.099731957
 20
1.155587494
 30
0.0
 10
3.0979145578
 20
1.1553915662
 30
0.0
 10
3.0963515741
 20
1.1552600547
 30
0.0
 10
3.0954635999
 20
1.1551918214
 30
0.0
  0
LINE
  5
4DE
100
AcDbEntity
  8
0
100
AcDbLine
 62
7
  6
CONTINUOUS
 10
3.0954635999
 20
1.1551918214
 11
3.0835042175
 21
1.1544965989
  0
SPLINE
  5
4DF
100
AcDbEntity
  8
0
100
AcDbSpline
 62
7
  6
CONTINUOUS
 70
0
 71
3
 72
16
 73
12
 74
0
 42
0.0000001
 43
0.0000001
 44
0.0000000001
 40
0.0
 40
0.0
 40
0.0
 40
0.0
 40
0.0939959943
 40
0.217076871
 40
0.3601857165
 40
0.5127846047
 40
0.6636309023
 40
0.801606541
 40
0.9165471945
 40
0.9626571887
 40
1.0
 40
1.0
 40
1.0
 40
1.0
 10
3.0835042175
 20
1.1544965989
 30
0.0
 10
3.0757059691
 20
1.1541296048
 30
0.0
 10
3.0576873625
 20
1.153484276
 30
0.0
 10
3.027784441
 20
1.1526250897
 30
0.0
 10
2.9930123888
 20
1.1517606834
 30
0.0
 10
2.9559339046
 20
1.1508898388
 30
0.0
 10
2.9192817622
 20
1.150021024
 30
0.0
 10
2.8857582692
 20
1.1491558199
 30
0.0
 10
2.8609335265
 20
1.1484052521
 30
0.0
 10
2.844468044
 20
1.1477701523
 30
0.0
 10
2.8375443041
 20
1.1474440864
 30
0.0
 10
2.8344475364
 20
1.1472723897
 30
0.0
  0
LINE
  5
4E0
100
AcDbEntity
  8
0
100
AcDbLine
 62
7
  6
CONTINUOUS
 10
2.8332541838
 20
1.1472047634
 11
2.8241784113
 21
1.1465117537
  0
LINE
  5
4E1
100
AcDbEntity
  8
0
100
AcDbLine
 62
7
  6
CONTINUOUS
 10
2.8241784113
 20
1.1465117537
 11
2.8218754776
 21
1.1461650799
  0
LINE
  5
4E2
100
AcDbEntity
  8
0
100
AcDbLine
 62
7
  6
CONTINUOUS
 10
2.8218754776
 20
1.1461650799
 11
2.8210993789
 21
1.145816308
  0
SPLINE
  5
4E3
100
AcDbEntity
  8
0
100
AcDbSpline
 62
7
  6
CONTINUOUS
 70
0
 71
3
 72
13
 73
9
 74
0
 42
0.0000001
 43
0.0000001
 44
0.0000000001
 40
0.0
 40
0.0
 40
0.0
 40
0.0
 40
0.0446153357
 40
0.1118237522
 40
0.2020935698
 40
0.3155284175
 40
0.6117729874
 40
1.0
 40
1.0
 40
1.0
 40
1.0
 10
2.8212236198
 20
1.1665102373
 30
0.0
 10
2.8213121257
 20
1.1664601314
 30
0.0
 10
2.8215550924
 20
1.1663753273
 30
0.0
 10
2.8220022201
 20
1.1662669725
 30
0.0
 10
2.8226107301
 20
1.1661578682
 30
0.0
 10
2.8237387992
 20
1.1659961487
 30
0.0
 10
2.8255482386
 20
1.1658049099
 30
0.0
 10
2.8271032154
 20
1.1656762581
 30
0.0
 10
2.8279856785
 20
1.1656092817
 30
0.0
  0
SPLINE
  5
4E4
100
AcDbEntity
  8
0
100
AcDbSpline
 62
7
  6
CONTINUOUS
 70
0
 71
3
 72
11
 73
7
 74
0
 42
0.0000001
 43
0.0000001
 44
0.0000000001
 40
0.0
 40
0.0
 40
0.0
 40
0.0
 40
0.1254486577
 40
0.3341724301
 40
0.6259209725
 40
1.0
 40
1.0
 40
1.0
 40
1.0
 10
2.8213529518
 20
1.1078909355
 30
0.0
 10
2.8216250155
 20
1.1079913289
 30
0.0
 10
2.8223870779
 20
1.1081442931
 30
0.0
 10
2.8238159238
 20
1.1083574021
 30
0.0
 10
2.825827678
 20
1.1085729426
 30
0.0
 10
2.8273609067
 20
1.1087045155
 30
0.0
 10
2.8282230477
 20
1.1087715965
 30
0.0
  0
LINE
  5
4E5
100
AcDbEntity
  8
0
100
AcDbLine
 62
7
  6
CONTINUOUS
 10
2.8282230477
 20
1.1087715965
 11
2.840315046
 21
1.1094697163
  0
SPLINE
  5
4E6
100
AcDbEntity
  8
0
100
AcDbSpline
 62
7
  6
CONTINUOUS
 70
0
 71
3
 72
13
 73
9
 74
0
 42
0.0000001
 43
0.0000001
 44
0.0000000001
 40
0.0
 40
0.0
 40
0.0
 40
0.0
 40
0.1049097717
 40
0.2269625417
 40
0.5006813377
 40
0.7740441375
 40
0.895666548
 40
1.0
 40
1.0
 40
1.0
 40
1.0
 10
2.8576650297
 20
1.1101562243
 30
0.0
 10
2.8649612943
 20
1.1104117335
 30
0.0
 10
2.8807482392
 20
1.1109027035
 30
0.0
 10
2.915578509
 20
1.1118358358
 30
0.0
 10
2.9621311804
 20
1.1129297583
 30
0.0
 10
3.008653901
 20
1.1140239412
 30
0.0
 10
3.0433892575
 20
1.114958614
 30
0.0
 10
3.0591061954
 20
1.1154471686
 30
0.0
 10
3.0663623099
 20
1.1157032164
 30
0.0
  0
SPLINE
  5
4E7
100
AcDbEntity
  8
0
100
AcDbSpline
 62
7
  6
CONTINUOUS
 70
0
 71
3
 72
11
 73
7
 74
0
 42
0.0000001
 43
0.0000001
 44
0.0000000001
 40
0.0
 40
0.0
 40
0.0
 40
0.0
 40
0.3443842604
 40
0.6287578475
 40
0.84862732
 40
1.0
 40
1.0
 40
1.0
 40
1.0
 10
3.0663623099
 20
1.1157032164
 30
0.0
 10
3.0701447337
 20
1.1158366874
 30
0.0
 10
3.0770498675
 20
1.1160962374
 30
0.0
 10
3.0863672635
 20
1.116514858
 30
0.0
 10
3.0935601791
 20
1.1169297165
 30
0.0
 10
3.0976292483
 20
1.1172480837
 30
0.0
 10
3.0992821369
 20
1.117436417
 30
0.0
  0
LINE
  5
4E8
100
AcDbEntity
  8
0
100
AcDbLine
 62
7
  6
CONTINUOUS
 10
3.0992821369
 20
1.117436417
 11
3.1015762765
 21
1.1177831043
  0
LINE
  5
4E9
100
AcDbEntity
  8
0
100
AcDbLine
 62
7
  6
CONTINUOUS
 10
3.1015762765
 20
1.1177831043
 11
3.1023493789
 21
1.1181291112
  0
SPLINE
  5
4EA
100
AcDbEntity
  8
0
100
AcDbSpline
 62
7
  6
CONTINUOUS
 70
0
 71
3
 72
13
 73
9
 74
0
 42
0.0000001
 43
0.0000001
 44
0.0000000001
 40
0.0
 40
0.0
 40
0.0
 40
0.0
 40
0.0440728065
 40
0.1109167585
 40
0.2009818056
 40
0.3143610992
 40
0.6109185673
 40
1.0
 40
1.0
 40
1.0
 40
1.0
 10
2.8212181562
 20
1.1286810554
 30
0.0
 10
2.8213055834
 20
1.1287307225
 30
0.0
 10
2.821546868
 20
1.1288147455
 30
0.0
 10
2.8219917704
 20
1.1289229336
 30
0.0
 10
2.8225992626
 20
1.1290325647
 30
0.0
 10
2.8237281258
 20
1.1291960587
 30
0.0
 10
2.8255412988
 20
1.1293903223
 30
0.0
 10
2.8271000762
 20
1.129520828
 30
0.0
 10
2.8279851579
 20
1.1295885978
 30
0.0
  0
LINE
  5
4EB
100
AcDbEntity
  8
0
100
AcDbLine
 62
7
  6
CONTINUOUS
 10
2.8279851579
 20
1.1295885978
 11
2.839944541
 21
1.1302833967
  0
SPLINE
  5
4EC
100
AcDbEntity
  8
0
100
AcDbSpline
 62
7
  6
CONTINUOUS
 70
0
 71
3
 72
16
 73
12
 74
0
 42
0.0000001
 43
0.0000001
 44
0.0000000001
 40
0.0
 40
0.0
 40
0.0
 40
0.0
 40
0.0940012976
 40
0.2170903372
 40
0.360208185
 40
0.5128144052
 40
0.6636639139
 40
0.8016365107
 40
0.9165663117
 40
0.9626677503
 40
1.0
 40
1.0
 40
1.0
 40
1.0
 10
2.839944541
 20
1.1302833967
 30
0.0
 10
2.8477435626
 20
1.1306508653
 30
0.0
 10
2.8657641006
 20
1.13129653
 30
0.0
 10
2.8956702565
 20
1.1321553056
 30
0.0
 10
2.930445914
 20
1.1330200403
 30
0.0
 10
2.9675277052
 20
1.1338908693
 30
0.0
 10
3.0041821345
 20
1.1347597011
 30
0.0
 10
3.0377062513
 20
1.1356252472
 30
0.0
 10
3.0625302726
 20
1.1363752767
 30
0.0
 10
3.078993995
 20
1.1370109105
 30
0.0
 10
3.0859164307
 20
1.1373375701
 30
0.0
 10
3.0890124582
 20
1.1375093131
 30
0.0
  0
LINE
  5
4ED
100
AcDbEntity
  8
0
100
AcDbLine
 62
7
  6
CONTINUOUS
 10
3.0901945735
 20
1.1375763091
 11
3.0992703464
 21
1.1382670166
  0
LINE
  5
4EE
100
AcDbEntity
  8
0
100
AcDbLine
 62
7
  6
CONTINUOUS
 10
3.0992703464
 20
1.1382670166
 11
3.1015732801
 21
1.1386129006
  0
LINE
  5
4EF
100
AcDbEntity
  8
0
100
AcDbLine
 62
7
  6
CONTINUOUS
 10
3.1015732801
 20
1.1386129006
 11
3.1023493789
 21
1.1389641112
  0
SPLINE
  5
4F0
100
AcDbEntity
  8
0
100
AcDbSpline
 62
7
  6
CONTINUOUS
 70
0
 71
3
 72
13
 73
9
 74
0
 42
0.0000001
 43
0.0000001
 44
0.0000000001
 40
0.0
 40
0.0
 40
0.0
 40
0.0
 40
0.0444655371
 40
0.1115617044
 40
0.201762824
 40
0.3151738669
 40
0.611506109
 40
1.0
 40
1.0
 40
1.0
 40
1.0
 10
3.1022269466
 20
1.1391041055
 30
0.0
 10
3.1021388709
 20
1.1391543237
 30
0.0
 10
3.101896459
 20
1.1392392115
 30
0.0
 10
3.1014500442
 20
1.1393476586
 30
0.0
 10
3.1008418727
 20
1.1394568655
 30
0.0
 10
3.0997135904
 20
1.1396187979
 30
0.0
 10
3.0979029971
 20
1.1398102656
 30
0.0
 10
3.0963468682
 20
1.1399390497
 30
0.0
 10
3.0954635999
 20
1.1400060978
 30
0.0
  0
SPLINE
  5
4F1
100
AcDbEntity
  8
0
100
AcDbSpline
 62
7
  6
CONTINUOUS
 70
0
 71
3
 72
13
 73
9
 74
0
 42
0.0000001
 43
0.0000001
 44
0.0000000001
 40
0.0
 40
0.0
 40
0.0
 40
0.0
 40
0.0435799412
 40
0.1100759819
 40
0.1999379122
 40
0.3132553281
 40
0.6101001211
 40
1.0
 40
1.0
 40
1.0
 40
1.0
 10
2.8212134073
 20
1.1495118505
 30
0.0
 10
2.8213000065
 20
1.149561631
 30
0.0
 10
2.821540605
 20
1.1496456056
 30
0.0
 10
2.8219851058
 20
1.1497540801
 30
0.0
 10
2.8225940038
 20
1.1498643017
 30
0.0
 10
2.8237280515
 20
1.1500292083
 30
0.0
 10
2.8255519457
 20
1.150225493
 30
0.0
 10
2.82712045
 20
1.1503572506
 30
0.0
 10
2.8280115025
 20
1.1504256058
 30
0.0
  0
LINE
  5
4F2
100
AcDbEntity
  8
0
100
AcDbLine
 62
7
  6
CONTINUOUS
 10
2.8280115025
 20
1.1504256058
 11
2.8400154172
 21
1.1511221834
  0
SPLINE
  5
4F3
100
AcDbEntity
  8
0
100
AcDbSpline
 62
7
  6
CONTINUOUS
 70
0
 71
3
 72
15
 73
11
 74
0
 42
0.0000001
 43
0.0000001
 44
0.0000000001
 40
0.0
 40
0.0
 40
0.0
 40
0.0
 40
0.0896140567
 40
0.2055361592
 40
0.3406260376
 40
0.4865472314
 40
0.6342889466
 40
0.7746975565
 40
0.8992114392
 40
1.0
 40
1.0
 40
1.0
 40
1.0
 10
2.8400154172
 20
1.1511221834
 30
0.0
 10
2.8470563888
 20
1.1514529424
 30
0.0
 10
2.8632129089
 20
1.152044847
 30
0.0
 10
2.889993661
 20
1.1528354704
 30
0.0
 10
2.9212050413
 20
1.1536307196
 30
0.0
 10
2.9549197555
 20
1.1544312507
 30
0.0
 10
2.9890529231
 20
1.1552330902
 30
0.0
 10
3.0215019368
 20
1.1560298901
 30
0.0
 10
3.0502565948
 20
1.1568234691
 30
0.0
 10
3.0679685045
 20
1.1574158344
 30
0.0
 10
3.0758898976
 20
1.1577316112
 30
0.0
  0
SPLINE
  5
4F4
100
AcDbEntity
  8
0
100
AcDbSpline
 62
7
  6
CONTINUOUS
 70
0
 71
3
 72
14
 73
10
 74
0
 42
0.0000001
 43
0.0000001
 44
0.0000000001
 40
0.0
 40
0.0
 40
0.0
 40
0.0
 40
0.0264083104
 40
0.0788995092
 40
0.1600742907
 40
0.2703143445
 40
0.4095972114
 40
0.5777760188
 40
1.0
 40
1.0
 40
1.0
 40
1.0
 10
2.8338191905
 20
1.1176689596
 30
0.0
 10
2.8338331244
 20
1.1177345973
 30
0.0
 10
2.8340319672
 20
1.1178554871
 30
0.0
 10
2.8344008333
 20
1.1179726969
 30
0.0
 10
2.8350162424
 20
1.1181100024
 30
0.0
 10
2.8358416909
 20
1.1182435978
 30
0.0
 10
2.8368957362
 20
1.1183816897
 30
0.0
 10
2.8387383517
 20
1.1185811373
 30
0.0
 10
2.8402337556
 20
1.1187069777
 30
0.0
 10
2.8413034071
 20
1.1187893719
 30
0.0
  0
SPLINE
  5
4F5
100
AcDbEntity
  8
0
100
AcDbSpline
 62
7
  6
CONTINUOUS
 70
0
 71
3
 72
26
 73
22
 74
0
 42
0.0000001
 43
0.0000001
 44
0.0000000001
 40
0.0
 40
0.0
 40
0.0
 40
0.0
 40
0.0361260736
 40
0.08494731
 40
0.1451863619
 40
0.215065783
 40
0.292619066
 40
0.3756262899
 40
0.461770637
 40
0.548603979
 40
0.6336607191
 40
0.7145424382
 40
0.7889327939
 40
0.8547818601
 40
0.9101966713
 40
0.9335064357
 40
0.9536447505
 40
0.9704488465
 40
0.983823552
 40
0.9936944781
 40
1.0
 40
1.0
 40
1.0
 40
1.0
 10
2.8413034071
 20
1.1187893719
 30
0.0
 10
2.8442796398
 20
1.1190186282
 30
0.0
 10
2.85128772
 20
1.1194261332
 30
0.0
 10
2.8632721359
 20
1.1199641406
 30
0.0
 10
2.8780479546
 20
1.120505803
 30
0.0
 10
2.895198861
 20
1.1210532956
 30
0.0
 10
2.9142319198
 20
1.1216022433
 30
0.0
 10
2.9346093786
 20
1.1221528159
 30
0.0
 10
2.9557538993
 20
1.1227036409
 30
0.0
 10
2.9770678204
 20
1.1232545648
 30
0.0
 10
2.9979467612
 20
1.1238051977
 30
0.0
 10
3.0177972097
 20
1.1243548248
 30
0.0
 10
3.0360599554
 20
1.1249033721
 30
0.0
 10
3.0522174101
 20
1.1254491619
 30
0.0
 10
3.0641541313
 20
1.1259229401
 30
0.0
 10
3.0723136736
 20
1.1263139891
 30
0.0
 10
3.077284838
 20
1.1265884841
 30
0.0
 10
3.0814332124
 20
1.1268625093
 30
0.0
 10
3.084732658
 20
1.1271304595
 30
0.0
 10
3.0871582665
 20
1.1273984486
 30
0.0
 10
3.0884831833
 20
1.1276009995
 30
0.0
 10
3.0889877282
 20
1.1277309727
 30
0.0
  0
LINE
  5
4F6
100
AcDbEntity
  8
0
100
AcDbLine
 62
7
  6
CONTINUOUS
 10
3.0889877282
 20
1.1277309727
 11
3.0895121806
 21
1.1279196101
  0
SPLINE
  5
4F7
100
AcDbEntity
  8
0
100
AcDbSpline
 62
7
  6
CONTINUOUS
 70
0
 71
3
 72
24
 73
20
 74
0
 42
0.0000001
 43
0.0000001
 44
0.0000000001
 40
0.0
 40
0.0
 40
0.0
 40
0.0
 40
0.1174835202
 40
0.2654676008
 40
0.430296541
 40
0.5143272177
 40
0.5968320794
 40
0.6759201369
 40
0.7497564989
 40
0.816645761
 40
0.8749785216
 40
0.9234634691
 40
0.9436427214
 40
0.9609480075
 40
0.9753031723
 40
0.9866363781
 40
0.9948805184
 40
0.9978291452
 40
1.0
 40
1.0
 40
1.0
 40
1.0
 10
3.0655626806
 20
1.1650639596
 30
0.0
 10
3.0565054129
 20
1.1646615575
 30
0.0
 10
3.0360311121
 20
1.163947375
 30
0.0
 10
3.0028390245
 20
1.1629906855
 30
0.0
 10
2.9722248875
 20
1.1621945166
 30
0.0
 10
2.946662064
 20
1.1615328339
 30
0.0
 10
2.9277138641
 20
1.1610336494
 30
0.0
 10
2.9095526231
 20
1.1605351012
 30
0.0
 10
2.8925968956
 20
1.1600373174
 30
0.0
 10
2.8772435152
 20
1.1595418063
 30
0.0
 10
2.8638476064
 20
1.1590478438
 30
0.0
 10
2.8540564731
 20
1.1586189785
 30
0.0
 10
2.8474316029
 20
1.1582645001
 30
0.0
 10
2.8434388629
 20
1.1580156963
 30
0.0
 10
2.8401299344
 20
1.1577693876
 30
0.0
 10
2.8375229522
 20
1.1575246368
 30
0.0
 10
2.835796599
 20
1.1573114623
 30
0.0
 10
2.834781891
 20
1.1571270346
 30
0.0
 10
2.8343972933
 20
1.1570335463
 30
0.0
 10
2.8342377533
 20
1.1569824427
 30
0.0
  0
SPLINE
  5
4F8
100
AcDbEntity
  8
0
100
AcDbSpline
 62
7
  6
CONTINUOUS
 70
0
 71
3
 72
14
 73
10
 74
0
 42
0.0000001
 43
0.0000001
 44
0.0000000001
 40
0.0
 40
0.0
 40
0.0
 40
0.0
 40
0.3832088385
 40
0.543598491
 40
0.681921231
 40
0.7972433742
 40
0.8887507682
 40
0.9562774221
 40
1.0
 40
1.0
 40
1.0
 40
1.0
 10
3.065545283
 20
1.1676689596
 30
0.0
 10
3.0685669115
 20
1.1678028804
 30
0.0
 10
3.0728526771
 20
1.1680076818
 30
0.0
 10
3.0782258365
 20
1.1683209363
 30
0.0
 10
3.0814864869
 20
1.1685407282
 30
0.0
 10
3.0842017663
 20
1.1687594044
 30
0.0
 10
3.0863574167
 20
1.1689740328
 30
0.0
 10
3.0879423693
 20
1.1691878195
 30
0.0
 10
3.0888082269
 20
1.169351217
 30
0.0
 10
3.0891381182
 20
1.1694525168
 30
0.0
  0
SPLINE
  5
4F9
100
AcDbEntity
  8
0
100
AcDbSpline
 62
7
  6
CONTINUOUS
 70
0
 71
3
 72
18
 73
14
 74
0
 42
0.0000001
 43
0.0000001
 44
0.0000000001
 40
0.0
 40
0.0
 40
0.0
 40
0.0
 40
0.2269742135
 40
0.4271659596
 40
0.599130271
 40
0.7414312157
 40
0.8527002533
 40
0.9323782083
 40
0.9604331802
 40
0.9807280864
 40
0.9880361918
 40
0.9935382428
 40
1.0
 40
1.0
 40
1.0
 40
1.0
 10
3.065545283
 20
1.1650639596
 30
0.0
 10
3.0673773378
 20
1.1651451576
 30
0.0
 10
3.0708249298
 20
1.165305837
 30
0.0
 10
3.0756589376
 20
1.1655613836
 30
0.0
 10
3.0798077479
 20
1.1658165321
 30
0.0
 10
3.0832367777
 20
1.1660684822
 30
0.0
 10
3.0859177912
 20
1.1663195732
 30
0.0
 10
3.0876742423
 20
1.1665369294
 30
0.0
 10
3.0886922438
 20
1.1667279486
 30
0.0
 10
3.0891275692
 20
1.1668360881
 30
0.0
 10
3.0893805762
 20
1.1669331942
 30
0.0
 10
3.089514144
 20
1.1669999654
 30
0.0
 10
3.0895998316
 20
1.1670824384
 30
0.0
 10
3.0895965731
 20
1.1671345448
 30
0.0
  0
SPLINE
  5
4FA
100
AcDbEntity
  8
0
100
AcDbSpline
 62
7
  6
CONTINUOUS
 70
0
 71
3
 72
16
 73
12
 74
0
 42
0.0000001
 43
0.0000001
 44
0.0000000001
 40
0.0
 40
0.0
 40
0.0
 40
0.0
 40
0.1032297994
 40
0.2313053628
 40
0.3755204992
 40
0.5262921071
 40
0.673481723
 40
0.8072259341
 40
0.9185485764
 40
0.9634027105
 40
1.0
 40
1.0
 40
1.0
 40
1.0
 10
3.0758898976
 20
1.175001308
 30
0.0
 10
3.067586961
 20
1.1746616408
 30
0.0
 10
3.0489766159
 20
1.1740545028
 30
0.0
 10
3.0187589728
 20
1.1732293025
 30
0.0
 10
2.9847130094
 20
1.1723985054
 30
0.0
 10
2.9491280777
 20
1.171565843
 30
0.0
 10
2.9143861941
 20
1.1707344843
 30
0.0
 10
2.8828208569
 20
1.1699069508
 30
0.0
 10
2.8594932698
 20
1.1691896019
 30
0.0
 10
2.843986956
 20
1.1685832556
 30
0.0
 10
2.8374374145
 20
1.1682722127
 30
0.0
 10
2.8344958776
 20
1.1681093836
 30
0.0
  0
LINE
  5
4FB
100
AcDbEntity
  8
0
100
AcDbLine
 62
7
  6
CONTINUOUS
 10
2.8344958776
 20
1.1681093836
 11
2.8241901985
 21
1.1673497912
  0
LINE
  5
4FC
100
AcDbEntity
  8
0
100
AcDbLine
 62
7
  6
CONTINUOUS
 10
2.8241901985
 20
1.1673497912
 11
2.8218784732
 21
1.1670032705
  0
LINE
  5
4FD
100
AcDbEntity
  8
0
100
AcDbLine
 62
7
  6
CONTINUOUS
 10
2.8218784732
 20
1.1670032705
 11
2.8210993789
 21
1.166651308
  0
LINE
  5
4FE
100
AcDbEntity
  8
0
100
AcDbLine
 62
7
  6
CONTINUOUS
 10
3.0758898976
 20
1.1577316112
 11
3.0889406347
 21
1.1583399825
  0
SPLINE
  5
4FF
100
AcDbEntity
  8
0
100
AcDbSpline
 62
7
  6
CONTINUOUS
 70
0
 71
3
 72
11
 73
7
 74
0
 42
0.0000001
 43
0.0000001
 44
0.0000000001
 40
0.0
 40
0.0
 40
0.0
 40
0.0
 40
0.3438994285
 40
0.626044311
 40
0.845113106
 40
1.0
 40
1.0
 40
1.0
 40
1.0
 10
3.0889406347
 20
1.1583399825
 30
0.0
 10
3.0903262016
 20
1.15841588
 30
0.0
 10
3.092847935
 20
1.1585646009
 30
0.0
 10
3.0962495455
 20
1.158808538
 30
0.0
 10
3.0988857316
 20
1.1590503316
 30
0.0
 10
3.100384515
 20
1.1592337188
 30
0.0
 10
3.101000685
 20
1.1593382453
 30
0.0
  0
LINE
  5
500
100
AcDbEntity
  8
0
100
AcDbLine
 62
7
  6
CONTINUOUS
 10
3.101000685
 20
1.1593382453
 11
3.1020109284
 21
1.1595669964
  0
LINE
  5
501
100
AcDbEntity
  8
0
100
AcDbLine
 62
7
  6
CONTINUOUS
 10
3.1020109284
 20
1.1595669964
 11
3.1023493789
 21
1.1597991112
  0
LINE
  5
502
100
AcDbEntity
  8
0
100
AcDbLine
 62
7
  6
CONTINUOUS
 10
2.7128446318
 20
1.1000720416
 11
2.7135365578
 21
1.1062146163
  0
LINE
  5
503
100
AcDbEntity
  8
0
100
AcDbLine
 62
7
  6
CONTINUOUS
 10
2.715812603
 20
0.9038664596
 11
2.7154625932
 21
0.9215736904
  0
LINE
  5
504
100
AcDbEntity
  8
0
100
AcDbLine
 62
7
  6
CONTINUOUS
 10
2.7133816822
 20
1.0203786614
 11
2.7130345189
 21
1.0344366339
  0
SPLINE
  5
505
100
AcDbEntity
  8
0
100
AcDbSpline
 62
7
  6
CONTINUOUS
 70
0
 71
3
 72
9
 73
5
 74
0
 42
0.0000001
 43
0.0000001
 44
0.0000000001
 40
0.0
 40
0.0
 40
0.0
 40
0.0
 40
0.5757068056
 40
1.0
 40
1.0
 40
1.0
 40
1.0
 10
2.712340408
 20
1.0594716759
 30
0.0
 10
2.7121340944
 20
1.0662427187
 30
0.0
 10
2.711743762
 20
1.0780029057
 30
0.0
 10
2.7112360628
 20
1.0897594667
 30
0.0
 10
2.7109507226
 20
1.0947438485
 30
0.0
  0
LINE
  5
506
100
AcDbEntity
  8
0
100
AcDbLine
 62
7
  6
CONTINUOUS
 10
2.7109507226
 20
1.0947438485
 11
2.7106041601
 21
1.1000715908
  0
LINE
  5
507
100
AcDbEntity
  8
0
100
AcDbLine
 62
7
  6
CONTINUOUS
 10
2.7106041601
 20
1.1000715908
 11
2.7099122147
 21
1.1062145502
  0
LINE
  5
508
100
AcDbEntity
  8
0
100
AcDbLine
 62
7
  6
CONTINUOUS
 10
2.7099122147
 20
1.1062145502
 11
2.709562603
 21
1.1069914596
  0
SPLINE
  5
509
100
AcDbEntity
  8
0
100
AcDbSpline
 62
7
  6
CONTINUOUS
 70
0
 71
3
 72
14
 73
10
 74
0
 42
0.0000001
 43
0.0000001
 44
0.0000000001
 40
0.0
 40
0.0
 40
0.0
 40
0.0
 40
0.023601545
 40
0.073428799
 40
0.1527183277
 40
0.2620159092
 40
0.401432384
 40
0.5709514218
 40
1.0
 40
1.0
 40
1.0
 40
1.0
 10
2.7007868789
 20
1.0917814277
 30
0.0
 10
2.7008534727
 20
1.0917799333
 30
0.0
 10
2.7009942366
 20
1.0915697252
 30
0.0
 10
2.7011073186
 20
1.0911834114
 30
0.0
 10
2.7012577734
 20
1.0905115998
 30
0.0
 10
2.7013968018
 20
1.0896024866
 30
0.0
 10
2.7015440396
 20
1.0884288151
 30
0.0
 10
2.7017556315
 20
1.0863578089
 30
0.0
 10
2.7018886782
 20
1.0846729929
 30
0.0
 10
2.7019757073
 20
1.0834652213
 30
0.0
  0
SPLINE
  5
50A
100
AcDbEntity
  8
0
100
AcDbSpline
 62
7
  6
CONTINUOUS
 70
0
 71
3
 72
10
 73
6
 74
0
 42
0.0000001
 43
0.0000001
 44
0.0000000001
 40
0.0
 40
0.0
 40
0.0
 40
0.0
 40
0.1800170862
 40
0.4082744081
 40
1.0
 40
1.0
 40
1.0
 40
1.0
 10
2.7019757073
 20
1.0834652213
 30
0.0
 10
2.7021292202
 20
1.0813347987
 30
0.0
 10
2.7024175821
 20
1.0764988148
 30
0.0
 10
2.7029836056
 20
1.0646470088
 30
0.0
 10
2.7033302798
 20
1.0549235424
 30
0.0
 10
2.7035615453
 20
1.047906385
 30
0.0
  0
SPLINE
  5
50B
100
AcDbEntity
  8
0
100
AcDbSpline
 62
7
  6
CONTINUOUS
 70
0
 71
3
 72
17
 73
13
 74
0
 42
0.0000001
 43
0.0000001
 44
0.0000000001
 40
0.0
 40
0.0
 40
0.0
 40
0.0
 40
0.2123495008
 40
0.4015258562
 40
0.5663592465
 40
0.7058986221
 40
0.8195331846
 40
0.9066964793
 40
0.9401869044
 40
0.9668772513
 40
0.9867804271
 40
1.0
 40
1.0
 40
1.0
 40
1.0
 10
2.7107055313
 20
0.7541266179
 30
0.0
 10
2.7107998367
 20
0.7514355451
 30
0.0
 10
2.7109863476
 20
0.7463473505
 30
0.0
 10
2.7112809407
 20
0.739171568
 30
0.0
 10
2.711574706
 20
0.7329199273
 30
0.0
 10
2.7118668871
 20
0.7276272454
 30
0.0
 10
2.7121573181
 20
0.7233213542
 30
0.0
 10
2.7124112071
 20
0.720360681
 30
0.0
 10
2.7126251793
 20
0.7185046368
 30
0.0
 10
2.7127692125
 20
0.717498739
 30
0.0
 10
2.7129120926
 20
0.7167544757
 30
0.0
 10
2.7130225725
 20
0.7163467869
 30
0.0
 10
2.7130883181
 20
0.7161925852
 30
0.0
  0
LINE
  5
50C
100
AcDbEntity
  8
0
100
AcDbLine
 62
7
  6
CONTINUOUS
 10
2.690812603
 20
0.9038664596
 11
2.6904278661
 21
0.9231789259
  0
LINE
  5
50D
100
AcDbEntity
  8
0
100
AcDbLine
 62
7
  6
CONTINUOUS
 10
2.6885396857
 20
1.0136922871
 11
2.6881604869
 21
1.0294347961
  0
SPLINE
  5
50E
100
AcDbEntity
  8
0
100
AcDbSpline
 62
7
  6
CONTINUOUS
 70
0
 71
3
 72
10
 73
6
 74
0
 42
0.0000001
 43
0.0000001
 44
0.0000000001
 40
0.0
 40
0.0
 40
0.0
 40
0.0
 40
0.5825640006
 40
0.8130706243
 40
1.0
 40
1.0
 40
1.0
 40
1.0
 10
2.6874033323
 20
1.057384101
 30
0.0
 10
2.6871801156
 20
1.064850496
 30
0.0
 10
2.6868431694
 20
1.0752706101
 30
0.0
 10
2.6863055081
 20
1.0880815633
 30
0.0
 10
2.6860315318
 20
1.0934271549
 30
0.0
 10
2.6858881601
 20
1.095819702
 30
0.0
  0
LINE
  5
50F
100
AcDbEntity
  8
0
100
AcDbLine
 62
7
  6
CONTINUOUS
 10
2.6858881601
 20
1.095819702
 11
2.685509395
 21
1.101264782
  0
SPLINE
  5
510
100
AcDbEntity
  8
0
100
AcDbSpline
 62
7
  6
CONTINUOUS
 70
0
 71
3
 72
11
 73
7
 74
0
 42
0.0000001
 43
0.0000001
 44
0.0000000001
 40
0.0
 40
0.0
 40
0.0
 40
0.0
 40
0.371740114
 40
0.6624707661
 40
0.8716126973
 40
1.0
 40
1.0
 40
1.0
 40
1.0
 10
2.685509395
 20
1.101264782
 30
0.0
 10
2.6854524266
 20
1.101950787
 30
0.0
 10
2.6853419469
 20
1.1031722135
 30
0.0
 10
2.6851613762
 20
1.1047775915
 30
0.0
 10
2.6849797614
 20
1.1059245122
 30
0.0
 10
2.6848426448
 20
1.106539298
 30
0.0
 10
2.6847518418
 20
1.106759014
 30
0.0
  0
LINE
  5
511
100
AcDbEntity
  8
0
100
AcDbLine
 62
7
  6
CONTINUOUS
 10
2.6878446311
 20
1.1000720321
 11
2.6885420676
 21
1.1062146147
  0
LINE
  5
512
100
AcDbEntity
  8
0
100
AcDbLine
 62
7
  6
CONTINUOUS
 10
2.6885420676
 20
1.1062146147
 11
2.6888861477
 21
1.1069914596
  0
SPLINE
  5
513
100
AcDbEntity
  8
0
100
AcDbSpline
 62
7
  6
CONTINUOUS
 70
0
 71
3
 72
11
 73
7
 74
0
 42
0.0000001
 43
0.0000001
 44
0.0000000001
 40
0.0
 40
0.0
 40
0.0
 40
0.0
 40
0.3717400147
 40
0.6624706242
 40
0.8716125849
 40
1.0
 40
1.0
 40
1.0
 40
1.0
 10
2.698009399
 20
0.7064681372
 30
0.0
 10
2.6979524303
 20
0.7057821322
 30
0.0
 10
2.6978419497
 20
0.7045607056
 30
0.0
 10
2.6976613768
 20
0.7029553276
 30
0.0
 10
2.697479759
 20
0.7018084067
 30
0.0
 10
2.6973426399
 20
0.701193621
 30
0.0
 10
2.6972518357
 20
0.7009739051
 30
0.0
  0
LINE
  5
514
100
AcDbEntity
  8
0
100
AcDbLine
 62
7
  6
CONTINUOUS
 10
2.6951361548
 20
0.9038664596
 11
2.6955121316
 21
0.8845531489
  0
LINE
  5
515
100
AcDbEntity
  8
0
100
AcDbLine
 62
7
  6
CONTINUOUS
 10
2.6974090994
 20
0.794039459
 11
2.6977876675
 21
0.7782970597
  0
LINE
  5
516
100
AcDbEntity
  8
0
100
AcDbLine
 62
7
  6
CONTINUOUS
 10
2.6981665095
 20
0.7636892042
 11
2.6983626144
 21
0.7566184587
  0
LINE
  5
517
100
AcDbEntity
  8
0
100
AcDbLine
 62
7
  6
CONTINUOUS
 10
2.6983626144
 20
0.7566184587
 11
2.6985454495
 21
0.750348015
  0
SPLINE
  5
518
100
AcDbEntity
  8
0
100
AcDbSpline
 62
7
  6
CONTINUOUS
 70
0
 71
3
 72
10
 73
6
 74
0
 42
0.0000001
 43
0.0000001
 44
0.0000000001
 40
0.0
 40
0.0
 40
0.0
 40
0.0
 40
0.5825652447
 40
0.8130715254
 40
1.0
 40
1.0
 40
1.0
 40
1.0
 10
2.6985454495
 20
0.750348015
 30
0.0
 10
2.6987688632
 20
0.7428816879
 30
0.0
 10
2.699105813
 20
0.7324616727
 30
0.0
 10
2.6996432669
 20
0.7196508446
 30
0.0
 10
2.6999172072
 20
0.7143053227
 30
0.0
 10
2.7000605759
 20
0.711912812
 30
0.0
  0
LINE
  5
519
100
AcDbEntity
  8
0
100
AcDbLine
 62
7
  6
CONTINUOUS
 10
2.7000605759
 20
0.711912812
 11
2.7004393533
 21
0.7064678696
  0
SPLINE
  5
51A
100
AcDbEntity
  8
0
100
AcDbSpline
 62
7
  6
CONTINUOUS
 70
0
 71
3
 72
11
 73
7
 74
0
 42
0.0000001
 43
0.0000001
 44
0.0000000001
 40
0.0
 40
0.0
 40
0.0
 40
0.0
 40
0.3717441852
 40
0.6624761808
 40
0.8716167037
 40
1.0
 40
1.0
 40
1.0
 40
1.0
 10
2.7004393533
 20
0.7064678696
 30
0.0
 10
2.7004963259
 20
0.7057818833
 30
0.0
 10
2.700606815
 20
0.7045604938
 30
0.0
 10
2.7007874007
 20
0.7029551707
 30
0.0
 10
2.7009690256
 20
0.7018083041
 30
0.0
 10
2.7011061452
 20
0.7011935523
 30
0.0
 10
2.7011969514
 20
0.7009738552
 30
0.0
  0
LINE
  5
51B
100
AcDbEntity
  8
0
100
AcDbLine
 62
7
  6
CONTINUOUS
 10
2.673009413
 20
0.7064681368
 11
2.672630624
 21
0.7028078112
  0
LINE
  5
51C
100
AcDbEntity
  8
0
100
AcDbLine
 62
7
  6
CONTINUOUS
 10
2.672630624
 20
0.7028078112
 11
2.6722518393
 21
0.7009739055
  0
LINE
  5
51D
100
AcDbEntity
  8
0
100
AcDbLine
 62
7
  6
CONTINUOUS
 10
2.6724091016
 20
0.7940393634
 11
2.6727874652
 21
0.7782969719
  0
LINE
  5
51E
100
AcDbEntity
  8
0
100
AcDbLine
 62
7
  6
CONTINUOUS
 10
2.6731663731
 20
0.7636891334
 11
2.6733649946
 21
0.7565326107
  0
LINE
  5
51F
100
AcDbEntity
  8
0
100
AcDbLine
 62
7
  6
CONTINUOUS
 10
2.6733649946
 20
0.7565326107
 11
2.673545451
 21
0.7503479629
  0
LINE
  5
520
100
AcDbEntity
  8
0
100
AcDbLine
 62
7
  6
CONTINUOUS
 10
2.6743030944
 20
0.727952093
 11
2.6750605644
 21
0.7119127935
  0
LINE
  5
521
100
AcDbEntity
  8
0
100
AcDbLine
 62
7
  6
CONTINUOUS
 10
2.6750605644
 20
0.7119127935
 11
2.6754393482
 21
0.7064678477
  0
SPLINE
  5
522
100
AcDbEntity
  8
0
100
AcDbSpline
 62
7
  6
CONTINUOUS
 70
0
 71
3
 72
11
 73
7
 74
0
 42
0.0000001
 43
0.0000001
 44
0.0000000001
 40
0.0
 40
0.0
 40
0.0
 40
0.0
 40
0.3717445871
 40
0.6624767468
 40
0.8716171436
 40
1.0
 40
1.0
 40
1.0
 40
1.0
 10
2.6754393482
 20
0.7064678477
 30
0.0
 10
2.6754963222
 20
0.7057818631
 30
0.0
 10
2.675606814
 20
0.7045604768
 30
0.0
 10
2.6757874027
 20
0.7029551586
 30
0.0
 10
2.6759690271
 20
0.7018082966
 30
0.0
 10
2.6761061443
 20
0.7011935475
 30
0.0
 10
2.6761969492
 20
0.7009738516
 30
0.0
  0
SPLINE
  5
523
100
AcDbEntity
  8
0
100
AcDbSpline
 62
7
  6
CONTINUOUS
 70
0
 71
3
 72
11
 73
7
 74
0
 42
0.0000001
 43
0.0000001
 44
0.0000000001
 40
0.0
 40
0.0
 40
0.0
 40
0.0
 40
0.3717399624
 40
0.6624706047
 40
0.8716126013
 40
1.0
 40
1.0
 40
1.0
 40
1.0
 10
2.7230094267
 20
0.7064681366
 30
0.0
 10
2.7229524538
 20
0.7057821316
 30
0.0
 10
2.7228419641
 20
0.704560705
 30
0.0
 10
2.7226613774
 20
0.7029553275
 30
0.0
 10
2.7224797522
 20
0.7018084069
 30
0.0
 10
2.7223426311
 20
0.7011936214
 30
0.0
 10
2.722251827
 20
0.7009739054
 30
0.0
  0
SPLINE
  5
524
100
AcDbEntity
  8
0
100
AcDbSpline
 62
7
  6
CONTINUOUS
 70
0
 71
3
 72
10
 73
6
 74
0
 42
0.0000001
 43
0.0000001
 44
0.0000000001
 40
0.0
 40
0.0
 40
0.0
 40
0.0
 40
0.5377174815
 40
0.7760580911
 40
1.0
 40
1.0
 40
1.0
 40
1.0
 10
2.2540583228
 20
1.0025586423
 30
0.0
 10
2.2549528868
 20
1.0054036473
 30
0.0
 10
2.2567489494
 20
1.0094083327
 30
0.0
 10
2.2602275227
 20
1.0137560116
 30
0.0
 10
2.2621707062
 20
1.0154554311
 30
0.0
 10
2.2631799862
 20
1.0161793287
 30
0.0
  0
SPLINE
  5
525
100
AcDbEntity
  8
0
100
AcDbSpline
 62
9
  6
CONTINUOUS
 70
0
 71
3
 72
9
 73
5
 74
0
 42
0.0000001
 43
0.0000001
 44
0.0000000001
 40
0.0
 40
0.0
 40
0.0
 40
0.0
 40
0.5083249787
 40
1.0
 40
1.0
 40
1.0
 40
1.0
 10
2.2770971634
 20
1.0569698401
 30
0.0
 10
2.2748788793
 20
1.0528936641
 30
0.0
 10
2.2714139054
 20
1.0443397562
 30
0.0
 10
2.2701947087
 20
1.0351753336
 30
0.0
 10
2.2701947087
 20
1.0306866482
 30
0.0
  0
SPLINE
  5
526
100
AcDbEntity
  8
0
100
AcDbSpline
 62
7
  6
CONTINUOUS
 70
0
 71
3
 72
25
 73
21
 74
0
 42
0.0000001
 43
0.0000001
 44
0.0000000001
 40
0.0
 40
0.0
 40
0.0
 40
0.0
 40
0.0398768395
 40
0.0782592004
 40
0.147869146
 40
0.2111928299
 40
0.2711341582
 40
0.3293110363
 40
0.3865743404
 40
0.4433814391
 40
0.4999982327
 40
0.5566156168
 40
0.6134255399
 40
0.6706903333
 40
0.7288688432
 40
0.7888097587
 40
0.8521336279
 40
0.9217443864
 40
0.9601246213
 40
1.0
 40
1.0
 40
1.0
 40
1.0
 10
3.3242243789
 20
0.9867091721
 30
0.0
 10
3.3262620997
 20
0.9867091721
 30
0.0
 10
3.330271932
 20
0.9871916253
 30
0.0
 10
3.3374759143
 20
0.9896202001
 30
0.0
 10
3.344776356
 20
0.9947817245
 30
0.0
 10
3.3510006766
 20
1.0025255824
 30
0.0
 10
3.3552766903
 20
1.0108046547
 30
0.0
 10
3.3581752358
 20
1.0193103462
 30
0.0
 10
3.3600479858
 20
1.0279263769
 30
0.0
 10
3.3610984193
 20
1.0365959249
 30
0.0
 10
3.3614350821
 20
1.0452874556
 30
0.0
 10
3.3610986219
 20
1.0539791307
 30
0.0
 10
3.3600486532
 20
1.0626489881
 30
0.0
 10
3.3581756279
 20
1.0712653197
 30
0.0
 10
3.3552761298
 20
1.0797707869
 30
0.0
 10
3.3510012233
 20
1.0880504099
 30
0.0
 10
3.3447767013
 20
1.095794548
 30
0.0
 10
3.3374750091
 20
1.1009539067
 30
0.0
 10
3.3302716832
 20
1.1033834803
 30
0.0
 10
3.326262025
 20
1.1038664596
 30
0.0
 10
3.3242243789
 20
1.1038664596
 30
0.0
  0
SPLINE
  5
527
100
AcDbEntity
  8
0
100
AcDbSpline
 62
7
  6
CONTINUOUS
 70
0
 71
3
 72
16
 73
12
 74
0
 42
0.0000001
 43
0.0000001
 44
0.0000000001
 40
0.0
 40
0.0
 40
0.0
 40
0.0
 40
0.0797084311
 40
0.1564739631
 40
0.29577078
 40
0.4224942711
 40
0.5424135688
 40
0.6587682433
 40
0.7732676712
 40
0.8868337675
 40
1.0
 40
1.0
 40
1.0
 40
1.0
 10
3.2617243789
 20
1.1038664596
 30
0.0
 10
3.2597006447
 20
1.1038664596
 30
0.0
 10
3.2557173701
 20
1.1033906565
 30
0.0
 10
3.2485530778
 20
1.1009932199
 30
0.0
 10
3.2412791858
 20
1.095887251
 30
0.0
 10
3.235058255
 20
1.0882150762
 30
0.0
 10
3.2307735174
 20
1.0800033232
 30
0.0
 10
3.2278576996
 20
1.0715631367
 30
0.0
 10
3.2259634114
 20
1.0630104437
 30
0.0
 10
3.2248863874
 20
1.0544037469
 30
0.0
 10
3.2246394684
 20
1.048645529
 30
0.0
 10
3.224626777
 20
1.0457723557
 30
0.0
  0
SPLINE
  5
528
100
AcDbEntity
  8
0
100
AcDbSpline
 62
7
  6
CONTINUOUS
 70
0
 71
3
 72
11
 73
7
 74
0
 42
0.0000001
 43
0.0000001
 44
0.0000000001
 40
0.0
 40
0.0
 40
0.0
 40
0.0
 40
0.2462817269
 40
0.4936439845
 40
0.7437859882
 40
1.0
 40
1.0
 40
1.0
 40
1.0
 10
3.224626777
 20
1.0457723557
 30
0.0
 10
3.2246120026
 20
1.0424276223
 30
0.0
 10
3.2248829196
 20
1.0357181578
 30
0.0
 10
3.2262508432
 20
1.0256921399
 30
0.0
 10
3.2287722635
 20
1.0157467403
 30
0.0
 10
3.2314344843
 20
1.0093612742
 30
0.0
 10
3.2330815394
 20
1.0062961115
 30
0.0
  0
SPLINE
  5
529
100
AcDbEntity
  8
0
100
AcDbSpline
 62
7
  6
CONTINUOUS
 70
0
 71
3
 72
14
 73
10
 74
0
 42
0.0000001
 43
0.0000001
 44
0.0000000001
 40
0.0
 40
0.0
 40
0.0
 40
0.0
 40
0.2213841249
 40
0.3369039764
 40
0.4569120624
 40
0.5828361095
 40
0.7154612659
 40
0.8558702412
 40
1.0
 40
1.0
 40
1.0
 40
1.0
 10
3.2330815394
 20
1.0062961115
 30
0.0
 10
3.2343545924
 20
1.0039269651
 30
0.0
 10
3.2365810901
 20
1.0004608539
 30
0.0
 10
3.2402249713
 20
0.9962620045
 30
0.0
 10
3.2434755092
 20
0.9932931798
 30
0.0
 10
3.2472501262
 20
0.9906405319
 30
0.0
 10
3.2516180918
 20
0.988486306
 30
0.0
 10
3.2565102032
 20
0.9870707435
 30
0.0
 10
3.2599733806
 20
0.9867091721
 30
0.0
 10
3.2617243638
 20
0.9867091721
 30
0.0
  0
SPLINE
  5
52A
100
AcDbEntity
  8
0
100
AcDbSpline
 62
7
  6
CONTINUOUS
 70
0
 71
3
 72
27
 73
23
 74
0
 42
0.0000001
 43
0.0000001
 44
0.0000000001
 40
0.0
 40
0.0
 40
0.0
 40
0.0
 40
0.0313096727
 40
0.062749203
 40
0.0940741314
 40
0.1253910342
 40
0.1878225077
 40
0.25026335
 40
0.3126983781
 40
0.3751311746
 40
0.4375651134
 40
0.4999989351
 40
0.5624335099
 40
0.6248707297
 40
0.6873049667
 40
0.7497412003
 40
0.8121825503
 40
0.8746139073
 40
0.9059283495
 40
0.9372528525
 40
0.9686912734
 40
1.0
 40
1.0
 40
1.0
 40
1.0
 10
3.3242244038
 20
0.8210237471
 30
0.0
 10
3.3262754424
 20
0.8210237471
 30
0.0
 10
3.3304037487
 20
0.8217413847
 30
0.0
 10
3.3360035376
 20
0.8244673674
 30
0.0
 10
3.340772885
 20
0.8284424562
 30
0.0
 10
3.3461014428
 20
0.8347019263
 30
0.0
 10
3.3511347117
 20
0.8437095569
 30
0.0
 10
3.3553242767
 20
0.8552721307
 30
0.0
 10
3.3581924498
 20
0.8672231552
 30
0.0
 10
3.3600530545
 20
0.8793616517
 30
0.0
 10
3.3610992664
 20
0.8915945092
 30
0.0
 10
3.3614348695
 20
0.9038659814
 30
0.0
 10
3.3610994147
 20
0.9161376676
 30
0.0
 10
3.3600536078
 20
0.9283709189
 30
0.0
 10
3.3581927941
 20
0.9405098083
 30
0.0
 10
3.3553237029
 20
0.9524608003
 30
0.0
 10
3.3511351168
 20
0.9640237582
 30
0.0
 10
3.3461021088
 20
0.9730315728
 30
0.0
 10
3.3407723314
 20
0.9792898464
 30
0.0
 10
3.3360024086
 20
0.9832636531
 30
0.0
 10
3.3304035015
 20
0.9859906449
 30
0.0
 10
3.3262753555
 20
0.9867091721
 30
0.0
 10
3.3242243789
 20
0.9867091721
 30
0.0
  0
SPLINE
  5
52B
100
AcDbEntity
  8
0
100
AcDbSpline
 62
7
  6
CONTINUOUS
 70
0
 71
3
 72
28
 73
24
 74
0
 42
0.0000001
 43
0.0000001
 44
0.0000000001
 40
0.0
 40
0.0
 40
0.0
 40
0.0
 40
0.0313070496
 40
0.0627434701
 40
0.0940658353
 40
0.1253800027
 40
0.187806341
 40
0.2502422014
 40
0.3126721587
 40
0.3750998598
 40
0.4375287546
 40
0.4999574177
 40
0.5623870852
 40
0.6248190828
 40
0.6872480239
 40
0.7496790724
 40
0.8121150462
 40
0.8433661666
 40
0.8746262505
 40
0.9059372477
 40
0.9372590897
 40
0.9686941276
 40
1.0
 40
1.0
 40
1.0
 40
1.0
 10
3.2617243789
 20
0.9867091721
 30
0.0
 10
3.2596733391
 20
0.9867091721
 30
0.0
 10
3.255545046
 20
0.9859916429
 30
0.0
 10
3.2499452762
 20
0.9832656321
 30
0.0
 10
3.245176021
 20
0.9792904917
 30
0.0
 10
3.2398473939
 20
0.9730310775
 30
0.0
 10
3.2348141352
 20
0.964023388
 30
0.0
 10
3.2306248004
 20
0.9524607072
 30
0.0
 10
3.2277562221
 20
0.9405097377
 30
0.0
 10
3.2258958173
 20
0.9283711598
 30
0.0
 10
3.2248496525
 20
0.9161382685
 30
0.0
 10
3.2245138261
 20
0.9038667795
 30
0.0
 10
3.2248492517
 20
0.8915949687
 30
0.0
 10
3.225895399
 20
0.8793620256
 30
0.0
 10
3.2277564674
 20
0.8672220246
 30
0.0
 10
3.2306243086
 20
0.8552751381
 30
0.0
 10
3.2341181846
 20
0.8456237187
 30
0.0
 10
3.2378323581
 20
0.8383172243
 30
0.0
 10
3.241173458
 20
0.8331408625
 30
0.0
 10
3.2451769902
 20
0.8284432518
 30
0.0
 10
3.2499465025
 20
0.8244695122
 30
0.0
 10
3.2555453346
 20
0.821742361
 30
0.0
 10
3.2596734005
 20
0.8210237471
 30
0.0
 10
3.2617243632
 20
0.8210237471
 30
0.0
  0
SPLINE
  5
52C
100
AcDbEntity
  8
0
100
AcDbSpline
 62
7
  6
CONTINUOUS
 70
0
 71
3
 72
25
 73
21
 74
0
 42
0.0000001
 43
0.0000001
 44
0.0000000001
 40
0.0
 40
0.0
 40
0.0
 40
0.0
 40
0.0398774138
 40
0.0782594178
 40
0.1478693065
 40
0.2111930838
 40
0.2711346258
 40
0.3293119963
 40
0.3865754817
 40
0.4433828816
 40
0.49999987
 40
0.5566177359
 40
0.6134279296
 40
0.6706927175
 40
0.7288711649
 40
0.7888121067
 40
0.8521362161
 40
0.9217467384
 40
0.9601250475
 40
1.0
 40
1.0
 40
1.0
 40
1.0
 10
3.3242243789
 20
0.7038664596
 30
0.0
 10
3.3262621289
 20
0.7038664596
 30
0.0
 10
3.3302719853
 20
0.7043486224
 30
0.0
 10
3.3374761131
 20
0.706776999
 30
0.0
 10
3.3447760916
 20
0.7119391305
 30
0.0
 10
3.3510007046
 20
0.7196827293
 30
0.0
 10
3.3552763121
 20
0.7279620706
 30
0.0
 10
3.3581753519
 20
0.7364676188
 30
0.0
 10
3.3600478847
 20
0.7450837731
 30
0.0
 10
3.3610982542
 20
0.7537533468
 30
0.0
 10
3.361435151
 20
0.7624449175
 30
0.0
 10
3.3610986747
 20
0.7711366528
 30
0.0
 10
3.360048293
 20
0.7798064984
 30
0.0
 10
3.3581753288
 20
0.7884228284
 30
0.0
 10
3.3552761611
 20
0.7969284258
 30
0.0
 10
3.3510010801
 20
0.8052079562
 30
0.0
 10
3.3447766271
 20
0.8129522305
 30
0.0
 10
3.3374745895
 20
0.8181108484
 30
0.0
 10
3.3302715622
 20
0.8205407643
 30
0.0
 10
3.3262620031
 20
0.8210237471
 30
0.0
 10
3.3242243789
 20
0.8210237471
 30
0.0
  0
SPLINE
  5
52D
100
AcDbEntity
  8
0
100
AcDbSpline
 62
7
  6
CONTINUOUS
 70
0
 71
3
 72
14
 73
10
 74
0
 42
0.0000001
 43
0.0000001
 44
0.0000000001
 40
0.0
 40
0.0
 40
0.0
 40
0.0
 40
0.1442234906
 40
0.2846820705
 40
0.4172987294
 40
0.5431924949
 40
0.6631620933
 40
0.7786486692
 40
1.0
 40
1.0
 40
1.0
 40
1.0
 10
3.2617243789
 20
0.8210237471
 30
0.0
 10
3.2599644957
 20
0.8210237471
 30
0.0
 10
3.2564841762
 20
0.8206589866
 30
0.0
 10
3.2515701888
 20
0.8192309162
 30
0.0
 10
3.2471873206
 20
0.8170573091
 30
0.0
 10
3.2434040823
 20
0.8143829712
 30
0.0
 10
3.2401486578
 20
0.8113924336
 30
0.0
 10
3.236502152
 20
0.8071649616
 30
0.0
 10
3.2342767269
 20
0.8036774632
 30
0.0
 10
3.2330053818
 20
0.8012943427
 30
0.0
  0
SPLINE
  5
52E
100
AcDbEntity
  8
0
100
AcDbSpline
 62
7
  6
CONTINUOUS
 70
0
 71
3
 72
11
 73
7
 74
0
 42
0.0000001
 43
0.0000001
 44
0.0000000001
 40
0.0
 40
0.0
 40
0.0
 40
0.0
 40
0.2561123898
 40
0.5060814795
 40
0.7534433418
 40
1.0
 40
1.0
 40
1.0
 40
1.0
 10
3.2330053818
 20
0.8012943427
 30
0.0
 10
3.2312341688
 20
0.7979742262
 30
0.0
 10
3.2284259494
 20
0.7910342493
 30
0.0
 10
3.2258938614
 20
0.7802291693
 30
0.0
 10
3.2246588159
 20
0.7693485931
 30
0.0
 10
3.2245665324
 20
0.7620787699
 30
0.0
 10
3.2246966953
 20
0.7584584837
 30
0.0
  0
SPLINE
  5
52F
100
AcDbEntity
  8
0
100
AcDbSpline
 62
7
  6
CONTINUOUS
 70
0
 71
3
 72
16
 73
12
 74
0
 42
0.0000001
 43
0.0000001
 44
0.0000000001
 40
0.0
 40
0.0
 40
0.0
 40
0.0
 40
0.112684646
 40
0.2259030608
 40
0.3402160289
 40
0.4565918661
 40
0.5767922121
 40
0.7040755368
 40
0.8439128292
 40
0.9206587868
 40
1.0
 40
1.0
 40
1.0
 40
1.0
 10
3.2246966953
 20
0.7584584837
 30
0.0
 10
3.2247947766
 20
0.7557305022
 30
0.0
 10
3.2251980505
 20
0.7502666784
 30
0.0
 10
3.2264592862
 20
0.7421124425
 30
0.0
 10
3.2285055385
 20
0.7340211235
 30
0.0
 10
3.2315365044
 20
0.7260549178
 30
0.0
 10
3.2358813204
 20
0.7183351323
 30
0.0
 10
3.2420621725
 20
0.7111768426
 30
0.0
 10
3.2491424626
 20
0.7064800754
 30
0.0
 10
3.256012333
 20
0.704299017
 30
0.0
 10
3.2598023534
 20
0.7038664596
 30
0.0
 10
3.2617243651
 20
0.7038664596
 30
0.0
  0
SPLINE
  5
530
100
AcDbEntity
  8
0
100
AcDbSpline
 62
7
  6
CONTINUOUS
 70
0
 71
3
 72
9
 73
5
 74
0
 42
0.0000001
 43
0.0000001
 44
0.0000000001
 40
0.0
 40
0.0
 40
0.0
 40
0.0
 40
0.2527600888
 40
1.0
 40
1.0
 40
1.0
 40
1.0
 10
2.557465584
 20
1.149240324
 30
0.0
 10
2.5568017985
 20
1.1476770495
 30
0.0
 10
2.5542498099
 20
1.1414613728
 30
0.0
 10
2.55201552
 20
1.1351123693
 30
0.0
 10
2.5505778026
 20
1.1303017062
 30
0.0
  0
SPLINE
  5
531
100
AcDbEntity
  8
0
100
AcDbSpline
 62
7
  6
CONTINUOUS
 70
0
 71
3
 72
11
 73
7
 74
0
 42
0.0000001
 43
0.0000001
 44
0.0000000001
 40
0.0
 40
0.0
 40
0.0
 40
0.0
 40
0.2536736942
 40
0.5039603554
 40
0.7521720415
 40
1.0
 40
1.0
 40
1.0
 40
1.0
 10
2.5505778026
 20
1.1303017062
 30
0.0
 10
2.5494461553
 20
1.1265151665
 30
0.0
 10
2.5474824113
 20
1.1189027379
 30
0.0
 10
2.5455579952
 20
1.107327629
 30
0.0
 10
2.544732657
 20
1.0957118886
 30
0.0
 10
2.5449631406
 20
1.0879722689
 30
0.0
 10
2.5452651892
 20
1.0841231478
 30
0.0
  0
SPLINE
  5
532
100
AcDbEntity
  8
0
100
AcDbSpline
 62
7
  6
CONTINUOUS
 70
0
 71
3
 72
9
 73
5
 74
0
 42
0.0000001
 43
0.0000001
 44
0.0000000001
 40
0.0
 40
0.0
 40
0.0
 40
0.0
 40
0.2486176097
 40
1.0
 40
1.0
 40
1.0
 40
1.0
 10
2.5452651892
 20
1.0841231478
 30
0.0
 10
2.5453862651
 20
1.0825802305
 30
0.0
 10
2.5459927962
 20
1.0763839688
 30
0.0
 10
2.5470675316
 20
1.0702354381
 30
0.0
 10
2.5481077442
 20
1.0656751683
 30
0.0
  0
SPLINE
  5
533
100
AcDbEntity
  8
0
100
AcDbSpline
 62
7
  6
CONTINUOUS
 70
0
 71
3
 72
9
 73
5
 74
0
 42
0.0000001
 43
0.0000001
 44
0.0000000001
 40
0.0
 40
0.0
 40
0.0
 40
0.0
 40
0.2475564928
 40
1.0
 40
1.0
 40
1.0
 40
1.0
 10
2.5481077442
 20
1.0656751683
 30
0.0
 10
2.5484676416
 20
1.0640973856
 30
0.0
 10
2.550034174
 20
1.0577498177
 30
0.0
 10
2.5520251242
 20
1.0515101033
 30
0.0
 10
2.5537092009
 20
1.0468885571
 30
0.0
  0
SPLINE
  5
534
100
AcDbEntity
  8
0
100
AcDbSpline
 62
7
  6
CONTINUOUS
 70
0
 71
3
 72
12
 73
8
 74
0
 42
0.0000001
 43
0.0000001
 44
0.0000000001
 40
0.0
 40
0.0
 40
0.0
 40
0.0
 40
0.0864729935
 40
0.1867532346
 40
0.4249541063
 40
0.7025198943
 40
1.0
 40
1.0
 40
1.0
 40
1.0
 10
2.557465584
 20
1.0373787094
 30
0.0
 10
2.5577123487
 20
1.0367975563
 30
0.0
 10
2.5581353686
 20
1.035495546
 30
0.0
 10
2.558743955
 20
1.0324485271
 30
0.0
 10
2.5589917316
 20
1.0279365102
 30
0.0
 10
2.5586015635
 20
1.0220031371
 30
0.0
 10
2.5579166628
 20
1.0178527364
 30
0.0
 10
2.557465584
 20
1.0157280743
 30
0.0
  0
SPLINE
  5
535
100
AcDbEntity
  8
0
100
AcDbSpline
 62
7
  6
CONTINUOUS
 70
0
 71
3
 72
11
 73
7
 74
0
 42
0.0000001
 43
0.0000001
 44
0.0000000001
 40
0.0
 40
0.0
 40
0.0
 40
0.0
 40
0.2500038621
 40
0.4999999918
 40
0.7499961239
 40
1.0
 40
1.0
 40
1.0
 40
1.0
 10
2.557465584
 20
1.0157280743
 30
0.0
 10
2.5535638694
 20
0.9973502973
 30
0.0
 10
2.5472111
 20
0.9602531775
 30
0.0
 10
2.5437481831
 20
0.9038664613
 30
0.0
 10
2.5472110982
 20
0.8474797438
 30
0.0
 10
2.5535638691
 20
0.8103826229
 30
0.0
 10
2.557465584
 20
0.792004845
 30
0.0
  0
SPLINE
  5
536
100
AcDbEntity
  8
0
100
AcDbSpline
 62
7
  6
CONTINUOUS
 70
0
 71
3
 72
12
 73
8
 74
0
 42
0.0000001
 43
0.0000001
 44
0.0000000001
 40
0.0
 40
0.0
 40
0.0
 40
0.0
 40
0.2974823823
 40
0.5750499819
 40
0.8132489986
 40
0.9135277602
 40
1.0
 40
1.0
 40
1.0
 40
1.0
 10
2.557465584
 20
0.792004845
 30
0.0
 10
2.5579166662
 20
0.7898801666
 30
0.0
 10
2.5586015832
 20
0.7857297382
 30
0.0
 10
2.5589917345
 20
0.7797963458
 30
0.0
 10
2.5587439366
 20
0.775284343
 30
0.0
 10
2.5581353634
 20
0.7722373521
 30
0.0
 10
2.5577123466
 20
0.7709353579
 30
0.0
 10
2.557465584
 20
0.7703542099
 30
0.0
  0
SPLINE
  5
537
100
AcDbEntity
  8
0
100
AcDbSpline
 62
7
  6
CONTINUOUS
 70
0
 71
3
 72
9
 73
5
 74
0
 42
0.0000001
 43
0.0000001
 44
0.0000000001
 40
0.0
 40
0.0
 40
0.0
 40
0.0
 40
0.2541327384
 40
1.0
 40
1.0
 40
1.0
 40
1.0
 10
2.557465584
 20
0.7703542099
 30
0.0
 10
2.5564782279
 20
0.7680288977
 30
0.0
 10
2.5527564885
 20
0.758812325
 30
0.0
 10
2.54975725
 20
0.7492886185
 30
0.0
 10
2.5481082338
 20
0.742059893
 30
0.0
  0
SPLINE
  5
538
100
AcDbEntity
  8
0
100
AcDbSpline
 62
7
  6
CONTINUOUS
 70
0
 71
3
 72
10
 73
6
 74
0
 42
0.0000001
 43
0.0000001
 44
0.0000000001
 40
0.0
 40
0.0
 40
0.0
 40
0.0
 40
0.5020405793
 40
0.7510223957
 40
1.0
 40
1.0
 40
1.0
 40
1.0
 10
2.5481082338
 20
0.742059893
 30
0.0
 10
2.5467290805
 20
0.736014155
 30
0.0
 10
2.5452785864
 20
0.7268075777
 30
0.0
 10
2.5447788188
 20
0.7144567409
 30
0.0
 10
2.5450246041
 20
0.7083029026
 30
0.0
 10
2.5452651892
 20
0.7052370337
 30
0.0
  0
SPLINE
  5
539
100
AcDbEntity
  8
0
100
AcDbSpline
 62
7
  6
CONTINUOUS
 70
0
 71
3
 72
9
 73
5
 74
0
 42
0.0000001
 43
0.0000001
 44
0.0000000001
 40
0.0
 40
0.0
 40
0.0
 40
0.0
 40
0.4962339222
 40
1.0
 40
1.0
 40
1.0
 40
1.0
 10
2.5452651892
 20
0.7052370337
 30
0.0
 10
2.5456320143
 20
0.7005624397
 30
0.0
 10
2.5469228147
 20
0.6911785988
 30
0.0
 10
2.5492143054
 20
0.6819937179
 30
0.0
 10
2.5505773014
 20
0.6774328908
 30
0.0
  0
SPLINE
  5
53A
100
AcDbEntity
  8
0
100
AcDbSpline
 62
7
  6
CONTINUOUS
 70
0
 71
3
 72
9
 73
5
 74
0
 42
0.0000001
 43
0.0000001
 44
0.0000000001
 40
0.0
 40
0.0
 40
0.0
 40
0.0
 40
0.2473504587
 40
1.0
 40
1.0
 40
1.0
 40
1.0
 10
2.5505773014
 20
0.6774328908
 30
0.0
 10
2.5510532486
 20
0.6758402868
 30
0.0
 10
2.5530799006
 20
0.6694323571
 30
0.0
 10
2.5554887927
 20
0.6631481164
 30
0.0
 10
2.557465584
 20
0.6584925952
 30
0.0
  0
SPLINE
  5
53B
100
AcDbEntity
  8
0
100
AcDbSpline
 62
7
  6
CONTINUOUS
 70
0
 71
3
 72
9
 73
5
 74
0
 42
0.0000001
 43
0.0000001
 44
0.0000000001
 40
0.0
 40
0.0
 40
0.0
 40
0.0
 40
0.2523151354
 40
1.0
 40
1.0
 40
1.0
 40
1.0
 10
2.6513001978
 20
0.67743113
 30
0.0
 10
2.6517602175
 20
0.6789703721
 30
0.0
 10
2.6534899676
 20
0.6850980843
 30
0.0
 10
2.6548161657
 20
0.6913420835
 30
0.0
 10
2.6555417081
 20
0.6960470467
 30
0.0
  0
SPLINE
  5
53C
100
AcDbEntity
  8
0
100
AcDbSpline
 62
7
  6
CONTINUOUS
 70
0
 71
3
 72
9
 73
5
 74
0
 42
0.0000001
 43
0.0000001
 44
0.0000000001
 40
0.0
 40
0.0
 40
0.0
 40
0.0
 40
0.4959653472
 40
1.0
 40
1.0
 40
1.0
 40
1.0
 10
2.6566128435
 20
0.7236096716
 30
0.0
 10
2.6562277436
 20
0.7285171997
 30
0.0
 10
2.6548427862
 20
0.7383723874
 30
0.0
 10
2.6523606403
 20
0.7480024975
 30
0.0
 10
2.6508849257
 20
0.7527825942
 30
0.0
  0
SPLINE
  5
53D
100
AcDbEntity
  8
0
100
AcDbSpline
 62
7
  6
CONTINUOUS
 70
0
 71
3
 72
12
 73
8
 74
0
 42
0.0000001
 43
0.0000001
 44
0.0000000001
 40
0.0
 40
0.0
 40
0.0
 40
0.0
 40
0.0864728354
 40
0.1867528229
 40
0.4249534851
 40
0.7025195076
 40
1.0
 40
1.0
 40
1.0
 40
1.0
 10
2.644412441
 20
0.7703542099
 30
0.0
 10
2.6441656767
 20
0.7709353619
 30
0.0
 10
2.6437426611
 20
0.7722373706
 30
0.0
 10
2.6431340875
 20
0.7752843869
 30
0.0
 10
2.6428862907
 20
0.7797963991
 30
0.0
 10
2.6432764426
 20
0.7857297781
 30
0.0
 10
2.6439613617
 20
0.7898801801
 30
0.0
 10
2.644412441
 20
0.792004845
 30
0.0
  0
SPLINE
  5
53E
100
AcDbEntity
  8
0
100
AcDbSpline
 62
7
  6
CONTINUOUS
 70
0
 71
3
 72
11
 73
7
 74
0
 42
0.0000001
 43
0.0000001
 44
0.0000000001
 40
0.0
 40
0.0
 40
0.0
 40
0.0
 40
0.2500038614
 40
0.499999991
 40
0.7499961232
 40
1.0
 40
1.0
 40
1.0
 40
1.0
 10
2.644412441
 20
0.792004845
 30
0.0
 10
2.6483141557
 20
0.8103826219
 30
0.0
 10
2.6546669255
 20
0.8474797416
 30
0.0
 10
2.6581298419
 20
0.9038664578
 30
0.0
 10
2.6546669265
 20
0.9602531753
 30
0.0
 10
2.6483141559
 20
0.9973502962
 30
0.0
 10
2.644412441
 20
1.0157280743
 30
0.0
  0
SPLINE
  5
53F
100
AcDbEntity
  8
0
100
AcDbSpline
 62
7
  6
CONTINUOUS
 70
0
 71
3
 72
12
 73
8
 74
0
 42
0.0000001
 43
0.0000001
 44
0.0000000001
 40
0.0
 40
0.0
 40
0.0
 40
0.0
 40
0.2974819977
 40
0.5750493611
 40
0.813248585
 40
0.9135276012
 40
1.0
 40
1.0
 40
1.0
 40
1.0
 10
2.644412441
 20
1.0157280743
 30
0.0
 10
2.6439613593
 20
1.01785275
 30
0.0
 10
2.6432764608
 20
1.022003177
 30
0.0
 10
2.6428862933
 20
1.0279365635
 30
0.0
 10
2.643134071
 20
1.0324485709
 30
0.0
 10
2.643742657
 20
1.0354955645
 30
0.0
 10
2.644165678
 20
1.0367975602
 30
0.0
 10
2.644412441
 20
1.0373787094
 30
0.0
  0
SPLINE
  5
540
100
AcDbEntity
  8
0
100
AcDbSpline
 62
7
  6
CONTINUOUS
 70
0
 71
3
 72
9
 73
5
 74
0
 42
0.0000001
 43
0.0000001
 44
0.0000000001
 40
0.0
 40
0.0
 40
0.0
 40
0.0
 40
0.5037662499
 40
1.0
 40
1.0
 40
1.0
 40
1.0
 10
2.6513001978
 20
1.0563172441
 30
0.0
 10
2.6526632296
 20
1.0608779967
 30
0.0
 10
2.654954813
 20
1.0700627244
 30
0.0
 10
2.6562457571
 20
1.0794464181
 30
0.0
 10
2.6566126637
 20
1.084120942
 30
0.0
  0
SPLINE
  5
541
100
AcDbEntity
  8
0
100
AcDbSpline
 62
7
  6
CONTINUOUS
 70
0
 71
3
 72
9
 73
5
 74
0
 42
0.0000001
 43
0.0000001
 44
0.0000000001
 40
0.0
 40
0.0
 40
0.0
 40
0.0
 40
0.2480012512
 40
1.0
 40
1.0
 40
1.0
 40
1.0
 10
2.6555420893
 20
1.1116834025
 30
0.0
 10
2.6553014501
 20
1.1132440928
 30
0.0
 10
2.6542150405
 20
1.1195190669
 30
0.0
 10
2.6526718072
 20
1.1257121289
 30
0.0
 10
2.6513007476
 20
1.1302999476
 30
0.0
  0
SPLINE
  5
542
100
AcDbEntity
  8
0
100
AcDbSpline
 62
7
  6
CONTINUOUS
 70
0
 71
3
 72
10
 73
6
 74
0
 42
0.0000001
 43
0.0000001
 44
0.0000000001
 40
0.0
 40
0.0
 40
0.0
 40
0.0
 40
0.2242491625
 40
0.4626090723
 40
1.0
 40
1.0
 40
1.0
 40
1.0
 10
2.2631799472
 20
0.7915536191
 30
0.0
 10
2.2621692413
 20
0.7922785425
 30
0.0
 10
2.2602235544
 20
0.7939778085
 30
0.0
 10
2.2567426387
 20
0.7983247156
 30
0.0
 10
2.254954302
 20
0.8023308147
 30
0.0
 10
2.2540576026
 20
0.8051733798
 30
0.0
  0
SPLINE
  5
543
100
AcDbEntity
  8
0
100
AcDbSpline
 62
9
  6
CONTINUOUS
 70
0
 71
3
 72
9
 73
5
 74
0
 42
0.0000001
 43
0.0000001
 44
0.0000000001
 40
0.0
 40
0.0
 40
0.0
 40
0.0
 40
0.5085618214
 40
1.0
 40
1.0
 40
1.0
 40
1.0
 10
2.2770967185
 20
1.1854079563
 30
0.0
 10
2.2748794121
 20
1.1894869167
 30
0.0
 10
2.2714205486
 20
1.1980420372
 30
0.0
 10
2.2701947087
 20
1.2072049231
 30
0.0
 10
2.2701947087
 20
1.2116912691
 30
0.0
  0
SPLINE
  5
544
100
AcDbEntity
  8
0
100
AcDbSpline
 62
9
  6
CONTINUOUS
 70
0
 71
3
 72
11
 73
7
 74
0
 42
0.0000001
 43
0.0000001
 44
0.0000000001
 40
0.0
 40
0.0
 40
0.0
 40
0.0
 40
0.2069228094
 40
0.4335497481
 40
0.6947545826
 40
1.0
 40
1.0
 40
1.0
 40
1.0
 10
2.238974379
 20
0.9038661452
 30
0.0
 10
2.2389752653
 20
0.9020723735
 30
0.0
 10
2.2396101437
 20
0.8982946428
 30
0.0
 10
2.2423101941
 20
0.8928418727
 30
0.0
 10
2.2466456482
 20
0.8874571322
 30
0.0
 10
2.2502951953
 20
0.8841479087
 30
0.0
 10
2.25234433
 20
0.8824737077
 30
0.0
  0
SPLINE
  5
545
100
AcDbEntity
  8
0
100
AcDbSpline
 62
9
  6
CONTINUOUS
 70
0
 71
3
 72
9
 73
5
 74
0
 42
0.0000001
 43
0.0000001
 44
0.0000000001
 40
0.0
 40
0.0
 40
0.0
 40
0.0
 40
0.5083249787
 40
1.0
 40
1.0
 40
1.0
 40
1.0
 10
2.4703515944
 20
0.7507630791
 30
0.0
 10
2.4725698785
 20
0.7548392552
 30
0.0
 10
2.4760348524
 20
0.763393163
 30
0.0
 10
2.4772540491
 20
0.7725575856
 30
0.0
 10
2.4772540491
 20
0.777046271
 30
0.0
  0
SPLINE
  5
546
100
AcDbEntity
  8
0
100
AcDbSpline
 62
9
  6
CONTINUOUS
 70
0
 71
3
 72
13
 73
9
 74
0
 42
0.0000001
 43
0.0000001
 44
0.0000000001
 40
0.0
 40
0.0
 40
0.0
 40
0.0
 40
0.2970215513
 40
0.5684261156
 40
0.6911457666
 40
0.8041810351
 40
0.907215326
 40
1.0
 40
1.0
 40
1.0
 40
1.0
 10
2.4090307651
 20
0.8458644266
 30
0.0
 10
2.4176475292
 20
0.8476200772
 30
0.0
 10
2.4339450186
 20
0.8519841308
 30
0.0
 10
2.453116463
 20
0.8592091119
 30
0.0
 10
2.4668191554
 20
0.865357327
 30
0.0
 10
2.4757806903
 20
0.8698721359
 30
0.0
 10
2.4837251926
 20
0.8744085181
 30
0.0
 10
2.4885759149
 20
0.8775941559
 30
0.0
 10
2.4908086451
 20
0.8791945128
 30
0.0
  0
SPLINE
  5
547
100
AcDbEntity
  8
0
100
AcDbSpline
 62
9
  6
CONTINUOUS
 70
0
 71
3
 72
9
 73
5
 74
0
 42
0.0000001
 43
0.0000001
 44
0.0000000001
 40
0.0
 40
0.0
 40
0.0
 40
0.0
 40
0.4916750213
 40
1.0
 40
1.0
 40
1.0
 40
1.0
 10
2.2701947087
 20
0.777046271
 30
0.0
 10
2.2701947087
 20
0.7725575856
 30
0.0
 10
2.2714139054
 20
0.763393163
 30
0.0
 10
2.2748788793
 20
0.7548392552
 30
0.0
 10
2.2770971634
 20
0.7507630791
 30
0.0
  0
SPLINE
  5
548
100
AcDbEntity
  8
0
100
AcDbSpline
 62
9
  6
CONTINUOUS
 70
0
 71
3
 72
11
 73
7
 74
0
 42
0.0000001
 43
0.0000001
 44
0.0000000001
 40
0.0
 40
0.0
 40
0.0
 40
0.0
 40
0.2185363003
 40
0.4587604375
 40
0.7196333671
 40
1.0
 40
1.0
 40
1.0
 40
1.0
 10
2.2631799694
 20
0.8748522938
 30
0.0
 10
2.2658010319
 20
0.8732305065
 30
0.0
 10
2.2714157271
 20
0.8700061691
 30
0.0
 10
2.280475125
 20
0.8654213024
 30
0.0
 10
2.2905338793
 20
0.8609072493
 30
0.0
 10
2.2976250545
 20
0.8580740496
 30
0.0
 10
2.3013265505
 20
0.8566828923
 30
0.0
  0
SPLINE
  5
549
100
AcDbEntity
  8
0
100
AcDbSpline
 62
9
  6
CONTINUOUS
 70
0
 71
3
 72
9
 73
5
 74
0
 42
0.0000001
 43
0.0000001
 44
0.0000000001
 40
0.0
 40
0.0
 40
0.0
 40
0.0
 40
0.2383629125
 40
1.0
 40
1.0
 40
1.0
 40
1.0
 10
2.3013265505
 20
0.8566828923
 30
0.0
 10
2.3042017277
 20
0.8556022958
 30
0.0
 10
2.3163367224
 20
0.8512690566
 30
0.0
 10
2.3288011418
 20
0.8478238194
 30
0.0
 10
2.3384179863
 20
0.8458644056
 30
0.0
  0
SPLINE
  5
54A
100
AcDbEntity
  8
0
100
AcDbSpline
 62
9
  6
CONTINUOUS
 70
0
 71
3
 72
12
 73
8
 74
0
 42
0.0000001
 43
0.0000001
 44
0.0000000001
 40
0.0
 40
0.0
 40
0.0
 40
0.0
 40
0.2129118729
 40
0.4495505229
 40
0.5772757718
 40
0.7114648408
 40
1.0
 40
1.0
 40
1.0
 40
1.0
 10
2.2631800088
 20
0.9328805258
 30
0.0
 10
2.2656935413
 20
0.9345145262
 30
0.0
 10
2.2711760663
 20
0.9376954425
 30
0.0
 10
2.2784567253
 20
0.9413159468
 30
0.0
 10
2.2848315905
 20
0.9442562912
 30
0.0
 10
2.2919199718
 20
0.9473917803
 30
0.0
 10
2.2974397266
 20
0.9496274739
 30
0.0
 10
2.3012443376
 20
0.9510527086
 30
0.0
  0
SPLINE
  5
54B
100
AcDbEntity
  8
0
100
AcDbSpline
 62
9
  6
CONTINUOUS
 70
0
 71
3
 72
11
 73
7
 74
0
 42
0.0000001
 43
0.0000001
 44
0.0000000001
 40
0.0
 40
0.0
 40
0.0
 40
0.0
 40
0.2284673306
 40
0.4716640095
 40
0.7291438532
 40
1.0
 40
1.0
 40
1.0
 40
1.0
 10
2.3012443376
 20
0.9510527086
 30
0.0
 10
2.3040072983
 20
0.9520877335
 30
0.0
 10
2.3097527121
 20
0.9541164774
 30
0.0
 10
2.3187564762
 20
0.9568807738
 30
0.0
 10
2.3283758964
 20
0.9594828318
 30
0.0
 10
2.3350090985
 20
0.9610843774
 30
0.0
 10
2.338417932
 20
0.9618686003
 30
0.0
  0
SPLINE
  5
54C
100
AcDbEntity
  8
0
100
AcDbSpline
 62
9
  6
CONTINUOUS
 70
0
 71
3
 72
9
 73
5
 74
0
 42
0.0000001
 43
0.0000001
 44
0.0000000001
 40
0.0
 40
0.0
 40
0.0
 40
0.0
 40
0.4916750213
 40
1.0
 40
1.0
 40
1.0
 40
1.0
 10
2.4772540491
 20
1.0306866482
 30
0.0
 10
2.4772540491
 20
1.0351753336
 30
0.0
 10
2.4760348524
 20
1.0443397562
 30
0.0
 10
2.4725698785
 20
1.0528936641
 30
0.0
 10
2.4703515944
 20
1.0569698401
 30
0.0
  0
SPLINE
  5
54D
100
AcDbEntity
  8
0
100
AcDbSpline
 62
7
  6
CONTINUOUS
 70
0
 71
3
 72
10
 73
6
 74
0
 42
0.0000001
 43
0.0000001
 44
0.0000000001
 40
0.0
 40
0.0
 40
0.0
 40
0.0
 40
0.2141921531
 40
0.5765744958
 40
1.0
 40
1.0
 40
1.0
 40
1.0
 10
2.4908086726
 20
1.0007751433
 30
0.0
 10
2.4915337032
 20
1.0001443548
 30
0.0
 10
2.493315215
 20
0.9982458186
 30
0.0
 10
2.4956340804
 20
0.9943582305
 30
0.0
 10
2.4968028464
 20
0.9910092898
 30
0.0
 10
2.4972936423
 20
0.9891739854
 30
0.0
  0
SPLINE
  5
54E
100
AcDbEntity
  8
0
100
AcDbSpline
 62
9
  6
CONTINUOUS
 70
0
 71
3
 72
12
 73
8
 74
0
 42
0.0000001
 43
0.0000001
 44
0.0000000001
 40
0.0
 40
0.0
 40
0.0
 40
0.0
 40
0.0864976388
 40
0.1828371668
 40
0.4076511115
 40
0.6785071419
 40
1.0
 40
1.0
 40
1.0
 40
1.0
 10
2.4908087473
 20
0.9285384763
 30
0.0
 10
2.4887496171
 20
0.9300607511
 30
0.0
 10
2.4842357901
 20
0.9330616029
 30
0.0
 10
2.4737461341
 20
0.9390395435
 30
0.0
 10
2.4579161058
 20
0.9466075708
 30
0.0
 10
2.4353339927
 20
0.955383739
 30
0.0
 10
2.4183218918
 20
0.9598040853
 30
0.0
 10
2.4090308258
 20
0.9618686003
 30
0.0
  0
SPLINE
  5
54F
100
AcDbEntity
  8
0
100
AcDbSpline
 62
9
  6
CONTINUOUS
 70
0
 71
3
 72
11
 73
7
 74
0
 42
0.0000001
 43
0.0000001
 44
0.0000000001
 40
0.0
 40
0.0
 40
0.0
 40
0.0
 40
0.23978231
 40
0.4950629524
 40
0.7530760696
 40
1.0
 40
1.0
 40
1.0
 40
1.0
 10
2.3384179336
 20
0.8458643231
 30
0.0
 10
2.3397609457
 20
0.8550673295
 30
0.0
 10
2.3417643165
 20
0.8741844422
 30
0.0
 10
2.3428316674
 20
0.9033971314
 30
0.0
 10
2.3418174015
 20
0.9328890733
 30
0.0
 10
2.339800931
 20
0.9523914846
 30
0.0
 10
2.3384179162
 20
0.9618685908
 30
0.0
  0
SPLINE
  5
550
100
AcDbEntity
  8
0
100
AcDbSpline
 62
9
  6
CONTINUOUS
 70
0
 71
3
 72
17
 73
13
 74
0
 42
0.0000001
 43
0.0000001
 44
0.0000000001
 40
0.0
 40
0.0
 40
0.0
 40
0.0
 40
0.1179814751
 40
0.2399102644
 40
0.3673931803
 40
0.4332418499
 40
0.4999988261
 40
0.5667538759
 40
0.6326034837
 40
0.7600892556
 40
0.8820187548
 40
1.0
 40
1.0
 40
1.0
 40
1.0
 10
2.338417932
 20
0.9618686003
 30
0.0
 10
2.3409157225
 20
0.9635219998
 30
0.0
 10
2.3461032885
 20
0.9667270407
 30
0.0
 10
2.3544839809
 20
0.970865549
 30
0.0
 10
2.362138111
 20
0.9733523343
 30
0.0
 10
2.3686594616
 20
0.9744630437
 30
0.0
 10
2.3737242635
 20
0.9747425203
 30
0.0
 10
2.3787891137
 20
0.9744631929
 30
0.0
 10
2.3853104499
 20
0.9733521396
 30
0.0
 10
2.3929648173
 20
0.9708658422
 30
0.0
 10
2.4013457029
 20
0.9667274216
 30
0.0
 10
2.4065330507
 20
0.9635220126
 30
0.0
 10
2.4090308258
 20
0.9618686003
 30
0.0
  0
SPLINE
  5
551
100
AcDbEntity
  8
0
100
AcDbSpline
 62
9
  6
CONTINUOUS
 70
0
 71
3
 72
11
 73
7
 74
0
 42
0.0000001
 43
0.0000001
 44
0.0000000001
 40
0.0
 40
0.0
 40
0.0
 40
0.0
 40
0.2469239305
 40
0.5049370475
 40
0.7602176899
 40
1.0
 40
1.0
 40
1.0
 40
1.0
 10
2.4090308421
 20
0.9618685904
 30
0.0
 10
2.4076478273
 20
0.9523914843
 30
0.0
 10
2.4056313568
 20
0.932889073
 30
0.0
 10
2.4046170908
 20
0.9033971314
 30
0.0
 10
2.4056844416
 20
0.8741844423
 30
0.0
 10
2.4076878122
 20
0.8550673297
 30
0.0
 10
2.4090308242
 20
0.8458643234
 30
0.0
  0
SPLINE
  5
552
100
AcDbEntity
  8
0
100
AcDbSpline
 62
9
  6
CONTINUOUS
 70
0
 71
3
 72
15
 73
11
 74
0
 42
0.0000001
 43
0.0000001
 44
0.0000000001
 40
0.0
 40
0.0
 40
0.0
 40
0.0
 40
0.132457957
 40
0.2597156838
 40
0.3816944922
 40
0.5000014126
 40
0.6183078597
 40
0.7402856678
 40
0.8675424494
 40
1.0
 40
1.0
 40
1.0
 40
1.0
 10
2.409030413
 20
0.8458648647
 30
0.0
 10
2.4062278899
 20
0.8440112181
 30
0.0
 10
2.4005845031
 20
0.8405908495
 30
0.0
 10
2.3917904108
 20
0.8364818327
 30
0.0
 10
2.3828315008
 20
0.8337607942
 30
0.0
 10
2.3737242772
 20
0.8327441606
 30
0.0
 10
2.3646170781
 20
0.833760793
 30
0.0
 10
2.3556582338
 20
0.8364818403
 30
0.0
 10
2.346864212
 20
0.8405908658
 30
0.0
 10
2.3412208617
 20
0.8440112267
 30
0.0
 10
2.3384183455
 20
0.8458648652
 30
0.0
  0
SPLINE
  5
553
100
AcDbEntity
  8
0
100
AcDbSpline
 62
9
  6
CONTINUOUS
 70
0
 71
3
 72
15
 73
11
 74
0
 42
0.0000001
 43
0.0000001
 44
0.0000000001
 40
0.0
 40
0.0
 40
0.0
 40
0.0
 40
0.1076262827
 40
0.2179316821
 40
0.3326463575
 40
0.4532034637
 40
0.5804276743
 40
0.714460023
 40
0.8548212059
 40
1.0
 40
1.0
 40
1.0
 40
1.0
 10
2.4772540491
 20
0.777046271
 30
0.0
 10
2.4772540491
 20
0.7807787739
 30
0.0
 10
2.4764159554
 20
0.7883594293
 30
0.0
 10
2.4727500764
 20
0.7993800661
 30
0.0
 10
2.4667398944
 20
0.8098343404
 30
0.0
 10
2.4585834315
 20
0.8194803947
 30
0.0
 10
2.4484697637
 20
0.8281075343
 30
0.0
 10
2.4366400674
 20
0.835544423
 30
0.0
 10
2.4233694071
 20
0.8416025404
 30
0.0
 10
2.4139077567
 20
0.8446132873
 30
0.0
 10
2.4090308258
 20
0.8458643189
 30
0.0
  0
SPLINE
  5
554
100
AcDbEntity
  8
0
100
AcDbSpline
 62
9
  6
CONTINUOUS
 70
0
 71
3
 72
10
 73
6
 74
0
 42
0.0000001
 43
0.0000001
 44
0.0000000001
 40
0.0
 40
0.0
 40
0.0
 40
0.0
 40
0.2696332448
 40
0.5281585479
 40
1.0
 40
1.0
 40
1.0
 40
1.0
 10
2.338417932
 20
0.8458643189
 30
0.0
 10
2.3327430936
 20
0.8444086079
 30
0.0
 10
2.3217912396
 20
0.8408107568
 30
0.0
 10
2.3022881433
 20
0.831180434
 30
0.0
 10
2.2897000127
 20
0.8207961041
 30
0.0
 10
2.2833448043
 20
0.8127513723
 30
0.0
  0
SPLINE
  5
555
100
AcDbEntity
  8
0
100
AcDbSpline
 62
9
  6
CONTINUOUS
 70
0
 71
3
 72
11
 73
7
 74
0
 42
0.0000001
 43
0.0000001
 44
0.0000000001
 40
0.0
 40
0.0
 40
0.0
 40
0.0
 40
0.2619660673
 40
0.5142348296
 40
0.7593329947
 40
1.0
 40
1.0
 40
1.0
 40
1.0
 10
2.2833448043
 20
0.8127513723
 30
0.0
 10
2.281248189
 20
0.8100973748
 30
0.0
 10
2.2774940785
 20
0.8045854293
 30
0.0
 10
2.2733104711
 20
0.7956706907
 30
0.0
 10
2.270772273
 20
0.7864385342
 30
0.0
 10
2.2701947087
 20
0.7801535125
 30
0.0
 10
2.2701947087
 20
0.777046271
 30
0.0
  0
SPLINE
  5
556
100
AcDbEntity
  8
0
100
AcDbSpline
 62
9
  6
CONTINUOUS
 70
0
 71
3
 72
9
 73
5
 74
0
 42
0.0000001
 43
0.0000001
 44
0.0000000001
 40
0.0
 40
0.0
 40
0.0
 40
0.0
 40
0.4914381786
 40
1.0
 40
1.0
 40
1.0
 40
1.0
 10
2.2701947087
 20
0.5960416502
 30
0.0
 10
2.2701947087
 20
0.6005279961
 30
0.0
 10
2.2714205486
 20
0.609690882
 30
0.0
 10
2.2748794121
 20
0.6182460026
 30
0.0
 10
2.2770967185
 20
0.6223249629
 30
0.0
  0
SPLINE
  5
557
100
AcDbEntity
  8
0
100
AcDbSpline
 62
9
  6
CONTINUOUS
 70
0
 71
3
 72
11
 73
7
 74
0
 42
0.0000001
 43
0.0000001
 44
0.0000000001
 40
0.0
 40
0.0
 40
0.0
 40
0.0
 40
0.2406670053
 40
0.4857651704
 40
0.7380339327
 40
1.0
 40
1.0
 40
1.0
 40
1.0
 10
2.2701947087
 20
1.0306866482
 30
0.0
 10
2.2701947087
 20
1.0275794067
 30
0.0
 10
2.270772273
 20
1.021294385
 30
0.0
 10
2.2733104711
 20
1.0120622285
 30
0.0
 10
2.2774940785
 20
1.0031474899
 30
0.0
 10
2.281248189
 20
0.9976355444
 30
0.0
 10
2.2833448043
 20
0.9949815469
 30
0.0
  0
SPLINE
  5
558
100
AcDbEntity
  8
0
100
AcDbSpline
 62
9
  6
CONTINUOUS
 70
0
 71
3
 72
10
 73
6
 74
0
 42
0.0000001
 43
0.0000001
 44
0.0000000001
 40
0.0
 40
0.0
 40
0.0
 40
0.0
 40
0.4718414521
 40
0.7303667552
 40
1.0
 40
1.0
 40
1.0
 40
1.0
 10
2.2833448043
 20
0.9949815469
 30
0.0
 10
2.2897000127
 20
0.9869368151
 30
0.0
 10
2.3022881433
 20
0.9765524852
 30
0.0
 10
2.3217912396
 20
0.9669221624
 30
0.0
 10
2.3327430936
 20
0.9633243114
 30
0.0
 10
2.338417932
 20
0.9618686003
 30
0.0
  0
SPLINE
  5
559
100
AcDbEntity
  8
0
100
AcDbSpline
 62
9
  6
CONTINUOUS
 70
0
 71
3
 72
15
 73
11
 74
0
 42
0.0000001
 43
0.0000001
 44
0.0000000001
 40
0.0
 40
0.0
 40
0.0
 40
0.0
 40
0.1451787941
 40
0.285539977
 40
0.4195723257
 40
0.5467965363
 40
0.6673536425
 40
0.7820683179
 40
0.8923737173
 40
1.0
 40
1.0
 40
1.0
 40
1.0
 10
2.4090308258
 20
0.9618686003
 30
0.0
 10
2.4139077567
 20
0.9631196319
 30
0.0
 10
2.4233694071
 20
0.9661303788
 30
0.0
 10
2.4366400674
 20
0.9721884962
 30
0.0
 10
2.4484697637
 20
0.9796253849
 30
0.0
 10
2.4585834315
 20
0.9882525246
 30
0.0
 10
2.4667398944
 20
0.9978985789
 30
0.0
 10
2.4727500764
 20
1.0083528532
 30
0.0
 10
2.4764159554
 20
1.0193734899
 30
0.0
 10
2.4772540491
 20
1.0269541453
 30
0.0
 10
2.4772540491
 20
1.0306866482
 30
0.0
  0
SPLINE
  5
55A
100
AcDbEntity
  8
0
100
AcDbSpline
 62
9
  6
CONTINUOUS
 70
0
 71
3
 72
9
 73
5
 74
0
 42
0.0000001
 43
0.0000001
 44
0.0000000001
 40
0.0
 40
0.0
 40
0.0
 40
0.0
 40
0.4914381786
 40
1.0
 40
1.0
 40
1.0
 40
1.0
 10
2.4772540491
 20
1.2116912691
 30
0.0
 10
2.4772540491
 20
1.2072049231
 30
0.0
 10
2.4760282092
 20
1.1980420372
 30
0.0
 10
2.4725693457
 20
1.1894869167
 30
0.0
 10
2.4703520392
 20
1.1854079563
 30
0.0
  0
SPLINE
  5
55B
100
AcDbEntity
  8
0
100
AcDbSpline
 62
7
  6
CONTINUOUS
 70
0
 71
3
 72
9
 73
5
 74
0
 42
0.0000001
 43
0.0000001
 44
0.0000000001
 40
0.0
 40
0.0
 40
0.0
 40
0.0
 40
0.2469192119
 40
1.0
 40
1.0
 40
1.0
 40
1.0
 10
2.2523443481
 20
0.882473762
 30
0.0
 10
2.2527237489
 20
0.8840118165
 30
0.0
 10
2.2541025636
 20
0.8902782058
 30
0.0
 10
2.2548232918
 20
0.8966929471
 30
0.0
 10
2.254953097
 20
0.9015227386
 30
0.0
  0
SPLINE
  5
55C
100
AcDbEntity
  8
0
100
AcDbSpline
 62
7
  6
CONTINUOUS
 70
0
 71
3
 72
9
 73
5
 74
0
 42
0.0000001
 43
0.0000001
 44
0.0000000001
 40
0.0
 40
0.0
 40
0.0
 40
0.0
 40
0.2525825655
 40
1.0
 40
1.0
 40
1.0
 40
1.0
 10
2.2549529766
 20
0.9062143809
 30
0.0
 10
2.2549093642
 20
0.9078340328
 30
0.0
 10
2.2545576893
 20
0.9142408651
 30
0.0
 10
2.2534925972
 20
0.9206042789
 30
0.0
 10
2.2523443392
 20
0.9252591975
 30
0.0
  0
SPLINE
  5
55D
100
AcDbEntity
  8
0
100
AcDbSpline
 62
7
  6
CONTINUOUS
 70
0
 71
3
 72
9
 73
5
 74
0
 42
0.0000001
 43
0.0000001
 44
0.0000000001
 40
0.0
 40
0.0
 40
0.0
 40
0.0
 40
0.5273161248
 40
1.0
 40
1.0
 40
1.0
 40
1.0
 10
2.2511987645
 20
0.9300475393
 30
0.0
 10
2.2499921711
 20
0.9352603991
 30
0.0
 10
2.2479410311
 20
0.9452040061
 30
0.0
 10
2.2466972044
 20
0.9552956463
 30
0.0
 10
2.2464125378
 20
0.9600835174
 30
0.0
  0
SPLINE
  5
55E
100
AcDbEntity
  8
0
100
AcDbSpline
 62
7
  6
CONTINUOUS
 70
0
 71
3
 72
9
 73
5
 74
0
 42
0.0000001
 43
0.0000001
 44
0.0000000001
 40
0.0
 40
0.0
 40
0.0
 40
0.0
 40
0.546024698
 40
1.0
 40
1.0
 40
1.0
 40
1.0
 10
2.2464125378
 20
0.9600835174
 30
0.0
 10
2.2462111561
 20
0.9634706015
 30
0.0
 10
2.2461265571
 20
0.9696964578
 30
0.0
 10
2.2468829555
 20
0.9758990995
 30
0.0
 10
2.2475205679
 20
0.9786471579
 30
0.0
  0
SPLINE
  5
55F
100
AcDbEntity
  8
0
100
AcDbSpline
 62
7
  6
CONTINUOUS
 70
0
 71
3
 72
9
 73
5
 74
0
 42
0.0000001
 43
0.0000001
 44
0.0000000001
 40
0.0
 40
0.0
 40
0.0
 40
0.0
 40
0.5360146427
 40
1.0
 40
1.0
 40
1.0
 40
1.0
 10
2.2462365026
 20
0.8419946163
 30
0.0
 10
2.2462365026
 20
0.8396730643
 30
0.0
 10
2.2464134136
 20
0.8353388337
 30
0.0
 10
2.2470649452
 20
0.8310427246
 30
0.0
 10
2.2475203103
 20
0.8290854131
 30
0.0
  0
SPLINE
  5
560
100
AcDbEntity
  8
0
100
AcDbSpline
 62
7
  6
CONTINUOUS
 70
0
 71
3
 72
9
 73
5
 74
0
 42
0.0000001
 43
0.0000001
 44
0.0000000001
 40
0.0
 40
0.0
 40
0.0
 40
0.0
 40
0.5244300446
 40
1.0
 40
1.0
 40
1.0
 40
1.0
 10
2.2512097943
 20
0.8777350691
 30
0.0
 10
2.2500829398
 20
0.8728737943
 30
0.0
 10
2.2481462804
 20
0.8635526824
 30
0.0
 10
2.2468878121
 20
0.8541050449
 30
0.0
 10
2.2465432863
 20
0.8495929334
 30
0.0
  0
LINE
  5
561
100
AcDbEntity
  8
0
100
AcDbLine
 62
7
  6
CONTINUOUS
 10
2.2465432863
 20
0.8495929334
 11
2.2462365026
 21
0.8419946163
  0
SPLINE
  5
562
100
AcDbEntity
  8
0
100
AcDbSpline
 62
9
  6
CONTINUOUS
 70
0
 71
3
 72
13
 73
9
 74
0
 42
0.0000001
 43
0.0000001
 44
0.0000000001
 40
0.0
 40
0.0
 40
0.0
 40
0.0
 40
0.1024596071
 40
0.2064181291
 40
0.3153723554
 40
0.4319139875
 40
0.6927667606
 40
1.0
 40
1.0
 40
1.0
 40
1.0
 10
2.2389743789
 20
0.9038664536
 30
0.0
 10
2.238974379
 20
0.9047556607
 30
0.0
 10
2.2391147293
 20
0.9065504368
 30
0.0
 10
2.2397570667
 20
0.9092213856
 30
0.0
 10
2.2408218015
 20
0.9118843054
 30
0.0
 10
2.2428681047
 20
0.9155867226
 30
0.0
 10
2.2466223031
 20
0.9202468676
 30
0.0
 10
2.2502956104
 20
0.9235525307
 30
0.0
 10
2.2523443874
 20
0.9252589822
 30
0.0
  0
SPLINE
  5
563
100
AcDbEntity
  8
0
100
AcDbSpline
 62
7
  6
CONTINUOUS
 70
0
 71
3
 72
9
 73
5
 74
0
 42
0.0000001
 43
0.0000001
 44
0.0000000001
 40
0.0
 40
0.0
 40
0.0
 40
0.0
 40
0.2912897564
 40
1.0
 40
1.0
 40
1.0
 40
1.0
 10
2.4972936354
 20
0.8185589334
 30
0.0
 10
2.4969577224
 20
0.8173027983
 30
0.0
 10
2.4955927684
 20
0.813069511
 30
0.0
 10
2.4931954072
 20
0.8090342457
 30
0.0
 10
2.4908086851
 20
0.8069577634
 30
0.0
  0
SPLINE
  5
564
100
AcDbEntity
  8
0
100
AcDbSpline
 62
7
  6
CONTINUOUS
 70
0
 71
3
 72
16
 73
12
 74
0
 42
0.0000001
 43
0.0000001
 44
0.0000000001
 40
0.0
 40
0.0
 40
0.0
 40
0.0
 40
0.0084875987
 40
0.0223495327
 40
0.0712387071
 40
0.1501931233
 40
0.2597222062
 40
0.3997905205
 40
0.5700944127
 40
0.7702861828
 40
1.0
 40
1.0
 40
1.0
 40
1.0
 10
2.7132868789
 20
0.7159597303
 30
0.0
 10
2.713319429
 20
0.7159597303
 30
0.0
 10
2.7133983902
 20
0.7160144579
 30
0.0
 10
2.7135253534
 20
0.7162554826
 30
0.0
 10
2.713672043
 20
0.7167847477
 30
0.0
 10
2.7138349697
 20
0.7176783807
 30
0.0
 10
2.7140025966
 20
0.718928535
 30
0.0
 10
2.7141722508
 20
0.7205296015
 30
0.0
 10
2.7143432451
 20
0.7224803671
 30
0.0
 10
2.7145149723
 20
0.7247757558
 30
0.0
 10
2.7146224609
 20
0.7264209782
 30
0.0
 10
2.7146769059
 20
0.7273002504
 30
0.0
  0
SPLINE
  5
565
100
AcDbEntity
  8
0
100
AcDbSpline
 62
7
  6
CONTINUOUS
 70
0
 71
3
 72
16
 73
12
 74
0
 42
0.0000001
 43
0.0000001
 44
0.0000000001
 40
0.0
 40
0.0
 40
0.0
 40
0.0
 40
0.0084875987
 40
0.0223495327
 40
0.0712387071
 40
0.1501931233
 40
0.2597222062
 40
0.3997905205
 40
0.5700944127
 40
0.7702861828
 40
1.0
 40
1.0
 40
1.0
 40
1.0
 10
2.7101618789
 20
0.7159597303
 30
0.0
 10
2.7101293288
 20
0.7159597303
 30
0.0
 10
2.7100503676
 20
0.7160144579
 30
0.0
 10
2.7099234044
 20
0.7162554826
 30
0.0
 10
2.7097767148
 20
0.7167847477
 30
0.0
 10
2.7096137881
 20
0.7176783807
 30
0.0
 10
2.7094461612
 20
0.718928535
 30
0.0
 10
2.709276507
 20
0.7205296015
 30
0.0
 10
2.7091055126
 20
0.7224803671
 30
0.0
 10
2.7089337854
 20
0.7247757558
 30
0.0
 10
2.7088262969
 20
0.7264209782
 30
0.0
 10
2.7087718518
 20
0.7273002504
 30
0.0
  0
SPLINE
  5
566
100
AcDbEntity
  8
0
100
AcDbSpline
 62
7
  6
CONTINUOUS
 70
0
 71
3
 72
10
 73
6
 74
0
 42
0.0000001
 43
0.0000001
 44
0.0000000001
 40
0.0
 40
0.0
 40
0.0
 40
0.0
 40
0.1873918383
 40
0.4182216765
 40
1.0
 40
1.0
 40
1.0
 40
1.0
 10
2.7087718518
 20
0.7273002504
 30
0.0
 10
2.7086216165
 20
0.7297265089
 30
0.0
 10
2.708334546
 20
0.7351444
 30
0.0
 10
2.7077717936
 20
0.748104572
 30
0.0
 10
2.707418096
 20
0.7586402915
 30
0.0
 10
2.7071834578
 20
0.7661836533
 30
0.0
  0
SPLINE
  5
567
100
AcDbEntity
  8
0
100
AcDbSpline
 62
7
  6
CONTINUOUS
 70
0
 71
3
 72
14
 73
10
 74
0
 42
0.0000001
 43
0.0000001
 44
0.0000000001
 40
0.0
 40
0.0
 40
0.0
 40
0.0
 40
0.3765170145
 40
0.5345507236
 40
0.671586117
 40
0.7869930362
 40
0.8802869166
 40
0.9513094666
 40
1.0
 40
1.0
 40
1.0
 40
1.0
 10
2.7000400902
 20
1.0592034239
 30
0.0
 10
2.6998905317
 20
1.0631808907
 30
0.0
 10
2.6996621937
 20
1.0688272871
 30
0.0
 10
2.6993147787
 20
1.0759183522
 30
0.0
 10
2.699070607
 20
1.0802508355
 30
0.0
 10
2.6988273388
 20
1.0838975992
 30
0.0
 10
2.6985867746
 20
1.0868452795
 30
0.0
 10
2.6983480718
 20
1.0890840421
 30
0.0
 10
2.6981650898
 20
1.0903379064
 30
0.0
 10
2.6980581126
 20
1.0908413895
 30
0.0
  0
LINE
  5
568
100
AcDbEntity
  8
0
100
AcDbLine
 62
7
  6
CONTINUOUS
 10
2.6980581126
 20
1.0908413895
 11
2.6978065658
 21
1.0916534544
  0
SPLINE
  5
569
100
AcDbEntity
  8
0
100
AcDbSpline
 62
9
  6
CONTINUOUS
 70
0
 71
3
 72
19
 73
15
 74
0
 42
0.0000001
 43
0.0000001
 44
0.0000000001
 40
0.0
 40
0.0
 40
0.0
 40
0.0
 40
0.0533638743
 40
0.1095202666
 40
0.1687283077
 40
0.2309067668
 40
0.3624748021
 40
0.5000002828
 40
0.6375257127
 40
0.7690936075
 40
0.831271974
 40
0.8904799146
 40
0.9466362099
 40
1.0
 40
1.0
 40
1.0
 40
1.0
 10
2.4703488363
 20
1.1854020649
 30
0.0
 10
2.4684423712
 20
1.1818958402
 30
0.0
 10
2.4638198747
 20
1.175069895
 30
0.0
 10
2.4550412021
 20
1.1659338031
 30
0.0
 10
2.4444419941
 20
1.157855125
 30
0.0
 10
2.4279261411
 20
1.1485294783
 30
0.0
 10
2.4041872738
 20
1.1405960866
 30
0.0
 10
2.3737241263
 20
1.1374103874
 30
0.0
 10
2.3432609999
 20
1.1405961902
 30
0.0
 10
2.3195221819
 20
1.1485296649
 30
0.0
 10
2.3030063902
 20
1.15785537
 30
0.0
 10
2.2924072377
 20
1.1659340856
 30
0.0
 10
2.2836286278
 20
1.1750702089
 30
0.0
 10
2.2790061788
 20
1.1818961703
 30
0.0
 10
2.2770997386
 20
1.1854024013
 30
0.0
  0
SPLINE
  5
56A
100
AcDbEntity
  8
0
100
AcDbSpline
 62
7
  6
CONTINUOUS
 70
0
 71
3
 72
13
 73
9
 74
0
 42
0.0000001
 43
0.0000001
 44
0.0000000001
 40
0.0
 40
0.0
 40
0.0
 40
0.0
 40
0.0436202965
 40
0.110058856
 40
0.1998096615
 40
0.3130055352
 40
0.6097447952
 40
1.0
 40
1.0
 40
1.0
 40
1.0
 10
2.6890183989
 20
1.1068757355
 30
0.0
 10
2.6890682255
 20
1.1067888887
 30
0.0
 10
2.6891523076
 20
1.1065479921
 30
0.0
 10
2.6892606164
 20
1.106103051
 30
0.0
 10
2.6893704374
 20
1.1054938498
 30
0.0
 10
2.6895344883
 20
1.1043587753
 30
0.0
 10
2.6897294135
 20
1.1025317609
 30
0.0
 10
2.6898601584
 20
1.100960303
 30
0.0
 10
2.6899280521
 20
1.1000670948
 30
0.0
  0
LINE
  5
56B
100
AcDbEntity
  8
0
100
AcDbLine
 62
7
  6
CONTINUOUS
 10
2.6899280521
 20
1.1000670948
 11
2.6906229485
 21
1.087955377
  0
LINE
  5
56C
100
AcDbEntity
  8
0
100
AcDbLine
 62
7
  6
CONTINUOUS
 10
2.6906229485
 20
1.087955377
 11
2.692011334
 21
1.0474910543
  0
LINE
  5
56D
100
AcDbEntity
  8
0
100
AcDbLine
 62
7
  6
CONTINUOUS
 10
2.6923587388
 20
1.0344244149
 11
2.6927059939
 21
1.0203657012
  0
LINE
  5
56E
100
AcDbEntity
  8
0
100
AcDbLine
 62
7
  6
CONTINUOUS
 10
2.6947916728
 20
0.9215664884
 11
2.6951361548
 21
0.9038664596
  0
SPLINE
  5
56F
100
AcDbEntity
  8
0
100
AcDbSpline
 62
7
  6
CONTINUOUS
 70
0
 71
3
 72
16
 73
12
 74
0
 42
0.0000001
 43
0.0000001
 44
0.0000000001
 40
0.0
 40
0.0
 40
0.0
 40
0.0
 40
0.0136004303
 40
0.0335579359
 40
0.0931509468
 40
0.1793064853
 40
0.2919018469
 40
0.4306211651
 40
0.5951180994
 40
0.785033125
 40
1.0
 40
1.0
 40
1.0
 40
1.0
 10
2.7219291072
 20
0.7008588937
 30
0.0
 10
2.7218870814
 20
0.7009306292
 30
0.0
 10
2.7218134999
 20
0.7011240149
 30
0.0
 10
2.7216678822
 20
0.7016741099
 30
0.0
 10
2.7215037448
 20
0.7026759092
 30
0.0
 10
2.7213141946
 20
0.7042431647
 30
0.0
 10
2.7211237396
 20
0.7062978151
 30
0.0
 10
2.7209306216
 20
0.7088322616
 30
0.0
 10
2.720736822
 20
0.7118406297
 30
0.0
 10
2.7205422677
 20
0.7153158093
 30
0.0
 10
2.720419815
 20
0.7177878378
 30
0.0
 10
2.7203579156
 20
0.7191004699
 30
0.0
  0
LINE
  5
570
100
AcDbEntity
  8
0
100
AcDbLine
 62
7
  6
CONTINUOUS
 10
2.7203579156
 20
0.7191004699
 11
2.7188429062
 21
0.7637016524
  0
LINE
  5
571
100
AcDbEntity
  8
0
100
AcDbLine
 62
7
  6
CONTINUOUS
 10
2.7184641989
 20
0.7783106297
 11
2.7180852069
 21
0.7940540898
  0
LINE
  5
572
100
AcDbEntity
  8
0
100
AcDbLine
 62
7
  6
CONTINUOUS
 10
2.7161942862
 20
0.8845614659
 11
2.715812603
 21
0.9038664596
  0
SPLINE
  5
573
100
AcDbEntity
  8
0
100
AcDbSpline
 62
7
  6
CONTINUOUS
 70
0
 71
3
 72
14
 73
10
 74
0
 42
0.0000001
 43
0.0000001
 44
0.0000000001
 40
0.0
 40
0.0
 40
0.0
 40
0.0
 40
0.0387172754
 40
0.1017601134
 40
0.1896605609
 40
0.302539853
 40
0.4402452836
 40
0.6025535325
 40
1.0
 40
1.0
 40
1.0
 40
1.0
 10
2.6969233445
 20
0.7008689507
 30
0.0
 10
2.6968529778
 20
0.7009942493
 30
0.0
 10
2.696744316
 20
0.7013611992
 30
0.0
 10
2.6966025891
 20
0.7020485332
 30
0.0
 10
2.6964607502
 20
0.7030189342
 30
0.0
 10
2.6963155166
 20
0.7042664688
 30
0.0
 10
2.6961697354
 20
0.7057922925
 30
0.0
 10
2.6959597645
 20
0.7083724692
 30
0.0
 10
2.6958249533
 20
0.7104458832
 30
0.0
 10
2.6957367324
 20
0.7119184286
 30
0.0
  0
LINE
  5
574
100
AcDbEntity
  8
0
100
AcDbLine
 62
7
  6
CONTINUOUS
 10
2.6953579156
 20
0.7191004699
 11
2.6938430471
 21
0.7637016557
  0
LINE
  5
575
100
AcDbEntity
  8
0
100
AcDbLine
 62
7
  6
CONTINUOUS
 10
2.6934644072
 20
0.7783106345
 11
2.6930852069
 21
0.7940540898
  0
LINE
  5
576
100
AcDbEntity
  8
0
100
AcDbLine
 62
7
  6
CONTINUOUS
 10
2.6919488485
 20
0.8466453215
 11
2.6911971899
 21
0.8845615233
  0
LINE
  5
577
100
AcDbEntity
  8
0
100
AcDbLine
 62
7
  6
CONTINUOUS
 10
2.6911971899
 20
0.8845615233
 11
2.690812603
 21
0.9038664596
  0
SPLINE
  5
578
100
AcDbEntity
  8
0
100
AcDbSpline
 62
7
  6
CONTINUOUS
 70
0
 71
3
 72
14
 73
10
 74
0
 42
0.0000001
 43
0.0000001
 44
0.0000000001
 40
0.0
 40
0.0
 40
0.0
 40
0.0
 40
0.0395756508
 40
0.1031851326
 40
0.191296112
 40
0.3040249305
 40
0.4413870085
 40
0.6033440185
 40
1.0
 40
1.0
 40
1.0
 40
1.0
 10
2.6881367956
 20
0.7161107351
 30
0.0
 10
2.6880644338
 20
0.7162399504
 30
0.0
 10
2.6879507672
 20
0.7166140121
 30
0.0
 10
2.6878031596
 20
0.7173124818
 30
0.0
 10
2.68765503
 20
0.718292359
 30
0.0
 10
2.6875035909
 20
0.7195485273
 30
0.0
 10
2.6873515888
 20
0.721083201
 30
0.0
 10
2.6871329015
 20
0.7236784188
 30
0.0
 10
2.6869925483
 20
0.7257642868
 30
0.0
 10
2.6869006411
 20
0.7272457781
 30
0.0
  0
SPLINE
  5
579
100
AcDbEntity
  8
0
100
AcDbSpline
 62
7
  6
CONTINUOUS
 70
0
 71
3
 72
10
 73
6
 74
0
 42
0.0000001
 43
0.0000001
 44
0.0000000001
 40
0.0
 40
0.0
 40
0.0
 40
0.0
 40
0.1861788688
 40
0.4165102423
 40
1.0
 40
1.0
 40
1.0
 40
1.0
 10
2.6869006411
 20
0.7272457781
 30
0.0
 10
2.6867454648
 20
0.7297471287
 30
0.0
 10
2.6864497816
 20
0.7353461879
 30
0.0
 10
2.6858693722
 20
0.7487947731
 30
0.0
 10
2.6855068404
 20
0.7597439087
 30
0.0
 10
2.6852654288
 20
0.7675945711
 30
0.0
  0
LINE
  5
57A
100
AcDbEntity
  8
0
100
AcDbLine
 62
7
  6
CONTINUOUS
 10
2.6852654288
 20
0.7675945711
 11
2.685229313
 21
0.7687746122
  0
LINE
  5
57B
100
AcDbEntity
  8
0
100
AcDbLine
 62
7
  6
CONTINUOUS
 10
2.6836344019
 20
0.8304239346
 11
2.6832244781
 21
0.8486052971
  0
LINE
  5
57C
100
AcDbEntity
  8
0
100
AcDbLine
 62
7
  6
CONTINUOUS
 10
2.6832244781
 20
0.8486052971
 11
2.6828136207
 21
0.8674191401
  0
LINE
  5
57D
100
AcDbEntity
  8
0
100
AcDbLine
 62
7
  6
CONTINUOUS
 10
2.6828136207
 20
0.8674191401
 11
2.6824030365
 21
0.8866041414
  0
SPLINE
  5
57E
100
AcDbEntity
  8
0
100
AcDbSpline
 62
7
  6
CONTINUOUS
 70
0
 71
3
 72
19
 73
15
 74
0
 42
0.0000001
 43
0.0000001
 44
0.0000000001
 40
0.0
 40
0.0
 40
0.0
 40
0.0
 40
0.2294977621
 40
0.4302987705
 40
0.6015009235
 40
0.7425934802
 40
0.8531034221
 40
0.8967548342
 40
0.9326087952
 40
0.960642349
 40
0.9809161083
 40
0.9882093562
 40
0.9936866046
 40
1.0
 40
1.0
 40
1.0
 40
1.0
 10
2.6779053374
 20
1.0657640158
 30
0.0
 10
2.6778220049
 20
1.0677647
 30
0.0
 10
2.6776576756
 20
1.0715155754
 30
0.0
 10
2.677395807
 20
1.0767573067
 30
0.0
 10
2.6771351049
 20
1.0812266639
 30
0.0
 10
2.6768757672
 20
1.0849067079
 30
0.0
 10
2.6766491852
 20
1.0874731219
 30
0.0
 10
2.6764597766
 20
1.0891204565
 30
0.0
 10
2.6763307421
 20
1.0900496299
 30
0.0
 10
2.6762013203
 20
1.0907736628
 30
0.0
 10
2.6760904697
 20
1.0912442903
 30
0.0
 10
2.6759908588
 20
1.0915192259
 30
0.0
 10
2.6759227156
 20
1.0916628853
 30
0.0
 10
2.6758391949
 20
1.0917588769
 30
0.0
 10
2.6757841498
 20
1.0917567611
 30
0.0
  0
SPLINE
  5
57F
100
AcDbEntity
  8
0
100
AcDbSpline
 62
7
  6
CONTINUOUS
 70
0
 71
3
 72
13
 73
9
 74
0
 42
0.0000001
 43
0.0000001
 44
0.0000000001
 40
0.0
 40
0.0
 40
0.0
 40
0.0
 40
0.0433176442
 40
0.1094293994
 40
0.1989145162
 40
0.3119814399
 40
0.6090875222
 40
1.0
 40
1.0
 40
1.0
 40
1.0
 10
2.6756407407
 20
1.0916300464
 30
0.0
 10
2.6755853473
 20
1.0915343002
 30
0.0
 10
2.6754922274
 20
1.0912677765
 30
0.0
 10
2.6753728321
 20
1.0907749012
 30
0.0
 10
2.6752521926
 20
1.0900987467
 30
0.0
 10
2.6750722827
 20
1.0888356974
 30
0.0
 10
2.6748595855
 20
1.0868004225
 30
0.0
 10
2.674716735
 20
1.0850493686
 30
0.0
 10
2.6746423751
 20
1.0840539134
 30
0.0
  0
SPLINE
  5
580
100
AcDbEntity
  8
0
100
AcDbSpline
 62
9
  6
CONTINUOUS
 70
0
 71
3
 72
9
 73
5
 74
0
 42
0.0000001
 43
0.0000001
 44
0.0000000001
 40
0.0
 40
0.0
 40
0.0
 40
0.0
 40
0.5085618214
 40
1.0
 40
1.0
 40
1.0
 40
1.0
 10
2.4703520392
 20
0.6223249629
 30
0.0
 10
2.4725693457
 20
0.6182460026
 30
0.0
 10
2.4760282092
 20
0.609690882
 30
0.0
 10
2.4772540491
 20
0.6005279961
 30
0.0
 10
2.4772540491
 20
0.5960416502
 30
0.0
  0
SPLINE
  5
581
100
AcDbEntity
  8
0
100
AcDbSpline
 62
7
  6
CONTINUOUS
 70
0
 71
3
 72
12
 73
8
 74
0
 42
0.0000001
 43
0.0000001
 44
0.0000000001
 40
0.0
 40
0.0
 40
0.0
 40
0.0
 40
0.047067773
 40
0.1159405415
 40
0.3207319796
 40
0.6155458689
 40
1.0
 40
1.0
 40
1.0
 40
1.0
 10
3.1022327342
 20
1.1769361716
 30
0.0
 10
3.1021602862
 20
1.1768946471
 30
0.0
 10
3.1019662649
 20
1.1768215239
 30
0.0
 10
3.1014165388
 20
1.1766759449
 30
0.0
 10
3.1004195316
 20
1.1765104522
 30
0.0
 10
3.0988632537
 20
1.1763198109
 30
0.0
 10
3.0976629587
 20
1.1762081207
 30
0.0
 10
3.0969833944
 20
1.1761496821
 30
0.0
  0
LINE
  5
582
100
AcDbEntity
  8
0
100
AcDbLine
 62
7
  6
CONTINUOUS
 10
3.0939955858
 20
1.1759205142
 11
3.0812974491
 21
1.1752275552
  0
SPLINE
  5
583
100
AcDbEntity
  8
0
100
AcDbSpline
 62
7
  6
CONTINUOUS
 70
0
 71
3
 72
13
 73
9
 74
0
 42
0.0000001
 43
0.0000001
 44
0.0000000001
 40
0.0
 40
0.0
 40
0.0
 40
0.0
 40
0.0451862737
 40
0.1128093346
 40
0.2033272218
 40
0.3168432129
 40
0.6127550443
 40
1.0
 40
1.0
 40
1.0
 40
1.0
 10
2.821230292
 20
1.1873402554
 30
0.0
 10
2.8213202528
 20
1.1872903324
 30
0.0
 10
2.8215651567
 20
1.1872055461
 30
0.0
 10
2.8220147365
 20
1.18709742
 30
0.0
 10
2.8226242723
 20
1.1869887826
 30
0.0
 10
2.8237511528
 20
1.1868282149
 30
0.0
 10
2.8255557502
 20
1.1866385542
 30
0.0
 10
2.8271059527
 20
1.1865108495
 30
0.0
 10
2.8279851579
 20
1.1864443214
 30
0.0
  0
SPLINE
  5
584
100
AcDbEntity
  8
0
100
AcDbSpline
 62
7
  6
CONTINUOUS
 70
0
 71
3
 72
13
 73
9
 74
0
 42
0.0000001
 43
0.0000001
 44
0.0000000001
 40
0.0
 40
0.0
 40
0.0
 40
0.0
 40
0.0452495514
 40
0.1128904764
 40
0.2034064461
 40
0.3169109927
 40
0.6127891555
 40
1.0
 40
1.0
 40
1.0
 40
1.0
 10
3.1022184077
 20
1.1977551676
 30
0.0
 10
3.1021285889
 20
1.1977046942
 30
0.0
 10
3.1018836568
 20
1.197619182
 30
0.0
 10
3.1014339786
 20
1.1975107492
 30
0.0
 10
3.1008243835
 20
1.197402284
 30
0.0
 10
3.0996974936
 20
1.1972425474
 30
0.0
 10
3.0978928911
 20
1.1970545818
 30
0.0
 10
3.0963427606
 20
1.1969279316
 30
0.0
 10
3.0954635999
 20
1.1968618214
 30
0.0
  0
LINE
  5
585
100
AcDbEntity
  8
0
100
AcDbLine
 62
7
  6
CONTINUOUS
 10
3.0954635999
 20
1.1968618214
 11
3.0835042139
 21
1.1961691543
  0
SPLINE
  5
586
100
AcDbEntity
  8
0
100
AcDbSpline
 62
7
  6
CONTINUOUS
 70
0
 71
3
 72
16
 73
12
 74
0
 42
0.0000001
 43
0.0000001
 44
0.0000000001
 40
0.0
 40
0.0
 40
0.0
 40
0.0
 40
0.0940024161
 40
0.2170923976
 40
0.360211433
 40
0.512818574
 40
0.6636684522
 40
0.8016405769
 40
0.9165688372
 40
0.9626691374
 40
1.0
 40
1.0
 40
1.0
 40
1.0
 10
3.0835042139
 20
1.1961691543
 30
0.0
 10
3.0757051522
 20
1.1957994789
 30
0.0
 10
3.0576843458
 20
1.1951523895
 30
0.0
 10
3.0277776637
 20
1.1942960108
 30
0.0
 10
2.9930015567
 20
1.1934299703
 30
0.0
 10
2.9559193041
 20
1.1925596176
 30
0.0
 10
2.9192645676
 20
1.1916906966
 30
0.0
 10
2.8857403736
 20
1.1908249348
 30
0.0
 10
2.8609164354
 20
1.1900753995
 30
0.0
 10
2.8444529551
 20
1.189439362
 30
0.0
 10
2.8375307076
 20
1.1891122263
 30
0.0
 10
2.8344347762
 20
1.1889404633
 30
0.0
  0
LINE
  5
587
100
AcDbEntity
  8
0
100
AcDbLine
 62
7
  6
CONTINUOUS
 10
2.8332541846
 20
1.1888735579
 11
2.8241784116
 21
1.1881847961
  0
LINE
  5
588
100
AcDbEntity
  8
0
100
AcDbLine
 62
7
  6
CONTINUOUS
 10
2.8241784116
 20
1.1881847961
 11
2.8218754777
 21
1.1878395795
  0
LINE
  5
589
100
AcDbEntity
  8
0
100
AcDbLine
 62
7
  6
CONTINUOUS
 10
2.8218754777
 20
1.1878395795
 11
2.8210993789
 21
1.187486308
  0
SPLINE
  5
58A
100
AcDbEntity
  8
0
100
AcDbSpline
 62
7
  6
CONTINUOUS
 70
0
 71
3
 72
13
 73
9
 74
0
 42
0.0000001
 43
0.0000001
 44
0.0000000001
 40
0.0
 40
0.0
 40
0.0
 40
0.0
 40
0.0434265171
 40
0.1097747953
 40
0.1995317872
 40
0.3128004025
 40
0.6097376747
 40
1.0
 40
1.0
 40
1.0
 40
1.0
 10
2.8212104681
 20
1.2081905986
 30
0.0
 10
2.8212959214
 20
1.2081402084
 30
0.0
 10
2.821534821
 20
1.2080555462
 30
0.0
 10
2.8219766796
 20
1.2079468248
 30
0.0
 10
2.8225828576
 20
1.2078367971
 30
0.0
 10
2.8237130011
 20
1.2076726473
 30
0.0
 10
2.8255318712
 20
1.2074779787
 30
0.0
 10
2.8270962308
 20
1.2073472627
 30
0.0
 10
2.8279851579
 20
1.2072793214
 30
0.0
  0
LINE
  5
58B
100
AcDbEntity
  8
0
100
AcDbLine
 62
7
  6
CONTINUOUS
 10
2.8241784115
 20
1.2090153827
 11
2.8218754776
 21
1.2086680521
  0
LINE
  5
58C
100
AcDbEntity
  8
0
100
AcDbLine
 62
7
  6
CONTINUOUS
 10
2.8218754776
 20
1.2086680521
 11
2.8210993789
 21
1.208321308
  0
SPLINE
  5
58D
100
AcDbEntity
  8
0
100
AcDbSpline
 62
7
  6
CONTINUOUS
 70
0
 71
3
 72
14
 73
10
 74
0
 42
0.0000001
 43
0.0000001
 44
0.0000000001
 40
0.0
 40
0.0
 40
0.0
 40
0.0
 40
0.0416560933
 40
0.1068944306
 40
0.1960939925
 40
0.3092859143
 40
0.4463969945
 40
0.607312184
 40
1.0
 40
1.0
 40
1.0
 40
1.0
 10
3.089454937
 20
1.1672857529
 30
0.0
 10
3.0893349245
 20
1.1673520369
 30
0.0
 10
3.0889959457
 20
1.1674595893
 30
0.0
 10
3.0883670364
 20
1.1675984364
 30
0.0
 10
3.0874963001
 20
1.1677383425
 30
0.0
 10
3.0863882502
 20
1.1678808905
 30
0.0
 10
3.0850422311
 20
1.1680240767
 30
0.0
 10
3.0827782428
 20
1.168229823
 30
0.0
 10
3.080960846
 20
1.1683622562
 30
0.0
 10
3.0796713124
 20
1.1684487904
 30
0.0
  0
SPLINE
  5
58E
100
AcDbEntity
  8
0
100
AcDbSpline
 62
7
  6
CONTINUOUS
 70
0
 71
3
 72
13
 73
9
 74
0
 42
0.0000001
 43
0.0000001
 44
0.0000000001
 40
0.0
 40
0.0
 40
0.0
 40
0.0
 40
0.0449489419
 40
0.1124100792
 40
0.2028357675
 40
0.3163256183
 40
0.612374578
 40
1.0
 40
1.0
 40
1.0
 40
1.0
 10
3.1022210143
 20
1.1599423344
 30
0.0
 10
3.1021315458
 20
1.1599921192
 30
0.0
 10
3.1018873852
 20
1.160076642
 30
0.0
 10
3.1014387696
 20
1.1601847382
 30
0.0
 10
3.1008296551
 20
1.1602936132
 30
0.0
 10
3.0997023606
 20
1.1604549188
 30
0.0
 10
3.0978959976
 20
1.1606457979
 30
0.0
 10
3.0963440194
 20
1.1607742474
 30
0.0
 10
3.0954635999
 20
1.1608410978
 30
0.0
  0
SPLINE
  5
58F
100
AcDbEntity
  8
0
100
AcDbSpline
 62
9
  6
CONTINUOUS
 70
0
 71
3
 72
19
 73
15
 74
0
 42
0.0000001
 43
0.0000001
 44
0.0000000001
 40
0.0
 40
0.0
 40
0.0
 40
0.0
 40
0.0533638743
 40
0.1095202666
 40
0.1687283077
 40
0.2309067668
 40
0.3624748021
 40
0.5000002828
 40
0.6375257127
 40
0.7690936075
 40
0.831271974
 40
0.8904799146
 40
0.9466362099
 40
1.0
 40
1.0
 40
1.0
 40
1.0
 10
2.2770999215
 20
0.6223308543
 30
0.0
 10
2.2790063866
 20
0.625837079
 30
0.0
 10
2.2836288831
 20
0.6326630242
 30
0.0
 10
2.2924075557
 20
0.6417991162
 30
0.0
 10
2.3030067637
 20
0.6498777942
 30
0.0
 10
2.3195226167
 20
0.659203441
 30
0.0
 10
2.3432614839
 20
0.6671368326
 30
0.0
 10
2.3737246315
 20
0.6703225318
 30
0.0
 10
2.4041877579
 20
0.667136729
 30
0.0
 10
2.4279265758
 20
0.6592032543
 30
0.0
 10
2.4444423676
 20
0.6498775492
 30
0.0
 10
2.45504152
 20
0.6417988336
 30
0.0
 10
2.46382013
 20
0.6326627103
 30
0.0
 10
2.4684425789
 20
0.6258367489
 30
0.0
 10
2.4703490192
 20
0.6223305179
 30
0.0
  0
SPLINE
  5
590
100
AcDbEntity
  8
0
100
AcDbSpline
 62
7
  6
CONTINUOUS
 70
0
 71
3
 72
16
 73
12
 74
0
 42
0.0000001
 43
0.0000001
 44
0.0000000001
 40
0.0
 40
0.0
 40
0.0
 40
0.0
 40
0.0087253786
 40
0.022958905
 40
0.0724951469
 40
0.15177665
 40
0.2612091276
 40
0.4008722109
 40
0.5707471535
 40
0.7706124624
 40
1.0
 40
1.0
 40
1.0
 40
1.0
 10
2.6851574357
 20
0.7159757476
 30
0.0
 10
2.6851242679
 20
0.7159779776
 30
0.0
 10
2.6850472426
 20
0.7160372142
 30
0.0
 10
2.6849208168
 20
0.7162811194
 30
0.0
 10
2.6847752891
 20
0.7168127726
 30
0.0
 10
2.684612836
 20
0.7177035267
 30
0.0
 10
2.6844460534
 20
0.7189449012
 30
0.0
 10
2.6842771616
 20
0.7205318218
 30
0.0
 10
2.6841071796
 20
0.72246537
 30
0.0
 10
2.6839365618
 20
0.7247415717
 30
0.0
 10
2.6838297535
 20
0.7263735169
 30
0.0
 10
2.6837756411
 20
0.7272457781
 30
0.0
  0
SPLINE
  5
591
100
AcDbEntity
  8
0
100
AcDbSpline
 62
7
  6
CONTINUOUS
 70
0
 71
3
 72
10
 73
6
 74
0
 42
0.0000001
 43
0.0000001
 44
0.0000000001
 40
0.0
 40
0.0
 40
0.0
 40
0.0
 40
0.1861788688
 40
0.4165102423
 40
1.0
 40
1.0
 40
1.0
 40
1.0
 10
2.6837756411
 20
0.7272457781
 30
0.0
 10
2.6836204648
 20
0.7297471287
 30
0.0
 10
2.6833247816
 20
0.7353461879
 30
0.0
 10
2.6827443722
 20
0.7487947731
 30
0.0
 10
2.6823818404
 20
0.7597439087
 30
0.0
 10
2.6821404288
 20
0.7675945711
 30
0.0
  0
LINE
  5
592
100
AcDbEntity
  8
0
100
AcDbLine
 62
7
  6
CONTINUOUS
 10
2.6821404288
 20
0.7675945711
 11
2.6821069746
 21
0.7686872686
  0
LINE
  5
593
100
AcDbEntity
  8
0
100
AcDbLine
 62
7
  6
CONTINUOUS
 10
2.6805094019
 20
0.8304239346
 11
2.6800994781
 21
0.8486052971
  0
LINE
  5
594
100
AcDbEntity
  8
0
100
AcDbLine
 62
7
  6
CONTINUOUS
 10
2.6800994781
 20
0.8486052971
 11
2.6796886207
 21
0.8674191401
  0
LINE
  5
595
100
AcDbEntity
  8
0
100
AcDbLine
 62
7
  6
CONTINUOUS
 10
2.6796886207
 20
0.8674191401
 11
2.6792780365
 21
0.8866041414
  0
SPLINE
  5
596
100
AcDbEntity
  8
0
100
AcDbSpline
 62
7
  6
CONTINUOUS
 70
0
 71
3
 72
14
 73
10
 74
0
 42
0.0000001
 43
0.0000001
 44
0.0000000001
 40
0.0
 40
0.0
 40
0.0
 40
0.0
 40
0.3815357594
 40
0.5403062803
 40
0.6771765104
 40
0.7918468322
 40
0.8840296468
 40
0.9534655697
 40
1.0
 40
1.0
 40
1.0
 40
1.0
 10
2.6747803374
 20
1.0657640158
 30
0.0
 10
2.6746457074
 20
1.0689962742
 30
0.0
 10
2.6744403594
 20
1.0735730791
 30
0.0
 10
2.6741254234
 20
1.0793062731
 30
0.0
 10
2.6739048136
 20
1.0827784309
 30
0.0
 10
2.6736851107
 20
1.0856845308
 30
0.0
 10
2.673468733
 20
1.0880177519
 30
0.0
 10
2.6732539486
 20
1.0897690458
 30
0.0
 10
2.6730889835
 20
1.090740549
 30
0.0
 10
2.6729902823
 20
1.0911225723
 30
0.0
  0
LINE
  5
597
100
AcDbEntity
  8
0
100
AcDbLine
 62
7
  6
CONTINUOUS
 10
2.6729902823
 20
1.0911225723
 11
2.6728036828
 21
1.0916391256
  0
SPLINE
  5
598
100
AcDbEntity
  8
0
100
AcDbSpline
 62
7
  6
CONTINUOUS
 70
0
 71
3
 72
13
 73
9
 74
0
 42
0.0000001
 43
0.0000001
 44
0.0000000001
 40
0.0
 40
0.0
 40
0.0
 40
0.0
 40
0.0435711571
 40
0.1100734485
 40
0.1999443307
 40
0.3132689596
 40
0.6101164077
 40
1.0
 40
1.0
 40
1.0
 40
1.0
 10
2.8212131467
 20
1.1703454487
 30
0.0
 10
2.8212995282
 20
1.1703948038
 30
0.0
 10
2.821539242
 20
1.1704782118
 30
0.0
 10
2.8219820749
 20
1.1705862877
 30
0.0
 10
2.8225886466
 20
1.1706963649
 30
0.0
 10
2.82371832
 20
1.1708613543
 30
0.0
 10
2.8255351208
 20
1.171058124
 30
0.0
 10
2.8270975609
 20
1.1711901644
 30
0.0
 10
2.8279851579
 20
1.1712585978
 30
0.0
  0
LINE
  5
599
100
AcDbEntity
  8
0
100
AcDbLine
 62
7
  6
CONTINUOUS
 10
2.8279851579
 20
1.1712585978
 11
2.8399445395
 21
1.1719542216
  0
SPLINE
  5
59A
100
AcDbEntity
  8
0
100
AcDbSpline
 62
7
  6
CONTINUOUS
 70
0
 71
3
 72
16
 73
12
 74
0
 42
0.0000001
 43
0.0000001
 44
0.0000000001
 40
0.0
 40
0.0
 40
0.0
 40
0.0
 40
0.0939704738
 40
0.2170114377
 40
0.3600763816
 40
0.5126394756
 40
0.6634700685
 40
0.8014604863
 40
0.9164539998
 40
0.9626056991
 40
1.0
 40
1.0
 40
1.0
 40
1.0
 10
2.8399445395
 20
1.1719542216
 30
0.0
 10
2.8477389656
 20
1.1723206213
 30
0.0
 10
2.8657481574
 20
1.1729654181
 30
0.0
 10
2.8956353747
 20
1.1738247296
 30
0.0
 10
2.93038981
 20
1.1746885456
 30
0.0
 10
2.9674521719
 20
1.1755590802
 30
0.0
 10
3.004093149
 20
1.1764279159
 30
0.0
 10
3.0376135843
 20
1.1772914721
 30
0.0
 10
3.0624418345
 20
1.1780445596
 30
0.0
 10
3.0789158847
 20
1.1786771675
 30
0.0
 10
3.0858459753
 20
1.1790004151
 30
0.0
 10
3.0889463513
 20
1.1791718708
 30
0.0
  0
LINE
  5
59B
100
AcDbEntity
  8
0
100
AcDbLine
 62
7
  6
CONTINUOUS
 10
3.0901945772
 20
1.1792425678
 11
3.0992703441
 21
1.1799464598
  0
LINE
  5
59C
100
AcDbEntity
  8
0
100
AcDbLine
 62
7
  6
CONTINUOUS
 10
3.0992703441
 20
1.1799464598
 11
3.1015732794
 21
1.1802968673
  0
LINE
  5
59D
100
AcDbEntity
  8
0
100
AcDbLine
 62
7
  6
CONTINUOUS
 10
3.1015732794
 20
1.1802968673
 11
3.1023493789
 21
1.1806341112
  0
SPLINE
  5
59E
100
AcDbEntity
  8
0
100
AcDbSpline
 62
7
  6
CONTINUOUS
 70
0
 71
3
 72
14
 73
10
 74
0
 42
0.0000001
 43
0.0000001
 44
0.0000000001
 40
0.0
 40
0.0
 40
0.0
 40
0.0
 40
0.0382329025
 40
0.1008712624
 40
0.1884212009
 40
0.3010011061
 40
0.4386220624
 40
0.6012496747
 40
1.0
 40
1.0
 40
1.0
 40
1.0
 10
2.833975736
 20
1.1776953945
 30
0.0
 10
2.8341048294
 20
1.1777723695
 30
0.0
 10
2.834489609
 20
1.1778905515
 30
0.0
 10
2.8352114037
 20
1.1780446472
 30
0.0
 10
2.8362346266
 20
1.1781988939
 30
0.0
 10
2.8375524576
 20
1.1783570441
 30
0.0
 10
2.8391678884
 20
1.1785157734
 30
0.0
 10
2.8419062192
 20
1.1787443666
 30
0.0
 10
2.8441084213
 20
1.178890981
 30
0.0
 10
2.8456730251
 20
1.1789872262
 30
0.0
  0
SPLINE
  5
59F
100
AcDbEntity
  8
0
100
AcDbSpline
 62
7
  6
CONTINUOUS
 70
0
 71
3
 72
25
 73
21
 74
0
 42
0.0000001
 43
0.0000001
 44
0.0000000001
 40
0.0
 40
0.0
 40
0.0
 40
0.0
 40
0.0424207843
 40
0.0963038706
 40
0.2326172824
 40
0.3949825486
 40
0.4804867056
 40
0.5658374944
 40
0.6488124941
 40
0.7272830167
 40
0.799149204
 40
0.8623529911
 40
0.915100556
 40
0.9371937799
 40
0.95626305
 40
0.9721854768
 40
0.9848498865
 40
0.9941508799
 40
0.9975110216
 40
1.0
 40
1.0
 40
1.0
 40
1.0
 10
2.8456730251
 20
1.1789872262
 30
0.0
 10
2.8491114547
 20
1.179198738
 30
0.0
 10
2.8569226643
 20
1.1795913755
 30
0.0
 10
2.8757978548
 20
1.1803532602
 30
0.0
 10
2.9044155323
 20
1.1812425143
 30
0.0
 10
2.9356031087
 20
1.1820806704
 30
0.0
 10
2.9626543691
 20
1.1827813235
 30
0.0
 10
2.9832605786
 20
1.1833162044
 30
0.0
 10
3.0032954072
 20
1.183851074
 30
0.0
 10
3.0222347943
 20
1.1843848303
 30
0.0
 10
3.0395679884
 20
1.1849162808
 30
0.0
 10
3.0548112576
 20
1.1854448139
 30
0.0
 10
3.0660123373
 20
1.185905661
 30
0.0
 10
3.0736292383
 20
1.1862855766
 30
0.0
 10
3.0782573441
 20
1.1865525296
 30
0.0
 10
3.0821186134
 20
1.1868170141
 30
0.0
 10
3.0851840873
 20
1.1870797782
 30
0.0
 10
3.0872289932
 20
1.1873086514
 30
0.0
 10
3.0884434639
 20
1.1875058074
 30
0.0
 10
3.088908497
 20
1.1876058019
 30
0.0
 10
3.0891030739
 20
1.1876605274
 30
0.0
  0
LINE
  5
5A0
100
AcDbEntity
  8
0
100
AcDbLine
 62
7
  6
CONTINUOUS
 10
3.0891030739
 20
1.1876605274
 11
3.0896344416
 21
1.1879586637
  0
SPLINE
  5
5A1
100
AcDbEntity
  8
0
100
AcDbSpline
 62
7
  6
CONTINUOUS
 70
0
 71
3
 72
13
 73
9
 74
0
 42
0.0000001
 43
0.0000001
 44
0.0000000001
 40
0.0
 40
0.0
 40
0.0
 40
0.0
 40
0.0426644788
 40
0.1086544352
 40
0.1983654471
 40
0.3118130311
 40
0.6094455541
 40
1.0
 40
1.0
 40
1.0
 40
1.0
 10
3.0895075791
 20
1.1881074972
 30
0.0
 10
3.0894041148
 20
1.1881675927
 30
0.0
 10
3.0891123967
 20
1.1882667872
 30
0.0
 10
3.088572024
 20
1.1883942883
 30
0.0
 10
3.0878273242
 20
1.1885230199
 30
0.0
 10
3.0864362906
 20
1.188715273
 30
0.0
 10
3.0841988908
 20
1.1889427339
 30
0.0
 10
3.0822750479
 20
1.1890959218
 30
0.0
 10
3.0811826584
 20
1.1891756396
 30
0.0
  0
SPLINE
  5
5A2
100
AcDbEntity
  8
0
100
AcDbSpline
 62
7
  6
CONTINUOUS
 70
0
 71
3
 72
13
 73
9
 74
0
 42
0.0000001
 43
0.0000001
 44
0.0000000001
 40
0.0
 40
0.0
 40
0.0
 40
0.0
 40
0.0427091363
 40
0.1085942521
 40
0.198100145
 40
0.3113090708
 40
0.6086582183
 40
1.0
 40
1.0
 40
1.0
 40
1.0
 10
3.1022445626
 20
1.1807555348
 30
0.0
 10
3.1021603325
 20
1.1808049661
 30
0.0
 10
3.1019235132
 20
1.1808880584
 30
0.0
 10
3.1014844774
 20
1.1809962806
 30
0.0
 10
3.1008795841
 20
1.1811069809
 30
0.0
 10
3.0997484467
 20
1.181273788
 30
0.0
 10
3.0979249378
 20
1.1814732472
 30
0.0
 10
3.0963558075
 20
1.181606916
 30
0.0
 10
3.0954635999
 20
1.1816760978
 30
0.0
  0
SPLINE
  5
5A3
100
AcDbEntity
  8
0
100
AcDbSpline
 62
7
  6
CONTINUOUS
 70
0
 71
3
 72
13
 73
9
 74
0
 42
0.0000001
 43
0.0000001
 44
0.0000000001
 40
0.0
 40
0.0
 40
0.0
 40
0.0
 40
0.0435472659
 40
0.109976529
 40
0.1997789459
 40
0.3130598165
 40
0.6099274528
 40
1.0
 40
1.0
 40
1.0
 40
1.0
 10
2.8212116165
 20
1.1911837448
 30
0.0
 10
2.8212973101
 20
1.1912342339
 30
0.0
 10
2.8215365789
 20
1.1913190786
 30
0.0
 10
2.8219789314
 20
1.1914278427
 30
0.0
 10
2.8225853307
 20
1.1915377601
 30
0.0
 10
2.8237152898
 20
1.1917015217
 30
0.0
 10
2.8255333161
 20
1.1918955243
 30
0.0
 10
2.8270968194
 20
1.1920258315
 30
0.0
 10
2.8279851579
 20
1.1920935978
 30
0.0
  0
LINE
  5
5A4
100
AcDbEntity
  8
0
100
AcDbLine
 62
7
  6
CONTINUOUS
 10
2.8279851579
 20
1.1920935978
 11
2.8399445417
 21
1.1927879544
  0
SPLINE
  5
5A5
100
AcDbEntity
  8
0
100
AcDbSpline
 62
7
  6
CONTINUOUS
 70
0
 71
3
 72
15
 73
11
 74
0
 42
0.0000001
 43
0.0000001
 44
0.0000000001
 40
0.0
 40
0.0
 40
0.0
 40
0.0
 40
0.0894217381
 40
0.205125625
 40
0.3400130021
 40
0.4857913301
 40
0.6334845762
 40
0.7740119992
 40
0.8987402691
 40
1.0
 40
1.0
 40
1.0
 40
1.0
 10
2.8399445417
 20
1.1927879544
 30
0.0
 10
2.8469607106
 20
1.1931189486
 30
0.0
 10
2.8630628164
 20
1.1937105956
 30
0.0
 10
2.8897587438
 20
1.1944986399
 30
0.0
 10
2.9208830734
 20
1.1952929112
 30
0.0
 10
2.9545206556
 20
1.1960921647
 30
0.0
 10
2.9886013851
 20
1.196891631
 30
0.0
 10
3.0210282844
 20
1.1976888979
 30
0.0
 10
3.0498067332
 20
1.1984804922
 30
0.0
 10
3.0675485167
 20
1.1990656457
 30
0.0
 10
3.0754959051
 20
1.1993857521
 30
0.0
  0
LINE
  5
5A6
100
AcDbEntity
  8
0
100
AcDbLine
 62
7
  6
CONTINUOUS
 10
3.0754959051
 20
1.1993857521
 11
3.0889881948
 21
1.200014643
  0
LINE
  5
5A7
100
AcDbEntity
  8
0
100
AcDbLine
 62
7
  6
CONTINUOUS
 10
3.0901945727
 20
1.2000829667
 11
3.0992703454
 21
1.2007678325
  0
LINE
  5
5A8
100
AcDbEntity
  8
0
100
AcDbLine
 62
7
  6
CONTINUOUS
 10
3.0992703454
 20
1.2007678325
 11
3.1015732797
 21
1.2011117125
  0
LINE
  5
5A9
100
AcDbEntity
  8
0
100
AcDbLine
 62
7
  6
CONTINUOUS
 10
3.1015732797
 20
1.2011117125
 11
3.1023493789
 21
1.2014691112
  0
LINE
  5
5AA
100
AcDbEntity
  8
0
100
AcDbLine
 62
7
  6
CONTINUOUS
 10
2.833968761
 20
1.1985288067
 11
2.8358179683
 21
1.1989683078
  0
LINE
  5
5AB
100
AcDbEntity
  8
0
100
AcDbLine
 62
7
  6
CONTINUOUS
 10
2.8358179683
 20
1.1989683078
 11
2.8440924532
 21
1.1997209497
  0
SPLINE
  5
5AC
100
AcDbEntity
  8
0
100
AcDbSpline
 62
7
  6
CONTINUOUS
 70
0
 71
3
 72
11
 73
7
 74
0
 42
0.0000001
 43
0.0000001
 44
0.0000000001
 40
0.0
 40
0.0
 40
0.0
 40
0.0
 40
0.1845596485
 40
0.4210525434
 40
0.6974702389
 40
1.0
 40
1.0
 40
1.0
 40
1.0
 10
2.8504910424
 20
1.2000951547
 30
0.0
 10
2.856161571
 20
1.2003930201
 30
0.0
 10
2.8691053612
 20
1.2009331869
 30
0.0
 10
2.8905522904
 20
1.2016540372
 30
0.0
 10
2.9156305325
 20
1.2023800393
 30
0.0
 10
2.933436673
 20
1.2028547709
 30
0.0
 10
2.9427414049
 20
1.2030988563
 30
0.0
  0
SPLINE
  5
5AD
100
AcDbEntity
  8
0
100
AcDbSpline
 62
7
  6
CONTINUOUS
 70
0
 71
3
 72
11
 73
7
 74
0
 42
0.0000001
 43
0.0000001
 44
0.0000000001
 40
0.0
 40
0.0
 40
0.0
 40
0.0
 40
0.3081249223
 40
0.5865435072
 40
0.8214540079
 40
1.0
 40
1.0
 40
1.0
 40
1.0
 10
2.9863374297
 20
1.2042345522
 30
0.0
 10
2.9955128895
 20
1.204476802
 30
0.0
 10
3.0129789173
 20
1.2049482212
 30
0.0
 10
3.0374383559
 20
1.2056747461
 30
0.0
 10
3.0580358878
 20
1.2063918101
 30
0.0
 10
3.0703410909
 20
1.2069328314
 30
0.0
 10
3.0756510369
 20
1.2072372064
 30
0.0
  0
SPLINE
  5
5AE
100
AcDbEntity
  8
0
100
AcDbSpline
 62
7
  6
CONTINUOUS
 70
0
 71
3
 72
17
 73
13
 74
0
 42
0.0000001
 43
0.0000001
 44
0.0000000001
 40
0.0
 40
0.0
 40
0.0
 40
0.0
 40
0.2219981482
 40
0.4170506964
 40
0.5846782698
 40
0.7244138941
 40
0.8358415614
 40
0.9187112512
 40
0.9494198477
 40
0.9730230722
 40
0.9896847519
 40
1.0
 40
1.0
 40
1.0
 40
1.0
 10
3.0756510369
 20
1.2072372064
 30
0.0
 10
3.0766928178
 20
1.2072969231
 30
0.0
 10
3.0786496011
 20
1.207414958
 30
0.0
 10
3.0813914795
 20
1.2076028264
 30
0.0
 10
3.0837456374
 20
1.2077900444
 30
0.0
 10
3.0857056111
 20
1.2079758039
 30
0.0
 10
3.0872646802
 20
1.2081601884
 30
0.0
 10
3.0883110373
 20
1.208321922
 30
0.0
 10
3.0889406705
 20
1.2084590486
 30
0.0
 10
3.0892630306
 20
1.2085509363
 30
0.0
 10
3.0894815127
 20
1.208639187
 30
0.0
 10
3.0895914867
 20
1.2087144742
 30
0.0
 10
3.0896166875
 20
1.2087558969
 30
0.0
  0
SPLINE
  5
5AF
100
AcDbEntity
  8
0
100
AcDbSpline
 62
7
  6
CONTINUOUS
 70
0
 71
3
 72
13
 73
9
 74
0
 42
0.0000001
 43
0.0000001
 44
0.0000000001
 40
0.0
 40
0.0
 40
0.0
 40
0.0
 40
0.0453016227
 40
0.1129811296
 40
0.2035205259
 40
0.3170330312
 40
0.612880763
 40
1.0
 40
1.0
 40
1.0
 40
1.0
 10
3.102217768
 20
1.2016181677
 30
0.0
 10
3.102127808
 20
1.2016686093
 30
0.0
 10
3.1018826925
 20
1.2017540994
 30
0.0
 10
3.101432784
 20
1.2018625015
 30
0.0
 10
3.1008230905
 20
1.2019709257
 30
0.0
 10
3.0996963068
 20
1.2021305735
 30
0.0
 10
3.0978921507
 20
1.2023184323
 30
0.0
 10
3.0963424596
 20
1.2024450194
 30
0.0
 10
3.0954635999
 20
1.2025110978
 30
0.0
  0
SPLINE
  5
5B0
100
AcDbEntity
  8
0
100
AcDbSpline
 62
7
  6
CONTINUOUS
 70
0
 71
3
 72
10
 73
6
 74
0
 42
0.0000001
 43
0.0000001
 44
0.0000000001
 40
0.0
 40
0.0
 40
0.0
 40
0.0
 40
0.3864661473
 40
0.7709535386
 40
1.0
 40
1.0
 40
1.0
 40
1.0
 10
2.9763008553
 20
10.7697881131
 30
0.0
 10
2.9838190996
 20
10.7729135156
 30
0.0
 10
2.9991987461
 20
10.7782646312
 30
0.0
 10
3.019755946
 20
10.7830238767
 30
0.0
 10
3.0325416179
 20
10.7849820898
 30
0.0
 10
3.037331234
 20
10.7855832695
 30
0.0
  0
SPLINE
  5
5B1
100
AcDbEntity
  8
0
100
AcDbSpline
 62
7
  6
CONTINUOUS
 70
0
 71
3
 72
10
 73
6
 74
0
 42
0.0000001
 43
0.0000001
 44
0.0000000001
 40
0.0
 40
0.0
 40
0.0
 40
0.0
 40
0.3864641536
 40
0.7709495591
 40
1.0
 40
1.0
 40
1.0
 40
1.0
 10
2.7575508553
 20
10.7697881131
 30
0.0
 10
2.7650691035
 20
10.7729135065
 30
0.0
 10
2.7804487508
 20
10.7782646174
 30
0.0
 10
2.801006054
 20
10.7830239005
 30
0.0
 10
2.8137918346
 20
10.784982126
 30
0.0
 10
2.8185815594
 20
10.7855833141
 30
0.0
  0
ELLIPSE
  5
5B2
100
AcDbEntity
  8
0
100
AcDbEllipse
 62
7
  6
CONTINUOUS
 10
2.9617243789
 20
1.1867091721
 30
0.0
 11
0.140625
 21
0.0
 31
0.0
 40
1.0
 41
-2.5116434242
 42
-0.6299492294
  0
ENDSEC
  0
SECTION
  2
OBJECTS
  0
DICTIONARY
  5
C
100
AcDbDictionary
280
0
281
1
  3
ACAD_GROUP
350
D
  3
ACAD_MLINESTYLE
350
17
  3
ACAD_LAYOUT
350
1A
  3
ACAD_PLOTSETTINGS
350
19
  3
ACAD_PLOTSTYLENAME
350
E
  0
DICTIONARY
  5
D
102
{ACAD_REACTORS
330
C
102
}
100
AcDbDictionary
280
0
281
1
  0
ACDBDICTIONARYWDFLT
  5
E
102
{ACAD_REACTORS
330
C
102
}
100
AcDbDictionary
281
1
  3
Normal
350
F
100
AcDbDictionaryWithDefault
340
F
  0
DICTIONARY
  5
17
102
{ACAD_REACTORS
330
C
102
}
100
AcDbDictionary
280
0
281
1
  3
Standard
350
18
  0
DICTIONARY
  5
19
102
{ACAD_REACTORS
330
C
102
}
100
AcDbDictionary
281
1
  0
DICTIONARY
  5
1A
102
{ACAD_REACTORS
330
C
102
}
100
AcDbDictionary
281
1
  3
Model
350
5B3
  3
Layout1
350
5B4
  0
ACDBPLACEHOLDER
  5
F
102
{ACAD_REACTORS
330
E
102
}
  0
MLINESTYLE
  5
18
102
{ACAD_REACTORS
330
17
102
}
100
AcDbMlineStyle
  2
STANDARD
 70
0
  3

 62
256
 51
90.0
 52
90.0
 71
2
 49
0.5
 62
256
  6
BYLAYER
 49
-0.5
 62
256
  6
BYLAYER
  0
LAYOUT
  5
5B3
102
{ACAD_REACTORS
330
1A
102
}
100
AcDbPlotSettings
  1

  2
none_device
  4

  6

 40
0.0
 41
0.0
 42
0.0
 43
0.0
 44
215.9
 45
279.4
 46
0.0
 47
0.0
 48
0.0
 49
0.0
140
0.0
141
0.0
142
1.0
143
1.0
 70
1024
 72
0
 73
0
 74
0
  7

 75
0
147
1.0
148
0.0
149
0.0
100
AcDbLayout
  1
Model
 70
0
 71
0
 10
0.0
 20
0.0
 11
8.5
 21
11.0
 12
0.0
 22
0.0
 32
0.0
 14
0.0
 24
0.0
 34
0.0
 15
0.0
 25
0.0
 35
0.0
146
0.0
 13
0.0
 23
0.0
 33
0.0
 16
1.0
 26
0.0
 36
0.0
 17
0.0
 27
1.0
 37
0.0
 76
0
330
23F
345
0
346
0
  0
LAYOUT
  5
5B4
102
{ACAD_REACTORS
330
1A
102
}
100
AcDbPlotSettings
  1

  2
none_device
  4

  6

 40
0.0
 41
0.0
 42
0.0
 43
0.0
 44
215.9
 45
279.4
 46
0.0
 47
0.0
 48
0.0
 49
0.0
140
0.0
141
0.0
142
1.0
143
1.0
 70
0
 72
0
 73
0
 74
0
  7

 75
0
147
1.0
148
0.0
149
0.0
100
AcDbLayout
  1
Layout1
 70
0
 71
1
 10
0.0
 20
0.0
 11
8.5
 21
11.0
 12
0.0
 22
0.0
 32
0.0
 14
0.0
 24
0.0
 34
0.0
 15
0.0
 25
0.0
 35
0.0
146
0.0
 13
0.0
 23
0.0
 33
0.0
 16
1.0
 26
0.0
 36
0.0
 17
0.0
 27
1.0
 37
0.0
 76
0
330
240
345
0
346
0
  0
ENDSEC
  0
EOF
