999
DXF file: C:\Prowork\plots\493-1_right.dxf
999
Pro/ENGINEER 2018500 by Parametric Technology Corporation
  0
SECTION
  2
HEADER
  9
$ACADVER
  1
AC1032
  9
$DWGCODEPAGE
  3
ANSI_1252
  9
$EXTMAX
 10
8.5
 20
11.0
 30
0.0
  9
$EXTMIN
 10
0.0
 20
0.0
 30
0.0
  9
$LIMMIN
 10
0.0
 20
0.0
  9
$LIMMAX
 10
8.5
 20
11.0
  9
$VIEWCTR
 10
4.25
 20
5.5
  9
$VIEWSIZE
 40
11.0
  9
$CLAYER
  8
0
  9
$LTSCALE
 40
0.717037037
  9
$CELTYPE
  6
BYLAYER
  9
$DIMSCALE
 40
1.0
  9
$DIMASZ
 40
0.1
  9
$DIMEXO
 40
0.0625
  9
$DIMDLI
 40
0.4954074074
  9
$DIMEXE
 40
0.125
  9
$DIMCEN
 40
0.1173333333
  9
$DIMLFAC
 40
1.0
  9
$DIMBLK
  1
_FILLED
  9
$DIMALT
 70
1
  9
$DIMALTD
 70
2
  9
$DIMALTTD
 70
2
  9
$DIMALTF
 40
25.4
  9
$DIMTXT
 40
0.08
  9
$DIMTOL
 70
1
  9
$DIMLIM
 70
0
  9
$DIMTFAC
 40
1.0
  9
$DIMTP
 40
0.001
  9
$DIMTM
 40
0.001
  9
$DIMGAP
 40
0.09
  9
$DIMDSEP
 70
46
  9
$AUNITS
 70
0
  9
$PDMODE
 70
3
  9
$PDSIZE
 40
0.06
  9
$HANDSEED
  5
363
  9
$TILEMODE
 70
1
  9
$MEASUREMENT
 70
0
  9
$INSUNITS
 70
1
  0
ENDSEC
  0
SECTION
  2
CLASSES
  0
CLASS
  1
ACDBDICTIONARYWDFLT
  2
AcDbDictionaryWithDefault
  3
AutoCAD 2000
 90
0
 91
1
280
0
281
0
  0
CLASS
  1
ACDBPLACEHOLDER
  2
AcDbPlaceHolder
  3
AutoCAD 2000
 90
0
 91
1
280
0
281
0
  0
CLASS
  1
LAYOUT
  2
AcDbLayout
  3
AutoCAD 2000
 90
0
 91
0
280
0
281
0
  0
ENDSEC
  0
SECTION
  2
TABLES
  0
TABLE
  2
VPORT
  5
8
100
AcDbSymbolTable
 70
2
  0
VPORT
  5
1F4
100
AcDbSymbolTableRecord
100
AcDbViewportTableRecord
  2
*ACTIVE
 70
0
 10
0.0
 20
0.0
 11
1.0
 21
1.0
 12
4.25
 22
5.5
 13
0.0
 23
0.0
 14
1.0
 24
1.0
 15
0.0
 25
0.0
 16
0.0
 26
0.0
 36
1.0
 17
0.0
 27
0.0
 37
0.0
 40
11.0
 41
0.7727272727
 42
50.0
 43
0.0
 44
0.0
 50
0.0
 51
0.0
 71
0
 72
100
 73
1
 74
1
 75
0
 76
0
 77
0
 78
0
  0
ENDTAB
  0
TABLE
  2
LTYPE
  5
5
100
AcDbSymbolTable
 70
6
  0
LTYPE
  5
14
100
AcDbSymbolTableRecord
100
AcDbLinetypeTableRecord
  2
BYBLOCK
 70
0
  3

 72
65
 73
0
 40
0.0
  0
LTYPE
  5
15
100
AcDbSymbolTableRecord
100
AcDbLinetypeTableRecord
  2
BYLAYER
 70
0
  3

 72
65
 73
0
 40
0.0
  0
LTYPE
  5
16
100
AcDbSymbolTableRecord
100
AcDbLinetypeTableRecord
  2
CONTINUOUS
 70
64
  3
Solid line
 72
65
 73
0
 40
0.0
  0
LTYPE
  5
1F5
100
AcDbSymbolTableRecord
100
AcDbLinetypeTableRecord
  2
CENTER
 70
64
  3
____ _ ____ _ ____ _ ____ _ ____ _ ____ _ ____
 72
65
 73
4
 40
0.6
 49
0.375
 74
0
 49
-0.075
 74
0
 49
0.075
 74
0
 49
-0.075
 74
0
  0
LTYPE
  5
1F6
100
AcDbSymbolTableRecord
100
AcDbLinetypeTableRecord
  2
HIDDEN
 70
64
  3
- - - - - - - - - - - - - - - - - - - -
 72
65
 73
2
 40
0.2
 49
0.1
 74
0
 49
-0.1
 74
0
  0
LTYPE
  5
1F7
100
AcDbSymbolTableRecord
100
AcDbLinetypeTableRecord
  2
PHANTOM
 70
64
  3
_____ _ _ _____ _ _ _____ _ _ _____
 72
65
 73
6
 40
0.8
 49
0.45
 74
0
 49
-0.05
 74
0
 49
0.1
 74
0
 49
-0.05
 74
0
 49
0.1
 74
0
 49
-0.05
 74
0
  0
LTYPE
  5
1F8
100
AcDbSymbolTableRecord
100
AcDbLinetypeTableRecord
  2
DOT
 70
64
  3
. . . . . . . . . . . . . . . . . . . .
 72
65
 73
2
 40
0.2
 49
0.1
 74
0
 49
-0.1
 74
0
  0
LTYPE
  5
1F9
100
AcDbSymbolTableRecord
100
AcDbLinetypeTableRecord
  2
DASHED
 70
64
  3
- - - - - - - - - - - - - - - - - - - -
 72
65
 73
2
 40
0.2
 49
0.1
 74
0
 49
-0.1
 74
0
  0
ENDTAB
  0
TABLE
  2
LAYER
  5
2
100
AcDbSymbolTable
 70
36
  0
LAYER
  5
10
100
AcDbSymbolTableRecord
100
AcDbLayerTableRecord
  2
0
 70
0
 62
7
  6
CONTINUOUS
370
-3
390
F
  0
LAYER
  5
1FA
100
AcDbSymbolTableRecord
100
AcDbLayerTableRecord
  2
DEFAULT_1
 70
0
 62
7
  6
CENTER
370
-3
390
F
  0
LAYER
  5
1FB
100
AcDbSymbolTableRecord
100
AcDbLayerTableRecord
  2
DEFAULT_2
 70
0
 62
8
  6
HIDDEN
370
-3
390
F
  0
LAYER
  5
1FC
100
AcDbSymbolTableRecord
100
AcDbLayerTableRecord
  2
DEFAULT_3
 70
0
 62
7
  6
PHANTOM
370
-3
390
F
  0
LAYER
  5
1FD
100
AcDbSymbolTableRecord
100
AcDbLayerTableRecord
  2
1-134
 70
0
 62
7
  6
CONTINUOUS
370
-3
390
F
  0
LAYER
  5
1FE
100
AcDbSymbolTableRecord
100
AcDbLayerTableRecord
  2
1-134_1
 70
0
 62
7
  6
CONTINUOUS
370
-3
390
F
  0
LAYER
  5
1FF
100
AcDbSymbolTableRecord
100
AcDbLayerTableRecord
  2
1-257_1
 70
0
 62
7
  6
CONTINUOUS
370
-3
390
F
  0
LAYER
  5
200
100
AcDbSymbolTableRecord
100
AcDbLayerTableRecord
  2
1-257_2
 70
0
 62
7
  6
CONTINUOUS
370
-3
390
F
  0
LAYER
  5
201
100
AcDbSymbolTableRecord
100
AcDbLayerTableRecord
  2
10182
 70
0
 62
7
  6
CONTINUOUS
370
-3
390
F
  0
LAYER
  5
202
100
AcDbSymbolTableRecord
100
AcDbLayerTableRecord
  2
10182_1
 70
0
 62
7
  6
CONTINUOUS
370
-3
390
F
  0
LAYER
  5
203
100
AcDbSymbolTableRecord
100
AcDbLayerTableRecord
  2
10182_2
 70
0
 62
7
  6
CONTINUOUS
370
-3
390
F
  0
LAYER
  5
204
100
AcDbSymbolTableRecord
100
AcDbLayerTableRecord
  2
403-1
 70
0
 62
7
  6
CONTINUOUS
370
-3
390
F
  0
LAYER
  5
205
100
AcDbSymbolTableRecord
100
AcDbLayerTableRecord
  2
403-1_1
 70
0
 62
7
  6
CONTINUOUS
370
-3
390
F
  0
LAYER
  5
206
100
AcDbSymbolTableRecord
100
AcDbLayerTableRecord
  2
432
 70
0
 62
7
  6
CONTINUOUS
370
-3
390
F
  0
LAYER
  5
207
100
AcDbSymbolTableRecord
100
AcDbLayerTableRecord
  2
432_1
 70
0
 62
7
  6
CONTINUOUS
370
-3
390
F
  0
LAYER
  5
208
100
AcDbSymbolTableRecord
100
AcDbLayerTableRecord
  2
441
 70
0
 62
7
  6
CONTINUOUS
370
-3
390
F
  0
LAYER
  5
209
100
AcDbSymbolTableRecord
100
AcDbLayerTableRecord
  2
441_1
 70
0
 62
7
  6
CONTINUOUS
370
-3
390
F
  0
LAYER
  5
20A
100
AcDbSymbolTableRecord
100
AcDbLayerTableRecord
  2
50359
 70
0
 62
7
  6
CONTINUOUS
370
-3
390
F
  0
LAYER
  5
20B
100
AcDbSymbolTableRecord
100
AcDbLayerTableRecord
  2
50359_1
 70
0
 62
7
  6
CONTINUOUS
370
-3
390
F
  0
LAYER
  5
20C
100
AcDbSymbolTableRecord
100
AcDbLayerTableRecord
  2
50362
 70
0
 62
7
  6
CONTINUOUS
370
-3
390
F
  0
LAYER
  5
20D
100
AcDbSymbolTableRecord
100
AcDbLayerTableRecord
  2
50362_1
 70
0
 62
7
  6
CONTINUOUS
370
-3
390
F
  0
LAYER
  5
20E
100
AcDbSymbolTableRecord
100
AcDbLayerTableRecord
  2
50680
 70
0
 62
7
  6
CONTINUOUS
370
-3
390
F
  0
LAYER
  5
20F
100
AcDbSymbolTableRecord
100
AcDbLayerTableRecord
  2
50680_1
 70
0
 62
7
  6
CONTINUOUS
370
-3
390
F
  0
LAYER
  5
210
100
AcDbSymbolTableRecord
100
AcDbLayerTableRecord
  2
50680_2
 70
0
 62
7
  6
CONTINUOUS
370
-3
390
F
  0
LAYER
  5
211
100
AcDbSymbolTableRecord
100
AcDbLayerTableRecord
  2
50729
 70
0
 62
7
  6
CONTINUOUS
370
-3
390
F
  0
LAYER
  5
212
100
AcDbSymbolTableRecord
100
AcDbLayerTableRecord
  2
50729_1
 70
0
 62
7
  6
CONTINUOUS
370
-3
390
F
  0
LAYER
  5
213
100
AcDbSymbolTableRecord
100
AcDbLayerTableRecord
  2
50733
 70
0
 62
7
  6
CONTINUOUS
370
-3
390
F
  0
LAYER
  5
214
100
AcDbSymbolTableRecord
100
AcDbLayerTableRecord
  2
50733_1
 70
0
 62
7
  6
CONTINUOUS
370
-3
390
F
  0
LAYER
  5
215
100
AcDbSymbolTableRecord
100
AcDbLayerTableRecord
  2
50738
 70
0
 62
7
  6
CONTINUOUS
370
-3
390
F
  0
LAYER
  5
216
100
AcDbSymbolTableRecord
100
AcDbLayerTableRecord
  2
50738_1
 70
0
 62
7
  6
CONTINUOUS
370
-3
390
F
  0
LAYER
  5
217
100
AcDbSymbolTableRecord
100
AcDbLayerTableRecord
  2
50741
 70
0
 62
7
  6
CONTINUOUS
370
-3
390
F
  0
LAYER
  5
218
100
AcDbSymbolTableRecord
100
AcDbLayerTableRecord
  2
50741_1
 70
0
 62
7
  6
CONTINUOUS
370
-3
390
F
  0
LAYER
  5
219
100
AcDbSymbolTableRecord
100
AcDbLayerTableRecord
  2
50742
 70
0
 62
7
  6
CONTINUOUS
370
-3
390
F
  0
LAYER
  5
21A
100
AcDbSymbolTableRecord
100
AcDbLayerTableRecord
  2
50742_1
 70
0
 62
7
  6
CONTINUOUS
370
-3
390
F
  0
LAYER
  5
21B
100
AcDbSymbolTableRecord
100
AcDbLayerTableRecord
  2
50743
 70
0
 62
7
  6
CONTINUOUS
370
-3
390
F
  0
LAYER
  5
21C
100
AcDbSymbolTableRecord
100
AcDbLayerTableRecord
  2
50743_1
 70
0
 62
7
  6
CONTINUOUS
370
-3
390
F
  0
LAYER
  5
21D
100
AcDbSymbolTableRecord
100
AcDbLayerTableRecord
  2
50846
 70
0
 62
7
  6
CONTINUOUS
370
-3
390
F
  0
LAYER
  5
21E
100
AcDbSymbolTableRecord
100
AcDbLayerTableRecord
  2
6-034
 70
0
 62
7
  6
CONTINUOUS
370
-3
390
F
  0
LAYER
  5
21F
100
AcDbSymbolTableRecord
100
AcDbLayerTableRecord
  2
6-034_1
 70
0
 62
7
  6
CONTINUOUS
370
-3
390
F
  0
LAYER
  5
220
100
AcDbSymbolTableRecord
100
AcDbLayerTableRecord
  2
91022
 70
0
 62
7
  6
CONTINUOUS
370
-3
390
F
  0
LAYER
  5
221
100
AcDbSymbolTableRecord
100
AcDbLayerTableRecord
  2
91022_1
 70
0
 62
7
  6
CONTINUOUS
370
-3
390
F
  0
LAYER
  5
222
100
AcDbSymbolTableRecord
100
AcDbLayerTableRecord
  2
92087
 70
0
 62
7
  6
CONTINUOUS
370
-3
390
F
  0
LAYER
  5
223
100
AcDbSymbolTableRecord
100
AcDbLayerTableRecord
  2
92087_1
 70
0
 62
7
  6
CONTINUOUS
370
-3
390
F
  0
LAYER
  5
224
100
AcDbSymbolTableRecord
100
AcDbLayerTableRecord
  2
ALL_ASSEMBLY_MEMBERS
 70
0
 62
7
  6
CONTINUOUS
370
-3
390
F
  0
LAYER
  5
225
100
AcDbSymbolTableRecord
100
AcDbLayerTableRecord
  2
COLOR147
 70
0
 62
7
  6
CONTINUOUS
370
-3
390
F
  0
LAYER
  5
226
100
AcDbSymbolTableRecord
100
AcDbLayerTableRecord
  2
COLOR148
 70
0
 62
7
  6
CONTINUOUS
370
-3
390
F
  0
LAYER
  5
227
100
AcDbSymbolTableRecord
100
AcDbLayerTableRecord
  2
COLOR32
 70
0
 62
7
  6
CONTINUOUS
370
-3
390
F
  0
LAYER
  5
228
100
AcDbSymbolTableRecord
100
AcDbLayerTableRecord
  2
COLOR54
 70
0
 62
7
  6
CONTINUOUS
370
-3
390
F
  0
LAYER
  5
229
100
AcDbSymbolTableRecord
100
AcDbLayerTableRecord
  2
COLOR66
 70
0
 62
7
  6
CONTINUOUS
370
-3
390
F
  0
LAYER
  5
22A
100
AcDbSymbolTableRecord
100
AcDbLayerTableRecord
  2
DEFAULT_COORDINATE_SYSTEM
 70
0
 62
7
  6
CONTINUOUS
370
-3
390
F
  0
LAYER
  5
22B
100
AcDbSymbolTableRecord
100
AcDbLayerTableRecord
  2
DEFAULT_DATUM_AXES
 70
0
 62
7
  6
CONTINUOUS
370
-3
390
F
  0
LAYER
  5
22C
100
AcDbSymbolTableRecord
100
AcDbLayerTableRecord
  2
DEFAULT_DATUM_PLANES
 70
0
 62
7
  6
CONTINUOUS
370
-3
390
F
  0
LAYER
  5
22D
100
AcDbSymbolTableRecord
100
AcDbLayerTableRecord
  2
DEFAULT_SURFACES_1
 70
0
 62
7
  6
CONTINUOUS
370
-3
390
F
  0
LAYER
  5
22E
100
AcDbSymbolTableRecord
100
AcDbLayerTableRecord
  2
INTF_10182
 70
0
 62
7
  6
CONTINUOUS
370
-3
390
F
  0
LAYER
  5
22F
100
AcDbSymbolTableRecord
100
AcDbLayerTableRecord
  2
INTF_432
 70
0
 62
7
  6
CONTINUOUS
370
-3
390
F
  0
LAYER
  5
230
100
AcDbSymbolTableRecord
100
AcDbLayerTableRecord
  2
INTF_441
 70
0
 62
7
  6
CONTINUOUS
370
-3
390
F
  0
LAYER
  5
231
100
AcDbSymbolTableRecord
100
AcDbLayerTableRecord
  2
INTF_50359
 70
0
 62
7
  6
CONTINUOUS
370
-3
390
F
  0
LAYER
  5
232
100
AcDbSymbolTableRecord
100
AcDbLayerTableRecord
  2
INTF_50362
 70
0
 62
7
  6
CONTINUOUS
370
-3
390
F
  0
LAYER
  5
233
100
AcDbSymbolTableRecord
100
AcDbLayerTableRecord
  2
INTF_50680
 70
0
 62
7
  6
CONTINUOUS
370
-3
390
F
  0
LAYER
  5
234
100
AcDbSymbolTableRecord
100
AcDbLayerTableRecord
  2
INTF_50729
 70
0
 62
7
  6
CONTINUOUS
370
-3
390
F
  0
LAYER
  5
235
100
AcDbSymbolTableRecord
100
AcDbLayerTableRecord
  2
INTF_50733
 70
0
 62
7
  6
CONTINUOUS
370
-3
390
F
  0
LAYER
  5
236
100
AcDbSymbolTableRecord
100
AcDbLayerTableRecord
  2
INTF_50738
 70
0
 62
7
  6
CONTINUOUS
370
-3
390
F
  0
LAYER
  5
237
100
AcDbSymbolTableRecord
100
AcDbLayerTableRecord
  2
INTF_50741
 70
0
 62
7
  6
CONTINUOUS
370
-3
390
F
  0
LAYER
  5
238
100
AcDbSymbolTableRecord
100
AcDbLayerTableRecord
  2
INTF_50742
 70
0
 62
7
  6
CONTINUOUS
370
-3
390
F
  0
LAYER
  5
239
100
AcDbSymbolTableRecord
100
AcDbLayerTableRecord
  2
INTF_50743
 70
0
 62
7
  6
CONTINUOUS
370
-3
390
F
  0
LAYER
  5
23A
100
AcDbSymbolTableRecord
100
AcDbLayerTableRecord
  2
INTF_50846
 70
0
 62
7
  6
CONTINUOUS
370
-3
390
F
  0
LAYER
  5
23B
100
AcDbSymbolTableRecord
100
AcDbLayerTableRecord
  2
INTF_91022
 70
0
 62
7
  6
CONTINUOUS
370
-3
390
F
  0
LAYER
  5
23C
100
AcDbSymbolTableRecord
100
AcDbLayerTableRecord
  2
INTF_92087
 70
0
 62
7
  6
CONTINUOUS
370
-3
390
F
  0
LAYER
  5
23D
100
AcDbSymbolTableRecord
100
AcDbLayerTableRecord
  2
INTF_BLANK
 70
0
 62
7
  6
CONTINUOUS
370
-3
390
F
  0
LAYER
  5
23E
100
AcDbSymbolTableRecord
100
AcDbLayerTableRecord
  2
QUILT
 70
0
 62
7
  6
CONTINUOUS
370
-3
390
F
  0
LAYER
  5
23F
100
AcDbSymbolTableRecord
100
AcDbLayerTableRecord
  2
QUILT_1
 70
0
 62
7
  6
CONTINUOUS
370
-3
390
F
  0
LAYER
  5
240
100
AcDbSymbolTableRecord
100
AcDbLayerTableRecord
  2
SURFACES
 70
0
 62
7
  6
CONTINUOUS
370
-3
390
F
  0
LAYER
  5
241
100
AcDbSymbolTableRecord
100
AcDbLayerTableRecord
  2
WETTED_SURFACES
 70
0
 62
7
  6
CONTINUOUS
370
-3
390
F
  0
LAYER
  5
242
100
AcDbSymbolTableRecord
100
AcDbLayerTableRecord
  2
WETTED_SURFACES_1
 70
0
 62
7
  6
CONTINUOUS
370
-3
390
F
  0
LAYER
  5
243
100
AcDbSymbolTableRecord
100
AcDbLayerTableRecord
  2
_BLACK_HOLE
 70
0
 62
7
  6
CONTINUOUS
370
-3
390
F
  0
ENDTAB
  0
TABLE
  2
STYLE
  5
3
100
AcDbSymbolTable
 70
1
  0
STYLE
  5
11
100
AcDbSymbolTableRecord
100
AcDbTextStyleTableRecord
  2
STANDARD
 70
0
 40
0.0
 41
0.8
 50
0.0
 71
0
 42
0.2
  3
txt
  4

  0
STYLE
  5
244
100
AcDbSymbolTableRecord
100
AcDbTextStyleTableRecord
  2
TEXTSTYLE_1
 70
0
 40
0.0
 41
0.8
 50
0.0
 71
0
 42
0.2
  3
gdt
  4

  0
ENDTAB
  0
TABLE
  2
VIEW
  5
6
100
AcDbSymbolTable
 70
0
  0
ENDTAB
  0
TABLE
  2
UCS
  5
7
100
AcDbSymbolTable
 70
0
  0
ENDTAB
  0
TABLE
  2
APPID
  5
9
100
AcDbSymbolTable
 70
1
  0
APPID
  5
245
100
AcDbSymbolTableRecord
100
AcDbRegAppTableRecord
  2
ACAD
 70
0
  0
ENDTAB
  0
TABLE
  2
BLOCK_RECORD
  5
1
100
AcDbSymbolTable
 70
0
  0
BLOCK_RECORD
  5
246
100
AcDbSymbolTableRecord
100
AcDbBlockTableRecord
  2
*Model_Space
  0
BLOCK_RECORD
  5
247
100
AcDbSymbolTableRecord
100
AcDbBlockTableRecord
  2
*Paper_Space
  0
BLOCK_RECORD
  5
248
100
AcDbSymbolTableRecord
100
AcDbBlockTableRecord
  2
_FILLED
  0
ENDTAB
  0
TABLE
  2
DIMSTYLE
  5
A
100
AcDbSymbolTable
 70
1
100
AcDbDimStyleTable
 71
0
  0
DIMSTYLE
105
249
100
AcDbSymbolTableRecord
100
AcDbDimStyleTableRecord
  2
STANDARD
 70
0
  3

  4

 40
1.0
 41
0.1
 42
0.0625
 43
0.38
 44
0.125
 45
0.0
 46
0.0
 47
0.001
 48
0.001
140
0.08
141
0.09
142
0.0
143
25.4
144
1.0
145
0.0
146
1.0
147
0.09
 71
1.0
 72
0.0
 73
1
 74
1
 75
0
 76
0
 77
0
 78
4
 79
1
170
1
171
2
172
0
173
0
174
0
175
0
176
0
177
0
178
0
270
2
179
3
271
3
272
3
273
2
274
2
275
0
280
0
281
0
282
0
283
1
284
4
285
0
286
0
287
3
288
0
340
11
278
46
341
248
342
248
343
248
344
248
  0
ENDTAB
  0
ENDSEC
  0
SECTION
  2
BLOCKS
  0
BLOCK
  5
20
100
AcDbEntity
  8
0
100
AcDbBlockBegin
  2
*Model_Space
 70
0
 10
0.0
 20
0.0
 30
0.0
  3
*Model_Space
  1

  0
ENDBLK
  5
21
100
AcDbEntity
  8
0
100
AcDbBlockEnd
  0
BLOCK
  5
1C
100
AcDbEntity
  8
0
100
AcDbBlockBegin
  2
*Paper_Space
 70
0
 10
0.0
 20
0.0
 30
0.0
  3
*Paper_Space
  1

  0
ENDBLK
  5
1D
100
AcDbEntity
  8
0
100
AcDbBlockEnd
  0
BLOCK
  5
24A
100
AcDbEntity
  8
0
100
AcDbBlockBegin
  2
_FILLED
 70
64
 10
0.0
 20
0.0
  3
_FILLED
  1

  0
SOLID
  5
24B
100
AcDbEntity
  8
0
  6
BYBLOCK
 62
0
100
AcDbTrace
 10
0.0
 20
0.0
 11
-1.0
 21
0.2
 12
-1.0
 22
-0.2
 13
-1.0
 23
-0.2
  0
ENDBLK
  5
24C
100
AcDbEntity
  8
0
  6
BYBLOCK
 62
0
100
AcDbBlockEnd
  0
ENDSEC
  0
SECTION
  2
ENTITIES
  0
MTEXT
  5
24D
100
AcDbEntity
  8
0
100
AcDbMText
 62
7
  6
CONTINUOUS
  7
STANDARD
 71
1
 72
1
 10
7.0170807453
 20
0.4089440994
 30
0.0
 11
1.0
 21
0.0
 31
0.0
 73
2
 44
0.9
  1
SCALE: .50
 40
0.08
 41
0.64
  0
LINE
  5
24E
100
AcDbEntity
  8
0
100
AcDbLine
 62
7
  6
CONTINUOUS
 10
0.0
 20
0.0
 11
8.5
 21
0.0
  0
LINE
  5
24F
100
AcDbEntity
  8
0
100
AcDbLine
 62
7
  6
CONTINUOUS
 10
0.0
 20
0.0
 11
0.0
 21
11.0
  0
LINE
  5
250
100
AcDbEntity
  8
0
100
AcDbLine
 62
7
  6
CONTINUOUS
 10
8.5
 20
0.0
 11
8.5
 21
11.0
  0
LINE
  5
251
100
AcDbEntity
  8
0
100
AcDbLine
 62
7
  6
CONTINUOUS
 10
0.0
 20
11.0
 11
8.5
 21
11.0
  0
LINE
  5
252
100
AcDbEntity
  8
0
100
AcDbLine
 62
7
  6
CONTINUOUS
 10
5.6180186335
 20
0.0923175363
 11
5.5625271658
 21
0.0923175363
  0
LINE
  5
253
100
AcDbEntity
  8
0
100
AcDbLine
 62
7
  6
CONTINUOUS
 10
2.1298020597
 20
0.1196425363
 11
2.3222352073
 21
0.1196425363
  0
LINE
  5
254
100
AcDbEntity
  8
0
100
AcDbLine
 62
7
  6
CONTINUOUS
 10
2.7572686335
 20
10.7948843968
 11
2.7592686335
 21
10.7960675363
  0
LINE
  5
255
100
AcDbEntity
  8
0
100
AcDbLine
 62
7
  6
CONTINUOUS
 10
4.4580186335
 20
0.4673175363
 11
4.0510186335
 21
0.4673175363
  0
LINE
  5
256
100
AcDbEntity
  8
0
100
AcDbLine
 62
7
  6
CONTINUOUS
 10
4.0010186335
 20
0.4673175363
 11
2.6010186335
 21
0.4673175363
  0
LINE
  5
257
100
AcDbEntity
  8
0
100
AcDbLine
 62
7
  6
CONTINUOUS
 10
2.4310186335
 20
0.4673175363
 11
2.5860186335
 21
0.4673175363
  0
LINE
  5
258
100
AcDbEntity
  8
0
100
AcDbLine
 62
7
  6
CONTINUOUS
 10
2.6010186335
 20
0.5103175363
 11
2.5910186335
 21
0.5103175363
  0
LINE
  5
259
100
AcDbEntity
  8
0
100
AcDbLine
 62
7
  6
CONTINUOUS
 10
4.0410186335
 20
0.5338175363
 11
4.0010186335
 21
0.5338175363
  0
LINE
  5
25A
100
AcDbEntity
  8
0
100
AcDbLine
 62
7
  6
CONTINUOUS
 10
2.0860186335
 20
0.5398175363
 11
2.1245186335
 21
0.5398175363
  0
LINE
  5
25B
100
AcDbEntity
  8
0
100
AcDbLine
 62
7
  6
CONTINUOUS
 10
2.3275186335
 20
0.5398175363
 11
2.3660186335
 21
0.5398175363
  0
LINE
  5
25C
100
AcDbEntity
  8
0
100
AcDbLine
 62
7
  6
CONTINUOUS
 10
4.3655186335
 20
0.5714031779
 11
4.4580186335
 21
0.5714031779
  0
LINE
  5
25D
100
AcDbEntity
  8
0
100
AcDbLine
 62
7
  6
CONTINUOUS
 10
2.3660186335
 20
0.6048175363
 11
2.4260186335
 21
0.6048175363
  0
LINE
  5
25E
100
AcDbEntity
  8
0
100
AcDbLine
 62
7
  6
CONTINUOUS
 10
2.3255042049
 20
0.5409807692
 11
2.3255062077
 21
0.5409796643
  0
LINE
  5
25F
100
AcDbEntity
  8
0
100
AcDbLine
 62
7
  6
CONTINUOUS
 10
2.3254663473
 20
0.5409851582
 11
2.3275186335
 21
0.5398175363
  0
LINE
  5
260
100
AcDbEntity
  8
0
100
AcDbLine
 62
7
  6
CONTINUOUS
 10
2.3270264968
 20
0.5401080088
 11
2.3275186336
 21
0.5398175363
  0
LINE
  5
261
100
AcDbEntity
  8
0
100
AcDbLine
 62
7
  6
CONTINUOUS
 10
3.1927686335
 20
10.5910675363
 11
3.1947686335
 21
10.5922506759
  0
LINE
  5
262
100
AcDbEntity
  8
0
100
AcDbLine
 62
7
  6
CONTINUOUS
 10
2.3660186335
 20
0.8298175363
 11
2.4260186335
 21
0.8298175363
  0
LINE
  5
263
100
AcDbEntity
  8
0
100
AcDbLine
 62
7
  6
CONTINUOUS
 10
4.4580186335
 20
0.8632318948
 11
4.3655186335
 21
0.8632318948
  0
LINE
  5
264
100
AcDbEntity
  8
0
100
AcDbLine
 62
7
  6
CONTINUOUS
 10
2.0860186335
 20
0.8948175363
 11
2.3660186335
 21
0.8948175363
  0
LINE
  5
265
100
AcDbEntity
  8
0
100
AcDbLine
 62
7
  6
CONTINUOUS
 10
4.0010186335
 20
0.9008175363
 11
4.0410186335
 21
0.9008175363
  0
LINE
  5
266
100
AcDbEntity
  8
0
100
AcDbLine
 62
7
  6
CONTINUOUS
 10
2.6010186335
 20
0.9243175363
 11
2.5910186335
 21
0.9243175363
  0
LINE
  5
267
100
AcDbEntity
  8
0
100
AcDbLine
 62
7
  6
CONTINUOUS
 10
4.0010186335
 20
0.9673175363
 11
3.2460705558
 21
0.9673175363
  0
LINE
  5
268
100
AcDbEntity
  8
0
100
AcDbLine
 62
7
  6
CONTINUOUS
 10
2.705966711
 20
0.9673175363
 11
2.6010186335
 21
0.9673175363
  0
LINE
  5
269
100
AcDbEntity
  8
0
100
AcDbLine
 62
7
  6
CONTINUOUS
 10
2.4310186335
 20
0.9673175363
 11
2.5860186335
 21
0.9673175363
  0
LINE
  5
26A
100
AcDbEntity
  8
0
100
AcDbLine
 62
7
  6
CONTINUOUS
 10
4.0510186335
 20
0.9673175363
 11
4.4580186335
 21
0.9673175363
  0
LWPOLYLINE
  5
26B
100
AcDbEntity
  8
0
100
AcDbPolyline
 62
7
  6
CONTINUOUS
 90
13
 70
0
 10
3.2460186328
 20
0.9673175357
 10
3.2455407259
 20
0.9673232464
 10
3.2426117413
 20
0.9676098446
 10
3.2397242591
 20
0.9683338359
 10
3.2369642467
 20
0.9694844741
 10
3.2344412698
 20
0.9710091128
 10
3.2321461233
 20
0.9729108195
 10
3.2301585646
 20
0.9751331921
 10
3.228539408
 20
0.9775976237
 10
3.2272858237
 20
0.9803116916
 10
3.2264534354
 20
0.9831698808
 10
3.2260565686
 20
0.9860862834
 10
3.2260186331
 20
0.9873157962
  0
LINE
  5
26C
100
AcDbEntity
  8
0
100
AcDbLine
 62
7
  6
CONTINUOUS
 10
2.9904863856
 20
1.137326048
 11
2.9615273652
 21
1.1366316177
  0
LINE
  5
26D
100
AcDbEntity
  8
0
100
AcDbLine
 62
7
  6
CONTINUOUS
 10
2.7260186335
 20
1.0923175363
 11
3.2260186335
 21
1.0923175363
  0
LINE
  5
26E
100
AcDbEntity
  8
0
100
AcDbLine
 62
7
  6
CONTINUOUS
 10
3.1535186335
 20
1.1423175363
 11
2.7985186335
 21
1.1423175363
  0
LINE
  5
26F
100
AcDbEntity
  8
0
100
AcDbLine
 62
7
  6
CONTINUOUS
 10
5.5625271658
 20
1.3423175363
 11
5.6180186335
 21
1.3423175363
  0
LINE
  5
270
100
AcDbEntity
  8
0
100
AcDbLine
 62
7
  6
CONTINUOUS
 10
2.8675474392
 20
1.3573175363
 11
3.0844898279
 21
1.3573175363
  0
LINE
  5
271
100
AcDbEntity
  8
0
100
AcDbLine
 62
7
  6
CONTINUOUS
 10
2.8389917863
 20
1.1308994743
 11
2.8483063536
 21
1.1255131225
  0
LINE
  5
272
100
AcDbEntity
  8
0
100
AcDbLine
 62
7
  6
CONTINUOUS
 10
3.1144017775
 20
1.1300778253
 11
3.1037632239
 21
1.1362282034
  0
LINE
  5
273
100
AcDbEntity
  8
0
100
AcDbLine
 62
7
  6
CONTINUOUS
 10
2.8376062037
 20
1.1108930333
 11
2.8483599181
 21
1.104671921
  0
LINE
  5
274
100
AcDbEntity
  8
0
100
AcDbLine
 62
7
  6
CONTINUOUS
 10
3.1144011724
 20
1.1092089339
 11
3.1037050462
 21
1.1153953989
  0
LINE
  5
275
100
AcDbEntity
  8
0
100
AcDbLine
 62
7
  6
CONTINUOUS
 10
2.7985186335
 20
1.4273175363
 11
3.1535186335
 21
1.4273175363
  0
LINE
  5
276
100
AcDbEntity
  8
0
100
AcDbLine
 62
9
  6
CONTINUOUS
 10
2.705966711
 20
0.9673175363
 11
2.9760186335
 21
0.7173175363
  0
LINE
  5
277
100
AcDbEntity
  8
0
100
AcDbLine
 62
9
  6
CONTINUOUS
 10
2.818630245
 20
0.8873072275
 11
2.726027579
 21
0.9873076459
  0
LWPOLYLINE
  5
278
100
AcDbEntity
  8
0
100
AcDbPolyline
 62
9
  6
CONTINUOUS
 90
3
 70
0
 10
2.7273615831
 20
0.985866833
 10
2.7261659502
 20
0.987202568
 10
2.7260186335
 20
0.987369458
  0
LINE
  5
279
100
AcDbEntity
  8
0
100
AcDbLine
 62
7
  6
CONTINUOUS
 10
4.0410186335
 20
0.5295175363
 11
4.0454932294
 21
0.5250429405
  0
LINE
  5
27A
100
AcDbEntity
  8
0
100
AcDbLine
 62
7
  6
CONTINUOUS
 10
2.0860186335
 20
0.8948175363
 11
2.0860186335
 21
0.5398175363
  0
LINE
  5
27B
100
AcDbEntity
  8
0
100
AcDbLine
 62
7
  6
CONTINUOUS
 10
2.1297686335
 20
0.1196425363
 11
2.1297686335
 21
0.5427595242
  0
LINE
  5
27C
100
AcDbEntity
  8
0
100
AcDbLine
 62
7
  6
CONTINUOUS
 10
2.3222686335
 20
0.1196425363
 11
2.3222686335
 21
0.5427595244
  0
LINE
  5
27D
100
AcDbEntity
  8
0
100
AcDbLine
 62
7
  6
CONTINUOUS
 10
2.3660186335
 20
0.8948175363
 11
2.3660186335
 21
0.5398175363
  0
LINE
  5
27E
100
AcDbEntity
  8
0
100
AcDbLine
 62
9
  6
CONTINUOUS
 10
2.4260186335
 20
0.9622792986
 11
2.4260186335
 21
0.4723557741
  0
LINE
  5
27F
100
AcDbEntity
  8
0
100
AcDbLine
 62
9
  6
CONTINUOUS
 10
2.4310186335
 20
0.9673175363
 11
2.4310186335
 21
0.4676007015
  0
LINE
  5
280
100
AcDbEntity
  8
0
100
AcDbLine
 62
9
  6
CONTINUOUS
 10
2.5860186335
 20
0.4673175363
 11
2.5860186335
 21
0.9673175363
  0
LINE
  5
281
100
AcDbEntity
  8
0
100
AcDbLine
 62
9
  6
CONTINUOUS
 10
2.5910186335
 20
0.9622792986
 11
2.5910186335
 21
0.4723557741
  0
LINE
  5
282
100
AcDbEntity
  8
0
100
AcDbLine
 62
7
  6
CONTINUOUS
 10
2.6010186335
 20
0.4673568176
 11
2.6010186335
 21
0.9670001314
  0
LINE
  5
283
100
AcDbEntity
  8
0
100
AcDbLine
 62
7
  6
CONTINUOUS
 10
2.7260186335
 20
1.0923175363
 11
2.7260186335
 21
0.987369458
  0
LINE
  5
284
100
AcDbEntity
  8
0
100
AcDbLine
 62
7
  6
CONTINUOUS
 10
2.7572686335
 20
10.5922513031
 11
2.7572686335
 21
10.7948837696
  0
LINE
  5
285
100
AcDbEntity
  8
0
100
AcDbLine
 62
7
  6
CONTINUOUS
 10
2.7592686335
 20
10.7960675363
 11
2.7592686335
 21
10.8410675363
  0
LINE
  5
286
100
AcDbEntity
  8
0
100
AcDbLine
 62
7
  6
CONTINUOUS
 10
2.8483049158
 20
1.1258130091
 11
2.8483063536
 21
1.1255131225
  0
LINE
  5
287
100
AcDbEntity
  8
0
100
AcDbLine
 62
7
  6
CONTINUOUS
 10
2.8483592852
 20
1.1049764569
 11
2.8483599181
 21
1.104671921
  0
LINE
  5
288
100
AcDbEntity
  8
0
100
AcDbLine
 62
7
  6
CONTINUOUS
 10
2.77184511
 20
10.7769891898
 11
2.77184511
 21
10.6101458828
  0
LINE
  5
289
100
AcDbEntity
  8
0
100
AcDbLine
 62
7
  6
CONTINUOUS
 10
2.7985186335
 20
1.1423175363
 11
2.7985186335
 21
1.4273175363
  0
LINE
  5
28A
100
AcDbEntity
  8
0
100
AcDbLine
 62
7
  6
CONTINUOUS
 10
2.8374936335
 20
1.0923175363
 11
2.8374936335
 21
1.0986976235
  0
LINE
  5
28B
100
AcDbEntity
  8
0
100
AcDbLine
 62
7
  6
CONTINUOUS
 10
2.8374936335
 20
1.1109374492
 11
2.8374936335
 21
1.1195309568
  0
LINE
  5
28C
100
AcDbEntity
  8
0
100
AcDbLine
 62
7
  6
CONTINUOUS
 10
2.8374936335
 20
1.1317707825
 11
2.8374936335
 21
1.1403642901
  0
LINE
  5
28D
100
AcDbEntity
  8
0
100
AcDbLine
 62
7
  6
CONTINUOUS
 10
2.8547686335
 20
10.5910675363
 11
2.8547686335
 21
10.5595675363
  0
LINE
  5
28E
100
AcDbEntity
  8
0
100
AcDbLine
 62
7
  6
CONTINUOUS
 10
2.8675474392
 20
1.4273175363
 11
2.8675474392
 21
1.3573175363
  0
LINE
  5
28F
100
AcDbEntity
  8
0
100
AcDbLine
 62
7
  6
CONTINUOUS
 10
2.8822686335
 20
1.4273175363
 11
2.8822686335
 21
10.5595675363
  0
LINE
  5
290
100
AcDbEntity
  8
0
100
AcDbLine
 62
7
  6
CONTINUOUS
 10
2.9614421571
 20
10.6101458828
 11
2.9614421571
 21
10.7769891898
  0
LINE
  5
291
100
AcDbEntity
  8
0
100
AcDbLine
 62
7
  6
CONTINUOUS
 10
2.99059511
 20
10.7769891898
 11
2.99059511
 21
10.6101458828
  0
LINE
  5
292
100
AcDbEntity
  8
0
100
AcDbLine
 62
7
  6
CONTINUOUS
 10
3.0697686335
 20
10.5595675363
 11
3.0697686335
 21
1.4273175363
  0
LINE
  5
293
100
AcDbEntity
  8
0
100
AcDbLine
 62
7
  6
CONTINUOUS
 10
3.0844898279
 20
1.3573175363
 11
3.0844898279
 21
1.4273175363
  0
LINE
  5
294
100
AcDbEntity
  8
0
100
AcDbLine
 62
7
  6
CONTINUOUS
 10
3.0972686335
 20
10.5595675363
 11
3.0972686335
 21
10.5910675363
  0
LINE
  5
295
100
AcDbEntity
  8
0
100
AcDbLine
 62
7
  6
CONTINUOUS
 10
3.1145436335
 20
1.1299476235
 11
3.1145436335
 21
1.1213541158
  0
LINE
  5
296
100
AcDbEntity
  8
0
100
AcDbLine
 62
7
  6
CONTINUOUS
 10
3.1145436335
 20
1.1091142901
 11
3.1145436335
 21
1.0923175363
  0
LINE
  5
297
100
AcDbEntity
  8
0
100
AcDbLine
 62
7
  6
CONTINUOUS
 10
3.1037050462
 20
1.1153953989
 11
3.1037040119
 21
1.1150928173
  0
LWPOLYLINE
  5
298
100
AcDbEntity
  8
0
100
AcDbPolyline
 62
7
  6
CONTINUOUS
 90
13
 70
0
 10
2.7260186335
 20
0.9873157954
 10
2.7259807002
 20
0.9860863186
 10
2.7255838379
 20
0.9831699129
 10
2.7247514534
 20
0.9803117201
 10
2.7234978719
 20
0.977597648
 10
2.7218787171
 20
0.9751332123
 10
2.7198911593
 20
0.9729108355
 10
2.7175960129
 20
0.9710091247
 10
2.7150730353
 20
0.9694844825
 10
2.7123130214
 20
0.9683338412
 10
2.7094255372
 20
0.9676098473
 10
2.7064965503
 20
0.9673232472
 10
2.7060186336
 20
0.9673175363
  0
LINE
  5
299
100
AcDbEntity
  8
0
100
AcDbLine
 62
7
  6
CONTINUOUS
 10
3.1535186335
 20
1.4273175363
 11
3.1535186335
 21
1.1423175363
  0
LINE
  5
29A
100
AcDbEntity
  8
0
100
AcDbLine
 62
7
  6
CONTINUOUS
 10
3.1801921571
 20
10.6101458828
 11
3.1801921571
 21
10.7769891898
  0
LINE
  5
29B
100
AcDbEntity
  8
0
100
AcDbLine
 62
7
  6
CONTINUOUS
 10
3.1927686335
 20
10.7960675363
 11
3.1927686335
 21
10.8410675363
  0
LINE
  5
29C
100
AcDbEntity
  8
0
100
AcDbLine
 62
7
  6
CONTINUOUS
 10
3.1947686335
 20
10.7948837696
 11
3.1947686335
 21
10.5922513031
  0
LINE
  5
29D
100
AcDbEntity
  8
0
100
AcDbLine
 62
7
  6
CONTINUOUS
 10
3.2260186335
 20
0.9873694574
 11
3.2260186335
 21
1.0923175363
  0
LINE
  5
29E
100
AcDbEntity
  8
0
100
AcDbLine
 62
7
  6
CONTINUOUS
 10
4.0010186335
 20
0.967278255
 11
4.0010186335
 21
0.4673568176
  0
LINE
  5
29F
100
AcDbEntity
  8
0
100
AcDbLine
 62
7
  6
CONTINUOUS
 10
4.0410186335
 20
0.9051175363
 11
4.0410186335
 21
0.5295175363
  0
LINE
  5
2A0
100
AcDbEntity
  8
0
100
AcDbLine
 62
7
  6
CONTINUOUS
 10
4.0510186335
 20
0.4673175363
 11
4.0510186335
 21
0.9673175363
  0
LINE
  5
2A1
100
AcDbEntity
  8
0
100
AcDbLine
 62
7
  6
CONTINUOUS
 10
4.3630186335
 20
0.8596894085
 11
4.3630186335
 21
0.5749456641
  0
LINE
  5
2A2
100
AcDbEntity
  8
0
100
AcDbLine
 62
9
  6
CONTINUOUS
 10
4.3655186335
 20
0.5714031779
 11
4.3655186335
 21
0.8632318948
  0
LINE
  5
2A3
100
AcDbEntity
  8
0
100
AcDbLine
 62
7
  6
CONTINUOUS
 10
4.4580186335
 20
0.4673175363
 11
4.4580186335
 21
0.9673175363
  0
LINE
  5
2A4
100
AcDbEntity
  8
0
100
AcDbLine
 62
7
  6
CONTINUOUS
 10
5.3330186335
 20
0.9482626577
 11
5.3330186335
 21
0.4863724149
  0
LINE
  5
2A5
100
AcDbEntity
  8
0
100
AcDbLine
 62
9
  6
CONTINUOUS
 10
5.3434355324
 20
0.9828111827
 11
5.3434355324
 21
0.4518238899
  0
LINE
  5
2A6
100
AcDbEntity
  8
0
100
AcDbLine
 62
9
  6
CONTINUOUS
 10
5.5037637234
 20
0.1335312065
 11
5.5037637234
 21
1.3011038662
  0
LINE
  5
2A7
100
AcDbEntity
  8
0
100
AcDbLine
 62
9
  6
CONTINUOUS
 10
5.5625271658
 20
1.3423175363
 11
5.5625271658
 21
0.0923175363
  0
LINE
  5
2A8
100
AcDbEntity
  8
0
100
AcDbLine
 62
7
  6
CONTINUOUS
 10
5.6180186335
 20
1.3423175363
 11
5.6180186335
 21
0.0923175363
  0
LINE
  5
2A9
100
AcDbEntity
  8
0
100
AcDbLine
 62
7
  6
CONTINUOUS
 10
3.1145436335
 20
1.1213541158
 11
3.1144386616
 21
1.1212250254
  0
LINE
  5
2AA
100
AcDbEntity
  8
0
100
AcDbLine
 62
7
  6
CONTINUOUS
 10
2.8374936335
 20
1.1403642901
 11
2.8376273834
 21
1.1405100075
  0
LINE
  5
2AB
100
AcDbEntity
  8
0
100
AcDbLine
 62
7
  6
CONTINUOUS
 10
2.8374936335
 20
1.0986976235
 11
2.8376311095
 21
1.098845357
  0
LINE
  5
2AC
100
AcDbEntity
  8
0
100
AcDbLine
 62
7
  6
CONTINUOUS
 10
2.8374936335
 20
1.1195309568
 11
2.8376381639
 21
1.1196824339
  0
LINE
  5
2AD
100
AcDbEntity
  8
0
100
AcDbLine
 62
7
  6
CONTINUOUS
 10
4.0469749859
 20
0.5236998141
 11
4.0503581854
 21
0.5295547746
  0
LINE
  5
2AE
100
AcDbEntity
  8
0
100
AcDbLine
 62
9
  6
CONTINUOUS
 10
2.9760186335
 20
0.7173175363
 11
3.2460705558
 21
0.9673175363
  0
LINE
  5
2AF
100
AcDbEntity
  8
0
100
AcDbLine
 62
7
  6
CONTINUOUS
 10
4.0510186335
 20
0.9151175363
 11
4.0410186335
 21
0.9051175363
  0
LINE
  5
2B0
100
AcDbEntity
  8
0
100
AcDbLine
 62
7
  6
CONTINUOUS
 10
2.1245186335
 20
0.5398175363
 11
2.1250128818
 21
0.5401092004
  0
LINE
  5
2B1
100
AcDbEntity
  8
0
100
AcDbLine
 62
7
  6
CONTINUOUS
 10
2.8483592852
 20
1.1049764569
 11
2.8390802883
 21
1.0996084498
  0
LINE
  5
2B2
100
AcDbEntity
  8
0
100
AcDbLine
 62
7
  6
CONTINUOUS
 10
2.8483049158
 20
1.1258130091
 11
2.8390181013
 21
1.1204427596
  0
LINE
  5
2B3
100
AcDbEntity
  8
0
100
AcDbLine
 62
7
  6
CONTINUOUS
 10
3.1037040119
 20
1.1150928173
 11
3.1130192667
 21
1.120480699
  0
LINE
  5
2B4
100
AcDbEntity
  8
0
100
AcDbLine
 62
7
  6
CONTINUOUS
 10
3.1037614241
 20
1.1359318216
 11
3.1130756746
 21
1.1413167073
  0
LINE
  5
2B5
100
AcDbEntity
  8
0
100
AcDbLine
 62
7
  6
CONTINUOUS
 10
2.1245186336
 20
0.5398175363
 11
2.1265704819
 21
0.5409849156
  0
LINE
  5
2B6
100
AcDbEntity
  8
0
100
AcDbLine
 62
7
  6
CONTINUOUS
 10
2.7592686335
 20
10.5910675363
 11
2.7572686335
 21
10.5922506759
  0
LINE
  5
2B7
100
AcDbEntity
  8
0
100
AcDbLine
 62
7
  6
CONTINUOUS
 10
3.1947686335
 20
10.7948843968
 11
3.1927686335
 21
10.7960675363
  0
LINE
  5
2B8
100
AcDbEntity
  8
0
100
AcDbLine
 62
7
  6
CONTINUOUS
 10
3.0972686335
 20
10.5595675363
 11
2.8547686335
 21
10.5595675363
  0
LINE
  5
2B9
100
AcDbEntity
  8
0
100
AcDbLine
 62
7
  6
CONTINUOUS
 10
3.1927320189
 20
10.5910675363
 11
2.7593052482
 21
10.5910675363
  0
LINE
  5
2BA
100
AcDbEntity
  8
0
100
AcDbLine
 62
7
  6
CONTINUOUS
 10
2.7572686335
 20
10.6101458828
 11
2.77184511
 21
10.6101458828
  0
LINE
  5
2BB
100
AcDbEntity
  8
0
100
AcDbLine
 62
7
  6
CONTINUOUS
 10
2.9614421571
 20
10.6101458828
 11
2.99059511
 21
10.6101458828
  0
LINE
  5
2BC
100
AcDbEntity
  8
0
100
AcDbLine
 62
7
  6
CONTINUOUS
 10
3.1801921571
 20
10.6101458828
 11
3.1947686335
 21
10.6101458828
  0
LINE
  5
2BD
100
AcDbEntity
  8
0
100
AcDbLine
 62
7
  6
CONTINUOUS
 10
3.1947686335
 20
10.7769891898
 11
3.1801921571
 21
10.7769891898
  0
LINE
  5
2BE
100
AcDbEntity
  8
0
100
AcDbLine
 62
7
  6
CONTINUOUS
 10
2.99059511
 20
10.7769891898
 11
2.9614421571
 21
10.7769891898
  0
LINE
  5
2BF
100
AcDbEntity
  8
0
100
AcDbLine
 62
7
  6
CONTINUOUS
 10
2.77184511
 20
10.7769891898
 11
2.7572686335
 21
10.7769891898
  0
LINE
  5
2C0
100
AcDbEntity
  8
0
100
AcDbLine
 62
7
  6
CONTINUOUS
 10
2.7592686335
 20
10.7960675363
 11
3.1927686335
 21
10.7960675363
  0
LINE
  5
2C1
100
AcDbEntity
  8
0
100
AcDbLine
 62
7
  6
CONTINUOUS
 10
3.1927319069
 20
10.8410675363
 11
2.7593053602
 21
10.8410675363
  0
ARC
  5
2C2
100
AcDbEntity
  8
0
100
AcDbCircle
 62
7
  6
CONTINUOUS
 10
2.9066384652
 20
0.0445591175
 40
1.0570841605
100
AcDbArc
 50
92.3139859666
 51
92.7424716288
  0
ARC
  5
2C3
100
AcDbEntity
  8
0
100
AcDbCircle
 62
7
  6
CONTINUOUS
 10
2.210131831
 20
0.361001761
 40
0.2128123175
100
AcDbArc
 50
69.6040243398
 51
72.2627500364
  0
ARC
  5
2C4
100
AcDbEntity
  8
0
100
AcDbCircle
 62
7
  6
CONTINUOUS
 10
2.2403936181
 20
0.3653772519
 40
0.2081843055
100
AcDbArc
 50
107.7137718988
 51
110.4310746879
  0
ARC
  5
2C5
100
AcDbEntity
  8
0
100
AcDbCircle
 62
7
  6
CONTINUOUS
 10
2.2168950976
 20
0.3817278324
 40
0.1910110861
100
AcDbArc
 50
72.3010006614
 51
74.3314840732
  0
ARC
  5
2C6
100
AcDbEntity
  8
0
100
AcDbCircle
 62
7
  6
CONTINUOUS
 10
2.2332141684
 20
0.3881797803
 40
0.1842784745
100
AcDbArc
 50
104.5367176121
 51
107.7445167071
  0
ARC
  5
2C7
100
AcDbEntity
  8
0
100
AcDbCircle
 62
7
  6
CONTINUOUS
 10
2.2196759565
 20
0.391419771
 40
0.1809282765
100
AcDbArc
 50
74.3504870689
 51
74.9164941907
  0
ARC
  5
2C8
100
AcDbEntity
  8
0
100
AcDbCircle
 62
7
  6
CONTINUOUS
 10
2.220559669
 20
0.3946983241
 40
0.177532712
100
AcDbArc
 50
74.9165264369
 51
75.4853598104
  0
ARC
  5
2C9
100
AcDbEntity
  8
0
100
AcDbCircle
 62
7
  6
CONTINUOUS
 10
2.2227898366
 20
0.4034719457
 40
0.1684801762
100
AcDbArc
 50
75.471783699
 51
78.9419375894
  0
ARC
  5
2CA
100
AcDbEntity
  8
0
100
AcDbCircle
 62
7
  6
CONTINUOUS
 10
2.228634318
 20
0.4061671331
 40
0.1657174269
100
AcDbArc
 50
101.0366807442
 51
104.5649292182
  0
ARC
  5
2CB
100
AcDbEntity
  8
0
100
AcDbCircle
 62
7
  6
CONTINUOUS
 10
2.2246239174
 20
0.4122106279
 40
0.159552007
100
AcDbArc
 50
78.9864366105
 51
82.5277104295
  0
ARC
  5
2CC
100
AcDbEntity
  8
0
100
AcDbCircle
 62
7
  6
CONTINUOUS
 10
2.2273897608
 20
0.4123533881
 40
0.1594073374
100
AcDbArc
 50
97.4771626993
 51
101.0232889588
  0
ARC
  5
2CD
100
AcDbEntity
  8
0
100
AcDbCircle
 62
7
  6
CONTINUOUS
 10
2.2251652166
 20
0.416387701
 40
0.1553400122
100
AcDbArc
 50
82.5253085302
 51
86.1155694792
  0
ARC
  5
2CE
100
AcDbEntity
  8
0
100
AcDbCircle
 62
7
  6
CONTINUOUS
 10
2.2267383323
 20
0.4177364515
 40
0.1539852859
100
AcDbArc
 50
93.8727509383
 51
97.497483873
  0
ARC
  5
2CF
100
AcDbEntity
  8
0
100
AcDbCircle
 62
7
  6
CONTINUOUS
 10
2.2260939472
 20
0.4279836648
 40
0.143717958
100
AcDbArc
 50
86.1120085947
 51
93.8923619835
  0
ARC
  5
2D0
100
AcDbEntity
  8
0
100
AcDbCircle
 62
7
  6
CONTINUOUS
 10
2.5860186335
 20
0.4723175363
 40
0.005
100
AcDbArc
 50
270.0
 51
360.0
  0
ARC
  5
2D1
100
AcDbEntity
  8
0
100
AcDbCircle
 62
7
  6
CONTINUOUS
 10
2.4310186335
 20
0.4723175363
 40
0.005
100
AcDbArc
 50
179.9999122263
 51
270.0
  0
ARC
  5
2D2
100
AcDbEntity
  8
0
100
AcDbCircle
 62
7
  6
CONTINUOUS
 10
3.0706050472
 20
1.6864936247
 40
0.5466348317
100
AcDbArc
 50
272.6603376824
 51
273.3514163753
  0
ARC
  5
2D3
100
AcDbEntity
  8
0
100
AcDbCircle
 62
7
  6
CONTINUOUS
 10
2.5860186335
 20
0.9623175363
 40
0.005
100
AcDbArc
 50
0.0
 51
90.0
  0
ARC
  5
2D4
100
AcDbEntity
  8
0
100
AcDbCircle
 62
7
  6
CONTINUOUS
 10
2.4310186335
 20
0.9623175363
 40
0.005
100
AcDbArc
 50
90.0
 51
180.0000877737
  0
ARC
  5
2D5
100
AcDbEntity
  8
0
100
AcDbCircle
 62
7
  6
CONTINUOUS
 10
4.0934411063
 20
-0.3773407105
 40
1.5
100
AcDbArc
 50
19.9122926115
 51
33.5576949178
  0
ARC
  5
2D6
100
AcDbEntity
  8
0
100
AcDbCircle
 62
7
  6
CONTINUOUS
 10
5.5625271658
 20
0.1548175363
 40
0.0625
100
AcDbArc
 50
199.9122926115
 51
270.0
  0
ARC
  5
2D7
100
AcDbEntity
  8
0
100
AcDbCircle
 62
7
  6
CONTINUOUS
 10
5.3955186335
 20
0.4863724149
 40
0.0625
100
AcDbArc
 50
180.0
 51
213.5576949178
  0
ARC
  5
2D8
100
AcDbEntity
  8
0
100
AcDbCircle
 62
7
  6
CONTINUOUS
 10
4.0934411063
 20
1.8119757831
 40
1.5
100
AcDbArc
 50
326.4423050822
 51
340.0877073885
  0
ARC
  5
2D9
100
AcDbEntity
  8
0
100
AcDbCircle
 62
7
  6
CONTINUOUS
 10
5.5625271658
 20
1.2798175363
 40
0.0625
100
AcDbArc
 50
90.0
 51
160.0877073885
  0
ARC
  5
2DA
100
AcDbEntity
  8
0
100
AcDbCircle
 62
7
  6
CONTINUOUS
 10
5.3955186335
 20
0.9482626577
 40
0.0625
100
AcDbArc
 50
146.4423050822
 51
180.0
  0
ARC
  5
2DB
100
AcDbEntity
  8
0
100
AcDbCircle
 62
7
  6
CONTINUOUS
 10
3.085393617
 20
10.5170131851
 40
0.2778712858
100
AcDbArc
 50
88.9055220218
 51
91.1042227604
  0
ARC
  5
2DC
100
AcDbEntity
  8
0
100
AcDbCircle
 62
7
  6
CONTINUOUS
 10
3.0853937651
 20
10.5177023618
 40
0.277181481
100
AcDbArc
 50
88.9617341991
 51
91.0519156179
  0
ARC
  5
2DD
100
AcDbEntity
  8
0
100
AcDbCircle
 62
7
  6
CONTINUOUS
 10
3.0854839167
 20
10.5210852738
 40
0.2737982155
100
AcDbArc
 50
87.0932491327
 51
88.908138208
  0
ARC
  5
2DE
100
AcDbEntity
  8
0
100
AcDbCircle
 62
7
  6
CONTINUOUS
 10
3.085302576
 20
10.5211054546
 40
0.273778022
100
AcDbArc
 50
91.101677637
 51
92.9114474016
  0
ARC
  5
2DF
100
AcDbEntity
  8
0
100
AcDbCircle
 62
7
  6
CONTINUOUS
 10
3.0854786934
 20
10.5216239081
 40
0.27325904
100
AcDbArc
 50
86.9954124095
 51
88.9646393278
  0
ARC
  5
2E0
100
AcDbEntity
  8
0
100
AcDbCircle
 62
7
  6
CONTINUOUS
 10
3.0853082618
 20
10.5216372414
 40
0.2732456953
100
AcDbArc
 50
91.0491370905
 51
93.0001958494
  0
ARC
  5
2E1
100
AcDbEntity
  8
0
100
AcDbCircle
 62
7
  6
CONTINUOUS
 10
2.8666438595
 20
10.5224205072
 40
0.2724632616
100
AcDbArc
 50
82.9384061773
 51
97.0651309332
  0
ARC
  5
2E2
100
AcDbEntity
  8
0
100
AcDbCircle
 62
7
  6
CONTINUOUS
 10
3.085400091
 20
10.5240987779
 40
0.2707974345
100
AcDbArc
 50
82.7550928217
 51
97.2452892422
  0
ARC
  5
2E3
100
AcDbEntity
  8
0
100
AcDbCircle
 62
7
  6
CONTINUOUS
 10
2.8666436161
 20
10.5242861965
 40
0.2706107004
100
AcDbArc
 50
82.7509388541
 51
97.2488931969
  0
ARC
  5
2E4
100
AcDbEntity
  8
0
100
AcDbCircle
 62
7
  6
CONTINUOUS
 10
3.0853456623
 20
10.5245325969
 40
0.2703750465
100
AcDbArc
 50
82.9052689454
 51
87.5235789623
  0
ARC
  5
2E5
100
AcDbEntity
  8
0
100
AcDbCircle
 62
7
  6
CONTINUOUS
 10
2.8666436427
 20
10.5251247877
 40
0.269781565
100
AcDbArc
 50
82.7284895992
 51
97.2713531895
  0
ARC
  5
2E6
100
AcDbEntity
  8
0
100
AcDbCircle
 62
7
  6
CONTINUOUS
 10
3.085389802
 20
10.5251997869
 40
0.2697065729
100
AcDbArc
 50
87.5268229488
 51
97.1059472307
  0
ARC
  5
2E7
100
AcDbEntity
  8
0
100
AcDbCircle
 62
7
  6
CONTINUOUS
 10
3.0858094191
 20
10.527645714
 40
0.2672281772
100
AcDbArc
 50
84.021280215
 51
86.9985497518
  0
ARC
  5
2E8
100
AcDbEntity
  8
0
100
AcDbCircle
 62
7
  6
CONTINUOUS
 10
3.084970784
 20
10.5277530521
 40
0.2671206043
100
AcDbArc
 50
92.9965671423
 51
96.0808996984
  0
ARC
  5
2E9
100
AcDbEntity
  8
0
100
AcDbCircle
 62
7
  6
CONTINUOUS
 10
3.0860085833
 20
10.5297687897
 40
0.2650992789
100
AcDbArc
 50
82.8369368534
 51
87.1113273243
  0
ARC
  5
2EA
100
AcDbEntity
  8
0
100
AcDbCircle
 62
7
  6
CONTINUOUS
 10
3.0847781265
 20
10.5297736417
 40
0.2650943986
100
AcDbArc
 50
92.8934015787
 51
97.1629325907
  0
ARC
  5
2EB
100
AcDbEntity
  8
0
100
AcDbCircle
 62
7
  6
CONTINUOUS
 10
3.0840402251
 20
10.5317282126
 40
0.263435269
100
AcDbArc
 50
68.5928707922
 51
73.3141715986
  0
ARC
  5
2EC
100
AcDbEntity
  8
0
100
AcDbCircle
 62
7
  6
CONTINUOUS
 10
3.0862737315
 20
10.532336496
 40
0.262514549
100
AcDbArc
 50
82.8629122246
 51
84.015430747
  0
ARC
  5
2ED
100
AcDbEntity
  8
0
100
AcDbCircle
 62
7
  6
CONTINUOUS
 10
3.0845006129
 20
10.5324468979
 40
0.2624033645
100
AcDbArc
 50
96.0873859212
 51
97.1408218066
  0
ARC
  5
2EE
100
AcDbEntity
  8
0
100
AcDbCircle
 62
7
  6
CONTINUOUS
 10
3.0844753046
 20
10.5331650225
 40
0.2619340365
100
AcDbArc
 50
73.3150942013
 51
78.0105116256
  0
ARC
  5
2EF
100
AcDbEntity
  8
0
100
AcDbCircle
 62
7
  6
CONTINUOUS
 10
3.0861112008
 20
10.5337135626
 40
0.2613548439
100
AcDbArc
 50
97.4937988174
 51
111.4362124607
  0
ARC
  5
2F0
100
AcDbEntity
  8
0
100
AcDbCircle
 62
7
  6
CONTINUOUS
 10
3.0867559685
 20
10.5340169015
 40
0.2607859001
100
AcDbArc
 50
78.0831909832
 51
82.7781551666
  0
ARC
  5
2F1
100
AcDbEntity
  8
0
100
AcDbCircle
 62
7
  6
CONTINUOUS
 10
2.865368445
 20
10.5342030825
 40
0.2606149049
100
AcDbArc
 50
98.0923128238
 51
101.9240955058
  0
ARC
  5
2F2
100
AcDbEntity
  8
0
100
AcDbCircle
 62
7
  6
CONTINUOUS
 10
3.0842404741
 20
10.5345300495
 40
0.2603040332
100
AcDbArc
 50
97.1410050042
 51
98.0921967977
  0
ARC
  5
2F3
100
AcDbEntity
  8
0
100
AcDbCircle
 62
7
  6
CONTINUOUS
 10
2.8654904678
 20
10.5345301085
 40
0.2603039728
100
AcDbArc
 50
97.1410290246
 51
98.0923128238
  0
ARC
  5
2F4
100
AcDbEntity
  8
0
100
AcDbCircle
 62
7
  6
CONTINUOUS
 10
3.0865506333
 20
10.5345589345
 40
0.2602749272
100
AcDbArc
 50
81.8818495356
 51
82.8626111039
  0
ARC
  5
2F5
100
AcDbEntity
  8
0
100
AcDbCircle
 62
7
  6
CONTINUOUS
 10
2.8678006387
 20
10.5345589433
 40
0.2602749183
100
AcDbArc
 50
81.8818965541
 51
82.8626245501
  0
ARC
  5
2F6
100
AcDbEntity
  8
0
100
AcDbCircle
 62
7
  6
CONTINUOUS
 10
3.0850407119
 20
10.5357634259
 40
0.2592748625
100
AcDbArc
 50
78.0134510015
 51
82.5318319666
  0
ARC
  5
2F7
100
AcDbEntity
  8
0
100
AcDbCircle
 62
7
  6
CONTINUOUS
 10
3.0872710288
 20
10.5378224071
 40
0.2569493311
100
AcDbArc
 50
78.0403560648
 51
82.9652958064
  0
ARC
  5
2F8
100
AcDbEntity
  8
0
100
AcDbCircle
 62
7
  6
CONTINUOUS
 10
3.0837475255
 20
10.5379234349
 40
0.2568750459
100
AcDbArc
 50
98.0898847448
 51
101.1709637437
  0
ARC
  5
2F9
100
AcDbEntity
  8
0
100
AcDbCircle
 62
7
  6
CONTINUOUS
 10
2.8649975199
 20
10.5379234514
 40
0.2568750277
100
AcDbArc
 50
98.0900011566
 51
101.1709474239
  0
ARC
  5
2FA
100
AcDbEntity
  8
0
100
AcDbCircle
 62
7
  6
CONTINUOUS
 10
3.0853957691
 20
10.5382321667
 40
0.2567814203
100
AcDbArc
 50
82.5385342942
 51
97.4649313893
  0
ARC
  5
2FB
100
AcDbEntity
  8
0
100
AcDbCircle
 62
7
  6
CONTINUOUS
 10
3.0837131469
 20
10.5380551213
 40
0.2567443778
100
AcDbArc
 50
97.7974897778
 51
98.0898847448
  0
ARC
  5
2FC
100
AcDbEntity
  8
0
100
AcDbCircle
 62
7
  6
CONTINUOUS
 10
2.8649631353
 20
10.5380552097
 40
0.2567442837
100
AcDbArc
 50
97.7977640522
 51
98.0900011566
  0
ARC
  5
2FD
100
AcDbEntity
  8
0
100
AcDbCircle
 62
7
  6
CONTINUOUS
 10
2.8645587248
 20
10.538302798
 40
0.256443232
100
AcDbArc
 50
97.1819516448
 51
101.9565791188
  0
ARC
  5
2FE
100
AcDbEntity
  8
0
100
AcDbCircle
 62
7
  6
CONTINUOUS
 10
3.0872086296
 20
10.5389183874
 40
0.2558662442
100
AcDbArc
 50
78.8176856114
 51
81.8898623887
  0
ARC
  5
2FF
100
AcDbEntity
  8
0
100
AcDbCircle
 62
7
  6
CONTINUOUS
 10
2.8684586389
 20
10.5389184384
 40
0.2558661929
100
AcDbArc
 50
78.8176890411
 51
81.8899097332
  0
ARC
  5
300
100
AcDbEntity
  8
0
100
AcDbCircle
 62
7
  6
CONTINUOUS
 10
2.8685065704
 20
10.5391512165
 40
0.2556336657
100
AcDbArc
 50
81.8899097332
 51
82.2088650975
  0
ARC
  5
301
100
AcDbEntity
  8
0
100
AcDbCircle
 62
7
  6
CONTINUOUS
 10
3.0872566068
 20
10.5391513888
 40
0.2556334859
100
AcDbArc
 50
81.8898623887
 51
82.2086999015
  0
ARC
  5
302
100
AcDbEntity
  8
0
100
AcDbCircle
 62
7
  6
CONTINUOUS
 10
3.0827726309
 20
10.5430703863
 40
0.2516367413
100
AcDbArc
 50
101.1802381698
 51
101.6186721374
  0
ARC
  5
303
100
AcDbEntity
  8
0
100
AcDbCircle
 62
7
  6
CONTINUOUS
 10
3.0880614072
 20
10.5433052556
 40
0.2513972804
100
AcDbArc
 50
78.2605659915
 51
78.814457389
  0
ARC
  5
304
100
AcDbEntity
  8
0
100
AcDbCircle
 62
7
  6
CONTINUOUS
 10
3.0826784873
 20
10.5435854288
 40
0.2511183402
100
AcDbArc
 50
101.1141475647
 51
101.5515560573
  0
ARC
  5
305
100
AcDbEntity
  8
0
100
AcDbCircle
 62
7
  6
CONTINUOUS
 10
3.0883865591
 20
10.5449468938
 40
0.2497288233
100
AcDbArc
 50
78.133676841
 51
78.4470979821
  0
ARC
  5
306
100
AcDbEntity
  8
0
100
AcDbCircle
 62
7
  6
CONTINUOUS
 10
3.0823918423
 20
10.5449899387
 40
0.2496848782
100
AcDbArc
 50
101.5516509548
 51
101.8913602665
  0
ARC
  5
307
100
AcDbEntity
  8
0
100
AcDbCircle
 62
7
  6
CONTINUOUS
 10
2.8699512141
 20
10.5464110063
 40
0.2482264138
100
AcDbArc
 50
76.5993001803
 51
78.8202728405
  0
ARC
  5
308
100
AcDbEntity
  8
0
100
AcDbCircle
 62
7
  6
CONTINUOUS
 10
2.863334209
 20
10.5464187564
 40
0.2482184345
100
AcDbArc
 50
101.1741922091
 51
103.4079742747
  0
ARC
  5
309
100
AcDbEntity
  8
0
100
AcDbCircle
 62
7
  6
CONTINUOUS
 10
2.8632136044
 20
10.5470742451
 40
0.247557149
100
AcDbArc
 50
101.1075722132
 51
103.5156154791
  0
ARC
  5
30A
100
AcDbEntity
  8
0
100
AcDbCircle
 62
7
  6
CONTINUOUS
 10
2.870073837
 20
10.5470752014
 40
0.2475561824
100
AcDbArc
 50
76.483848448
 51
78.8926755958
  0
ARC
  5
30B
100
AcDbEntity
  8
0
100
AcDbCircle
 62
7
  6
CONTINUOUS
 10
3.0818971977
 20
10.5472465069
 40
0.2473698817
100
AcDbArc
 50
101.6148651267
 51
103.4102064623
  0
ARC
  5
30C
100
AcDbEntity
  8
0
100
AcDbCircle
 62
7
  6
CONTINUOUS
 10
3.0889375332
 20
10.5474555371
 40
0.2471555529
100
AcDbArc
 50
76.5964568374
 51
78.2636674927
  0
ARC
  5
30D
100
AcDbEntity
  8
0
100
AcDbCircle
 62
7
  6
CONTINUOUS
 10
3.0891303709
 20
10.548420682
 40
0.2461763209
100
AcDbArc
 50
76.4801001363
 51
78.1368432821
  0
ARC
  5
30E
100
AcDbEntity
  8
0
100
AcDbCircle
 62
7
  6
CONTINUOUS
 10
3.0816467915
 20
10.5484646193
 40
0.2461312418
100
AcDbArc
 50
101.8883151816
 51
103.519571878
  0
ARC
  5
30F
100
AcDbEntity
  8
0
100
AcDbCircle
 62
7
  6
CONTINUOUS
 10
2.8615277359
 20
10.5540262314
 40
0.2403994209
100
AcDbArc
 50
103.4095976256
 51
105.409044113
  0
ARC
  5
310
100
AcDbEntity
  8
0
100
AcDbCircle
 62
7
  6
CONTINUOUS
 10
3.0802777435
 20
10.5540262368
 40
0.2403994182
100
AcDbArc
 50
103.4095066884
 51
105.4091345998
  0
ARC
  5
311
100
AcDbEntity
  8
0
100
AcDbCircle
 62
7
  6
CONTINUOUS
 10
3.0905149644
 20
10.5540492829
 40
0.2403757494
100
AcDbArc
 50
74.5680573659
 51
76.5978824542
  0
ARC
  5
312
100
AcDbEntity
  8
0
100
AcDbCircle
 62
7
  6
CONTINUOUS
 10
2.8717649647
 20
10.5540493007
 40
0.2403757325
100
AcDbArc
 50
74.5680422559
 51
76.5978981915
  0
ARC
  5
313
100
AcDbEntity
  8
0
100
AcDbCircle
 62
7
  6
CONTINUOUS
 10
2.8607808234
 20
10.5566700441
 40
0.2376849063
100
AcDbArc
 50
101.9610727332
 51
107.0034637671
  0
ARC
  5
314
100
AcDbEntity
  8
0
100
AcDbCircle
 62
7
  6
CONTINUOUS
 10
3.0916363686
 20
10.5579443995
 40
0.2363663749
100
AcDbArc
 50
72.9798890986
 51
78.0430493898
  0
ARC
  5
315
100
AcDbEntity
  8
0
100
AcDbCircle
 62
7
  6
CONTINUOUS
 10
3.0790418238
 20
10.5587351068
 40
0.2355345883
100
AcDbArc
 50
105.0549498591
 51
106.5422489874
  0
ARC
  5
316
100
AcDbEntity
  8
0
100
AcDbCircle
 62
7
  6
CONTINUOUS
 10
3.0917502927
 20
10.5587524586
 40
0.2355165705
100
AcDbArc
 50
73.4463042412
 51
74.9453135023
  0
ARC
  5
317
100
AcDbEntity
  8
0
100
AcDbCircle
 62
7
  6
CONTINUOUS
 10
3.0921290759
 20
10.560047813
 40
0.2341997028
100
AcDbArc
 50
72.9589245446
 51
78.0763162108
  0
ARC
  5
318
100
AcDbEntity
  8
0
100
AcDbCircle
 62
7
  6
CONTINUOUS
 10
2.8598776328
 20
10.5602365505
 40
0.2339770912
100
AcDbArc
 50
105.0529376158
 51
108.0035724589
  0
ARC
  5
319
100
AcDbEntity
  8
0
100
AcDbCircle
 62
7
  6
CONTINUOUS
 10
2.8594961338
 20
10.5613674656
 40
0.2327822652
100
AcDbArc
 50
105.4070882733
 51
107.8686125229
  0
ARC
  5
31A
100
AcDbEntity
  8
0
100
AcDbCircle
 62
7
  6
CONTINUOUS
 10
3.0782461282
 20
10.5613675008
 40
0.2327822302
100
AcDbArc
 50
105.4071805157
 51
107.8685572358
  0
ARC
  5
31B
100
AcDbEntity
  8
0
100
AcDbCircle
 62
7
  6
CONTINUOUS
 10
2.8737980936
 20
10.561389698
 40
0.2327589746
100
AcDbArc
 50
72.1399261559
 51
74.569665553
  0
ARC
  5
31C
100
AcDbEntity
  8
0
100
AcDbCircle
 62
7
  6
CONTINUOUS
 10
3.0925480979
 20
10.5613896996
 40
0.2327589716
100
AcDbArc
 50
72.1399155732
 51
74.5696809705
  0
ARC
  5
31D
100
AcDbEntity
  8
0
100
AcDbCircle
 62
7
  6
CONTINUOUS
 10
2.8594838972
 20
10.5614930939
 40
0.2327047538
100
AcDbArc
 50
101.9170892056
 51
105.4070882733
  0
ARC
  5
31E
100
AcDbEntity
  8
0
100
AcDbCircle
 62
7
  6
CONTINUOUS
 10
2.8738540389
 20
10.5617343367
 40
0.2324152905
100
AcDbArc
 50
71.9860910259
 51
72.1399261559
  0
ARC
  5
31F
100
AcDbEntity
  8
0
100
AcDbCircle
 62
7
  6
CONTINUOUS
 10
2.8738540389
 20
10.5617343367
 40
0.2324152905
100
AcDbArc
 50
74.569665553
 51
74.9580593472
  0
ARC
  5
320
100
AcDbEntity
  8
0
100
AcDbCircle
 62
7
  6
CONTINUOUS
 10
3.0932600225
 20
10.5637989295
 40
0.2302490391
100
AcDbArc
 50
71.9825554052
 51
73.0730163479
  0
ARC
  5
321
100
AcDbEntity
  8
0
100
AcDbCircle
 62
7
  6
CONTINUOUS
 10
3.0775198275
 20
10.5638222997
 40
0.2302245216
100
AcDbArc
 50
106.9431565549
 51
108.017278259
  0
ARC
  5
322
100
AcDbEntity
  8
0
100
AcDbCircle
 62
7
  6
CONTINUOUS
 10
3.0753387364
 20
10.5703445519
 40
0.2233461184
100
AcDbArc
 50
107.865304393
 51
112.2982160791
  0
ARC
  5
323
100
AcDbEntity
  8
0
100
AcDbCircle
 62
7
  6
CONTINUOUS
 10
2.8565886762
 20
10.570344706
 40
0.223345953
100
AcDbArc
 50
107.865360828
 51
112.2982167743
  0
ARC
  5
324
100
AcDbEntity
  8
0
100
AcDbCircle
 62
7
  6
CONTINUOUS
 10
2.8774107033
 20
10.5722933031
 40
0.2212728887
100
AcDbArc
 50
67.6809415326
 51
72.1643822442
  0
ARC
  5
325
100
AcDbEntity
  8
0
100
AcDbCircle
 62
7
  6
CONTINUOUS
 10
3.0961607269
 20
10.5722933608
 40
0.2212728263
100
AcDbArc
 50
67.6809415134
 51
72.164371426
  0
ARC
  5
326
100
AcDbEntity
  8
0
100
AcDbCircle
 62
7
  6
CONTINUOUS
 10
2.8553076657
 20
10.5750699614
 40
0.2184888396
100
AcDbArc
 50
107.0419519592
 51
112.4575710317
  0
ARC
  5
327
100
AcDbEntity
  8
0
100
AcDbCircle
 62
7
  6
CONTINUOUS
 10
3.0973679211
 20
10.5771969824
 40
0.2162794031
100
AcDbArc
 50
67.483456373
 51
72.9388669031
  0
ARC
  5
328
100
AcDbEntity
  8
0
100
AcDbCircle
 62
7
  6
CONTINUOUS
 10
3.0976749385
 20
10.577704408
 40
0.2156931052
100
AcDbArc
 50
67.5071761374
 51
72.9929202067
  0
ARC
  5
329
100
AcDbEntity
  8
0
100
AcDbCircle
 62
7
  6
CONTINUOUS
 10
2.8536892148
 20
10.5799212039
 40
0.2133875549
100
AcDbArc
 50
107.024152398
 51
112.5535507844
  0
ARC
  5
32A
100
AcDbEntity
  8
0
100
AcDbCircle
 62
7
  6
CONTINUOUS
 10
9.3215798647
 20
0.6933680105
 40
5.2781040199
100
AcDbArc
 50
181.3584380639
 51
181.4800756766
  0
SPLINE
  5
32B
100
AcDbEntity
  8
0
100
AcDbSpline
 62
7
  6
CONTINUOUS
 70
0
 71
3
 72
11
 73
7
 74
0
 42
0.0000001
 43
0.0000001
 44
0.0000000001
 40
0.0
 40
0.0
 40
0.0
 40
0.0
 40
0.2510928225
 40
0.4999999437
 40
0.7489067556
 40
1.0
 40
1.0
 40
1.0
 40
1.0
 10
2.77184511
 20
10.6101458828
 30
0.0
 10
2.7868532674
 20
10.6039815758
 30
0.0
 10
2.818196301
 20
10.5950624364
 30
0.0
 10
2.8666436018
 20
10.590851875
 30
0.0
 10
2.9150909194
 20
10.5950624713
 30
0.0
 10
2.9464339745
 20
10.6039815654
 30
0.0
 10
2.9614421571
 20
10.6101458828
 30
0.0
  0
SPLINE
  5
32C
100
AcDbEntity
  8
0
100
AcDbSpline
 62
7
  6
CONTINUOUS
 70
0
 71
3
 72
11
 73
7
 74
0
 42
0.0000001
 43
0.0000001
 44
0.0000000001
 40
0.0
 40
0.0
 40
0.0
 40
0.0
 40
0.2510928225
 40
0.4999999433
 40
0.7489067555
 40
1.0
 40
1.0
 40
1.0
 40
1.0
 10
2.99059511
 20
10.6101458828
 30
0.0
 10
3.0056032674
 20
10.6039815758
 30
0.0
 10
3.0369463006
 20
10.5950624349
 30
0.0
 10
3.0853936018
 20
10.5908518736
 30
0.0
 10
3.1338409191
 20
10.5950624722
 30
0.0
 10
3.1651839744
 20
10.6039815654
 30
0.0
 10
3.1801921571
 20
10.6101458828
 30
0.0
  0
SPLINE
  5
32D
100
AcDbEntity
  8
0
100
AcDbSpline
 62
7
  6
CONTINUOUS
 70
0
 71
3
 72
11
 73
7
 74
0
 42
0.0000001
 43
0.0000001
 44
0.0000000001
 40
0.0
 40
0.0
 40
0.0
 40
0.0
 40
0.2350807169
 40
0.4736295477
 40
0.7237639503
 40
1.0
 40
1.0
 40
1.0
 40
1.0
 10
4.3630186335
 20
0.5749456641
 30
0.0
 10
4.3630186335
 20
0.5745735304
 30
0.0
 10
4.3630968704
 20
0.5738202441
 30
0.0
 10
4.3634924721
 20
0.5727324472
 30
0.0
 10
4.3642369347
 20
0.5717426714
 30
0.0
 10
4.3650813508
 20
0.5714031779
 30
0.0
 10
4.3655186335
 20
0.5714031779
 30
0.0
  0
SPLINE
  5
32E
100
AcDbEntity
  8
0
100
AcDbSpline
 62
7
  6
CONTINUOUS
 70
0
 71
3
 72
11
 73
7
 74
0
 42
0.0000001
 43
0.0000001
 44
0.0000000001
 40
0.0
 40
0.0
 40
0.0
 40
0.0
 40
0.276236202
 40
0.526370582
 40
0.7649192037
 40
1.0
 40
1.0
 40
1.0
 40
1.0
 10
4.3655186335
 20
0.8632318948
 30
0.0
 10
4.3650813495
 20
0.8632318948
 30
0.0
 10
4.3642369133
 20
0.8628924354
 30
0.0
 10
4.3634924808
 20
0.8619026237
 30
0.0
 10
4.3630968686
 20
0.8608148333
 30
0.0
 10
4.3630186335
 20
0.8600615433
 30
0.0
 10
4.3630186335
 20
0.8596894085
 30
0.0
  0
LINE
  5
32F
100
AcDbEntity
  8
0
100
AcDbLine
 62
7
  6
CONTINUOUS
 10
2.3275186335
 20
0.5398175363
 11
2.3223452212
 21
0.5427240934
  0
SPLINE
  5
330
100
AcDbEntity
  8
0
100
AcDbSpline
 62
7
  6
CONTINUOUS
 70
0
 71
3
 72
9
 73
5
 74
0
 42
0.0000001
 43
0.0000001
 44
0.0000000001
 40
0.0
 40
0.0
 40
0.0
 40
0.0
 40
0.1737936175
 40
1.0
 40
1.0
 40
1.0
 40
1.0
 10
2.3223452212
 20
0.5427240934
 30
0.0
 10
2.3202150961
 20
0.5438996532
 30
0.0
 10
2.3078961384
 20
0.550544707
 30
0.0
 10
2.2951404157
 20
0.556444033
 30
0.0
 10
2.284298246
 20
0.5604721232
 30
0.0
  0
SPLINE
  5
331
100
AcDbEntity
  8
0
100
AcDbSpline
 62
7
  6
CONTINUOUS
 70
0
 71
3
 72
9
 73
5
 74
0
 42
0.0000001
 43
0.0000001
 44
0.0000000001
 40
0.0
 40
0.0
 40
0.0
 40
0.0
 40
0.3174050586
 40
1.0
 40
1.0
 40
1.0
 40
1.0
 10
2.1677205707
 20
0.560465266
 30
0.0
 10
2.1635561481
 20
0.5589176642
 30
0.0
 10
2.1505799223
 20
0.5536512849
 30
0.0
 10
2.1380562875
 20
0.5473401524
 30
0.0
 10
2.1296913787
 20
0.5427237271
 30
0.0
  0
LINE
  5
332
100
AcDbEntity
  8
0
100
AcDbLine
 62
7
  6
CONTINUOUS
 10
2.1296913787
 20
0.5427237271
 11
2.1245186336
 21
0.5398175363
  0
SPLINE
  5
333
100
AcDbEntity
  8
0
100
AcDbSpline
 62
7
  6
CONTINUOUS
 70
0
 71
3
 72
9
 73
5
 74
0
 42
0.0000001
 43
0.0000001
 44
0.0000000001
 40
0.0
 40
0.0
 40
0.0
 40
0.0
 40
0.4984917899
 40
1.0
 40
1.0
 40
1.0
 40
1.0
 10
3.0520258909
 20
10.7928347714
 30
0.0
 10
3.0415413138
 20
10.7915291777
 30
0.0
 10
3.0206381905
 20
10.7876825031
 30
0.0
 10
3.0004147887
 20
10.7810585764
 30
0.0
 10
2.99059511
 20
10.7769891898
 30
0.0
  0
SPLINE
  5
334
100
AcDbEntity
  8
0
100
AcDbSpline
 62
7
  6
CONTINUOUS
 70
0
 71
3
 72
9
 73
5
 74
0
 42
0.0000001
 43
0.0000001
 44
0.0000000001
 40
0.0
 40
0.0
 40
0.0
 40
0.0
 40
0.5014952859
 40
1.0
 40
1.0
 40
1.0
 40
1.0
 10
2.9614421571
 20
10.7769891898
 30
0.0
 10
2.9517437376
 20
10.7810083877
 30
0.0
 10
2.9317775788
 20
10.7875689974
 30
0.0
 10
2.9111421596
 20
10.7914171246
 30
0.0
 10
2.9007902693
 20
10.7927366348
 30
0.0
  0
SPLINE
  5
335
100
AcDbEntity
  8
0
100
AcDbSpline
 62
7
  6
CONTINUOUS
 70
0
 71
3
 72
9
 73
5
 74
0
 42
0.0000001
 43
0.0000001
 44
0.0000000001
 40
0.0
 40
0.0
 40
0.0
 40
0.0
 40
0.498508782
 40
1.0
 40
1.0
 40
1.0
 40
1.0
 10
2.9007900087
 20
10.7927339104
 30
0.0
 10
2.9111426899
 20
10.7914184631
 30
0.0
 10
2.9317807795
 20
10.7875829403
 30
0.0
 10
2.9517479837
 20
10.7810188852
 30
0.0
 10
2.9614421571
 20
10.7769891898
 30
0.0
  0
SPLINE
  5
336
100
AcDbEntity
  8
0
100
AcDbSpline
 62
9
  6
CONTINUOUS
 70
0
 71
3
 72
11
 73
7
 74
0
 42
0.0000001
 43
0.0000001
 44
0.0000000001
 40
0.0
 40
0.0
 40
0.0
 40
0.0
 40
0.2555736151
 40
0.5092661641
 40
0.7583998974
 40
1.0
 40
1.0
 40
1.0
 40
1.0
 10
2.9760186335
 20
0.7173175363
 30
0.0
 10
2.9650985307
 20
0.7293369975
 30
0.0
 10
2.9431551296
 20
0.7531204803
 30
0.0
 10
2.9102531892
 20
0.7883292832
 30
0.0
 10
2.8780867655
 20
0.8230100766
 30
0.0
 10
2.8569316681
 20
0.8459175616
 30
0.0
 10
2.8465087916
 20
0.8571883502
 30
0.0
  0
LINE
  5
337
100
AcDbEntity
  8
0
100
AcDbLine
 62
9
  6
CONTINUOUS
 10
2.8465087916
 20
0.8571883502
 11
2.8291551443
 21
0.875941915
  0
LINE
  5
338
100
AcDbEntity
  8
0
100
AcDbLine
 62
9
  6
CONTINUOUS
 10
2.8291551443
 20
0.875941915
 11
2.8215340353
 21
0.8841720149
  0
LINE
  5
339
100
AcDbEntity
  8
0
100
AcDbLine
 62
9
  6
CONTINUOUS
 10
2.8215340353
 20
0.8841720149
 11
2.818630245
 21
0.8873072275
  0
SPLINE
  5
33A
100
AcDbEntity
  8
0
100
AcDbSpline
 62
7
  6
CONTINUOUS
 70
0
 71
3
 72
13
 73
9
 74
0
 42
0.0000001
 43
0.0000001
 44
0.0000000001
 40
0.0
 40
0.0
 40
0.0
 40
0.0
 40
0.2751961232
 40
0.5603157153
 40
0.693630022
 40
0.8141249664
 40
0.9174985376
 40
1.0
 40
1.0
 40
1.0
 40
1.0
 10
4.0411436335
 20
0.8031204634
 30
0.0
 10
4.0417490653
 20
0.7802380061
 30
0.0
 10
4.0428653701
 20
0.7336449465
 30
0.0
 10
4.0442033869
 20
0.6759651977
 30
0.0
 10
4.0453338601
 20
0.6311520202
 30
0.0
 10
4.0461579448
 20
0.6014533493
 30
0.0
 10
4.0469771556
 20
0.5759830274
 30
0.0
 10
4.0475861586
 20
0.5605337565
 30
0.0
 10
4.0479142629
 20
0.5536792374
 30
0.0
  0
SPLINE
  5
33B
100
AcDbEntity
  8
0
100
AcDbSpline
 62
7
  6
CONTINUOUS
 70
0
 71
3
 72
12
 73
8
 74
0
 42
0.0000001
 43
0.0000001
 44
0.0000000001
 40
0.0
 40
0.0
 40
0.0
 40
0.0
 40
0.3675672842
 40
0.6585237054
 40
0.8700547604
 40
0.9452627018
 40
1.0
 40
1.0
 40
1.0
 40
1.0
 10
4.0479142629
 20
0.5536792374
 30
0.0
 10
4.0480505698
 20
0.5508316111
 30
0.0
 10
4.0483130226
 20
0.5457305343
 30
0.0
 10
4.0487489964
 20
0.5389966245
 30
0.0
 10
4.0491276175
 20
0.5345305081
 30
0.0
 10
4.0494567477
 20
0.5319024913
 30
0.0
 10
4.04962341
 20
0.5309074934
 30
0.0
 10
4.0497156626
 20
0.53049309
 30
0.0
  0
LINE
  5
33C
100
AcDbEntity
  8
0
100
AcDbLine
 62
7
  6
CONTINUOUS
 10
4.0497156626
 20
0.53049309
 11
4.0500031335
 21
0.5295954286
  0
SPLINE
  5
33D
100
AcDbEntity
  8
0
100
AcDbSpline
 62
7
  6
CONTINUOUS
 70
0
 71
3
 72
18
 73
14
 74
0
 42
0.0000001
 43
0.0000001
 44
0.0000000001
 40
0.0
 40
0.0
 40
0.0
 40
0.0
 40
0.0090380047
 40
0.0250414555
 40
0.0482574785
 40
0.0787281106
 40
0.1164468542
 40
0.1613900905
 40
0.2728199823
 40
0.412734317
 40
0.5808231119
 40
0.7767366467
 40
1.0
 40
1.0
 40
1.0
 40
1.0
 10
4.0468758205
 20
0.5236603494
 30
0.0
 10
4.0468428942
 20
0.5236932757
 30
0.0
 10
4.0467939346
 20
0.5238184351
 30
0.0
 10
4.046729538
 20
0.5240554553
 30
0.0
 10
4.0466637009
 20
0.5244102306
 30
0.0
 10
4.0465948466
 20
0.5248754986
 30
0.0
 10
4.0465249391
 20
0.5254544576
 30
0.0
 10
4.0464229384
 20
0.5264491495
 30
0.0
 10
4.0462992385
 20
0.527970848
 30
0.0
 10
4.0461587664
 20
0.5301272584
 30
0.0
 10
4.0460207999
 20
0.5327198901
 30
0.0
 10
4.0458873539
 20
0.535742627
 30
0.0
 10
4.0458056651
 20
0.5379007408
 30
0.0
 10
4.0457645782
 20
0.5390502848
 30
0.0
  0
LINE
  5
33E
100
AcDbEntity
  8
0
100
AcDbLine
 62
7
  6
CONTINUOUS
 10
4.0457645782
 20
0.5390502848
 11
4.0452367922
 21
0.5570381683
  0
SPLINE
  5
33F
100
AcDbEntity
  8
0
100
AcDbSpline
 62
7
  6
CONTINUOUS
 70
0
 71
3
 72
15
 73
11
 74
0
 42
0.0000001
 43
0.0000001
 44
0.0000000001
 40
0.0
 40
0.0
 40
0.0
 40
0.0
 40
0.0968567707
 40
0.2087897387
 40
0.3326337176
 40
0.4649412481
 40
0.6018176797
 40
0.7393091129
 40
0.8734546204
 40
1.0
 40
1.0
 40
1.0
 40
1.0
 10
4.0449592576
 20
0.5682400212
 30
0.0
 10
4.0447793825
 20
0.5758225227
 30
0.0
 10
4.0444254095
 20
0.5921686096
 30
0.0
 10
4.0439819181
 20
0.6182126759
 30
0.0
 10
4.0435318707
 20
0.6470330167
 30
0.0
 10
4.0430289472
 20
0.6778060443
 30
0.0
 10
4.0425556321
 20
0.709648368
 30
0.0
 10
4.0421202494
 20
0.7416351752
 30
0.0
 10
4.041616884
 20
0.7728119028
 30
0.0
 10
4.0412522603
 20
0.7932227608
 30
0.0
 10
4.0410811335
 20
0.8031307657
 30
0.0
  0
SPLINE
  5
340
100
AcDbEntity
  8
0
100
AcDbSpline
 62
7
  6
CONTINUOUS
 70
0
 71
3
 72
14
 73
10
 74
0
 42
0.0000001
 43
0.0000001
 44
0.0000000001
 40
0.0
 40
0.0
 40
0.0
 40
0.0
 40
0.23787852
 40
0.3644439015
 40
0.4935807934
 40
0.6234868974
 40
0.7523694095
 40
0.8784547786
 40
1.0
 40
1.0
 40
1.0
 40
1.0
 10
4.0410811335
 20
0.8031307657
 30
0.0
 10
4.0419570665
 20
0.7892198788
 30
0.0
 10
4.0432956582
 20
0.7679072398
 30
0.0
 10
4.0449284336
 20
0.7390320196
 30
0.0
 10
4.0461327353
 20
0.7164694974
 30
0.0
 10
4.0473393188
 20
0.6937711361
 30
0.0
 10
4.0485721568
 20
0.6712532471
 30
0.0
 10
4.0498003697
 20
0.6492257637
 30
0.0
 10
4.0506151223
 20
0.6347387953
 30
0.0
 10
4.0510212819
 20
0.6276284719
 30
0.0
  0
SPLINE
  5
341
100
AcDbEntity
  8
0
100
AcDbSpline
 62
7
  6
CONTINUOUS
 70
0
 71
3
 72
9
 73
5
 74
0
 42
0.0000001
 43
0.0000001
 44
0.0000000001
 40
0.0
 40
0.0
 40
0.0
 40
0.0
 40
0.5000000022
 40
1.0
 40
1.0
 40
1.0
 40
1.0
 10
2.9003147032
 20
10.7927990592
 30
0.0
 10
2.8891575226
 20
10.7942025835
 30
0.0
 10
2.8666438785
 20
10.7955661575
 30
0.0
 10
2.8441302326
 20
10.7942026186
 30
0.0
 10
2.8329730495
 20
10.792799115
 30
0.0
  0
LINE
  5
342
100
AcDbEntity
  8
0
100
AcDbLine
 62
9
  6
CONTINUOUS
 10
3.2260096881
 20
0.9873076496
 11
3.0541098352
 21
0.8016271486
  0
SPLINE
  5
343
100
AcDbEntity
  8
0
100
AcDbSpline
 62
9
  6
CONTINUOUS
 70
0
 71
3
 72
9
 73
5
 74
0
 42
0.0000001
 43
0.0000001
 44
0.0000000001
 40
0.0
 40
0.0
 40
0.0
 40
0.0
 40
0.4972317048
 40
1.0
 40
1.0
 40
1.0
 40
1.0
 10
3.0541098352
 20
0.8016271486
 30
0.0
 10
3.0411491953
 20
0.7876694827
 30
0.0
 10
3.0149895063
 20
0.7596866982
 30
0.0
 10
2.988969467
 20
0.7315721788
 30
0.0
 10
2.9760186335
 20
0.7173175363
 30
0.0
  0
SPLINE
  5
344
100
AcDbEntity
  8
0
100
AcDbSpline
 62
7
  6
CONTINUOUS
 70
0
 71
3
 72
13
 73
9
 74
0
 42
0.0000001
 43
0.0000001
 44
0.0000000001
 40
0.0
 40
0.0
 40
0.0
 40
0.0
 40
0.0465442428
 40
0.1151203551
 40
0.2061937763
 40
0.3198789657
 40
0.6150033597
 40
1.0
 40
1.0
 40
1.0
 40
1.0
 10
3.1143994667
 20
1.1092731173
 30
0.0
 10
3.1143079238
 20
1.1093228717
 30
0.0
 10
3.1140624338
 20
1.1094079937
 30
0.0
 10
3.1136140641
 20
1.1095157461
 30
0.0
 10
3.113011158
 20
1.1096232323
 30
0.0
 10
3.1119033385
 20
1.1097807673
 30
0.0
 10
3.1101355076
 20
1.1099659978
 30
0.0
 10
3.1086182112
 20
1.1100910263
 30
0.0
 10
3.1077588665
 20
1.110156334
 30
0.0
  0
SPLINE
  5
345
100
AcDbEntity
  8
0
100
AcDbSpline
 62
7
  6
CONTINUOUS
 70
0
 71
3
 72
13
 73
9
 74
0
 42
0.0000001
 43
0.0000001
 44
0.0000000001
 40
0.0
 40
0.0
 40
0.0
 40
0.0
 40
0.0465594666
 40
0.1151171876
 40
0.2061662667
 40
0.3198320732
 40
0.6149509262
 40
1.0
 40
1.0
 40
1.0
 40
1.0
 10
3.1144000388
 20
1.1301088885
 30
0.0
 10
3.1143087622
 20
1.1301592229
 30
0.0
 10
3.1140634199
 20
1.1302450925
 30
0.0
 10
3.1136151582
 20
1.1303531688
 30
0.0
 10
3.1130122812
 20
1.1304604936
 30
0.0
 10
3.111904345
 20
1.1306172272
 30
0.0
 10
3.1101360851
 20
1.1308007831
 30
0.0
 10
3.1086184457
 20
1.1309247675
 30
0.0
 10
3.1077588623
 20
1.1309896677
 30
0.0
  0
SPLINE
  5
346
100
AcDbEntity
  8
0
100
AcDbSpline
 62
7
  6
CONTINUOUS
 70
0
 71
3
 72
13
 73
9
 74
0
 42
0.0000001
 43
0.0000001
 44
0.0000000001
 40
0.0
 40
0.0
 40
0.0
 40
0.0
 40
0.0461031799
 40
0.1143789583
 40
0.2052816315
 40
0.3189186337
 40
0.6142977445
 40
1.0
 40
1.0
 40
1.0
 40
1.0
 10
2.837632824
 20
1.0988508575
 30
0.0
 10
2.8377234805
 20
1.0989003546
 30
0.0
 10
2.8379676183
 20
1.0989850168
 30
0.0
 10
2.8384142565
 20
1.0990927443
 30
0.0
 10
2.8390164201
 20
1.0992007184
 30
0.0
 10
2.8401250478
 20
1.0993596894
 30
0.0
 10
2.8418961804
 20
1.0995472725
 30
0.0
 10
2.8434167898
 20
1.0996737378
 30
0.0
 10
2.8442783909
 20
1.0997396666
 30
0.0
  0
LINE
  5
347
100
AcDbEntity
  8
0
100
AcDbLine
 62
7
  6
CONTINUOUS
 10
2.8442783909
 20
1.0997396666
 11
2.8560602814
 21
1.1004325804
  0
SPLINE
  5
348
100
AcDbEntity
  8
0
100
AcDbSpline
 62
7
  6
CONTINUOUS
 70
0
 71
3
 72
23
 73
19
 74
0
 42
0.0000001
 43
0.0000001
 44
0.0000000001
 40
0.0
 40
0.0
 40
0.0
 40
0.0
 40
0.1168187967
 40
0.2634409778
 40
0.4266921448
 40
0.5099876613
 40
0.5918985617
 40
0.6705599115
 40
0.7442107437
 40
0.8111705897
 40
0.8699417339
 40
0.9191892831
 40
0.93988216
 40
0.9578079296
 40
0.9728601314
 40
0.9849389958
 40
0.9939925244
 40
1.0
 40
1.0
 40
1.0
 40
1.0
 10
2.8639579566
 20
1.1007812989
 30
0.0
 10
2.8736839768
 20
1.1011785868
 30
0.0
 10
2.8956249215
 20
1.1018826234
 30
0.0
 10
2.9311670818
 20
1.102829434
 30
0.0
 10
2.9639191571
 20
1.1036170056
 30
0.0
 10
2.9912806467
 20
1.1042706427
 30
0.0
 10
3.0115953742
 20
1.1047637757
 30
0.0
 10
3.0311061981
 20
1.1052569055
 30
0.0
 10
3.0493708059
 20
1.1057490134
 30
0.0
 10
3.0659774602
 20
1.1062387794
 30
0.0
 10
3.0805497379
 20
1.1067261008
 30
0.0
 10
3.0912665718
 20
1.1071519564
 30
0.0
 10
3.0985797136
 20
1.10750421
 30
0.0
 10
3.1030452642
 20
1.1077504008
 30
0.0
 10
3.1067917178
 20
1.107993477
 30
0.0
 10
3.109798295
 20
1.1082287885
 30
0.0
 10
3.1120469447
 20
1.1084621834
 30
0.0
 10
3.11329138
 20
1.1086423138
 30
0.0
 10
3.1137792736
 20
1.1087543121
 30
0.0
  0
LINE
  5
349
100
AcDbEntity
  8
0
100
AcDbLine
 62
7
  6
CONTINUOUS
 10
3.1137792736
 20
1.1087543121
 11
3.1145436335
 21
1.1091142901
  0
SPLINE
  5
34A
100
AcDbEntity
  8
0
100
AcDbSpline
 62
7
  6
CONTINUOUS
 70
0
 71
3
 72
13
 73
9
 74
0
 42
0.0000001
 43
0.0000001
 44
0.0000000001
 40
0.0
 40
0.0
 40
0.0
 40
0.0
 40
0.0467513251
 40
0.1154598932
 40
0.2066044931
 40
0.32030606
 40
0.6153118546
 40
1.0
 40
1.0
 40
1.0
 40
1.0
 10
2.8376399522
 20
1.1196931449
 30
0.0
 10
2.8377318223
 20
1.1197431891
 30
0.0
 10
2.8379778877
 20
1.1198287403
 30
0.0
 10
2.8384270162
 20
1.1199365943
 30
0.0
 10
2.8390302497
 20
1.1200437994
 30
0.0
 10
2.8401377238
 20
1.1202004228
 30
0.0
 10
2.8419041516
 20
1.1203840562
 30
0.0
 10
2.843420016
 20
1.1205081031
 30
0.0
 10
2.8442783886
 20
1.1205729998
 30
0.0
  0
LINE
  5
34B
100
AcDbEntity
  8
0
100
AcDbLine
 62
7
  6
CONTINUOUS
 10
2.8442783886
 20
1.1205729998
 11
2.8560602741
 21
1.1212645132
  0
SPLINE
  5
34C
100
AcDbEntity
  8
0
100
AcDbSpline
 62
7
  6
CONTINUOUS
 70
0
 71
3
 72
24
 73
20
 74
0
 42
0.0000001
 43
0.0000001
 44
0.0000000001
 40
0.0
 40
0.0
 40
0.0
 40
0.0
 40
0.047777694
 40
0.1058368072
 40
0.2468266106
 40
0.409190024
 40
0.4934625862
 40
0.5770477567
 40
0.6578833737
 40
0.7339820639
 40
0.8034750598
 40
0.864646335
 40
0.9160053328
 40
0.9375896113
 40
0.9562776483
 40
0.9719519219
 40
0.984499722
 40
0.9938569248
 40
1.0
 40
1.0
 40
1.0
 40
1.0
 10
2.8560602741
 20
1.1212645132
 30
0.0
 10
2.8601625538
 20
1.1214624847
 30
0.0
 10
2.8692528617
 20
1.1218390452
 30
0.0
 10
2.8904582518
 20
1.1225620151
 30
0.0
 10
2.9215143179
 20
1.1234183371
 30
0.0
 10
2.9548253024
 20
1.1242334328
 30
0.0
 10
2.983203615
 20
1.1249106007
 30
0.0
 10
3.0045755433
 20
1.1254248055
 30
0.0
 10
3.0252446307
 20
1.1259388705
 30
0.0
 10
3.0447019492
 20
1.1264523963
 30
0.0
 10
3.0624683475
 20
1.1269631627
 30
0.0
 10
3.0781071704
 20
1.1274708825
 30
0.0
 10
3.0896275365
 20
1.127914511
 30
0.0
 10
3.0974957062
 20
1.1282831108
 30
0.0
 10
3.102298207
 20
1.1285405345
 30
0.0
 10
3.1063225454
 20
1.1287942112
 30
0.0
 10
3.1095444435
 20
1.1290379058
 30
0.0
 10
3.1119424535
 20
1.1292790079
 30
0.0
 10
3.1132646472
 20
1.1294650857
 30
0.0
 10
3.1137792762
 20
1.1295834681
 30
0.0
  0
LINE
  5
34D
100
AcDbEntity
  8
0
100
AcDbLine
 62
7
  6
CONTINUOUS
 10
3.1137792762
 20
1.1295834681
 11
3.1145436335
 21
1.1299476235
  0
SPLINE
  5
34E
100
AcDbEntity
  8
0
100
AcDbSpline
 62
7
  6
CONTINUOUS
 70
0
 71
3
 72
13
 73
9
 74
0
 42
0.0000001
 43
0.0000001
 44
0.0000000001
 40
0.0
 40
0.0
 40
0.0
 40
0.0
 40
0.0459017051
 40
0.1139794994
 40
0.204740348
 40
0.3183109168
 40
0.613813229
 40
1.0
 40
1.0
 40
1.0
 40
1.0
 10
2.8376290584
 20
1.1405195109
 30
0.0
 10
2.8377186716
 20
1.1405700949
 30
0.0
 10
2.837961782
 20
1.1406560885
 30
0.0
 10
2.8384072606
 20
1.1407644945
 30
0.0
 10
2.8390089603
 20
1.1408724085
 30
0.0
 10
2.840118246
 20
1.1410304932
 30
0.0
 10
2.8418920167
 20
1.1412158552
 30
0.0
 10
2.8434150916
 20
1.1413409188
 30
0.0
 10
2.844278385
 20
1.1414063328
 30
0.0
  0
SPLINE
  5
34F
100
AcDbEntity
  8
0
100
AcDbSpline
 62
7
  6
CONTINUOUS
 70
0
 71
3
 72
13
 73
9
 74
0
 42
0.0000001
 43
0.0000001
 44
0.0000000001
 40
0.0
 40
0.0
 40
0.0
 40
0.0
 40
0.0430197977
 40
0.1091436831
 40
0.1987985221
 40
0.3120616009
 40
0.6092286678
 40
1.0
 40
1.0
 40
1.0
 40
1.0
 10
3.1144373011
 20
1.1212326415
 30
0.0
 10
3.1143535046
 20
1.1211839606
 30
0.0
 10
3.1141192121
 20
1.1211015437
 30
0.0
 10
3.1136853176
 20
1.1209937531
 30
0.0
 10
3.1130887366
 20
1.1208830945
 30
0.0
 10
3.1119747623
 20
1.1207160608
 30
0.0
 10
3.110180391
 20
1.1205156998
 30
0.0
 10
3.1086365123
 20
1.1203814532
 30
0.0
 10
3.1077589603
 20
1.1203120792
 30
0.0
  0
LINE
  5
350
100
AcDbEntity
  8
0
100
AcDbLine
 62
7
  6
CONTINUOUS
 10
3.1077589603
 20
1.1203120792
 11
3.0959770882
 21
1.1196152834
  0
SPLINE
  5
351
100
AcDbEntity
  8
0
100
AcDbSpline
 62
7
  6
CONTINUOUS
 70
0
 71
3
 72
24
 73
20
 74
0
 42
0.0000001
 43
0.0000001
 44
0.0000000001
 40
0.0
 40
0.0
 40
0.0
 40
0.0
 40
0.0477759891
 40
0.1058344332
 40
0.246822861
 40
0.4091844762
 40
0.4934561749
 40
0.5770404959
 40
0.6578752628
 40
0.7339731551
 40
0.8034655853
 40
0.8646364213
 40
0.9159943025
 40
0.9375777391
 40
0.9562653492
 40
0.9719404554
 40
0.9844916186
 40
0.9938541548
 40
1.0
 40
1.0
 40
1.0
 40
1.0
 10
3.0959770882
 20
1.1196152834
 30
0.0
 10
3.0918747711
 20
1.1194202255
 30
0.0
 10
3.0827843394
 20
1.1190496728
 30
0.0
 10
3.0615791847
 20
1.1183230211
 30
0.0
 10
3.0305231088
 20
1.117465989
 30
0.0
 10
2.9972120897
 20
1.116652024
 30
0.0
 10
2.9688337824
 20
1.1159743622
 30
0.0
 10
2.9474618462
 20
1.1154600329
 30
0.0
 10
2.9267927416
 20
1.1149462932
 30
0.0
 10
2.9073353841
 20
1.1144334644
 30
0.0
 10
2.8895689729
 20
1.1139217521
 30
0.0
 10
2.8739302521
 20
1.1134112459
 30
0.0
 10
2.8624098798
 20
1.1129706098
 30
0.0
 10
2.8545415518
 20
1.1126078638
 30
0.0
 10
2.8497389522
 20
1.1123521597
 30
0.0
 10
2.8457143309
 20
1.1120960887
 30
0.0
 10
2.842492475
 20
1.1118412815
 30
0.0
 10
2.8400946002
 20
1.1115862313
 30
0.0
 10
2.8387731928
 20
1.1113928843
 30
0.0
 10
2.8382579961
 20
1.1112758915
 30
0.0
  0
LINE
  5
352
100
AcDbEntity
  8
0
100
AcDbLine
 62
7
  6
CONTINUOUS
 10
2.8382579961
 20
1.1112758915
 11
2.8374936335
 21
1.1109374492
  0
SPLINE
  5
353
100
AcDbEntity
  8
0
100
AcDbSpline
 62
7
  6
CONTINUOUS
 70
0
 71
3
 72
12
 73
8
 74
0
 42
0.0000001
 43
0.0000001
 44
0.0000000001
 40
0.0
 40
0.0
 40
0.0
 40
0.0
 40
0.0506769314
 40
0.1225325846
 40
0.3302060685
 40
0.6229349644
 40
1.0
 40
1.0
 40
1.0
 40
1.0
 10
3.1035080837
 20
1.1150048695
 30
0.0
 10
3.1033487834
 20
1.1149464351
 30
0.0
 10
3.1029504613
 20
1.1148429414
 30
0.0
 10
3.1018641595
 20
1.1146379284
 30
0.0
 10
3.0999606891
 20
1.1144039548
 30
0.0
 10
3.0970354699
 20
1.1141341483
 30
0.0
 10
3.0947982716
 20
1.1139736777
 30
0.0
 10
3.0935385309
 20
1.1138900664
 30
0.0
  0
SPLINE
  5
354
100
AcDbEntity
  8
0
100
AcDbSpline
 62
7
  6
CONTINUOUS
 70
0
 71
3
 72
31
 73
27
 74
0
 42
0.0000001
 43
0.0000001
 44
0.0000000001
 40
0.0
 40
0.0
 40
0.0
 40
0.0
 40
0.0410404396
 40
0.0947471219
 40
0.1592158677
 40
0.2324697517
 40
0.312530432
 40
0.3973767697
 40
0.4846510994
 40
0.5718346964
 40
0.6564078357
 40
0.7358518601
 40
0.8078885109
 40
0.8405881225
 40
0.8708029758
 40
0.8983290144
 40
0.9229623858
 40
0.9444995845
 40
0.9627377481
 40
0.9774755623
 40
0.9834811454
 40
0.9885762258
 40
0.9927658498
 40
0.9960567624
 40
0.9984599114
 40
1.0
 40
1.0
 40
1.0
 40
1.0
 10
3.0935385309
 20
1.1138900664
 30
0.0
 10
3.0901886948
 20
1.1136677318
 30
0.0
 10
3.0824481968
 20
1.113262662
 30
0.0
 10
3.069434996
 20
1.1127266348
 30
0.0
 10
3.0537849046
 20
1.1121840991
 30
0.0
 10
3.0359780884
 20
1.1116373593
 30
0.0
 10
3.0165036684
 20
1.1110885661
 30
0.0
 10
2.9958819294
 20
1.11053971
 30
0.0
 10
2.9746773252
 20
1.1099906557
 30
0.0
 10
2.9534950781
 20
1.1094415787
 30
0.0
 10
2.9329535639
 20
1.1088932994
 30
0.0
 10
2.9136515438
 20
1.1083459092
 30
0.0
 10
2.8985924439
 20
1.1078760557
 30
0.0
 10
2.8875597087
 20
1.1074943506
 30
0.0
 10
2.8801666205
 20
1.10721772
 30
0.0
 10
2.8734338471
 20
1.1069416059
 30
0.0
 10
2.8674115601
 20
1.1066661639
 30
0.0
 10
2.8621498458
 20
1.1063919475
 30
0.0
 10
2.8576988469
 20
1.106119222
 30
0.0
 10
2.8545186782
 20
1.1058814897
 30
0.0
 10
2.8524142474
 20
1.1056841144
 30
0.0
 10
2.8511708193
 20
1.1055469537
 30
0.0
 10
2.8501513891
 20
1.1054104244
 30
0.0
 10
2.8493530545
 20
1.1052762258
 30
0.0
 10
2.8487776989
 20
1.1051431444
 30
0.0
 10
2.8484683334
 20
1.1050395457
 30
0.0
 10
2.8483592852
 20
1.1049764569
 30
0.0
  0
SPLINE
  5
355
100
AcDbEntity
  8
0
100
AcDbSpline
 62
7
  6
CONTINUOUS
 70
0
 71
3
 72
13
 73
9
 74
0
 42
0.0000001
 43
0.0000001
 44
0.0000000001
 40
0.0
 40
0.0
 40
0.0
 40
0.0
 40
0.0424005542
 40
0.1080857747
 40
0.1974834066
 40
0.3106669202
 40
0.6081940414
 40
1.0
 40
1.0
 40
1.0
 40
1.0
 10
2.8375938933
 20
1.1316546872
 30
0.0
 10
2.8376762127
 20
1.1316060496
 30
0.0
 10
2.8379084891
 20
1.1315239946
 30
0.0
 10
2.8383397164
 20
1.1314161761
 30
0.0
 10
2.838935115
 20
1.1313050857
 30
0.0
 10
2.8400500936
 20
1.1311366862
 30
0.0
 10
2.8418491132
 20
1.1309342192
 30
0.0
 10
2.8433976438
 20
1.1307986919
 30
0.0
 10
2.8442784029
 20
1.1307287384
 30
0.0
  0
LINE
  5
356
100
AcDbEntity
  8
0
100
AcDbLine
 62
7
  6
CONTINUOUS
 10
3.1077589515
 20
1.1411454119
 11
3.1025612651
 21
1.1407936711
  0
SPLINE
  5
357
100
AcDbEntity
  8
0
100
AcDbSpline
 62
7
  6
CONTINUOUS
 70
0
 71
3
 72
11
 73
7
 74
0
 42
0.0000001
 43
0.0000001
 44
0.0000000001
 40
0.0
 40
0.0
 40
0.0
 40
0.0
 40
0.1847767359
 40
0.4221162556
 40
0.6989571372
 40
1.0
 40
1.0
 40
1.0
 40
1.0
 10
3.0959770864
 20
1.1404479317
 30
0.0
 10
3.0894840243
 20
1.1401397967
 30
0.0
 10
3.0746441409
 20
1.1395818137
 30
0.0
 10
3.0500666796
 20
1.1388289658
 30
0.0
 10
3.0213972492
 20
1.1380760234
 30
0.0
 10
3.0010735764
 20
1.1375810045
 30
0.0
 10
2.9904860795
 20
1.1373261388
 30
0.0
  0
SPLINE
  5
358
100
AcDbEntity
  8
0
100
AcDbSpline
 62
7
  6
CONTINUOUS
 70
0
 71
3
 72
11
 73
7
 74
0
 42
0.0000001
 43
0.0000001
 44
0.0000000001
 40
0.0
 40
0.0
 40
0.0
 40
0.0
 40
0.3010654775
 40
0.5779142137
 40
0.8152460878
 40
1.0
 40
1.0
 40
1.0
 40
1.0
 10
2.9615276717
 20
1.1366315283
 30
0.0
 10
2.9509404946
 20
1.1363766671
 30
0.0
 10
2.9306178907
 20
1.1358816651
 30
0.0
 10
2.9019506801
 20
1.1351286609
 30
0.0
 10
2.8773766009
 20
1.1343759621
 30
0.0
 10
2.8625393581
 20
1.133817852
 30
0.0
 10
2.856047791
 20
1.13350959
 30
0.0
  0
SPLINE
  5
359
100
AcDbEntity
  8
0
100
AcDbSpline
 62
7
  6
CONTINUOUS
 70
0
 71
3
 72
12
 73
8
 74
0
 42
0.0000001
 43
0.0000001
 44
0.0000000001
 40
0.0
 40
0.0
 40
0.0
 40
0.0
 40
0.3688713077
 40
0.6604879664
 40
0.8713738861
 40
0.9460204166
 40
1.0
 40
1.0
 40
1.0
 40
1.0
 10
2.856047791
 20
1.13350959
 30
0.0
 10
2.8538547793
 20
1.1334054515
 30
0.0
 10
2.8499285647
 20
1.1332046835
 30
0.0
 10
2.8447533293
 20
1.1328673092
 30
0.0
 10
2.8413303776
 20
1.1325638471
 30
0.0
 10
2.8393265666
 20
1.1323026131
 30
0.0
 10
2.8385713573
 20
1.132172744
 30
0.0
 10
2.838257996
 20
1.1321018499
 30
0.0
  0
LINE
  5
35A
100
AcDbEntity
  8
0
100
AcDbLine
 62
7
  6
CONTINUOUS
 10
2.838257996
 20
1.1321018499
 11
2.8374936335
 21
1.1317707825
  0
LINE
  5
35B
100
AcDbEntity
  8
0
100
AcDbLine
 62
7
  6
CONTINUOUS
 10
3.1037614241
 20
1.1359318216
 11
3.1028622402
 21
1.1356589309
  0
LINE
  5
35C
100
AcDbEntity
  8
0
100
AcDbLine
 62
7
  6
CONTINUOUS
 10
3.1028622402
 20
1.1356589309
 11
3.0961130672
 21
1.134910014
  0
SPLINE
  5
35D
100
AcDbEntity
  8
0
100
AcDbSpline
 62
7
  6
CONTINUOUS
 70
0
 71
3
 72
12
 73
8
 74
0
 42
0.0000001
 43
0.0000001
 44
0.0000000001
 40
0.0
 40
0.0
 40
0.0
 40
0.0
 40
0.068795355
 40
0.1570484081
 40
0.3874422848
 40
0.6748261824
 40
1.0
 40
1.0
 40
1.0
 40
1.0
 10
3.0961130672
 20
1.134910014
 30
0.0
 10
3.0939688168
 20
1.1347462807
 30
0.0
 10
3.08906882
 20
1.1344396023
 30
0.0
 10
3.0769724291
 20
1.1338396564
 30
0.0
 10
3.0580405418
 20
1.1331440083
 30
0.0
 10
3.0317028968
 20
1.1323380635
 30
0.0
 10
3.0125617941
 20
1.1318179488
 30
0.0
 10
3.0024006788
 20
1.1315481586
 30
0.0
  0
LINE
  5
35E
100
AcDbEntity
  8
0
100
AcDbLine
 62
7
  6
CONTINUOUS
 10
3.0024006788
 20
1.1315481586
 11
2.9735321275
 21
1.1307939159
  0
SPLINE
  5
35F
100
AcDbEntity
  8
0
100
AcDbSpline
 62
7
  6
CONTINUOUS
 70
0
 71
3
 72
12
 73
8
 74
0
 42
0.0000001
 43
0.0000001
 44
0.0000000001
 40
0.0
 40
0.0
 40
0.0
 40
0.0
 40
0.3116394276
 40
0.5967768489
 40
0.8317037586
 40
0.9250835903
 40
1.0
 40
1.0
 40
1.0
 40
1.0
 10
2.9735321275
 20
1.1307939159
 30
0.0
 10
2.961656697
 20
1.1304859027
 30
0.0
 10
2.9389157136
 20
1.1298956939
 30
0.0
 10
2.9072245049
 20
1.1290026933
 30
0.0
 10
2.8838531831
 20
1.1282212143
 30
0.0
 10
2.8684968388
 20
1.127559712
 30
0.0
 10
2.8620902057
 20
1.1272210332
 30
0.0
 10
2.8592401348
 20
1.1270410465
 30
0.0
  0
SPLINE
  5
360
100
AcDbEntity
  8
0
100
AcDbSpline
 62
7
  6
CONTINUOUS
 70
0
 71
3
 72
14
 73
10
 74
0
 42
0.0000001
 43
0.0000001
 44
0.0000000001
 40
0.0
 40
0.0
 40
0.0
 40
0.0
 40
0.3958723703
 40
0.5584581518
 40
0.6966332433
 40
0.8097991772
 40
0.8977650385
 40
0.9609073247
 40
1.0
 40
1.0
 40
1.0
 40
1.0
 10
2.8592401348
 20
1.1270410465
 30
0.0
 10
2.8577878735
 20
1.1269493338
 30
0.0
 10
2.8557396803
 20
1.1268094663
 30
0.0
 10
2.8531881907
 20
1.1265927859
 30
0.0
 10
2.8516738997
 20
1.1264420886
 30
0.0
 10
2.8504360922
 20
1.1262919549
 30
0.0
 10
2.8494743921
 20
1.1261447993
 30
0.0
 10
2.8487928717
 20
1.1259981878
 30
0.0
 10
2.8484293106
 20
1.125884946
 30
0.0
 10
2.8483049158
 20
1.1258130091
 30
0.0
  0
ENDSEC
  0
SECTION
  2
OBJECTS
  0
DICTIONARY
  5
C
100
AcDbDictionary
280
0
281
1
  3
ACAD_GROUP
350
D
  3
ACAD_MLINESTYLE
350
17
  3
ACAD_LAYOUT
350
1A
  3
ACAD_PLOTSETTINGS
350
19
  3
ACAD_PLOTSTYLENAME
350
E
  0
DICTIONARY
  5
D
102
{ACAD_REACTORS
330
C
102
}
100
AcDbDictionary
280
0
281
1
  0
ACDBDICTIONARYWDFLT
  5
E
102
{ACAD_REACTORS
330
C
102
}
100
AcDbDictionary
281
1
  3
Normal
350
F
100
AcDbDictionaryWithDefault
340
F
  0
DICTIONARY
  5
17
102
{ACAD_REACTORS
330
C
102
}
100
AcDbDictionary
280
0
281
1
  3
Standard
350
18
  0
DICTIONARY
  5
19
102
{ACAD_REACTORS
330
C
102
}
100
AcDbDictionary
281
1
  0
DICTIONARY
  5
1A
102
{ACAD_REACTORS
330
C
102
}
100
AcDbDictionary
281
1
  3
Model
350
361
  3
Layout1
350
362
  0
ACDBPLACEHOLDER
  5
F
102
{ACAD_REACTORS
330
E
102
}
  0
MLINESTYLE
  5
18
102
{ACAD_REACTORS
330
17
102
}
100
AcDbMlineStyle
  2
STANDARD
 70
0
  3

 62
256
 51
90.0
 52
90.0
 71
2
 49
0.5
 62
256
  6
BYLAYER
 49
-0.5
 62
256
  6
BYLAYER
  0
LAYOUT
  5
361
102
{ACAD_REACTORS
330
1A
102
}
100
AcDbPlotSettings
  1

  2
none_device
  4

  6

 40
0.0
 41
0.0
 42
0.0
 43
0.0
 44
215.9
 45
279.4
 46
0.0
 47
0.0
 48
0.0
 49
0.0
140
0.0
141
0.0
142
1.0
143
1.0
 70
1024
 72
0
 73
0
 74
0
  7

 75
0
147
1.0
148
0.0
149
0.0
100
AcDbLayout
  1
Model
 70
0
 71
0
 10
0.0
 20
0.0
 11
8.5
 21
11.0
 12
0.0
 22
0.0
 32
0.0
 14
0.0
 24
0.0
 34
0.0
 15
0.0
 25
0.0
 35
0.0
146
0.0
 13
0.0
 23
0.0
 33
0.0
 16
1.0
 26
0.0
 36
0.0
 17
0.0
 27
1.0
 37
0.0
 76
0
330
246
345
0
346
0
  0
LAYOUT
  5
362
102
{ACAD_REACTORS
330
1A
102
}
100
AcDbPlotSettings
  1

  2
none_device
  4

  6

 40
0.0
 41
0.0
 42
0.0
 43
0.0
 44
215.9
 45
279.4
 46
0.0
 47
0.0
 48
0.0
 49
0.0
140
0.0
141
0.0
142
1.0
143
1.0
 70
0
 72
0
 73
0
 74
0
  7

 75
0
147
1.0
148
0.0
149
0.0
100
AcDbLayout
  1
Layout1
 70
0
 71
1
 10
0.0
 20
0.0
 11
8.5
 21
11.0
 12
0.0
 22
0.0
 32
0.0
 14
0.0
 24
0.0
 34
0.0
 15
0.0
 25
0.0
 35
0.0
146
0.0
 13
0.0
 23
0.0
 33
0.0
 16
1.0
 26
0.0
 36
0.0
 17
0.0
 27
1.0
 37
0.0
 76
0
330
247
345
0
346
0
  0
ENDSEC
  0
EOF
