999
DXF file: C:\Prowork\plots\493x_right.dxf
999
Pro/ENGINEER 2018500 by Parametric Technology Corporation
  0
SECTION
  2
HEADER
  9
$ACADVER
  1
AC1032
  9
$DWGCODEPAGE
  3
ANSI_1252
  9
$EXTMAX
 10
8.5
 20
11.0
 30
0.0
  9
$EXTMIN
 10
0.0
 20
0.0
 30
0.0
  9
$LIMMIN
 10
0.0
 20
0.0
  9
$LIMMAX
 10
8.5
 20
11.0
  9
$VIEWCTR
 10
4.25
 20
5.5
  9
$VIEWSIZE
 40
11.0
  9
$CLAYER
  8
0
  9
$LTSCALE
 40
0.717037037
  9
$CELTYPE
  6
BYLAYER
  9
$DIMSCALE
 40
1.0
  9
$DIMASZ
 40
0.1
  9
$DIMEXO
 40
0.0625
  9
$DIMDLI
 40
0.4954074074
  9
$DIMEXE
 40
0.125
  9
$DIMCEN
 40
0.1173333333
  9
$DIMLFAC
 40
1.0
  9
$DIMBLK
  1
_FILLED
  9
$DIMALT
 70
1
  9
$DIMALTD
 70
2
  9
$DIMALTTD
 70
2
  9
$DIMALTF
 40
25.4
  9
$DIMTXT
 40
0.08
  9
$DIMTOL
 70
1
  9
$DIMLIM
 70
0
  9
$DIMTFAC
 40
1.0
  9
$DIMTP
 40
0.001
  9
$DIMTM
 40
0.001
  9
$DIMGAP
 40
0.09
  9
$DIMDSEP
 70
46
  9
$AUNITS
 70
0
  9
$PDMODE
 70
3
  9
$PDSIZE
 40
0.06
  9
$HANDSEED
  5
53E
  9
$TILEMODE
 70
1
  9
$MEASUREMENT
 70
0
  9
$INSUNITS
 70
1
  0
ENDSEC
  0
SECTION
  2
CLASSES
  0
CLASS
  1
ACDBDICTIONARYWDFLT
  2
AcDbDictionaryWithDefault
  3
AutoCAD 2000
 90
0
 91
1
280
0
281
0
  0
CLASS
  1
ACDBPLACEHOLDER
  2
AcDbPlaceHolder
  3
AutoCAD 2000
 90
0
 91
1
280
0
281
0
  0
CLASS
  1
LAYOUT
  2
AcDbLayout
  3
AutoCAD 2000
 90
0
 91
0
280
0
281
0
  0
ENDSEC
  0
SECTION
  2
TABLES
  0
TABLE
  2
VPORT
  5
8
100
AcDbSymbolTable
 70
2
  0
VPORT
  5
1F4
100
AcDbSymbolTableRecord
100
AcDbViewportTableRecord
  2
*ACTIVE
 70
0
 10
0.0
 20
0.0
 11
1.0
 21
1.0
 12
4.25
 22
5.5
 13
0.0
 23
0.0
 14
1.0
 24
1.0
 15
0.0
 25
0.0
 16
0.0
 26
0.0
 36
1.0
 17
0.0
 27
0.0
 37
0.0
 40
11.0
 41
0.7727272727
 42
50.0
 43
0.0
 44
0.0
 50
0.0
 51
0.0
 71
0
 72
100
 73
1
 74
1
 75
0
 76
0
 77
0
 78
0
  0
ENDTAB
  0
TABLE
  2
LTYPE
  5
5
100
AcDbSymbolTable
 70
6
  0
LTYPE
  5
14
100
AcDbSymbolTableRecord
100
AcDbLinetypeTableRecord
  2
BYBLOCK
 70
0
  3

 72
65
 73
0
 40
0.0
  0
LTYPE
  5
15
100
AcDbSymbolTableRecord
100
AcDbLinetypeTableRecord
  2
BYLAYER
 70
0
  3

 72
65
 73
0
 40
0.0
  0
LTYPE
  5
16
100
AcDbSymbolTableRecord
100
AcDbLinetypeTableRecord
  2
CONTINUOUS
 70
64
  3
Solid line
 72
65
 73
0
 40
0.0
  0
LTYPE
  5
1F5
100
AcDbSymbolTableRecord
100
AcDbLinetypeTableRecord
  2
CENTER
 70
64
  3
____ _ ____ _ ____ _ ____ _ ____ _ ____ _ ____
 72
65
 73
4
 40
0.6
 49
0.375
 74
0
 49
-0.075
 74
0
 49
0.075
 74
0
 49
-0.075
 74
0
  0
LTYPE
  5
1F6
100
AcDbSymbolTableRecord
100
AcDbLinetypeTableRecord
  2
HIDDEN
 70
64
  3
- - - - - - - - - - - - - - - - - - - -
 72
65
 73
2
 40
0.2
 49
0.1
 74
0
 49
-0.1
 74
0
  0
LTYPE
  5
1F7
100
AcDbSymbolTableRecord
100
AcDbLinetypeTableRecord
  2
PHANTOM
 70
64
  3
_____ _ _ _____ _ _ _____ _ _ _____
 72
65
 73
6
 40
0.8
 49
0.45
 74
0
 49
-0.05
 74
0
 49
0.1
 74
0
 49
-0.05
 74
0
 49
0.1
 74
0
 49
-0.05
 74
0
  0
LTYPE
  5
1F8
100
AcDbSymbolTableRecord
100
AcDbLinetypeTableRecord
  2
DOT
 70
64
  3
. . . . . . . . . . . . . . . . . . . .
 72
65
 73
2
 40
0.2
 49
0.1
 74
0
 49
-0.1
 74
0
  0
LTYPE
  5
1F9
100
AcDbSymbolTableRecord
100
AcDbLinetypeTableRecord
  2
DASHED
 70
64
  3
- - - - - - - - - - - - - - - - - - - -
 72
65
 73
2
 40
0.2
 49
0.1
 74
0
 49
-0.1
 74
0
  0
ENDTAB
  0
TABLE
  2
LAYER
  5
2
100
AcDbSymbolTable
 70
36
  0
LAYER
  5
10
100
AcDbSymbolTableRecord
100
AcDbLayerTableRecord
  2
0
 70
0
 62
7
  6
CONTINUOUS
370
-3
390
F
  0
LAYER
  5
1FA
100
AcDbSymbolTableRecord
100
AcDbLayerTableRecord
  2
DEFAULT_1
 70
0
 62
7
  6
CENTER
370
-3
390
F
  0
LAYER
  5
1FB
100
AcDbSymbolTableRecord
100
AcDbLayerTableRecord
  2
DEFAULT_2
 70
0
 62
8
  6
HIDDEN
370
-3
390
F
  0
LAYER
  5
1FC
100
AcDbSymbolTableRecord
100
AcDbLayerTableRecord
  2
DEFAULT_3
 70
0
 62
7
  6
PHANTOM
370
-3
390
F
  0
LAYER
  5
1FD
100
AcDbSymbolTableRecord
100
AcDbLayerTableRecord
  2
1-257
 70
0
 62
7
  6
CONTINUOUS
370
-3
390
F
  0
LAYER
  5
1FE
100
AcDbSymbolTableRecord
100
AcDbLayerTableRecord
  2
1-257_1
 70
0
 62
7
  6
CONTINUOUS
370
-3
390
F
  0
LAYER
  5
1FF
100
AcDbSymbolTableRecord
100
AcDbLayerTableRecord
  2
10182
 70
0
 62
7
  6
CONTINUOUS
370
-3
390
F
  0
LAYER
  5
200
100
AcDbSymbolTableRecord
100
AcDbLayerTableRecord
  2
10182_1
 70
0
 62
7
  6
CONTINUOUS
370
-3
390
F
  0
LAYER
  5
201
100
AcDbSymbolTableRecord
100
AcDbLayerTableRecord
  2
403X
 70
0
 62
7
  6
CONTINUOUS
370
-3
390
F
  0
LAYER
  5
202
100
AcDbSymbolTableRecord
100
AcDbLayerTableRecord
  2
403X_1
 70
0
 62
7
  6
CONTINUOUS
370
-3
390
F
  0
LAYER
  5
203
100
AcDbSymbolTableRecord
100
AcDbLayerTableRecord
  2
432
 70
0
 62
7
  6
CONTINUOUS
370
-3
390
F
  0
LAYER
  5
204
100
AcDbSymbolTableRecord
100
AcDbLayerTableRecord
  2
432_1
 70
0
 62
7
  6
CONTINUOUS
370
-3
390
F
  0
LAYER
  5
205
100
AcDbSymbolTableRecord
100
AcDbLayerTableRecord
  2
441
 70
0
 62
7
  6
CONTINUOUS
370
-3
390
F
  0
LAYER
  5
206
100
AcDbSymbolTableRecord
100
AcDbLayerTableRecord
  2
441_1
 70
0
 62
7
  6
CONTINUOUS
370
-3
390
F
  0
LAYER
  5
207
100
AcDbSymbolTableRecord
100
AcDbLayerTableRecord
  2
50350
 70
0
 62
7
  6
CONTINUOUS
370
-3
390
F
  0
LAYER
  5
208
100
AcDbSymbolTableRecord
100
AcDbLayerTableRecord
  2
50350_1
 70
0
 62
7
  6
CONTINUOUS
370
-3
390
F
  0
LAYER
  5
209
100
AcDbSymbolTableRecord
100
AcDbLayerTableRecord
  2
50356
 70
0
 62
7
  6
CONTINUOUS
370
-3
390
F
  0
LAYER
  5
20A
100
AcDbSymbolTableRecord
100
AcDbLayerTableRecord
  2
50356_1
 70
0
 62
7
  6
CONTINUOUS
370
-3
390
F
  0
LAYER
  5
20B
100
AcDbSymbolTableRecord
100
AcDbLayerTableRecord
  2
50359
 70
0
 62
7
  6
CONTINUOUS
370
-3
390
F
  0
LAYER
  5
20C
100
AcDbSymbolTableRecord
100
AcDbLayerTableRecord
  2
50359_1
 70
0
 62
7
  6
CONTINUOUS
370
-3
390
F
  0
LAYER
  5
20D
100
AcDbSymbolTableRecord
100
AcDbLayerTableRecord
  2
50362
 70
0
 62
7
  6
CONTINUOUS
370
-3
390
F
  0
LAYER
  5
20E
100
AcDbSymbolTableRecord
100
AcDbLayerTableRecord
  2
50362_1
 70
0
 62
7
  6
CONTINUOUS
370
-3
390
F
  0
LAYER
  5
20F
100
AcDbSymbolTableRecord
100
AcDbLayerTableRecord
  2
50663
 70
0
 62
7
  6
CONTINUOUS
370
-3
390
F
  0
LAYER
  5
210
100
AcDbSymbolTableRecord
100
AcDbLayerTableRecord
  2
50663_1
 70
0
 62
7
  6
CONTINUOUS
370
-3
390
F
  0
LAYER
  5
211
100
AcDbSymbolTableRecord
100
AcDbLayerTableRecord
  2
50664
 70
0
 62
7
  6
CONTINUOUS
370
-3
390
F
  0
LAYER
  5
212
100
AcDbSymbolTableRecord
100
AcDbLayerTableRecord
  2
50664_1
 70
0
 62
7
  6
CONTINUOUS
370
-3
390
F
  0
LAYER
  5
213
100
AcDbSymbolTableRecord
100
AcDbLayerTableRecord
  2
50668
 70
0
 62
7
  6
CONTINUOUS
370
-3
390
F
  0
LAYER
  5
214
100
AcDbSymbolTableRecord
100
AcDbLayerTableRecord
  2
50668_1
 70
0
 62
7
  6
CONTINUOUS
370
-3
390
F
  0
LAYER
  5
215
100
AcDbSymbolTableRecord
100
AcDbLayerTableRecord
  2
50675
 70
0
 62
7
  6
CONTINUOUS
370
-3
390
F
  0
LAYER
  5
216
100
AcDbSymbolTableRecord
100
AcDbLayerTableRecord
  2
50675_1
 70
0
 62
7
  6
CONTINUOUS
370
-3
390
F
  0
LAYER
  5
217
100
AcDbSymbolTableRecord
100
AcDbLayerTableRecord
  2
50677
 70
0
 62
7
  6
CONTINUOUS
370
-3
390
F
  0
LAYER
  5
218
100
AcDbSymbolTableRecord
100
AcDbLayerTableRecord
  2
50677_1
 70
0
 62
7
  6
CONTINUOUS
370
-3
390
F
  0
LAYER
  5
219
100
AcDbSymbolTableRecord
100
AcDbLayerTableRecord
  2
50678
 70
0
 62
7
  6
CONTINUOUS
370
-3
390
F
  0
LAYER
  5
21A
100
AcDbSymbolTableRecord
100
AcDbLayerTableRecord
  2
50678_1
 70
0
 62
7
  6
CONTINUOUS
370
-3
390
F
  0
LAYER
  5
21B
100
AcDbSymbolTableRecord
100
AcDbLayerTableRecord
  2
50680
 70
0
 62
7
  6
CONTINUOUS
370
-3
390
F
  0
LAYER
  5
21C
100
AcDbSymbolTableRecord
100
AcDbLayerTableRecord
  2
50680_1
 70
0
 62
7
  6
CONTINUOUS
370
-3
390
F
  0
LAYER
  5
21D
100
AcDbSymbolTableRecord
100
AcDbLayerTableRecord
  2
50846
 70
0
 62
7
  6
CONTINUOUS
370
-3
390
F
  0
LAYER
  5
21E
100
AcDbSymbolTableRecord
100
AcDbLayerTableRecord
  2
50846_1
 70
0
 62
7
  6
CONTINUOUS
370
-3
390
F
  0
LAYER
  5
21F
100
AcDbSymbolTableRecord
100
AcDbLayerTableRecord
  2
50851
 70
0
 62
7
  6
CONTINUOUS
370
-3
390
F
  0
LAYER
  5
220
100
AcDbSymbolTableRecord
100
AcDbLayerTableRecord
  2
50851_1
 70
0
 62
7
  6
CONTINUOUS
370
-3
390
F
  0
LAYER
  5
221
100
AcDbSymbolTableRecord
100
AcDbLayerTableRecord
  2
6-403
 70
0
 62
7
  6
CONTINUOUS
370
-3
390
F
  0
LAYER
  5
222
100
AcDbSymbolTableRecord
100
AcDbLayerTableRecord
  2
6-403_1
 70
0
 62
7
  6
CONTINUOUS
370
-3
390
F
  0
LAYER
  5
223
100
AcDbSymbolTableRecord
100
AcDbLayerTableRecord
  2
92000
 70
0
 62
7
  6
CONTINUOUS
370
-3
390
F
  0
LAYER
  5
224
100
AcDbSymbolTableRecord
100
AcDbLayerTableRecord
  2
92000_1
 70
0
 62
7
  6
CONTINUOUS
370
-3
390
F
  0
LAYER
  5
225
100
AcDbSymbolTableRecord
100
AcDbLayerTableRecord
  2
ALL_FEATURES_13
 70
0
 62
7
  6
CONTINUOUS
370
-3
390
F
  0
LAYER
  5
226
100
AcDbSymbolTableRecord
100
AcDbLayerTableRecord
  2
DEFAULT_COORDINATE_SYSTEM
 70
0
 62
7
  6
CONTINUOUS
370
-3
390
F
  0
LAYER
  5
227
100
AcDbSymbolTableRecord
100
AcDbLayerTableRecord
  2
DEFAULT_DATUM_AXES
 70
0
 62
7
  6
CONTINUOUS
370
-3
390
F
  0
LAYER
  5
228
100
AcDbSymbolTableRecord
100
AcDbLayerTableRecord
  2
DEFAULT_DATUM_PLANES
 70
0
 62
7
  6
CONTINUOUS
370
-3
390
F
  0
LAYER
  5
229
100
AcDbSymbolTableRecord
100
AcDbLayerTableRecord
  2
DEFAULT_SURFACES
 70
0
 62
7
  6
CONTINUOUS
370
-3
390
F
  0
LAYER
  5
22A
100
AcDbSymbolTableRecord
100
AcDbLayerTableRecord
  2
INTF_10182
 70
0
 62
7
  6
CONTINUOUS
370
-3
390
F
  0
LAYER
  5
22B
100
AcDbSymbolTableRecord
100
AcDbLayerTableRecord
  2
INTF_50350
 70
0
 62
7
  6
CONTINUOUS
370
-3
390
F
  0
LAYER
  5
22C
100
AcDbSymbolTableRecord
100
AcDbLayerTableRecord
  2
INTF_50356
 70
0
 62
7
  6
CONTINUOUS
370
-3
390
F
  0
LAYER
  5
22D
100
AcDbSymbolTableRecord
100
AcDbLayerTableRecord
  2
INTF_50359
 70
0
 62
7
  6
CONTINUOUS
370
-3
390
F
  0
LAYER
  5
22E
100
AcDbSymbolTableRecord
100
AcDbLayerTableRecord
  2
INTF_50362
 70
0
 62
7
  6
CONTINUOUS
370
-3
390
F
  0
LAYER
  5
22F
100
AcDbSymbolTableRecord
100
AcDbLayerTableRecord
  2
INTF_50663
 70
0
 62
7
  6
CONTINUOUS
370
-3
390
F
  0
LAYER
  5
230
100
AcDbSymbolTableRecord
100
AcDbLayerTableRecord
  2
INTF_50664
 70
0
 62
7
  6
CONTINUOUS
370
-3
390
F
  0
LAYER
  5
231
100
AcDbSymbolTableRecord
100
AcDbLayerTableRecord
  2
INTF_50668
 70
0
 62
7
  6
CONTINUOUS
370
-3
390
F
  0
LAYER
  5
232
100
AcDbSymbolTableRecord
100
AcDbLayerTableRecord
  2
INTF_50675
 70
0
 62
7
  6
CONTINUOUS
370
-3
390
F
  0
LAYER
  5
233
100
AcDbSymbolTableRecord
100
AcDbLayerTableRecord
  2
INTF_50677
 70
0
 62
7
  6
CONTINUOUS
370
-3
390
F
  0
LAYER
  5
234
100
AcDbSymbolTableRecord
100
AcDbLayerTableRecord
  2
INTF_50678
 70
0
 62
7
  6
CONTINUOUS
370
-3
390
F
  0
LAYER
  5
235
100
AcDbSymbolTableRecord
100
AcDbLayerTableRecord
  2
INTF_50680
 70
0
 62
7
  6
CONTINUOUS
370
-3
390
F
  0
LAYER
  5
236
100
AcDbSymbolTableRecord
100
AcDbLayerTableRecord
  2
INTF_50846
 70
0
 62
7
  6
CONTINUOUS
370
-3
390
F
  0
LAYER
  5
237
100
AcDbSymbolTableRecord
100
AcDbLayerTableRecord
  2
INTF_50851
 70
0
 62
7
  6
CONTINUOUS
370
-3
390
F
  0
LAYER
  5
238
100
AcDbSymbolTableRecord
100
AcDbLayerTableRecord
  2
INTF_92000
 70
0
 62
7
  6
CONTINUOUS
370
-3
390
F
  0
LAYER
  5
239
100
AcDbSymbolTableRecord
100
AcDbLayerTableRecord
  2
INTF_BLANK
 70
0
 62
7
  6
CONTINUOUS
370
-3
390
F
  0
LAYER
  5
23A
100
AcDbSymbolTableRecord
100
AcDbLayerTableRecord
  2
PLATED_SURFACE
 70
0
 62
7
  6
CONTINUOUS
370
-3
390
F
  0
LAYER
  5
23B
100
AcDbSymbolTableRecord
100
AcDbLayerTableRecord
  2
PLATED_SURFACE_1
 70
0
 62
7
  6
CONTINUOUS
370
-3
390
F
  0
LAYER
  5
23C
100
AcDbSymbolTableRecord
100
AcDbLayerTableRecord
  2
WETTED_SURFACES
 70
0
 62
7
  6
CONTINUOUS
370
-3
390
F
  0
LAYER
  5
23D
100
AcDbSymbolTableRecord
100
AcDbLayerTableRecord
  2
_BLACK_HOLE
 70
0
 62
7
  6
CONTINUOUS
370
-3
390
F
  0
ENDTAB
  0
TABLE
  2
STYLE
  5
3
100
AcDbSymbolTable
 70
1
  0
STYLE
  5
11
100
AcDbSymbolTableRecord
100
AcDbTextStyleTableRecord
  2
STANDARD
 70
0
 40
0.0
 41
0.8
 50
0.0
 71
0
 42
0.2
  3
txt
  4

  0
STYLE
  5
23E
100
AcDbSymbolTableRecord
100
AcDbTextStyleTableRecord
  2
TEXTSTYLE_1
 70
0
 40
0.0
 41
0.8
 50
0.0
 71
0
 42
0.2
  3
gdt
  4

  0
ENDTAB
  0
TABLE
  2
VIEW
  5
6
100
AcDbSymbolTable
 70
0
  0
ENDTAB
  0
TABLE
  2
UCS
  5
7
100
AcDbSymbolTable
 70
0
  0
ENDTAB
  0
TABLE
  2
APPID
  5
9
100
AcDbSymbolTable
 70
1
  0
APPID
  5
23F
100
AcDbSymbolTableRecord
100
AcDbRegAppTableRecord
  2
ACAD
 70
0
  0
ENDTAB
  0
TABLE
  2
BLOCK_RECORD
  5
1
100
AcDbSymbolTable
 70
0
  0
BLOCK_RECORD
  5
240
100
AcDbSymbolTableRecord
100
AcDbBlockTableRecord
  2
*Model_Space
  0
BLOCK_RECORD
  5
241
100
AcDbSymbolTableRecord
100
AcDbBlockTableRecord
  2
*Paper_Space
  0
BLOCK_RECORD
  5
242
100
AcDbSymbolTableRecord
100
AcDbBlockTableRecord
  2
_FILLED
  0
ENDTAB
  0
TABLE
  2
DIMSTYLE
  5
A
100
AcDbSymbolTable
 70
1
100
AcDbDimStyleTable
 71
0
  0
DIMSTYLE
105
243
100
AcDbSymbolTableRecord
100
AcDbDimStyleTableRecord
  2
STANDARD
 70
0
  3

  4

 40
1.0
 41
0.1
 42
0.0625
 43
0.38
 44
0.125
 45
0.0
 46
0.0
 47
0.001
 48
0.001
140
0.08
141
0.09
142
0.0
143
25.4
144
1.0
145
0.0
146
1.0
147
0.09
 71
1.0
 72
0.0
 73
1
 74
1
 75
0
 76
0
 77
0
 78
4
 79
1
170
1
171
2
172
0
173
0
174
0
175
0
176
0
177
0
178
0
270
2
179
3
271
3
272
3
273
2
274
2
275
0
280
0
281
0
282
0
283
1
284
4
285
0
286
0
287
3
288
0
340
11
278
46
341
242
342
242
343
242
344
242
  0
ENDTAB
  0
ENDSEC
  0
SECTION
  2
BLOCKS
  0
BLOCK
  5
20
100
AcDbEntity
  8
0
100
AcDbBlockBegin
  2
*Model_Space
 70
0
 10
0.0
 20
0.0
 30
0.0
  3
*Model_Space
  1

  0
ENDBLK
  5
21
100
AcDbEntity
  8
0
100
AcDbBlockEnd
  0
BLOCK
  5
1C
100
AcDbEntity
  8
0
100
AcDbBlockBegin
  2
*Paper_Space
 70
0
 10
0.0
 20
0.0
 30
0.0
  3
*Paper_Space
  1

  0
ENDBLK
  5
1D
100
AcDbEntity
  8
0
100
AcDbBlockEnd
  0
BLOCK
  5
244
100
AcDbEntity
  8
0
100
AcDbBlockBegin
  2
_FILLED
 70
64
 10
0.0
 20
0.0
  3
_FILLED
  1

  0
SOLID
  5
245
100
AcDbEntity
  8
0
  6
BYBLOCK
 62
0
100
AcDbTrace
 10
0.0
 20
0.0
 11
-1.0
 21
0.2
 12
-1.0
 22
-0.2
 13
-1.0
 23
-0.2
  0
ENDBLK
  5
246
100
AcDbEntity
  8
0
  6
BYBLOCK
 62
0
100
AcDbBlockEnd
  0
ENDSEC
  0
SECTION
  2
ENTITIES
  0
MTEXT
  5
247
100
AcDbEntity
  8
0
100
AcDbMText
 62
7
  6
CONTINUOUS
  7
STANDARD
 71
1
 72
1
 10
6.7574534161
 20
0.3542857143
 30
0.0
 11
1.0
 21
0.0
 31
0.0
 73
2
 44
0.9
  1
SCALE: .50
 40
0.08
 41
0.64
  0
LINE
  5
248
100
AcDbEntity
  8
0
100
AcDbLine
 62
7
  6
CONTINUOUS
 10
0.0
 20
0.0
 11
8.5
 21
0.0
  0
LINE
  5
249
100
AcDbEntity
  8
0
100
AcDbLine
 62
7
  6
CONTINUOUS
 10
0.0
 20
0.0
 11
0.0
 21
11.0
  0
LINE
  5
24A
100
AcDbEntity
  8
0
100
AcDbLine
 62
7
  6
CONTINUOUS
 10
8.5
 20
0.0
 11
8.5
 21
11.0
  0
LINE
  5
24B
100
AcDbEntity
  8
0
100
AcDbLine
 62
7
  6
CONTINUOUS
 10
0.0
 20
11.0
 11
8.5
 21
11.0
  0
LINE
  5
24C
100
AcDbEntity
  8
0
100
AcDbLine
 62
7
  6
CONTINUOUS
 10
5.1704180089
 20
0.2739285714
 11
5.2255597826
 21
0.2739285714
  0
LINE
  5
24D
100
AcDbEntity
  8
0
100
AcDbLine
 62
7
  6
CONTINUOUS
 10
3.2543097826
 20
10.5227454319
 11
3.2563097826
 21
10.5239285714
  0
LINE
  5
24E
100
AcDbEntity
  8
0
100
AcDbLine
 62
7
  6
CONTINUOUS
 10
4.0693097826
 20
0.6463378287
 11
3.7880597826
 21
0.6463378287
  0
LINE
  5
24F
100
AcDbEntity
  8
0
100
AcDbLine
 62
7
  6
CONTINUOUS
 10
3.1693343825
 20
0.6502053421
 11
3.08521445
 21
0.6502053421
  0
LINE
  5
250
100
AcDbEntity
  8
0
100
AcDbLine
 62
9
  6
CONTINUOUS
 10
3.0838009877
 20
0.653554707
 11
3.1707478447
 21
0.653554707
  0
LINE
  5
251
100
AcDbEntity
  8
0
100
AcDbLine
 62
7
  6
CONTINUOUS
 10
3.1850597826
 20
0.6839285714
 11
3.1975597826
 21
0.6839285714
  0
LINE
  5
252
100
AcDbEntity
  8
0
100
AcDbLine
 62
7
  6
CONTINUOUS
 10
3.2605597826
 20
0.6958035714
 11
3.2234004317
 21
0.6958035714
  0
LINE
  5
253
100
AcDbEntity
  8
0
100
AcDbLine
 62
7
  6
CONTINUOUS
 10
3.2027190742
 20
0.6958035714
 11
3.1984033867
 21
0.6958035714
  0
LINE
  5
254
100
AcDbEntity
  8
0
100
AcDbLine
 62
7
  6
CONTINUOUS
 10
3.7230597826
 20
0.6958035714
 11
3.7389687856
 21
0.6958035714
  0
LINE
  5
255
100
AcDbEntity
  8
0
100
AcDbLine
 62
7
  6
CONTINUOUS
 10
3.7596510073
 20
0.6958035714
 11
3.76675288
 21
0.6958035714
  0
LINE
  5
256
100
AcDbEntity
  8
0
100
AcDbLine
 62
7
  6
CONTINUOUS
 10
3.3105597826
 20
0.6989285714
 11
3.6355597826
 21
0.6989285714
  0
LINE
  5
257
100
AcDbEntity
  8
0
100
AcDbLine
 62
7
  6
CONTINUOUS
 10
3.7230597826
 20
0.7039285714
 11
3.6355597826
 21
0.7039285714
  0
LINE
  5
258
100
AcDbEntity
  8
0
100
AcDbLine
 62
7
  6
CONTINUOUS
 10
3.2114994005
 20
0.7110074774
 11
3.2146244005
 21
0.7110074774
  0
LINE
  5
259
100
AcDbEntity
  8
0
100
AcDbLine
 62
7
  6
CONTINUOUS
 10
3.7477492047
 20
0.7110081815
 11
3.7508742047
 21
0.7110081815
  0
LINE
  5
25A
100
AcDbEntity
  8
0
100
AcDbLine
 62
7
  6
CONTINUOUS
 10
3.7755416462
 20
0.7110338398
 11
3.7786666462
 21
0.7110338398
  0
LINE
  5
25B
100
AcDbEntity
  8
0
100
AcDbLine
 62
7
  6
CONTINUOUS
 10
3.3105597826
 20
0.7114285714
 11
3.2605597826
 21
0.7114285714
  0
LINE
  5
25C
100
AcDbEntity
  8
0
100
AcDbLine
 62
7
  6
CONTINUOUS
 10
3.2252215585
 20
0.7345969944
 11
3.2458980067
 21
0.7345969944
  0
LINE
  5
25D
100
AcDbEntity
  8
0
100
AcDbLine
 62
7
  6
CONTINUOUS
 10
3.0300597826
 20
0.7416785714
 11
3.0425597826
 21
0.7416785714
  0
LINE
  5
25E
100
AcDbEntity
  8
0
100
AcDbLine
 62
7
  6
CONTINUOUS
 10
3.2371222826
 20
0.7468940528
 11
3.2339972826
 21
0.7468940528
  0
LINE
  5
25F
100
AcDbEntity
  8
0
100
AcDbLine
 62
9
  6
CONTINUOUS
 10
3.2089972826
 20
0.7469019609
 11
3.2121222826
 21
0.7469019609
  0
LINE
  5
260
100
AcDbEntity
  8
0
100
AcDbLine
 62
9
  6
CONTINUOUS
 10
3.1707478447
 20
0.7654163217
 11
3.0838009877
 21
0.7654163217
  0
LINE
  5
261
100
AcDbEntity
  8
0
100
AcDbLine
 62
7
  6
CONTINUOUS
 10
3.7880597826
 20
0.7726332
 11
4.0693097826
 21
0.7726332
  0
LINE
  5
262
100
AcDbEntity
  8
0
100
AcDbLine
 62
9
  6
CONTINUOUS
 10
3.7714972826
 20
0.7844070225
 11
3.7746222826
 21
0.7844070225
  0
LINE
  5
263
100
AcDbEntity
  8
0
100
AcDbLine
 62
9
  6
CONTINUOUS
 10
3.0838009877
 20
0.7870669568
 11
3.1707478447
 21
0.7870669568
  0
LINE
  5
264
100
AcDbEntity
  8
0
100
AcDbLine
 62
7
  6
CONTINUOUS
 10
3.0162369198
 20
0.8051785714
 11
3.0300597826
 21
0.8051785714
  0
LINE
  5
265
100
AcDbEntity
  8
0
100
AcDbLine
 62
7
  6
CONTINUOUS
 10
3.3105597826
 20
0.816085859
 11
3.6355597826
 21
0.816085859
  0
LINE
  5
266
100
AcDbEntity
  8
0
100
AcDbLine
 62
7
  6
CONTINUOUS
 10
3.6898097826
 20
10.3189285714
 11
3.6918097826
 21
10.320111711
  0
LINE
  5
267
100
AcDbEntity
  8
0
100
AcDbLine
 62
7
  6
CONTINUOUS
 10
3.4588579312
 20
1.1882860889
 11
3.4872921814
 21
1.1890244289
  0
LINE
  5
268
100
AcDbEntity
  8
0
100
AcDbLine
 62
7
  6
CONTINUOUS
 10
3.4588579312
 20
1.1908910889
 11
3.4872921814
 21
1.1916294289
  0
LINE
  5
269
100
AcDbEntity
  8
0
100
AcDbLine
 62
7
  6
CONTINUOUS
 10
3.6355597826
 20
0.9817712839
 11
3.3105597826
 21
0.9817712839
  0
LINE
  5
26A
100
AcDbEntity
  8
0
100
AcDbLine
 62
7
  6
CONTINUOUS
 10
3.0162369195
 20
0.9926785714
 11
3.0300597826
 21
0.9926785714
  0
LINE
  5
26B
100
AcDbEntity
  8
0
100
AcDbLine
 62
9
  6
CONTINUOUS
 10
3.1707478447
 20
1.0107901861
 11
3.0838009877
 21
1.0107901861
  0
LINE
  5
26C
100
AcDbEntity
  8
0
100
AcDbLine
 62
7
  6
CONTINUOUS
 10
4.0693097826
 20
1.0252239428
 11
3.7880597826
 21
1.0252239428
  0
LINE
  5
26D
100
AcDbEntity
  8
0
100
AcDbLine
 62
9
  6
CONTINUOUS
 10
3.0838009877
 20
1.0324408212
 11
3.1707478447
 21
1.0324408212
  0
LINE
  5
26E
100
AcDbEntity
  8
0
100
AcDbLine
 62
7
  6
CONTINUOUS
 10
3.3105597826
 20
1.0489285714
 11
3.6355597826
 21
1.0489285714
  0
LINE
  5
26F
100
AcDbEntity
  8
0
100
AcDbLine
 62
7
  6
CONTINUOUS
 10
3.0425597826
 20
1.0561785714
 11
3.0300597826
 21
1.0561785714
  0
LINE
  5
270
100
AcDbEntity
  8
0
100
AcDbLine
 62
7
  6
CONTINUOUS
 10
3.3105597826
 20
1.0630212839
 11
3.3977349651
 21
1.0630212839
  0
LINE
  5
271
100
AcDbEntity
  8
0
100
AcDbLine
 62
7
  6
CONTINUOUS
 10
3.5483846001
 20
1.0630212839
 11
3.6355597826
 21
1.0630212839
  0
LINE
  5
272
100
AcDbEntity
  8
0
100
AcDbLine
 62
7
  6
CONTINUOUS
 10
3.2605597826
 20
1.0864285714
 11
3.3105597826
 21
1.0864285714
  0
LINE
  5
273
100
AcDbEntity
  8
0
100
AcDbLine
 62
7
  6
CONTINUOUS
 10
3.2271227302
 20
1.0868395506
 11
3.2239977302
 21
1.0868395506
  0
LINE
  5
274
100
AcDbEntity
  8
0
100
AcDbLine
 62
7
  6
CONTINUOUS
 10
3.2021252633
 20
1.0868444602
 11
3.1990002633
 21
1.0868444602
  0
LINE
  5
275
100
AcDbEntity
  8
0
100
AcDbLine
 62
7
  6
CONTINUOUS
 10
3.7647713049
 20
1.0868465423
 11
3.7616459709
 21
1.0868465428
  0
LINE
  5
276
100
AcDbEntity
  8
0
100
AcDbLine
 62
7
  6
CONTINUOUS
 10
3.7369706275
 20
1.0868493919
 11
3.7338456275
 21
1.0868493919
  0
LINE
  5
277
100
AcDbEntity
  8
0
100
AcDbLine
 62
7
  6
CONTINUOUS
 10
3.6355597826
 20
1.0939285714
 11
3.7230597826
 21
1.0939285714
  0
LINE
  5
278
100
AcDbEntity
  8
0
100
AcDbLine
 62
7
  6
CONTINUOUS
 10
3.3105597826
 20
1.0989285714
 11
3.3594267081
 21
1.0989285714
  0
LINE
  5
279
100
AcDbEntity
  8
0
100
AcDbLine
 62
7
  6
CONTINUOUS
 10
3.5866928571
 20
1.0989285714
 11
3.6355597826
 21
1.0989285714
  0
LINE
  5
27A
100
AcDbEntity
  8
0
100
AcDbLine
 62
7
  6
CONTINUOUS
 10
3.2605597826
 20
1.1020535714
 11
3.2359067492
 21
1.1020535714
  0
LINE
  5
27B
100
AcDbEntity
  8
0
100
AcDbLine
 62
7
  6
CONTINUOUS
 10
3.2152127989
 20
1.1020535714
 11
3.2109036673
 21
1.1020535714
  0
LINE
  5
27C
100
AcDbEntity
  8
0
100
AcDbLine
 62
7
  6
CONTINUOUS
 10
3.7230597826
 20
1.1020535714
 11
3.7250691029
 21
1.1020535714
  0
LINE
  5
27D
100
AcDbEntity
  8
0
100
AcDbLine
 62
7
  6
CONTINUOUS
 10
3.7457507874
 20
1.1020535714
 11
3.7528673254
 21
1.1020535714
  0
LINE
  5
27E
100
AcDbEntity
  8
0
100
AcDbLine
 62
7
  6
CONTINUOUS
 10
3.7735525592
 20
1.1020535714
 11
3.7806714797
 21
1.1020535714
  0
LINE
  5
27F
100
AcDbEntity
  8
0
100
AcDbLine
 62
7
  6
CONTINUOUS
 10
3.1850597826
 20
1.1139285714
 11
3.1975597826
 21
1.1139285714
  0
LINE
  5
280
100
AcDbEntity
  8
0
100
AcDbLine
 62
9
  6
CONTINUOUS
 10
3.1707478447
 20
1.1443024358
 11
3.0838009877
 21
1.1443024358
  0
LINE
  5
281
100
AcDbEntity
  8
0
100
AcDbLine
 62
7
  6
CONTINUOUS
 10
3.1693343825
 20
1.1476518007
 11
3.08521445
 21
1.1476518007
  0
LINE
  5
282
100
AcDbEntity
  8
0
100
AcDbLine
 62
7
  6
CONTINUOUS
 10
4.0693097826
 20
1.1515193142
 11
3.7880597826
 21
1.1515193142
  0
LINE
  5
283
100
AcDbEntity
  8
0
100
AcDbLine
 62
7
  6
CONTINUOUS
 10
3.5409505644
 20
1.1564285714
 11
3.3977349651
 21
1.1564285714
  0
LINE
  5
284
100
AcDbEntity
  8
0
100
AcDbLine
 62
7
  6
CONTINUOUS
 10
3.6293097826
 20
1.1949285714
 11
3.3168097826
 21
1.1949285714
  0
LINE
  5
285
100
AcDbEntity
  8
0
100
AcDbLine
 62
7
  6
CONTINUOUS
 10
3.6293097826
 20
1.4044285714
 11
3.3168097826
 21
1.4044285714
  0
LINE
  5
286
100
AcDbEntity
  8
0
100
AcDbLine
 62
7
  6
CONTINUOUS
 10
5.2255597826
 20
1.5239285714
 11
5.1704180089
 21
1.5239285714
  0
LINE
  5
287
100
AcDbEntity
  8
0
100
AcDbLine
 62
7
  6
CONTINUOUS
 10
3.3325576749
 20
1.1307445434
 11
3.3452760941
 21
1.1233941075
  0
LINE
  5
288
100
AcDbEntity
  8
0
100
AcDbLine
 62
7
  6
CONTINUOUS
 10
3.3325525182
 20
1.1515777395
 11
3.3452636563
 21
1.1442322148
  0
LINE
  5
289
100
AcDbEntity
  8
0
100
AcDbLine
 62
7
  6
CONTINUOUS
 10
3.3325398557
 20
1.1724390126
 11
3.3452826134
 21
1.1650741398
  0
LINE
  5
28A
100
AcDbEntity
  8
0
100
AcDbLine
 62
7
  6
CONTINUOUS
 10
3.3325423779
 20
1.1932593999
 11
3.3452638597
 21
1.1859078917
  0
LINE
  5
28B
100
AcDbEntity
  8
0
100
AcDbLine
 62
7
  6
CONTINUOUS
 10
3.613561876
 20
1.1241582093
 11
3.6008403973
 21
1.1315105878
  0
LINE
  5
28C
100
AcDbEntity
  8
0
100
AcDbLine
 62
7
  6
CONTINUOUS
 10
3.6135651651
 20
1.144985804
 11
3.6008344213
 21
1.1523438756
  0
LINE
  5
28D
100
AcDbEntity
  8
0
100
AcDbLine
 62
7
  6
CONTINUOUS
 10
3.6135622174
 20
1.1658334259
 11
3.6008497921
 21
1.1731800489
  0
LINE
  5
28E
100
AcDbEntity
  8
0
100
AcDbLine
 62
7
  6
CONTINUOUS
 10
3.6135742645
 20
1.186660529
 11
3.600858888
 21
1.1940083312
  0
LINE
  5
28F
100
AcDbEntity
  8
0
100
AcDbLine
 62
7
  6
CONTINUOUS
 10
3.2233980076
 20
0.6958035714
 11
3.2232653465
 21
0.6959164611
  0
LINE
  5
290
100
AcDbEntity
  8
0
100
AcDbLine
 62
7
  6
CONTINUOUS
 10
3.2146244005
 20
0.7110074774
 11
3.2144786641
 21
0.7111337135
  0
LINE
  5
291
100
AcDbEntity
  8
0
100
AcDbLine
 62
7
  6
CONTINUOUS
 10
3.7596481464
 20
0.6958035714
 11
3.7594827168
 21
0.6959455334
  0
LINE
  5
292
100
AcDbEntity
  8
0
100
AcDbLine
 62
7
  6
CONTINUOUS
 10
3.7786666462
 20
0.7110338398
 11
3.7784859491
 21
0.7111900426
  0
LINE
  5
293
100
AcDbEntity
  8
0
100
AcDbLine
 62
7
  6
CONTINUOUS
 10
3.1991457034
 20
1.0867186939
 11
3.1990002633
 21
1.0868444602
  0
LINE
  5
294
100
AcDbEntity
  8
0
100
AcDbLine
 62
7
  6
CONTINUOUS
 10
3.2152215552
 20
1.1020535714
 11
3.2153578388
 21
1.1019344372
  0
LINE
  5
295
100
AcDbEntity
  8
0
100
AcDbLine
 62
7
  6
CONTINUOUS
 10
3.7806716967
 20
1.1020535714
 11
3.7808359864
 21
1.1019135566
  0
LINE
  5
296
100
AcDbEntity
  8
0
100
AcDbLine
 62
7
  6
CONTINUOUS
 10
3.7250716956
 20
1.1020535714
 11
3.725237036
 21
1.1019117622
  0
LINE
  5
297
100
AcDbEntity
  8
0
100
AcDbLine
 62
7
  6
CONTINUOUS
 10
3.7528716948
 20
1.1020535714
 11
3.7530378341
 21
1.10191039
  0
LINE
  5
298
100
AcDbEntity
  8
0
100
AcDbLine
 62
7
  6
CONTINUOUS
 10
3.7618271307
 20
1.0866897177
 11
3.7616459709
 21
1.0868465428
  0
LINE
  5
299
100
AcDbEntity
  8
0
100
AcDbLine
 62
7
  6
CONTINUOUS
 10
3.7340263164
 20
1.0866929298
 11
3.7338456275
 21
1.0868493919
  0
LINE
  5
29A
100
AcDbEntity
  8
0
100
AcDbLine
 62
7
  6
CONTINUOUS
 10
3.2926378235
 20
1.2191005306
 11
3.3168097826
 21
1.1949285714
  0
LINE
  5
29B
100
AcDbEntity
  8
0
100
AcDbLine
 62
9
  6
CONTINUOUS
 10
3.7833980067
 20
0.7751338726
 11
3.7746222826
 21
0.7843975252
  0
LINE
  5
29C
100
AcDbEntity
  8
0
100
AcDbLine
 62
7
  6
CONTINUOUS
 10
3.3324347826
 20
1.1308784244
 11
3.3325576702
 21
1.1307397816
  0
LINE
  5
29D
100
AcDbEntity
  8
0
100
AcDbLine
 62
7
  6
CONTINUOUS
 10
3.6136847826
 20
1.1240262176
 11
3.6135618826
 21
1.1241648683
  0
LINE
  5
29E
100
AcDbEntity
  8
0
100
AcDbLine
 62
7
  6
CONTINUOUS
 10
3.3324347826
 20
1.1517134207
 11
3.3325525182
 21
1.1515777193
  0
LINE
  5
29F
100
AcDbEntity
  8
0
100
AcDbLine
 62
7
  6
CONTINUOUS
 10
3.3452638597
 20
1.1859078917
 11
3.3451370229
 21
1.1860541996
  0
LINE
  5
2A0
100
AcDbEntity
  8
0
100
AcDbLine
 62
7
  6
CONTINUOUS
 10
3.3452826134
 20
1.1650741398
 11
3.3451537581
 21
1.1652228685
  0
LINE
  5
2A1
100
AcDbEntity
  8
0
100
AcDbLine
 62
7
  6
CONTINUOUS
 10
3.3451473949
 20
1.1235430019
 11
3.3452760941
 21
1.1233941075
  0
LINE
  5
2A2
100
AcDbEntity
  8
0
100
AcDbLine
 62
7
  6
CONTINUOUS
 10
3.3451370134
 20
1.144378998
 11
3.3452636563
 21
1.1442322148
  0
LINE
  5
2A3
100
AcDbEntity
  8
0
100
AcDbLine
 62
9
  6
CONTINUOUS
 10
3.2121222826
 20
0.7469019609
 11
3.2208980067
 21
0.7346055422
  0
LINE
  5
2A4
100
AcDbEntity
  8
0
100
AcDbLine
 62
7
  6
CONTINUOUS
 10
3.2371222826
 20
0.7468940528
 11
3.2458980067
 21
0.7345969944
  0
LINE
  5
2A5
100
AcDbEntity
  8
0
100
AcDbLine
 62
9
  6
CONTINUOUS
 10
2.7984327407
 20
0.7458252382
 11
2.7984352539
 21
0.7458206189
  0
LINE
  5
2A6
100
AcDbEntity
  8
0
100
AcDbLine
 62
9
  6
CONTINUOUS
 10
2.9916843113
 20
0.6173915259
 11
2.9916868245
 21
0.6173869066
  0
LINE
  5
2A7
100
AcDbEntity
  8
0
100
AcDbLine
 62
7
  6
CONTINUOUS
 10
3.6293097826
 20
1.4044285714
 11
3.6534817417
 21
1.3802566123
  0
LINE
  5
2A8
100
AcDbEntity
  8
0
100
AcDbLine
 62
7
  6
CONTINUOUS
 10
3.6136847826
 20
1.1448612158
 11
3.613565177
 21
1.1449979971
  0
LINE
  5
2A9
100
AcDbEntity
  8
0
100
AcDbLine
 62
7
  6
CONTINUOUS
 10
3.6009847528
 20
1.1938631741
 11
3.600858888
 21
1.1940083312
  0
LINE
  5
2AA
100
AcDbEntity
  8
0
100
AcDbLine
 62
7
  6
CONTINUOUS
 10
3.6008344213
 20
1.1523438756
 11
3.6009643931
 21
1.152193624
  0
LINE
  5
2AB
100
AcDbEntity
  8
0
100
AcDbLine
 62
7
  6
CONTINUOUS
 10
3.6008403973
 20
1.1315105878
 11
3.6009694956
 21
1.1313612537
  0
LINE
  5
2AC
100
AcDbEntity
  8
0
100
AcDbLine
 62
7
  6
CONTINUOUS
 10
3.2144786641
 20
0.7111337135
 11
3.2221929508
 21
0.6977808345
  0
LINE
  5
2AD
100
AcDbEntity
  8
0
100
AcDbLine
 62
7
  6
CONTINUOUS
 10
3.2241445165
 20
1.0867125356
 11
3.2163912924
 21
1.1001320395
  0
LINE
  5
2AE
100
AcDbEntity
  8
0
100
AcDbLine
 62
9
  6
CONTINUOUS
 10
2.7984352539
 20
1.180465617
 11
2.7984327407
 21
1.1804702362
  0
LINE
  5
2AF
100
AcDbEntity
  8
0
100
AcDbLine
 62
9
  6
CONTINUOUS
 10
2.9916868245
 20
1.0520319047
 11
2.9916843113
 21
1.0520365239
  0
LINE
  5
2B0
100
AcDbEntity
  8
0
100
AcDbLine
 62
7
  6
CONTINUOUS
 10
3.0836791157
 20
0.6534978771
 11
3.0425597826
 21
0.7416785714
  0
LINE
  5
2B1
100
AcDbEntity
  8
0
100
AcDbLine
 62
7
  6
CONTINUOUS
 10
3.7506934322
 20
0.7111647096
 11
3.7584463529
 21
0.6977470264
  0
LINE
  5
2B2
100
AcDbEntity
  8
0
100
AcDbLine
 62
7
  6
CONTINUOUS
 10
3.7784859491
 20
0.7111900426
 11
3.7862459923
 21
0.6977618477
  0
LINE
  5
2B3
100
AcDbEntity
  8
0
100
AcDbLine
 62
7
  6
CONTINUOUS
 10
3.1850597826
 20
1.1139285714
 11
3.1708697168
 21
1.1443592657
  0
LINE
  5
2B4
100
AcDbEntity
  8
0
100
AcDbLine
 62
7
  6
CONTINUOUS
 10
3.1707478447
 20
1.1443024358
 11
3.1704528563
 21
1.1449955839
  0
LINE
  5
2B5
100
AcDbEntity
  8
0
100
AcDbLine
 62
7
  6
CONTINUOUS
 10
3.08521445
 20
0.6502053421
 11
3.0838009877
 21
0.653554707
  0
LINE
  5
2B6
100
AcDbEntity
  8
0
100
AcDbLine
 62
7
  6
CONTINUOUS
 10
3.7340263164
 20
1.0866929298
 11
3.7263078681
 21
1.1000509849
  0
LINE
  5
2B7
100
AcDbEntity
  8
0
100
AcDbLine
 62
7
  6
CONTINUOUS
 10
3.7618271307
 20
1.0866897177
 11
3.7541073762
 21
1.1000498063
  0
LINE
  5
2B8
100
AcDbEntity
  8
0
100
AcDbLine
 62
7
  6
CONTINUOUS
 10
3.7880597826
 20
1.0894093309
 11
3.7819124174
 21
1.1000488901
  0
LINE
  5
2B9
100
AcDbEntity
  8
0
100
AcDbLine
 62
7
  6
CONTINUOUS
 10
3.1707478447
 20
1.1443024358
 11
3.1693343825
 21
1.1476518007
  0
LINE
  5
2BA
100
AcDbEntity
  8
0
100
AcDbLine
 62
7
  6
CONTINUOUS
 10
3.1693507975
 20
1.1476109859
 11
3.1693343825
 21
1.1476518007
  0
LINE
  5
2BB
100
AcDbEntity
  8
0
100
AcDbLine
 62
9
  6
CONTINUOUS
 10
2.7603097929
 20
0.8988521073
 11
2.7603097826
 21
0.8989295499
  0
LINE
  5
2BC
100
AcDbEntity
  8
0
100
AcDbLine
 62
7
  6
CONTINUOUS
 10
3.2057161859
 20
0.8768377417
 11
3.204896324
 21
0.9154817764
  0
LINE
  5
2BD
100
AcDbEntity
  8
0
100
AcDbLine
 62
7
  6
CONTINUOUS
 10
3.2080212742
 20
0.9154841151
 11
3.2088411506
 21
0.8768393997
  0
LINE
  5
2BE
100
AcDbEntity
  8
0
100
AcDbLine
 62
7
  6
CONTINUOUS
 10
3.2300325544
 20
0.9090630562
 11
3.2308260082
 21
0.8716957899
  0
LINE
  5
2BF
100
AcDbEntity
  8
0
100
AcDbLine
 62
7
  6
CONTINUOUS
 10
3.2339510531
 20
0.8716936917
 11
3.233157598
 21
0.9090610002
  0
LINE
  5
2C0
100
AcDbEntity
  8
0
100
AcDbLine
 62
7
  6
CONTINUOUS
 10
3.2424619019
 20
0.8829939247
 11
3.2417673623
 21
0.9182411185
  0
LINE
  5
2C1
100
AcDbEntity
  8
0
100
AcDbLine
 62
7
  6
CONTINUOUS
 10
3.0300597826
 20
1.0561785714
 11
3.0300597826
 21
0.7416785714
  0
LINE
  5
2C2
100
AcDbEntity
  8
0
100
AcDbLine
 62
7
  6
CONTINUOUS
 10
3.0425597826
 20
0.7416785714
 11
3.0425597826
 21
1.0561785714
  0
LINE
  5
2C3
100
AcDbEntity
  8
0
100
AcDbLine
 62
7
  6
CONTINUOUS
 10
3.1850597826
 20
1.1139285714
 11
3.1850597826
 21
0.6839285714
  0
LINE
  5
2C4
100
AcDbEntity
  8
0
100
AcDbLine
 62
7
  6
CONTINUOUS
 10
3.1975597826
 20
1.1138950287
 11
3.1975597826
 21
0.6842014246
  0
LINE
  5
2C5
100
AcDbEntity
  8
0
100
AcDbLine
 62
7
  6
CONTINUOUS
 10
3.2543097826
 20
10.3201117292
 11
3.2543097826
 21
10.5227454136
  0
LINE
  5
2C6
100
AcDbEntity
  8
0
100
AcDbLine
 62
7
  6
CONTINUOUS
 10
3.2563097826
 20
10.5239285714
 11
3.2563097826
 21
10.5689285714
  0
LINE
  5
2C7
100
AcDbEntity
  8
0
100
AcDbLine
 62
7
  6
CONTINUOUS
 10
3.2605597826
 20
1.1020220251
 11
3.2605597826
 21
0.6958351177
  0
LINE
  5
2C8
100
AcDbEntity
  8
0
100
AcDbLine
 62
7
  6
CONTINUOUS
 10
3.2688862591
 20
10.5048502249
 11
3.2688862591
 21
10.3380069179
  0
LINE
  5
2C9
100
AcDbEntity
  8
0
100
AcDbLine
 62
7
  6
CONTINUOUS
 10
3.2926378235
 20
1.2191005306
 11
3.2926378235
 21
1.3802566123
  0
LINE
  5
2CA
100
AcDbEntity
  8
0
100
AcDbLine
 62
7
  6
CONTINUOUS
 10
3.3105597826
 20
1.0989285714
 11
3.3105597826
 21
0.6989285714
  0
LINE
  5
2CB
100
AcDbEntity
  8
0
100
AcDbLine
 62
7
  6
CONTINUOUS
 10
3.3324347826
 20
1.1949285714
 11
3.3324347826
 21
1.1933834198
  0
LINE
  5
2CC
100
AcDbEntity
  8
0
100
AcDbLine
 62
7
  6
CONTINUOUS
 10
3.3324347826
 20
1.176113723
 11
3.3324347826
 21
1.1725484198
  0
LINE
  5
2CD
100
AcDbEntity
  8
0
100
AcDbLine
 62
7
  6
CONTINUOUS
 10
3.3324347826
 20
1.0989285714
 11
3.3324347826
 21
1.1136007586
  0
LINE
  5
2CE
100
AcDbEntity
  8
0
100
AcDbLine
 62
7
  6
CONTINUOUS
 10
3.3324347826
 20
1.1308865391
 11
3.3324347826
 21
1.1344423332
  0
LINE
  5
2CF
100
AcDbEntity
  8
0
100
AcDbLine
 62
7
  6
CONTINUOUS
 10
3.3324347826
 20
1.1517149013
 11
3.3324347826
 21
1.1552662656
  0
LINE
  5
2D0
100
AcDbEntity
  8
0
100
AcDbLine
 62
7
  6
CONTINUOUS
 10
3.7422413718
 20
0.8386848552
 11
3.7390983637
 21
0.969330076
  0
LINE
  5
2D1
100
AcDbEntity
  8
0
100
AcDbLine
 62
7
  6
CONTINUOUS
 10
3.7453663718
 20
0.8386848552
 11
3.7422233637
 21
0.969330076
  0
LINE
  5
2D2
100
AcDbEntity
  8
0
100
AcDbLine
 62
7
  6
CONTINUOUS
 10
3.7316757262
 20
0.9147808642
 11
3.7317798029
 21
0.9100131976
  0
LINE
  5
2D3
100
AcDbEntity
  8
0
100
AcDbLine
 62
7
  6
CONTINUOUS
 10
3.7809465663
 20
0.8783771942
 11
3.7801295365
 21
0.9158314762
  0
LINE
  5
2D4
100
AcDbEntity
  8
0
100
AcDbLine
 62
7
  6
CONTINUOUS
 10
3.3451370229
 20
1.1860541996
 11
3.3451370229
 21
1.1834491996
  0
LINE
  5
2D5
100
AcDbEntity
  8
0
100
AcDbLine
 62
7
  6
CONTINUOUS
 10
3.3451370134
 20
1.144378998
 11
3.3451370132
 21
1.1417738051
  0
LINE
  5
2D6
100
AcDbEntity
  8
0
100
AcDbLine
 62
7
  6
CONTINUOUS
 10
3.3451473949
 20
1.1235430019
 11
3.3451473949
 21
1.1209380019
  0
LINE
  5
2D7
100
AcDbEntity
  8
0
100
AcDbLine
 62
7
  6
CONTINUOUS
 10
3.3451537581
 20
1.1652228685
 11
3.3451537581
 21
1.1626178685
  0
LINE
  5
2D8
100
AcDbEntity
  8
0
100
AcDbLine
 62
7
  6
CONTINUOUS
 10
3.3518097826
 20
10.3189285714
 11
3.3518097826
 21
10.2874285714
  0
LINE
  5
2D9
100
AcDbEntity
  8
0
100
AcDbLine
 62
7
  6
CONTINUOUS
 10
3.3793097826
 20
10.2874285714
 11
3.3793097826
 21
1.4044285714
  0
LINE
  5
2DA
100
AcDbEntity
  8
0
100
AcDbLine
 62
7
  6
CONTINUOUS
 10
3.382848803
 20
1.2191005306
 11
3.382848803
 21
1.3802566123
  0
LINE
  5
2DB
100
AcDbEntity
  8
0
100
AcDbLine
 62
7
  6
CONTINUOUS
 10
3.3977349651
 20
1.1564285714
 11
3.3977349651
 21
1.1550477411
  0
LINE
  5
2DC
100
AcDbEntity
  8
0
100
AcDbLine
 62
7
  6
CONTINUOUS
 10
3.3977349651
 20
1.1377780442
 11
3.3977349651
 21
1.1342127411
  0
LINE
  5
2DD
100
AcDbEntity
  8
0
100
AcDbLine
 62
7
  6
CONTINUOUS
 10
3.3977349651
 20
1.1169430442
 11
3.3977349651
 21
1.0630212839
  0
LINE
  5
2DE
100
AcDbEntity
  8
0
100
AcDbLine
 62
7
  6
CONTINUOUS
 10
3.4254862277
 20
1.1483262946
 11
3.4254862277
 21
1.1457212946
  0
LINE
  5
2DF
100
AcDbEntity
  8
0
100
AcDbLine
 62
7
  6
CONTINUOUS
 10
3.4254862277
 20
1.1274912946
 11
3.4254862277
 21
1.1248862946
  0
LINE
  5
2E0
100
AcDbEntity
  8
0
100
AcDbLine
 62
7
  6
CONTINUOUS
 10
3.4584833061
 20
10.3380069179
 11
3.4584833061
 21
10.5048502249
  0
LINE
  5
2E1
100
AcDbEntity
  8
0
100
AcDbLine
 62
7
  6
CONTINUOUS
 10
3.4876362591
 20
10.5048502249
 11
3.4876362591
 21
10.3380069179
  0
LINE
  5
2E2
100
AcDbEntity
  8
0
100
AcDbLine
 62
7
  6
CONTINUOUS
 10
3.5206333375
 20
1.1274133483
 11
3.5206333375
 21
1.1300183483
  0
LINE
  5
2E3
100
AcDbEntity
  8
0
100
AcDbLine
 62
7
  6
CONTINUOUS
 10
3.5206333375
 20
1.1482483483
 11
3.5206333375
 21
1.1508533483
  0
LINE
  5
2E4
100
AcDbEntity
  8
0
100
AcDbLine
 62
7
  6
CONTINUOUS
 10
3.5483846001
 20
1.0630212839
 11
3.5483846001
 21
1.1206919018
  0
LINE
  5
2E5
100
AcDbEntity
  8
0
100
AcDbLine
 62
7
  6
CONTINUOUS
 10
3.5483846001
 20
1.1379615986
 11
3.5483846001
 21
1.1415269018
  0
LINE
  5
2E6
100
AcDbEntity
  8
0
100
AcDbLine
 62
7
  6
CONTINUOUS
 10
3.5632707622
 20
1.2191005306
 11
3.5632707622
 21
1.3802566123
  0
LINE
  5
2E7
100
AcDbEntity
  8
0
100
AcDbLine
 62
7
  6
CONTINUOUS
 10
3.5668097826
 20
1.4044285714
 11
3.5668097826
 21
10.2874285714
  0
LINE
  5
2E8
100
AcDbEntity
  8
0
100
AcDbLine
 62
7
  6
CONTINUOUS
 10
3.5943097826
 20
10.2874285714
 11
3.5943097826
 21
10.3189285714
  0
LINE
  5
2E9
100
AcDbEntity
  8
0
100
AcDbLine
 62
7
  6
CONTINUOUS
 10
3.6009643931
 20
1.152193624
 11
3.6009643931
 21
1.154798624
  0
LINE
  5
2EA
100
AcDbEntity
  8
0
100
AcDbLine
 62
7
  6
CONTINUOUS
 10
3.6009694956
 20
1.1313612368
 11
3.6009694955
 21
1.1339661221
  0
LINE
  5
2EB
100
AcDbEntity
  8
0
100
AcDbLine
 62
7
  6
CONTINUOUS
 10
3.6009759435
 20
1.1730339804
 11
3.6009759435
 21
1.1756389804
  0
LINE
  5
2EC
100
AcDbEntity
  8
0
100
AcDbLine
 62
7
  6
CONTINUOUS
 10
3.612675624
 20
1.1200634198
 11
3.612675624
 21
1.102793723
  0
LINE
  5
2ED
100
AcDbEntity
  8
0
100
AcDbLine
 62
7
  6
CONTINUOUS
 10
3.6136847826
 20
1.0989285714
 11
3.6136847826
 21
1.1031884041
  0
LINE
  5
2EE
100
AcDbEntity
  8
0
100
AcDbLine
 62
7
  6
CONTINUOUS
 10
3.6136847826
 20
1.1204635685
 11
3.6136847826
 21
1.124016422
  0
LINE
  5
2EF
100
AcDbEntity
  8
0
100
AcDbLine
 62
7
  6
CONTINUOUS
 10
3.6136847826
 20
1.1413055811
 11
3.6136847826
 21
1.1448482791
  0
LINE
  5
2F0
100
AcDbEntity
  8
0
100
AcDbLine
 62
7
  6
CONTINUOUS
 10
3.6136847826
 20
1.1621309198
 11
3.6136847826
 21
1.165696223
  0
LINE
  5
2F1
100
AcDbEntity
  8
0
100
AcDbLine
 62
7
  6
CONTINUOUS
 10
3.6136847826
 20
1.1829659198
 11
3.6136847826
 21
1.186531223
  0
LINE
  5
2F2
100
AcDbEntity
  8
0
100
AcDbLine
 62
7
  6
CONTINUOUS
 10
3.6355597826
 20
0.6989285714
 11
3.6355597826
 21
1.0989285714
  0
LINE
  5
2F3
100
AcDbEntity
  8
0
100
AcDbLine
 62
7
  6
CONTINUOUS
 10
3.6534817417
 20
1.2191005306
 11
3.6534817417
 21
1.3802566123
  0
LINE
  5
2F4
100
AcDbEntity
  8
0
100
AcDbLine
 62
7
  6
CONTINUOUS
 10
3.6772333061
 20
10.3380069179
 11
3.6772333061
 21
10.5048502249
  0
LINE
  5
2F5
100
AcDbEntity
  8
0
100
AcDbLine
 62
7
  6
CONTINUOUS
 10
3.6898097826
 20
10.5239285714
 11
3.6898097826
 21
10.5689285714
  0
LINE
  5
2F6
100
AcDbEntity
  8
0
100
AcDbLine
 62
7
  6
CONTINUOUS
 10
3.6918097826
 20
10.5227454136
 11
3.6918097826
 21
10.3201117292
  0
LINE
  5
2F7
100
AcDbEntity
  8
0
100
AcDbLine
 62
7
  6
CONTINUOUS
 10
3.7230597826
 20
1.1020358949
 11
3.7230597826
 21
0.6960741256
  0
LINE
  5
2F8
100
AcDbEntity
  8
0
100
AcDbLine
 62
7
  6
CONTINUOUS
 10
3.7880597826
 20
0.6463378287
 11
3.7880597826
 21
1.1515193142
  0
LINE
  5
2F9
100
AcDbEntity
  8
0
100
AcDbLine
 62
7
  6
CONTINUOUS
 10
4.0693097826
 20
0.6463378287
 11
4.0693097826
 21
1.1515193142
  0
LINE
  5
2FA
100
AcDbEntity
  8
0
100
AcDbLine
 62
7
  6
CONTINUOUS
 10
4.9443097826
 20
1.1301647354
 11
4.9443097826
 21
0.6676924074
  0
LINE
  5
2FB
100
AcDbEntity
  8
0
100
AcDbLine
 62
9
  6
CONTINUOUS
 10
4.9544370102
 20
1.1642725455
 11
4.9544370102
 21
0.6335845973
  0
LINE
  5
2FC
100
AcDbEntity
  8
0
100
AcDbLine
 62
7
  6
CONTINUOUS
 10
3.1693343825
 20
0.6502053421
 11
3.1693508735
 21
0.6502462362
  0
LINE
  5
2FD
100
AcDbEntity
  8
0
100
AcDbLine
 62
7
  6
CONTINUOUS
 10
3.0845856687
 20
1.1461567658
 11
3.08521445
 21
1.1476518007
  0
LINE
  5
2FE
100
AcDbEntity
  8
0
100
AcDbLine
 62
7
  6
CONTINUOUS
 10
3.0838009877
 20
1.1443024358
 11
3.08521445
 21
1.1476518007
  0
LINE
  5
2FF
100
AcDbEntity
  8
0
100
AcDbLine
 62
7
  6
CONTINUOUS
 10
3.1693508735
 20
0.6502462362
 11
3.1707478447
 21
0.653554707
  0
LINE
  5
300
100
AcDbEntity
  8
0
100
AcDbLine
 62
7
  6
CONTINUOUS
 10
3.0425597826
 20
1.0561785714
 11
3.0836791157
 21
1.1443592657
  0
LINE
  5
301
100
AcDbEntity
  8
0
100
AcDbLine
 62
9
  6
CONTINUOUS
 10
2.7984361029
 20
1.0520380842
 11
2.7984327407
 21
1.0520319047
  0
LINE
  5
302
100
AcDbEntity
  8
0
100
AcDbLine
 62
9
  6
CONTINUOUS
 10
5.1115009074
 20
0.3155713148
 11
5.1115009074
 21
1.4822858281
  0
LINE
  5
303
100
AcDbEntity
  8
0
100
AcDbLine
 62
9
  6
CONTINUOUS
 10
5.1704180089
 20
1.5239285714
 11
5.1704180089
 21
0.2739285714
  0
LINE
  5
304
100
AcDbEntity
  8
0
100
AcDbLine
 62
7
  6
CONTINUOUS
 10
5.2255597826
 20
1.5239285714
 11
5.2255597826
 21
0.2739285714
  0
LINE
  5
305
100
AcDbEntity
  8
0
100
AcDbLine
 62
7
  6
CONTINUOUS
 10
3.1704530657
 20
0.6528621357
 11
3.1707478447
 21
0.653554707
  0
LINE
  5
306
100
AcDbEntity
  8
0
100
AcDbLine
 62
7
  6
CONTINUOUS
 10
3.1708697168
 20
0.6534978771
 11
3.1850597826
 21
0.6839285714
  0
LINE
  5
307
100
AcDbEntity
  8
0
100
AcDbLine
 62
9
  6
CONTINUOUS
 10
2.9916868245
 20
1.1804702362
 11
2.9916834623
 21
1.1804640567
  0
LINE
  5
308
100
AcDbEntity
  8
0
100
AcDbLine
 62
9
  6
CONTINUOUS
 10
2.7984327407
 20
0.6173869066
 11
2.7984361029
 21
0.6173930861
  0
LINE
  5
309
100
AcDbEntity
  8
0
100
AcDbLine
 62
9
  6
CONTINUOUS
 10
2.9916834623
 20
0.7458190587
 11
2.9916868245
 21
0.7458252382
  0
LINE
  5
30A
100
AcDbEntity
  8
0
100
AcDbLine
 62
7
  6
CONTINUOUS
 10
3.2107744204
 20
1.1019415576
 11
3.2019791236
 21
1.0867178868
  0
LINE
  5
30B
100
AcDbEntity
  8
0
100
AcDbLine
 62
7
  6
CONTINUOUS
 10
3.2357712841
 20
1.1019358917
 11
3.2269758577
 21
1.0867124361
  0
LINE
  5
30C
100
AcDbEntity
  8
0
100
AcDbLine
 62
7
  6
CONTINUOUS
 10
3.2028572245
 20
0.6959227506
 11
3.2116443824
 21
0.7111328431
  0
LINE
  5
30D
100
AcDbEntity
  8
0
100
AcDbLine
 62
7
  6
CONTINUOUS
 10
3.745580752
 20
1.1019066178
 11
3.7367907088
 21
1.0866938179
  0
LINE
  5
30E
100
AcDbEntity
  8
0
100
AcDbLine
 62
7
  6
CONTINUOUS
 10
3.7733821923
 20
1.101906002
 11
3.7645902953
 21
1.086690276
  0
LINE
  5
30F
100
AcDbEntity
  8
0
100
AcDbLine
 62
7
  6
CONTINUOUS
 10
3.7391389709
 20
0.6959507079
 11
3.7479292469
 21
0.7111638676
  0
LINE
  5
310
100
AcDbEntity
  8
0
100
AcDbLine
 62
9
  6
CONTINUOUS
 10
3.2002215585
 20
0.7346055422
 11
3.2089972826
 21
0.7469019609
  0
LINE
  5
311
100
AcDbEntity
  8
0
100
AcDbLine
 62
7
  6
CONTINUOUS
 10
3.2252215585
 20
0.7345969944
 11
3.2339972826
 21
0.7468940528
  0
LINE
  5
312
100
AcDbEntity
  8
0
100
AcDbLine
 62
7
  6
CONTINUOUS
 10
3.7669096919
 20
0.6959398205
 11
3.7757232715
 21
0.7111911128
  0
LINE
  5
313
100
AcDbEntity
  8
0
100
AcDbLine
 62
7
  6
CONTINUOUS
 10
3.6136847826
 20
1.1829659198
 11
3.6135791089
 21
1.1828373592
  0
LINE
  5
314
100
AcDbEntity
  8
0
100
AcDbLine
 62
7
  6
CONTINUOUS
 10
3.3324347826
 20
1.1344437222
 11
3.3325464464
 21
1.1345758776
  0
LINE
  5
315
100
AcDbEntity
  8
0
100
AcDbLine
 62
7
  6
CONTINUOUS
 10
3.3324347826
 20
1.1136087186
 11
3.3325478493
 21
1.1137417053
  0
LINE
  5
316
100
AcDbEntity
  8
0
100
AcDbLine
 62
7
  6
CONTINUOUS
 10
3.6136847826
 20
1.1412959252
 11
3.6135705771
 21
1.1411622694
  0
LINE
  5
317
100
AcDbEntity
  8
0
100
AcDbLine
 62
7
  6
CONTINUOUS
 10
3.3324347826
 20
1.176113723
 11
3.3325509092
 21
1.176248493
  0
LINE
  5
318
100
AcDbEntity
  8
0
100
AcDbLine
 62
7
  6
CONTINUOUS
 10
3.3451370229
 20
1.1834491996
 11
3.3452620406
 21
1.1835938887
  0
LINE
  5
319
100
AcDbEntity
  8
0
100
AcDbLine
 62
7
  6
CONTINUOUS
 10
3.6009643931
 20
1.154798624
 11
3.6008344092
 21
1.1546483619
  0
LINE
  5
31A
100
AcDbEntity
  8
0
100
AcDbLine
 62
7
  6
CONTINUOUS
 10
3.3452769733
 20
1.1210876591
 11
3.3451473949
 21
1.1209380019
  0
LINE
  5
31B
100
AcDbEntity
  8
0
100
AcDbLine
 62
7
  6
CONTINUOUS
 10
3.6009694956
 20
1.1339661586
 11
3.6008396953
 21
1.1338163106
  0
LINE
  5
31C
100
AcDbEntity
  8
0
100
AcDbLine
 62
7
  6
CONTINUOUS
 10
3.3452651495
 20
1.1419216907
 11
3.3451370132
 21
1.1417738051
  0
LINE
  5
31D
100
AcDbEntity
  8
0
100
AcDbLine
 62
7
  6
CONTINUOUS
 10
3.6008480197
 20
1.1754913745
 11
3.6009759435
 21
1.1756389804
  0
LINE
  5
31E
100
AcDbEntity
  8
0
100
AcDbLine
 62
7
  6
CONTINUOUS
 10
3.6136847826
 20
1.1621309198
 11
3.6135653501
 21
1.1619942447
  0
LINE
  5
31F
100
AcDbEntity
  8
0
100
AcDbLine
 62
7
  6
CONTINUOUS
 10
3.3324347826
 20
1.1552787161
 11
3.3325620847
 21
1.1554198298
  0
LINE
  5
320
100
AcDbEntity
  8
0
100
AcDbLine
 62
7
  6
CONTINUOUS
 10
3.3168097826
 20
1.4044285714
 11
3.2926378235
 21
1.3802566123
  0
LINE
  5
321
100
AcDbEntity
  8
0
100
AcDbLine
 62
7
  6
CONTINUOUS
 10
3.6534817417
 20
1.2191005306
 11
3.6293097826
 21
1.1949285714
  0
LINE
  5
322
100
AcDbEntity
  8
0
100
AcDbLine
 62
7
  6
CONTINUOUS
 10
3.2358980101
 20
1.1020535714
 11
3.2357625643
 21
1.1019358975
  0
LINE
  5
323
100
AcDbEntity
  8
0
100
AcDbLine
 62
7
  6
CONTINUOUS
 10
3.2019791236
 20
1.0867178868
 11
3.2021252633
 21
1.0868444602
  0
LINE
  5
324
100
AcDbEntity
  8
0
100
AcDbLine
 62
7
  6
CONTINUOUS
 10
3.2271227302
 20
1.0868395506
 11
3.2269758577
 21
1.0867124361
  0
LINE
  5
325
100
AcDbEntity
  8
0
100
AcDbLine
 62
7
  6
CONTINUOUS
 10
3.2108980089
 20
1.1020535714
 11
3.2107658654
 21
1.1019415632
  0
LINE
  5
326
100
AcDbEntity
  8
0
100
AcDbLine
 62
9
  6
CONTINUOUS
 10
3.7714972826
 20
0.7843975252
 11
3.7627215585
 21
0.7751338726
  0
LINE
  5
327
100
AcDbEntity
  8
0
100
AcDbLine
 62
7
  6
CONTINUOUS
 10
3.7457481463
 20
1.1020535714
 11
3.7455798336
 21
1.1019066186
  0
LINE
  5
328
100
AcDbEntity
  8
0
100
AcDbLine
 62
7
  6
CONTINUOUS
 10
3.2114994005
 20
0.7110074774
 11
3.2116443824
 21
0.7111328431
  0
LINE
  5
329
100
AcDbEntity
  8
0
100
AcDbLine
 62
7
  6
CONTINUOUS
 10
3.7369706275
 20
1.0868493919
 11
3.7367907088
 21
1.0866938179
  0
LINE
  5
32A
100
AcDbEntity
  8
0
100
AcDbLine
 62
7
  6
CONTINUOUS
 10
3.7389716954
 20
0.6958035714
 11
3.7391401128
 21
0.695950707
  0
LINE
  5
32B
100
AcDbEntity
  8
0
100
AcDbLine
 62
7
  6
CONTINUOUS
 10
3.7757232715
 20
0.7111911128
 11
3.7755416462
 21
0.7110338398
  0
LINE
  5
32C
100
AcDbEntity
  8
0
100
AcDbLine
 62
7
  6
CONTINUOUS
 10
3.7479292469
 20
0.7111638676
 11
3.7477492047
 21
0.7110081815
  0
LINE
  5
32D
100
AcDbEntity
  8
0
100
AcDbLine
 62
7
  6
CONTINUOUS
 10
3.7667716879
 20
0.6958035714
 11
3.7669337504
 21
0.6959398013
  0
LINE
  5
32E
100
AcDbEntity
  8
0
100
AcDbLine
 62
7
  6
CONTINUOUS
 10
3.3452620406
 20
1.1835938887
 11
3.3344144947
 21
1.1773252976
  0
LINE
  5
32F
100
AcDbEntity
  8
0
100
AcDbLine
 62
7
  6
CONTINUOUS
 10
3.3452810635
 20
1.1627652526
 11
3.3344021429
 21
1.1564776032
  0
LINE
  5
330
100
AcDbEntity
  8
0
100
AcDbLine
 62
7
  6
CONTINUOUS
 10
3.3452651495
 20
1.1419216907
 11
3.3344092706
 21
1.1356481448
  0
LINE
  5
331
100
AcDbEntity
  8
0
100
AcDbLine
 62
7
  6
CONTINUOUS
 10
3.3452769733
 20
1.1210876591
 11
3.3344163596
 21
1.1148108015
  0
LINE
  5
332
100
AcDbEntity
  8
0
100
AcDbLine
 62
7
  6
CONTINUOUS
 10
3.6008480197
 20
1.1754913745
 11
3.6116842469
 21
1.1817538786
  0
LINE
  5
333
100
AcDbEntity
  8
0
100
AcDbLine
 62
7
  6
CONTINUOUS
 10
3.6008344092
 20
1.1546483619
 11
3.6116850319
 21
1.1609198465
  0
LINE
  5
334
100
AcDbEntity
  8
0
100
AcDbLine
 62
7
  6
CONTINUOUS
 10
3.6008396953
 20
1.1338163106
 11
3.6116851781
 21
1.1400845654
  0
LINE
  5
335
100
AcDbEntity
  8
0
100
AcDbLine
 62
7
  6
CONTINUOUS
 10
3.2563097826
 20
10.3189285714
 11
3.2543097826
 21
10.320111711
  0
LINE
  5
336
100
AcDbEntity
  8
0
100
AcDbLine
 62
7
  6
CONTINUOUS
 10
3.6918097826
 20
10.5227454319
 11
3.6898097826
 21
10.5239285714
  0
LINE
  5
337
100
AcDbEntity
  8
0
100
AcDbLine
 62
7
  6
CONTINUOUS
 10
3.5943097826
 20
10.2874285714
 11
3.3518097826
 21
10.2874285714
  0
LINE
  5
338
100
AcDbEntity
  8
0
100
AcDbLine
 62
7
  6
CONTINUOUS
 10
3.256343408
 20
10.3189285714
 11
3.6897761572
 21
10.3189285714
  0
LINE
  5
339
100
AcDbEntity
  8
0
100
AcDbLine
 62
7
  6
CONTINUOUS
 10
3.2543097826
 20
10.3380069179
 11
3.2688862591
 21
10.3380069179
  0
LINE
  5
33A
100
AcDbEntity
  8
0
100
AcDbLine
 62
7
  6
CONTINUOUS
 10
3.4584833061
 20
10.3380069179
 11
3.4876362591
 21
10.3380069179
  0
LINE
  5
33B
100
AcDbEntity
  8
0
100
AcDbLine
 62
7
  6
CONTINUOUS
 10
3.6772333061
 20
10.3380069179
 11
3.6918097826
 21
10.3380069179
  0
LINE
  5
33C
100
AcDbEntity
  8
0
100
AcDbLine
 62
7
  6
CONTINUOUS
 10
3.6918097826
 20
10.5048502249
 11
3.6772333061
 21
10.5048502249
  0
LINE
  5
33D
100
AcDbEntity
  8
0
100
AcDbLine
 62
7
  6
CONTINUOUS
 10
3.4876362591
 20
10.5048502249
 11
3.4584833061
 21
10.5048502249
  0
LINE
  5
33E
100
AcDbEntity
  8
0
100
AcDbLine
 62
7
  6
CONTINUOUS
 10
3.2688862591
 20
10.5048502249
 11
3.2543097826
 21
10.5048502249
  0
LINE
  5
33F
100
AcDbEntity
  8
0
100
AcDbLine
 62
7
  6
CONTINUOUS
 10
3.2563097826
 20
10.5239285714
 11
3.6898097826
 21
10.5239285714
  0
LINE
  5
340
100
AcDbEntity
  8
0
100
AcDbLine
 62
7
  6
CONTINUOUS
 10
3.2563434519
 20
10.5689285714
 11
3.6897761133
 21
10.5689285714
  0
ARC
  5
341
100
AcDbEntity
  8
0
100
AcDbCircle
 62
7
  6
CONTINUOUS
 10
-26.8982345994
 20
0.3334098906
 40
30.1456754082
100
AcDbArc
 50
1.1116176001
 51
1.2836875244
  0
ARC
  5
342
100
AcDbEntity
  8
0
100
AcDbCircle
 62
7
  6
CONTINUOUS
 10
-26.3917321576
 20
0.3451844809
 40
29.6140425764
100
AcDbArc
 50
1.1087906643
 51
1.2839495947
  0
ARC
  5
343
100
AcDbEntity
  8
0
100
AcDbCircle
 62
7
  6
CONTINUOUS
 10
-23.7030803885
 20
0.3995872936
 40
26.9291699318
100
AcDbArc
 50
1.1035642185
 51
1.296173191
  0
ARC
  5
344
100
AcDbEntity
  8
0
100
AcDbCircle
 62
7
  6
CONTINUOUS
 10
-22.8465988924
 20
0.3472617233
 40
26.6327931291
100
AcDbArc
 50
1.2632740786
 51
1.4015378503
  0
ARC
  5
345
100
AcDbEntity
  8
0
100
AcDbCircle
 62
7
  6
CONTINUOUS
 10
-20.2807376108
 20
0.4078858024
 40
24.0733411271
100
AcDbArc
 50
1.2532823429
 51
1.406237115
  0
ARC
  5
346
100
AcDbEntity
  8
0
100
AcDbCircle
 62
7
  6
CONTINUOUS
 10
-17.8646900143
 20
0.461183612
 40
21.6217905748
100
AcDbArc
 50
1.2541381876
 51
1.4683928208
  0
ARC
  5
347
100
AcDbEntity
  8
0
100
AcDbCircle
 62
7
  6
CONTINUOUS
 10
-17.1452571692
 20
0.494283523
 40
20.3826354718
100
AcDbArc
 50
1.1660238645
 51
1.4582723033
  0
ARC
  5
348
100
AcDbEntity
  8
0
100
AcDbCircle
 62
7
  6
CONTINUOUS
 10
-17.1476604942
 20
0.4943001252
 40
20.3819136067
100
AcDbArc
 50
1.1660242679
 51
1.4582805582
  0
ARC
  5
349
100
AcDbEntity
  8
0
100
AcDbCircle
 62
7
  6
CONTINUOUS
 10
-15.2244301779
 20
0.5237549253
 40
18.9879161954
100
AcDbArc
 50
1.239278195
 51
1.4832528134
  0
ARC
  5
34A
100
AcDbEntity
  8
0
100
AcDbCircle
 62
7
  6
CONTINUOUS
 10
-14.8147957317
 20
0.5504302066
 40
18.026513728
100
AcDbArc
 50
1.1603729065
 51
1.4465685258
  0
ARC
  5
34B
100
AcDbEntity
  8
0
100
AcDbCircle
 62
7
  6
CONTINUOUS
 10
-4.2651480113
 20
0.7994726893
 40
7.9973894956
100
AcDbArc
 50
1.3032148625
 51
1.7488070188
  0
ARC
  5
34C
100
AcDbEntity
  8
0
100
AcDbCircle
 62
7
  6
CONTINUOUS
 10
-3.4567061399
 20
0.8242530768
 40
7.2370272571
100
AcDbArc
 50
1.5123239217
 51
1.6363132551
  0
ARC
  5
34D
100
AcDbEntity
  8
0
100
AcDbCircle
 62
7
  6
CONTINUOUS
 10
-3.9055906512
 20
0.8472293738
 40
7.1222930475
100
AcDbArc
 50
1.4261882498
 51
1.5437427441
  0
ARC
  5
34E
100
AcDbEntity
  8
0
100
AcDbCircle
 62
7
  6
CONTINUOUS
 10
-3.8487602598
 20
0.8480317129
 40
7.0904526924
100
AcDbArc
 50
1.4261085684
 51
1.5441909543
  0
ARC
  5
34F
100
AcDbEntity
  8
0
100
AcDbCircle
 62
7
  6
CONTINUOUS
 10
-3.8282433999
 20
0.8253435889
 40
7.0365231386
100
AcDbArc
 50
1.4671405947
 51
1.5920273797
  0
ARC
  5
350
100
AcDbEntity
  8
0
100
AcDbCircle
 62
7
  6
CONTINUOUS
 10
-3.4144359085
 20
0.8597906677
 40
6.6353004444
100
AcDbArc
 50
1.4222695408
 51
1.5484609203
  0
ARC
  5
351
100
AcDbEntity
  8
0
100
AcDbCircle
 62
7
  6
CONTINUOUS
 10
-2.7482372167
 20
0.8431280214
 40
6.5354210747
100
AcDbArc
 50
1.5970462556
 51
1.7749562868
  0
ARC
  5
352
100
AcDbEntity
  8
0
100
AcDbCircle
 62
7
  6
CONTINUOUS
 10
-3.0832022638
 20
0.8449494863
 40
6.3162150932
100
AcDbArc
 50
1.5245966606
 51
1.6544040878
  0
ARC
  5
353
100
AcDbEntity
  8
0
100
AcDbCircle
 62
7
  6
CONTINUOUS
 10
-2.7077189465
 20
0.8554555738
 40
5.9374612945
100
AcDbArc
 50
1.5204673491
 51
1.6585542659
  0
ARC
  5
354
100
AcDbEntity
  8
0
100
AcDbCircle
 62
7
  6
CONTINUOUS
 10
-1.7880492826
 20
0.862645283
 40
5.5750621511
100
AcDbArc
 50
1.3980833718
 51
1.5685635986
  0
ARC
  5
355
100
AcDbEntity
  8
0
100
AcDbCircle
 62
7
  6
CONTINUOUS
 10
-1.5028952954
 20
0.8798225443
 40
5.2824263516
100
AcDbArc
 50
1.638966276
 51
1.7952588114
  0
ARC
  5
356
100
AcDbEntity
  8
0
100
AcDbCircle
 62
7
  6
CONTINUOUS
 10
-1.9260556308
 20
0.8783471651
 40
5.1304732643
100
AcDbArc
 50
1.5914450133
 51
1.7483344521
  0
ARC
  5
357
100
AcDbEntity
  8
0
100
AcDbCircle
 62
7
  6
CONTINUOUS
 10
-1.6877659546
 20
0.8852275068
 40
4.8952082259
100
AcDbArc
 50
1.5874287809
 51
1.7387739214
  0
ARC
  5
358
100
AcDbEntity
  8
0
100
AcDbCircle
 62
7
  6
CONTINUOUS
 10
-1.6434729417
 20
0.9079266767
 40
4.8593611904
100
AcDbArc
 50
1.5468847735
 51
1.7042529453
  0
ARC
  5
359
100
AcDbEntity
  8
0
100
AcDbCircle
 62
7
  6
CONTINUOUS
 10
-1.6181731465
 20
0.9078993854
 40
4.8590623396
100
AcDbArc
 50
1.5473018861
 51
1.704679742
  0
ARC
  5
35A
100
AcDbEntity
  8
0
100
AcDbCircle
 62
7
  6
CONTINUOUS
 10
-1.051769058
 20
0.9033625607
 40
4.2839422629
100
AcDbArc
 50
1.6578861348
 51
1.8322458936
  0
ARC
  5
35B
100
AcDbEntity
  8
0
100
AcDbCircle
 62
7
  6
CONTINUOUS
 10
-0.7679969981
 20
0.9121033687
 40
3.9969124381
100
AcDbArc
 50
1.6516401844
 51
1.8385195466
  0
ARC
  5
35C
100
AcDbEntity
  8
0
100
AcDbCircle
 62
7
  6
CONTINUOUS
 10
0.1343929819
 20
0.9308974941
 40
3.6443416567
100
AcDbArc
 50
1.7990818891
 51
2.0038664003
  0
ARC
  5
35D
100
AcDbEntity
  8
0
100
AcDbCircle
 62
7
  6
CONTINUOUS
 10
-0.1571005421
 20
0.9320806451
 40
3.3607022937
100
AcDbArc
 50
1.7527908955
 51
1.9677665955
  0
ARC
  5
35E
100
AcDbEntity
  8
0
100
AcDbCircle
 62
7
  6
CONTINUOUS
 10
3.6974904724
 20
-0.1850028452
 40
1.5
100
AcDbArc
 50
19.4944839556
 51
33.074218907
  0
ARC
  5
35F
100
AcDbEntity
  8
0
100
AcDbCircle
 62
7
  6
CONTINUOUS
 10
5.1704180089
 20
0.3364285714
 40
0.0625
100
AcDbArc
 50
199.4944839556
 51
270.0
  0
ARC
  5
360
100
AcDbEntity
  8
0
100
AcDbCircle
 62
7
  6
CONTINUOUS
 10
3.3799867883
 20
0.5432583293
 40
0.6144292883
100
AcDbArc
 50
92.5171548027
 51
93.3363127931
  0
ARC
  5
361
100
AcDbEntity
  8
0
100
AcDbCircle
 62
7
  6
CONTINUOUS
 10
3.3791668804
 20
0.5771901461
 40
0.6013063025
100
AcDbArc
 50
92.6581742916
 51
93.2958874952
  0
ARC
  5
362
100
AcDbEntity
  8
0
100
AcDbCircle
 62
7
  6
CONTINUOUS
 10
3.3780352918
 20
0.5561728813
 40
0.5806237066
100
AcDbArc
 50
92.6196704601
 51
93.3323396921
  0
ARC
  5
363
100
AcDbEntity
  8
0
100
AcDbCircle
 62
7
  6
CONTINUOUS
 10
3.1122286816
 20
0.793984297
 40
0.3487065297
100
AcDbArc
 50
166.1368141929
 51
167.0198818464
  0
ARC
  5
364
100
AcDbEntity
  8
0
100
AcDbCircle
 62
7
  6
CONTINUOUS
 10
3.0546271576
 20
0.7724992253
 40
0.2871412404
100
AcDbArc
 50
160.1682901971
 51
161.6397348209
  0
ARC
  5
365
100
AcDbEntity
  8
0
100
AcDbCircle
 62
7
  6
CONTINUOUS
 10
3.0189437531
 20
0.7842496075
 40
0.2495730626
100
AcDbArc
 50
161.6195958536
 51
163.2386157293
  0
ARC
  5
366
100
AcDbEntity
  8
0
100
AcDbCircle
 62
7
  6
CONTINUOUS
 10
2.9767238334
 20
0.6830288283
 40
0.2107914041
100
AcDbArc
 50
22.64899209
 51
23.0073026976
  0
ARC
  5
367
100
AcDbEntity
  8
0
100
AcDbCircle
 62
7
  6
CONTINUOUS
 10
2.9816059933
 20
0.6850634492
 40
0.205502249
100
AcDbArc
 50
22.1302280506
 51
22.6496420042
  0
ARC
  5
368
100
AcDbEntity
  8
0
100
AcDbCircle
 62
7
  6
CONTINUOUS
 10
2.9876258933
 20
0.7313845861
 40
0.1989752226
100
AcDbArc
 50
336.9736997834
 51
339.9180053463
  0
ARC
  5
369
100
AcDbEntity
  8
0
100
AcDbCircle
 62
7
  6
CONTINUOUS
 10
2.9961661152
 20
0.6908863932
 40
0.189821214
100
AcDbArc
 50
20.0312748821
 51
22.1577015075
  0
ARC
  5
36A
100
AcDbEntity
  8
0
100
AcDbCircle
 62
7
  6
CONTINUOUS
 10
3.0143876159
 20
0.7214754078
 40
0.1704381337
100
AcDbArc
 50
339.9575705494
 51
343.2982538103
  0
ARC
  5
36B
100
AcDbEntity
  8
0
100
AcDbCircle
 62
7
  6
CONTINUOUS
 10
3.0163234218
 20
0.6981250511
 40
0.1684038604
100
AcDbArc
 50
17.1765429091
 51
20.0665845527
  0
ARC
  5
36C
100
AcDbEntity
  8
0
100
AcDbCircle
 62
7
  6
CONTINUOUS
 10
3.0588265951
 20
0.710108608
 40
0.1245086693
100
AcDbArc
 50
351.2226364687
 51
355.4802291398
  0
ARC
  5
36D
100
AcDbEntity
  8
0
100
AcDbCircle
 62
7
  6
CONTINUOUS
 10
3.0667983643
 20
0.7094854977
 40
0.1165125879
100
AcDbArc
 50
355.4767733147
 51
4.5221057579
  0
ARC
  5
36E
100
AcDbEntity
  8
0
100
AcDbCircle
 62
7
  6
CONTINUOUS
 10
2.8950597826
 20
0.5648206173
 40
0.11
100
AcDbArc
 50
151.4532700444
 51
28.5467299556
  0
ARC
  5
36F
100
AcDbEntity
  8
0
100
AcDbCircle
 62
7
  6
CONTINUOUS
 10
0.4936612784
 20
0.9440942637
 40
3.2919507834
100
AcDbArc
 50
1.7661906251
 51
1.9943865117
  0
ARC
  5
370
100
AcDbEntity
  8
0
100
AcDbCircle
 62
7
  6
CONTINUOUS
 10
0.4374041758
 20
0.950735417
 40
2.7940157546
100
AcDbArc
 50
1.8376823436
 51
2.0760782108
  0
ARC
  5
371
100
AcDbEntity
  8
0
100
AcDbCircle
 62
7
  6
CONTINUOUS
 10
0.8168845148
 20
0.9552313361
 40
2.9129707104
100
AcDbArc
 50
1.7371206269
 51
2.1851560242
  0
ARC
  5
372
100
AcDbEntity
  8
0
100
AcDbCircle
 62
7
  6
CONTINUOUS
 10
0.554510298
 20
0.9737119133
 40
2.6603937632
100
AcDbArc
 50
1.6959150604
 51
2.1785268717
  0
ARC
  5
373
100
AcDbEntity
  8
0
100
AcDbCircle
 62
7
  6
CONTINUOUS
 10
1.4282994435
 20
0.9759262135
 40
2.3496519543
100
AcDbArc
 50
2.0097861178
 51
2.2903596204
  0
ARC
  5
374
100
AcDbEntity
  8
0
100
AcDbCircle
 62
7
  6
CONTINUOUS
 10
0.8581328061
 20
0.9653835158
 40
2.3480500195
100
AcDbArc
 50
1.6960249823
 51
2.2728280821
  0
ARC
  5
375
100
AcDbEntity
  8
0
100
AcDbCircle
 62
7
  6
CONTINUOUS
 10
1.1135934911
 20
0.9754752812
 40
2.0892675494
100
AcDbArc
 50
1.9749817733
 51
2.277440853
  0
ARC
  5
376
100
AcDbEntity
  8
0
100
AcDbCircle
 62
7
  6
CONTINUOUS
 10
3.0928307608
 20
0.8989264913
 40
0.3325209782
100
AcDbArc
 50
178.5008434875
 51
181.502171116
  0
ARC
  5
377
100
AcDbEntity
  8
0
100
AcDbCircle
 62
7
  6
CONTINUOUS
 10
3.092265997
 20
0.898891991
 40
0.331955396
100
AcDbArc
 50
181.4980582589
 51
185.9951923345
  0
ARC
  5
378
100
AcDbEntity
  8
0
100
AcDbCircle
 62
7
  6
CONTINUOUS
 10
3.0908907671
 20
0.8987534726
 40
0.3305732201
100
AcDbArc
 50
185.9962106271
 51
187.4939450824
  0
ARC
  5
379
100
AcDbEntity
  8
0
100
AcDbCircle
 62
7
  6
CONTINUOUS
 10
3.0907429415
 20
0.8990829841
 40
0.330429795
100
AcDbArc
 50
169.5181728575
 51
178.5184983677
  0
ARC
  5
37A
100
AcDbEntity
  8
0
100
AcDbCircle
 62
7
  6
CONTINUOUS
 10
3.0891578231
 20
0.8985148727
 40
0.3288239594
100
AcDbArc
 50
187.4921069975
 51
190.4876472102
  0
ARC
  5
37B
100
AcDbEntity
  8
0
100
AcDbCircle
 62
7
  6
CONTINUOUS
 10
2.7114461941
 20
0.8959465353
 40
0.3180235564
100
AcDbArc
 50
338.2926289534
 51
344.9970612953
  0
ARC
  5
37C
100
AcDbEntity
  8
0
100
AcDbCircle
 62
7
  6
CONTINUOUS
 10
2.7114461952
 20
0.9019106078
 40
0.3180235552
100
AcDbArc
 50
15.0029387054
 51
21.7073731134
  0
ARC
  5
37D
100
AcDbEntity
  8
0
100
AcDbCircle
 62
7
  6
CONTINUOUS
 10
3.0703047974
 20
0.9049270789
 40
0.3091362063
100
AcDbArc
 50
154.3797331464
 51
162.5513383731
  0
ARC
  5
37E
100
AcDbEntity
  8
0
100
AcDbCircle
 62
7
  6
CONTINUOUS
 10
3.0703047947
 20
0.8929300629
 40
0.3091362035
100
AcDbArc
 50
197.4486615956
 51
205.6202693632
  0
ARC
  5
37F
100
AcDbEntity
  8
0
100
AcDbCircle
 62
7
  6
CONTINUOUS
 10
2.7245244281
 20
0.8908595721
 40
0.3039912894
100
AcDbArc
 50
331.503811656
 51
338.2717122686
  0
ARC
  5
380
100
AcDbEntity
  8
0
100
AcDbCircle
 62
7
  6
CONTINUOUS
 10
2.7245244309
 20
0.9069975721
 40
0.3039912864
100
AcDbArc
 50
21.72828983
 51
28.4961883729
  0
ARC
  5
381
100
AcDbEntity
  8
0
100
AcDbCircle
 62
7
  6
CONTINUOUS
 10
3.4945125195
 20
0.8567749156
 40
0.2970768232
100
AcDbArc
 50
103.4355631986
 51
104.0409495836
  0
ARC
  5
382
100
AcDbEntity
  8
0
100
AcDbCircle
 62
7
  6
CONTINUOUS
 10
3.0591185564
 20
0.9102403349
 40
0.2967523274
100
AcDbArc
 50
151.4574581305
 51
154.3708267967
  0
ARC
  5
383
100
AcDbEntity
  8
0
100
AcDbCircle
 62
7
  6
CONTINUOUS
 10
3.0591185538
 20
0.8876168066
 40
0.2967523244
100
AcDbArc
 50
205.6291757507
 51
208.5425418773
  0
ARC
  5
384
100
AcDbEntity
  8
0
100
AcDbCircle
 62
7
  6
CONTINUOUS
 10
3.3613574167
 20
0.8398495173
 40
0.2964573204
100
AcDbArc
 50
93.3013670156
 51
94.0798622287
  0
ARC
  5
385
100
AcDbEntity
  8
0
100
AcDbCircle
 62
7
  6
CONTINUOUS
 10
3.3611464148
 20
0.8639365052
 40
0.2931982073
100
AcDbArc
 50
93.3077787661
 51
94.1176241887
  0
ARC
  5
386
100
AcDbEntity
  8
0
100
AcDbCircle
 62
9
  6
CONTINUOUS
 10
3.0377978152
 20
0.8988671317
 40
0.277488013
100
AcDbArc
 50
169.9872792206
 51
190.021000192
  0
ARC
  5
387
100
AcDbEntity
  8
0
100
AcDbCircle
 62
7
  6
CONTINUOUS
 10
3.4695033034
 20
0.8805257531
 40
0.2725613112
100
AcDbArc
 50
78.5360990528
 51
79.1877722011
  0
ARC
  5
388
100
AcDbEntity
  8
0
100
AcDbCircle
 62
9
  6
CONTINUOUS
 10
3.0320450357
 20
0.8979083585
 40
0.2716561684
100
AcDbArc
 50
190.0329990126
 51
192.048032333
  0
ARC
  5
389
100
AcDbEntity
  8
0
100
AcDbCircle
 62
9
  6
CONTINUOUS
 10
3.0294583829
 20
0.9003784172
 40
0.2690396122
100
AcDbArc
 50
165.9104440526
 51
169.9580763212
  0
ARC
  5
38A
100
AcDbEntity
  8
0
100
AcDbCircle
 62
9
  6
CONTINUOUS
 10
2.7877895385
 20
0.9098181041
 40
0.2402795996
100
AcDbArc
 50
20.9771853852
 51
24.061972826
  0
ARC
  5
38B
100
AcDbEntity
  8
0
100
AcDbCircle
 62
7
  6
CONTINUOUS
 10
2.6890722755
 20
0.8989284342
 40
0.0872477067
100
AcDbArc
 50
358.4607777557
 51
1.5421618774
  0
ARC
  5
38C
100
AcDbEntity
  8
0
100
AcDbCircle
 62
7
  6
CONTINUOUS
 10
2.8475438724
 20
0.8168707827
 40
0.0744030039
100
AcDbArc
 50
179.9742779475
 51
182.1812640044
  0
ARC
  5
38D
100
AcDbEntity
  8
0
100
AcDbCircle
 62
7
  6
CONTINUOUS
 10
2.1591501605
 20
1.0065211142
 40
1.5697255001
100
AcDbArc
 50
2.1824791199
 51
2.5286199379
  0
ARC
  5
38E
100
AcDbEntity
  8
0
100
AcDbCircle
 62
7
  6
CONTINUOUS
 10
2.369749889
 20
1.0133572011
 40
1.40745774
100
AcDbArc
 50
2.2994267016
 51
2.7017474001
  0
ARC
  5
38F
100
AcDbEntity
  8
0
100
AcDbCircle
 62
7
  6
CONTINUOUS
 10
1.9910188652
 20
1.0101579471
 40
1.2111570228
100
AcDbArc
 50
2.2874787577
 51
2.7296284276
  0
ARC
  5
390
100
AcDbEntity
  8
0
100
AcDbCircle
 62
7
  6
CONTINUOUS
 10
2.1116762014
 20
1.0153072168
 40
1.093512911
100
AcDbArc
 50
2.2638426927
 51
2.7535414782
  0
ARC
  5
391
100
AcDbEntity
  8
0
100
AcDbCircle
 62
7
  6
CONTINUOUS
 10
2.7971752759
 20
1.0351081152
 40
0.9310605016
100
AcDbArc
 50
2.5033580787
 51
3.002700336
  0
ARC
  5
392
100
AcDbEntity
  8
0
100
AcDbCircle
 62
7
  6
CONTINUOUS
 10
2.6628273798
 20
1.042348343
 40
0.541699291
100
AcDbArc
 50
2.697200159
 51
3.4980038442
  0
ARC
  5
393
100
AcDbEntity
  8
0
100
AcDbCircle
 62
7
  6
CONTINUOUS
 10
3.2361961429
 20
1.0585602736
 40
0.4914140676
100
AcDbArc
 50
2.9534137702
 51
3.7326681374
  0
ARC
  5
394
100
AcDbEntity
  8
0
100
AcDbCircle
 62
7
  6
CONTINUOUS
 10
3.1101275051
 20
1.0033451105
 40
0.3465401106
100
AcDbArc
 50
193.0476686374
 51
193.86170552
  0
ARC
  5
395
100
AcDbEntity
  8
0
100
AcDbCircle
 62
7
  6
CONTINUOUS
 10
3.0515473971
 20
1.0242058138
 40
0.2838532744
100
AcDbArc
 50
197.6297501549
 51
199.823901574
  0
ARC
  5
396
100
AcDbEntity
  8
0
100
AcDbCircle
 62
7
  6
CONTINUOUS
 10
3.0025595204
 20
1.0085041731
 40
0.2324107459
100
AcDbArc
 50
195.0862643025
 51
197.598320883
  0
ARC
  5
397
100
AcDbEntity
  8
0
100
AcDbCircle
 62
7
  6
CONTINUOUS
 10
2.9925064832
 20
1.0684004184
 40
0.1937294485
100
AcDbArc
 50
20.0417861243
 51
23.0661676537
  0
ARC
  5
398
100
AcDbEntity
  8
0
100
AcDbCircle
 62
7
  6
CONTINUOUS
 10
3.0183088696
 20
1.0776840366
 40
0.1663080772
100
AcDbArc
 50
16.659592508
 51
20.0835369706
  0
ARC
  5
399
100
AcDbEntity
  8
0
100
AcDbCircle
 62
7
  6
CONTINUOUS
 10
3.0588265951
 20
1.0889947221
 40
0.1245086693
100
AcDbArc
 50
351.2226364688
 51
355.4802291398
  0
ARC
  5
39A
100
AcDbEntity
  8
0
100
AcDbCircle
 62
7
  6
CONTINUOUS
 10
3.0600585028
 20
1.0878921377
 40
0.1232692832
100
AcDbArc
 50
4.497278752
 51
8.797611746
  0
ARC
  5
39B
100
AcDbEntity
  8
0
100
AcDbCircle
 62
7
  6
CONTINUOUS
 10
3.0667983643
 20
1.0883716118
 40
0.1165125879
100
AcDbArc
 50
355.4767733148
 51
4.5221057577
  0
ARC
  5
39C
100
AcDbEntity
  8
0
100
AcDbCircle
 62
7
  6
CONTINUOUS
 10
5.5011555944
 20
0.7976154131
 40
1.7176436151
100
AcDbArc
 50
182.134596257
 51
182.4950966982
  0
ARC
  5
39D
100
AcDbEntity
  8
0
100
AcDbCircle
 62
7
  6
CONTINUOUS
 10
5.3037656059
 20
0.8088247161
 40
1.5569054151
100
AcDbArc
 50
182.2450618137
 51
182.6323223185
  0
ARC
  5
39E
100
AcDbEntity
  8
0
100
AcDbCircle
 62
7
  6
CONTINUOUS
 10
5.3006406057
 20
0.8088247161
 40
1.5569054149
100
AcDbArc
 50
182.2450618137
 51
182.6323223185
  0
ARC
  5
39F
100
AcDbEntity
  8
0
100
AcDbCircle
 62
7
  6
CONTINUOUS
 10
4.7338062023
 20
0.7636527635
 40
0.9495433268
100
AcDbArc
 50
182.46343325
 51
183.0128312326
  0
ARC
  5
3A0
100
AcDbEntity
  8
0
100
AcDbCircle
 62
7
  6
CONTINUOUS
 10
3.8997400128
 20
0.7473367091
 40
0.6995115204
100
AcDbArc
 50
182.6010284695
 51
183.1946397655
  0
ARC
  5
3A1
100
AcDbEntity
  8
0
100
AcDbCircle
 62
7
  6
CONTINUOUS
 10
5.0068097826
 20
0.6676924074
 40
0.0625
100
AcDbArc
 50
180.0
 51
213.0742189069
  0
ARC
  5
3A2
100
AcDbEntity
  8
0
100
AcDbCircle
 62
7
  6
CONTINUOUS
 10
6.9660239082
 20
0.8591418248
 40
3.7471962095
100
AcDbArc
 50
181.4087907035
 51
181.9046794487
  0
ARC
  5
3A3
100
AcDbEntity
  8
0
100
AcDbCircle
 62
7
  6
CONTINUOUS
 10
6.3972969336
 20
0.8599621359
 40
3.1871816098
100
AcDbArc
 50
181.8136618817
 51
181.9476695277
  0
ARC
  5
3A4
100
AcDbEntity
  8
0
100
AcDbCircle
 62
7
  6
CONTINUOUS
 10
6.4117148977
 20
0.8596850006
 40
3.1797196121
100
AcDbArc
 50
181.82096778
 51
181.9490083741
  0
ARC
  5
3A5
100
AcDbEntity
  8
0
100
AcDbCircle
 62
7
  6
CONTINUOUS
 10
6.5464300746
 20
0.8374384807
 40
2.7636761929
100
AcDbArc
 50
181.8951866522
 51
182.1524664852
  0
ARC
  5
3A6
100
AcDbEntity
  8
0
100
AcDbCircle
 62
7
  6
CONTINUOUS
 10
5.954258813
 20
0.8444686469
 40
2.7188876589
100
AcDbArc
 50
181.8088969278
 51
182.0564792102
  0
ARC
  5
3A7
100
AcDbEntity
  8
0
100
AcDbCircle
 62
7
  6
CONTINUOUS
 10
5.9128910201
 20
0.8440989411
 40
2.7056398139
100
AcDbArc
 50
181.8004670304
 51
182.0585319896
  0
ARC
  5
3A8
100
AcDbEntity
  8
0
100
AcDbCircle
 62
7
  6
CONTINUOUS
 10
13.5982193573
 20
1.0483680968
 40
9.8670735363
100
AcDbArc
 50
181.3473767534
 51
181.713519754
  0
ARC
  5
3A9
100
AcDbEntity
  8
0
100
AcDbCircle
 62
7
  6
CONTINUOUS
 10
9.9217681232
 20
0.963873228
 40
6.7131875521
100
AcDbArc
 50
181.5034113175
 51
181.6314208899
  0
ARC
  5
3AA
100
AcDbEntity
  8
0
100
AcDbCircle
 62
7
  6
CONTINUOUS
 10
9.7018845207
 20
0.9572746648
 40
6.4713391716
100
AcDbArc
 50
181.5153179262
 51
181.6426643259
  0
ARC
  5
3AB
100
AcDbEntity
  8
0
100
AcDbCircle
 62
7
  6
CONTINUOUS
 10
9.5260207559
 20
0.953129735
 40
6.3204184832
100
AcDbArc
 50
181.4994364278
 51
181.6353996099
  0
ARC
  5
3AC
100
AcDbEntity
  8
0
100
AcDbCircle
 62
7
  6
CONTINUOUS
 10
9.3418107062
 20
0.9472628535
 40
6.1080026299
100
AcDbArc
 50
181.5115367265
 51
181.6464557575
  0
ARC
  5
3AD
100
AcDbEntity
  8
0
100
AcDbCircle
 62
7
  6
CONTINUOUS
 10
8.1812168312
 20
0.8948873864
 40
4.9835737094
100
AcDbArc
 50
181.4704318169
 51
181.8431647056
  0
ARC
  5
3AE
100
AcDbEntity
  8
0
100
AcDbCircle
 62
7
  6
CONTINUOUS
 10
7.7886398382
 20
0.9033836209
 40
4.5792018047
100
AcDbArc
 50
181.6347327092
 51
181.8057166791
  0
ARC
  5
3AF
100
AcDbEntity
  8
0
100
AcDbCircle
 62
7
  6
CONTINUOUS
 10
7.7565533969
 20
0.88188103
 40
4.533724828
100
AcDbArc
 50
181.4519399878
 51
181.8616565787
  0
ARC
  5
3B0
100
AcDbEntity
  8
0
100
AcDbCircle
 62
7
  6
CONTINUOUS
 10
7.7183505691
 20
0.900640885
 40
4.4869969047
100
AcDbArc
 50
181.6458493173
 51
181.8134958262
  0
ARC
  5
3B1
100
AcDbEntity
  8
0
100
AcDbCircle
 62
7
  6
CONTINUOUS
 10
7.6661356979
 20
0.8786684499
 40
4.4225849716
100
AcDbArc
 50
181.4466553601
 51
181.8668147922
  0
ARC
  5
3B2
100
AcDbEntity
  8
0
100
AcDbCircle
 62
7
  6
CONTINUOUS
 10
8.1119035595
 20
0.8895111171
 40
4.3300154743
100
AcDbArc
 50
181.5496341385
 51
181.8987863673
  0
ARC
  5
3B3
100
AcDbEntity
  8
0
100
AcDbCircle
 62
7
  6
CONTINUOUS
 10
7.4795184989
 20
0.8941937477
 40
4.2730678637
100
AcDbArc
 50
181.6286098
 51
181.8118422427
  0
ARC
  5
3B4
100
AcDbEntity
  8
0
100
AcDbCircle
 62
7
  6
CONTINUOUS
 10
7.4345840963
 20
0.8919774218
 40
4.1999749814
100
AcDbArc
 50
181.6401266574
 51
181.8192266978
  0
ARC
  5
3B5
100
AcDbEntity
  8
0
100
AcDbCircle
 62
7
  6
CONTINUOUS
 10
7.9199911694
 20
0.9050681937
 40
4.1471245853
100
AcDbArc
 50
181.6672640251
 51
182.0514863239
  0
ARC
  5
3B6
100
AcDbEntity
  8
0
100
AcDbCircle
 62
7
  6
CONTINUOUS
 10
3.6974904724
 20
1.982859988
 40
1.5
100
AcDbArc
 50
326.925781093
 51
340.5055160444
  0
ARC
  5
3B7
100
AcDbEntity
  8
0
100
AcDbCircle
 62
7
  6
CONTINUOUS
 10
3.5389126417
 20
2.3836090167
 40
1.2001181897
100
AcDbArc
 50
272.2883308131
 51
272.6713973582
  0
ARC
  5
3B8
100
AcDbEntity
  8
0
100
AcDbCircle
 62
7
  6
CONTINUOUS
 10
3.5596772774
 20
1.9061971281
 40
0.7430683689
100
AcDbArc
 50
272.6203026886
 51
273.168541796
  0
ARC
  5
3B9
100
AcDbEntity
  8
0
100
AcDbCircle
 62
7
  6
CONTINUOUS
 10
3.5624205484
 20
1.8110999871
 40
0.6895731807
100
AcDbArc
 50
272.6772550353
 51
273.1931802294
  0
ARC
  5
3BA
100
AcDbEntity
  8
0
100
AcDbCircle
 62
7
  6
CONTINUOUS
 10
3.5638303331
 20
1.8462460201
 40
0.6621778229
100
AcDbArc
 50
272.6847819798
 51
273.263774587
  0
ARC
  5
3BB
100
AcDbEntity
  8
0
100
AcDbCircle
 62
7
  6
CONTINUOUS
 10
3.5680274944
 20
1.720334414
 40
0.5813933401
100
AcDbArc
 50
272.6218019095
 51
273.3326864312
  0
ARC
  5
3BC
100
AcDbEntity
  8
0
100
AcDbCircle
 62
7
  6
CONTINUOUS
 10
3.5681293568
 20
1.7608735561
 40
0.5802604688
100
AcDbArc
 50
272.6383435296
 51
273.2991815931
  0
ARC
  5
3BD
100
AcDbEntity
  8
0
100
AcDbCircle
 62
7
  6
CONTINUOUS
 10
3.4437666488
 20
1.4707785446
 40
0.3290298149
100
AcDbArc
 50
283.5100653947
 51
287.1794300733
  0
ARC
  5
3BE
100
AcDbEntity
  8
0
100
AcDbCircle
 62
7
  6
CONTINUOUS
 10
3.584722362
 20
1.4364335934
 40
0.2970021608
100
AcDbArc
 50
273.3013439696
 51
274.0800598166
  0
ARC
  5
3BF
100
AcDbEntity
  8
0
100
AcDbCircle
 62
7
  6
CONTINUOUS
 10
3.4756480813
 20
1.4112713688
 40
0.2676869882
100
AcDbArc
 50
258.5359558015
 51
259.1994958037
  0
ARC
  5
3C0
100
AcDbEntity
  8
0
100
AcDbCircle
 62
7
  6
CONTINUOUS
 10
2.9876258933
 20
1.1102707002
 40
0.1989752226
100
AcDbArc
 50
336.9736997834
 51
339.9180053463
  0
ARC
  5
3C1
100
AcDbEntity
  8
0
100
AcDbCircle
 62
7
  6
CONTINUOUS
 10
3.0143876159
 20
1.1003615219
 40
0.1704381337
100
AcDbArc
 50
339.9575705495
 51
343.2982538104
  0
ARC
  5
3C2
100
AcDbEntity
  8
0
100
AcDbCircle
 62
7
  6
CONTINUOUS
 10
3.398759913
 20
1.2744266013
 40
0.1498729098
100
AcDbArc
 50
132.3090646727
 51
135.0789558254
  0
ARC
  5
3C3
100
AcDbEntity
  8
0
100
AcDbCircle
 62
7
  6
CONTINUOUS
 10
2.8950597826
 20
1.2330365255
 40
0.11
100
AcDbArc
 50
331.4532700444
 51
208.5467299556
  0
ARC
  5
3C4
100
AcDbEntity
  8
0
100
AcDbCircle
 62
7
  6
CONTINUOUS
 10
5.0068097826
 20
1.1301647354
 40
0.0625
100
AcDbArc
 50
146.9257810931
 51
180.0
  0
ARC
  5
3C5
100
AcDbEntity
  8
0
100
AcDbCircle
 62
7
  6
CONTINUOUS
 10
5.1704180089
 20
1.4614285714
 40
0.0625
100
AcDbArc
 50
90.0
 51
160.5055160444
  0
ARC
  5
3C6
100
AcDbEntity
  8
0
100
AcDbCircle
 62
7
  6
CONTINUOUS
 10
3.6080626471
 20
1.2365915536
 40
0.0416799972
100
AcDbArc
 50
276.8011025585
 51
283.5572086484
  0
ARC
  5
3C7
100
AcDbEntity
  8
0
100
AcDbCircle
 62
7
  6
CONTINUOUS
 10
3.3377755971
 20
1.2342762006
 40
0.0393476424
100
AcDbArc
 50
263.1070989161
 51
269.9529900932
  0
ARC
  5
3C8
100
AcDbEntity
  8
0
100
AcDbCircle
 62
7
  6
CONTINUOUS
 10
3.6083449976
 20
1.2342561138
 40
0.0393275548
100
AcDbArc
 50
270.0455341103
 51
276.7955756883
  0
ARC
  5
3C9
100
AcDbEntity
  8
0
100
AcDbCircle
 62
7
  6
CONTINUOUS
 10
27.4237396875
 20
1.3434280529
 40
24.2063365288
100
AcDbArc
 50
181.0899184347
 51
181.3348578799
  0
ARC
  5
3CA
100
AcDbEntity
  8
0
100
AcDbCircle
 62
7
  6
CONTINUOUS
 10
27.7505610455
 20
1.3913653578
 40
23.9751032352
100
AcDbArc
 50
181.2260343404
 51
181.4360775086
  0
ARC
  5
3CB
100
AcDbEntity
  8
0
100
AcDbCircle
 62
7
  6
CONTINUOUS
 10
26.9040881444
 20
1.3310919664
 40
23.6658688472
100
AcDbArc
 50
181.0849236544
 51
181.3354428467
  0
ARC
  5
3CC
100
AcDbEntity
  8
0
100
AcDbCircle
 62
7
  6
CONTINUOUS
 10
22.8653003432
 20
1.2462006898
 40
19.6511935401
100
AcDbArc
 50
181.0590398884
 51
181.3607394707
  0
ARC
  5
3CD
100
AcDbEntity
  8
0
100
AcDbCircle
 62
7
  6
CONTINUOUS
 10
22.0786046431
 20
1.2665088139
 40
18.8737864912
100
AcDbArc
 50
181.1830164181
 51
181.4535614551
  0
ARC
  5
3CE
100
AcDbEntity
  8
0
100
AcDbCircle
 62
7
  6
CONTINUOUS
 10
22.0751153061
 20
1.2665002481
 40
18.8734220539
100
AcDbArc
 50
181.1830182894
 51
181.4535644043
  0
ARC
  5
3CF
100
AcDbEntity
  8
0
100
AcDbCircle
 62
7
  6
CONTINUOUS
 10
20.899649925
 20
1.2383298961
 40
17.6726273987
100
AcDbArc
 50
181.1887363189
 51
181.4661713211
  0
ARC
  5
3D0
100
AcDbEntity
  8
0
100
AcDbCircle
 62
7
  6
CONTINUOUS
 10
20.9022723226
 20
1.2383180969
 40
17.6721246583
100
AcDbArc
 50
181.1887386826
 51
181.4661770837
  0
ARC
  5
3D1
100
AcDbEntity
  8
0
100
AcDbCircle
 62
7
  6
CONTINUOUS
 10
3.3624870761
 20
10.2625036195
 40
0.2601908564
100
AcDbArc
 50
97.1931009149
 51
97.8334453361
  0
ARC
  5
3D2
100
AcDbEntity
  8
0
100
AcDbCircle
 62
7
  6
CONTINUOUS
 10
3.5836325106
 20
10.262503746
 40
0.2601907296
100
AcDbArc
 50
82.1665094996
 51
82.8069076069
  0
ARC
  5
3D3
100
AcDbEntity
  8
0
100
AcDbCircle
 62
7
  6
CONTINUOUS
 10
3.5812370051
 20
10.2625040471
 40
0.2601904279
100
AcDbArc
 50
97.1931762987
 51
97.8334349
  0
ARC
  5
3D4
100
AcDbEntity
  8
0
100
AcDbCircle
 62
7
  6
CONTINUOUS
 10
3.3648825556
 20
10.2625040906
 40
0.260190386
100
AcDbArc
 50
82.1664699786
 51
82.8068442346
  0
ARC
  5
3D5
100
AcDbEntity
  8
0
100
AcDbCircle
 62
7
  6
CONTINUOUS
 10
3.3620000493
 20
10.2659390952
 40
0.2567210606
100
AcDbArc
 50
97.830265476
 51
101.0858392844
  0
ARC
  5
3D6
100
AcDbEntity
  8
0
100
AcDbCircle
 62
7
  6
CONTINUOUS
 10
3.5807500098
 20
10.2659393055
 40
0.2567208517
100
AcDbArc
 50
97.830255232
 51
101.0857067095
  0
ARC
  5
3D7
100
AcDbEntity
  8
0
100
AcDbCircle
 62
7
  6
CONTINUOUS
 10
3.584298988
 20
10.2670164002
 40
0.2556293526
100
AcDbArc
 50
78.9072901748
 51
82.1766421088
  0
ARC
  5
3D8
100
AcDbEntity
  8
0
100
AcDbCircle
 62
7
  6
CONTINUOUS
 10
3.3655489856
 20
10.2670164148
 40
0.2556293424
100
AcDbArc
 50
78.9074036265
 51
82.1766014479
  0
ARC
  5
3D9
100
AcDbEntity
  8
0
100
AcDbCircle
 62
7
  6
CONTINUOUS
 10
3.3602293863
 20
10.2750578113
 40
0.2474320363
100
AcDbArc
 50
101.0894791351
 51
103.6041085051
  0
ARC
  5
3DA
100
AcDbEntity
  8
0
100
AcDbCircle
 62
7
  6
CONTINUOUS
 10
3.5858902101
 20
10.2750579897
 40
0.2474318568
100
AcDbArc
 50
76.3958128384
 51
78.9106049672
  0
ARC
  5
3DB
100
AcDbEntity
  8
0
100
AcDbCircle
 62
7
  6
CONTINUOUS
 10
3.3671402776
 20
10.2750584035
 40
0.2474314414
100
AcDbArc
 50
76.3956093316
 51
78.9107202935
  0
ARC
  5
3DC
100
AcDbEntity
  8
0
100
AcDbCircle
 62
7
  6
CONTINUOUS
 10
3.5789792676
 20
10.2750584811
 40
0.2474313611
100
AcDbArc
 50
101.0893440732
 51
103.6043628221
  0
ARC
  5
3DD
100
AcDbEntity
  8
0
100
AcDbCircle
 62
7
  6
CONTINUOUS
 10
3.3687257021
 20
10.2817117991
 40
0.2405918033
100
AcDbArc
 50
75.0429485388
 51
76.3898826769
  0
ARC
  5
3DE
100
AcDbEntity
  8
0
100
AcDbCircle
 62
7
  6
CONTINUOUS
 10
3.5773937914
 20
10.2817120815
 40
0.2405915119
100
AcDbArc
 50
103.6100881867
 51
104.9572471681
  0
ARC
  5
3DF
100
AcDbEntity
  8
0
100
AcDbCircle
 62
7
  6
CONTINUOUS
 10
3.5874758365
 20
10.2817122479
 40
0.2405913327
100
AcDbArc
 50
75.0424088004
 51
76.3900903851
  0
ARC
  5
3E0
100
AcDbEntity
  8
0
100
AcDbCircle
 62
7
  6
CONTINUOUS
 10
3.35864365
 20
10.2817125251
 40
0.2405910434
100
AcDbArc
 50
103.6098288174
 51
104.9578945356
  0
ARC
  5
3E1
100
AcDbEntity
  8
0
100
AcDbCircle
 62
7
  6
CONTINUOUS
 10
3.5757031252
 20
10.2879884129
 40
0.2340914733
100
AcDbArc
 50
104.9539492341
 51
108.0576131752
  0
ARC
  5
3E2
100
AcDbEntity
  8
0
100
AcDbCircle
 62
7
  6
CONTINUOUS
 10
3.3569528043
 20
10.2879893385
 40
0.2340904928
100
AcDbArc
 50
104.9546025691
 51
108.0573840552
  0
ARC
  5
3E3
100
AcDbEntity
  8
0
100
AcDbCircle
 62
7
  6
CONTINUOUS
 10
3.3708839607
 20
10.2895661715
 40
0.2324465121
100
AcDbArc
 50
71.9313602375
 51
75.0572356754
  0
ARC
  5
3E4
100
AcDbEntity
  8
0
100
AcDbCircle
 62
7
  6
CONTINUOUS
 10
3.5896341319
 20
10.2895666171
 40
0.2324460346
100
AcDbArc
 50
71.9315489781
 51
75.0566860112
  0
ARC
  5
3E5
100
AcDbEntity
  8
0
100
AcDbCircle
 62
7
  6
CONTINUOUS
 10
3.5724252179
 20
10.2981335833
 40
0.2234299386
100
AcDbArc
 50
108.0648640962
 51
112.3019657936
  0
ARC
  5
3E6
100
AcDbEntity
  8
0
100
AcDbCircle
 62
7
  6
CONTINUOUS
 10
3.3536752033
 20
10.2981335779
 40
0.2234299381
100
AcDbArc
 50
108.064624706
 51
112.3019617879
  0
ARC
  5
3E7
100
AcDbEntity
  8
0
100
AcDbCircle
 62
7
  6
CONTINUOUS
 10
3.3743573316
 20
10.2999371309
 40
0.2215097192
100
AcDbArc
 50
67.6796606345
 51
71.9534672095
  0
ARC
  5
3E8
100
AcDbEntity
  8
0
100
AcDbCircle
 62
7
  6
CONTINUOUS
 10
3.5931073669
 20
10.2999372063
 40
0.221509636
100
AcDbArc
 50
67.6796616522
 51
71.9536615471
  0
SPLINE
  5
3E9
100
AcDbEntity
  8
0
100
AcDbSpline
 62
7
  6
CONTINUOUS
 70
0
 71
3
 72
9
 73
5
 74
0
 42
0.0000001
 43
0.0000001
 44
0.0000000001
 40
0.0
 40
0.0
 40
0.0
 40
0.0
 40
0.4999999976
 40
1.0
 40
1.0
 40
1.0
 40
1.0
 10
3.6162119345
 20
10.5206467236
 30
0.0
 10
3.6050198957
 20
10.5220592922
 30
0.0
 10
3.582434586
 20
10.5234315504
 30
0.0
 10
3.5598492778
 20
10.5220592627
 30
0.0
 10
3.548657241
 20
10.5206466778
 30
0.0
  0
SPLINE
  5
3EA
100
AcDbEntity
  8
0
100
AcDbSpline
 62
7
  6
CONTINUOUS
 70
0
 71
3
 72
9
 73
5
 74
0
 42
0.0000001
 43
0.0000001
 44
0.0000000001
 40
0.0
 40
0.0
 40
0.0
 40
0.0
 40
0.4999999987
 40
1.0
 40
1.0
 40
1.0
 40
1.0
 10
3.397462222
 20
10.5206466913
 30
0.0
 10
3.3862701963
 20
10.5220592708
 30
0.0
 10
3.363684911
 20
10.5234315499
 30
0.0
 10
3.3410996251
 20
10.5220592869
 30
0.0
 10
3.329907598
 20
10.5206467181
 30
0.0
  0
SPLINE
  5
3EB
100
AcDbEntity
  8
0
100
AcDbSpline
 62
7
  6
CONTINUOUS
 70
0
 71
3
 72
11
 73
7
 74
0
 42
0.0000001
 43
0.0000001
 44
0.0000000001
 40
0.0
 40
0.0
 40
0.0
 40
0.0
 40
0.2511004909
 40
0.500000007
 40
0.7488995213
 40
1.0
 40
1.0
 40
1.0
 40
1.0
 10
3.4876362591
 20
10.3380069179
 30
0.0
 10
3.5026450361
 20
10.3318423564
 30
0.0
 10
3.5339863237
 20
10.3229136721
 30
0.0
 10
3.5824347838
 20
10.3187169233
 30
0.0
 10
3.630883242
 20
10.3229136766
 30
0.0
 10
3.6622245299
 20
10.3318423567
 30
0.0
 10
3.6772333061
 20
10.3380069179
 30
0.0
  0
SPLINE
  5
3EC
100
AcDbEntity
  8
0
100
AcDbSpline
 62
7
  6
CONTINUOUS
 70
0
 71
3
 72
11
 73
7
 74
0
 42
0.0000001
 43
0.0000001
 44
0.0000000001
 40
0.0
 40
0.0
 40
0.0
 40
0.0
 40
0.2499774939
 40
0.5000011962
 40
0.7500155649
 40
1.0
 40
1.0
 40
1.0
 40
1.0
 10
3.382848803
 20
1.2191005306
 30
0.0
 10
3.3898696474
 20
1.2155901084
 30
0.0
 10
3.404164297
 20
1.2090509636
 30
0.0
 10
3.4264331224
 20
1.201254538
 30
0.0
 10
3.4494863791
 20
1.1961334113
 30
0.0
 10
3.465210022
 20
1.1949285714
 30
0.0
 10
3.4730597826
 20
1.1949285714
 30
0.0
  0
SPLINE
  5
3ED
100
AcDbEntity
  8
0
100
AcDbSpline
 62
7
  6
CONTINUOUS
 70
0
 71
3
 72
11
 73
7
 74
0
 42
0.0000001
 43
0.0000001
 44
0.0000000001
 40
0.0
 40
0.0
 40
0.0
 40
0.0
 40
0.2264792259
 40
0.4659073395
 40
0.723959459
 40
1.0
 40
1.0
 40
1.0
 40
1.0
 10
3.3377433133
 20
1.1949285714
 30
0.0
 10
3.3417008306
 20
1.1949285714
 30
0.0
 10
3.3498798278
 20
1.1962240992
 30
0.0
 10
3.3614883221
 20
1.2015083938
 30
0.0
 10
3.3725587939
 20
1.2093555827
 30
0.0
 10
3.3794380339
 20
1.2156897614
 30
0.0
 10
3.382848803
 20
1.2191005306
 30
0.0
  0
SPLINE
  5
3EE
100
AcDbEntity
  8
0
100
AcDbSpline
 62
7
  6
CONTINUOUS
 70
0
 71
3
 72
11
 73
7
 74
0
 42
0.0000001
 43
0.0000001
 44
0.0000000001
 40
0.0
 40
0.0
 40
0.0
 40
0.0
 40
0.2511004771
 40
0.4999999936
 40
0.7488995076
 40
1.0
 40
1.0
 40
1.0
 40
1.0
 10
3.2688862591
 20
10.3380069179
 30
0.0
 10
3.2838950353
 20
10.3318423567
 30
0.0
 10
3.315236324
 20
10.3229136801
 30
0.0
 10
3.3636847814
 20
10.318716922
 30
0.0
 10
3.4121332423
 20
10.3229136693
 30
0.0
 10
3.443474529
 20
10.3318423563
 30
0.0
 10
3.4584833061
 20
10.3380069179
 30
0.0
  0
SPLINE
  5
3EF
100
AcDbEntity
  8
0
100
AcDbSpline
 62
7
  6
CONTINUOUS
 70
0
 71
3
 72
11
 73
7
 74
0
 42
0.0000001
 43
0.0000001
 44
0.0000000001
 40
0.0
 40
0.0
 40
0.0
 40
0.0
 40
0.2499844955
 40
0.4999988843
 40
0.7500225205
 40
1.0
 40
1.0
 40
1.0
 40
1.0
 10
3.4730597826
 20
1.1949285714
 30
0.0
 10
3.4809095451
 20
1.1949285714
 30
0.0
 10
3.4966331899
 20
1.1961334166
 30
0.0
 10
3.5196864492
 20
1.2012545334
 30
0.0
 10
3.5419552698
 20
1.2090509682
 30
0.0
 10
3.5562499182
 20
1.2155901086
 30
0.0
 10
3.5632707622
 20
1.2191005306
 30
0.0
  0
SPLINE
  5
3F0
100
AcDbEntity
  8
0
100
AcDbSpline
 62
7
  6
CONTINUOUS
 70
0
 71
3
 72
11
 73
7
 74
0
 42
0.0000001
 43
0.0000001
 44
0.0000000001
 40
0.0
 40
0.0
 40
0.0
 40
0.0
 40
0.2760405477
 40
0.5340927003
 40
0.7735208197
 40
1.0
 40
1.0
 40
1.0
 40
1.0
 10
3.5632707622
 20
1.2191005306
 30
0.0
 10
3.5666815314
 20
1.2156897613
 30
0.0
 10
3.5735607706
 20
1.2093555802
 30
0.0
 10
3.5846312464
 20
1.2015083963
 30
0.0
 10
3.596239738
 20
1.1962240952
 30
0.0
 10
3.6044187354
 20
1.1949285714
 30
0.0
 10
3.6083762519
 20
1.1949285714
 30
0.0
  0
LINE
  5
3F1
100
AcDbEntity
  8
0
100
AcDbLine
 62
7
  6
CONTINUOUS
 10
3.6178331111
 20
1.1960729134
 11
3.6226755952
 21
1.1975242395
  0
LINE
  5
3F2
100
AcDbEntity
  8
0
100
AcDbLine
 62
7
  6
CONTINUOUS
 10
3.6226755952
 20
1.1975242395
 11
3.627586263
 21
1.1995825117
  0
SPLINE
  5
3F3
100
AcDbEntity
  8
0
100
AcDbSpline
 62
7
  6
CONTINUOUS
 70
0
 71
3
 72
9
 73
5
 74
0
 42
0.0000001
 43
0.0000001
 44
0.0000000001
 40
0.0
 40
0.0
 40
0.0
 40
0.0
 40
0.483270453
 40
1.0
 40
1.0
 40
1.0
 40
1.0
 10
3.627586263
 20
1.1995825117
 30
0.0
 10
3.6312387361
 20
1.2013275941
 30
0.0
 10
3.6384256621
 20
1.2057245636
 30
0.0
 10
3.6449013892
 20
1.2110647233
 30
0.0
 10
3.6481075288
 20
1.2139723046
 30
0.0
  0
LINE
  5
3F4
100
AcDbEntity
  8
0
100
AcDbLine
 62
7
  6
CONTINUOUS
 10
3.6481075288
 20
1.2139723046
 11
3.6534817417
 21
1.2191005306
  0
SPLINE
  5
3F5
100
AcDbEntity
  8
0
100
AcDbSpline
 62
7
  6
CONTINUOUS
 70
0
 71
3
 72
11
 73
7
 74
0
 42
0.0000001
 43
0.0000001
 44
0.0000000001
 40
0.0
 40
0.0
 40
0.0
 40
0.0
 40
0.2264812365
 40
0.4659137892
 40
0.7239693688
 40
1.0
 40
1.0
 40
1.0
 40
1.0
 10
3.6083762519
 20
1.4044285714
 30
0.0
 10
3.6044187015
 20
1.4044285714
 30
0.0
 10
3.596239663
 20
1.4031327398
 30
0.0
 10
3.584630834
 20
1.397848805
 30
0.0
 10
3.5735606537
 20
1.39000122
 30
0.0
 10
3.5666814071
 20
1.3836672573
 30
0.0
 10
3.5632707622
 20
1.3802566123
 30
0.0
  0
SPLINE
  5
3F6
100
AcDbEntity
  8
0
100
AcDbSpline
 62
7
  6
CONTINUOUS
 70
0
 71
3
 72
11
 73
7
 74
0
 42
0.0000001
 43
0.0000001
 44
0.0000000001
 40
0.0
 40
0.0
 40
0.0
 40
0.0
 40
0.249986303
 40
0.5000062413
 40
0.7500313084
 40
1.0
 40
1.0
 40
1.0
 40
1.0
 10
3.4730597826
 20
1.4044285714
 30
0.0
 10
3.4652099646
 20
1.4044285714
 30
0.0
 10
3.4494861309
 20
1.403223403
 30
0.0
 10
3.4264324949
 20
1.3981027152
 30
0.0
 10
3.4041638984
 20
1.3903057777
 30
0.0
 10
3.3898693991
 20
1.3837669103
 30
0.0
 10
3.382848803
 20
1.3802566123
 30
0.0
  0
SPLINE
  5
3F7
100
AcDbEntity
  8
0
100
AcDbSpline
 62
7
  6
CONTINUOUS
 70
0
 71
3
 72
11
 73
7
 74
0
 42
0.0000001
 43
0.0000001
 44
0.0000000001
 40
0.0
 40
0.0
 40
0.0
 40
0.0
 40
0.2499686909
 40
0.4999937581
 40
0.7500136966
 40
1.0
 40
1.0
 40
1.0
 40
1.0
 10
3.5632707622
 20
1.3802566123
 30
0.0
 10
3.5562501662
 20
1.3837669103
 30
0.0
 10
3.5419556669
 20
1.3903057778
 30
0.0
 10
3.5196870706
 20
1.398102716
 30
0.0
 10
3.4966334345
 20
1.4032234038
 30
0.0
 10
3.4809096006
 20
1.4044285714
 30
0.0
 10
3.4730597826
 20
1.4044285714
 30
0.0
  0
SPLINE
  5
3F8
100
AcDbEntity
  8
0
100
AcDbSpline
 62
7
  6
CONTINUOUS
 70
0
 71
3
 72
11
 73
7
 74
0
 42
0.0000001
 43
0.0000001
 44
0.0000000001
 40
0.0
 40
0.0
 40
0.0
 40
0.0
 40
0.2298952004
 40
0.4703208038
 40
0.726828365
 40
1.0
 40
1.0
 40
1.0
 40
1.0
 10
3.3377433133
 20
1.4044285714
 30
0.0
 10
3.334279577
 20
1.4044285714
 30
0.0
 10
3.3271661218
 20
1.4034474996
 30
0.0
 10
3.3169206633
 20
1.3993635201
 30
0.0
 10
3.3070731918
 20
1.3931406073
 30
0.0
 10
3.300921073
 20
1.3880302861
 30
0.0
 10
3.297876033
 20
1.3852613064
 30
0.0
  0
SPLINE
  5
3F9
100
AcDbEntity
  8
0
100
AcDbSpline
 62
7
  6
CONTINUOUS
 70
0
 71
3
 72
11
 73
7
 74
0
 42
0.0000001
 43
0.0000001
 44
0.0000000001
 40
0.0
 40
0.0
 40
0.0
 40
0.0
 40
0.2760306297
 40
0.5340862106
 40
0.7735187638
 40
1.0
 40
1.0
 40
1.0
 40
1.0
 10
3.382848803
 20
1.3802566123
 30
0.0
 10
3.3794381581
 20
1.3836672572
 30
0.0
 10
3.3725589114
 20
1.3900012199
 30
0.0
 10
3.3614887313
 20
1.3978488051
 30
0.0
 10
3.3498799023
 20
1.4031327401
 30
0.0
 10
3.3417008637
 20
1.4044285714
 30
0.0
 10
3.3377433133
 20
1.4044285714
 30
0.0
  0
SPLINE
  5
3FA
100
AcDbEntity
  8
0
100
AcDbSpline
 62
7
  6
CONTINUOUS
 70
0
 71
3
 72
9
 73
5
 74
0
 42
0.0000001
 43
0.0000001
 44
0.0000000001
 40
0.0
 40
0.0
 40
0.0
 40
0.0
 40
0.2523151354
 40
1.0
 40
1.0
 40
1.0
 40
1.0
 10
3.1776356016
 20
0.6724932418
 30
0.0
 10
3.1780956212
 20
0.6740324839
 30
0.0
 10
3.1798253713
 20
0.6801601961
 30
0.0
 10
3.1811515694
 20
0.6864041953
 30
0.0
 10
3.1818771118
 20
0.6911091585
 30
0.0
  0
SPLINE
  5
3FB
100
AcDbEntity
  8
0
100
AcDbSpline
 62
7
  6
CONTINUOUS
 70
0
 71
3
 72
9
 73
5
 74
0
 42
0.0000001
 43
0.0000001
 44
0.0000000001
 40
0.0
 40
0.0
 40
0.0
 40
0.0
 40
0.2486176175
 40
1.0
 40
1.0
 40
1.0
 40
1.0
 10
3.1829482472
 20
0.7186717834
 30
0.0
 10
3.1828271726
 20
0.7202147004
 30
0.0
 10
3.1822206467
 20
0.7264109607
 30
0.0
 10
3.1811459166
 20
0.7325594905
 30
0.0
 10
3.1801057078
 20
0.7371197598
 30
0.0
  0
SPLINE
  5
3FC
100
AcDbEntity
  8
0
100
AcDbSpline
 62
7
  6
CONTINUOUS
 70
0
 71
3
 72
9
 73
5
 74
0
 42
0.0000001
 43
0.0000001
 44
0.0000000001
 40
0.0
 40
0.0
 40
0.0
 40
0.0
 40
0.2486527362
 40
1.0
 40
1.0
 40
1.0
 40
1.0
 10
3.1801057078
 20
0.7371197598
 30
0.0
 10
3.1799007136
 20
0.7380184531
 30
0.0
 10
3.1790398846
 20
0.7416243456
 30
0.0
 10
3.1780382032
 20
0.7451962631
 30
0.0
 10
3.1772163599
 20
0.7478575623
 30
0.0
  0
SPLINE
  5
3FD
100
AcDbEntity
  8
0
100
AcDbSpline
 62
7
  6
CONTINUOUS
 70
0
 71
3
 72
12
 73
8
 74
0
 42
0.0000001
 43
0.0000001
 44
0.0000000001
 40
0.0
 40
0.0
 40
0.0
 40
0.0
 40
0.0864728354
 40
0.1867528229
 40
0.4249534851
 40
0.7025195076
 40
1.0
 40
1.0
 40
1.0
 40
1.0
 10
3.1707478447
 20
0.7654163217
 30
0.0
 10
3.1705010805
 20
0.7659974737
 30
0.0
 10
3.1700780648
 20
0.7672994824
 30
0.0
 10
3.1694694913
 20
0.7703464987
 30
0.0
 10
3.1692216945
 20
0.7748585109
 30
0.0
 10
3.1696118463
 20
0.7807918899
 30
0.0
 10
3.1702967654
 20
0.7849422919
 30
0.0
 10
3.1707478447
 20
0.7870669568
 30
0.0
  0
SPLINE
  5
3FE
100
AcDbEntity
  8
0
100
AcDbSpline
 62
7
  6
CONTINUOUS
 70
0
 71
3
 72
11
 73
7
 74
0
 42
0.0000001
 43
0.0000001
 44
0.0000000001
 40
0.0
 40
0.0
 40
0.0
 40
0.0
 40
0.2500038614
 40
0.499999991
 40
0.7499961232
 40
1.0
 40
1.0
 40
1.0
 40
1.0
 10
3.1707478447
 20
0.7870669568
 30
0.0
 10
3.1746495594
 20
0.8054447337
 30
0.0
 10
3.1810023292
 20
0.8425418534
 30
0.0
 10
3.1844652456
 20
0.8989285696
 30
0.0
 10
3.1810023302
 20
0.9553152871
 30
0.0
 10
3.1746495596
 20
0.9924124081
 30
0.0
 10
3.1707478447
 20
1.0107901861
 30
0.0
  0
SPLINE
  5
3FF
100
AcDbEntity
  8
0
100
AcDbSpline
 62
7
  6
CONTINUOUS
 70
0
 71
3
 72
12
 73
8
 74
0
 42
0.0000001
 43
0.0000001
 44
0.0000000001
 40
0.0
 40
0.0
 40
0.0
 40
0.0
 40
0.2974819977
 40
0.5750493611
 40
0.813248585
 40
0.9135276012
 40
1.0
 40
1.0
 40
1.0
 40
1.0
 10
3.1707478447
 20
1.0107901861
 30
0.0
 10
3.1702967631
 20
1.0129148618
 30
0.0
 10
3.1696118645
 20
1.0170652888
 30
0.0
 10
3.169221697
 20
1.0229986753
 30
0.0
 10
3.1694694747
 20
1.0275106827
 30
0.0
 10
3.1700780607
 20
1.0305576763
 30
0.0
 10
3.1705010817
 20
1.0318596721
 30
0.0
 10
3.1707478447
 20
1.0324408212
 30
0.0
  0
SPLINE
  5
400
100
AcDbEntity
  8
0
100
AcDbSpline
 62
7
  6
CONTINUOUS
 70
0
 71
3
 72
9
 73
5
 74
0
 42
0.0000001
 43
0.0000001
 44
0.0000000001
 40
0.0
 40
0.0
 40
0.0
 40
0.0
 40
0.2523151354
 40
1.0
 40
1.0
 40
1.0
 40
1.0
 10
3.1776356016
 20
1.0513793559
 30
0.0
 10
3.1780956212
 20
1.0529185981
 30
0.0
 10
3.1798253713
 20
1.0590463102
 30
0.0
 10
3.1811515694
 20
1.0652903095
 30
0.0
 10
3.1818771118
 20
1.0699952727
 30
0.0
  0
SPLINE
  5
401
100
AcDbEntity
  8
0
100
AcDbSpline
 62
7
  6
CONTINUOUS
 70
0
 71
3
 72
9
 73
5
 74
0
 42
0.0000001
 43
0.0000001
 44
0.0000000001
 40
0.0
 40
0.0
 40
0.0
 40
0.0
 40
0.2480012512
 40
1.0
 40
1.0
 40
1.0
 40
1.0
 10
3.181877493
 20
1.1067455143
 30
0.0
 10
3.1816368538
 20
1.1083062046
 30
0.0
 10
3.1805504442
 20
1.1145811788
 30
0.0
 10
3.1790072109
 20
1.1207742407
 30
0.0
 10
3.1776361513
 20
1.1253620594
 30
0.0
  0
SPLINE
  5
402
100
AcDbEntity
  8
0
100
AcDbSpline
 62
7
  6
CONTINUOUS
 70
0
 71
3
 72
9
 73
5
 74
0
 42
0.0000001
 43
0.0000001
 44
0.0000000001
 40
0.0
 40
0.0
 40
0.0
 40
0.0
 40
0.2527600888
 40
1.0
 40
1.0
 40
1.0
 40
1.0
 10
3.0838009877
 20
1.1443024358
 30
0.0
 10
3.0831372022
 20
1.1427391613
 30
0.0
 10
3.0805852136
 20
1.1365234846
 30
0.0
 10
3.0783509237
 20
1.1301744811
 30
0.0
 10
3.0769132063
 20
1.125363818
 30
0.0
  0
SPLINE
  5
403
100
AcDbEntity
  8
0
100
AcDbSpline
 62
7
  6
CONTINUOUS
 70
0
 71
3
 72
11
 73
7
 74
0
 42
0.0000001
 43
0.0000001
 44
0.0000000001
 40
0.0
 40
0.0
 40
0.0
 40
0.0
 40
0.2529464174
 40
0.5018469594
 40
0.7497175487
 40
1.0
 40
1.0
 40
1.0
 40
1.0
 10
3.0769132063
 20
1.125363818
 30
0.0
 10
3.075334444
 20
1.1200812126
 30
0.0
 10
3.0727606475
 20
1.1094198705
 30
0.0
 10
3.0709549888
 20
1.0931291567
 30
0.0
 10
3.0714422177
 20
1.0768009716
 30
0.0
 10
3.0732299139
 20
1.0660560721
 30
0.0
 10
3.0744431479
 20
1.0607372801
 30
0.0
  0
SPLINE
  5
404
100
AcDbEntity
  8
0
100
AcDbSpline
 62
7
  6
CONTINUOUS
 70
0
 71
3
 72
9
 73
5
 74
0
 42
0.0000001
 43
0.0000001
 44
0.0000000001
 40
0.0
 40
0.0
 40
0.0
 40
0.0
 40
0.2462291843
 40
1.0
 40
1.0
 40
1.0
 40
1.0
 10
3.0744431479
 20
1.0607372801
 30
0.0
 10
3.0749875814
 20
1.0583504949
 30
0.0
 10
3.0774582593
 20
1.0487163775
 30
0.0
 10
3.0808719529
 20
1.0393389614
 30
0.0
 10
3.0838009877
 20
1.0324408212
 30
0.0
  0
SPLINE
  5
405
100
AcDbEntity
  8
0
100
AcDbSpline
 62
7
  6
CONTINUOUS
 70
0
 71
3
 72
12
 73
8
 74
0
 42
0.0000001
 43
0.0000001
 44
0.0000000001
 40
0.0
 40
0.0
 40
0.0
 40
0.0
 40
0.0864729935
 40
0.1867532346
 40
0.4249541063
 40
0.7025198943
 40
1.0
 40
1.0
 40
1.0
 40
1.0
 10
3.0838009877
 20
1.0324408212
 30
0.0
 10
3.0840477525
 20
1.0318596681
 30
0.0
 10
3.0844707723
 20
1.0305576578
 30
0.0
 10
3.0850793587
 20
1.0275106389
 30
0.0
 10
3.0853271353
 20
1.022998622
 30
0.0
 10
3.0849369672
 20
1.0170652489
 30
0.0
 10
3.0842520665
 20
1.0129148482
 30
0.0
 10
3.0838009877
 20
1.0107901861
 30
0.0
  0
SPLINE
  5
406
100
AcDbEntity
  8
0
100
AcDbSpline
 62
7
  6
CONTINUOUS
 70
0
 71
3
 72
11
 73
7
 74
0
 42
0.0000001
 43
0.0000001
 44
0.0000000001
 40
0.0
 40
0.0
 40
0.0
 40
0.0
 40
0.2500038621
 40
0.4999999918
 40
0.7499961239
 40
1.0
 40
1.0
 40
1.0
 40
1.0
 10
3.0838009877
 20
1.0107901861
 30
0.0
 10
3.0798992731
 20
0.9924124091
 30
0.0
 10
3.0735465037
 20
0.9553152893
 30
0.0
 10
3.0700835869
 20
0.8989285731
 30
0.0
 10
3.0735465019
 20
0.8425418556
 30
0.0
 10
3.0798992729
 20
0.8054447347
 30
0.0
 10
3.0838009877
 20
0.7870669568
 30
0.0
  0
SPLINE
  5
407
100
AcDbEntity
  8
0
100
AcDbSpline
 62
7
  6
CONTINUOUS
 70
0
 71
3
 72
12
 73
8
 74
0
 42
0.0000001
 43
0.0000001
 44
0.0000000001
 40
0.0
 40
0.0
 40
0.0
 40
0.0
 40
0.2974823823
 40
0.5750499819
 40
0.8132489986
 40
0.9135277602
 40
1.0
 40
1.0
 40
1.0
 40
1.0
 10
3.0838009877
 20
0.7870669568
 30
0.0
 10
3.08425207
 20
0.7849422784
 30
0.0
 10
3.0849369869
 20
0.78079185
 30
0.0
 10
3.0853271382
 20
0.7748584576
 30
0.0
 10
3.0850793403
 20
0.7703464548
 30
0.0
 10
3.0844707672
 20
0.7672994639
 30
0.0
 10
3.0840477503
 20
0.7659974697
 30
0.0
 10
3.0838009877
 20
0.7654163217
 30
0.0
  0
SPLINE
  5
408
100
AcDbEntity
  8
0
100
AcDbSpline
 62
7
  6
CONTINUOUS
 70
0
 71
3
 72
9
 73
5
 74
0
 42
0.0000001
 43
0.0000001
 44
0.0000000001
 40
0.0
 40
0.0
 40
0.0
 40
0.0
 40
0.2541327384
 40
1.0
 40
1.0
 40
1.0
 40
1.0
 10
3.0838009877
 20
0.7654163217
 30
0.0
 10
3.0828136317
 20
0.7630910095
 30
0.0
 10
3.0790918922
 20
0.7538744368
 30
0.0
 10
3.0760926537
 20
0.7443507303
 30
0.0
 10
3.0744436375
 20
0.7371220048
 30
0.0
  0
SPLINE
  5
409
100
AcDbEntity
  8
0
100
AcDbSpline
 62
7
  6
CONTINUOUS
 70
0
 71
3
 72
9
 73
5
 74
0
 42
0.0000001
 43
0.0000001
 44
0.0000000001
 40
0.0
 40
0.0
 40
0.0
 40
0.0
 40
0.2517652169
 40
1.0
 40
1.0
 40
1.0
 40
1.0
 10
3.0744436375
 20
0.7371220048
 30
0.0
 10
3.0740950745
 20
0.7355940236
 30
0.0
 10
3.0728145584
 20
0.729501923
 30
0.0
 10
3.0719652223
 20
0.7233174553
 30
0.0
 10
3.0716007573
 20
0.7186739882
 30
0.0
  0
SPLINE
  5
40A
100
AcDbEntity
  8
0
100
AcDbSpline
 62
7
  6
CONTINUOUS
 70
0
 71
3
 72
11
 73
7
 74
0
 42
0.0000001
 43
0.0000001
 44
0.0000000001
 40
0.0
 40
0.0
 40
0.0
 40
0.0
 40
0.2478283371
 40
0.496040094
 40
0.7463265929
 40
1.0
 40
1.0
 40
1.0
 40
1.0
 10
3.0716007573
 20
0.7186739882
 30
0.0
 10
3.071298638
 20
0.7148248369
 30
0.0
 10
3.0710680159
 20
0.7070851546
 30
0.0
 10
3.0718931685
 20
0.695469306
 30
0.0
 10
3.0738174283
 20
0.6838940848
 30
0.0
 10
3.0757810926
 20
0.6762815797
 30
0.0
 10
3.0769127051
 20
0.6724950026
 30
0.0
  0
SPLINE
  5
40B
100
AcDbEntity
  8
0
100
AcDbSpline
 62
7
  6
CONTINUOUS
 70
0
 71
3
 72
9
 73
5
 74
0
 42
0.0000001
 43
0.0000001
 44
0.0000000001
 40
0.0
 40
0.0
 40
0.0
 40
0.0
 40
0.2473504587
 40
1.0
 40
1.0
 40
1.0
 40
1.0
 10
3.0769127051
 20
0.6724950026
 30
0.0
 10
3.0773886523
 20
0.6709023986
 30
0.0
 10
3.0794153043
 20
0.6644944689
 30
0.0
 10
3.0818241964
 20
0.6582102282
 30
0.0
 10
3.0838009877
 20
0.653554707
 30
0.0
  0
SPLINE
  5
40C
100
AcDbEntity
  8
0
100
AcDbSpline
 62
7
  6
CONTINUOUS
 70
0
 71
3
 72
11
 73
7
 74
0
 42
0.0000001
 43
0.0000001
 44
0.0000000001
 40
0.0
 40
0.0
 40
0.0
 40
0.0
 40
0.2737137032
 40
0.5316291937
 40
0.7727122564
 40
1.0
 40
1.0
 40
1.0
 40
1.0
 10
3.2926378235
 20
1.2191005306
 30
0.0
 10
3.2957185671
 20
1.216019787
 30
0.0
 10
3.3019309216
 20
1.2102540776
 30
0.0
 10
3.3118477338
 20
1.202919484
 30
0.0
 10
3.3221600636
 20
1.1975546198
 30
0.0
 10
3.3294615071
 20
1.1956460533
 30
0.0
 10
3.3330533356
 20
1.1952129543
 30
0.0
  0
SPLINE
  5
40D
100
AcDbEntity
  8
0
100
AcDbSpline
 62
7
  6
CONTINUOUS
 70
0
 71
3
 72
11
 73
7
 74
0
 42
0.0000001
 43
0.0000001
 44
0.0000000001
 40
0.0
 40
0.0
 40
0.0
 40
0.0
 40
0.2760306297
 40
0.5340862106
 40
0.7735187638
 40
1.0
 40
1.0
 40
1.0
 40
1.0
 10
3.6534817417
 20
1.3802566123
 30
0.0
 10
3.6500710968
 20
1.3836672572
 30
0.0
 10
3.6431918501
 20
1.3900012199
 30
0.0
 10
3.63212167
 20
1.3978488051
 30
0.0
 10
3.6205128409
 20
1.4031327401
 30
0.0
 10
3.6123338024
 20
1.4044285714
 30
0.0
 10
3.6083762519
 20
1.4044285714
 30
0.0
  0
SPLINE
  5
40E
100
AcDbEntity
  8
0
100
AcDbSpline
 62
7
  6
CONTINUOUS
 70
0
 71
3
 72
11
 73
7
 74
0
 42
0.0000001
 43
0.0000001
 44
0.0000000001
 40
0.0
 40
0.0
 40
0.0
 40
0.0
 40
0.2896400972
 40
0.5555569088
 40
0.7930538806
 40
1.0
 40
1.0
 40
1.0
 40
1.0
 10
2.7781587981
 20
0.9480139205
 30
0.0
 10
2.7770017888
 20
0.9523274818
 30
0.0
 10
2.7750525242
 20
0.9606788311
 30
0.0
 10
2.7733112606
 20
0.97280202
 30
0.0
 10
2.7729435513
 20
0.9837745275
 30
0.0
 10
2.7737118753
 20
0.9906227364
 30
0.0
 10
2.774378836
 20
0.9937432118
 30
0.0
  0
LINE
  5
40F
100
AcDbEntity
  8
0
100
AcDbLine
 62
7
  6
CONTINUOUS
 10
2.774378836
 20
0.9937432118
 11
2.7753937265
 21
0.9976207543
  0
SPLINE
  5
410
100
AcDbEntity
  8
0
100
AcDbSpline
 62
7
  6
CONTINUOUS
 70
0
 71
3
 72
13
 73
9
 74
0
 42
0.0000001
 43
0.0000001
 44
0.0000000001
 40
0.0
 40
0.0
 40
0.0
 40
0.0
 40
0.2479940534
 40
0.3737483512
 40
0.5000002346
 40
0.6262520923
 40
0.7520062467
 40
1.0
 40
1.0
 40
1.0
 40
1.0
 10
2.7845153587
 20
0.8699143576
 30
0.0
 10
2.7861743991
 20
0.8745205523
 30
0.0
 10
2.7881571947
 20
0.8816720063
 30
0.0
 10
2.7895333264
 20
0.8914575576
 30
0.0
 10
2.7898753426
 20
0.8989284583
 30
0.0
 10
2.789533359
 20
0.906399357
 30
0.0
 10
2.7881572872
 20
0.9161849081
 30
0.0
 10
2.7861744849
 20
0.9233363539
 30
0.0
 10
2.7845154441
 20
0.9279425423
 30
0.0
  0
SPLINE
  5
411
100
AcDbEntity
  8
0
100
AcDbSpline
 62
7
  6
CONTINUOUS
 70
0
 71
3
 72
9
 73
5
 74
0
 42
0.0000001
 43
0.0000001
 44
0.0000000001
 40
0.0
 40
0.0
 40
0.0
 40
0.0
 40
0.4963305724
 40
1.0
 40
1.0
 40
1.0
 40
1.0
 10
3.0121440887
 20
0.9236005994
 30
0.0
 10
3.0109824783
 20
0.9196310005
 30
0.0
 10
3.0091570675
 20
0.9114708273
 30
0.0
 10
3.0085254184
 20
0.9031257958
 30
0.0
 10
3.008525423
 20
0.8989285714
 30
0.0
  0
SPLINE
  5
412
100
AcDbEntity
  8
0
100
AcDbSpline
 62
7
  6
CONTINUOUS
 70
0
 71
3
 72
9
 73
5
 74
0
 42
0.0000001
 43
0.0000001
 44
0.0000000001
 40
0.0
 40
0.0
 40
0.0
 40
0.0
 40
0.5036693976
 40
1.0
 40
1.0
 40
1.0
 40
1.0
 10
3.008525423
 20
0.8989285714
 30
0.0
 10
3.0085254275
 20
0.894731362
 30
0.0
 10
3.0091571374
 20
0.8863863674
 30
0.0
 10
3.0109824836
 20
0.8782262119
 30
0.0
 10
3.0121440908
 20
0.8742566267
 30
0.0
  0
SPLINE
  5
413
100
AcDbEntity
  8
0
100
AcDbSpline
 62
7
  6
CONTINUOUS
 70
0
 71
3
 72
13
 73
9
 74
0
 42
0.0000001
 43
0.0000001
 44
0.0000000001
 40
0.0
 40
0.0
 40
0.0
 40
0.0
 40
0.2988138044
 40
0.5720611515
 40
0.6953067057
 40
0.8080351672
 40
0.9096259356
 40
1.0
 40
1.0
 40
1.0
 40
1.0
 10
3.0121440908
 20
0.8742566267
 30
0.0
 10
3.0138677992
 20
0.8683661608
 30
0.0
 10
3.0168778889
 20
0.8570004531
 30
0.0
 10
3.019406795
 20
0.842915878
 30
0.0
 10
3.0202888519
 20
0.832486535
 30
0.0
 10
3.0203588717
 20
0.8255452239
 30
0.0
 10
3.0198522604
 20
0.8192984595
 30
0.0
 10
3.0191085799
 20
0.8154142721
 30
0.0
 10
3.0186290391
 20
0.8136210452
 30
0.0
  0
SPLINE
  5
414
100
AcDbEntity
  8
0
100
AcDbSpline
 62
7
  6
CONTINUOUS
 70
0
 71
3
 72
9
 73
5
 74
0
 42
0.0000001
 43
0.0000001
 44
0.0000000001
 40
0.0
 40
0.0
 40
0.0
 40
0.0
 40
0.4721193944
 40
1.0
 40
1.0
 40
1.0
 40
1.0
 10
2.773140876
 20
0.8169041848
 30
0.0
 10
2.773140876
 20
0.8211455433
 30
0.0
 10
2.7738447361
 20
0.8301315106
 30
0.0
 10
2.7755229256
 20
0.8389704461
 30
0.0
 10
2.7765927845
 20
0.8435904886
 30
0.0
  0
SPLINE
  5
415
100
AcDbEntity
  8
0
100
AcDbSpline
 62
7
  6
CONTINUOUS
 70
0
 71
3
 72
9
 73
5
 74
0
 42
0.0000001
 43
0.0000001
 44
0.0000000001
 40
0.0
 40
0.0
 40
0.0
 40
0.0
 40
0.2445687362
 40
1.0
 40
1.0
 40
1.0
 40
1.0
 10
2.7765927845
 20
0.8435904886
 30
0.0
 10
2.7768333205
 20
0.844629211
 30
0.0
 10
2.7778555135
 20
0.8488673862
 30
0.0
 10
2.7790248326
 20
0.8530695307
 30
0.0
 10
2.7799740319
 20
0.8562231158
 30
0.0
  0
SPLINE
  5
416
100
AcDbEntity
  8
0
100
AcDbSpline
 62
7
  6
CONTINUOUS
 70
0
 71
3
 72
10
 73
6
 74
0
 42
0.0000001
 43
0.0000001
 44
0.0000000001
 40
0.0
 40
0.0
 40
0.0
 40
0.0
 40
0.2289368349
 40
0.6134787308
 40
1.0
 40
1.0
 40
1.0
 40
1.0
 10
3.3974619159
 20
10.5206442523
 30
0.0
 10
3.4022485876
 20
10.5200435564
 30
0.0
 10
3.4150314154
 20
10.5180864053
 30
0.0
 10
3.4355860875
 20
10.513329084
 30
0.0
 10
3.450965576
 20
10.5079769431
 30
0.0
 10
3.4584833061
 20
10.5048502249
 30
0.0
  0
SPLINE
  5
417
100
AcDbEntity
  8
0
100
AcDbSpline
 62
7
  6
CONTINUOUS
 70
0
 71
3
 72
10
 73
6
 74
0
 42
0.0000001
 43
0.0000001
 44
0.0000000001
 40
0.0
 40
0.0
 40
0.0
 40
0.0
 40
0.2289403383
 40
0.6134804861
 40
1.0
 40
1.0
 40
1.0
 40
1.0
 10
3.6162116292
 20
10.5206442911
 30
0.0
 10
3.6209983965
 20
10.5200435874
 30
0.0
 10
3.6337813198
 20
10.518086424
 30
0.0
 10
3.6543360819
 20
10.5133290669
 30
0.0
 10
3.6697155714
 20
10.5079769322
 30
0.0
 10
3.6772333061
 20
10.5048502249
 30
0.0
  0
SPLINE
  5
418
100
AcDbEntity
  8
0
100
AcDbSpline
 62
7
  6
CONTINUOUS
 70
0
 71
3
 72
9
 73
5
 74
0
 42
0.0000001
 43
0.0000001
 44
0.0000000001
 40
0.0
 40
0.0
 40
0.0
 40
0.0
 40
0.554954628
 40
1.0
 40
1.0
 40
1.0
 40
1.0
 10
2.7688559716
 20
0.9737092697
 30
0.0
 10
2.7692993476
 20
0.9756201852
 30
0.0
 10
2.7703618847
 20
0.9790134256
 30
0.0
 10
2.7721945459
 20
0.9821024445
 30
0.0
 10
2.7732301295
 20
0.9832866816
 30
0.0
  0
SPLINE
  5
419
100
AcDbEntity
  8
0
100
AcDbSpline
 62
7
  6
CONTINUOUS
 70
0
 71
3
 72
9
 73
5
 74
0
 42
0.0000001
 43
0.0000001
 44
0.0000000001
 40
0.0
 40
0.0
 40
0.0
 40
0.0
 40
0.5463289591
 40
1.0
 40
1.0
 40
1.0
 40
1.0
 10
2.768855714
 20
0.8241475249
 30
0.0
 10
2.7692407836
 20
0.8224923671
 30
0.0
 10
2.7701435582
 20
0.819501461
 30
0.0
 10
2.7716075792
 20
0.816721496
 30
0.0
 10
2.7724324201
 20
0.8155765182
 30
0.0
  0
SPLINE
  5
41A
100
AcDbEntity
  8
0
100
AcDbSpline
 62
7
  6
CONTINUOUS
 70
0
 71
3
 72
12
 73
8
 74
0
 42
0.0000001
 43
0.0000001
 44
0.0000000001
 40
0.0
 40
0.0
 40
0.0
 40
0.0
 40
0.2167740266
 40
0.3370785905
 40
0.4631431392
 40
0.726972619
 40
1.0
 40
1.0
 40
1.0
 40
1.0
 10
2.9916933643
 20
1.1804718716
 30
0.0
 10
2.9893885878
 20
1.1762417786
 30
0.0
 10
2.9862613763
 20
1.169405949
 30
0.0
 10
2.9828396515
 20
1.1596953273
 30
0.0
 10
2.9797252469
 20
1.1487860197
 30
0.0
 10
2.9770516711
 20
1.1342595787
 30
0.0
 10
2.9763097826
 20
1.1223183795
 30
0.0
 10
2.9763097826
 20
1.1162510705
 30
0.0
  0
SPLINE
  5
41B
100
AcDbEntity
  8
0
100
AcDbSpline
 62
7
  6
CONTINUOUS
 70
0
 71
3
 72
11
 73
7
 74
0
 42
0.0000001
 43
0.0000001
 44
0.0000000001
 40
0.0
 40
0.0
 40
0.0
 40
0.0
 40
0.2732769928
 40
0.5370288691
 40
0.7832103355
 40
1.0
 40
1.0
 40
1.0
 40
1.0
 10
2.8138097826
 20
1.1162510705
 30
0.0
 10
2.8138097826
 20
1.122322811
 30
0.0
 10
2.8130590484
 20
1.1342655532
 30
0.0
 10
2.8099093154
 20
1.1514233666
 30
0.0
 10
2.8050100223
 20
1.1668491756
 30
0.0
 10
2.8007398072
 20
1.1762429611
 30
0.0
 10
2.7984317989
 20
1.1804706794
 30
0.0
  0
SPLINE
  5
41C
100
AcDbEntity
  8
0
100
AcDbSpline
 62
7
  6
CONTINUOUS
 70
0
 71
3
 72
12
 73
8
 74
0
 42
0.0000001
 43
0.0000001
 44
0.0000000001
 40
0.0
 40
0.0
 40
0.0
 40
0.0
 40
0.2167740266
 40
0.3370785905
 40
0.4631431392
 40
0.726972619
 40
1.0
 40
1.0
 40
1.0
 40
1.0
 10
2.7984262009
 20
0.6173852713
 30
0.0
 10
2.8007309774
 20
0.6216153642
 30
0.0
 10
2.8038581889
 20
0.6284511938
 30
0.0
 10
2.8072799137
 20
0.6381618155
 30
0.0
 10
2.8103943184
 20
0.6490711232
 30
0.0
 10
2.8130678941
 20
0.6635975641
 30
0.0
 10
2.8138097826
 20
0.6755387633
 30
0.0
 10
2.8138097826
 20
0.6816060724
 30
0.0
  0
SPLINE
  5
41D
100
AcDbEntity
  8
0
100
AcDbSpline
 62
7
  6
CONTINUOUS
 70
0
 71
3
 72
11
 73
7
 74
0
 42
0.0000001
 43
0.0000001
 44
0.0000000001
 40
0.0
 40
0.0
 40
0.0
 40
0.0
 40
0.2732769928
 40
0.5370288691
 40
0.7832103355
 40
1.0
 40
1.0
 40
1.0
 40
1.0
 10
2.9763097826
 20
0.6816060724
 30
0.0
 10
2.9763097826
 20
0.6755343318
 30
0.0
 10
2.9770605168
 20
0.6635915897
 30
0.0
 10
2.9802102498
 20
0.6464337762
 30
0.0
 10
2.9851095429
 20
0.6310079673
 30
0.0
 10
2.989379758
 20
0.6216141817
 30
0.0
 10
2.9916877663
 20
0.6173864635
 30
0.0
  0
SPLINE
  5
41E
100
AcDbEntity
  8
0
100
AcDbSpline
 62
7
  6
CONTINUOUS
 70
0
 71
3
 72
13
 73
9
 74
0
 42
0.0000001
 43
0.0000001
 44
0.0000000001
 40
0.0
 40
0.0
 40
0.0
 40
0.0
 40
0.0903743759
 40
0.1919654847
 40
0.3046942497
 40
0.4279401895
 40
0.7011871019
 40
1.0
 40
1.0
 40
1.0
 40
1.0
 10
3.018629046
 20
0.9842360973
 30
0.0
 10
3.0191085904
 20
0.9824428671
 30
0.0
 10
3.0198522754
 20
0.9785586718
 30
0.0
 10
3.0203588928
 20
0.9723118961
 30
0.0
 10
3.0202888787
 20
0.9653705717
 30
0.0
 10
3.0194067843
 20
0.9549412396
 30
0.0
 10
3.0168779021
 20
0.9408566992
 30
0.0
 10
3.0138677887
 20
0.9294910405
 30
0.0
 10
3.0121440887
 20
0.9236005994
 30
0.0
  0
SPLINE
  5
41F
100
AcDbEntity
  8
0
100
AcDbSpline
 62
7
  6
CONTINUOUS
 70
0
 71
3
 72
12
 73
8
 74
0
 42
0.0000001
 43
0.0000001
 44
0.0000000001
 40
0.0
 40
0.0
 40
0.0
 40
0.0
 40
0.2167740266
 40
0.3370785905
 40
0.4631431392
 40
0.726972619
 40
1.0
 40
1.0
 40
1.0
 40
1.0
 10
2.7984262009
 20
1.0520302693
 30
0.0
 10
2.8007309774
 20
1.0562603623
 30
0.0
 10
2.8038581889
 20
1.0630961919
 30
0.0
 10
2.8072799137
 20
1.0728068136
 30
0.0
 10
2.8103943184
 20
1.0837161212
 30
0.0
 10
2.8130678941
 20
1.0982425622
 30
0.0
 10
2.8138097826
 20
1.1101837614
 30
0.0
 10
2.8138097826
 20
1.1162510705
 30
0.0
  0
SPLINE
  5
420
100
AcDbEntity
  8
0
100
AcDbSpline
 62
7
  6
CONTINUOUS
 70
0
 71
3
 72
11
 73
7
 74
0
 42
0.0000001
 43
0.0000001
 44
0.0000000001
 40
0.0
 40
0.0
 40
0.0
 40
0.0
 40
0.2732769928
 40
0.5370288691
 40
0.7832103355
 40
1.0
 40
1.0
 40
1.0
 40
1.0
 10
2.9763097826
 20
1.1162510705
 30
0.0
 10
2.9763097826
 20
1.1101793299
 30
0.0
 10
2.9770605168
 20
1.0982365878
 30
0.0
 10
2.9802102498
 20
1.0810787743
 30
0.0
 10
2.9851095429
 20
1.0656529653
 30
0.0
 10
2.989379758
 20
1.0562591798
 30
0.0
 10
2.9916877663
 20
1.0520314615
 30
0.0
  0
SPLINE
  5
421
100
AcDbEntity
  8
0
100
AcDbSpline
 62
7
  6
CONTINUOUS
 70
0
 71
3
 72
9
 73
5
 74
0
 42
0.0000001
 43
0.0000001
 44
0.0000000001
 40
0.0
 40
0.0
 40
0.0
 40
0.0
 40
0.4715273324
 40
1.0
 40
1.0
 40
1.0
 40
1.0
 10
2.7753930062
 20
0.8002354915
 30
0.0
 10
2.7747306304
 20
0.802335244
 30
0.0
 10
2.7737048473
 20
0.8069108231
 30
0.0
 10
2.7732890831
 20
0.8115730791
 30
0.0
 10
2.7731947798
 20
0.8140389268
 30
0.0
  0
SPLINE
  5
422
100
AcDbEntity
  8
0
100
AcDbSpline
 62
7
  6
CONTINUOUS
 70
0
 71
3
 72
12
 73
8
 74
0
 42
0.0000001
 43
0.0000001
 44
0.0000000001
 40
0.0
 40
0.0
 40
0.0
 40
0.0
 40
0.2167740266
 40
0.3370785905
 40
0.4631431392
 40
0.726972619
 40
1.0
 40
1.0
 40
1.0
 40
1.0
 10
2.9916933643
 20
0.7458268736
 30
0.0
 10
2.9893885878
 20
0.7415967806
 30
0.0
 10
2.9862613763
 20
0.734760951
 30
0.0
 10
2.9828396515
 20
0.7250503293
 30
0.0
 10
2.9797252469
 20
0.7141410216
 30
0.0
 10
2.9770516711
 20
0.6996145807
 30
0.0
 10
2.9763097826
 20
0.6876733815
 30
0.0
 10
2.9763097826
 20
0.6816060724
 30
0.0
  0
SPLINE
  5
423
100
AcDbEntity
  8
0
100
AcDbSpline
 62
7
  6
CONTINUOUS
 70
0
 71
3
 72
11
 73
7
 74
0
 42
0.0000001
 43
0.0000001
 44
0.0000000001
 40
0.0
 40
0.0
 40
0.0
 40
0.0
 40
0.2732769928
 40
0.5370288691
 40
0.7832103355
 40
1.0
 40
1.0
 40
1.0
 40
1.0
 10
2.8138097826
 20
0.6816060724
 30
0.0
 10
2.8138097826
 20
0.687677813
 30
0.0
 10
2.8130590484
 20
0.6996205551
 30
0.0
 10
2.8099093154
 20
0.7167783686
 30
0.0
 10
2.8050100223
 20
0.7322041775
 30
0.0
 10
2.8007398072
 20
0.7415979631
 30
0.0
 10
2.7984317989
 20
0.7458256813
 30
0.0
  0
SPLINE
  5
424
100
AcDbEntity
  8
0
100
AcDbSpline
 62
9
  6
CONTINUOUS
 70
0
 71
3
 72
13
 73
9
 74
0
 42
0.0000001
 43
0.0000001
 44
0.0000000001
 40
0.0
 40
0.0
 40
0.0
 40
0.0
 40
0.2970215512
 40
0.5684261155
 40
0.6911457665
 40
0.8041810351
 40
0.907215326
 40
1.0
 40
1.0
 40
1.0
 40
1.0
 10
2.9303661688
 20
0.8409265385
 30
0.0
 10
2.9389829329
 20
0.8426821891
 30
0.0
 10
2.9552804223
 20
0.8470462427
 30
0.0
 10
2.9744518667
 20
0.8542712238
 30
0.0
 10
2.9881545591
 20
0.8604194389
 30
0.0
 10
2.997116094
 20
0.8649342478
 30
0.0
 10
3.0050605963
 20
0.86947063
 30
0.0
 10
3.0099113186
 20
0.8726562678
 30
0.0
 10
3.0121440488
 20
0.8742566247
 30
0.0
  0
SPLINE
  5
425
100
AcDbEntity
  8
0
100
AcDbSpline
 62
9
  6
CONTINUOUS
 70
0
 71
3
 72
9
 73
5
 74
0
 42
0.0000001
 43
0.0000001
 44
0.0000000001
 40
0.0
 40
0.0
 40
0.0
 40
0.0
 40
0.4916750213
 40
1.0
 40
1.0
 40
1.0
 40
1.0
 10
2.7915301124
 20
0.7721083828
 30
0.0
 10
2.7915301124
 20
0.7676196974
 30
0.0
 10
2.7927493091
 20
0.7584552748
 30
0.0
 10
2.796214283
 20
0.749901367
 30
0.0
 10
2.7984325671
 20
0.7458251909
 30
0.0
  0
SPLINE
  5
426
100
AcDbEntity
  8
0
100
AcDbSpline
 62
9
  6
CONTINUOUS
 70
0
 71
3
 72
11
 73
7
 74
0
 42
0.0000001
 43
0.0000001
 44
0.0000000001
 40
0.0
 40
0.0
 40
0.0
 40
0.0
 40
0.2185254953
 40
0.458746758
 40
0.7196238152
 40
1.0
 40
1.0
 40
1.0
 40
1.0
 10
2.7845153731
 20
0.8699144055
 30
0.0
 10
2.7871377
 20
0.8682918358
 30
0.0
 10
2.7927552674
 20
0.8650659647
 30
0.0
 10
2.8018195293
 20
0.8604790414
 30
0.0
 10
2.811884011
 20
0.8559630504
 30
0.0
 10
2.8189793233
 20
0.8531287306
 30
0.0
 10
2.8226830267
 20
0.8517370851
 30
0.0
  0
SPLINE
  5
427
100
AcDbEntity
  8
0
100
AcDbSpline
 62
9
  6
CONTINUOUS
 70
0
 71
3
 72
9
 73
5
 74
0
 42
0.0000001
 43
0.0000001
 44
0.0000000001
 40
0.0
 40
0.0
 40
0.0
 40
0.0
 40
0.2383735963
 40
1.0
 40
1.0
 40
1.0
 40
1.0
 10
2.8226830267
 20
0.8517370851
 30
0.0
 10
2.8255567481
 20
0.8506573007
 30
0.0
 10
2.8376850093
 20
0.8463274809
 30
0.0
 10
2.8501422724
 20
0.8428847642
 30
0.0
 10
2.8597533899
 20
0.8409265173
 30
0.0
  0
SPLINE
  5
428
100
AcDbEntity
  8
0
100
AcDbSpline
 62
9
  6
CONTINUOUS
 70
0
 71
3
 72
12
 73
8
 74
0
 42
0.0000001
 43
0.0000001
 44
0.0000000001
 40
0.0
 40
0.0
 40
0.0
 40
0.0
 40
0.2128950161
 40
0.4495300521
 40
0.5772570031
 40
0.7114498696
 40
1.0
 40
1.0
 40
1.0
 40
1.0
 10
2.7845154125
 20
0.9279426376
 30
0.0
 10
2.7870302965
 20
0.9295770092
 30
0.0
 10
2.7925155307
 20
0.9327592479
 30
0.0
 10
2.799799694
 20
0.9363817084
 30
0.0
 10
2.8061780023
 20
0.9393234487
 30
0.0
 10
2.8132705969
 20
0.9424601831
 30
0.0
 10
2.818793717
 20
0.9446965951
 30
0.0
 10
2.822600638
 20
0.9461223406
 30
0.0
  0
SPLINE
  5
429
100
AcDbEntity
  8
0
100
AcDbSpline
 62
9
  6
CONTINUOUS
 70
0
 71
3
 72
11
 73
7
 74
0
 42
0.0000001
 43
0.0000001
 44
0.0000000001
 40
0.0
 40
0.0
 40
0.0
 40
0.0
 40
0.2284816986
 40
0.4716815294
 40
0.7291549753
 40
1.0
 40
1.0
 40
1.0
 40
1.0
 10
2.822600638
 20
0.9461223406
 30
0.0
 10
2.8253622783
 20
0.9471566137
 30
0.0
 10
2.8311047106
 20
0.9491839965
 30
0.0
 10
2.8401033162
 20
0.9519472298
 30
0.0
 10
2.849717014
 20
0.9545479636
 30
0.0
 10
2.8563464078
 20
0.9561477606
 30
0.0
 10
2.8597533357
 20
0.9569307122
 30
0.0
  0
SPLINE
  5
42A
100
AcDbEntity
  8
0
100
AcDbSpline
 62
9
  6
CONTINUOUS
 70
0
 71
3
 72
9
 73
5
 74
0
 42
0.0000001
 43
0.0000001
 44
0.0000000001
 40
0.0
 40
0.0
 40
0.0
 40
0.0
 40
0.4916750213
 40
1.0
 40
1.0
 40
1.0
 40
1.0
 10
2.9985894528
 20
1.02574876
 30
0.0
 10
2.9985894528
 20
1.0302374454
 30
0.0
 10
2.9973702561
 20
1.039401868
 30
0.0
 10
2.9939052822
 20
1.0479557759
 30
0.0
 10
2.9916869981
 20
1.0520319519
 30
0.0
  0
SPLINE
  5
42B
100
AcDbEntity
  8
0
100
AcDbSpline
 62
7
  6
CONTINUOUS
 70
0
 71
3
 72
10
 73
6
 74
0
 42
0.0000001
 43
0.0000001
 44
0.0000000001
 40
0.0
 40
0.0
 40
0.0
 40
0.0
 40
0.2141921531
 40
0.5765744958
 40
1.0
 40
1.0
 40
1.0
 40
1.0
 10
3.0121440763
 20
0.9958372551
 30
0.0
 10
3.0128691069
 20
0.9952064666
 30
0.0
 10
3.0146506187
 20
0.9933079304
 30
0.0
 10
3.0169694842
 20
0.9894203423
 30
0.0
 10
3.0181382502
 20
0.9860714016
 30
0.0
 10
3.018629046
 20
0.9842360973
 30
0.0
  0
SPLINE
  5
42C
100
AcDbEntity
  8
0
100
AcDbSpline
 62
9
  6
CONTINUOUS
 70
0
 71
3
 72
12
 73
8
 74
0
 42
0.0000001
 43
0.0000001
 44
0.0000000001
 40
0.0
 40
0.0
 40
0.0
 40
0.0
 40
0.086497033
 40
0.1828374658
 40
0.4076520171
 40
0.6785082069
 40
1.0
 40
1.0
 40
1.0
 40
1.0
 10
3.012144151
 20
0.9236005881
 30
0.0
 10
3.0100849157
 20
0.9251226896
 30
0.0
 10
3.0055710674
 20
0.9281234935
 30
0.0
 10
2.9950816021
 20
0.934101817
 30
0.0
 10
2.9792514739
 20
0.9416698716
 30
0.0
 10
2.9566691396
 20
0.9504450291
 30
0.0
 10
2.9396576452
 20
0.9548679268
 30
0.0
 10
2.9303662295
 20
0.9569307122
 30
0.0
  0
SPLINE
  5
42D
100
AcDbEntity
  8
0
100
AcDbSpline
 62
9
  6
CONTINUOUS
 70
0
 71
3
 72
11
 73
7
 74
0
 42
0.0000001
 43
0.0000001
 44
0.0000000001
 40
0.0
 40
0.0
 40
0.0
 40
0.0
 40
0.23978231
 40
0.4950629524
 40
0.7530760696
 40
1.0
 40
1.0
 40
1.0
 40
1.0
 10
2.8597533374
 20
0.8409264349
 30
0.0
 10
2.8610963494
 20
0.8501294413
 30
0.0
 10
2.8630997202
 20
0.869246554
 30
0.0
 10
2.8641670711
 20
0.8984592432
 30
0.0
 10
2.8631528052
 20
0.9279511851
 30
0.0
 10
2.8611363347
 20
0.9474535965
 30
0.0
 10
2.8597533199
 20
0.9569307026
 30
0.0
  0
SPLINE
  5
42E
100
AcDbEntity
  8
0
100
AcDbSpline
 62
9
  6
CONTINUOUS
 70
0
 71
3
 72
17
 73
13
 74
0
 42
0.0000001
 43
0.0000001
 44
0.0000000001
 40
0.0
 40
0.0
 40
0.0
 40
0.0
 40
0.1179816812
 40
0.2399109734
 40
0.3673936486
 40
0.4332423571
 40
0.4999988149
 40
0.5667533413
 40
0.6326030037
 40
0.7600885408
 40
0.8820185494
 40
1.0
 40
1.0
 40
1.0
 40
1.0
 10
2.8597533357
 20
0.9569307122
 30
0.0
 10
2.8622511307
 20
0.9585841146
 30
0.0
 10
2.8674387084
 20
0.9617891704
 30
0.0
 10
2.8758194115
 20
0.9659276906
 30
0.0
 10
2.8834735623
 20
0.9684144369
 30
0.0
 10
2.8899948905
 20
0.9695251555
 30
0.0
 10
2.8950596663
 20
0.9698046743
 30
0.0
 10
2.9001244908
 20
0.9695253042
 30
0.0
 10
2.906645805
 20
0.9684142418
 30
0.0
 10
2.9143001945
 20
0.9659279854
 30
0.0
 10
2.9226810912
 20
0.9617895528
 30
0.0
 10
2.92786845
 20
0.9585841274
 30
0.0
 10
2.9303662295
 20
0.9569307122
 30
0.0
  0
SPLINE
  5
42F
100
AcDbEntity
  8
0
100
AcDbSpline
 62
9
  6
CONTINUOUS
 70
0
 71
3
 72
11
 73
7
 74
0
 42
0.0000001
 43
0.0000001
 44
0.0000000001
 40
0.0
 40
0.0
 40
0.0
 40
0.0
 40
0.2469239305
 40
0.5049370475
 40
0.7602176899
 40
1.0
 40
1.0
 40
1.0
 40
1.0
 10
2.9303662458
 20
0.9569307022
 30
0.0
 10
2.928983231
 20
0.9474535961
 30
0.0
 10
2.9269667605
 20
0.9279511849
 30
0.0
 10
2.9259524945
 20
0.8984592432
 30
0.0
 10
2.9270198453
 20
0.8692465542
 30
0.0
 10
2.9290232159
 20
0.8501294415
 30
0.0
 10
2.9303662279
 20
0.8409264352
 30
0.0
  0
SPLINE
  5
430
100
AcDbEntity
  8
0
100
AcDbSpline
 62
9
  6
CONTINUOUS
 70
0
 71
3
 72
15
 73
11
 74
0
 42
0.0000001
 43
0.0000001
 44
0.0000000001
 40
0.0
 40
0.0
 40
0.0
 40
0.0
 40
0.1324579571
 40
0.2597156839
 40
0.3816944922
 40
0.5000014126
 40
0.6183078597
 40
0.7402856677
 40
0.8675424493
 40
1.0
 40
1.0
 40
1.0
 40
1.0
 10
2.9303658166
 20
0.8409269767
 30
0.0
 10
2.9275632935
 20
0.8390733301
 30
0.0
 10
2.9219199067
 20
0.8356529615
 30
0.0
 10
2.9131258145
 20
0.8315439447
 30
0.0
 10
2.9041669045
 20
0.8288229062
 30
0.0
 10
2.8950596809
 20
0.8278062726
 30
0.0
 10
2.8859524819
 20
0.828822905
 30
0.0
 10
2.8769936377
 20
0.8315439523
 30
0.0
 10
2.8681996158
 20
0.8356529778
 30
0.0
 10
2.8625562656
 20
0.8390733387
 30
0.0
 10
2.8597537494
 20
0.8409269772
 30
0.0
  0
SPLINE
  5
431
100
AcDbEntity
  8
0
100
AcDbSpline
 62
9
  6
CONTINUOUS
 70
0
 71
3
 72
15
 73
11
 74
0
 42
0.0000001
 43
0.0000001
 44
0.0000000001
 40
0.0
 40
0.0
 40
0.0
 40
0.0
 40
0.1076262827
 40
0.2179316821
 40
0.3326463575
 40
0.4532034637
 40
0.5804276743
 40
0.714460023
 40
0.8548212059
 40
1.0
 40
1.0
 40
1.0
 40
1.0
 10
2.9985894528
 20
0.7721083828
 30
0.0
 10
2.9985894528
 20
0.7758408858
 30
0.0
 10
2.9977513592
 20
0.7834215411
 30
0.0
 10
2.9940854801
 20
0.7944421779
 30
0.0
 10
2.9880752981
 20
0.8048964522
 30
0.0
 10
2.9799188352
 20
0.8145425065
 30
0.0
 10
2.9698051674
 20
0.8231696462
 30
0.0
 10
2.9579754711
 20
0.8306065349
 30
0.0
 10
2.9447048108
 20
0.8366646522
 30
0.0
 10
2.9352431604
 20
0.8396753991
 30
0.0
 10
2.9303662295
 20
0.8409264307
 30
0.0
  0
SPLINE
  5
432
100
AcDbEntity
  8
0
100
AcDbSpline
 62
9
  6
CONTINUOUS
 70
0
 71
3
 72
10
 73
6
 74
0
 42
0.0000001
 43
0.0000001
 44
0.0000000001
 40
0.0
 40
0.0
 40
0.0
 40
0.0
 40
0.2696332448
 40
0.5281585479
 40
1.0
 40
1.0
 40
1.0
 40
1.0
 10
2.8597533357
 20
0.8409264307
 30
0.0
 10
2.8540784973
 20
0.8394707197
 30
0.0
 10
2.8431266433
 20
0.8358728686
 30
0.0
 10
2.823623547
 20
0.8262425459
 30
0.0
 10
2.8110354164
 20
0.815858216
 30
0.0
 10
2.804680208
 20
0.8078134842
 30
0.0
  0
SPLINE
  5
433
100
AcDbEntity
  8
0
100
AcDbSpline
 62
9
  6
CONTINUOUS
 70
0
 71
3
 72
11
 73
7
 74
0
 42
0.0000001
 43
0.0000001
 44
0.0000000001
 40
0.0
 40
0.0
 40
0.0
 40
0.0
 40
0.2619660673
 40
0.5142348296
 40
0.7593329947
 40
1.0
 40
1.0
 40
1.0
 40
1.0
 10
2.804680208
 20
0.8078134842
 30
0.0
 10
2.8025835928
 20
0.8051594866
 30
0.0
 10
2.7988294822
 20
0.7996475411
 30
0.0
 10
2.7946458748
 20
0.7907328025
 30
0.0
 10
2.7921076767
 20
0.781500646
 30
0.0
 10
2.7915301124
 20
0.7752156243
 30
0.0
 10
2.7915301124
 20
0.7721083828
 30
0.0
  0
SPLINE
  5
434
100
AcDbEntity
  8
0
100
AcDbSpline
 62
9
  6
CONTINUOUS
 70
0
 71
3
 72
9
 73
5
 74
0
 42
0.0000001
 43
0.0000001
 44
0.0000000001
 40
0.0
 40
0.0
 40
0.0
 40
0.0
 40
0.4914381786
 40
1.0
 40
1.0
 40
1.0
 40
1.0
 10
2.7915301124
 20
0.591103762
 30
0.0
 10
2.7915301124
 20
0.5955901079
 30
0.0
 10
2.7927559523
 20
0.6047529938
 30
0.0
 10
2.7962148158
 20
0.6133081144
 30
0.0
 10
2.7984321222
 20
0.6173870747
 30
0.0
  0
SPLINE
  5
435
100
AcDbEntity
  8
0
100
AcDbSpline
 62
9
  6
CONTINUOUS
 70
0
 71
3
 72
11
 73
7
 74
0
 42
0.0000001
 43
0.0000001
 44
0.0000000001
 40
0.0
 40
0.0
 40
0.0
 40
0.0
 40
0.2406670053
 40
0.4857651704
 40
0.7380339327
 40
1.0
 40
1.0
 40
1.0
 40
1.0
 10
2.7915301124
 20
1.02574876
 30
0.0
 10
2.7915301124
 20
1.0226415185
 30
0.0
 10
2.7921076767
 20
1.0163564968
 30
0.0
 10
2.7946458748
 20
1.0071243404
 30
0.0
 10
2.7988294822
 20
0.9982096018
 30
0.0
 10
2.8025835928
 20
0.9926976562
 30
0.0
 10
2.804680208
 20
0.9900436587
 30
0.0
  0
SPLINE
  5
436
100
AcDbEntity
  8
0
100
AcDbSpline
 62
9
  6
CONTINUOUS
 70
0
 71
3
 72
10
 73
6
 74
0
 42
0.0000001
 43
0.0000001
 44
0.0000000001
 40
0.0
 40
0.0
 40
0.0
 40
0.0
 40
0.4718414521
 40
0.7303667552
 40
1.0
 40
1.0
 40
1.0
 40
1.0
 10
2.804680208
 20
0.9900436587
 30
0.0
 10
2.8110354164
 20
0.9819989269
 30
0.0
 10
2.823623547
 20
0.971614597
 30
0.0
 10
2.8431266433
 20
0.9619842742
 30
0.0
 10
2.8540784973
 20
0.9583864232
 30
0.0
 10
2.8597533357
 20
0.9569307122
 30
0.0
  0
SPLINE
  5
437
100
AcDbEntity
  8
0
100
AcDbSpline
 62
9
  6
CONTINUOUS
 70
0
 71
3
 72
15
 73
11
 74
0
 42
0.0000001
 43
0.0000001
 44
0.0000000001
 40
0.0
 40
0.0
 40
0.0
 40
0.0
 40
0.1451787941
 40
0.285539977
 40
0.4195723257
 40
0.5467965363
 40
0.6673536425
 40
0.7820683179
 40
0.8923737173
 40
1.0
 40
1.0
 40
1.0
 40
1.0
 10
2.9303662295
 20
0.9569307122
 30
0.0
 10
2.9352431604
 20
0.9581817437
 30
0.0
 10
2.9447048108
 20
0.9611924907
 30
0.0
 10
2.9579754711
 20
0.967250608
 30
0.0
 10
2.9698051674
 20
0.9746874967
 30
0.0
 10
2.9799188352
 20
0.9833146364
 30
0.0
 10
2.9880752981
 20
0.9929606907
 30
0.0
 10
2.9940854801
 20
1.003414965
 30
0.0
 10
2.9977513592
 20
1.0144356018
 30
0.0
 10
2.9985894528
 20
1.0220162571
 30
0.0
 10
2.9985894528
 20
1.02574876
 30
0.0
  0
SPLINE
  5
438
100
AcDbEntity
  8
0
100
AcDbSpline
 62
9
  6
CONTINUOUS
 70
0
 71
3
 72
9
 73
5
 74
0
 42
0.0000001
 43
0.0000001
 44
0.0000000001
 40
0.0
 40
0.0
 40
0.0
 40
0.0
 40
0.4914381786
 40
1.0
 40
1.0
 40
1.0
 40
1.0
 10
2.9985894528
 20
1.2067533809
 30
0.0
 10
2.9985894528
 20
1.202267035
 30
0.0
 10
2.9973636129
 20
1.193104149
 30
0.0
 10
2.9939047494
 20
1.1845490285
 30
0.0
 10
2.991687443
 20
1.1804700681
 30
0.0
  0
SPLINE
  5
439
100
AcDbEntity
  8
0
100
AcDbSpline
 62
7
  6
CONTINUOUS
 70
0
 71
3
 72
9
 73
5
 74
0
 42
0.0000001
 43
0.0000001
 44
0.0000000001
 40
0.0
 40
0.0
 40
0.0
 40
0.0
 40
0.2469192119
 40
1.0
 40
1.0
 40
1.0
 40
1.0
 10
2.7736797518
 20
0.8775358739
 30
0.0
 10
2.7740591526
 20
0.8790739283
 30
0.0
 10
2.7754379673
 20
0.8853403176
 30
0.0
 10
2.7761586956
 20
0.8917550589
 30
0.0
 10
2.7762885007
 20
0.8965848504
 30
0.0
  0
SPLINE
  5
43A
100
AcDbEntity
  8
0
100
AcDbSpline
 62
7
  6
CONTINUOUS
 70
0
 71
3
 72
9
 73
5
 74
0
 42
0.0000001
 43
0.0000001
 44
0.0000000001
 40
0.0
 40
0.0
 40
0.0
 40
0.0
 40
0.2525825655
 40
1.0
 40
1.0
 40
1.0
 40
1.0
 10
2.7762883804
 20
0.9012764927
 30
0.0
 10
2.7762447679
 20
0.9028961446
 30
0.0
 10
2.775893093
 20
0.9093029769
 30
0.0
 10
2.7748280009
 20
0.9156663907
 30
0.0
 10
2.7736797429
 20
0.9203213093
 30
0.0
  0
SPLINE
  5
43B
100
AcDbEntity
  8
0
100
AcDbSpline
 62
7
  6
CONTINUOUS
 70
0
 71
3
 72
9
 73
5
 74
0
 42
0.0000001
 43
0.0000001
 44
0.0000000001
 40
0.0
 40
0.0
 40
0.0
 40
0.0
 40
0.5273161248
 40
1.0
 40
1.0
 40
1.0
 40
1.0
 10
2.7725341682
 20
0.9251096511
 30
0.0
 10
2.7713275748
 20
0.930322511
 30
0.0
 10
2.7692764349
 20
0.9402661179
 30
0.0
 10
2.7680326082
 20
0.9503577581
 30
0.0
 10
2.7677479415
 20
0.9551456292
 30
0.0
  0
SPLINE
  5
43C
100
AcDbEntity
  8
0
100
AcDbSpline
 62
7
  6
CONTINUOUS
 70
0
 71
3
 72
9
 73
5
 74
0
 42
0.0000001
 43
0.0000001
 44
0.0000000001
 40
0.0
 40
0.0
 40
0.0
 40
0.0
 40
0.546024698
 40
1.0
 40
1.0
 40
1.0
 40
1.0
 10
2.7677479415
 20
0.9551456292
 30
0.0
 10
2.7675465598
 20
0.9585327133
 30
0.0
 10
2.7674619608
 20
0.9647585696
 30
0.0
 10
2.7682183593
 20
0.9709612113
 30
0.0
 10
2.7688559716
 20
0.9737092697
 30
0.0
  0
SPLINE
  5
43D
100
AcDbEntity
  8
0
100
AcDbSpline
 62
7
  6
CONTINUOUS
 70
0
 71
3
 72
9
 73
5
 74
0
 42
0.0000001
 43
0.0000001
 44
0.0000000001
 40
0.0
 40
0.0
 40
0.0
 40
0.0
 40
0.5360146427
 40
1.0
 40
1.0
 40
1.0
 40
1.0
 10
2.7675719063
 20
0.8370567281
 30
0.0
 10
2.7675719063
 20
0.8347351761
 30
0.0
 10
2.7677488173
 20
0.8304009456
 30
0.0
 10
2.768400349
 20
0.8261048364
 30
0.0
 10
2.768855714
 20
0.8241475249
 30
0.0
  0
SPLINE
  5
43E
100
AcDbEntity
  8
0
100
AcDbSpline
 62
7
  6
CONTINUOUS
 70
0
 71
3
 72
9
 73
5
 74
0
 42
0.0000001
 43
0.0000001
 44
0.0000000001
 40
0.0
 40
0.0
 40
0.0
 40
0.0
 40
0.5242186769
 40
1.0
 40
1.0
 40
1.0
 40
1.0
 10
2.7724322785
 20
0.8723082927
 30
0.0
 10
2.7713332132
 20
0.8675326013
 30
0.0
 10
2.7694450956
 20
0.8583722356
 30
0.0
 10
2.7682173137
 20
0.8490898593
 30
0.0
 10
2.76787869
 20
0.8446550452
 30
0.0
  0
LINE
  5
43F
100
AcDbEntity
  8
0
100
AcDbLine
 62
7
  6
CONTINUOUS
 10
2.76787869
 20
0.8446550452
 11
2.7675719063
 21
0.8370567281
  0
SPLINE
  5
440
100
AcDbEntity
  8
0
100
AcDbSpline
 62
9
  6
CONTINUOUS
 70
0
 71
3
 72
13
 73
9
 74
0
 42
0.0000001
 43
0.0000001
 44
0.0000000001
 40
0.0
 40
0.0
 40
0.0
 40
0.0
 40
0.1024596071
 40
0.2064181291
 40
0.3153723554
 40
0.4319139875
 40
0.6927667606
 40
1.0
 40
1.0
 40
1.0
 40
1.0
 10
2.7603097826
 20
0.8989285654
 30
0.0
 10
2.7603097827
 20
0.8998177725
 30
0.0
 10
2.7604501331
 20
0.9016125486
 30
0.0
 10
2.7610924704
 20
0.9042834974
 30
0.0
 10
2.7621572052
 20
0.9069464172
 30
0.0
 10
2.7642035084
 20
0.9106488345
 30
0.0
 10
2.7679577069
 20
0.9153089794
 30
0.0
 10
2.7716310141
 20
0.9186146425
 30
0.0
 10
2.7736797911
 20
0.920321094
 30
0.0
  0
SPLINE
  5
441
100
AcDbEntity
  8
0
100
AcDbSpline
 62
7
  6
CONTINUOUS
 70
0
 71
3
 72
8
 73
4
 74
0
 42
0.0000001
 43
0.0000001
 44
0.0000000001
 40
0.0
 40
0.0
 40
0.0
 40
0.0
 40
1.0
 40
1.0
 40
1.0
 40
1.0
 10
3.5483846001
 20
1.1206919018
 30
0.0
 10
3.539241115
 20
1.1233351437
 30
0.0
 10
3.5299819188
 20
1.125626151
 30
0.0
 10
3.5206333375
 20
1.1274133483
 30
0.0
  0
SPLINE
  5
442
100
AcDbEntity
  8
0
100
AcDbSpline
 62
7
  6
CONTINUOUS
 70
0
 71
3
 72
8
 73
4
 74
0
 42
0.0000001
 43
0.0000001
 44
0.0000000001
 40
0.0
 40
0.0
 40
0.0
 40
0.0
 40
1.0
 40
1.0
 40
1.0
 40
1.0
 10
3.5206333375
 20
1.1300183483
 30
0.0
 10
3.5299910279
 20
1.1322576555
 30
0.0
 10
3.539244402
 20
1.1349553309
 30
0.0
 10
3.5483846001
 20
1.1379615986
 30
0.0
  0
SPLINE
  5
443
100
AcDbEntity
  8
0
100
AcDbSpline
 62
7
  6
CONTINUOUS
 70
0
 71
3
 72
8
 73
4
 74
0
 42
0.0000001
 43
0.0000001
 44
0.0000000001
 40
0.0
 40
0.0
 40
0.0
 40
0.0
 40
1.0
 40
1.0
 40
1.0
 40
1.0
 10
3.5483846001
 20
1.1415269018
 30
0.0
 10
3.5402337086
 20
1.1438866872
 30
0.0
 10
3.5319913566
 20
1.1459631365
 30
0.0
 10
3.5236749992
 20
1.1476494992
 30
0.0
  0
SPLINE
  5
444
100
AcDbEntity
  8
0
100
AcDbSpline
 62
7
  6
CONTINUOUS
 70
0
 71
3
 72
8
 73
4
 74
0
 42
0.0000001
 43
0.0000001
 44
0.0000000001
 40
0.0
 40
0.0
 40
0.0
 40
0.0
 40
1.0
 40
1.0
 40
1.0
 40
1.0
 10
3.3977349651
 20
1.1550477411
 30
0.0
 10
3.4058871605
 20
1.1526924478
 30
0.0
 10
3.4141281283
 20
1.1506111328
 30
0.0
 10
3.4224445038
 20
1.1489248366
 30
0.0
  0
SPLINE
  5
445
100
AcDbEntity
  8
0
100
AcDbSpline
 62
7
  6
CONTINUOUS
 70
0
 71
3
 72
8
 73
4
 74
0
 42
0.0000001
 43
0.0000001
 44
0.0000000001
 40
0.0
 40
0.0
 40
0.0
 40
0.0
 40
1.0
 40
1.0
 40
1.0
 40
1.0
 10
3.4224371342
 20
1.1449758485
 30
0.0
 10
3.4141168242
 20
1.1428953166
 30
0.0
 10
3.4058824755
 20
1.1404565226
 30
0.0
 10
3.3977349651
 20
1.1377780442
 30
0.0
  0
SPLINE
  5
446
100
AcDbEntity
  8
0
100
AcDbSpline
 62
7
  6
CONTINUOUS
 70
0
 71
3
 72
8
 73
4
 74
0
 42
0.0000001
 43
0.0000001
 44
0.0000000001
 40
0.0
 40
0.0
 40
0.0
 40
0.0
 40
1.0
 40
1.0
 40
1.0
 40
1.0
 10
3.3977349651
 20
1.1342127411
 30
0.0
 10
3.4068786714
 20
1.1315702644
 30
0.0
 10
3.4161375676
 20
1.1292780795
 30
0.0
 10
3.4254862277
 20
1.1274912946
 30
0.0
  0
SPLINE
  5
447
100
AcDbEntity
  8
0
100
AcDbSpline
 62
7
  6
CONTINUOUS
 70
0
 71
3
 72
8
 73
4
 74
0
 42
0.0000001
 43
0.0000001
 44
0.0000000001
 40
0.0
 40
0.0
 40
0.0
 40
0.0
 40
1.0
 40
1.0
 40
1.0
 40
1.0
 10
3.4254862277
 20
1.1248862946
 30
0.0
 10
3.416128434
 20
1.1226474189
 30
0.0
 10
3.4068754042
 20
1.1199485792
 30
0.0
 10
3.3977349651
 20
1.1169430442
 30
0.0
  0
LINE
  5
448
100
AcDbEntity
  8
0
100
AcDbLine
 62
7
  6
CONTINUOUS
 10
3.3338819835
 20
1.1131325827
 11
3.3325969688
 21
1.1134501696
  0
SPLINE
  5
449
100
AcDbEntity
  8
0
100
AcDbSpline
 62
7
  6
CONTINUOUS
 70
0
 71
3
 72
18
 73
14
 74
0
 42
0.0000001
 43
0.0000001
 44
0.0000000001
 40
0.0
 40
0.0
 40
0.0
 40
0.0
 40
0.1967360542
 40
0.379286298
 40
0.5434218817
 40
0.6861867574
 40
0.8051922247
 40
0.8551086031
 40
0.8983090755
 40
0.9345532603
 40
0.9636276312
 40
0.9854483505
 40
1.0
 40
1.0
 40
1.0
 40
1.0
 10
3.4254942141
 20
1.1248862946
 30
0.0
 10
3.4202590897
 20
1.1247400576
 30
0.0
 10
3.4101665226
 20
1.1244508615
 30
0.0
 10
3.3957073664
 20
1.1240043076
 30
0.0
 10
3.3826856458
 20
1.1235583929
 30
0.0
 10
3.3713565755
 20
1.123114415
 30
0.0
 10
3.3630681731
 20
1.1227289181
 30
0.0
 10
3.3574303419
 20
1.122411209
 30
0.0
 10
3.3539938345
 20
1.1221881156
 30
0.0
 10
3.3511136447
 20
1.1219660873
 30
0.0
 10
3.3488036887
 20
1.1217473192
 30
0.0
 10
3.347075714
 20
1.1215298482
 30
0.0
 10
3.3461196264
 20
1.1213631145
 30
0.0
 10
3.3457454835
 20
1.1212627566
 30
0.0
  0
LINE
  5
44A
100
AcDbEntity
  8
0
100
AcDbLine
 62
7
  6
CONTINUOUS
 10
3.3457454835
 20
1.1212627566
 11
3.3452704301
 21
1.1210876682
  0
SPLINE
  5
44B
100
AcDbEntity
  8
0
100
AcDbSpline
 62
7
  6
CONTINUOUS
 70
0
 71
3
 72
23
 73
19
 74
0
 42
0.0000001
 43
0.0000001
 44
0.0000000001
 40
0.0
 40
0.0
 40
0.0
 40
0.0
 40
0.2118739657
 40
0.4065871454
 40
0.5789061551
 40
0.6555402002
 40
0.7253096225
 40
0.787840754
 40
0.8428085057
 40
0.8899016909
 40
0.9288118696
 40
0.9592736025
 40
0.9811921545
 40
0.9889450039
 40
0.9945761245
 40
0.9966138013
 40
0.9981564999
 40
1.0
 40
1.0
 40
1.0
 40
1.0
 10
3.4254942141
 20
1.1274912946
 30
0.0
 10
3.4198065452
 20
1.1273324163
 30
0.0
 10
3.4088921124
 20
1.1270190501
 30
0.0
 10
3.3933531093
 20
1.1265338429
 30
0.0
 10
3.3814457072
 20
1.1261157467
 30
0.0
 10
3.3728931518
 20
1.1257753645
 30
0.0
 10
3.3672875261
 20
1.1255305488
 30
0.0
 10
3.3622643467
 20
1.1252860697
 30
0.0
 10
3.3578508907
 20
1.1250423937
 30
0.0
 10
3.3540728494
 20
1.1247995384
 30
0.0
 10
3.3509542211
 20
1.1245596394
 30
0.0
 10
3.3485141413
 20
1.124320219
 30
0.0
 10
3.3469120983
 20
1.1241129161
 30
0.0
 10
3.345980488
 20
1.1239310274
 30
0.0
 10
3.345580328
 20
1.1238276018
 30
0.0
 10
3.3453475828
 20
1.1237351917
 30
0.0
 10
3.3452231162
 20
1.123670684
 30
0.0
 10
3.3451446733
 20
1.1235924458
 30
0.0
 10
3.3451471843
 20
1.1235430022
 30
0.0
  0
LINE
  5
44C
100
AcDbEntity
  8
0
100
AcDbLine
 62
7
  6
CONTINUOUS
 10
3.3338819835
 20
1.1339675827
 11
3.3325969679
 21
1.134285118
  0
SPLINE
  5
44D
100
AcDbEntity
  8
0
100
AcDbSpline
 62
7
  6
CONTINUOUS
 70
0
 71
3
 72
10
 73
6
 74
0
 42
0.0000001
 43
0.0000001
 44
0.0000000001
 40
0.0
 40
0.0
 40
0.0
 40
0.0
 40
0.5826523613
 40
0.8145283516
 40
1.0
 40
1.0
 40
1.0
 40
1.0
 10
3.3977349651
 20
1.1342127411
 30
0.0
 10
3.3875460057
 20
1.1339227194
 30
0.0
 10
3.373302298
 20
1.1335052495
 30
0.0
 10
3.3558207616
 20
1.132835579
 30
0.0
 10
3.3485274737
 20
1.1324904026
 30
0.0
 10
3.3452879557
 20
1.1323072062
 30
0.0
  0
SPLINE
  5
44E
100
AcDbEntity
  8
0
100
AcDbSpline
 62
7
  6
CONTINUOUS
 70
0
 71
3
 72
10
 73
6
 74
0
 42
0.0000001
 43
0.0000001
 44
0.0000000001
 40
0.0
 40
0.0
 40
0.0
 40
0.0
 40
0.6205070488
 40
0.8409779216
 40
1.0
 40
1.0
 40
1.0
 40
1.0
 10
3.3452879557
 20
1.1323072062
 30
0.0
 10
3.3429237009
 20
1.1321735064
 30
0.0
 10
3.3397195799
 20
1.1319762931
 30
0.0
 10
3.335919222
 20
1.1316287452
 30
0.0
 10
3.3344807918
 20
1.1314531718
 30
0.0
 10
3.3338819835
 20
1.1313545601
 30
0.0
  0
LINE
  5
44F
100
AcDbEntity
  8
0
100
AcDbLine
 62
7
  6
CONTINUOUS
 10
3.3338819835
 20
1.1313545601
 11
3.3325969644
 21
1.1310370154
  0
LINE
  5
450
100
AcDbEntity
  8
0
100
AcDbLine
 62
7
  6
CONTINUOUS
 10
3.4254941236
 20
1.1457212946
 11
3.412362336
 21
1.1453451741
  0
SPLINE
  5
451
100
AcDbEntity
  8
0
100
AcDbSpline
 62
7
  6
CONTINUOUS
 70
0
 71
3
 72
20
 73
16
 74
0
 42
0.0000001
 43
0.0000001
 44
0.0000000001
 40
0.0
 40
0.0
 40
0.0
 40
0.0
 40
0.2062589852
 40
0.3946467495
 40
0.5616166463
 40
0.704701148
 40
0.7665589351
 40
0.8216027204
 40
0.8696571041
 40
0.9105635067
 40
0.9441667777
 40
0.9703192921
 40
0.9889061178
 40
0.9953743256
 40
1.0
 40
1.0
 40
1.0
 40
1.0
 10
3.412362336
 20
1.1453451741
 30
0.0
 10
3.4077485947
 20
1.1452092632
 30
0.0
 10
3.398921111
 20
1.1449408193
 30
0.0
 10
3.386359944
 20
1.1445234445
 30
0.0
 10
3.3752133512
 20
1.1441071632
 30
0.0
 10
3.3668982306
 20
1.1437477005
 30
0.0
 10
3.3610875615
 20
1.1434537459
 30
0.0
 10
3.3574020402
 20
1.1432442908
 30
0.0
 10
3.3541861463
 20
1.1430355033
 30
0.0
 10
3.3514512713
 20
1.1428274318
 30
0.0
 10
3.349207673
 20
1.1426216828
 30
0.0
 10
3.3474667129
 20
1.1424173175
 30
0.0
 10
3.3463331116
 20
1.1422392624
 30
0.0
 10
3.3456873989
 20
1.1420837643
 30
0.0
 10
3.345450803
 20
1.1420050103
 30
0.0
 10
3.3453569384
 20
1.1419613662
 30
0.0
  0
LINE
  5
452
100
AcDbEntity
  8
0
100
AcDbLine
 62
7
  6
CONTINUOUS
 10
3.4254941236
 20
1.1483262946
 11
3.412362336
 21
1.1479501741
  0
SPLINE
  5
453
100
AcDbEntity
  8
0
100
AcDbSpline
 62
7
  6
CONTINUOUS
 70
0
 71
3
 72
21
 73
17
 74
0
 42
0.0000001
 43
0.0000001
 44
0.0000000001
 40
0.0
 40
0.0
 40
0.0
 40
0.0
 40
0.2162957169
 40
0.4125253511
 40
0.5846686484
 40
0.6608143347
 40
0.729888203
 40
0.7915550276
 40
0.8455598653
 40
0.8917140511
 40
0.9298339522
 40
0.959742721
 40
0.9812857465
 40
0.9944635875
 40
0.998044849
 40
1.0
 40
1.0
 40
1.0
 40
1.0
 10
3.412362336
 20
1.1479501741
 30
0.0
 10
3.4075038247
 20
1.1478070528
 30
0.0
 10
3.3982377974
 20
1.1475248773
 30
0.0
 10
3.3851064072
 20
1.147085012
 30
0.0
 10
3.3751242677
 20
1.1467061651
 30
0.0
 10
3.3679991001
 20
1.1463979259
 30
0.0
 10
3.3633551902
 20
1.1461766859
 30
0.0
 10
3.3592093846
 20
1.1459557225
 30
0.0
 10
3.3555795888
 20
1.1457353036
 30
0.0
 10
3.3524795001
 20
1.1455155395
 30
0.0
 10
3.3499237385
 20
1.1452982538
 30
0.0
 10
3.3479194715
 20
1.1450818047
 30
0.0
 10
3.3464876996
 20
1.1448768348
 30
0.0
 10
3.3456353596
 20
1.1446836255
 30
0.0
 10
3.3452538276
 20
1.1445293918
 30
0.0
 10
3.3451561625
 20
1.1444228456
 30
0.0
 10
3.3451568799
 20
1.1443789151
 30
0.0
  0
LINE
  5
454
100
AcDbEntity
  8
0
100
AcDbLine
 62
7
  6
CONTINUOUS
 10
3.3331490267
 20
1.1549443704
 11
3.3324394302
 21
1.1552790415
  0
LINE
  5
455
100
AcDbEntity
  8
0
100
AcDbLine
 62
7
  6
CONTINUOUS
 10
3.3977349651
 20
1.1550477411
 11
3.3867244389
 21
1.1547265706
  0
SPLINE
  5
456
100
AcDbEntity
  8
0
100
AcDbSpline
 62
7
  6
CONTINUOUS
 70
0
 71
3
 72
9
 73
5
 74
0
 42
0.0000001
 43
0.0000001
 44
0.0000000001
 40
0.0
 40
0.0
 40
0.0
 40
0.0
 40
0.5760275454
 40
1.0
 40
1.0
 40
1.0
 40
1.0
 10
3.3867244389
 20
1.1547265706
 30
0.0
 10
3.3787658632
 20
1.1544882982
 30
0.0
 10
3.3649505251
 20
1.1540480761
 30
0.0
 10
3.3511389624
 20
1.1534731536
 30
0.0
 10
3.3452879545
 20
1.1531422062
 30
0.0
  0
SPLINE
  5
457
100
AcDbEntity
  8
0
100
AcDbSpline
 62
7
  6
CONTINUOUS
 70
0
 71
3
 72
10
 73
6
 74
0
 42
0.0000001
 43
0.0000001
 44
0.0000000001
 40
0.0
 40
0.0
 40
0.0
 40
0.0
 40
0.6205073668
 40
0.8409781887
 40
1.0
 40
1.0
 40
1.0
 40
1.0
 10
3.3452879545
 20
1.1531422062
 30
0.0
 10
3.3429237008
 20
1.1530084782
 30
0.0
 10
3.3397195816
 20
1.1528112427
 30
0.0
 10
3.3359192231
 20
1.1524637135
 30
0.0
 10
3.3344807925
 20
1.1522881593
 30
0.0
 10
3.3338819834
 20
1.1521895601
 30
0.0
  0
LINE
  5
458
100
AcDbEntity
  8
0
100
AcDbLine
 62
7
  6
CONTINUOUS
 10
3.3338819834
 20
1.1521895601
 11
3.3325969648
 21
1.1518720546
  0
LINE
  5
459
100
AcDbEntity
  8
0
100
AcDbLine
 62
7
  6
CONTINUOUS
 10
3.6001590621
 20
1.1551726263
 11
3.600975576
 21
1.1547985819
  0
LINE
  5
45A
100
AcDbEntity
  8
0
100
AcDbLine
 62
7
  6
CONTINUOUS
 10
3.6003370954
 20
1.1525216624
 11
3.6008331638
 21
1.1523435071
  0
LINE
  5
45B
100
AcDbEntity
  8
0
100
AcDbLine
 62
7
  6
CONTINUOUS
 10
3.6122375815
 20
1.1417720602
 11
3.6135225966
 21
1.141454468
  0
SPLINE
  5
45C
100
AcDbEntity
  8
0
100
AcDbSpline
 62
7
  6
CONTINUOUS
 70
0
 71
3
 72
10
 73
6
 74
0
 42
0.0000001
 43
0.0000001
 44
0.0000000001
 40
0.0
 40
0.0
 40
0.0
 40
0.0
 40
0.5826524777
 40
0.814528882
 40
1.0
 40
1.0
 40
1.0
 40
1.0
 10
3.5483846001
 20
1.1415269018
 30
0.0
 10
3.5585737637
 20
1.1418096694
 30
0.0
 10
3.5728172949
 20
1.1422342944
 30
0.0
 10
3.5902987435
 20
1.1429055918
 30
0.0
 10
3.5975920839
 20
1.1432495697
 30
0.0
 10
3.6008316107
 20
1.1434324367
 30
0.0
  0
SPLINE
  5
45D
100
AcDbEntity
  8
0
100
AcDbSpline
 62
7
  6
CONTINUOUS
 70
0
 71
3
 72
10
 73
6
 74
0
 42
0.0000001
 43
0.0000001
 44
0.0000000001
 40
0.0
 40
0.0
 40
0.0
 40
0.0
 40
0.6205053637
 40
0.8409768353
 40
1.0
 40
1.0
 40
1.0
 40
1.0
 10
3.6008316107
 20
1.1434324367
 30
0.0
 10
3.6031958749
 20
1.1435658963
 30
0.0
 10
3.6064000072
 20
1.1437629891
 30
0.0
 10
3.6102003523
 20
1.1441107363
 30
0.0
 10
3.6116387752
 20
1.1442864318
 30
0.0
 10
3.6122375818
 20
1.1443850827
 30
0.0
  0
LINE
  5
45E
100
AcDbEntity
  8
0
100
AcDbLine
 62
7
  6
CONTINUOUS
 10
3.6122375818
 20
1.1443850827
 11
3.6135225986
 21
1.1447026695
  0
LINE
  5
45F
100
AcDbEntity
  8
0
100
AcDbLine
 62
7
  6
CONTINUOUS
 10
3.6003042943
 20
1.1316957387
 11
3.6008329586
 21
1.1315106038
  0
LINE
  5
460
100
AcDbEntity
  8
0
100
AcDbLine
 62
7
  6
CONTINUOUS
 10
3.5483846001
 20
1.1206919018
 11
3.5946304518
 21
1.122279478
  0
LINE
  5
461
100
AcDbEntity
  8
0
100
AcDbLine
 62
7
  6
CONTINUOUS
 10
3.6008316107
 20
1.1225974367
 11
3.6096729982
 21
1.1232326212
  0
LINE
  5
462
100
AcDbEntity
  8
0
100
AcDbLine
 62
7
  6
CONTINUOUS
 10
3.6096729982
 20
1.1232326212
 11
3.6122375818
 21
1.1235500827
  0
LINE
  5
463
100
AcDbEntity
  8
0
100
AcDbLine
 62
7
  6
CONTINUOUS
 10
3.6122375818
 20
1.1235500827
 11
3.6135226005
 21
1.123867638
  0
SPLINE
  5
464
100
AcDbEntity
  8
0
100
AcDbSpline
 62
7
  6
CONTINUOUS
 70
0
 71
3
 72
10
 73
6
 74
0
 42
0.0000001
 43
0.0000001
 44
0.0000000001
 40
0.0
 40
0.0
 40
0.0
 40
0.0
 40
0.5685795111
 40
0.8033601326
 40
1.0
 40
1.0
 40
1.0
 40
1.0
 10
3.7500002534
 20
1.0152524614
 30
0.0
 10
3.7496819259
 20
1.0273574788
 30
0.0
 10
3.7491961564
 20
1.0444601745
 30
0.0
 10
3.7484487698
 20
1.0657444014
 30
0.0
 10
3.7480682454
 20
1.0749247404
 30
0.0
 10
3.7478710888
 20
1.0791079931
 30
0.0
  0
SPLINE
  5
465
100
AcDbEntity
  8
0
100
AcDbSpline
 62
7
  6
CONTINUOUS
 70
0
 71
3
 72
10
 73
6
 74
0
 42
0.0000001
 43
0.0000001
 44
0.0000000001
 40
0.0
 40
0.0
 40
0.0
 40
0.0
 40
0.6030839979
 40
0.8278163177
 40
1.0
 40
1.0
 40
1.0
 40
1.0
 10
3.7478710888
 20
1.0791079931
 30
0.0
 10
3.7476886062
 20
1.0829798945
 30
0.0
 10
3.7474156542
 20
1.0882940644
 30
0.0
 10
3.7469545286
 20
1.0947048869
 30
0.0
 10
3.7467204321
 20
1.0972457041
 30
0.0
 10
3.746594553
 20
1.0983451971
 30
0.0
  0
LINE
  5
466
100
AcDbEntity
  8
0
100
AcDbLine
 62
7
  6
CONTINUOUS
 10
3.746594553
 20
1.0983451971
 11
3.7461687342
 21
1.1011365223
  0
LINE
  5
467
100
AcDbEntity
  8
0
100
AcDbLine
 62
7
  6
CONTINUOUS
 10
3.7461687342
 20
1.1011365223
 11
3.7457480916
 21
1.102051179
  0
LINE
  5
468
100
AcDbEntity
  8
0
100
AcDbLine
 62
7
  6
CONTINUOUS
 10
3.7312445884
 20
0.9344217486
 11
3.7316757262
 21
0.9147808642
  0
LINE
  5
469
100
AcDbEntity
  8
0
100
AcDbLine
 62
7
  6
CONTINUOUS
 10
3.7317798029
 20
0.9100131976
 11
3.7334015335
 21
0.8366063545
  0
LINE
  5
46A
100
AcDbEntity
  8
0
100
AcDbLine
 62
7
  6
CONTINUOUS
 10
3.7334015335
 20
0.8366063545
 11
3.7338739895
 21
0.8163537965
  0
LINE
  5
46B
100
AcDbEntity
  8
0
100
AcDbLine
 62
7
  6
CONTINUOUS
 10
3.7355580593
 20
0.7533218415
 11
3.7368519967
 21
0.7186746291
  0
SPLINE
  5
46C
100
AcDbEntity
  8
0
100
AcDbSpline
 62
7
  6
CONTINUOUS
 70
0
 71
3
 72
10
 73
6
 74
0
 42
0.0000001
 43
0.0000001
 44
0.0000000001
 40
0.0
 40
0.0
 40
0.0
 40
0.0
 40
0.6055207857
 40
0.8298017502
 40
1.0
 40
1.0
 40
1.0
 40
1.0
 10
3.7368519967
 20
0.7186746291
 30
0.0
 10
3.7370367486
 20
0.7147660025
 30
0.0
 10
3.7373126419
 20
0.70941018
 30
0.0
 10
3.7377799632
 20
0.7029648273
 30
0.0
 10
3.7380176174
 20
0.7004261865
 30
0.0
 10
3.7381459575
 20
0.6993338465
 30
0.0
  0
LINE
  5
46D
100
AcDbEntity
  8
0
100
AcDbLine
 62
7
  6
CONTINUOUS
 10
3.7381459575
 20
0.6993338465
 11
3.7385772622
 21
0.6966132391
  0
LINE
  5
46E
100
AcDbEntity
  8
0
100
AcDbLine
 62
7
  6
CONTINUOUS
 10
3.7385772622
 20
0.6966132391
 11
3.738971694
 21
0.6958036174
  0
SPLINE
  5
46F
100
AcDbEntity
  8
0
100
AcDbSpline
 62
7
  6
CONTINUOUS
 70
0
 71
3
 72
31
 73
27
 74
0
 42
0.0000001
 43
0.0000001
 44
0.0000000001
 40
0.0
 40
0.0
 40
0.0
 40
0.0
 40
0.1497839935
 40
0.2321056895
 40
0.3171903436
 40
0.403456057
 40
0.4892632175
 40
0.5729280803
 40
0.6528290645
 40
0.727430147
 40
0.7952761128
 40
0.8262641166
 40
0.8550861961
 40
0.8815928877
 40
0.9056677513
 40
0.9272036696
 40
0.9460937959
 40
0.9622335115
 40
0.9755496101
 40
0.9859966196
 40
0.9935345575
 40
0.9962046182
 40
0.9981434216
 40
0.998844061
 40
0.9993737367
 40
1.0
 40
1.0
 40
1.0
 40
1.0
 10
3.7746222826
 20
0.7843975252
 30
0.0
 10
3.7741734787
 20
0.7995074648
 30
0.0
 10
3.7735533352
 20
0.8229240858
 30
0.0
 10
3.7727645944
 20
0.8549260569
 30
0.0
 10
3.7721551761
 20
0.8805200748
 30
0.0
 10
3.7715454332
 20
0.9064659391
 30
0.0
 10
3.7709358052
 20
0.9322684793
 30
0.0
 10
3.7703263775
 20
0.9574284966
 30
0.0
 10
3.7697175699
 20
0.9814572408
 30
0.0
 10
3.7691098504
 20
1.0038889855
 30
0.0
 10
3.7685900057
 20
1.0213848324
 30
0.0
 10
3.7681686671
 20
1.0342613424
 30
0.0
 10
3.76786255
 20
1.0429672941
 30
0.0
 10
3.7675565888
 20
1.0509750945
 30
0.0
 10
3.7672510476
 20
1.0582469904
 30
0.0
 10
3.7669460955
 20
1.0647494798
 30
0.0
 10
3.7666422669
 20
1.0704502137
 30
0.0
 10
3.766339237
 20
1.0753200743
 30
0.0
 10
3.7660393714
 20
1.0793361644
 30
0.0
 10
3.7657406022
 20
1.0824812884
 30
0.0
 10
3.7654821026
 20
1.0845502191
 30
0.0
 10
3.765255409
 20
1.0857565745
 30
0.0
 10
3.7651263666
 20
1.0862752936
 30
0.0
 10
3.7650111504
 20
1.0865780185
 30
0.0
 10
3.7649306862
 20
1.0867390384
 30
0.0
 10
3.7648344545
 20
1.0868434547
 30
0.0
 10
3.7647712616
 20
1.0868422613
 30
0.0
  0
SPLINE
  5
470
100
AcDbEntity
  8
0
100
AcDbSpline
 62
7
  6
CONTINUOUS
 70
0
 71
3
 72
23
 73
19
 74
0
 42
0.0000001
 43
0.0000001
 44
0.0000000001
 40
0.0
 40
0.0
 40
0.0
 40
0.0
 40
0.1442977004
 40
0.3054445252
 40
0.4718107873
 40
0.5532690484
 40
0.6315955235
 40
0.7054024693
 40
0.7733425499
 40
0.834227334
 40
0.8869411679
 40
0.9305541457
 40
0.9487061193
 40
0.9642959609
 40
0.977258107
 40
0.9875516836
 40
0.9951403009
 40
1.0
 40
1.0
 40
1.0
 40
1.0
 10
3.7714972826
 20
0.7843975252
 30
0.0
 10
3.7710659602
 20
0.7989189132
 30
0.0
 10
3.7702484132
 20
0.8296601037
 30
0.0
 10
3.7691053079
 20
0.87714792
 30
0.0
 10
3.7681447256
 20
0.9183116705
 30
0.0
 10
3.7673555616
 20
0.9511388444
 30
0.0
 10
3.7667681398
 20
0.9746493604
 30
0.0
 10
3.7661817844
 20
0.9967984615
 30
0.0
 10
3.7655961538
 20
1.0171909027
 30
0.0
 10
3.765012913
 20
1.0354588452
 30
0.0
 10
3.7644319541
 20
1.0512761748
 30
0.0
 10
3.7639267217
 20
1.0627909964
 30
0.0
 10
3.7635098535
 20
1.0705678648
 30
0.0
 10
3.7632180099
 20
1.075261138
 30
0.0
 10
3.7629269122
 20
1.0791609876
 30
0.0
 10
3.7626420619
 20
1.0822545128
 30
0.0
 10
3.76235755
 20
1.0845248079
 30
0.0
 10
3.7621415491
 20
1.0857636955
 30
0.0
 10
3.7620043536
 20
1.0862333375
 30
0.0
  0
LINE
  5
471
100
AcDbEntity
  8
0
100
AcDbLine
 62
7
  6
CONTINUOUS
 10
3.7620043536
 20
1.0862333375
 11
3.7618271045
 21
1.0866888009
  0
SPLINE
  5
472
100
AcDbEntity
  8
0
100
AcDbSpline
 62
7
  6
CONTINUOUS
 70
0
 71
3
 72
12
 73
8
 74
0
 42
0.0000001
 43
0.0000001
 44
0.0000000001
 40
0.0
 40
0.0
 40
0.0
 40
0.0
 40
0.4020360339
 40
0.7012133702
 40
0.8985912588
 40
0.9603810885
 40
1.0
 40
1.0
 40
1.0
 40
1.0
 10
3.7242292886
 20
1.0983829768
 30
0.0
 10
3.7242868612
 20
1.0988840017
 30
0.0
 10
3.7243960958
 20
1.0997577716
 30
0.0
 10
3.7245830001
 20
1.1008673495
 30
0.0
 10
3.724745092
 20
1.1015542562
 30
0.0
 10
3.7248902782
 20
1.1018978698
 30
0.0
 10
3.7249671058
 20
1.1020058112
 30
0.0
 10
3.7250087011
 20
1.1020330104
 30
0.0
  0
LINE
  5
473
100
AcDbEntity
  8
0
100
AcDbLine
 62
7
  6
CONTINUOUS
 10
3.7627215585
 20
0.7751272363
 11
3.7644620652
 21
0.7228294481
  0
SPLINE
  5
474
100
AcDbEntity
  8
0
100
AcDbSpline
 62
7
  6
CONTINUOUS
 70
0
 71
3
 72
10
 73
6
 74
0
 42
0.0000001
 43
0.0000001
 44
0.0000000001
 40
0.0
 40
0.0
 40
0.0
 40
0.0
 40
0.5939098985
 40
0.8210705093
 40
1.0
 40
1.0
 40
1.0
 40
1.0
 10
3.7644620652
 20
0.7228294481
 30
0.0
 10
3.7646510463
 20
0.7185039619
 30
0.0
 10
3.7649361138
 20
0.7125247208
 30
0.0
 10
3.7654052068
 20
0.7052497156
 30
0.0
 10
3.7656434805
 20
0.702298595
 30
0.0
 10
3.7657694815
 20
0.7010002961
 30
0.0
  0
SPLINE
  5
475
100
AcDbEntity
  8
0
100
AcDbSpline
 62
7
  6
CONTINUOUS
 70
0
 71
3
 72
12
 73
8
 74
0
 42
0.0000001
 43
0.0000001
 44
0.0000000001
 40
0.0
 40
0.0
 40
0.0
 40
0.0
 40
0.3875726481
 40
0.6832340793
 40
0.8867740008
 40
0.9543579883
 40
1.0
 40
1.0
 40
1.0
 40
1.0
 10
3.7657694815
 20
0.7010002961
 30
0.0
 10
3.7658343754
 20
0.7003316369
 30
0.0
 10
3.765958244
 20
0.6991533145
 30
0.0
 10
3.7661682813
 20
0.6976315335
 30
0.0
 10
3.7663498109
 20
0.6966629287
 30
0.0
 10
3.766511215
 20
0.696138778
 30
0.0
 10
3.7665932206
 20
0.6959576697
 30
0.0
 10
3.7666398469
 20
0.6958937558
 30
0.0
  0
SPLINE
  5
476
100
AcDbEntity
  8
0
100
AcDbSpline
 62
7
  6
CONTINUOUS
 70
0
 71
3
 72
9
 73
5
 74
0
 42
0.0000001
 43
0.0000001
 44
0.0000000001
 40
0.0
 40
0.0
 40
0.0
 40
0.0
 40
0.5257715426
 40
1.0
 40
1.0
 40
1.0
 40
1.0
 10
3.7590445884
 20
0.9344217486
 30
0.0
 10
3.7596567274
 20
0.9065034953
 30
0.0
 10
3.7607984885
 20
0.8534034928
 30
0.0
 10
3.7620338931
 20
0.8003052361
 30
0.0
 10
3.7627215585
 20
0.7751272363
 30
0.0
  0
SPLINE
  5
477
100
AcDbEntity
  8
0
100
AcDbSpline
 62
7
  6
CONTINUOUS
 70
0
 71
3
 72
10
 73
6
 74
0
 42
0.0000001
 43
0.0000001
 44
0.0000000001
 40
0.0
 40
0.0
 40
0.0
 40
0.0
 40
0.6072675475
 40
0.8309583849
 40
1.0
 40
1.0
 40
1.0
 40
1.0
 10
3.7756431523
 20
1.0797004165
 30
0.0
 10
3.7754590652
 20
1.0835569366
 30
0.0
 10
3.7751845788
 20
1.0888335345
 30
0.0
 10
3.7747161037
 20
1.0951741668
 30
0.0
 10
3.774478419
 20
1.0976603423
 30
0.0
 10
3.7743495132
 20
1.0987273236
 30
0.0
  0
LINE
  5
478
100
AcDbEntity
  8
0
100
AcDbLine
 62
7
  6
CONTINUOUS
 10
3.7743495132
 20
1.0987273236
 11
3.7739181202
 21
1.1013438374
  0
LINE
  5
479
100
AcDbEntity
  8
0
100
AcDbLine
 62
7
  6
CONTINUOUS
 10
3.7739181202
 20
1.1013438374
 11
3.7735481117
 21
1.1020514708
  0
LINE
  5
47A
100
AcDbEntity
  8
0
100
AcDbLine
 62
7
  6
CONTINUOUS
 10
3.7782266011
 20
0.9986734949
 11
3.7778002534
 21
1.0152524614
  0
LINE
  5
47B
100
AcDbEntity
  8
0
100
AcDbLine
 62
7
  6
CONTINUOUS
 10
3.7833980067
 20
0.7751272363
 11
3.7829882139
 21
0.7905095532
  0
LINE
  5
47C
100
AcDbEntity
  8
0
100
AcDbLine
 62
7
  6
CONTINUOUS
 10
3.7801313538
 20
0.91583103
 11
3.7797210366
 21
0.9344217486
  0
SPLINE
  5
47D
100
AcDbEntity
  8
0
100
AcDbSpline
 62
9
  6
CONTINUOUS
 70
0
 71
3
 72
11
 73
7
 74
0
 42
0.0000001
 43
0.0000001
 44
0.0000000001
 40
0.0
 40
0.0
 40
0.0
 40
0.0
 40
0.2069228094
 40
0.4335497481
 40
0.6947545826
 40
1.0
 40
1.0
 40
1.0
 40
1.0
 10
2.7603097827
 20
0.8989282571
 30
0.0
 10
2.7603106691
 20
0.8971344853
 30
0.0
 10
2.7609455474
 20
0.8933567547
 30
0.0
 10
2.7636455978
 20
0.8879039845
 30
0.0
 10
2.767981052
 20
0.8825192441
 30
0.0
 10
2.771630599
 20
0.8792100205
 30
0.0
 10
2.7736797338
 20
0.8775358195
 30
0.0
  0
SPLINE
  5
47E
100
AcDbEntity
  8
0
100
AcDbSpline
 62
7
  6
CONTINUOUS
 70
0
 71
3
 72
16
 73
12
 74
0
 42
0.0000001
 43
0.0000001
 44
0.0000000001
 40
0.0
 40
0.0
 40
0.0
 40
0.0
 40
0.0134687852
 40
0.033380653
 40
0.0931458204
 40
0.1796838396
 40
0.2926753616
 40
0.4316902986
 40
0.5962695299
 40
0.7859301349
 40
1.0
 40
1.0
 40
1.0
 40
1.0
 10
3.3325493668
 20
1.1137416938
 30
0.0
 10
3.3326230272
 20
1.1137851293
 30
0.0
 10
3.3328230862
 20
1.1138606984
 30
0.0
 10
3.3333947024
 20
1.1140104394
 30
0.0
 10
3.3344388813
 20
1.1141786445
 30
0.0
 10
3.3360729268
 20
1.1143733697
 30
0.0
 10
3.3382139578
 20
1.1145690296
 30
0.0
 10
3.3408513362
 20
1.1147673942
 30
0.0
 10
3.3439767826
 20
1.1149663096
 30
0.0
 10
3.3475794753
 20
1.1151656667
 30
0.0
 10
3.3501396943
 20
1.1152913028
 30
0.0
 10
3.3514973345
 20
1.1153548663
 30
0.0
  0
LINE
  5
47F
100
AcDbEntity
  8
0
100
AcDbLine
 62
7
  6
CONTINUOUS
 10
3.3514973345
 20
1.1153548663
 11
3.3977349651
 21
1.1169430442
  0
SPLINE
  5
480
100
AcDbEntity
  8
0
100
AcDbSpline
 62
7
  6
CONTINUOUS
 70
0
 71
3
 72
16
 73
12
 74
0
 42
0.0000001
 43
0.0000001
 44
0.0000000001
 40
0.0
 40
0.0
 40
0.0
 40
0.0
 40
0.0091637103
 40
0.0237013038
 40
0.0737440519
 40
0.1534857988
 40
0.2632545439
 40
0.4030095686
 40
0.5726027884
 40
0.7717791982
 40
1.0
 40
1.0
 40
1.0
 40
1.0
 10
3.3451471843
 20
1.1209380022
 30
0.0
 10
3.3451487626
 20
1.120906923
 30
0.0
 10
3.3451997478
 20
1.1208340136
 30
0.0
 10
3.3454182208
 20
1.1207123612
 30
0.0
 10
3.3458938603
 20
1.1205738564
 30
0.0
 10
3.3466906106
 20
1.1204184972
 30
0.0
 10
3.3477986465
 20
1.120259445
 30
0.0
 10
3.3492125107
 20
1.1200982189
 30
0.0
 10
3.3509319899
 20
1.1199359534
 30
0.0
 10
3.3529527631
 20
1.1197730963
 30
0.0
 10
3.3544006112
 20
1.1196710645
 30
0.0
 10
3.3551739041
 20
1.1196193737
 30
0.0
  0
SPLINE
  5
481
100
AcDbEntity
  8
0
100
AcDbSpline
 62
7
  6
CONTINUOUS
 70
0
 71
3
 72
13
 73
9
 74
0
 42
0.0000001
 43
0.0000001
 44
0.0000000001
 40
0.0
 40
0.0
 40
0.0
 40
0.0
 40
0.0426859182
 40
0.1085137425
 40
0.1980565547
 40
0.3114513219
 40
0.609167041
 40
1.0
 40
1.0
 40
1.0
 40
1.0
 10
3.3325591563
 20
1.1307397547
 30
0.0
 10
3.3326555738
 20
1.1306852073
 30
0.0
 10
3.3329253443
 20
1.1305946756
 30
0.0
 10
3.3334250845
 20
1.1304784066
 30
0.0
 10
3.3341134609
 20
1.1303610991
 30
0.0
 10
3.3354007536
 20
1.1301860882
 30
0.0
 10
3.337472317
 20
1.1299790592
 30
0.0
 10
3.3392537318
 20
1.1298396392
 30
0.0
 10
3.340265418
 20
1.129767079
 30
0.0
  0
SPLINE
  5
482
100
AcDbEntity
  8
0
100
AcDbSpline
 62
7
  6
CONTINUOUS
 70
0
 71
3
 72
14
 73
10
 74
0
 42
0.0000001
 43
0.0000001
 44
0.0000000001
 40
0.0
 40
0.0
 40
0.0
 40
0.0
 40
0.0412924707
 40
0.1062941008
 40
0.1953869922
 40
0.3085980919
 40
0.4458486269
 40
0.6070169538
 40
1.0
 40
1.0
 40
1.0
 40
1.0
 10
3.3452842095
 20
1.1233941015
 30
0.0
 10
3.3454040951
 20
1.1233270364
 30
0.0
 10
3.345744998
 20
1.1232189253
 30
0.0
 10
3.3463783218
 20
1.1230792729
 30
0.0
 10
3.3472575412
 20
1.1229386812
 30
0.0
 10
3.3483777883
 20
1.1227953639
 30
0.0
 10
3.3497397896
 20
1.1226514273
 30
0.0
 10
3.3520305949
 20
1.1224447173
 30
0.0
 10
3.3538694644
 20
1.122311569
 30
0.0
 10
3.3551739041
 20
1.1222243737
 30
0.0
  0
SPLINE
  5
483
100
AcDbEntity
  8
0
100
AcDbSpline
 62
7
  6
CONTINUOUS
 70
0
 71
3
 72
13
 73
9
 74
0
 42
0.0000001
 43
0.0000001
 44
0.0000000001
 40
0.0
 40
0.0
 40
0.0
 40
0.0
 40
0.0417690385
 40
0.1069027005
 40
0.1960162003
 40
0.3092618661
 40
0.6075225607
 40
1.0
 40
1.0
 40
1.0
 40
1.0
 10
3.3325479672
 20
1.1345758251
 30
0.0
 10
3.3326413421
 20
1.1346312356
 30
0.0
 10
3.332907382
 20
1.1347223324
 30
0.0
 10
3.3334021898
 20
1.1348392793
 30
0.0
 10
3.3340883749
 20
1.13495729
 30
0.0
 10
3.3353774993
 20
1.1351337942
 30
0.0
 10
3.3374577623
 20
1.1353423676
 30
0.0
 10
3.3392477784
 20
1.1354826021
 30
0.0
 10
3.3402654065
 20
1.1355555706
 30
0.0
  0
LINE
  5
484
100
AcDbEntity
  8
0
100
AcDbLine
 62
7
  6
CONTINUOUS
 10
3.3514973358
 20
1.1361897996
 11
3.3977349651
 21
1.1377780442
  0
SPLINE
  5
485
100
AcDbEntity
  8
0
100
AcDbSpline
 62
7
  6
CONTINUOUS
 70
0
 71
3
 72
15
 73
11
 74
0
 42
0.0000001
 43
0.0000001
 44
0.0000000001
 40
0.0
 40
0.0
 40
0.0
 40
0.0
 40
0.0226549592
 40
0.0721114069
 40
0.1514480188
 40
0.2612500884
 40
0.4014440643
 40
0.5716150633
 40
0.7712962878
 40
1.0
 40
1.0
 40
1.0
 40
1.0
 10
3.3451568832
 20
1.1417737223
 30
0.0
 10
3.3451582995
 20
1.1416974109
 30
0.0
 10
3.3454161976
 20
1.1415420467
 30
0.0
 10
3.3458705699
 20
1.1414182045
 30
0.0
 10
3.3466789037
 20
1.1412514011
 30
0.0
 10
3.3477690678
 20
1.1410981462
 30
0.0
 10
3.3491787757
 20
1.1409355492
 30
0.0
 10
3.3508884237
 20
1.14077451
 30
0.0
 10
3.3528988414
 20
1.1406117802
 30
0.0
 10
3.3543383941
 20
1.140510053
 30
0.0
 10
3.3551071702
 20
1.1404584983
 30
0.0
  0
SPLINE
  5
486
100
AcDbEntity
  8
0
100
AcDbSpline
 62
7
  6
CONTINUOUS
 70
0
 71
3
 72
13
 73
9
 74
0
 42
0.0000001
 43
0.0000001
 44
0.0000000001
 40
0.0
 40
0.0
 40
0.0
 40
0.0
 40
0.0422715768
 40
0.1077858977
 40
0.1971347728
 40
0.310462123
 40
0.6084239349
 40
1.0
 40
1.0
 40
1.0
 40
1.0
 10
3.3325540191
 20
1.1515777448
 30
0.0
 10
3.3326490695
 20
1.151522805
 30
0.0
 10
3.3329171515
 20
1.151432008
 30
0.0
 10
3.333414674
 20
1.1513154255
 30
0.0
 10
3.3341020672
 20
1.1511977997
 30
0.0
 10
3.3353902034
 20
1.1510221294
 30
0.0
 10
3.3374657176
 20
1.1508144316
 30
0.0
 10
3.3392510346
 20
1.1506746526
 30
0.0
 10
3.3402654138
 20
1.1506019066
 30
0.0
  0
SPLINE
  5
487
100
AcDbEntity
  8
0
100
AcDbSpline
 62
7
  6
CONTINUOUS
 70
0
 71
3
 72
14
 73
10
 74
0
 42
0.0000001
 43
0.0000001
 44
0.0000000001
 40
0.0
 40
0.0
 40
0.0
 40
0.0
 40
0.0404749506
 40
0.1047890986
 40
0.1935367415
 40
0.3068402011
 40
0.44446629
 40
0.6060970306
 40
1.0
 40
1.0
 40
1.0
 40
1.0
 10
3.3452837896
 20
1.1442321692
 30
0.0
 10
3.3453993232
 20
1.1441647404
 30
0.0
 10
3.3457329474
 20
1.1440566083
 30
0.0
 10
3.3463555083
 20
1.1439171284
 30
0.0
 10
3.3472258693
 20
1.1437768313
 30
0.0
 10
3.3483390948
 20
1.1436338373
 30
0.0
 10
3.3496952463
 20
1.143490157
 30
0.0
 10
3.3519768317
 20
1.1432837126
 30
0.0
 10
3.3538082272
 20
1.1431506064
 30
0.0
 10
3.3551071702
 20
1.1430634983
 30
0.0
  0
SPLINE
  5
488
100
AcDbEntity
  8
0
100
AcDbSpline
 62
7
  6
CONTINUOUS
 70
0
 71
3
 72
14
 73
10
 74
0
 42
0.0000001
 43
0.0000001
 44
0.0000000001
 40
0.0
 40
0.0
 40
0.0
 40
0.0
 40
0.0390236396
 40
0.1023694516
 40
0.1905599655
 40
0.3037381315
 40
0.4417202135
 40
0.6040697777
 40
1.0
 40
1.0
 40
1.0
 40
1.0
 10
3.6008459045
 20
1.1546483097
 30
0.0
 10
3.6007155878
 20
1.1545731794
 30
0.0
 10
3.6003330046
 20
1.1544564607
 30
0.0
 10
3.5996166741
 20
1.1543046141
 30
0.0
 10
3.59860609
 20
1.1541524129
 30
0.0
 10
3.5973077103
 20
1.1539967301
 30
0.0
 10
3.5957211733
 20
1.1538405041
 30
0.0
 10
3.5930467774
 20
1.1536157684
 30
0.0
 10
3.5908994954
 20
1.1534709362
 30
0.0
 10
3.589376272
 20
1.1533760604
 30
0.0
  0
SPLINE
  5
489
100
AcDbEntity
  8
0
100
AcDbSpline
 62
7
  6
CONTINUOUS
 70
0
 71
3
 72
10
 73
6
 74
0
 42
0.0000001
 43
0.0000001
 44
0.0000000001
 40
0.0
 40
0.0
 40
0.0
 40
0.0
 40
0.1812903074
 40
0.4124710802
 40
1.0
 40
1.0
 40
1.0
 40
1.0
 10
3.589376272
 20
1.1533760604
 30
0.0
 10
3.5859884172
 20
1.1531650437
 30
0.0
 10
3.5782749837
 20
1.1527735229
 30
0.0
 10
3.5595667163
 20
1.152012985
 30
0.0
 10
3.5442445045
 20
1.1515375437
 30
0.0
 10
3.5332485526
 20
1.1512144196
 30
0.0
  0
LINE
  5
48A
100
AcDbEntity
  8
0
100
AcDbLine
 62
7
  6
CONTINUOUS
 10
3.5332485526
 20
1.1512144196
 11
3.5206313869
 21
1.1508533483
  0
SPLINE
  5
48B
100
AcDbEntity
  8
0
100
AcDbSpline
 62
7
  6
CONTINUOUS
 70
0
 71
3
 72
14
 73
10
 74
0
 42
0.0000001
 43
0.0000001
 44
0.0000000001
 40
0.0
 40
0.0
 40
0.0
 40
0.0
 40
0.0397234481
 40
0.1035794746
 40
0.1919644198
 40
0.3049149397
 40
0.4423647374
 40
0.6042065989
 40
1.0
 40
1.0
 40
1.0
 40
1.0
 10
3.6135641204
 20
1.1619942985
 30
0.0
 10
3.6134476593
 20
1.1619282444
 30
0.0
 10
3.6131096563
 20
1.1618244766
 30
0.0
 10
3.6124787177
 20
1.1616895637
 30
0.0
 10
3.6115939009
 20
1.1615540366
 30
0.0
 10
3.6104607713
 20
1.1614154022
 30
0.0
 10
3.6090780573
 20
1.1612762161
 30
0.0
 10
3.6067438288
 20
1.1610760685
 30
0.0
 10
3.6048685296
 20
1.1609475839
 30
0.0
 10
3.6035371515
 20
1.1608634287
 30
0.0
  0
LINE
  5
48C
100
AcDbEntity
  8
0
100
AcDbLine
 62
7
  6
CONTINUOUS
 10
3.6035371515
 20
1.1608634287
 11
3.5912023749
 21
1.160229919
  0
SPLINE
  5
48D
100
AcDbEntity
  8
0
100
AcDbSpline
 62
7
  6
CONTINUOUS
 70
0
 71
3
 72
11
 73
7
 74
0
 42
0.0000001
 43
0.0000001
 44
0.0000000001
 40
0.0
 40
0.0
 40
0.0
 40
0.0
 40
0.1898385973
 40
0.4334823262
 40
0.7110793607
 40
1.0
 40
1.0
 40
1.0
 40
1.0
 10
3.5912023749
 20
1.160229919
 30
0.0
 10
3.582411571
 20
1.1598478311
 30
0.0
 10
3.5623302276
 20
1.1591713001
 30
0.0
 10
3.5293838251
 20
1.1582694397
 30
0.0
 10
3.4918433865
 20
1.1573610132
 30
0.0
 10
3.4655922278
 20
1.1567474288
 30
0.0
 10
3.452204424
 20
1.1564285714
 30
0.0
  0
SPLINE
  5
48E
100
AcDbEntity
  8
0
100
AcDbSpline
 62
7
  6
CONTINUOUS
 70
0
 71
3
 72
15
 73
11
 74
0
 42
0.0000001
 43
0.0000001
 44
0.0000000001
 40
0.0
 40
0.0
 40
0.0
 40
0.0
 40
0.0225518296
 40
0.0719275034
 40
0.1511143258
 40
0.260560291
 40
0.4003234491
 40
0.570349437
 40
0.7704425963
 40
1.0
 40
1.0
 40
1.0
 40
1.0
 10
3.600964394
 20
1.1521936256
 30
0.0
 10
3.600964473
 20
1.1521182427
 30
0.0
 10
3.6007091169
 20
1.1519618881
 30
0.0
 10
3.6002600125
 20
1.1518398402
 30
0.0
 10
3.5994599628
 20
1.1516727624
 30
0.0
 10
3.5983817257
 20
1.1515198927
 30
0.0
 10
3.5969862767
 20
1.1513572608
 30
0.0
 10
3.5952906589
 20
1.1511964641
 30
0.0
 10
3.5932922634
 20
1.1510341468
 30
0.0
 10
3.5918597615
 20
1.1509327416
 30
0.0
 10
3.5910941552
 20
1.1508813184
 30
0.0
  0
SPLINE
  5
48F
100
AcDbEntity
  8
0
100
AcDbSpline
 62
7
  6
CONTINUOUS
 70
0
 71
3
 72
11
 73
7
 74
0
 42
0.0000001
 43
0.0000001
 44
0.0000000001
 40
0.0
 40
0.0
 40
0.0
 40
0.0
 40
0.1749205588
 40
0.4045917952
 40
0.6823635396
 40
1.0
 40
1.0
 40
1.0
 40
1.0
 10
3.5910941552
 20
1.1508813184
 30
0.0
 10
3.5876639244
 20
1.1506509212
 30
0.0
 10
3.5797223362
 20
1.1502325487
 30
0.0
 10
3.5663224052
 20
1.1496770444
 30
0.0
 10
3.5501155149
 20
1.1491165203
 30
0.0
 10
3.5384185318
 20
1.1487605035
 30
0.0
 10
3.5321782431
 20
1.1485780376
 30
0.0
  0
LINE
  5
490
100
AcDbEntity
  8
0
100
AcDbLine
 62
7
  6
CONTINUOUS
 10
3.5321782431
 20
1.1485780376
 11
3.5206313869
 21
1.1482483483
  0
SPLINE
  5
491
100
AcDbEntity
  8
0
100
AcDbSpline
 62
7
  6
CONTINUOUS
 70
0
 71
3
 72
13
 73
9
 74
0
 42
0.0000001
 43
0.0000001
 44
0.0000000001
 40
0.0
 40
0.0
 40
0.0
 40
0.0
 40
0.0424221924
 40
0.1080507924
 40
0.1974705806
 40
0.3108228232
 40
0.608695277
 40
1.0
 40
1.0
 40
1.0
 40
1.0
 10
3.6135636798
 20
1.1449980266
 30
0.0
 10
3.6134681259
 20
1.1450528146
 30
0.0
 10
3.6131994262
 20
1.1451435
 30
0.0
 10
3.6127010915
 20
1.1452599555
 30
0.0
 10
3.6120133387
 20
1.1453774636
 30
0.0
 10
3.6107255103
 20
1.1455529121
 30
0.0
 10
3.6086514408
 20
1.1457604078
 30
0.0
 10
3.6068675481
 20
1.1459000708
 30
0.0
 10
3.6058541522
 20
1.1459727487
 30
0.0
  0
SPLINE
  5
492
100
AcDbEntity
  8
0
100
AcDbSpline
 62
7
  6
CONTINUOUS
 70
0
 71
3
 72
14
 73
10
 74
0
 42
0.0000001
 43
0.0000001
 44
0.0000000001
 40
0.0
 40
0.0
 40
0.0
 40
0.0
 40
0.0405198863
 40
0.1048380893
 40
0.1934288545
 40
0.3063816471
 40
0.4436731011
 40
0.6052339105
 40
1.0
 40
1.0
 40
1.0
 40
1.0
 10
3.6008455074
 20
1.1338162919
 30
0.0
 10
3.6007316086
 20
1.1337493447
 30
0.0
 10
3.6004024405
 20
1.1336420706
 30
0.0
 10
3.5997888365
 20
1.1335036364
 30
0.0
 10
3.5989319902
 20
1.1333643072
 30
0.0
 10
3.5978366552
 20
1.133222182
 30
0.0
 10
3.5965013353
 20
1.1330794328
 30
0.0
 10
3.5942490928
 20
1.1328742554
 30
0.0
 10
3.5924397948
 20
1.1327423114
 30
0.0
 10
3.5911555505
 20
1.1326558362
 30
0.0
  0
SPLINE
  5
493
100
AcDbEntity
  8
0
100
AcDbSpline
 62
7
  6
CONTINUOUS
 70
0
 71
3
 72
11
 73
7
 74
0
 42
0.0000001
 43
0.0000001
 44
0.0000000001
 40
0.0
 40
0.0
 40
0.0
 40
0.0
 40
0.1709087474
 40
0.4006791288
 40
0.6810040094
 40
1.0
 40
1.0
 40
1.0
 40
1.0
 10
3.5911555505
 20
1.1326558362
 30
0.0
 10
3.5871436397
 20
1.1323856926
 30
0.0
 10
3.5777281285
 20
1.1319067129
 30
0.0
 10
3.5617186514
 20
1.1312734719
 30
0.0
 10
3.5422227359
 20
1.130635897
 30
0.0
 10
3.5281283367
 20
1.1302279328
 30
0.0
 10
3.5206261975
 20
1.1300183483
 30
0.0
  0
SPLINE
  5
494
100
AcDbEntity
  8
0
100
AcDbSpline
 62
7
  6
CONTINUOUS
 70
0
 71
3
 72
13
 73
9
 74
0
 42
0.0000001
 43
0.0000001
 44
0.0000000001
 40
0.0
 40
0.0
 40
0.0
 40
0.0
 40
0.0419802585
 40
0.1072742605
 40
0.1964871183
 40
0.3097675011
 40
0.6079026507
 40
1.0
 40
1.0
 40
1.0
 40
1.0
 10
3.6135690631
 20
1.1411622705
 30
0.0
 10
3.6134749761
 20
1.1411070672
 30
0.0
 10
3.613208074
 20
1.141016112
 30
0.0
 10
3.6127121175
 20
1.1408993328
 30
0.0
 10
3.6120254216
 20
1.1407814886
 30
0.0
 10
3.6107367119
 20
1.1406053231
 30
0.0
 10
3.608658452
 20
1.1403970842
 30
0.0
 10
3.6068704159
 20
1.1402570283
 30
0.0
 10
3.6058541574
 20
1.1401841533
 30
0.0
  0
LINE
  5
495
100
AcDbEntity
  8
0
100
AcDbLine
 62
7
  6
CONTINUOUS
 10
3.5946222328
 20
1.1395496554
 11
3.5483846001
 21
1.1379615986
  0
SPLINE
  5
496
100
AcDbEntity
  8
0
100
AcDbSpline
 62
7
  6
CONTINUOUS
 70
0
 71
3
 72
15
 73
11
 74
0
 42
0.0000001
 43
0.0000001
 44
0.0000000001
 40
0.0
 40
0.0
 40
0.0
 40
0.0
 40
0.0221935487
 40
0.0430672851
 40
0.0712692243
 40
0.1502380293
 40
0.2596204004
 40
0.399459641
 40
0.5696831582
 40
1.0
 40
1.0
 40
1.0
 40
1.0
 10
3.6009697579
 20
1.131361253
 30
0.0
 10
3.6009731193
 20
1.1312875338
 30
0.0
 10
3.6008172305
 20
1.1311868047
 30
0.0
 10
3.6006114753
 20
1.1311056465
 30
0.0
 10
3.6001951028
 20
1.1309822289
 30
0.0
 10
3.5994929415
 20
1.1308460572
 30
0.0
 10
3.5984107281
 20
1.1306860601
 30
0.0
 10
3.5970259622
 20
1.1305267066
 30
0.0
 10
3.5945747197
 20
1.1302927674
 30
0.0
 10
3.5925831651
 20
1.1301469653
 30
0.0
 10
3.5911555505
 20
1.1300508362
 30
0.0
  0
SPLINE
  5
497
100
AcDbEntity
  8
0
100
AcDbSpline
 62
7
  6
CONTINUOUS
 70
0
 71
3
 72
11
 73
7
 74
0
 42
0.0000001
 43
0.0000001
 44
0.0000000001
 40
0.0
 40
0.0
 40
0.0
 40
0.0
 40
0.1709087474
 40
0.4006791288
 40
0.6810040094
 40
1.0
 40
1.0
 40
1.0
 40
1.0
 10
3.5911555505
 20
1.1300508362
 30
0.0
 10
3.5871436397
 20
1.1297806926
 30
0.0
 10
3.5777281285
 20
1.1293017129
 30
0.0
 10
3.5617186514
 20
1.1286684719
 30
0.0
 10
3.5422227359
 20
1.128030897
 30
0.0
 10
3.5281283367
 20
1.1276229328
 30
0.0
 10
3.5206261975
 20
1.1274133483
 30
0.0
  0
LINE
  5
498
100
AcDbEntity
  8
0
100
AcDbLine
 62
7
  6
CONTINUOUS
 10
3.204896324
 20
0.9154817764
 11
3.2024386712
 21
1.0208326384
  0
SPLINE
  5
499
100
AcDbEntity
  8
0
100
AcDbSpline
 62
7
  6
CONTINUOUS
 70
0
 71
3
 72
13
 73
9
 74
0
 42
0.0000001
 43
0.0000001
 44
0.0000000001
 40
0.0
 40
0.0
 40
0.0
 40
0.0
 40
0.3828478193
 40
0.6784630634
 40
0.792828161
 40
0.8846264969
 40
0.9536981982
 40
1.0
 40
1.0
 40
1.0
 40
1.0
 10
3.2008016875
 20
1.0678368585
 30
0.0
 10
3.2006868254
 20
1.0702136342
 30
0.0
 10
3.2004658863
 20
1.0744247405
 30
0.0
 10
3.2001397441
 20
1.0793422476
 30
0.0
 10
3.199865214
 20
1.0824488333
 30
0.0
 10
3.1996800662
 20
1.0841500537
 30
0.0
 10
3.1994963296
 20
1.0854239929
 30
0.0
 10
3.1993551875
 20
1.0861292156
 30
0.0
 10
3.1992708921
 20
1.0864043771
 30
0.0
  0
SPLINE
  5
49A
100
AcDbEntity
  8
0
100
AcDbSpline
 62
7
  6
CONTINUOUS
 70
0
 71
3
 72
13
 73
9
 74
0
 42
0.0000001
 43
0.0000001
 44
0.0000000001
 40
0.0
 40
0.0
 40
0.0
 40
0.0
 40
0.0426867643
 40
0.1085152679
 40
0.1980585323
 40
0.3114534921
 40
0.6091687274
 40
1.0
 40
1.0
 40
1.0
 40
1.0
 10
3.6135603963
 20
1.1241649008
 30
0.0
 10
3.6134639753
 20
1.1242194461
 30
0.0
 10
3.6131942007
 20
1.1243099748
 30
0.0
 10
3.6126944555
 20
1.1244262411
 30
0.0
 10
3.612006077
 20
1.1245435476
 30
0.0
 10
3.6107187867
 20
1.1247185602
 30
0.0
 10
3.6086472333
 20
1.1249255943
 30
0.0
 10
3.6068658278
 20
1.1250650159
 30
0.0
 10
3.605854148
 20
1.1251375756
 30
0.0
  0
SPLINE
  5
49B
100
AcDbEntity
  8
0
100
AcDbSpline
 62
7
  6
CONTINUOUS
 70
0
 71
3
 72
20
 73
16
 74
0
 42
0.0000001
 43
0.0000001
 44
0.0000000001
 40
0.0
 40
0.0
 40
0.0
 40
0.0
 40
0.2269373887
 40
0.4271668254
 40
0.599171836
 40
0.7414435353
 40
0.8010251619
 40
0.8528185872
 40
0.8967885482
 40
0.9329055257
 40
0.9611522316
 40
0.9815427132
 40
0.9888257535
 40
0.9942199759
 40
1.0
 40
1.0
 40
1.0
 40
1.0
 10
3.2089972826
 20
0.7469019609
 30
0.0
 10
3.2090955818
 20
0.7441747439
 30
0.0
 10
3.2092899359
 20
0.7390415991
 30
0.0
 10
3.209598677
 20
0.731842959
 30
0.0
 10
3.2099064536
 20
0.7256634757
 30
0.0
 10
3.2101740205
 20
0.7211755646
 30
0.0
 10
3.2103941024
 20
0.718133255
 30
0.0
 10
3.210548676
 20
0.7162716434
 30
0.0
 10
3.2107028768
 20
0.7146928943
 30
0.0
 10
3.2108549399
 20
0.7133997499
 30
0.0
 10
3.2110076799
 20
0.7123896288
 30
0.0
 10
3.2111376104
 20
0.7117341344
 30
0.0
 10
3.2112554844
 20
0.711346349
 30
0.0
 10
3.2113330032
 20
0.7111535828
 30
0.0
 10
3.2114299652
 20
0.7110100297
 30
0.0
 10
3.2114993906
 20
0.7110133861
 30
0.0
  0
LINE
  5
49C
100
AcDbEntity
  8
0
100
AcDbLine
 62
7
  6
CONTINUOUS
 10
3.2199603657
 20
0.7670149121
 11
3.2196485058
 21
0.7795408193
  0
LINE
  5
49D
100
AcDbEntity
  8
0
100
AcDbLine
 62
7
  6
CONTINUOUS
 10
3.2174636068
 20
0.8829939583
 11
3.2171480067
 21
0.8989285714
  0
SPLINE
  5
49E
100
AcDbEntity
  8
0
100
AcDbSpline
 62
7
  6
CONTINUOUS
 70
0
 71
3
 72
12
 73
8
 74
0
 42
0.0000001
 43
0.0000001
 44
0.0000000001
 40
0.0
 40
0.0
 40
0.0
 40
0.0
 40
0.4253163706
 40
0.7315029245
 40
0.9196549894
 40
0.9713035366
 40
1.0
 40
1.0
 40
1.0
 40
1.0
 10
3.224179122
 20
0.6997052202
 30
0.0
 10
3.2241220505
 20
0.6991369149
 30
0.0
 10
3.2240133884
 20
0.6981586815
 30
0.0
 10
3.2238329188
 20
0.6969419102
 30
0.0
 10
3.2236651042
 20
0.6962170585
 30
0.0
 10
3.2235285631
 20
0.6958907998
 30
0.0
 10
3.2234367139
 20
0.6958071491
 30
0.0
 10
3.2233981787
 20
0.6958067832
 30
0.0
  0
LINE
  5
49F
100
AcDbEntity
  8
0
100
AcDbLine
 62
7
  6
CONTINUOUS
 10
3.2449603657
 20
0.7670149121
 11
3.2446473309
 21
0.7795408041
  0
LINE
  5
4A0
100
AcDbEntity
  8
0
100
AcDbLine
 62
7
  6
CONTINUOUS
 10
3.2214715585
 20
0.8989285714
 11
3.2217827008
 21
0.8829867864
  0
LINE
  5
4A1
100
AcDbEntity
  8
0
100
AcDbLine
 62
7
  6
CONTINUOUS
 10
3.2239722337
 20
0.779527948
 11
3.2242842089
 21
0.7670036007
  0
SPLINE
  5
4A2
100
AcDbEntity
  8
0
100
AcDbSpline
 62
7
  6
CONTINUOUS
 70
0
 71
3
 72
13
 73
9
 74
0
 42
0.0000001
 43
0.0000001
 44
0.0000000001
 40
0.0
 40
0.0
 40
0.0
 40
0.0
 40
0.0427548813
 40
0.1085424339
 40
0.1978905458
 40
0.3109635898
 40
0.6084018343
 40
1.0
 40
1.0
 40
1.0
 40
1.0
 10
3.7733794488
 20
1.1019028447
 30
0.0
 10
3.7733130522
 20
1.1017864025
 30
0.0
 10
3.773202623
 20
1.101460749
 30
0.0
 10
3.7730608176
 20
1.1008578775
 30
0.0
 10
3.7729176296
 20
1.1000283036
 30
0.0
 10
3.7727037619
 20
1.0984760225
 30
0.0
 10
3.7724510102
 20
1.0959731764
 30
0.0
 10
3.772281259
 20
1.0938196988
 30
0.0
 10
3.7721928514
 20
1.0925951747
 30
0.0
  0
LINE
  5
4A3
100
AcDbEntity
  8
0
100
AcDbLine
 62
7
  6
CONTINUOUS
 10
3.7605472561
 20
0.6999863033
 11
3.7601159514
 21
0.696940965
  0
SPLINE
  5
4A4
100
AcDbEntity
  8
0
100
AcDbSpline
 62
7
  6
CONTINUOUS
 70
0
 71
3
 72
10
 73
6
 74
0
 42
0.0000001
 43
0.0000001
 44
0.0000000001
 40
0.0
 40
0.0
 40
0.0
 40
0.0
 40
0.6991385002
 40
0.8917526027
 40
1.0
 40
1.0
 40
1.0
 40
1.0
 10
3.7601159514
 20
0.696940965
 30
0.0
 10
3.760056467
 20
0.6966523386
 30
0.0
 10
3.7599677954
 20
0.6962794933
 30
0.0
 10
3.7598038115
 20
0.6958991145
 30
0.0
 10
3.7596937719
 20
0.6958035053
 30
0.0
 10
3.7596481449
 20
0.6958036164
 30
0.0
  0
SPLINE
  5
4A5
100
AcDbEntity
  8
0
100
AcDbSpline
 62
7
  6
CONTINUOUS
 70
0
 71
3
 72
14
 73
10
 74
0
 42
0.0000001
 43
0.0000001
 44
0.0000000001
 40
0.0
 40
0.0
 40
0.0
 40
0.0
 40
0.0421721252
 40
0.1076159213
 40
0.1969458509
 40
0.3102638119
 40
0.4474309233
 40
0.6082553664
 40
1.0
 40
1.0
 40
1.0
 40
1.0
 10
3.750693479
 20
0.7111680961
 30
0.0
 10
3.7506205346
 20
0.7112929275
 30
0.0
 10
3.7505000256
 20
0.7116460652
 30
0.0
 10
3.7503453519
 20
0.7123019309
 30
0.0
 10
3.7501893898
 20
0.713208888
 30
0.0
 10
3.7500308231
 20
0.714362855
 30
0.0
 10
3.7498714588
 20
0.7157641501
 30
0.0
 10
3.749642642
 20
0.7181177324
 30
0.0
 10
3.7494950485
 20
0.7200065763
 30
0.0
 10
3.7493985382
 20
0.7213461469
 30
0.0
  0
LINE
  5
4A6
100
AcDbEntity
  8
0
100
AcDbLine
 62
7
  6
CONTINUOUS
 10
3.7493985382
 20
0.7213461469
 11
3.748503006
 21
0.7373214512
  0
SPLINE
  5
4A7
100
AcDbEntity
  8
0
100
AcDbSpline
 62
7
  6
CONTINUOUS
 70
0
 71
3
 72
9
 73
5
 74
0
 42
0.0000001
 43
0.0000001
 44
0.0000000001
 40
0.0
 40
0.0
 40
0.0
 40
0.0
 40
0.4484868583
 40
1.0
 40
1.0
 40
1.0
 40
1.0
 10
3.7480552461
 20
0.7478349791
 30
0.0
 10
3.7476222007
 20
0.7587665794
 30
0.0
 10
3.746826491
 20
0.7831475586
 30
0.0
 10
3.74616277
 20
0.8075320272
 30
0.0
 10
3.7458148194
 20
0.8209808752
 30
0.0
  0
LINE
  5
4A8
100
AcDbEntity
  8
0
100
AcDbLine
 62
7
  6
CONTINUOUS
 10
3.7458148194
 20
0.8209808752
 11
3.7453663713
 21
0.838683454
  0
LINE
  5
4A9
100
AcDbEntity
  8
0
100
AcDbLine
 62
7
  6
CONTINUOUS
 10
3.7422233637
 20
0.969330076
 11
3.7417738052
 21
0.9866371227
  0
LINE
  5
4AA
100
AcDbEntity
  8
0
100
AcDbLine
 62
7
  6
CONTINUOUS
 10
3.7417738052
 20
0.9866371227
 11
3.7399745252
 21
1.0452214296
  0
SPLINE
  5
4AB
100
AcDbEntity
  8
0
100
AcDbSpline
 62
7
  6
CONTINUOUS
 70
0
 71
3
 72
10
 73
6
 74
0
 42
0.0000001
 43
0.0000001
 44
0.0000000001
 40
0.0
 40
0.0
 40
0.0
 40
0.0
 40
0.5989292005
 40
0.8253885385
 40
1.0
 40
1.0
 40
1.0
 40
1.0
 10
3.7399745252
 20
1.0452214296
 30
0.0
 10
3.7397141756
 20
1.0521639193
 30
0.0
 10
3.7393255267
 20
1.0617307924
 30
0.0
 10
3.738679478
 20
1.0733125178
 30
0.0
 10
3.7383506595
 20
1.0779536715
 30
0.0
 10
3.7381735109
 20
1.0799713417
 30
0.0
  0
SPLINE
  5
4AC
100
AcDbEntity
  8
0
100
AcDbSpline
 62
7
  6
CONTINUOUS
 70
0
 71
3
 72
14
 73
10
 74
0
 42
0.0000001
 43
0.0000001
 44
0.0000000001
 40
0.0
 40
0.0
 40
0.0
 40
0.0
 40
0.4272041409
 40
0.7348686001
 40
0.8438708849
 40
0.9232191656
 40
0.9520156059
 40
0.9738766223
 40
1.0
 40
1.0
 40
1.0
 40
1.0
 10
3.7381735109
 20
1.0799713417
 30
0.0
 10
3.7380855424
 20
1.0809732771
 30
0.0
 10
3.7379177865
 20
1.0826954409
 30
0.0
 10
3.7376649787
 20
1.0846666166
 30
0.0
 10
3.7374434719
 20
1.0858146921
 30
0.0
 10
3.7373171726
 20
1.0863089291
 30
0.0
 10
3.7372048879
 20
1.0865976937
 30
0.0
 10
3.7371257691
 20
1.0867526653
 30
0.0
 10
3.7370321248
 20
1.0868523235
 30
0.0
 10
3.7369706256
 20
1.0868515828
 30
0.0
  0
SPLINE
  5
4AD
100
AcDbEntity
  8
0
100
AcDbSpline
 62
7
  6
CONTINUOUS
 70
0
 71
3
 72
13
 73
9
 74
0
 42
0.0000001
 43
0.0000001
 44
0.0000000001
 40
0.0
 40
0.0
 40
0.0
 40
0.0
 40
0.0443215706
 40
0.1112568848
 40
0.2013118033
 40
0.3146195198
 40
0.6109817062
 40
1.0
 40
1.0
 40
1.0
 40
1.0
 10
3.7594827103
 20
0.6959466115
 30
0.0
 10
3.7594226855
 20
0.6960501431
 30
0.0
 10
3.7593207803
 20
0.6963358904
 30
0.0
 10
3.7591901193
 20
0.6968627256
 30
0.0
 10
3.7590580237
 20
0.6975813099
 30
0.0
 10
3.7588615378
 20
0.6989161437
 30
0.0
 10
3.7586285242
 20
0.7010608391
 30
0.0
 10
3.758472028
 20
0.7029047892
 30
0.0
 10
3.7583906722
 20
0.7039520303
 30
0.0
  0
LINE
  5
4AE
100
AcDbEntity
  8
0
100
AcDbLine
 62
7
  6
CONTINUOUS
 10
3.7583906722
 20
0.7039520303
 11
3.7575280413
 21
0.718683242
  0
SPLINE
  5
4AF
100
AcDbEntity
  8
0
100
AcDbSpline
 62
7
  6
CONTINUOUS
 70
0
 71
3
 72
12
 73
8
 74
0
 42
0.0000001
 43
0.0000001
 44
0.0000000001
 40
0.0
 40
0.0
 40
0.0
 40
0.0
 40
0.0789652553
 40
0.1768671137
 40
0.4192543568
 40
0.7030146282
 40
1.0
 40
1.0
 40
1.0
 40
1.0
 10
3.7575280413
 20
0.718683242
 30
0.0
 10
3.7572598776
 20
0.7243575302
 30
0.0
 10
3.7567548633
 20
0.7370713048
 30
0.0
 10
3.7557746292
 20
0.7672158632
 30
0.0
 10
3.7546225858
 20
0.8120944813
 30
0.0
 10
3.7532913899
 20
0.8712941782
 30
0.0
 10
3.7523943201
 20
0.9130623873
 30
0.0
 10
3.7519210366
 20
0.9344217486
 30
0.0
  0
SPLINE
  5
4B0
100
AcDbEntity
  8
0
100
AcDbSpline
 62
7
  6
CONTINUOUS
 70
0
 71
3
 72
13
 73
9
 74
0
 42
0.0000001
 43
0.0000001
 44
0.0000000001
 40
0.0
 40
0.0
 40
0.0
 40
0.0
 40
0.0440341945
 40
0.1106930732
 40
0.2005283438
 40
0.3137287188
 40
0.610409099
 40
1.0
 40
1.0
 40
1.0
 40
1.0
 10
3.745579784
 20
1.1019034528
 30
0.0
 10
3.7455184333
 20
1.1017962029
 30
0.0
 10
3.74541451
 20
1.1015002961
 30
0.0
 10
3.7452812366
 20
1.1009544565
 30
0.0
 10
3.7451465354
 20
1.1002089731
 30
0.0
 10
3.744945982
 20
1.0988213215
 30
0.0
 10
3.7447085708
 20
1.0965898654
 30
0.0
 10
3.7445490057
 20
1.0946708869
 30
0.0
 10
3.7444659609
 20
1.0935808753
 30
0.0
  0
SPLINE
  5
4B1
100
AcDbEntity
  8
0
100
AcDbSpline
 62
7
  6
CONTINUOUS
 70
0
 71
3
 72
19
 73
15
 74
0
 42
0.0000001
 43
0.0000001
 44
0.0000000001
 40
0.0
 40
0.0
 40
0.0
 40
0.0
 40
0.2274220078
 40
0.4274971888
 40
0.5989071237
 40
0.7406210641
 40
0.8001304007
 40
0.8519683174
 40
0.8960588135
 40
0.9323317512
 40
0.9607295397
 40
0.9812472989
 40
0.9940495369
 40
1.0
 40
1.0
 40
1.0
 40
1.0
 10
3.2295859551
 20
1.0519527503
 30
0.0
 10
3.2294889594
 20
1.0546101874
 30
0.0
 10
3.2292974972
 20
1.0596051847
 30
0.0
 10
3.2289935617
 20
1.0666015623
 30
0.0
 10
3.2286907425
 20
1.0725946823
 30
0.0
 10
3.2284270933
 20
1.0769440663
 30
0.0
 10
3.2282109075
 20
1.0798950608
 30
0.0
 10
3.2280584576
 20
1.0817065407
 30
0.0
 10
3.2279076548
 20
1.0832440561
 30
0.0
 10
3.227755231
 20
1.0845095467
 30
0.0
 10
3.2276119291
 20
1.0854881117
 30
0.0
 10
3.227455196
 20
1.086210965
 30
0.0
 10
3.2273399144
 20
1.086621451
 30
0.0
 10
3.2271922997
 20
1.0868479855
 30
0.0
 10
3.2271227225
 20
1.0868482652
 30
0.0
  0
LINE
  5
4B2
100
AcDbEntity
  8
0
100
AcDbLine
 62
7
  6
CONTINUOUS
 10
3.2398750894
 20
1.0087543989
 11
3.2394961842
 21
1.0244969146
  0
SPLINE
  5
4B3
100
AcDbEntity
  8
0
100
AcDbSpline
 62
7
  6
CONTINUOUS
 70
0
 71
3
 72
11
 73
7
 74
0
 42
0.0000001
 43
0.0000001
 44
0.0000000001
 40
0.0
 40
0.0
 40
0.0
 40
0.0
 40
0.3349037916
 40
0.6157607302
 40
0.8384631647
 40
1.0
 40
1.0
 40
1.0
 40
1.0
 10
3.238738736
 20
1.0524462128
 30
0.0
 10
3.2385921449
 20
1.0573475344
 30
0.0
 10
3.2383057249
 20
1.066358687
 30
0.0
 10
3.237845255
 20
1.0786266661
 30
0.0
 10
3.2373885661
 20
1.0883539359
 30
0.0
 10
3.237040556
 20
1.0939698572
 30
0.0
 10
3.236844812
 20
1.0963268941
 30
0.0
  0
SPLINE
  5
4B4
100
AcDbEntity
  8
0
100
AcDbSpline
 62
7
  6
CONTINUOUS
 70
0
 71
3
 72
11
 73
7
 74
0
 42
0.0000001
 43
0.0000001
 44
0.0000000001
 40
0.0
 40
0.0
 40
0.0
 40
0.0
 40
0.371740109
 40
0.6624707871
 40
0.8716127303
 40
1.0
 40
1.0
 40
1.0
 40
1.0
 10
3.236844812
 20
1.0963268941
 30
0.0
 10
3.2367878416
 20
1.0970128991
 30
0.0
 10
3.2366773574
 20
1.0982343257
 30
0.0
 10
3.2364967801
 20
1.0998397033
 30
0.0
 10
3.2363151622
 20
1.1009866239
 30
0.0
 10
3.2361780452
 20
1.1016014095
 30
0.0
 10
3.2360872425
 20
1.1018211257
 30
0.0
  0
SPLINE
  5
4B5
100
AcDbEntity
  8
0
100
AcDbSpline
 62
7
  6
CONTINUOUS
 70
0
 71
3
 72
15
 73
11
 74
0
 42
0.0000001
 43
0.0000001
 44
0.0000000001
 40
0.0
 40
0.0
 40
0.0
 40
0.0
 40
0.0231704629
 40
0.0442579605
 40
0.0725690317
 40
0.1516124313
 40
0.2610620434
 40
0.4008983985
 40
0.5708728023
 40
1.0
 40
1.0
 40
1.0
 40
1.0
 10
3.747749253
 20
0.7110150626
 30
0.0
 10
3.7476679995
 20
0.7110136007
 30
0.0
 10
3.7475546315
 20
0.7111738735
 30
0.0
 10
3.7474614368
 20
0.7113951358
 30
0.0
 10
3.7473228165
 20
0.7118319555
 30
0.0
 10
3.7471689138
 20
0.712572523
 30
0.0
 10
3.7469889818
 20
0.7137123892
 30
0.0
 10
3.7468095071
 20
0.7151712457
 30
0.0
 10
3.7465461644
 20
0.7177500348
 30
0.0
 10
3.7463816934
 20
0.7198449433
 30
0.0
 10
3.7462735382
 20
0.7213461469
 30
0.0
  0
LINE
  5
4B6
100
AcDbEntity
  8
0
100
AcDbLine
 62
7
  6
CONTINUOUS
 10
3.7462735382
 20
0.7213461469
 11
3.745378006
 21
0.7373214512
  0
SPLINE
  5
4B7
100
AcDbEntity
  8
0
100
AcDbSpline
 62
7
  6
CONTINUOUS
 70
0
 71
3
 72
9
 73
5
 74
0
 42
0.0000001
 43
0.0000001
 44
0.0000000001
 40
0.0
 40
0.0
 40
0.0
 40
0.0
 40
0.4484868583
 40
1.0
 40
1.0
 40
1.0
 40
1.0
 10
3.7449302461
 20
0.7478349791
 30
0.0
 10
3.7444972007
 20
0.7587665794
 30
0.0
 10
3.743701491
 20
0.7831475586
 30
0.0
 10
3.74303777
 20
0.8075320272
 30
0.0
 10
3.7426898194
 20
0.8209808752
 30
0.0
  0
LINE
  5
4B8
100
AcDbEntity
  8
0
100
AcDbLine
 62
7
  6
CONTINUOUS
 10
3.7426898194
 20
0.8209808752
 11
3.7422413713
 21
0.838683454
  0
LINE
  5
4B9
100
AcDbEntity
  8
0
100
AcDbLine
 62
7
  6
CONTINUOUS
 10
3.7390983637
 20
0.969330076
 11
3.7386488052
 21
0.9866371227
  0
LINE
  5
4BA
100
AcDbEntity
  8
0
100
AcDbLine
 62
7
  6
CONTINUOUS
 10
3.7386488052
 20
0.9866371227
 11
3.7368495252
 21
1.0452214296
  0
SPLINE
  5
4BB
100
AcDbEntity
  8
0
100
AcDbSpline
 62
7
  6
CONTINUOUS
 70
0
 71
3
 72
10
 73
6
 74
0
 42
0.0000001
 43
0.0000001
 44
0.0000000001
 40
0.0
 40
0.0
 40
0.0
 40
0.0
 40
0.5989292005
 40
0.8253885385
 40
1.0
 40
1.0
 40
1.0
 40
1.0
 10
3.7368495252
 20
1.0452214296
 30
0.0
 10
3.7365891756
 20
1.0521639193
 30
0.0
 10
3.7362005267
 20
1.0617307924
 30
0.0
 10
3.735554478
 20
1.0733125178
 30
0.0
 10
3.7352256595
 20
1.0779536715
 30
0.0
 10
3.7350485109
 20
1.0799713417
 30
0.0
  0
SPLINE
  5
4BC
100
AcDbEntity
  8
0
100
AcDbSpline
 62
7
  6
CONTINUOUS
 70
0
 71
3
 72
11
 73
7
 74
0
 42
0.0000001
 43
0.0000001
 44
0.0000000001
 40
0.0
 40
0.0
 40
0.0
 40
0.0
 40
0.3589937529
 40
0.6453502891
 40
0.8589151794
 40
1.0
 40
1.0
 40
1.0
 40
1.0
 10
3.7350485109
 20
1.0799713417
 30
0.0
 10
3.7349802986
 20
1.0807482598
 30
0.0
 10
3.7348476991
 20
1.0821438899
 30
0.0
 10
3.7346301386
 20
1.083998002
 30
0.0
 10
3.7344139802
 20
1.0853728112
 30
0.0
 10
3.7342478067
 20
1.0861283071
 30
0.0
 10
3.7341473591
 20
1.0864178843
 30
0.0
  0
SPLINE
  5
4BD
100
AcDbEntity
  8
0
100
AcDbSpline
 62
7
  6
CONTINUOUS
 70
0
 71
3
 72
12
 73
8
 74
0
 42
0.0000001
 43
0.0000001
 44
0.0000000001
 40
0.0
 40
0.0
 40
0.0
 40
0.0
 40
0.0988219517
 40
0.1815436402
 40
0.290371524
 40
0.5896796898
 40
1.0
 40
1.0
 40
1.0
 40
1.0
 10
3.7338456256
 20
1.0868515828
 30
0.0
 10
3.733783593
 20
1.0868508357
 30
0.0
 10
3.7336911538
 20
1.0867492789
 30
0.0
 10
3.7336119808
 20
1.086592607
 30
0.0
 10
3.7335002186
 20
1.0863014427
 30
0.0
 10
3.733374317
 20
1.0858045699
 30
0.0
 10
3.7332898341
 20
1.0853663823
 30
0.0
 10
3.7332458352
 20
1.0851125827
 30
0.0
  0
LINE
  5
4BE
100
AcDbEntity
  8
0
100
AcDbLine
 62
7
  6
CONTINUOUS
 10
3.2171480067
 20
0.8989285714
 11
3.2167653364
 21
0.9182410786
  0
LINE
  5
4BF
100
AcDbEntity
  8
0
100
AcDbLine
 62
7
  6
CONTINUOUS
 10
3.2148750894
 20
1.0087543989
 11
3.214496039
 21
1.0244969113
  0
LINE
  5
4C0
100
AcDbEntity
  8
0
100
AcDbLine
 62
7
  6
CONTINUOUS
 10
3.2129812167
 20
1.0748422751
 11
3.2122235754
 21
1.0908818141
  0
LINE
  5
4C1
100
AcDbEntity
  8
0
100
AcDbLine
 62
7
  6
CONTINUOUS
 10
3.2122235754
 20
1.0908818141
 11
3.2118448073
 21
1.0963268939
  0
SPLINE
  5
4C2
100
AcDbEntity
  8
0
100
AcDbSpline
 62
7
  6
CONTINUOUS
 70
0
 71
3
 72
11
 73
7
 74
0
 42
0.0000001
 43
0.0000001
 44
0.0000000001
 40
0.0
 40
0.0
 40
0.0
 40
0.0
 40
0.3717400302
 40
0.6624706575
 40
0.8716126178
 40
1.0
 40
1.0
 40
1.0
 40
1.0
 10
3.2118448073
 20
1.0963268939
 30
0.0
 10
3.2117878378
 20
1.0970128989
 30
0.0
 10
3.2116773556
 20
1.0982343256
 30
0.0
 10
3.2114967805
 20
1.0998397034
 30
0.0
 10
3.211315162
 20
1.1009866242
 30
0.0
 10
3.2111780431
 20
1.1016014099
 30
0.0
 10
3.2110872393
 20
1.1018211259
 30
0.0
  0
SPLINE
  5
4C3
100
AcDbEntity
  8
0
100
AcDbSpline
 62
7
  6
CONTINUOUS
 70
0
 71
3
 72
11
 73
7
 74
0
 42
0.0000001
 43
0.0000001
 44
0.0000000001
 40
0.0
 40
0.0
 40
0.0
 40
0.0
 40
0.3717444731
 40
0.6624765431
 40
0.8716169608
 40
1.0
 40
1.0
 40
1.0
 40
1.0
 10
3.2142747792
 20
1.0963271723
 30
0.0
 10
3.2143317489
 20
1.0970131577
 30
0.0
 10
3.2144422316
 20
1.0982345454
 30
0.0
 10
3.2146228061
 20
1.0998398664
 30
0.0
 10
3.2148044233
 20
1.1009867307
 30
0.0
 10
3.2149415388
 20
1.1016014814
 30
0.0
 10
3.2150323438
 20
1.1018211778
 30
0.0
  0
LINE
  5
4C4
100
AcDbEntity
  8
0
100
AcDbLine
 62
7
  6
CONTINUOUS
 10
3.1993448074
 20
0.7015302489
 11
3.1989660277
 21
0.697869923
  0
LINE
  5
4C5
100
AcDbEntity
  8
0
100
AcDbLine
 62
7
  6
CONTINUOUS
 10
3.1989660277
 20
0.697869923
 11
3.1985872393
 21
0.696036017
  0
LINE
  5
4C6
100
AcDbEntity
  8
0
100
AcDbLine
 62
7
  6
CONTINUOUS
 10
3.2002215585
 20
0.7345969944
 11
3.2009491604
 21
0.7155922329
  0
LINE
  5
4C7
100
AcDbEntity
  8
0
100
AcDbLine
 62
7
  6
CONTINUOUS
 10
3.2013155458
 20
0.7083542633
 11
3.2016808425
 21
0.7027212756
  0
LINE
  5
4C8
100
AcDbEntity
  8
0
100
AcDbLine
 62
7
  6
CONTINUOUS
 10
3.2016808425
 20
0.7027212756
 11
3.2024092669
 21
0.6964289035
  0
LINE
  5
4C9
100
AcDbEntity
  8
0
100
AcDbLine
 62
7
  6
CONTINUOUS
 10
3.2024092669
 20
0.6964289035
 11
3.202721379
 21
0.6958067785
  0
LINE
  5
4CA
100
AcDbEntity
  8
0
100
AcDbLine
 62
7
  6
CONTINUOUS
 10
3.1989710622
 20
0.7795279384
 11
3.1992842088
 21
0.7670036047
  0
SPLINE
  5
4CB
100
AcDbEntity
  8
0
100
AcDbSpline
 62
7
  6
CONTINUOUS
 70
0
 71
3
 72
10
 73
6
 74
0
 42
0.0000001
 43
0.0000001
 44
0.0000000001
 40
0.0
 40
0.0
 40
0.0
 40
0.0
 40
0.6273197163
 40
0.845521446
 40
1.0
 40
1.0
 40
1.0
 40
1.0
 10
3.7768477879
 20
0.7190809693
 30
0.0
 10
3.7767239821
 20
0.717556168
 30
0.0
 10
3.776541974
 20
0.715501022
 30
0.0
 10
3.7762138514
 20
0.7130847162
 30
0.0
 10
3.7760486013
 20
0.7121896009
 30
0.0
 10
3.7759550469
 20
0.7118246817
 30
0.0
  0
LINE
  5
4CC
100
AcDbEntity
  8
0
100
AcDbLine
 62
7
  6
CONTINUOUS
 10
3.7759550469
 20
0.7118246817
 11
3.7757232866
 21
0.7111778042
  0
SPLINE
  5
4CD
100
AcDbEntity
  8
0
100
AcDbSpline
 62
7
  6
CONTINUOUS
 70
0
 71
3
 72
14
 73
10
 74
0
 42
0.0000001
 43
0.0000001
 44
0.0000000001
 40
0.0
 40
0.0
 40
0.0
 40
0.0
 40
0.0251261981
 40
0.0760560617
 40
0.1560695779
 40
0.2657018291
 40
0.4050154411
 40
0.5739319691
 40
1.0
 40
1.0
 40
1.0
 40
1.0
 10
3.7755416492
 20
0.7110315793
 30
0.0
 10
3.77546603
 20
0.7110369213
 30
0.0
 10
3.7753081102
 20
0.7112604403
 30
0.0
 10
3.775173851
 20
0.711685068
 30
0.0
 10
3.7750035155
 20
0.7124050153
 30
0.0
 10
3.7748435322
 20
0.7133792396
 30
0.0
 10
3.7746756589
 20
0.7146309652
 30
0.0
 10
3.7744341575
 20
0.7168323397
 30
0.0
 10
3.7742821005
 20
0.7186217018
 30
0.0
 10
3.7741825768
 20
0.7199033231
 30
0.0
  0
SPLINE
  5
4CE
100
AcDbEntity
  8
0
100
AcDbSpline
 62
7
  6
CONTINUOUS
 70
0
 71
3
 72
11
 73
7
 74
0
 42
0.0000001
 43
0.0000001
 44
0.0000000001
 40
0.0
 40
0.0
 40
0.0
 40
0.0
 40
0.1655075866
 40
0.3909955771
 40
0.6717749898
 40
1.0
 40
1.0
 40
1.0
 40
1.0
 10
3.7741825768
 20
0.7199033231
 30
0.0
 10
3.7739068088
 20
0.7234545402
 30
0.0
 10
3.7734160285
 20
0.731855919
 30
0.0
 10
3.7727688539
 20
0.7462986947
 30
0.0
 10
3.7721169894
 20
0.7642463218
 30
0.0
 10
3.7717068489
 20
0.7773463625
 30
0.0
 10
3.7714972826
 20
0.7844070225
 30
0.0
  0
SPLINE
  5
4CF
100
AcDbEntity
  8
0
100
AcDbSpline
 62
7
  6
CONTINUOUS
 70
0
 71
3
 72
13
 73
9
 74
0
 42
0.0000001
 43
0.0000001
 44
0.0000000001
 40
0.0
 40
0.0
 40
0.0
 40
0.0
 40
0.0450183849
 40
0.1124865725
 40
0.2029487433
 40
0.3164920782
 40
0.6125945713
 40
1.0
 40
1.0
 40
1.0
 40
1.0
 10
3.7808360655
 20
1.1019130582
 30
0.0
 10
3.7808927423
 20
1.1018168196
 30
0.0
 10
3.7809900275
 20
1.1015523644
 30
0.0
 10
3.7811144736
 20
1.101065136
 30
0.0
 10
3.7812403459
 20
1.1004027731
 30
0.0
 10
3.7814272097
 20
1.0991762591
 30
0.0
 10
3.7816490385
 20
1.0972105916
 30
0.0
 10
3.7817983992
 20
1.0955214662
 30
0.0
 10
3.7818760493
 20
1.0945634807
 30
0.0
  0
LINE
  5
4D0
100
AcDbEntity
  8
0
100
AcDbLine
 62
7
  6
CONTINUOUS
 10
3.7818760493
 20
1.0945634807
 11
3.7827486327
 21
1.0801103177
  0
LINE
  5
4D1
100
AcDbEntity
  8
0
100
AcDbLine
 62
7
  6
CONTINUOUS
 10
3.7827486327
 20
1.0801103177
 11
3.7836179344
 21
1.05865936
  0
LINE
  5
4D2
100
AcDbEntity
  8
0
100
AcDbLine
 62
7
  6
CONTINUOUS
 10
3.7846451943
 20
1.025270901
 11
3.7849238052
 21
1.0152524614
  0
SPLINE
  5
4D3
100
AcDbEntity
  8
0
100
AcDbSpline
 62
7
  6
CONTINUOUS
 70
0
 71
3
 72
13
 73
9
 74
0
 42
0.0000001
 43
0.0000001
 44
0.0000000001
 40
0.0
 40
0.0
 40
0.0
 40
0.0
 40
0.0456476551
 40
0.1134553045
 40
0.2039748714
 40
0.3173772366
 40
0.6129364597
 40
1.0
 40
1.0
 40
1.0
 40
1.0
 10
3.7669336919
 20
0.6959413008
 30
0.0
 10
3.7669884401
 20
0.6960338243
 30
0.0
 10
3.7670830806
 20
0.6962863936
 30
0.0
 10
3.7672043682
 20
0.6967506676
 30
0.0
 10
3.7673270634
 20
0.697379434
 30
0.0
 10
3.767509027
 20
0.6985415949
 30
0.0
 10
3.7677251688
 20
0.7004045697
 30
0.0
 10
3.7678703971
 20
0.7020056774
 30
0.0
 10
3.7679458529
 20
0.7029141499
 30
0.0
  0
SPLINE
  5
4D4
100
AcDbEntity
  8
0
100
AcDbSpline
 62
7
  6
CONTINUOUS
 70
0
 71
3
 72
13
 73
9
 74
0
 42
0.0000001
 43
0.0000001
 44
0.0000000001
 40
0.0
 40
0.0
 40
0.0
 40
0.0
 40
0.3952628641
 40
0.6929099101
 40
0.8052492939
 40
0.8934586854
 40
0.9579638221
 40
1.0
 40
1.0
 40
1.0
 40
1.0
 10
3.7796999105
 20
1.0971738105
 30
0.0
 10
3.7797645002
 20
1.0978197811
 30
0.0
 10
3.7798884583
 20
1.0989510076
 30
0.0
 10
3.7800742963
 20
1.1002613731
 30
0.0
 10
3.7802313998
 20
1.1010642432
 30
0.0
 10
3.7803368008
 20
1.1014876545
 30
0.0
 10
3.7804402788
 20
1.1017892204
 30
0.0
 10
3.7805232481
 20
1.1019477326
 30
0.0
 10
3.7805707133
 20
1.1019978702
 30
0.0
  0
SPLINE
  5
4D5
100
AcDbEntity
  8
0
100
AcDbSpline
 62
7
  6
CONTINUOUS
 70
0
 71
3
 72
13
 73
9
 74
0
 42
0.0000001
 43
0.0000001
 44
0.0000000001
 40
0.0
 40
0.0
 40
0.0
 40
0.0
 40
0.0446445948
 40
0.1118499541
 40
0.2021748271
 40
0.3156946541
 40
0.6120403082
 40
1.0
 40
1.0
 40
1.0
 40
1.0
 10
3.7530378395
 20
1.1019096536
 30
0.0
 10
3.7530962191
 20
1.1018094786
 30
0.0
 10
3.7531959417
 20
1.101533639
 30
0.0
 10
3.7533235859
 20
1.1010250449
 30
0.0
 10
3.7534526409
 20
1.1003322842
 30
0.0
 10
3.7536444189
 20
1.0990475778
 30
0.0
 10
3.7538719382
 20
1.0969873687
 30
0.0
 10
3.7540250483
 20
1.09521682
 30
0.0
 10
3.7541046332
 20
1.0942124127
 30
0.0
  0
LINE
  5
4D6
100
AcDbEntity
  8
0
100
AcDbLine
 62
7
  6
CONTINUOUS
 10
3.7541046332
 20
1.0942124127
 11
3.7549675673
 21
1.0796914242
  0
SPLINE
  5
4D7
100
AcDbEntity
  8
0
100
AcDbSpline
 62
7
  6
CONTINUOUS
 70
0
 71
3
 72
10
 73
6
 74
0
 42
0.0000001
 43
0.0000001
 44
0.0000000001
 40
0.0
 40
0.0
 40
0.0
 40
0.0
 40
0.1955865974
 40
0.4300818213
 40
1.0
 40
1.0
 40
1.0
 40
1.0
 10
3.7549675673
 20
1.0796914242
 30
0.0
 10
3.7551681495
 20
1.0754926706
 30
0.0
 10
3.755554442
 20
1.0662572889
 30
0.0
 10
3.7563084936
 20
1.0447784806
 30
0.0
 10
3.7567966405
 20
1.0274967578
 30
0.0
 10
3.7571238052
 20
1.0152524614
 30
0.0
  0
SPLINE
  5
4D8
100
AcDbEntity
  8
0
100
AcDbSpline
 62
7
  6
CONTINUOUS
 70
0
 71
3
 72
13
 73
9
 74
0
 42
0.0000001
 43
0.0000001
 44
0.0000000001
 40
0.0
 40
0.0
 40
0.0
 40
0.0
 40
0.4053577137
 40
0.7058733482
 40
0.8170221661
 40
0.9023977485
 40
0.962673146
 40
1.0
 40
1.0
 40
1.0
 40
1.0
 10
3.7519481249
 20
1.097644294
 30
0.0
 10
3.7520117721
 20
1.0982498206
 30
0.0
 10
3.752133448
 20
1.0993028958
 30
0.0
 10
3.752317338
 20
1.1005175719
 30
0.0
 10
3.7524733677
 20
1.1012471761
 30
0.0
 10
3.7525777673
 20
1.1016203467
 30
0.0
 10
3.7526782618
 20
1.101873634
 30
0.0
 10
3.7527635315
 20
1.1020015503
 30
0.0
 10
3.7528107717
 20
1.1020317463
 30
0.0
  0
SPLINE
  5
4D9
100
AcDbEntity
  8
0
100
AcDbSpline
 62
7
  6
CONTINUOUS
 70
0
 71
3
 72
14
 73
10
 74
0
 42
0.0000001
 43
0.0000001
 44
0.0000000001
 40
0.0
 40
0.0
 40
0.0
 40
0.0
 40
0.0401271764
 40
0.1042576104
 40
0.1928226675
 40
0.305838688
 40
0.4432115221
 40
0.6048037104
 40
1.0
 40
1.0
 40
1.0
 40
1.0
 10
3.7252370031
 20
1.1019120517
 30
0.0
 10
3.7253142611
 20
1.1017796088
 30
0.0
 10
3.725437121
 20
1.1013952136
 30
0.0
 10
3.7255957687
 20
1.1006777763
 30
0.0
 10
3.7257553815
 20
1.099673593
 30
0.0
 10
3.7259183446
 20
1.0983890521
 30
0.0
 10
3.7260820052
 20
1.0968231075
 30
0.0
 10
3.7263174665
 20
1.0941811399
 30
0.0
 10
3.7264687979
 20
1.0920587899
 30
0.0
 10
3.7265677552
 20
1.0905519563
 30
0.0
  0
LINE
  5
4DA
100
AcDbEntity
  8
0
100
AcDbLine
 62
7
  6
CONTINUOUS
 10
3.7301728377
 20
0.9813607498
 11
3.7304653972
 21
0.9689194259
  0
LINE
  5
4DB
100
AcDbEntity
  8
0
100
AcDbLine
 62
7
  6
CONTINUOUS
 10
3.7304653972
 20
0.9689194259
 11
3.7308551792
 21
0.9518752446
  0
LINE
  5
4DC
100
AcDbEntity
  8
0
100
AcDbLine
 62
7
  6
CONTINUOUS
 10
3.7308551792
 20
0.9518752446
 11
3.7312445884
 21
0.9344217486
  0
SPLINE
  5
4DD
100
AcDbEntity
  8
0
100
AcDbSpline
 62
7
  6
CONTINUOUS
 70
0
 71
3
 72
13
 73
9
 74
0
 42
0.0000001
 43
0.0000001
 44
0.0000000001
 40
0.0
 40
0.0
 40
0.0
 40
0.0
 40
0.0453415573
 40
0.1131178168
 40
0.2037551186
 40
0.3173389148
 40
0.6131787433
 40
1.0
 40
1.0
 40
1.0
 40
1.0
 10
3.7784859335
 20
0.7112018925
 30
0.0
 10
3.7784216615
 20
0.7113183719
 30
0.0
 10
3.7783117724
 20
0.7116345848
 30
0.0
 10
3.7781705953
 20
0.7122148078
 30
0.0
 10
3.7780278805
 20
0.7130007701
 30
0.0
 10
3.7778160774
 20
0.7144525413
 30
0.0
 10
3.777564617
 20
0.7167759758
 30
0.0
 10
3.777395447
 20
0.7187717709
 30
0.0
 10
3.7773075768
 20
0.7199033231
 30
0.0
  0
LINE
  5
4DE
100
AcDbEntity
  8
0
100
AcDbLine
 62
7
  6
CONTINUOUS
 10
3.7773075768
 20
0.7199033231
 11
3.7764193467
 21
0.7348679276
  0
LINE
  5
4DF
100
AcDbEntity
  8
0
100
AcDbLine
 62
7
  6
CONTINUOUS
 10
3.7764193467
 20
0.7348679276
 11
3.7755246312
 21
0.7566113315
  0
SPLINE
  5
4E0
100
AcDbEntity
  8
0
100
AcDbSpline
 62
7
  6
CONTINUOUS
 70
0
 71
3
 72
14
 73
10
 74
0
 42
0.0000001
 43
0.0000001
 44
0.0000000001
 40
0.0
 40
0.0
 40
0.0
 40
0.0
 40
0.0419844522
 40
0.1074453329
 40
0.1967701101
 40
0.3099958828
 40
0.447053472
 40
0.6078308828
 40
1.0
 40
1.0
 40
1.0
 40
1.0
 10
3.7872749651
 20
0.6959592774
 30
0.0
 10
3.787203076
 20
0.696088741
 30
0.0
 10
3.7870858224
 20
0.6964533953
 30
0.0
 10
3.7869346368
 20
0.6971293351
 30
0.0
 10
3.7867822925
 20
0.6980634323
 30
0.0
 10
3.7866272165
 20
0.6992509771
 30
0.0
 10
3.7864714896
 20
0.700692654
 30
0.0
 10
3.7862478533
 20
0.7031160896
 30
0.0
 10
3.7861039171
 20
0.7050612632
 30
0.0
 10
3.7860098888
 20
0.706441289
 30
0.0
  0
LINE
  5
4E1
100
AcDbEntity
  8
0
100
AcDbLine
 62
7
  6
CONTINUOUS
 10
3.7860098888
 20
0.706441289
 11
3.7855753446
 21
0.7137451505
  0
LINE
  5
4E2
100
AcDbEntity
  8
0
100
AcDbLine
 62
7
  6
CONTINUOUS
 10
3.7834716873
 20
0.7724148522
 11
3.7833980067
 21
0.7751272363
  0
SPLINE
  5
4E3
100
AcDbEntity
  8
0
100
AcDbSpline
 62
9
  6
CONTINUOUS
 70
0
 71
3
 72
9
 73
5
 74
0
 42
0.0000001
 43
0.0000001
 44
0.0000000001
 40
0.0
 40
0.0
 40
0.0
 40
0.0
 40
0.5085618214
 40
1.0
 40
1.0
 40
1.0
 40
1.0
 10
2.7984321222
 20
1.1804700681
 30
0.0
 10
2.7962148158
 20
1.1845490285
 30
0.0
 10
2.7927559523
 20
1.193104149
 30
0.0
 10
2.7915301124
 20
1.202267035
 30
0.0
 10
2.7915301124
 20
1.2067533809
 30
0.0
  0
SPLINE
  5
4E4
100
AcDbEntity
  8
0
100
AcDbSpline
 62
7
  6
CONTINUOUS
 70
0
 71
3
 72
13
 73
9
 74
0
 42
0.0000001
 43
0.0000001
 44
0.0000000001
 40
0.0
 40
0.0
 40
0.0
 40
0.0
 40
0.0435023626
 40
0.1099073113
 40
0.1996988737
 40
0.3129793701
 40
0.6098722241
 40
1.0
 40
1.0
 40
1.0
 40
1.0
 10
3.6135728416
 20
1.1866624716
 30
0.0
 10
3.6134871723
 20
1.1867128084
 30
0.0
 10
3.613248003
 20
1.1867974365
 30
0.0
 10
3.6128057953
 20
1.1869061146
 30
0.0
 10
3.612199465
 20
1.1870160906
 30
0.0
 10
3.6110694623
 20
1.1871801269
 30
0.0
 10
3.609251229
 20
1.1873746672
 30
0.0
 10
3.6076874977
 20
1.187505308
 30
0.0
 10
3.6067990036
 20
1.1875732097
 30
0.0
  0
SPLINE
  5
4E5
100
AcDbEntity
  8
0
100
AcDbSpline
 62
7
  6
CONTINUOUS
 70
0
 71
3
 72
11
 73
7
 74
0
 42
0.0000001
 43
0.0000001
 44
0.0000000001
 40
0.0
 40
0.0
 40
0.0
 40
0.0
 40
0.1305409496
 40
0.3404446367
 40
0.6304251004
 40
1.0
 40
1.0
 40
1.0
 40
1.0
 10
3.3452662913
 20
1.1835938622
 30
0.0
 10
3.345393691
 20
1.1836663169
 30
0.0
 10
3.3457639567
 20
1.1837795299
 30
0.0
 10
3.3464541391
 20
1.1839268546
 30
0.0
 10
3.3474205306
 20
1.1840746668
 30
0.0
 10
3.3481552447
 20
1.184164746
 30
0.0
 10
3.3485675648
 20
1.1842112232
 30
0.0
  0
LINE
  5
4E6
100
AcDbEntity
  8
0
100
AcDbLine
 62
7
  6
CONTINUOUS
 10
3.3485675648
 20
1.1842112232
 11
3.3526057713
 21
1.1845810044
  0
LINE
  5
4E7
100
AcDbEntity
  8
0
100
AcDbLine
 62
7
  6
CONTINUOUS
 10
3.3526057713
 20
1.1845810044
 11
3.3649537273
 21
1.1853157063
  0
SPLINE
  5
4E8
100
AcDbEntity
  8
0
100
AcDbSpline
 62
7
  6
CONTINUOUS
 70
0
 71
3
 72
11
 73
7
 74
0
 42
0.0000001
 43
0.0000001
 44
0.0000000001
 40
0.0
 40
0.0
 40
0.0
 40
0.0
 40
0.1903186299
 40
0.4289782507
 40
0.7033544012
 40
1.0
 40
1.0
 40
1.0
 40
1.0
 10
3.3649537273
 20
1.1853157063
 30
0.0
 10
3.3709069858
 20
1.1856054473
 30
0.0
 10
3.3843314013
 20
1.1861369655
 30
0.0
 10
3.4063471343
 20
1.1868506382
 30
0.0
 10
3.4316941469
 20
1.1875718083
 30
0.0
 10
3.4495708871
 20
1.1880439342
 30
0.0
 10
3.4588579312
 20
1.1882860889
 30
0.0
  0
SPLINE
  5
4E9
100
AcDbEntity
  8
0
100
AcDbSpline
 62
7
  6
CONTINUOUS
 70
0
 71
3
 72
12
 73
8
 74
0
 42
0.0000001
 43
0.0000001
 44
0.0000000001
 40
0.0
 40
0.0
 40
0.0
 40
0.0
 40
0.3092062237
 40
0.5901160802
 40
0.8252422356
 40
0.9209218622
 40
1.0
 40
1.0
 40
1.0
 40
1.0
 10
3.4872921814
 20
1.1890244289
 30
0.0
 10
3.4976656436
 20
1.189295038
 30
0.0
 10
3.5174631079
 20
1.1898182546
 30
0.0
 10
3.5451467248
 20
1.1906191676
 30
0.0
 10
3.5656645056
 20
1.1913137528
 30
0.0
 10
3.5794078689
 20
1.1918988317
 30
0.0
 10
3.5852653037
 20
1.1921975553
 30
0.0
 10
3.5879145826
 20
1.1923535929
 30
0.0
  0
SPLINE
  5
4EA
100
AcDbEntity
  8
0
100
AcDbSpline
 62
7
  6
CONTINUOUS
 70
0
 71
3
 72
11
 73
7
 74
0
 42
0.0000001
 43
0.0000001
 44
0.0000000001
 40
0.0
 40
0.0
 40
0.0
 40
0.0
 40
0.3538990451
 40
0.6397039335
 40
0.8556100605
 40
1.0
 40
1.0
 40
1.0
 40
1.0
 10
3.5879145826
 20
1.1923535929
 30
0.0
 10
3.5893475269
 20
1.1924379907
 30
0.0
 10
3.591936921
 20
1.1926022124
 30
0.0
 10
3.5953976084
 20
1.1928695919
 30
0.0
 10
3.598004074
 20
1.1931353544
 30
0.0
 10
3.5994535668
 20
1.1933382777
 30
0.0
 10
3.6000261299
 20
1.1934613979
 30
0.0
  0
LINE
  5
4EB
100
AcDbEntity
  8
0
100
AcDbLine
 62
7
  6
CONTINUOUS
 10
3.6000261299
 20
1.1934613979
 11
3.6009508979
 21
1.1938631448
  0
SPLINE
  5
4EC
100
AcDbEntity
  8
0
100
AcDbSpline
 62
7
  6
CONTINUOUS
 70
0
 71
3
 72
13
 73
9
 74
0
 42
0.0000001
 43
0.0000001
 44
0.0000000001
 40
0.0
 40
0.0
 40
0.0
 40
0.0
 40
0.0440646155
 40
0.1108567513
 40
0.2008703565
 40
0.314215232
 40
0.6107826985
 40
1.0
 40
1.0
 40
1.0
 40
1.0
 10
3.3325523963
 20
1.1762510847
 30
0.0
 10
3.3326392935
 20
1.17630168
 30
0.0
 10
3.3328802478
 20
1.1763868875
 30
0.0
 10
3.3333248128
 20
1.1764956329
 30
0.0
 10
3.3339321879
 20
1.1766051114
 30
0.0
 10
3.3350612717
 20
1.1767675481
 30
0.0
 10
3.3368753656
 20
1.1769594674
 30
0.0
 10
3.3384349307
 20
1.1770885064
 30
0.0
 10
3.3393205616
 20
1.1771557097
 30
0.0
  0
LINE
  5
4ED
100
AcDbEntity
  8
0
100
AcDbLine
 62
7
  6
CONTINUOUS
 10
3.3393205616
 20
1.1771557097
 11
3.3445963565
 21
1.1775018554
  0
SPLINE
  5
4EE
100
AcDbEntity
  8
0
100
AcDbSpline
 62
7
  6
CONTINUOUS
 70
0
 71
3
 72
15
 73
11
 74
0
 42
0.0000001
 43
0.0000001
 44
0.0000000001
 40
0.0
 40
0.0
 40
0.0
 40
0.0
 40
0.0894218741
 40
0.2051257108
 40
0.3400130807
 40
0.4857913924
 40
0.6334846282
 40
0.7740120126
 40
0.8987403261
 40
1.0
 40
1.0
 40
1.0
 40
1.0
 10
3.3512799463
 20
1.1778494408
 30
0.0
 10
3.3582960992
 20
1.1781810164
 30
0.0
 10
3.3743982002
 20
1.1787732141
 30
0.0
 10
3.4010941582
 20
1.1795604748
 30
0.0
 10
3.4322184749
 20
1.1803551257
 30
0.0
 10
3.4658560623
 20
1.1811542
 30
0.0
 10
3.4999367852
 20
1.181953909
 30
0.0
 10
3.5323636941
 20
1.1827507598
 30
0.0
 10
3.5611421501
 20
1.1835424692
 30
0.0
 10
3.5788838685
 20
1.1841291405
 30
0.0
 10
3.5868313089
 20
1.1844478639
 30
0.0
  0
LINE
  5
4EF
100
AcDbEntity
  8
0
100
AcDbLine
 62
7
  6
CONTINUOUS
 10
3.6015299781
 20
1.1851422416
 11
3.6068038614
 21
1.185489607
  0
LINE
  5
4F0
100
AcDbEntity
  8
0
100
AcDbLine
 62
7
  6
CONTINUOUS
 10
3.6068038614
 20
1.185489607
 11
3.6129086839
 21
1.1861844155
  0
LINE
  5
4F1
100
AcDbEntity
  8
0
100
AcDbLine
 62
7
  6
CONTINUOUS
 10
3.6129086839
 20
1.1861844155
 11
3.6136847826
 21
1.186531223
  0
SPLINE
  5
4F2
100
AcDbEntity
  8
0
100
AcDbSpline
 62
7
  6
CONTINUOUS
 70
0
 71
3
 72
13
 73
9
 74
0
 42
0.0000001
 43
0.0000001
 44
0.0000000001
 40
0.0
 40
0.0
 40
0.0
 40
0.0
 40
0.0446524295
 40
0.1118654206
 40
0.2021279712
 40
0.3155518448
 40
0.6117773401
 40
1.0
 40
1.0
 40
1.0
 40
1.0
 10
3.613560661
 20
1.1658391269
 30
0.0
 10
3.6134723111
 20
1.1658896686
 30
0.0
 10
3.6132293849
 20
1.1659750454
 30
0.0
 10
3.6127822721
 20
1.1660836482
 30
0.0
 10
3.6121737863
 20
1.166192634
 30
0.0
 10
3.6110457701
 20
1.166353737
 30
0.0
 10
3.6092363528
 20
1.1665436951
 30
0.0
 10
3.6076814404
 20
1.1666715484
 30
0.0
 10
3.6067990036
 20
1.1667382097
 30
0.0
  0
SPLINE
  5
4F3
100
AcDbEntity
  8
0
100
AcDbSpline
 62
7
  6
CONTINUOUS
 70
0
 71
3
 72
13
 73
9
 74
0
 42
0.0000001
 43
0.0000001
 44
0.0000000001
 40
0.0
 40
0.0
 40
0.0
 40
0.0
 40
0.0428909607
 40
0.1089117376
 40
0.198759923
 40
0.312433984
 40
0.6102467878
 40
1.0
 40
1.0
 40
1.0
 40
1.0
 10
3.6008348248
 20
1.1731800993
 30
0.0
 10
3.6007384075
 20
1.1732368573
 30
0.0
 10
3.6004673122
 20
1.1733317576
 30
0.0
 10
3.5999642264
 20
1.1734532497
 30
0.0
 10
3.5992710129
 20
1.1735757837
 30
0.0
 10
3.5979762515
 20
1.1737585353
 30
0.0
 10
3.5958966685
 20
1.1739747846
 30
0.0
 10
3.5941091239
 20
1.1741207124
 30
0.0
 10
3.5930952755
 20
1.1741966312
 30
0.0
  0
LINE
  5
4F4
100
AcDbEntity
  8
0
100
AcDbLine
 62
7
  6
CONTINUOUS
 10
3.3458640234
 20
1.1830956378
 11
3.345136324
 21
1.1834492035
  0
SPLINE
  5
4F5
100
AcDbEntity
  8
0
100
AcDbSpline
 62
7
  6
CONTINUOUS
 70
0
 71
3
 72
13
 73
9
 74
0
 42
0.0000001
 43
0.0000001
 44
0.0000000001
 40
0.0
 40
0.0
 40
0.0
 40
0.0
 40
0.043247451
 40
0.1094102091
 40
0.1990011562
 40
0.3121822573
 40
0.6094341491
 40
1.0
 40
1.0
 40
1.0
 40
1.0
 10
3.3453170053
 20
1.1627652868
 30
0.0
 10
3.3454222458
 20
1.162824154
 30
0.0
 10
3.3457141773
 20
1.1629225885
 30
0.0
 10
3.3462535478
 20
1.1630490273
 30
0.0
 10
3.3469932878
 20
1.1631767135
 30
0.0
 10
3.3483742815
 20
1.1633671898
 30
0.0
 10
3.350597068
 20
1.163592204
 30
0.0
 10
3.3525088731
 20
1.1637434082
 30
0.0
 10
3.3535950243
 20
1.1638221873
 30
0.0
  0
SPLINE
  5
4F6
100
AcDbEntity
  8
0
100
AcDbSpline
 62
7
  6
CONTINUOUS
 70
0
 71
3
 72
11
 73
7
 74
0
 42
0.0000001
 43
0.0000001
 44
0.0000000001
 40
0.0
 40
0.0
 40
0.0
 40
0.0
 40
0.1666964376
 40
0.3952470781
 40
0.6765838495
 40
1.0
 40
1.0
 40
1.0
 40
1.0
 10
3.3535950243
 20
1.1638221873
 30
0.0
 10
3.3573227178
 20
1.1640925587
 30
0.0
 10
3.3661729118
 20
1.1645657864
 30
0.0
 10
3.3813295989
 20
1.1651885664
 30
0.0
 10
3.4000026496
 20
1.1658178451
 30
0.0
 10
3.4135558365
 20
1.1662181408
 30
0.0
 10
3.4208041973
 20
1.1664240224
 30
0.0
  0
LINE
  5
4F7
100
AcDbEntity
  8
0
100
AcDbLine
 62
7
  6
CONTINUOUS
 10
3.4208041973
 20
1.1664240224
 11
3.434052768
 21
1.1667920147
  0
LINE
  5
4F8
100
AcDbEntity
  8
0
100
AcDbLine
 62
7
  6
CONTINUOUS
 10
3.434052768
 20
1.1667920147
 11
3.4758120025
 21
1.1678913597
  0
SPLINE
  5
4F9
100
AcDbEntity
  8
0
100
AcDbSpline
 62
7
  6
CONTINUOUS
 70
0
 71
3
 72
20
 73
16
 74
0
 42
0.0000001
 43
0.0000001
 44
0.0000000001
 40
0.0
 40
0.0
 40
0.0
 40
0.0
 40
0.1849381172
 40
0.3629977557
 40
0.5282779665
 40
0.6756740638
 40
0.7411418568
 40
0.8003571723
 40
0.8527529169
 40
0.8978070232
 40
0.935241237
 40
0.9648634733
 40
0.9864905133
 40
0.9942617671
 40
1.0
 40
1.0
 40
1.0
 40
1.0
 10
3.4758120025
 20
1.1678913597
 30
0.0
 10
3.4834937038
 20
1.1680905288
 30
0.0
 10
3.4985713856
 20
1.1684819123
 30
0.0
 10
3.5205136913
 20
1.1690726491
 30
0.0
 10
3.5408955047
 20
1.1696633174
 30
0.0
 10
3.5565994804
 20
1.1701704241
 30
0.0
 10
3.5678969465
 20
1.170584894
 30
0.0
 10
3.5752486618
 20
1.1708826617
 30
0.0
 10
3.5817514849
 20
1.1711792347
 30
0.0
 10
3.5873481797
 20
1.1714753904
 30
0.0
 10
3.5919974352
 20
1.1717689242
 30
0.0
 10
3.5956706108
 20
1.1720605748
 30
0.0
 10
3.598110852
 20
1.1723147194
 30
0.0
 10
3.5995542634
 20
1.172534181
 30
0.0
 10
3.6001051837
 20
1.1726453801
 30
0.0
 10
3.6003357041
 20
1.1727062711
 30
0.0
  0
LINE
  5
4FA
100
AcDbEntity
  8
0
100
AcDbLine
 62
7
  6
CONTINUOUS
 10
3.6003357041
 20
1.1727062711
 11
3.6009584097
 21
1.1730340575
  0
SPLINE
  5
4FB
100
AcDbEntity
  8
0
100
AcDbSpline
 62
7
  6
CONTINUOUS
 70
0
 71
3
 72
13
 73
9
 74
0
 42
0.0000001
 43
0.0000001
 44
0.0000000001
 40
0.0
 40
0.0
 40
0.0
 40
0.0
 40
0.0434001257
 40
0.109669139
 40
0.1993168265
 40
0.312508577
 40
0.6096463371
 40
1.0
 40
1.0
 40
1.0
 40
1.0
 10
3.3325678074
 20
1.1554201505
 30
0.0
 10
3.3326640629
 20
1.1554734037
 30
0.0
 10
3.3329301699
 20
1.1555625662
 30
0.0
 10
3.3334214296
 20
1.1556771008
 30
0.0
 10
3.3340943837
 20
1.1557927609
 30
0.0
 10
3.3353497451
 20
1.1559652608
 30
0.0
 10
3.3373695961
 20
1.1561692371
 30
0.0
 10
3.3391067043
 20
1.1563064405
 30
0.0
 10
3.3400935363
 20
1.1563778925
 30
0.0
  0
SPLINE
  5
4FC
100
AcDbEntity
  8
0
100
AcDbSpline
 62
7
  6
CONTINUOUS
 70
0
 71
3
 72
10
 73
6
 74
0
 42
0.0000001
 43
0.0000001
 44
0.0000000001
 40
0.0
 40
0.0
 40
0.0
 40
0.0
 40
0.1953530912
 40
0.431343707
 40
1.0
 40
1.0
 40
1.0
 40
1.0
 10
3.3530019705
 20
1.1570947652
 30
0.0
 10
3.3574665538
 20
1.1572969805
 30
0.0
 10
3.3673272298
 20
1.1576813709
 30
0.0
 10
3.3901924312
 20
1.1584281459
 30
0.0
 10
3.4085943181
 20
1.1589156104
 30
0.0
 10
3.4215994906
 20
1.159245161
 30
0.0
  0
LINE
  5
4FD
100
AcDbEntity
  8
0
100
AcDbLine
 62
7
  6
CONTINUOUS
 10
3.4215994906
 20
1.159245161
 11
3.436017914
 21
1.1596035758
  0
LINE
  5
4FE
100
AcDbEntity
  8
0
100
AcDbLine
 62
7
  6
CONTINUOUS
 10
3.436017914
 20
1.1596035758
 11
3.4659757892
 21
1.1603203589
  0
LINE
  5
4FF
100
AcDbEntity
  8
0
100
AcDbLine
 62
7
  6
CONTINUOUS
 10
3.4659757892
 20
1.1603203589
 11
3.5254715745
 21
1.1617540543
  0
SPLINE
  5
500
100
AcDbEntity
  8
0
100
AcDbSpline
 62
7
  6
CONTINUOUS
 70
0
 71
3
 72
10
 73
6
 74
0
 42
0.0000001
 43
0.0000001
 44
0.0000000001
 40
0.0
 40
0.0
 40
0.0
 40
0.0
 40
0.5696839769
 40
0.805492595
 40
1.0
 40
1.0
 40
1.0
 40
1.0
 10
3.5254715745
 20
1.1617540543
 30
0.0
 10
3.5384203632
 20
1.1620832046
 30
0.0
 10
3.5567286277
 20
1.1625700451
 30
0.0
 10
3.5794535543
 20
1.1633160839
 30
0.0
 10
3.5892302461
 20
1.163702445
 30
0.0
 10
3.5936481112
 20
1.1639056871
 30
0.0
  0
SPLINE
  5
501
100
AcDbEntity
  8
0
100
AcDbSpline
 62
7
  6
CONTINUOUS
 70
0
 71
3
 72
11
 73
7
 74
0
 42
0.0000001
 43
0.0000001
 44
0.0000000001
 40
0.0
 40
0.0
 40
0.0
 40
0.0
 40
0.3583091326
 40
0.6453153444
 40
0.8594358962
 40
1.0
 40
1.0
 40
1.0
 40
1.0
 10
3.6007491208
 20
1.1642647156
 30
0.0
 10
3.6021993538
 20
1.1643462412
 30
0.0
 10
3.6048104642
 20
1.1645043262
 30
0.0
 10
3.6082857788
 20
1.1647599961
 30
0.0
 10
3.6108737859
 20
1.1650142094
 30
0.0
 10
3.6123009734
 20
1.1652088953
 30
0.0
 10
3.6128576701
 20
1.1653304941
 30
0.0
  0
LINE
  5
502
100
AcDbEntity
  8
0
100
AcDbLine
 62
7
  6
CONTINUOUS
 10
3.6128576701
 20
1.1653304941
 11
3.6136847826
 21
1.165696223
  0
LINE
  5
503
100
AcDbEntity
  8
0
100
AcDbLine
 62
7
  6
CONTINUOUS
 10
3.3332108815
 20
1.1937266275
 11
3.3324347826
 21
1.1933834198
  0
SPLINE
  5
504
100
AcDbEntity
  8
0
100
AcDbSpline
 62
7
  6
CONTINUOUS
 70
0
 71
3
 72
13
 73
9
 74
0
 42
0.0000001
 43
0.0000001
 44
0.0000000001
 40
0.0
 40
0.0
 40
0.0
 40
0.0
 40
0.0431829502
 40
0.109376211
 40
0.1990502645
 40
0.3123001979
 40
0.6093770031
 40
1.0
 40
1.0
 40
1.0
 40
1.0
 10
3.3325437648
 20
1.1932560493
 30
0.0
 10
3.3326288275
 20
1.193206027
 30
0.0
 10
3.3328670361
 20
1.1931219504
 30
0.0
 10
3.333307953
 20
1.1930134207
 30
0.0
 10
3.3339137022
 20
1.192903151
 30
0.0
 10
3.3350441781
 20
1.1927380395
 30
0.0
 10
3.33686459
 20
1.192541621
 30
0.0
 10
3.3384305412
 20
1.1924098256
 30
0.0
 10
3.3393205616
 20
1.1923414332
 30
0.0
  0
SPLINE
  5
505
100
AcDbEntity
  8
0
100
AcDbSpline
 62
7
  6
CONTINUOUS
 70
0
 71
3
 72
10
 73
6
 74
0
 42
0.0000001
 43
0.0000001
 44
0.0000000001
 40
0.0
 40
0.0
 40
0.0
 40
0.0
 40
0.2242491834
 40
0.4626091574
 40
1.0
 40
1.0
 40
1.0
 40
1.0
 10
2.7845153509
 20
0.7866157309
 30
0.0
 10
2.783504645
 20
0.7873406543
 30
0.0
 10
2.7815589582
 20
0.7890399212
 30
0.0
 10
2.7780780428
 20
0.7933868283
 30
0.0
 10
2.7762897053
 20
0.7973929268
 30
0.0
 10
2.7753930062
 20
0.8002354915
 30
0.0
  0
LINE
  5
506
100
AcDbEntity
  8
0
100
AcDbLine
 62
7
  6
CONTINUOUS
 10
3.6135777383
 20
1.1828414318
 11
3.6129079323
 21
1.1826255078
  0
LINE
  5
507
100
AcDbEntity
  8
0
100
AcDbLine
 62
7
  6
CONTINUOUS
 10
3.6129079323
 20
1.1826255078
 11
3.6067990036
 21
1.1819239332
  0
LINE
  5
508
100
AcDbEntity
  8
0
100
AcDbLine
 62
7
  6
CONTINUOUS
 10
3.6067990036
 20
1.1819239332
 11
3.6015232114
 21
1.1815747885
  0
SPLINE
  5
509
100
AcDbEntity
  8
0
100
AcDbSpline
 62
7
  6
CONTINUOUS
 70
0
 71
3
 72
16
 73
12
 74
0
 42
0.0000001
 43
0.0000001
 44
0.0000000001
 40
0.0
 40
0.0
 40
0.0
 40
0.0
 40
0.0945721731
 40
0.2185550623
 40
0.3626539754
 40
0.5160593831
 40
0.6672586325
 40
0.8049006365
 40
0.9186553553
 40
0.9638219912
 40
1.0
 40
1.0
 40
1.0
 40
1.0
 10
3.5948396223
 20
1.1812281703
 30
0.0
 10
3.5869559129
 20
1.1808577191
 30
0.0
 10
3.5687275206
 20
1.1802069314
 30
0.0
 10
3.5384752226
 20
1.179339635
 30
0.0
 10
3.5033111878
 20
1.1784680143
 30
0.0
 10
3.4658755098
 20
1.1775894616
 30
0.0
 10
3.4289787101
 20
1.1767130673
 30
0.0
 10
3.3953918654
 20
1.175841949
 30
0.0
 10
3.3706538161
 20
1.1750823419
 30
0.0
 10
3.3543845631
 20
1.174442303
 30
0.0
 10
3.3476037056
 20
1.1741145626
 30
0.0
 10
3.3445895848
 20
1.1739396345
 30
0.0
  0
LINE
  5
50A
100
AcDbEntity
  8
0
100
AcDbLine
 62
7
  6
CONTINUOUS
 10
3.3445895848
 20
1.1739396345
 11
3.3393157039
 21
1.1735900358
  0
LINE
  5
50B
100
AcDbEntity
  8
0
100
AcDbLine
 62
7
  6
CONTINUOUS
 10
3.3393157039
 20
1.1735900358
 11
3.3332108819
 21
1.1728868911
  0
LINE
  5
50C
100
AcDbEntity
  8
0
100
AcDbLine
 62
7
  6
CONTINUOUS
 10
3.3332108819
 20
1.1728868911
 11
3.3324347826
 21
1.1725484198
  0
SPLINE
  5
50D
100
AcDbEntity
  8
0
100
AcDbSpline
 62
7
  6
CONTINUOUS
 70
0
 71
3
 72
14
 73
10
 74
0
 42
0.0000001
 43
0.0000001
 44
0.0000000001
 40
0.0
 40
0.0
 40
0.0
 40
0.0
 40
0.0368649407
 40
0.0987916685
 40
0.1861314434
 40
0.2988829057
 40
0.436946348
 40
0.600073162
 40
1.0
 40
1.0
 40
1.0
 40
1.0
 10
3.3325407208
 20
1.1724250008
 30
0.0
 10
3.3326676714
 20
1.1723500278
 30
0.0
 10
3.3330529891
 20
1.1722376674
 30
0.0
 10
3.3337787814
 20
1.1720867102
 30
0.0
 10
3.3348176745
 20
1.1719351209
 30
0.0
 10
3.3361604442
 20
1.1717787883
 30
0.0
 10
3.3378089828
 20
1.1716233921
 30
0.0
 10
3.3406041489
 20
1.1714014365
 30
0.0
 10
3.3428517663
 20
1.1712601871
 30
0.0
 10
3.3444485269
 20
1.1711674572
 30
0.0
  0
SPLINE
  5
50E
100
AcDbEntity
  8
0
100
AcDbSpline
 62
7
  6
CONTINUOUS
 70
0
 71
3
 72
12
 73
8
 74
0
 42
0.0000001
 43
0.0000001
 44
0.0000000001
 40
0.0
 40
0.0
 40
0.0
 40
0.0
 40
0.0311984393
 40
0.084712286
 40
0.2748550383
 40
0.5800593176
 40
1.0
 40
1.0
 40
1.0
 40
1.0
 10
3.345136324
 20
1.1860542035
 30
0.0
 10
3.3451376313
 20
1.1860912723
 30
0.0
 10
3.3452108562
 20
1.1861786042
 30
0.0
 10
3.3455035927
 20
1.1863146883
 30
0.0
 10
3.3461443658
 20
1.18647644
 30
0.0
 10
3.347214429
 20
1.1866540872
 30
0.0
 10
3.3480714389
 20
1.1867602993
 30
0.0
 10
3.3485675648
 20
1.1868162232
 30
0.0
  0
LINE
  5
50F
100
AcDbEntity
  8
0
100
AcDbLine
 62
7
  6
CONTINUOUS
 10
3.3485675648
 20
1.1868162232
 11
3.3526057713
 21
1.1871860044
  0
LINE
  5
510
100
AcDbEntity
  8
0
100
AcDbLine
 62
7
  6
CONTINUOUS
 10
3.3526057713
 20
1.1871860044
 11
3.3649537273
 21
1.1879207063
  0
SPLINE
  5
511
100
AcDbEntity
  8
0
100
AcDbSpline
 62
7
  6
CONTINUOUS
 70
0
 71
3
 72
11
 73
7
 74
0
 42
0.0000001
 43
0.0000001
 44
0.0000000001
 40
0.0
 40
0.0
 40
0.0
 40
0.0
 40
0.1903186299
 40
0.4289782507
 40
0.7033544012
 40
1.0
 40
1.0
 40
1.0
 40
1.0
 10
3.3649537273
 20
1.1879207063
 30
0.0
 10
3.3709069858
 20
1.1882104473
 30
0.0
 10
3.3843314013
 20
1.1887419655
 30
0.0
 10
3.4063471343
 20
1.1894556382
 30
0.0
 10
3.4316941469
 20
1.1901768083
 30
0.0
 10
3.4495708871
 20
1.1906489342
 30
0.0
 10
3.4588579312
 20
1.1908910889
 30
0.0
  0
SPLINE
  5
512
100
AcDbEntity
  8
0
100
AcDbSpline
 62
7
  6
CONTINUOUS
 70
0
 71
3
 72
12
 73
8
 74
0
 42
0.0000001
 43
0.0000001
 44
0.0000000001
 40
0.0
 40
0.0
 40
0.0
 40
0.0
 40
0.3092062237
 40
0.5901160802
 40
0.8252422356
 40
0.9209218622
 40
1.0
 40
1.0
 40
1.0
 40
1.0
 10
3.4872921814
 20
1.1916294289
 30
0.0
 10
3.4976656436
 20
1.191900038
 30
0.0
 10
3.5174631079
 20
1.1924232546
 30
0.0
 10
3.5451467248
 20
1.1932241676
 30
0.0
 10
3.5656645056
 20
1.1939187528
 30
0.0
 10
3.5794078689
 20
1.1945038317
 30
0.0
 10
3.5852653037
 20
1.1948025553
 30
0.0
 10
3.5879145826
 20
1.1949585929
 30
0.0
  0
SPLINE
  5
513
100
AcDbEntity
  8
0
100
AcDbSpline
 62
7
  6
CONTINUOUS
 70
0
 71
3
 72
15
 73
11
 74
0
 42
0.0000001
 43
0.0000001
 44
0.0000000001
 40
0.0
 40
0.0
 40
0.0
 40
0.0
 40
0.0237087442
 40
0.0449319438
 40
0.0733412686
 40
0.1525940913
 40
0.2623148823
 40
0.4023315873
 40
0.5722542038
 40
1.0
 40
1.0
 40
1.0
 40
1.0
 10
3.6009584097
 20
1.1756390575
 30
0.0
 10
3.6009586858
 20
1.1757024181
 30
0.0
 10
3.6008381077
 20
1.1757917029
 30
0.0
 10
3.6006677363
 20
1.175865884
 30
0.0
 10
3.600335217
 20
1.1759750071
 30
0.0
 10
3.5997698216
 20
1.1760964156
 30
0.0
 10
3.5989003709
 20
1.1762380014
 30
0.0
 10
3.5977881954
 20
1.1763793782
 30
0.0
 10
3.5958273081
 20
1.1765865202
 30
0.0
 10
3.5942352268
 20
1.1767162696
 30
0.0
 10
3.5930952755
 20
1.1768016312
 30
0.0
  0
LINE
  5
514
100
AcDbEntity
  8
0
100
AcDbLine
 62
7
  6
CONTINUOUS
 10
3.3458640234
 20
1.1857006378
 11
3.3452585467
 21
1.1859079227
  0
SPLINE
  5
515
100
AcDbEntity
  8
0
100
AcDbSpline
 62
7
  6
CONTINUOUS
 70
0
 71
3
 72
14
 73
10
 74
0
 42
0.0000001
 43
0.0000001
 44
0.0000000001
 40
0.0
 40
0.0
 40
0.0
 40
0.0
 40
0.0243268847
 40
0.074784138
 40
0.1544460393
 40
0.2638917367
 40
0.4032807814
 40
0.5726404613
 40
1.0
 40
1.0
 40
1.0
 40
1.0
 10
3.3451786764
 20
1.1652229035
 30
0.0
 10
3.3451848003
 20
1.1652920984
 30
0.0
 10
3.3454007171
 20
1.1654302639
 30
0.0
 10
3.345797476
 20
1.165549375
 30
0.0
 10
3.346479777
 20
1.1657000013
 30
0.0
 10
3.3474012768
 20
1.1658418556
 30
0.0
 10
3.3485885057
 20
1.1659905723
 30
0.0
 10
3.350678595
 20
1.1662043873
 30
0.0
 10
3.3523778982
 20
1.1663389085
 30
0.0
 10
3.3535950243
 20
1.1664271873
 30
0.0
  0
SPLINE
  5
516
100
AcDbEntity
  8
0
100
AcDbSpline
 62
7
  6
CONTINUOUS
 70
0
 71
3
 72
10
 73
6
 74
0
 42
0.0000001
 43
0.0000001
 44
0.0000000001
 40
0.0
 40
0.0
 40
0.0
 40
0.0
 40
0.1768093621
 40
0.4057169229
 40
1.0
 40
1.0
 40
1.0
 40
1.0
 10
3.3535950243
 20
1.1664271873
 30
0.0
 10
3.3561680394
 20
1.1666138093
 30
0.0
 10
3.3620781183
 20
1.1669588508
 30
0.0
 10
3.3766533685
 20
1.1676313938
 30
0.0
 10
3.3886576056
 20
1.1680444442
 30
0.0
 10
3.3973241311
 20
1.1683233434
 30
0.0
  0
SPLINE
  5
517
100
AcDbEntity
  8
0
100
AcDbSpline
 62
7
  6
CONTINUOUS
 70
0
 71
3
 72
23
 73
19
 74
0
 42
0.0000001
 43
0.0000001
 44
0.0000000001
 40
0.0
 40
0.0
 40
0.0
 40
0.0
 40
0.1449603856
 40
0.3056552366
 40
0.4710582177
 40
0.5519250541
 40
0.6296331179
 40
0.7028655696
 40
0.7704475909
 40
0.8312244326
 40
0.8841092759
 40
0.9280444595
 40
0.9463898926
 40
0.9622501792
 40
0.9755805569
 40
0.9863377627
 40
0.9944831415
 40
1.0
 40
1.0
 40
1.0
 40
1.0
 10
3.3973241311
 20
1.1683233434
 30
0.0
 10
3.4071362329
 20
1.1686391085
 30
0.0
 10
3.4278275631
 20
1.1692392987
 30
0.0
 10
3.4597179819
 20
1.1700824474
 30
0.0
 10
3.4872698345
 20
1.1707906904
 30
0.0
 10
3.5092029636
 20
1.1713716129
 30
0.0
 10
3.5248957449
 20
1.1718041236
 30
0.0
 10
3.5396884818
 20
1.1722365563
 30
0.0
 10
3.5533340871
 20
1.1726679876
 30
0.0
 10
3.5656010057
 20
1.1730978326
 30
0.0
 10
3.5762654438
 20
1.1735252516
 30
0.0
 10
3.5840561507
 20
1.1738966854
 30
0.0
 10
3.5893392222
 20
1.1742036617
 30
0.0
 10
3.5925514137
 20
1.1744189877
 30
0.0
 10
3.5952482593
 20
1.1746334362
 30
0.0
 10
3.5974214454
 20
1.1748448081
 30
0.0
 10
3.5990613923
 20
1.1750546803
 30
0.0
 10
3.5999744743
 20
1.1752158538
 30
0.0
 10
3.6003357041
 20
1.1753112711
 30
0.0
  0
LINE
  5
518
100
AcDbEntity
  8
0
100
AcDbLine
 62
7
  6
CONTINUOUS
 10
3.6003357041
 20
1.1753112711
 11
3.6008314643
 21
1.1754914654
  0
SPLINE
  5
519
100
AcDbEntity
  8
0
100
AcDbSpline
 62
9
  6
CONTINUOUS
 70
0
 71
3
 72
19
 73
15
 74
0
 42
0.0000001
 43
0.0000001
 44
0.0000000001
 40
0.0
 40
0.0
 40
0.0
 40
0.0
 40
0.0533639869
 40
0.109520517
 40
0.1687287137
 40
0.2309073323
 40
0.3624756568
 40
0.5000013119
 40
0.6375267311
 40
0.7690944034
 40
0.8312725927
 40
0.8904803232
 40
0.9466364036
 40
1.0
 40
1.0
 40
1.0
 40
1.0
 10
2.991684083
 20
1.180463888
 30
0.0
 10
2.9897775889
 20
1.1769576547
 30
0.0
 10
2.9851550297
 20
1.1701316967
 30
0.0
 10
2.9763762569
 20
1.1609956014
 30
0.0
 10
2.9657769425
 20
1.1529169352
 30
0.0
 10
2.9492609451
 20
1.1435913264
 30
0.0
 10
2.9255219114
 20
1.1356580257
 30
0.0
 10
2.8950586109
 20
1.132472491
 30
0.0
 10
2.8645954086
 20
1.1356585062
 30
0.0
 10
2.8408566034
 20
1.1435921923
 30
0.0
 10
2.8243408902
 20
1.1529180716
 30
0.0
 10
2.8137418335
 20
1.1609969119
 30
0.0
 10
2.8049633514
 20
1.1701331526
 30
0.0
 10
2.8003410126
 20
1.1769591857
 30
0.0
 10
2.7984346338
 20
1.1804654484
 30
0.0
  0
SPLINE
  5
51A
100
AcDbEntity
  8
0
100
AcDbSpline
 62
9
  6
CONTINUOUS
 70
0
 71
3
 72
9
 73
5
 74
0
 42
0.0000001
 43
0.0000001
 44
0.0000000001
 40
0.0
 40
0.0
 40
0.0
 40
0.0
 40
0.5085618214
 40
1.0
 40
1.0
 40
1.0
 40
1.0
 10
2.991687443
 20
0.6173870747
 30
0.0
 10
2.9939047494
 20
0.6133081144
 30
0.0
 10
2.9973636129
 20
0.6047529938
 30
0.0
 10
2.9985894528
 20
0.5955901079
 30
0.0
 10
2.9985894528
 20
0.591103762
 30
0.0
  0
SPLINE
  5
51B
100
AcDbEntity
  8
0
100
AcDbSpline
 62
9
  6
CONTINUOUS
 70
0
 71
3
 72
19
 73
15
 74
0
 42
0.0000001
 43
0.0000001
 44
0.0000000001
 40
0.0
 40
0.0
 40
0.0
 40
0.0
 40
0.0533639869
 40
0.109520517
 40
0.1687287137
 40
0.2309073323
 40
0.3624756568
 40
0.5000013119
 40
0.6375267311
 40
0.7690944034
 40
0.8312725927
 40
0.8904803232
 40
0.9466364036
 40
1.0
 40
1.0
 40
1.0
 40
1.0
 10
2.7984354822
 20
0.6173932549
 30
0.0
 10
2.8003419763
 20
0.6208994882
 30
0.0
 10
2.8049645355
 20
0.6277254462
 30
0.0
 10
2.8137433083
 20
0.6368615415
 30
0.0
 10
2.8243426227
 20
0.6449402076
 30
0.0
 10
2.8408586201
 20
0.6542658165
 30
0.0
 10
2.8645976538
 20
0.6621991172
 30
0.0
 10
2.8950609543
 20
0.6653846518
 30
0.0
 10
2.9255241566
 20
0.6621986366
 30
0.0
 10
2.9492629619
 20
0.6542649506
 30
0.0
 10
2.965778675
 20
0.6449390712
 30
0.0
 10
2.9763777317
 20
0.6368602309
 30
0.0
 10
2.9851562138
 20
0.6277239902
 30
0.0
 10
2.9897785526
 20
0.6208979572
 30
0.0
 10
2.9916849314
 20
0.6173916945
 30
0.0
  0
SPLINE
  5
51C
100
AcDbEntity
  8
0
100
AcDbSpline
 62
7
  6
CONTINUOUS
 70
0
 71
3
 72
10
 73
6
 74
0
 42
0.0000001
 43
0.0000001
 44
0.0000000001
 40
0.0
 40
0.0
 40
0.0
 40
0.0
 40
0.5377174439
 40
0.7760580738
 40
1.0
 40
1.0
 40
1.0
 40
1.0
 10
2.7753937265
 20
0.9976207543
 30
0.0
 10
2.7762882907
 20
1.0004657589
 30
0.0
 10
2.7780843534
 20
1.0044704441
 30
0.0
 10
2.7815629263
 20
1.0088181231
 30
0.0
 10
2.7835061099
 20
1.0105175429
 30
0.0
 10
2.7845153899
 20
1.0112414405
 30
0.0
  0
SPLINE
  5
51D
100
AcDbEntity
  8
0
100
AcDbSpline
 62
9
  6
CONTINUOUS
 70
0
 71
3
 72
9
 73
5
 74
0
 42
0.0000001
 43
0.0000001
 44
0.0000000001
 40
0.0
 40
0.0
 40
0.0
 40
0.0
 40
0.5083249787
 40
1.0
 40
1.0
 40
1.0
 40
1.0
 10
2.7984325671
 20
1.0520319519
 30
0.0
 10
2.796214283
 20
1.0479557759
 30
0.0
 10
2.7927493091
 20
1.039401868
 30
0.0
 10
2.7915301124
 20
1.0302374454
 30
0.0
 10
2.7915301124
 20
1.02574876
 30
0.0
  0
SPLINE
  5
51E
100
AcDbEntity
  8
0
100
AcDbSpline
 62
7
  6
CONTINUOUS
 70
0
 71
3
 72
13
 73
9
 74
0
 42
0.0000001
 43
0.0000001
 44
0.0000000001
 40
0.0
 40
0.0
 40
0.0
 40
0.0
 40
0.0262000801
 40
0.0771566843
 40
0.1569563606
 40
0.2663228719
 40
0.5740846803
 40
1.0
 40
1.0
 40
1.0
 40
1.0
 10
3.2021252814
 20
1.0868501006
 30
0.0
 10
3.2021767955
 20
1.0868485462
 30
0.0
 10
3.2022935616
 20
1.0867129835
 30
0.0
 10
3.2023910897
 20
1.086433344
 30
0.0
 10
3.20251459
 20
1.0859701701
 30
0.0
 10
3.2026896157
 20
1.085011723
 30
0.0
 10
3.202900567
 20
1.083363379
 30
0.0
 10
3.2030363791
 20
1.0819274824
 30
0.0
 10
3.203108388
 20
1.0810927746
 30
0.0
  0
LINE
  5
51F
100
AcDbEntity
  8
0
100
AcDbLine
 62
7
  6
CONTINUOUS
 10
3.203108388
 20
1.0810927746
 11
3.2035174442
 21
1.0753994563
  0
LINE
  5
520
100
AcDbEntity
  8
0
100
AcDbLine
 62
7
  6
CONTINUOUS
 10
3.2051541821
 20
1.0348785113
 11
3.2051882977
 21
1.0337612042
  0
LINE
  5
521
100
AcDbEntity
  8
0
100
AcDbLine
 62
7
  6
CONTINUOUS
 10
3.2119566056
 20
0.7516403519
 11
3.2121222826
 21
0.7469111903
  0
SPLINE
  5
522
100
AcDbEntity
  8
0
100
AcDbSpline
 62
7
  6
CONTINUOUS
 70
0
 71
3
 72
13
 73
9
 74
0
 42
0.0000001
 43
0.0000001
 44
0.0000000001
 40
0.0
 40
0.0
 40
0.0
 40
0.0
 40
0.0416337126
 40
0.1066037114
 40
0.1954438752
 40
0.3083241612
 40
0.6063619051
 40
1.0
 40
1.0
 40
1.0
 40
1.0
 10
3.2028576742
 20
0.6959268956
 30
0.0
 10
3.2029149494
 20
0.6960272625
 30
0.0
 10
3.2030086888
 20
0.6963114121
 30
0.0
 10
3.2031293061
 20
0.6968391605
 30
0.0
 10
3.2032509657
 20
0.697570259
 30
0.0
 10
3.2034332364
 20
0.6989451609
 30
0.0
 10
3.2036482922
 20
0.7011686893
 30
0.0
 10
3.2037924982
 20
0.7030830258
 30
0.0
 10
3.20386763
 20
0.704173029
 30
0.0
  0
LINE
  5
523
100
AcDbEntity
  8
0
100
AcDbLine
 62
7
  6
CONTINUOUS
 10
3.20386763
 20
0.704173029
 11
3.2042321783
 21
0.7102696596
  0
SPLINE
  5
524
100
AcDbEntity
  8
0
100
AcDbSpline
 62
7
  6
CONTINUOUS
 70
0
 71
3
 72
13
 73
9
 74
0
 42
0.0000001
 43
0.0000001
 44
0.0000000001
 40
0.0
 40
0.0
 40
0.0
 40
0.0
 40
0.0455508778
 40
0.1133315268
 40
0.2038508538
 40
0.3172648254
 40
0.6128670203
 40
1.0
 40
1.0
 40
1.0
 40
1.0
 10
3.2116443534
 20
0.7111451148
 30
0.0
 10
3.2116943039
 20
0.7112334172
 30
0.0
 10
3.2117802917
 20
0.7114730902
 30
0.0
 10
3.2118906473
 20
0.7119129864
 30
0.0
 10
3.2120022393
 20
0.7125083653
 30
0.0
 10
3.2121678011
 20
0.7136085047
 30
0.0
 10
3.212364441
 20
0.715371375
 30
0.0
 10
3.2124965738
 20
0.7168862055
 30
0.0
 10
3.2125652235
 20
0.7177456946
 30
0.0
  0
LINE
  5
525
100
AcDbEntity
  8
0
100
AcDbLine
 62
7
  6
CONTINUOUS
 10
3.2125652235
 20
0.7177456946
 11
3.2133143244
 21
0.730273115
  0
SPLINE
  5
526
100
AcDbEntity
  8
0
100
AcDbSpline
 62
7
  6
CONTINUOUS
 70
0
 71
3
 72
14
 73
10
 74
0
 42
0.0000001
 43
0.0000001
 44
0.0000000001
 40
0.0
 40
0.0
 40
0.0
 40
0.0
 40
0.0409337478
 40
0.1055276907
 40
0.1943685809
 40
0.307528313
 40
0.4448672851
 40
0.6061994514
 40
1.0
 40
1.0
 40
1.0
 40
1.0
 10
3.2241445148
 20
1.0867200503
 30
0.0
 10
3.2242090032
 20
1.0866076375
 30
0.0
 10
3.2243132509
 20
1.0862860344
 30
0.0
 10
3.2244475822
 20
1.0856869711
 30
0.0
 10
3.2245827515
 20
1.0848526827
 30
0.0
 10
3.2247205212
 20
1.083787429
 30
0.0
 10
3.2248589353
 20
1.0824907318
 30
0.0
 10
3.2250578989
 20
1.0803074
 30
0.0
 10
3.2251860025
 20
1.0785543469
 30
0.0
 10
3.2252697826
 20
1.0773103847
 30
0.0
  0
SPLINE
  5
527
100
AcDbEntity
  8
0
100
AcDbSpline
 62
7
  6
CONTINUOUS
 70
0
 71
3
 72
10
 73
6
 74
0
 42
0.0000001
 43
0.0000001
 44
0.0000000001
 40
0.0
 40
0.0
 40
0.0
 40
0.0
 40
0.1832770912
 40
0.4127206184
 40
1.0
 40
1.0
 40
1.0
 40
1.0
 10
3.2252697826
 20
1.0773103847
 30
0.0
 10
3.22542172
 20
1.0750544275
 30
0.0
 10
3.2257099094
 20
1.0699706616
 30
0.0
 10
3.2262747075
 20
1.0576466381
 30
0.0
 10
3.226625023
 20
1.0475766167
 30
0.0
 10
3.2268578985
 20
1.0403351638
 30
0.0
  0
LINE
  5
528
100
AcDbEntity
  8
0
100
AcDbLine
 62
7
  6
CONTINUOUS
 10
3.2338347827
 20
0.7515425668
 11
3.2339972826
 21
0.7469023767
  0
SPLINE
  5
529
100
AcDbEntity
  8
0
100
AcDbSpline
 62
7
  6
CONTINUOUS
 70
0
 71
3
 72
14
 73
10
 74
0
 42
0.0000001
 43
0.0000001
 44
0.0000000001
 40
0.0
 40
0.0
 40
0.0
 40
0.0
 40
0.0383459928
 40
0.1011091672
 40
0.1888373452
 40
0.3016570036
 40
0.4394164175
 40
0.6018909109
 40
1.0
 40
1.0
 40
1.0
 40
1.0
 10
3.2153578292
 20
1.1019313293
 30
0.0
 10
3.2154287105
 20
1.1018078144
 30
0.0
 10
3.2155375222
 20
1.1014429243
 30
0.0
 10
3.2156795925
 20
1.1007585478
 30
0.0
 10
3.2158216831
 20
1.0997894474
 30
0.0
 10
3.2159672827
 20
1.0985419366
 30
0.0
 10
3.2161134166
 20
1.0970146575
 30
0.0
 10
3.2163239697
 20
1.0944297675
 30
0.0
 10
3.2164590729
 20
1.0923520997
 30
0.0
 10
3.2165474883
 20
1.0908762603
 30
0.0
  0
LINE
  5
52A
100
AcDbEntity
  8
0
100
AcDbLine
 62
7
  6
CONTINUOUS
 10
3.2165474883
 20
1.0908762603
 11
3.2173050271
 21
1.0748338248
  0
LINE
  5
52B
100
AcDbEntity
  8
0
100
AcDbLine
 62
7
  6
CONTINUOUS
 10
3.2173050271
 20
1.0748338248
 11
3.2184415025
 21
1.0390927529
  0
LINE
  5
52C
100
AcDbEntity
  8
0
100
AcDbLine
 62
7
  6
CONTINUOUS
 10
3.2188203196
 20
1.0244837155
 11
3.2191989717
 21
1.0087402057
  0
LINE
  5
52D
100
AcDbEntity
  8
0
100
AcDbLine
 62
7
  6
CONTINUOUS
 10
3.2210946123
 20
0.9182333647
 11
3.2214715585
 21
0.8989285714
  0
SPLINE
  5
52E
100
AcDbEntity
  8
0
100
AcDbSpline
 62
7
  6
CONTINUOUS
 70
0
 71
3
 72
14
 73
10
 74
0
 42
0.0000001
 43
0.0000001
 44
0.0000000001
 40
0.0
 40
0.0
 40
0.0
 40
0.0
 40
0.0397552206
 40
0.1035151388
 40
0.1917476191
 40
0.3045318173
 40
0.4418351574
 40
0.6035813464
 40
1.0
 40
1.0
 40
1.0
 40
1.0
 10
3.2144786653
 20
0.711132751
 30
0.0
 10
3.2144106188
 20
0.7112475956
 30
0.0
 10
3.2143030382
 20
0.7115830798
 30
0.0
 10
3.2141638281
 20
0.7122097566
 30
0.0
 10
3.2140239148
 20
0.7130891306
 30
0.0
 10
3.2138809642
 20
0.7142157898
 30
0.0
 10
3.2137374056
 20
0.7155914124
 30
0.0
 10
3.2135306346
 20
0.7179174698
 30
0.0
 10
3.2133979261
 20
0.7197871529
 30
0.0
 10
3.2133111298
 20
0.721115415
 30
0.0
  0
LINE
  5
52F
100
AcDbEntity
  8
0
100
AcDbLine
 62
7
  6
CONTINUOUS
 10
3.2133111298
 20
0.721115415
 11
3.2121222826
 21
0.7469019609
  0
SPLINE
  5
530
100
AcDbEntity
  8
0
100
AcDbSpline
 62
7
  6
CONTINUOUS
 70
0
 71
3
 72
16
 73
12
 74
0
 42
0.0000001
 43
0.0000001
 44
0.0000000001
 40
0.0
 40
0.0
 40
0.0
 40
0.0
 40
0.0132021293
 40
0.0328430941
 40
0.0920117764
 40
0.1778350719
 40
0.2901892728
 40
0.4288711508
 40
0.5936494322
 40
0.7842373204
 40
1.0
 40
1.0
 40
1.0
 40
1.0
 10
3.2232654766
 20
0.6959182222
 30
0.0
 10
3.2232211373
 20
0.695993125
 30
0.0
 10
3.2231443847
 20
0.6961977805
 30
0.0
 10
3.222992231
 20
0.6967844582
 30
0.0
 10
3.2228215972
 20
0.6978588735
 30
0.0
 10
3.2226236524
 20
0.6995432813
 30
0.0
 10
3.2224250608
 20
0.7017558912
 30
0.0
 10
3.2222237731
 20
0.7044899062
 30
0.0
 10
3.2220221039
 20
0.7077410571
 30
0.0
 10
3.2218202058
 20
0.7115011442
 30
0.0
 10
3.2216931293
 20
0.714177246
 30
0.0
 10
3.2216288017
 20
0.7155983291
 30
0.0
  0
LINE
  5
531
100
AcDbEntity
  8
0
100
AcDbLine
 62
7
  6
CONTINUOUS
 10
3.2216288017
 20
0.7155983291
 11
3.2208980067
 21
0.7345969944
  0
SPLINE
  5
532
100
AcDbEntity
  8
0
100
AcDbSpline
 62
7
  6
CONTINUOUS
 70
0
 71
3
 72
17
 73
13
 74
0
 42
0.0000001
 43
0.0000001
 44
0.0000000001
 40
0.0
 40
0.0
 40
0.0
 40
0.0
 40
0.01209377
 40
0.0308389262
 40
0.0564046254
 40
0.0888526474
 40
0.1743567816
 40
0.2870254295
 40
0.4264184726
 40
0.592073291
 40
0.783505072
 40
1.0
 40
1.0
 40
1.0
 40
1.0
 10
3.2357625742
 20
1.101932785
 30
0.0
 10
3.2357077375
 20
1.1018378162
 30
0.0
 10
3.2356171259
 20
1.1015699915
 30
0.0
 10
3.2355007724
 20
1.1010729528
 30
0.0
 10
3.2353833248
 20
1.1003860373
 30
0.0
 10
3.2352077612
 20
1.0990967189
 30
0.0
 10
3.2350003629
 20
1.0970150886
 30
0.0
 10
3.2347631328
 20
1.0939633775
 30
0.0
 10
3.2345244576
 20
1.0901829744
 30
0.0
 10
3.2342841249
 20
1.0856873992
 30
0.0
 10
3.2340432274
 20
1.0804918222
 30
0.0
 10
3.2338913886
 20
1.0767959329
 30
0.0
 10
3.2338145686
 20
1.0748343056
 30
0.0
  0
SPLINE
  5
533
100
AcDbEntity
  8
0
100
AcDbSpline
 62
7
  6
CONTINUOUS
 70
0
 71
3
 72
13
 73
9
 74
0
 42
0.0000001
 43
0.0000001
 44
0.0000000001
 40
0.0
 40
0.0
 40
0.0
 40
0.0
 40
0.044067729
 40
0.1107138641
 40
0.2005173783
 40
0.3136900259
 40
0.6103734024
 40
1.0
 40
1.0
 40
1.0
 40
1.0
 10
3.2269758442
 20
1.0867211663
 30
0.0
 10
3.2269228449
 20
1.0866292444
 30
0.0
 10
3.2268329012
 20
1.0863755202
 30
0.0
 10
3.2267176036
 20
1.0859073832
 30
0.0
 10
3.226601055
 20
1.0852680245
 30
0.0
 10
3.2264275476
 20
1.0840776096
 30
0.0
 10
3.2262221977
 20
1.0821629178
 30
0.0
 10
3.226084165
 20
1.0805162267
 30
0.0
 10
3.226012334
 20
1.0795808368
 30
0.0
  0
SPLINE
  5
534
100
AcDbEntity
  8
0
100
AcDbSpline
 62
9
  6
CONTINUOUS
 70
0
 71
3
 72
9
 73
5
 74
0
 42
0.0000001
 43
0.0000001
 44
0.0000000001
 40
0.0
 40
0.0
 40
0.0
 40
0.0
 40
0.5083249787
 40
1.0
 40
1.0
 40
1.0
 40
1.0
 10
2.9916869981
 20
0.7458251909
 30
0.0
 10
2.9939052822
 20
0.749901367
 30
0.0
 10
2.9973702561
 20
0.7584552748
 30
0.0
 10
2.9985894528
 20
0.7676196974
 30
0.0
 10
2.9985894528
 20
0.7721083828
 30
0.0
  0
SPLINE
  5
535
100
AcDbEntity
  8
0
100
AcDbSpline
 62
7
  6
CONTINUOUS
 70
0
 71
3
 72
9
 73
5
 74
0
 42
0.0000001
 43
0.0000001
 44
0.0000000001
 40
0.0
 40
0.0
 40
0.0
 40
0.0
 40
0.2912897564
 40
1.0
 40
1.0
 40
1.0
 40
1.0
 10
3.0186290391
 20
0.8136210452
 30
0.0
 10
3.0182931262
 20
0.8123649101
 30
0.0
 10
3.0169281721
 20
0.8081316229
 30
0.0
 10
3.0145308109
 20
0.8040963575
 30
0.0
 10
3.0121440888
 20
0.8020198752
 30
0.0
  0
SPLINE
  5
536
100
AcDbEntity
  8
0
100
AcDbSpline
 62
7
  6
CONTINUOUS
 70
0
 71
3
 72
10
 73
6
 74
0
 42
0.0000001
 43
0.0000001
 44
0.0000000001
 40
0.0
 40
0.0
 40
0.0
 40
0.0
 40
0.386521901
 40
0.7710644247
 40
1.0
 40
1.0
 40
1.0
 40
1.0
 10
3.4876362591
 20
10.5048502249
 30
0.0
 10
3.4951539892
 20
10.5079769432
 30
0.0
 10
3.5105334777
 20
10.5133290846
 30
0.0
 10
3.5310881162
 20
10.5180863984
 30
0.0
 10
3.5438709096
 20
10.5200435465
 30
0.0
 10
3.548657547
 20
10.5206442397
 30
0.0
  0
SPLINE
  5
537
100
AcDbEntity
  8
0
100
AcDbSpline
 62
7
  6
CONTINUOUS
 70
0
 71
3
 72
10
 73
6
 74
0
 42
0.0000001
 43
0.0000001
 44
0.0000000001
 40
0.0
 40
0.0
 40
0.0
 40
0.0
 40
0.3865197193
 40
0.7710600713
 40
1.0
 40
1.0
 40
1.0
 40
1.0
 10
3.2688862591
 20
10.5048502249
 30
0.0
 10
3.2764039951
 20
10.5079769291
 30
0.0
 10
3.2917834848
 20
10.5133290618
 30
0.0
 10
3.3123382351
 20
10.5180864203
 30
0.0
 10
3.3251211469
 20
10.5200435848
 30
0.0
 10
3.3299079029
 20
10.5206442882
 30
0.0
  0
ELLIPSE
  5
538
100
AcDbEntity
  8
0
100
AcDbEllipse
 62
7
  6
CONTINUOUS
 10
3.4730597826
 20
1.1817712839
 30
0.0
 11
0.0
 21
0.140625
 31
0.0
 40
1.0
 41
-4.082439751
 42
-3.7068618376
  0
ELLIPSE
  5
539
100
AcDbEntity
  8
0
100
AcDbEllipse
 62
7
  6
CONTINUOUS
 10
3.4730597826
 20
1.1817712839
 30
0.0
 11
0.0
 21
0.140625
 31
0.0
 40
1.0
 41
-2.5763234696
 42
-2.2007455562
  0
ELLIPSE
  5
53A
100
AcDbEntity
  8
0
100
AcDbEllipse
 62
7
  6
CONTINUOUS
 10
3.4730597826
 20
1.1817712839
 30
0.0
 11
0.140625
 21
-0.0
 31
0.0
 40
1.0
 41
-1.8726691917
 42
-1.236554459
  0
ELLIPSE
  5
53B
100
AcDbEntity
  8
0
100
AcDbEllipse
 62
7
  6
CONTINUOUS
 10
3.4730597826
 20
1.1817712839
 30
0.0
 11
-0.0
 21
0.140625
 31
0.0
 40
1.0
 41
-3.4758345214
 42
-3.4434655185
  0
ENDSEC
  0
SECTION
  2
OBJECTS
  0
DICTIONARY
  5
C
100
AcDbDictionary
280
0
281
1
  3
ACAD_GROUP
350
D
  3
ACAD_MLINESTYLE
350
17
  3
ACAD_LAYOUT
350
1A
  3
ACAD_PLOTSETTINGS
350
19
  3
ACAD_PLOTSTYLENAME
350
E
  0
DICTIONARY
  5
D
102
{ACAD_REACTORS
330
C
102
}
100
AcDbDictionary
280
0
281
1
  0
ACDBDICTIONARYWDFLT
  5
E
102
{ACAD_REACTORS
330
C
102
}
100
AcDbDictionary
281
1
  3
Normal
350
F
100
AcDbDictionaryWithDefault
340
F
  0
DICTIONARY
  5
17
102
{ACAD_REACTORS
330
C
102
}
100
AcDbDictionary
280
0
281
1
  3
Standard
350
18
  0
DICTIONARY
  5
19
102
{ACAD_REACTORS
330
C
102
}
100
AcDbDictionary
281
1
  0
DICTIONARY
  5
1A
102
{ACAD_REACTORS
330
C
102
}
100
AcDbDictionary
281
1
  3
Model
350
53C
  3
Layout1
350
53D
  0
ACDBPLACEHOLDER
  5
F
102
{ACAD_REACTORS
330
E
102
}
  0
MLINESTYLE
  5
18
102
{ACAD_REACTORS
330
17
102
}
100
AcDbMlineStyle
  2
STANDARD
 70
0
  3

 62
256
 51
90.0
 52
90.0
 71
2
 49
0.5
 62
256
  6
BYLAYER
 49
-0.5
 62
256
  6
BYLAYER
  0
LAYOUT
  5
53C
102
{ACAD_REACTORS
330
1A
102
}
100
AcDbPlotSettings
  1

  2
none_device
  4

  6

 40
0.0
 41
0.0
 42
0.0
 43
0.0
 44
215.9
 45
279.4
 46
0.0
 47
0.0
 48
0.0
 49
0.0
140
0.0
141
0.0
142
1.0
143
1.0
 70
1024
 72
0
 73
0
 74
0
  7

 75
0
147
1.0
148
0.0
149
0.0
100
AcDbLayout
  1
Model
 70
0
 71
0
 10
0.0
 20
0.0
 11
8.5
 21
11.0
 12
0.0
 22
0.0
 32
0.0
 14
0.0
 24
0.0
 34
0.0
 15
0.0
 25
0.0
 35
0.0
146
0.0
 13
0.0
 23
0.0
 33
0.0
 16
1.0
 26
0.0
 36
0.0
 17
0.0
 27
1.0
 37
0.0
 76
0
330
240
345
0
346
0
  0
LAYOUT
  5
53D
102
{ACAD_REACTORS
330
1A
102
}
100
AcDbPlotSettings
  1

  2
none_device
  4

  6

 40
0.0
 41
0.0
 42
0.0
 43
0.0
 44
215.9
 45
279.4
 46
0.0
 47
0.0
 48
0.0
 49
0.0
140
0.0
141
0.0
142
1.0
143
1.0
 70
0
 72
0
 73
0
 74
0
  7

 75
0
147
1.0
148
0.0
149
0.0
100
AcDbLayout
  1
Layout1
 70
0
 71
1
 10
0.0
 20
0.0
 11
8.5
 21
11.0
 12
0.0
 22
0.0
 32
0.0
 14
0.0
 24
0.0
 34
0.0
 15
0.0
 25
0.0
 35
0.0
146
0.0
 13
0.0
 23
0.0
 33
0.0
 16
1.0
 26
0.0
 36
0.0
 17
0.0
 27
1.0
 37
0.0
 76
0
330
241
345
0
346
0
  0
ENDSEC
  0
EOF
