999
DXF file: C:\Prowork\plots\493_front.dxf
999
Pro/ENGINEER 2018500 by Parametric Technology Corporation
  0
SECTION
  2
HEADER
  9
$ACADVER
  1
AC1032
  9
$DWGCODEPAGE
  3
ANSI_1252
  9
$EXTMAX
 10
8.5
 20
11.0
 30
0.0
  9
$EXTMIN
 10
0.0
 20
0.0
 30
0.0
  9
$LIMMIN
 10
0.0
 20
0.0
  9
$LIMMAX
 10
8.5
 20
11.0
  9
$VIEWCTR
 10
4.25
 20
5.5
  9
$VIEWSIZE
 40
11.0
  9
$CLAYER
  8
0
  9
$LTSCALE
 40
0.717037037
  9
$CELTYPE
  6
BYLAYER
  9
$DIMSCALE
 40
1.0
  9
$DIMASZ
 40
0.1
  9
$DIMEXO
 40
0.0625
  9
$DIMDLI
 40
0.4954074074
  9
$DIMEXE
 40
0.125
  9
$DIMCEN
 40
0.1173333333
  9
$DIMLFAC
 40
1.0
  9
$DIMBLK
  1
_FILLED
  9
$DIMALT
 70
1
  9
$DIMALTD
 70
2
  9
$DIMALTTD
 70
2
  9
$DIMALTF
 40
25.4
  9
$DIMTXT
 40
0.08
  9
$DIMTOL
 70
1
  9
$DIMLIM
 70
0
  9
$DIMTFAC
 40
1.0
  9
$DIMTP
 40
0.001
  9
$DIMTM
 40
0.001
  9
$DIMGAP
 40
0.09
  9
$DIMDSEP
 70
46
  9
$AUNITS
 70
0
  9
$PDMODE
 70
3
  9
$PDSIZE
 40
0.06
  9
$HANDSEED
  5
39F
  9
$TILEMODE
 70
1
  9
$MEASUREMENT
 70
0
  9
$INSUNITS
 70
1
  0
ENDSEC
  0
SECTION
  2
CLASSES
  0
CLASS
  1
ACDBDICTIONARYWDFLT
  2
AcDbDictionaryWithDefault
  3
AutoCAD 2000
 90
0
 91
1
280
0
281
0
  0
CLASS
  1
ACDBPLACEHOLDER
  2
AcDbPlaceHolder
  3
AutoCAD 2000
 90
0
 91
1
280
0
281
0
  0
CLASS
  1
LAYOUT
  2
AcDbLayout
  3
AutoCAD 2000
 90
0
 91
0
280
0
281
0
  0
ENDSEC
  0
SECTION
  2
TABLES
  0
TABLE
  2
VPORT
  5
8
100
AcDbSymbolTable
 70
2
  0
VPORT
  5
1F4
100
AcDbSymbolTableRecord
100
AcDbViewportTableRecord
  2
*ACTIVE
 70
0
 10
0.0
 20
0.0
 11
1.0
 21
1.0
 12
4.25
 22
5.5
 13
0.0
 23
0.0
 14
1.0
 24
1.0
 15
0.0
 25
0.0
 16
0.0
 26
0.0
 36
1.0
 17
0.0
 27
0.0
 37
0.0
 40
11.0
 41
0.7727272727
 42
50.0
 43
0.0
 44
0.0
 50
0.0
 51
0.0
 71
0
 72
100
 73
1
 74
1
 75
0
 76
0
 77
0
 78
0
  0
ENDTAB
  0
TABLE
  2
LTYPE
  5
5
100
AcDbSymbolTable
 70
6
  0
LTYPE
  5
14
100
AcDbSymbolTableRecord
100
AcDbLinetypeTableRecord
  2
BYBLOCK
 70
0
  3

 72
65
 73
0
 40
0.0
  0
LTYPE
  5
15
100
AcDbSymbolTableRecord
100
AcDbLinetypeTableRecord
  2
BYLAYER
 70
0
  3

 72
65
 73
0
 40
0.0
  0
LTYPE
  5
16
100
AcDbSymbolTableRecord
100
AcDbLinetypeTableRecord
  2
CONTINUOUS
 70
64
  3
Solid line
 72
65
 73
0
 40
0.0
  0
LTYPE
  5
1F5
100
AcDbSymbolTableRecord
100
AcDbLinetypeTableRecord
  2
CENTER
 70
64
  3
____ _ ____ _ ____ _ ____ _ ____ _ ____ _ ____
 72
65
 73
4
 40
0.6
 49
0.375
 74
0
 49
-0.075
 74
0
 49
0.075
 74
0
 49
-0.075
 74
0
  0
LTYPE
  5
1F6
100
AcDbSymbolTableRecord
100
AcDbLinetypeTableRecord
  2
HIDDEN
 70
64
  3
- - - - - - - - - - - - - - - - - - - -
 72
65
 73
2
 40
0.2
 49
0.1
 74
0
 49
-0.1
 74
0
  0
LTYPE
  5
1F7
100
AcDbSymbolTableRecord
100
AcDbLinetypeTableRecord
  2
PHANTOM
 70
64
  3
_____ _ _ _____ _ _ _____ _ _ _____
 72
65
 73
6
 40
0.8
 49
0.45
 74
0
 49
-0.05
 74
0
 49
0.1
 74
0
 49
-0.05
 74
0
 49
0.1
 74
0
 49
-0.05
 74
0
  0
LTYPE
  5
1F8
100
AcDbSymbolTableRecord
100
AcDbLinetypeTableRecord
  2
DOT
 70
64
  3
. . . . . . . . . . . . . . . . . . . .
 72
65
 73
2
 40
0.2
 49
0.1
 74
0
 49
-0.1
 74
0
  0
LTYPE
  5
1F9
100
AcDbSymbolTableRecord
100
AcDbLinetypeTableRecord
  2
DASHED
 70
64
  3
- - - - - - - - - - - - - - - - - - - -
 72
65
 73
2
 40
0.2
 49
0.1
 74
0
 49
-0.1
 74
0
  0
ENDTAB
  0
TABLE
  2
LAYER
  5
2
100
AcDbSymbolTable
 70
36
  0
LAYER
  5
10
100
AcDbSymbolTableRecord
100
AcDbLayerTableRecord
  2
0
 70
0
 62
7
  6
CONTINUOUS
370
-3
390
F
  0
LAYER
  5
1FA
100
AcDbSymbolTableRecord
100
AcDbLayerTableRecord
  2
DEFAULT_1
 70
0
 62
7
  6
CENTER
370
-3
390
F
  0
LAYER
  5
1FB
100
AcDbSymbolTableRecord
100
AcDbLayerTableRecord
  2
DEFAULT_2
 70
0
 62
8
  6
HIDDEN
370
-3
390
F
  0
LAYER
  5
1FC
100
AcDbSymbolTableRecord
100
AcDbLayerTableRecord
  2
DEFAULT_3
 70
0
 62
7
  6
PHANTOM
370
-3
390
F
  0
LAYER
  5
1FD
100
AcDbSymbolTableRecord
100
AcDbLayerTableRecord
  2
1-257
 70
0
 62
7
  6
CONTINUOUS
370
-3
390
F
  0
LAYER
  5
1FE
100
AcDbSymbolTableRecord
100
AcDbLayerTableRecord
  2
1-257_1
 70
0
 62
7
  6
CONTINUOUS
370
-3
390
F
  0
LAYER
  5
1FF
100
AcDbSymbolTableRecord
100
AcDbLayerTableRecord
  2
10182
 70
0
 62
7
  6
CONTINUOUS
370
-3
390
F
  0
LAYER
  5
200
100
AcDbSymbolTableRecord
100
AcDbLayerTableRecord
  2
10182_1
 70
0
 62
7
  6
CONTINUOUS
370
-3
390
F
  0
LAYER
  5
201
100
AcDbSymbolTableRecord
100
AcDbLayerTableRecord
  2
403
 70
0
 62
7
  6
CONTINUOUS
370
-3
390
F
  0
LAYER
  5
202
100
AcDbSymbolTableRecord
100
AcDbLayerTableRecord
  2
403_1
 70
0
 62
7
  6
CONTINUOUS
370
-3
390
F
  0
LAYER
  5
203
100
AcDbSymbolTableRecord
100
AcDbLayerTableRecord
  2
432
 70
0
 62
7
  6
CONTINUOUS
370
-3
390
F
  0
LAYER
  5
204
100
AcDbSymbolTableRecord
100
AcDbLayerTableRecord
  2
432_1
 70
0
 62
7
  6
CONTINUOUS
370
-3
390
F
  0
LAYER
  5
205
100
AcDbSymbolTableRecord
100
AcDbLayerTableRecord
  2
441
 70
0
 62
7
  6
CONTINUOUS
370
-3
390
F
  0
LAYER
  5
206
100
AcDbSymbolTableRecord
100
AcDbLayerTableRecord
  2
441_1
 70
0
 62
7
  6
CONTINUOUS
370
-3
390
F
  0
LAYER
  5
207
100
AcDbSymbolTableRecord
100
AcDbLayerTableRecord
  2
50350
 70
0
 62
7
  6
CONTINUOUS
370
-3
390
F
  0
LAYER
  5
208
100
AcDbSymbolTableRecord
100
AcDbLayerTableRecord
  2
50350_1
 70
0
 62
7
  6
CONTINUOUS
370
-3
390
F
  0
LAYER
  5
209
100
AcDbSymbolTableRecord
100
AcDbLayerTableRecord
  2
50355
 70
0
 62
7
  6
CONTINUOUS
370
-3
390
F
  0
LAYER
  5
20A
100
AcDbSymbolTableRecord
100
AcDbLayerTableRecord
  2
50355_1
 70
0
 62
7
  6
CONTINUOUS
370
-3
390
F
  0
LAYER
  5
20B
100
AcDbSymbolTableRecord
100
AcDbLayerTableRecord
  2
50359
 70
0
 62
7
  6
CONTINUOUS
370
-3
390
F
  0
LAYER
  5
20C
100
AcDbSymbolTableRecord
100
AcDbLayerTableRecord
  2
50359_1
 70
0
 62
7
  6
CONTINUOUS
370
-3
390
F
  0
LAYER
  5
20D
100
AcDbSymbolTableRecord
100
AcDbLayerTableRecord
  2
50362
 70
0
 62
7
  6
CONTINUOUS
370
-3
390
F
  0
LAYER
  5
20E
100
AcDbSymbolTableRecord
100
AcDbLayerTableRecord
  2
50362_1
 70
0
 62
7
  6
CONTINUOUS
370
-3
390
F
  0
LAYER
  5
20F
100
AcDbSymbolTableRecord
100
AcDbLayerTableRecord
  2
50663
 70
0
 62
7
  6
CONTINUOUS
370
-3
390
F
  0
LAYER
  5
210
100
AcDbSymbolTableRecord
100
AcDbLayerTableRecord
  2
50663_1
 70
0
 62
7
  6
CONTINUOUS
370
-3
390
F
  0
LAYER
  5
211
100
AcDbSymbolTableRecord
100
AcDbLayerTableRecord
  2
50664
 70
0
 62
7
  6
CONTINUOUS
370
-3
390
F
  0
LAYER
  5
212
100
AcDbSymbolTableRecord
100
AcDbLayerTableRecord
  2
50664_1
 70
0
 62
7
  6
CONTINUOUS
370
-3
390
F
  0
LAYER
  5
213
100
AcDbSymbolTableRecord
100
AcDbLayerTableRecord
  2
50668
 70
0
 62
7
  6
CONTINUOUS
370
-3
390
F
  0
LAYER
  5
214
100
AcDbSymbolTableRecord
100
AcDbLayerTableRecord
  2
50668_1
 70
0
 62
7
  6
CONTINUOUS
370
-3
390
F
  0
LAYER
  5
215
100
AcDbSymbolTableRecord
100
AcDbLayerTableRecord
  2
50675
 70
0
 62
7
  6
CONTINUOUS
370
-3
390
F
  0
LAYER
  5
216
100
AcDbSymbolTableRecord
100
AcDbLayerTableRecord
  2
50675_1
 70
0
 62
7
  6
CONTINUOUS
370
-3
390
F
  0
LAYER
  5
217
100
AcDbSymbolTableRecord
100
AcDbLayerTableRecord
  2
50677
 70
0
 62
7
  6
CONTINUOUS
370
-3
390
F
  0
LAYER
  5
218
100
AcDbSymbolTableRecord
100
AcDbLayerTableRecord
  2
50677_1
 70
0
 62
7
  6
CONTINUOUS
370
-3
390
F
  0
LAYER
  5
219
100
AcDbSymbolTableRecord
100
AcDbLayerTableRecord
  2
50678
 70
0
 62
7
  6
CONTINUOUS
370
-3
390
F
  0
LAYER
  5
21A
100
AcDbSymbolTableRecord
100
AcDbLayerTableRecord
  2
50678_1
 70
0
 62
7
  6
CONTINUOUS
370
-3
390
F
  0
LAYER
  5
21B
100
AcDbSymbolTableRecord
100
AcDbLayerTableRecord
  2
50680
 70
0
 62
7
  6
CONTINUOUS
370
-3
390
F
  0
LAYER
  5
21C
100
AcDbSymbolTableRecord
100
AcDbLayerTableRecord
  2
50680_1
 70
0
 62
7
  6
CONTINUOUS
370
-3
390
F
  0
LAYER
  5
21D
100
AcDbSymbolTableRecord
100
AcDbLayerTableRecord
  2
50846
 70
0
 62
7
  6
CONTINUOUS
370
-3
390
F
  0
LAYER
  5
21E
100
AcDbSymbolTableRecord
100
AcDbLayerTableRecord
  2
50846_1
 70
0
 62
7
  6
CONTINUOUS
370
-3
390
F
  0
LAYER
  5
21F
100
AcDbSymbolTableRecord
100
AcDbLayerTableRecord
  2
50851
 70
0
 62
7
  6
CONTINUOUS
370
-3
390
F
  0
LAYER
  5
220
100
AcDbSymbolTableRecord
100
AcDbLayerTableRecord
  2
50851_1
 70
0
 62
7
  6
CONTINUOUS
370
-3
390
F
  0
LAYER
  5
221
100
AcDbSymbolTableRecord
100
AcDbLayerTableRecord
  2
6-403
 70
0
 62
7
  6
CONTINUOUS
370
-3
390
F
  0
LAYER
  5
222
100
AcDbSymbolTableRecord
100
AcDbLayerTableRecord
  2
6-403_1
 70
0
 62
7
  6
CONTINUOUS
370
-3
390
F
  0
LAYER
  5
223
100
AcDbSymbolTableRecord
100
AcDbLayerTableRecord
  2
92073
 70
0
 62
7
  6
CONTINUOUS
370
-3
390
F
  0
LAYER
  5
224
100
AcDbSymbolTableRecord
100
AcDbLayerTableRecord
  2
92073_1
 70
0
 62
7
  6
CONTINUOUS
370
-3
390
F
  0
LAYER
  5
225
100
AcDbSymbolTableRecord
100
AcDbLayerTableRecord
  2
DEFAULT_COORDINATE_SYSTEM
 70
0
 62
7
  6
CONTINUOUS
370
-3
390
F
  0
LAYER
  5
226
100
AcDbSymbolTableRecord
100
AcDbLayerTableRecord
  2
DEFAULT_DATUM_AXES
 70
0
 62
7
  6
CONTINUOUS
370
-3
390
F
  0
LAYER
  5
227
100
AcDbSymbolTableRecord
100
AcDbLayerTableRecord
  2
DEFAULT_DATUM_PLANES
 70
0
 62
7
  6
CONTINUOUS
370
-3
390
F
  0
LAYER
  5
228
100
AcDbSymbolTableRecord
100
AcDbLayerTableRecord
  2
INTF_10182
 70
0
 62
7
  6
CONTINUOUS
370
-3
390
F
  0
LAYER
  5
229
100
AcDbSymbolTableRecord
100
AcDbLayerTableRecord
  2
INTF_50350
 70
0
 62
7
  6
CONTINUOUS
370
-3
390
F
  0
LAYER
  5
22A
100
AcDbSymbolTableRecord
100
AcDbLayerTableRecord
  2
INTF_50355
 70
0
 62
7
  6
CONTINUOUS
370
-3
390
F
  0
LAYER
  5
22B
100
AcDbSymbolTableRecord
100
AcDbLayerTableRecord
  2
INTF_50359
 70
0
 62
7
  6
CONTINUOUS
370
-3
390
F
  0
LAYER
  5
22C
100
AcDbSymbolTableRecord
100
AcDbLayerTableRecord
  2
INTF_50362
 70
0
 62
7
  6
CONTINUOUS
370
-3
390
F
  0
LAYER
  5
22D
100
AcDbSymbolTableRecord
100
AcDbLayerTableRecord
  2
INTF_50663
 70
0
 62
7
  6
CONTINUOUS
370
-3
390
F
  0
LAYER
  5
22E
100
AcDbSymbolTableRecord
100
AcDbLayerTableRecord
  2
INTF_50664
 70
0
 62
7
  6
CONTINUOUS
370
-3
390
F
  0
LAYER
  5
22F
100
AcDbSymbolTableRecord
100
AcDbLayerTableRecord
  2
INTF_50668
 70
0
 62
7
  6
CONTINUOUS
370
-3
390
F
  0
LAYER
  5
230
100
AcDbSymbolTableRecord
100
AcDbLayerTableRecord
  2
INTF_50675
 70
0
 62
7
  6
CONTINUOUS
370
-3
390
F
  0
LAYER
  5
231
100
AcDbSymbolTableRecord
100
AcDbLayerTableRecord
  2
INTF_50677
 70
0
 62
7
  6
CONTINUOUS
370
-3
390
F
  0
LAYER
  5
232
100
AcDbSymbolTableRecord
100
AcDbLayerTableRecord
  2
INTF_50678
 70
0
 62
7
  6
CONTINUOUS
370
-3
390
F
  0
LAYER
  5
233
100
AcDbSymbolTableRecord
100
AcDbLayerTableRecord
  2
INTF_50680
 70
0
 62
7
  6
CONTINUOUS
370
-3
390
F
  0
LAYER
  5
234
100
AcDbSymbolTableRecord
100
AcDbLayerTableRecord
  2
INTF_50846
 70
0
 62
7
  6
CONTINUOUS
370
-3
390
F
  0
LAYER
  5
235
100
AcDbSymbolTableRecord
100
AcDbLayerTableRecord
  2
INTF_50851
 70
0
 62
7
  6
CONTINUOUS
370
-3
390
F
  0
LAYER
  5
236
100
AcDbSymbolTableRecord
100
AcDbLayerTableRecord
  2
INTF_92073
 70
0
 62
7
  6
CONTINUOUS
370
-3
390
F
  0
LAYER
  5
237
100
AcDbSymbolTableRecord
100
AcDbLayerTableRecord
  2
INTF_BLANK
 70
0
 62
7
  6
CONTINUOUS
370
-3
390
F
  0
LAYER
  5
238
100
AcDbSymbolTableRecord
100
AcDbLayerTableRecord
  2
NONE
 70
0
 62
7
  6
CONTINUOUS
370
-3
390
F
  0
LAYER
  5
239
100
AcDbSymbolTableRecord
100
AcDbLayerTableRecord
  2
PLATED_SURFACE
 70
0
 62
7
  6
CONTINUOUS
370
-3
390
F
  0
LAYER
  5
23A
100
AcDbSymbolTableRecord
100
AcDbLayerTableRecord
  2
WETTED_SURFACES
 70
0
 62
7
  6
CONTINUOUS
370
-3
390
F
  0
LAYER
  5
23B
100
AcDbSymbolTableRecord
100
AcDbLayerTableRecord
  2
_BLACK_HOLE
 70
0
 62
7
  6
CONTINUOUS
370
-3
390
F
  0
ENDTAB
  0
TABLE
  2
STYLE
  5
3
100
AcDbSymbolTable
 70
1
  0
STYLE
  5
11
100
AcDbSymbolTableRecord
100
AcDbTextStyleTableRecord
  2
STANDARD
 70
0
 40
0.0
 41
0.8
 50
0.0
 71
0
 42
0.2
  3
txt
  4

  0
STYLE
  5
23C
100
AcDbSymbolTableRecord
100
AcDbTextStyleTableRecord
  2
TEXTSTYLE_1
 70
0
 40
0.0
 41
0.8
 50
0.0
 71
0
 42
0.2
  3
gdt
  4

  0
ENDTAB
  0
TABLE
  2
VIEW
  5
6
100
AcDbSymbolTable
 70
0
  0
ENDTAB
  0
TABLE
  2
UCS
  5
7
100
AcDbSymbolTable
 70
0
  0
ENDTAB
  0
TABLE
  2
APPID
  5
9
100
AcDbSymbolTable
 70
1
  0
APPID
  5
23D
100
AcDbSymbolTableRecord
100
AcDbRegAppTableRecord
  2
ACAD
 70
0
  0
ENDTAB
  0
TABLE
  2
BLOCK_RECORD
  5
1
100
AcDbSymbolTable
 70
0
  0
BLOCK_RECORD
  5
23E
100
AcDbSymbolTableRecord
100
AcDbBlockTableRecord
  2
*Model_Space
  0
BLOCK_RECORD
  5
23F
100
AcDbSymbolTableRecord
100
AcDbBlockTableRecord
  2
*Paper_Space
  0
BLOCK_RECORD
  5
240
100
AcDbSymbolTableRecord
100
AcDbBlockTableRecord
  2
_FILLED
  0
ENDTAB
  0
TABLE
  2
DIMSTYLE
  5
A
100
AcDbSymbolTable
 70
1
100
AcDbDimStyleTable
 71
0
  0
DIMSTYLE
105
241
100
AcDbSymbolTableRecord
100
AcDbDimStyleTableRecord
  2
STANDARD
 70
0
  3

  4

 40
1.0
 41
0.1
 42
0.0625
 43
0.38
 44
0.125
 45
0.0
 46
0.0
 47
0.001
 48
0.001
140
0.08
141
0.09
142
0.0
143
25.4
144
1.0
145
0.0
146
1.0
147
0.09
 71
1.0
 72
0.0
 73
1
 74
1
 75
0
 76
0
 77
0
 78
4
 79
1
170
1
171
2
172
0
173
0
174
0
175
0
176
0
177
0
178
0
270
2
179
3
271
3
272
3
273
2
274
2
275
0
280
0
281
0
282
0
283
1
284
4
285
0
286
0
287
3
288
0
340
11
278
46
341
240
342
240
343
240
344
240
  0
ENDTAB
  0
ENDSEC
  0
SECTION
  2
BLOCKS
  0
BLOCK
  5
20
100
AcDbEntity
  8
0
100
AcDbBlockBegin
  2
*Model_Space
 70
0
 10
0.0
 20
0.0
 30
0.0
  3
*Model_Space
  1

  0
ENDBLK
  5
21
100
AcDbEntity
  8
0
100
AcDbBlockEnd
  0
BLOCK
  5
1C
100
AcDbEntity
  8
0
100
AcDbBlockBegin
  2
*Paper_Space
 70
0
 10
0.0
 20
0.0
 30
0.0
  3
*Paper_Space
  1

  0
ENDBLK
  5
1D
100
AcDbEntity
  8
0
100
AcDbBlockEnd
  0
BLOCK
  5
242
100
AcDbEntity
  8
0
100
AcDbBlockBegin
  2
_FILLED
 70
64
 10
0.0
 20
0.0
  3
_FILLED
  1

  0
SOLID
  5
243
100
AcDbEntity
  8
0
  6
BYBLOCK
 62
0
100
AcDbTrace
 10
0.0
 20
0.0
 11
-1.0
 21
0.2
 12
-1.0
 22
-0.2
 13
-1.0
 23
-0.2
  0
ENDBLK
  5
244
100
AcDbEntity
  8
0
  6
BYBLOCK
 62
0
100
AcDbBlockEnd
  0
ENDSEC
  0
SECTION
  2
ENTITIES
  0
MTEXT
  5
245
100
AcDbEntity
  8
0
100
AcDbMText
 62
7
  6
CONTINUOUS
  7
STANDARD
 71
1
 72
1
 10
6.9350931677
 20
0.4499378882
 30
0.0
 11
1.0
 21
0.0
 31
0.0
 73
2
 44
0.9
  1
SCALE: .50
 40
0.08
 41
0.64
  0
LINE
  5
246
100
AcDbEntity
  8
0
100
AcDbLine
 62
7
  6
CONTINUOUS
 10
0.0
 20
0.0
 11
8.5
 21
0.0
  0
LINE
  5
247
100
AcDbEntity
  8
0
100
AcDbLine
 62
7
  6
CONTINUOUS
 10
0.0
 20
0.0
 11
0.0
 21
11.0
  0
LINE
  5
248
100
AcDbEntity
  8
0
100
AcDbLine
 62
7
  6
CONTINUOUS
 10
8.5
 20
0.0
 11
8.5
 21
11.0
  0
LINE
  5
249
100
AcDbEntity
  8
0
100
AcDbLine
 62
7
  6
CONTINUOUS
 10
0.0
 20
11.0
 11
8.5
 21
11.0
  0
LINE
  5
24A
100
AcDbEntity
  8
0
100
AcDbLine
 62
7
  6
CONTINUOUS
 10
5.6348936335
 20
0.883367236
 11
5.6095938416
 21
0.883367236
  0
LINE
  5
24B
100
AcDbEntity
  8
0
100
AcDbLine
 62
7
  6
CONTINUOUS
 10
2.6348936335
 20
0.883367236
 11
2.6095938416
 21
0.883367236
  0
LINE
  5
24C
100
AcDbEntity
  8
0
100
AcDbLine
 62
7
  6
CONTINUOUS
 10
2.5735229211
 20
0.883367236
 11
2.5991902736
 21
0.883367236
  0
LINE
  5
24D
100
AcDbEntity
  8
0
100
AcDbLine
 62
7
  6
CONTINUOUS
 10
2.6548469935
 20
0.883367236
 11
2.680514346
 21
0.883367236
  0
LINE
  5
24E
100
AcDbEntity
  8
0
100
AcDbLine
 62
7
  6
CONTINUOUS
 10
5.5735229211
 20
0.883367236
 11
5.5991902736
 21
0.883367236
  0
LINE
  5
24F
100
AcDbEntity
  8
0
100
AcDbLine
 62
7
  6
CONTINUOUS
 10
5.6548469935
 20
0.883367236
 11
5.680514346
 21
0.883367236
  0
LINE
  5
250
100
AcDbEntity
  8
0
100
AcDbLine
 62
7
  6
CONTINUOUS
 10
2.6191436335
 20
0.891242236
 11
2.6348936335
 21
0.891242236
  0
LINE
  5
251
100
AcDbEntity
  8
0
100
AcDbLine
 62
7
  6
CONTINUOUS
 10
5.6191436335
 20
0.891242236
 11
5.6348936335
 21
0.891242236
  0
LINE
  5
252
100
AcDbEntity
  8
0
100
AcDbLine
 62
7
  6
CONTINUOUS
 10
5.680514346
 20
0.899117236
 11
5.6548469935
 21
0.899117236
  0
LINE
  5
253
100
AcDbEntity
  8
0
100
AcDbLine
 62
7
  6
CONTINUOUS
 10
5.6348936335
 20
0.899117236
 11
5.6095938419
 21
0.899117236
  0
LINE
  5
254
100
AcDbEntity
  8
0
100
AcDbLine
 62
7
  6
CONTINUOUS
 10
5.5991902736
 20
0.899117236
 11
5.5735229211
 21
0.899117236
  0
LINE
  5
255
100
AcDbEntity
  8
0
100
AcDbLine
 62
7
  6
CONTINUOUS
 10
2.680514346
 20
0.899117236
 11
2.6548469935
 21
0.899117236
  0
LINE
  5
256
100
AcDbEntity
  8
0
100
AcDbLine
 62
7
  6
CONTINUOUS
 10
2.6348936335
 20
0.899117236
 11
2.6095938419
 21
0.899117236
  0
LINE
  5
257
100
AcDbEntity
  8
0
100
AcDbLine
 62
7
  6
CONTINUOUS
 10
2.5991902736
 20
0.899117236
 11
2.5735229211
 21
0.899117236
  0
LINE
  5
258
100
AcDbEntity
  8
0
100
AcDbLine
 62
9
  6
CONTINUOUS
 10
2.7386803719
 20
0.45495666
 11
2.7410874827
 21
0.4529799499
  0
LINE
  5
259
100
AcDbEntity
  8
0
100
AcDbLine
 62
7
  6
CONTINUOUS
 10
5.7832686336
 20
1.396742236
 11
5.4707686335
 21
1.396742236
  0
LINE
  5
25A
100
AcDbEntity
  8
0
100
AcDbLine
 62
7
  6
CONTINUOUS
 10
2.7832686336
 20
1.396742236
 11
2.4707686335
 21
1.396742236
  0
LINE
  5
25B
100
AcDbEntity
  8
0
100
AcDbLine
 62
9
  6
CONTINUOUS
 10
2.5129497844
 20
1.3295045222
 11
2.5153568934
 21
1.3275278106
  0
LINE
  5
25C
100
AcDbEntity
  8
0
100
AcDbLine
 62
7
  6
CONTINUOUS
 10
2.6191436335
 20
0.899117236
 11
2.6348936335
 21
0.883367236
  0
LINE
  5
25D
100
AcDbEntity
  8
0
100
AcDbLine
 62
9
  6
CONTINUOUS
 10
2.4955958634
 20
0.4803055594
 11
2.5153579166
 21
0.4549554104
  0
LINE
  5
25E
100
AcDbEntity
  8
0
100
AcDbLine
 62
9
  6
CONTINUOUS
 10
2.7584414022
 20
1.3021789146
 11
2.7386793501
 21
1.3275290621
  0
LINE
  5
25F
100
AcDbEntity
  8
0
100
AcDbLine
 62
9
  6
CONTINUOUS
 10
5.7410874827
 20
0.4529799499
 11
5.7386803722
 21
0.4549566597
  0
LINE
  5
260
100
AcDbEntity
  8
0
100
AcDbLine
 62
9
  6
CONTINUOUS
 10
5.5129497844
 20
1.3295045222
 11
5.5153568934
 21
1.3275278106
  0
LINE
  5
261
100
AcDbEntity
  8
0
100
AcDbLine
 62
7
  6
CONTINUOUS
 10
5.6191436335
 20
0.899117236
 11
5.6348936335
 21
0.883367236
  0
LINE
  5
262
100
AcDbEntity
  8
0
100
AcDbLine
 62
9
  6
CONTINUOUS
 10
5.4955958634
 20
0.4803055594
 11
5.5153579166
 21
0.4549554104
  0
LINE
  5
263
100
AcDbEntity
  8
0
100
AcDbLine
 62
7
  6
CONTINUOUS
 10
2.3828436234
 20
10.7721638895
 11
2.3828436234
 21
10.6053205825
  0
LINE
  5
264
100
AcDbEntity
  8
0
100
AcDbLine
 62
7
  6
CONTINUOUS
 10
2.4102686335
 20
10.791242236
 11
2.4102686335
 21
10.836242236
  0
LINE
  5
265
100
AcDbEntity
  8
0
100
AcDbLine
 62
7
  6
CONTINUOUS
 10
2.4707686335
 20
1.2716189892
 11
2.4707686335
 21
1.396742236
  0
LINE
  5
266
100
AcDbEntity
  8
0
100
AcDbLine
 62
7
  6
CONTINUOUS
 10
2.4923075295
 20
10.6053205825
 11
2.4923075295
 21
10.7721638895
  0
LINE
  5
267
100
AcDbEntity
  8
0
100
AcDbLine
 62
7
  6
CONTINUOUS
 10
2.5057686335
 20
10.586242236
 11
2.5057686335
 21
10.554742236
  0
LINE
  5
268
100
AcDbEntity
  8
0
100
AcDbLine
 62
7
  6
CONTINUOUS
 10
2.5175547274
 20
10.7721638895
 11
2.5175547274
 21
10.6053205825
  0
LINE
  5
269
100
AcDbEntity
  8
0
100
AcDbLine
 62
7
  6
CONTINUOUS
 10
2.5332686335
 20
10.554742236
 11
2.5332686335
 21
1.396742236
  0
LINE
  5
26A
100
AcDbEntity
  8
0
100
AcDbLine
 62
7
  6
CONTINUOUS
 10
2.6191436335
 20
0.9447379485
 11
2.6191436335
 21
0.919070596
  0
LINE
  5
26B
100
AcDbEntity
  8
0
100
AcDbLine
 62
7
  6
CONTINUOUS
 10
2.6191436335
 20
0.9113939207
 11
2.6191436335
 21
0.8738174443
  0
LINE
  5
26C
100
AcDbEntity
  8
0
100
AcDbLine
 62
7
  6
CONTINUOUS
 10
2.6191436335
 20
0.8634138761
 11
2.6191436335
 21
0.8377465236
  0
LINE
  5
26D
100
AcDbEntity
  8
0
100
AcDbLine
 62
7
  6
CONTINUOUS
 10
2.6270186335
 20
0.969992236
 11
2.6270186335
 21
0.9667625825
  0
LINE
  5
26E
100
AcDbEntity
  8
0
100
AcDbLine
 62
7
  6
CONTINUOUS
 10
2.6270186335
 20
0.899117236
 11
2.6270186335
 21
0.883367236
  0
LINE
  5
26F
100
AcDbEntity
  8
0
100
AcDbLine
 62
7
  6
CONTINUOUS
 10
2.6270186335
 20
0.8157218896
 11
2.6270186335
 21
0.812492236
  0
LINE
  5
270
100
AcDbEntity
  8
0
100
AcDbLine
 62
7
  6
CONTINUOUS
 10
2.6348936335
 20
0.9447379485
 11
2.6348936335
 21
0.919070596
  0
LINE
  5
271
100
AcDbEntity
  8
0
100
AcDbLine
 62
7
  6
CONTINUOUS
 10
2.6348936335
 20
0.9113939206
 11
2.6348936335
 21
0.8738174441
  0
LINE
  5
272
100
AcDbEntity
  8
0
100
AcDbLine
 62
7
  6
CONTINUOUS
 10
2.6348936335
 20
0.8634138761
 11
2.6348936335
 21
0.8377465236
  0
LINE
  5
273
100
AcDbEntity
  8
0
100
AcDbLine
 62
7
  6
CONTINUOUS
 10
2.7207686335
 20
10.554742236
 11
2.7207686335
 21
1.396742236
  0
LINE
  5
274
100
AcDbEntity
  8
0
100
AcDbLine
 62
7
  6
CONTINUOUS
 10
2.7364825397
 20
10.6053205825
 11
2.7364825397
 21
10.7721638895
  0
LINE
  5
275
100
AcDbEntity
  8
0
100
AcDbLine
 62
7
  6
CONTINUOUS
 10
2.7482686335
 20
10.586242236
 11
2.7482686335
 21
10.554742236
  0
LINE
  5
276
100
AcDbEntity
  8
0
100
AcDbLine
 62
7
  6
CONTINUOUS
 10
2.7617297375
 20
10.7721638895
 11
2.7617297375
 21
10.6053205825
  0
LINE
  5
277
100
AcDbEntity
  8
0
100
AcDbLine
 62
7
  6
CONTINUOUS
 10
2.7832686335
 20
1.2716164796
 11
2.7832686335
 21
1.396742236
  0
LINE
  5
278
100
AcDbEntity
  8
0
100
AcDbLine
 62
7
  6
CONTINUOUS
 10
2.8437686335
 20
10.836242236
 11
2.8437686335
 21
10.791242236
  0
LINE
  5
279
100
AcDbEntity
  8
0
100
AcDbLine
 62
7
  6
CONTINUOUS
 10
2.8711936437
 20
10.6053205825
 11
2.8711936437
 21
10.7721638895
  0
LINE
  5
27A
100
AcDbEntity
  8
0
100
AcDbLine
 62
9
  6
CONTINUOUS
 10
5.7584414022
 20
1.3021789146
 11
5.7386793501
 21
1.3275290621
  0
LINE
  5
27B
100
AcDbEntity
  8
0
100
AcDbLine
 62
7
  6
CONTINUOUS
 10
5.3828436234
 20
10.7721638895
 11
5.3828436234
 21
10.6053205825
  0
LINE
  5
27C
100
AcDbEntity
  8
0
100
AcDbLine
 62
7
  6
CONTINUOUS
 10
5.4102686335
 20
10.836242236
 11
5.4102686335
 21
10.791242236
  0
LINE
  5
27D
100
AcDbEntity
  8
0
100
AcDbLine
 62
7
  6
CONTINUOUS
 10
5.4707686335
 20
1.2716189892
 11
5.4707686335
 21
1.396742236
  0
LINE
  5
27E
100
AcDbEntity
  8
0
100
AcDbLine
 62
7
  6
CONTINUOUS
 10
5.4923075295
 20
10.6053205825
 11
5.4923075295
 21
10.7721638895
  0
LINE
  5
27F
100
AcDbEntity
  8
0
100
AcDbLine
 62
7
  6
CONTINUOUS
 10
5.5057686335
 20
10.586242236
 11
5.5057686335
 21
10.554742236
  0
LINE
  5
280
100
AcDbEntity
  8
0
100
AcDbLine
 62
7
  6
CONTINUOUS
 10
5.5175547274
 20
10.7721638895
 11
5.5175547274
 21
10.6053205825
  0
LINE
  5
281
100
AcDbEntity
  8
0
100
AcDbLine
 62
7
  6
CONTINUOUS
 10
5.5332686335
 20
10.554742236
 11
5.5332686335
 21
1.396742236
  0
LINE
  5
282
100
AcDbEntity
  8
0
100
AcDbLine
 62
7
  6
CONTINUOUS
 10
5.6191436335
 20
0.9447379485
 11
5.6191436335
 21
0.919070596
  0
LINE
  5
283
100
AcDbEntity
  8
0
100
AcDbLine
 62
7
  6
CONTINUOUS
 10
5.6191436335
 20
0.9113939207
 11
5.6191436335
 21
0.8738174443
  0
LINE
  5
284
100
AcDbEntity
  8
0
100
AcDbLine
 62
7
  6
CONTINUOUS
 10
5.6191436335
 20
0.8634138761
 11
5.6191436335
 21
0.8377465236
  0
LINE
  5
285
100
AcDbEntity
  8
0
100
AcDbLine
 62
7
  6
CONTINUOUS
 10
5.6270186335
 20
0.969992236
 11
5.6270186335
 21
0.9667625825
  0
LINE
  5
286
100
AcDbEntity
  8
0
100
AcDbLine
 62
7
  6
CONTINUOUS
 10
5.6270186335
 20
0.899117236
 11
5.6270186335
 21
0.883367236
  0
LINE
  5
287
100
AcDbEntity
  8
0
100
AcDbLine
 62
7
  6
CONTINUOUS
 10
5.6270186335
 20
0.8157218896
 11
5.6270186335
 21
0.812492236
  0
LINE
  5
288
100
AcDbEntity
  8
0
100
AcDbLine
 62
7
  6
CONTINUOUS
 10
5.6348936335
 20
0.9447379485
 11
5.6348936335
 21
0.919070596
  0
LINE
  5
289
100
AcDbEntity
  8
0
100
AcDbLine
 62
7
  6
CONTINUOUS
 10
5.6348936335
 20
0.9113939206
 11
5.6348936335
 21
0.8738174441
  0
LINE
  5
28A
100
AcDbEntity
  8
0
100
AcDbLine
 62
7
  6
CONTINUOUS
 10
5.6348936335
 20
0.8634138761
 11
5.6348936335
 21
0.8377465236
  0
LINE
  5
28B
100
AcDbEntity
  8
0
100
AcDbLine
 62
9
  6
CONTINUOUS
 10
2.5153568934
 20
1.3275278106
 11
2.4955959398
 21
1.3021790223
  0
LINE
  5
28C
100
AcDbEntity
  8
0
100
AcDbLine
 62
7
  6
CONTINUOUS
 10
5.7207686335
 20
10.554742236
 11
5.7207686335
 21
1.396742236
  0
LINE
  5
28D
100
AcDbEntity
  8
0
100
AcDbLine
 62
7
  6
CONTINUOUS
 10
5.7364825397
 20
10.6053205825
 11
5.7364825397
 21
10.7721638895
  0
LINE
  5
28E
100
AcDbEntity
  8
0
100
AcDbLine
 62
7
  6
CONTINUOUS
 10
5.7482686335
 20
10.586242236
 11
5.7482686335
 21
10.554742236
  0
LINE
  5
28F
100
AcDbEntity
  8
0
100
AcDbLine
 62
7
  6
CONTINUOUS
 10
5.7617297375
 20
10.7721638895
 11
5.7617297375
 21
10.6053205825
  0
LINE
  5
290
100
AcDbEntity
  8
0
100
AcDbLine
 62
7
  6
CONTINUOUS
 10
5.7832686335
 20
1.2716164796
 11
5.7832686335
 21
1.396742236
  0
LINE
  5
291
100
AcDbEntity
  8
0
100
AcDbLine
 62
7
  6
CONTINUOUS
 10
5.8437686335
 20
10.836242236
 11
5.8437686335
 21
10.791242236
  0
LINE
  5
292
100
AcDbEntity
  8
0
100
AcDbLine
 62
7
  6
CONTINUOUS
 10
5.8711936437
 20
10.6053205825
 11
5.8711936437
 21
10.7721638895
  0
LINE
  5
293
100
AcDbEntity
  8
0
100
AcDbLine
 62
9
  6
CONTINUOUS
 10
2.7386803722
 20
0.4549566597
 11
2.7584413305
 21
0.4803054542
  0
LINE
  5
294
100
AcDbEntity
  8
0
100
AcDbLine
 62
7
  6
CONTINUOUS
 10
2.6191436335
 20
0.883367236
 11
2.6348936335
 21
0.899117236
  0
LINE
  5
295
100
AcDbEntity
  8
0
100
AcDbLine
 62
9
  6
CONTINUOUS
 10
2.7410874827
 20
1.3295045222
 11
2.73867935
 21
1.327529062
  0
LINE
  5
296
100
AcDbEntity
  8
0
100
AcDbLine
 62
9
  6
CONTINUOUS
 10
2.5153579166
 20
0.4549554104
 11
2.5129497844
 21
0.4529799499
  0
LINE
  5
297
100
AcDbEntity
  8
0
100
AcDbLine
 62
9
  6
CONTINUOUS
 10
5.5153568934
 20
1.3275278106
 11
5.4955959398
 21
1.3021790223
  0
LINE
  5
298
100
AcDbEntity
  8
0
100
AcDbLine
 62
9
  6
CONTINUOUS
 10
5.7386803722
 20
0.4549566597
 11
5.7584413305
 21
0.4803054542
  0
LINE
  5
299
100
AcDbEntity
  8
0
100
AcDbLine
 62
7
  6
CONTINUOUS
 10
5.6191436335
 20
0.883367236
 11
5.6348936335
 21
0.899117236
  0
LINE
  5
29A
100
AcDbEntity
  8
0
100
AcDbLine
 62
9
  6
CONTINUOUS
 10
5.7410874827
 20
1.3295045222
 11
5.73867935
 21
1.327529062
  0
LINE
  5
29B
100
AcDbEntity
  8
0
100
AcDbLine
 62
9
  6
CONTINUOUS
 10
5.5153579166
 20
0.4549554104
 11
5.5129497844
 21
0.4529799499
  0
LINE
  5
29C
100
AcDbEntity
  8
0
100
AcDbLine
 62
7
  6
CONTINUOUS
 10
5.7482686334
 20
10.554742236
 11
5.5057686336
 21
10.554742236
  0
LINE
  5
29D
100
AcDbEntity
  8
0
100
AcDbLine
 62
7
  6
CONTINUOUS
 10
2.7482686334
 20
10.554742236
 11
2.5057686336
 21
10.554742236
  0
LINE
  5
29E
100
AcDbEntity
  8
0
100
AcDbLine
 62
7
  6
CONTINUOUS
 10
2.4102686335
 20
10.586242236
 11
2.8437686335
 21
10.586242236
  0
LINE
  5
29F
100
AcDbEntity
  8
0
100
AcDbLine
 62
7
  6
CONTINUOUS
 10
5.4102686335
 20
10.586242236
 11
5.8437686335
 21
10.586242236
  0
LINE
  5
2A0
100
AcDbEntity
  8
0
100
AcDbLine
 62
7
  6
CONTINUOUS
 10
2.4923075295
 20
10.6053205825
 11
2.5175547274
 21
10.6053205825
  0
LINE
  5
2A1
100
AcDbEntity
  8
0
100
AcDbLine
 62
7
  6
CONTINUOUS
 10
2.7364825397
 20
10.6053205825
 11
2.7617297375
 21
10.6053205825
  0
LINE
  5
2A2
100
AcDbEntity
  8
0
100
AcDbLine
 62
7
  6
CONTINUOUS
 10
5.4923075295
 20
10.6053205825
 11
5.5175547274
 21
10.6053205825
  0
LINE
  5
2A3
100
AcDbEntity
  8
0
100
AcDbLine
 62
7
  6
CONTINUOUS
 10
5.7364825397
 20
10.6053205825
 11
5.7617297375
 21
10.6053205825
  0
LINE
  5
2A4
100
AcDbEntity
  8
0
100
AcDbLine
 62
7
  6
CONTINUOUS
 10
2.7617297375
 20
10.7721638895
 11
2.7364825397
 21
10.7721638895
  0
LINE
  5
2A5
100
AcDbEntity
  8
0
100
AcDbLine
 62
7
  6
CONTINUOUS
 10
2.5175547274
 20
10.7721638895
 11
2.4923075295
 21
10.7721638895
  0
LINE
  5
2A6
100
AcDbEntity
  8
0
100
AcDbLine
 62
7
  6
CONTINUOUS
 10
5.4923075295
 20
10.7721638895
 11
5.5175547274
 21
10.7721638895
  0
LINE
  5
2A7
100
AcDbEntity
  8
0
100
AcDbLine
 62
7
  6
CONTINUOUS
 10
5.7364825397
 20
10.7721638895
 11
5.7617297375
 21
10.7721638895
  0
LINE
  5
2A8
100
AcDbEntity
  8
0
100
AcDbLine
 62
7
  6
CONTINUOUS
 10
5.8437686335
 20
10.791242236
 11
5.4102686335
 21
10.791242236
  0
LINE
  5
2A9
100
AcDbEntity
  8
0
100
AcDbLine
 62
7
  6
CONTINUOUS
 10
2.4102686335
 20
10.791242236
 11
2.8437686335
 21
10.791242236
  0
LINE
  5
2AA
100
AcDbEntity
  8
0
100
AcDbLine
 62
7
  6
CONTINUOUS
 10
2.4102686335
 20
10.836242236
 11
2.8437686335
 21
10.836242236
  0
LINE
  5
2AB
100
AcDbEntity
  8
0
100
AcDbLine
 62
7
  6
CONTINUOUS
 10
5.4102686335
 20
10.836242236
 11
5.8437686335
 21
10.836242236
  0
ARC
  5
2AC
100
AcDbEntity
  8
0
100
AcDbCircle
 62
7
  6
CONTINUOUS
 10
2.2065426322
 20
0.8912422334
 40
0.6880509231
100
AcDbArc
 50
323.3290689986
 51
36.6709208902
  0
ARC
  5
2AD
100
AcDbEntity
  8
0
100
AcDbCircle
 62
9
  6
CONTINUOUS
 10
2.2035956727
 20
0.8845851348
 40
0.6784297802
100
AcDbArc
 50
35.9031899603
 51
36.9444497894
  0
ARC
  5
2AE
100
AcDbEntity
  8
0
100
AcDbCircle
 62
9
  6
CONTINUOUS
 10
2.2051121698
 20
0.8857380751
 40
0.6765248038
100
AcDbArc
 50
36.9436049713
 51
39.7096042877
  0
ARC
  5
2AF
100
AcDbEntity
  8
0
100
AcDbCircle
 62
7
  6
CONTINUOUS
 10
2.469146049
 20
0.891241213
 40
0.2115149084
100
AcDbArc
 50
357.8665810329
 51
0.0002771067
  0
ARC
  5
2B0
100
AcDbEntity
  8
0
100
AcDbCircle
 62
7
  6
CONTINUOUS
 10
2.6270176106
 20
0.7333696515
 40
0.2115149084
100
AcDbArc
 50
89.9997228933
 51
92.1334189671
  0
ARC
  5
2B1
100
AcDbEntity
  8
0
100
AcDbCircle
 62
7
  6
CONTINUOUS
 10
2.5989626285
 20
0.8633196068
 40
0.0201836653
100
AcDbArc
 50
10.6039232183
 51
29.8998986536
  0
ARC
  5
2B2
100
AcDbEntity
  8
0
100
AcDbCircle
 62
7
  6
CONTINUOUS
 10
2.2064831366
 20
0.891242236
 40
0.691285497
100
AcDbArc
 50
320.6555074171
 51
39.3444925829
  0
ARC
  5
2B3
100
AcDbEntity
  8
0
100
AcDbCircle
 62
9
  6
CONTINUOUS
 10
2.2035760074
 20
0.8979144202
 40
0.6784545156
100
AcDbArc
 50
323.0555488821
 51
324.0960220472
  0
ARC
  5
2B4
100
AcDbEntity
  8
0
100
AcDbCircle
 62
9
  6
CONTINUOUS
 10
2.2050783887
 20
0.8967722131
 40
0.676567272
100
AcDbArc
 50
320.2905415854
 51
323.0563856835
  0
ARC
  5
2B5
100
AcDbEntity
  8
0
100
AcDbCircle
 62
7
  6
CONTINUOUS
 10
2.4690910506
 20
0.891242236
 40
0.2115699068
100
AcDbArc
 50
357.866858652
 51
2.133141348
  0
ARC
  5
2B6
100
AcDbEntity
  8
0
100
AcDbCircle
 62
7
  6
CONTINUOUS
 10
2.627014672
 20
1.0490079524
 40
0.211408005
100
AcDbArc
 50
267.8662986879
 51
270.0000242742
  0
ARC
  5
2B7
100
AcDbEntity
  8
0
100
AcDbCircle
 62
7
  6
CONTINUOUS
 10
2.5990959929
 20
0.9192983024
 40
0.02018372
100
AcDbArc
 50
280.6107370049
 51
299.9063805044
  0
ARC
  5
2B8
100
AcDbEntity
  8
0
100
AcDbCircle
 62
9
  6
CONTINUOUS
 10
3.0504612562
 20
0.8845700257
 40
0.6784545295
100
AcDbArc
 50
143.0555460468
 51
144.0960284467
  0
ARC
  5
2B9
100
AcDbEntity
  8
0
100
AcDbCircle
 62
9
  6
CONTINUOUS
 10
3.0489590199
 20
0.8857121225
 40
0.6765674681
100
AcDbArc
 50
140.2905403547
 51
143.0563827561
  0
ARC
  5
2BA
100
AcDbEntity
  8
0
100
AcDbCircle
 62
7
  6
CONTINUOUS
 10
2.6270186335
 20
0.7333146531
 40
0.2115699068
100
AcDbArc
 50
87.866858652
 51
92.133141348
  0
ARC
  5
2BB
100
AcDbEntity
  8
0
100
AcDbCircle
 62
7
  6
CONTINUOUS
 10
2.6270186335
 20
0.546492236
 40
0.1475
100
AcDbArc
 50
219.3444925829
 51
320.6555074171
  0
ARC
  5
2BC
100
AcDbEntity
  8
0
100
AcDbCircle
 62
9
  6
CONTINUOUS
 10
2.6270186332
 20
0.5463072451
 40
0.1442703796
100
AcDbArc
 50
219.2872756875
 51
320.7133654255
  0
ARC
  5
2BD
100
AcDbEntity
  8
0
100
AcDbCircle
 62
7
  6
CONTINUOUS
 10
2.6549412741
 20
0.8631861696
 40
0.02018372
100
AcDbArc
 50
100.6107370051
 51
119.9063805042
  0
ARC
  5
2BE
100
AcDbEntity
  8
0
100
AcDbCircle
 62
7
  6
CONTINUOUS
 10
2.6270186335
 20
0.891242236
 40
0.625
100
AcDbArc
 50
98.6272030391
 51
81.3725727966
  0
ARC
  5
2BF
100
AcDbEntity
  8
0
100
AcDbCircle
 62
9
  6
CONTINUOUS
 10
2.6270186335
 20
0.891242236
 40
0.5833572567
100
AcDbArc
 50
99.251717733
 51
80.7481740305
  0
CIRCLE
  5
2C0
100
AcDbEntity
  8
0
100
AcDbCircle
 62
7
  6
CONTINUOUS
 10
2.6270186335
 20
0.891242236
 40
0.0825
  0
CIRCLE
  5
2C1
100
AcDbEntity
  8
0
100
AcDbCircle
 62
7
  6
CONTINUOUS
 10
2.6270186335
 20
0.891242236
 40
0.07875
  0
CIRCLE
  5
2C2
100
AcDbEntity
  8
0
100
AcDbCircle
 62
9
  6
CONTINUOUS
 10
2.6270186335
 20
0.891242236
 40
0.0755203465
  0
ARC
  5
2C3
100
AcDbEntity
  8
0
100
AcDbCircle
 62
7
  6
CONTINUOUS
 10
2.6550746386
 20
0.9191648652
 40
0.0201836653
100
AcDbArc
 50
190.6039232188
 51
209.8998986538
  0
ARC
  5
2C4
100
AcDbEntity
  8
0
100
AcDbCircle
 62
7
  6
CONTINUOUS
 10
2.6270186335
 20
1.0491698189
 40
0.2115699068
100
AcDbArc
 50
267.866858652
 51
272.133141348
  0
ARC
  5
2C5
100
AcDbEntity
  8
0
100
AcDbCircle
 62
7
  6
CONTINUOUS
 10
2.7849462164
 20
0.891242236
 40
0.2115699068
100
AcDbArc
 50
177.866858652
 51
182.133141348
  0
ARC
  5
2C6
100
AcDbEntity
  8
0
100
AcDbCircle
 62
7
  6
CONTINUOUS
 10
2.6270186335
 20
1.235992236
 40
0.1475
100
AcDbArc
 50
39.3444925829
 51
140.6555074171
  0
ARC
  5
2C7
100
AcDbEntity
  8
0
100
AcDbCircle
 62
9
  6
CONTINUOUS
 10
2.6270186338
 20
1.2361772262
 40
0.1442703796
100
AcDbArc
 50
39.2872761474
 51
140.7133660789
  0
ARC
  5
2C8
100
AcDbEntity
  8
0
100
AcDbCircle
 62
7
  6
CONTINUOUS
 10
3.0475541305
 20
0.891242236
 40
0.691285497
100
AcDbArc
 50
140.6555074171
 51
219.3444925829
  0
ARC
  5
2C9
100
AcDbEntity
  8
0
100
AcDbCircle
 62
9
  6
CONTINUOUS
 10
3.0504416102
 20
0.8978993415
 40
0.6784297951
100
AcDbArc
 50
215.9031929594
 51
216.944448915
  0
ARC
  5
2CA
100
AcDbEntity
  8
0
100
AcDbCircle
 62
9
  6
CONTINUOUS
 10
3.0489250758
 20
0.8967463729
 40
0.6765247719
100
AcDbArc
 50
216.9436040718
 51
219.7096038848
  0
ARC
  5
2CB
100
AcDbEntity
  8
0
100
AcDbCircle
 62
7
  6
CONTINUOUS
 10
2.6254691093
 20
10.4452907014
 40
0.3447103713
100
AcDbArc
 50
96.2364717115
 51
96.7887398628
  0
ARC
  5
2CC
100
AcDbEntity
  8
0
100
AcDbCircle
 62
7
  6
CONTINUOUS
 10
2.6246380439
 20
10.451893976
 40
0.3380551575
100
AcDbArc
 50
96.7811683582
 51
99.6338045267
  0
ARC
  5
2CD
100
AcDbEntity
  8
0
100
AcDbCircle
 62
7
  6
CONTINUOUS
 10
2.6223307045
 20
10.4655022315
 40
0.3242526785
100
AcDbArc
 50
99.6342546994
 51
101.8284789971
  0
ARC
  5
2CE
100
AcDbEntity
  8
0
100
AcDbCircle
 62
7
  6
CONTINUOUS
 10
2.6201535874
 20
10.4760498367
 40
0.3134827756
100
AcDbArc
 50
101.8341792551
 51
103.0343438831
  0
ARC
  5
2CF
100
AcDbEntity
  8
0
100
AcDbCircle
 62
7
  6
CONTINUOUS
 10
2.6174353662
 20
10.4875673176
 40
0.3016489921
100
AcDbArc
 50
103.024734624
 51
105.7650577966
  0
ARC
  5
2D0
100
AcDbEntity
  8
0
100
AcDbCircle
 62
7
  6
CONTINUOUS
 10
2.6124647438
 20
10.5050026652
 40
0.2835190135
100
AcDbArc
 50
105.7556448923
 51
109.55777094
  0
ARC
  5
2D1
100
AcDbEntity
  8
0
100
AcDbCircle
 62
7
  6
CONTINUOUS
 10
2.5301904831
 20
10.586242236
 40
0.2375
100
AcDbArc
 50
120.3269780968
 51
128.479759946
  0
ARC
  5
2D2
100
AcDbEntity
  8
0
100
AcDbCircle
 62
7
  6
CONTINUOUS
 10
2.5301904831
 20
10.791242236
 40
0.2375
100
AcDbArc
 50
231.520240054
 51
239.6730219033
  0
ARC
  5
2D3
100
AcDbEntity
  8
0
100
AcDbCircle
 62
7
  6
CONTINUOUS
 10
2.4327273672
 20
10.6884668493
 40
0.1027374824
100
AcDbArc
 50
54.5546447565
 51
60.4850832463
  0
ARC
  5
2D4
100
AcDbEntity
  8
0
100
AcDbCircle
 62
7
  6
CONTINUOUS
 10
2.4418762526
 20
10.6893281674
 40
0.1017182784
100
AcDbArc
 50
119.6191389436
 51
125.4754584405
  0
ARC
  5
2D5
100
AcDbEntity
  8
0
100
AcDbCircle
 62
7
  6
CONTINUOUS
 10
2.4353041033
 20
10.6928792815
 40
0.0976282574
100
AcDbArc
 50
60.5253202676
 51
65.127123406
  0
ARC
  5
2D6
100
AcDbEntity
  8
0
100
AcDbCircle
 62
7
  6
CONTINUOUS
 10
2.4396136108
 20
10.6933318089
 40
0.0971195233
100
AcDbArc
 50
114.8596887099
 51
119.6260689224
  0
ARC
  5
2D7
100
AcDbEntity
  8
0
100
AcDbCircle
 62
7
  6
CONTINUOUS
 10
2.4389372699
 20
10.6947683386
 40
0.095531771
100
AcDbArc
 50
113.7121050823
 51
114.8538364931
  0
ARC
  5
2D8
100
AcDbEntity
  8
0
100
AcDbCircle
 62
7
  6
CONTINUOUS
 10
2.4362808278
 20
10.6949145485
 40
0.0953709634
100
AcDbArc
 50
65.1451946973
 51
67.2611347384
  0
ARC
  5
2D9
100
AcDbEntity
  8
0
100
AcDbCircle
 62
7
  6
CONTINUOUS
 10
2.4387248622
 20
10.6952509612
 40
0.0950044745
100
AcDbArc
 50
112.7366510595
 51
113.7118679517
  0
ARC
  5
2DA
100
AcDbEntity
  8
0
100
AcDbCircle
 62
7
  6
CONTINUOUS
 10
2.4367489428
 20
10.6960299581
 40
0.0941613064
100
AcDbArc
 50
67.2614937767
 51
71.2251133231
  0
ARC
  5
2DB
100
AcDbEntity
  8
0
100
AcDbCircle
 62
7
  6
CONTINUOUS
 10
2.4383269374
 20
10.6962285949
 40
0.093949016
100
AcDbArc
 50
108.7703282336
 51
112.7432674595
  0
ARC
  5
2DC
100
AcDbEntity
  8
0
100
AcDbCircle
 62
7
  6
CONTINUOUS
 10
2.43729106
 20
10.6969139711
 40
0.09317043
100
AcDbArc
 50
69.8053486139
 51
85.6756588659
  0
ARC
  5
2DD
100
AcDbEntity
  8
0
100
AcDbCircle
 62
7
  6
CONTINUOUS
 10
2.4378344649
 20
10.6972833872
 40
0.0928001307
100
AcDbArc
 50
94.3259002943
 51
102.4332628178
  0
ARC
  5
2DE
100
AcDbEntity
  8
0
100
AcDbCircle
 62
7
  6
CONTINUOUS
 10
2.4372381654
 20
10.6974647611
 40
0.0926453921
100
AcDbArc
 50
71.2259784808
 51
76.5942681216
  0
ARC
  5
2DF
100
AcDbEntity
  8
0
100
AcDbCircle
 62
7
  6
CONTINUOUS
 10
2.4377976072
 20
10.6978647746
 40
0.0922295328
100
AcDbArc
 50
103.3935411876
 51
108.7860478957
  0
ARC
  5
2E0
100
AcDbEntity
  8
0
100
AcDbCircle
 62
7
  6
CONTINUOUS
 10
2.4375058288
 20
10.6784321344
 40
0.0910067678
100
AcDbArc
 50
258.1500355262
 51
270.0440815596
  0
ARC
  5
2E1
100
AcDbEntity
  8
0
100
AcDbCircle
 62
7
  6
CONTINUOUS
 10
2.4376467018
 20
10.6990668232
 40
0.0909922831
100
AcDbArc
 50
76.6114377549
 51
103.388479186
  0
ARC
  5
2E2
100
AcDbEntity
  8
0
100
AcDbCircle
 62
7
  6
CONTINUOUS
 10
2.4375755951
 20
10.6998341234
 40
0.0902371587
100
AcDbArc
 50
85.7160025708
 51
94.2841642056
  0
ARC
  5
2E3
100
AcDbEntity
  8
0
100
AcDbCircle
 62
7
  6
CONTINUOUS
 10
2.6270186386
 20
10.4265926811
 40
0.3634663971
100
AcDbArc
 50
83.840911508
 51
96.1590959834
  0
ARC
  5
2E4
100
AcDbEntity
  8
0
100
AcDbCircle
 62
7
  6
CONTINUOUS
 10
2.6285681649
 20
10.4452907827
 40
0.3447102907
100
AcDbArc
 50
83.2112333459
 51
83.7635342172
  0
ARC
  5
2E5
100
AcDbEntity
  8
0
100
AcDbCircle
 62
7
  6
CONTINUOUS
 10
2.6293992076
 20
10.4518938677
 40
0.3380552679
100
AcDbArc
 50
80.3662593175
 51
83.2188043222
  0
ARC
  5
2E6
100
AcDbEntity
  8
0
100
AcDbCircle
 62
7
  6
CONTINUOUS
 10
2.6317065725
 20
10.4655023201
 40
0.3242525905
100
AcDbArc
 50
78.1714682882
 51
80.3658104695
  0
ARC
  5
2E7
100
AcDbEntity
  8
0
100
AcDbCircle
 62
7
  6
CONTINUOUS
 10
2.633883571
 20
10.4760493625
 40
0.3134832628
100
AcDbArc
 50
76.9658857833
 51
78.1657660862
  0
ARC
  5
2E8
100
AcDbEntity
  8
0
100
AcDbCircle
 62
7
  6
CONTINUOUS
 10
2.6366017554
 20
10.4875668094
 40
0.3016495209
100
AcDbArc
 50
74.2348813924
 51
76.9754986914
  0
ARC
  5
2E9
100
AcDbEntity
  8
0
100
AcDbCircle
 62
7
  6
CONTINUOUS
 10
2.6415725422
 20
10.5050027316
 40
0.2835189446
100
AcDbArc
 50
70.4422281717
 51
74.2442908368
  0
ARC
  5
2EA
100
AcDbEntity
  8
0
100
AcDbCircle
 62
7
  6
CONTINUOUS
 10
2.723846784
 20
10.586242236
 40
0.2375
100
AcDbArc
 50
51.520240054
 51
59.6730219032
  0
ARC
  5
2EB
100
AcDbEntity
  8
0
100
AcDbCircle
 62
7
  6
CONTINUOUS
 10
2.723846784
 20
10.791242236
 40
0.2375
100
AcDbArc
 50
300.3269780967
 51
308.479759946
  0
ARC
  5
2EC
100
AcDbEntity
  8
0
100
AcDbCircle
 62
7
  6
CONTINUOUS
 10
2.811613317
 20
10.6884666137
 40
0.1027377697
100
AcDbArc
 50
54.554646271
 51
60.4847657565
  0
ARC
  5
2ED
100
AcDbEntity
  8
0
100
AcDbCircle
 62
7
  6
CONTINUOUS
 10
2.8121610097
 20
10.6881563083
 40
0.1017182842
100
AcDbArc
 50
299.6190866558
 51
305.4754593991
  0
ARC
  5
2EE
100
AcDbEntity
  8
0
100
AcDbCircle
 62
7
  6
CONTINUOUS
 10
2.8207174753
 20
10.6893974733
 40
0.1016357854
100
AcDbArc
 50
119.4826590979
 51
125.4775239411
  0
ARC
  5
2EF
100
AcDbEntity
  8
0
100
AcDbCircle
 62
7
  6
CONTINUOUS
 10
2.8141902485
 20
10.6928793603
 40
0.0976281744
100
AcDbArc
 50
60.5249950933
 51
65.1280234903
  0
ARC
  5
2F0
100
AcDbEntity
  8
0
100
AcDbCircle
 62
7
  6
CONTINUOUS
 10
2.8184817141
 20
10.6933690878
 40
0.0970781242
100
AcDbArc
 50
114.8602138922
 51
119.487634298
  0
ARC
  5
2F1
100
AcDbEntity
  8
0
100
AcDbCircle
 62
7
  6
CONTINUOUS
 10
2.8143819082
 20
10.6934654604
 40
0.0970619186
100
AcDbArc
 50
54.1747982205
 51
61.9583065369
  0
ARC
  5
2F2
100
AcDbEntity
  8
0
100
AcDbCircle
 62
7
  6
CONTINUOUS
 10
2.8151670178
 20
10.6949147633
 40
0.0953707386
100
AcDbArc
 50
65.1461061791
 51
67.2607378311
  0
ARC
  5
2F3
100
AcDbEntity
  8
0
100
AcDbCircle
 62
7
  6
CONTINUOUS
 10
2.8176853746
 20
10.6950756789
 40
0.0951948867
100
AcDbArc
 50
112.7368538553
 51
114.8571522648
  0
ARC
  5
2F4
100
AcDbEntity
  8
0
100
AcDbCircle
 62
7
  6
CONTINUOUS
 10
2.8156350606
 20
10.6960299984
 40
0.0941612705
100
AcDbArc
 50
67.2610923464
 51
71.2253145183
  0
ARC
  5
2F5
100
AcDbEntity
  8
0
100
AcDbCircle
 62
7
  6
CONTINUOUS
 10
2.8172131033
 20
10.6962284209
 40
0.0939491926
100
AcDbArc
 50
108.7705228254
 51
112.7429299399
  0
ARC
  5
2F6
100
AcDbEntity
  8
0
100
AcDbCircle
 62
7
  6
CONTINUOUS
 10
2.8168535823
 20
10.696458939
 40
0.0936345758
100
AcDbArc
 50
95.5045777758
 51
108.7705228254
  0
ARC
  5
2F7
100
AcDbEntity
  8
0
100
AcDbCircle
 62
7
  6
CONTINUOUS
 10
2.816177074
 20
10.6969132372
 40
0.0931711649
100
AcDbArc
 50
61.9538219389
 51
85.6754670423
  0
ARC
  5
2F8
100
AcDbEntity
  8
0
100
AcDbCircle
 62
7
  6
CONTINUOUS
 10
2.8161242957
 20
10.6974648361
 40
0.0926453193
100
AcDbArc
 50
71.2261833049
 51
76.5941263713
  0
ARC
  5
2F9
100
AcDbEntity
  8
0
100
AcDbCircle
 62
7
  6
CONTINUOUS
 10
2.8166837705
 20
10.6978646027
 40
0.0922297067
100
AcDbArc
 50
103.3936065263
 51
108.7862449906
  0
ARC
  5
2FA
100
AcDbEntity
  8
0
100
AcDbCircle
 62
7
  6
CONTINUOUS
 10
2.8164323108
 20
10.6984005488
 40
0.0916585348
100
AcDbArc
 50
89.9819099955
 51
95.8551984255
  0
ARC
  5
2FB
100
AcDbEntity
  8
0
100
AcDbCircle
 62
7
  6
CONTINUOUS
 10
2.8164415827
 20
10.6988469114
 40
0.0912180153
100
AcDbArc
 50
102.3285217496
 51
103.3885442861
  0
ARC
  5
2FC
100
AcDbEntity
  8
0
100
AcDbCircle
 62
7
  6
CONTINUOUS
 10
2.816531446
 20
10.6990523865
 40
0.0910067196
100
AcDbArc
 50
76.6112940421
 51
90.0441937636
  0
ARC
  5
2FD
100
AcDbEntity
  8
0
100
AcDbCircle
 62
7
  6
CONTINUOUS
 10
2.8165037197
 20
10.6992093418
 40
0.0908633349
100
AcDbArc
 50
94.2809916192
 51
95.4513474026
  0
ARC
  5
2FE
100
AcDbEntity
  8
0
100
AcDbCircle
 62
7
  6
CONTINUOUS
 10
2.8163456102
 20
10.6993026922
 40
0.0907522534
100
AcDbArc
 50
95.8588498876
 51
102.3307677716
  0
ARC
  5
2FF
100
AcDbEntity
  8
0
100
AcDbCircle
 62
7
  6
CONTINUOUS
 10
2.8164616644
 20
10.6998340935
 40
0.0902371871
100
AcDbArc
 50
85.7158058284
 51
94.2839749256
  0
ARC
  5
300
100
AcDbEntity
  8
0
100
AcDbCircle
 62
7
  6
CONTINUOUS
 10
5.2065426322
 20
0.8912422334
 40
0.6880509231
100
AcDbArc
 50
323.3290689988
 51
36.6709208961
  0
ARC
  5
301
100
AcDbEntity
  8
0
100
AcDbCircle
 62
9
  6
CONTINUOUS
 10
5.2035956726
 20
0.8845851348
 40
0.6784297802
100
AcDbArc
 50
35.9031899604
 51
36.9444497948
  0
ARC
  5
302
100
AcDbEntity
  8
0
100
AcDbCircle
 62
9
  6
CONTINUOUS
 10
5.2051121698
 20
0.8857380752
 40
0.6765248038
100
AcDbArc
 50
36.9436049768
 51
39.7096042878
  0
ARC
  5
303
100
AcDbEntity
  8
0
100
AcDbCircle
 62
7
  6
CONTINUOUS
 10
5.6270176106
 20
0.7333696515
 40
0.2115149084
100
AcDbArc
 50
89.9997228933
 51
92.1334189671
  0
ARC
  5
304
100
AcDbEntity
  8
0
100
AcDbCircle
 62
7
  6
CONTINUOUS
 10
5.469146049
 20
0.891241213
 40
0.2115149084
100
AcDbArc
 50
357.8665810329
 51
0.0002771067
  0
ARC
  5
305
100
AcDbEntity
  8
0
100
AcDbCircle
 62
7
  6
CONTINUOUS
 10
5.5989626285
 20
0.8633196068
 40
0.0201836653
100
AcDbArc
 50
10.6039232196
 51
29.8998986557
  0
ARC
  5
306
100
AcDbEntity
  8
0
100
AcDbCircle
 62
7
  6
CONTINUOUS
 10
5.2064831366
 20
0.891242236
 40
0.691285497
100
AcDbArc
 50
320.6555074171
 51
39.3444925828
  0
ARC
  5
307
100
AcDbEntity
  8
0
100
AcDbCircle
 62
9
  6
CONTINUOUS
 10
5.2035760074
 20
0.8979144202
 40
0.6784545156
100
AcDbArc
 50
323.0555488829
 51
324.0960220473
  0
ARC
  5
308
100
AcDbEntity
  8
0
100
AcDbCircle
 62
9
  6
CONTINUOUS
 10
5.2050783887
 20
0.8967722131
 40
0.676567272
100
AcDbArc
 50
320.2905415856
 51
323.0563856844
  0
ARC
  5
309
100
AcDbEntity
  8
0
100
AcDbCircle
 62
7
  6
CONTINUOUS
 10
5.4690910506
 20
0.891242236
 40
0.2115699068
100
AcDbArc
 50
357.866858652
 51
2.133141348
  0
ARC
  5
30A
100
AcDbEntity
  8
0
100
AcDbCircle
 62
7
  6
CONTINUOUS
 10
5.627014672
 20
1.0490079524
 40
0.211408005
100
AcDbArc
 50
267.8662986879
 51
270.0000242742
  0
ARC
  5
30B
100
AcDbEntity
  8
0
100
AcDbCircle
 62
7
  6
CONTINUOUS
 10
5.5990959929
 20
0.9192983024
 40
0.02018372
100
AcDbArc
 50
280.610737005
 51
299.9063805044
  0
ARC
  5
30C
100
AcDbEntity
  8
0
100
AcDbCircle
 62
9
  6
CONTINUOUS
 10
6.0504612562
 20
0.8845700257
 40
0.6784545295
100
AcDbArc
 50
143.0555460249
 51
144.0960284466
  0
ARC
  5
30D
100
AcDbEntity
  8
0
100
AcDbCircle
 62
9
  6
CONTINUOUS
 10
6.0489590199
 20
0.8857121225
 40
0.6765674681
100
AcDbArc
 50
140.2905403546
 51
143.0563827342
  0
ARC
  5
30E
100
AcDbEntity
  8
0
100
AcDbCircle
 62
7
  6
CONTINUOUS
 10
5.6270186335
 20
0.7333146531
 40
0.2115699068
100
AcDbArc
 50
87.866858652
 51
92.133141348
  0
ARC
  5
30F
100
AcDbEntity
  8
0
100
AcDbCircle
 62
7
  6
CONTINUOUS
 10
5.6270186335
 20
0.546492236
 40
0.1475
100
AcDbArc
 50
219.3444925829
 51
320.6555074171
  0
ARC
  5
310
100
AcDbEntity
  8
0
100
AcDbCircle
 62
9
  6
CONTINUOUS
 10
5.6270186332
 20
0.54630726
 40
0.1442703796
100
AcDbArc
 50
219.2872802417
 51
320.7133608713
  0
ARC
  5
311
100
AcDbEntity
  8
0
100
AcDbCircle
 62
7
  6
CONTINUOUS
 10
5.6549412741
 20
0.8631861696
 40
0.02018372
100
AcDbArc
 50
100.6107370051
 51
119.9063805042
  0
ARC
  5
312
100
AcDbEntity
  8
0
100
AcDbCircle
 62
7
  6
CONTINUOUS
 10
5.6270186335
 20
0.891242236
 40
0.625
100
AcDbArc
 50
98.6272030391
 51
81.3725727966
  0
ARC
  5
313
100
AcDbEntity
  8
0
100
AcDbCircle
 62
9
  6
CONTINUOUS
 10
5.6270186335
 20
0.891242236
 40
0.5833572567
100
AcDbArc
 50
99.251717733
 51
80.7481740305
  0
CIRCLE
  5
314
100
AcDbEntity
  8
0
100
AcDbCircle
 62
7
  6
CONTINUOUS
 10
5.6270186335
 20
0.891242236
 40
0.0825
  0
CIRCLE
  5
315
100
AcDbEntity
  8
0
100
AcDbCircle
 62
7
  6
CONTINUOUS
 10
5.6270186335
 20
0.891242236
 40
0.07875
  0
CIRCLE
  5
316
100
AcDbEntity
  8
0
100
AcDbCircle
 62
9
  6
CONTINUOUS
 10
5.6270186335
 20
0.891242236
 40
0.0755203465
  0
ARC
  5
317
100
AcDbEntity
  8
0
100
AcDbCircle
 62
7
  6
CONTINUOUS
 10
5.6550746386
 20
0.9191648652
 40
0.0201836653
100
AcDbArc
 50
190.6039232202
 51
209.8998986558
  0
ARC
  5
318
100
AcDbEntity
  8
0
100
AcDbCircle
 62
7
  6
CONTINUOUS
 10
5.6270186335
 20
1.0491698189
 40
0.2115699068
100
AcDbArc
 50
267.866858652
 51
272.133141348
  0
ARC
  5
319
100
AcDbEntity
  8
0
100
AcDbCircle
 62
7
  6
CONTINUOUS
 10
5.7849462164
 20
0.891242236
 40
0.2115699068
100
AcDbArc
 50
177.866858652
 51
182.133141348
  0
ARC
  5
31A
100
AcDbEntity
  8
0
100
AcDbCircle
 62
7
  6
CONTINUOUS
 10
5.6270186335
 20
1.235992236
 40
0.1475
100
AcDbArc
 50
39.3444925828
 51
140.6555074171
  0
ARC
  5
31B
100
AcDbEntity
  8
0
100
AcDbCircle
 62
9
  6
CONTINUOUS
 10
5.6270186338
 20
1.2361772262
 40
0.1442703796
100
AcDbArc
 50
39.2872761474
 51
140.7133660789
  0
ARC
  5
31C
100
AcDbEntity
  8
0
100
AcDbCircle
 62
7
  6
CONTINUOUS
 10
6.0475541305
 20
0.891242236
 40
0.691285497
100
AcDbArc
 50
140.6555074171
 51
219.3444925829
  0
ARC
  5
31D
100
AcDbEntity
  8
0
100
AcDbCircle
 62
9
  6
CONTINUOUS
 10
6.0504416102
 20
0.8978993415
 40
0.6784297951
100
AcDbArc
 50
215.9031929592
 51
216.9444491155
  0
ARC
  5
31E
100
AcDbEntity
  8
0
100
AcDbCircle
 62
9
  6
CONTINUOUS
 10
6.0489250758
 20
0.8967463728
 40
0.6765247718
100
AcDbArc
 50
216.9436042725
 51
219.7096038846
  0
ARC
  5
31F
100
AcDbEntity
  8
0
100
AcDbCircle
 62
7
  6
CONTINUOUS
 10
5.6254691093
 20
10.4452907013
 40
0.3447103713
100
AcDbArc
 50
96.2364717116
 51
96.7887398629
  0
ARC
  5
320
100
AcDbEntity
  8
0
100
AcDbCircle
 62
7
  6
CONTINUOUS
 10
5.6246380439
 20
10.451893976
 40
0.3380551575
100
AcDbArc
 50
96.7811683583
 51
99.6338045267
  0
ARC
  5
321
100
AcDbEntity
  8
0
100
AcDbCircle
 62
7
  6
CONTINUOUS
 10
5.6223307045
 20
10.4655022315
 40
0.3242526785
100
AcDbArc
 50
99.6342546993
 51
101.8284789971
  0
ARC
  5
322
100
AcDbEntity
  8
0
100
AcDbCircle
 62
7
  6
CONTINUOUS
 10
5.6201535874
 20
10.4760498367
 40
0.3134827757
100
AcDbArc
 50
101.8341792551
 51
103.034343883
  0
ARC
  5
323
100
AcDbEntity
  8
0
100
AcDbCircle
 62
7
  6
CONTINUOUS
 10
5.6174353662
 20
10.4875673176
 40
0.3016489921
100
AcDbArc
 50
103.024734624
 51
105.7650577965
  0
ARC
  5
324
100
AcDbEntity
  8
0
100
AcDbCircle
 62
7
  6
CONTINUOUS
 10
5.6124647438
 20
10.5050026652
 40
0.2835190135
100
AcDbArc
 50
105.7556448923
 51
109.55777094
  0
ARC
  5
325
100
AcDbEntity
  8
0
100
AcDbCircle
 62
7
  6
CONTINUOUS
 10
5.5301904831
 20
10.586242236
 40
0.2375
100
AcDbArc
 50
120.3269780968
 51
128.479759946
  0
ARC
  5
326
100
AcDbEntity
  8
0
100
AcDbCircle
 62
7
  6
CONTINUOUS
 10
5.5301904831
 20
10.791242236
 40
0.2375
100
AcDbArc
 50
232.4261047039
 51
239.6730219033
  0
ARC
  5
327
100
AcDbEntity
  8
0
100
AcDbCircle
 62
7
  6
CONTINUOUS
 10
5.4327273672
 20
10.6884668493
 40
0.1027374824
100
AcDbArc
 50
54.5546447566
 51
60.4850832464
  0
ARC
  5
328
100
AcDbEntity
  8
0
100
AcDbCircle
 62
7
  6
CONTINUOUS
 10
5.4332749269
 20
10.6881562749
 40
0.1017182388
100
AcDbArc
 50
299.6192611451
 51
305.4754559584
  0
ARC
  5
329
100
AcDbEntity
  8
0
100
AcDbCircle
 62
7
  6
CONTINUOUS
 10
5.4418315683
 20
10.6893971717
 40
0.1016361512
100
AcDbArc
 50
119.4829688597
 51
125.4775203383
  0
ARC
  5
32A
100
AcDbEntity
  8
0
100
AcDbCircle
 62
7
  6
CONTINUOUS
 10
5.4342367243
 20
10.6915600957
 40
0.099343797
100
AcDbArc
 50
54.2292286107
 51
57.4970493117
  0
ARC
  5
32B
100
AcDbEntity
  8
0
100
AcDbCircle
 62
7
  6
CONTINUOUS
 10
5.4351395245
 20
10.6929641562
 40
0.0976745501
100
AcDbArc
 50
57.5011125883
 51
58.2492020592
  0
ARC
  5
32C
100
AcDbEntity
  8
0
100
AcDbCircle
 62
7
  6
CONTINUOUS
 10
5.4353041033
 20
10.6928792815
 40
0.0976282574
100
AcDbArc
 50
60.5253202675
 51
65.1271234062
  0
ARC
  5
32D
100
AcDbEntity
  8
0
100
AcDbCircle
 62
7
  6
CONTINUOUS
 10
5.4354747811
 20
10.6842724975
 40
0.0972547163
100
AcDbArc
 50
295.2022432835
 51
299.6234431945
  0
ARC
  5
32E
100
AcDbEntity
  8
0
100
AcDbCircle
 62
7
  6
CONTINUOUS
 10
5.4395955063
 20
10.6933693097
 40
0.0970778863
100
AcDbArc
 50
114.8592981735
 51
119.4879561495
  0
ARC
  5
32F
100
AcDbEntity
  8
0
100
AcDbCircle
 62
7
  6
CONTINUOUS
 10
5.4359530865
 20
10.6943011741
 40
0.0961095072
100
AcDbArc
 50
58.2421883477
 51
61.0311147472
  0
ARC
  5
330
100
AcDbEntity
  8
0
100
AcDbCircle
 62
7
  6
CONTINUOUS
 10
5.4361746723
 20
10.6828035593
 40
0.0956275822
100
AcDbArc
 50
293.7127730022
 51
295.1975858282
  0
ARC
  5
331
100
AcDbEntity
  8
0
100
AcDbCircle
 62
7
  6
CONTINUOUS
 10
5.4389372699
 20
10.6947683386
 40
0.0955317709
100
AcDbArc
 50
113.7121050822
 51
114.8538364933
  0
ARC
  5
332
100
AcDbEntity
  8
0
100
AcDbCircle
 62
7
  6
CONTINUOUS
 10
5.4362808278
 20
10.6949145485
 40
0.0953709634
100
AcDbArc
 50
65.1451946975
 51
67.2611347382
  0
ARC
  5
333
100
AcDbEntity
  8
0
100
AcDbCircle
 62
7
  6
CONTINUOUS
 10
5.4387248623
 20
10.6952509612
 40
0.0950044746
100
AcDbArc
 50
112.7366510595
 51
113.7118679514
  0
ARC
  5
334
100
AcDbEntity
  8
0
100
AcDbCircle
 62
7
  6
CONTINUOUS
 10
5.4367489428
 20
10.6960299581
 40
0.0941613064
100
AcDbArc
 50
67.2614937766
 51
71.2251133231
  0
ARC
  5
335
100
AcDbEntity
  8
0
100
AcDbCircle
 62
7
  6
CONTINUOUS
 10
5.4383269374
 20
10.6962285949
 40
0.093949016
100
AcDbArc
 50
108.7703282336
 51
112.7432674594
  0
ARC
  5
336
100
AcDbEntity
  8
0
100
AcDbCircle
 62
7
  6
CONTINUOUS
 10
5.43729106
 20
10.6969139711
 40
0.09317043
100
AcDbArc
 50
60.9998646835
 51
85.6756588659
  0
ARC
  5
337
100
AcDbEntity
  8
0
100
AcDbCircle
 62
7
  6
CONTINUOUS
 10
5.4378344649
 20
10.6972833872
 40
0.0928001307
100
AcDbArc
 50
94.3259002944
 51
102.4332628178
  0
ARC
  5
338
100
AcDbEntity
  8
0
100
AcDbCircle
 62
7
  6
CONTINUOUS
 10
5.4372381654
 20
10.6974647611
 40
0.0926453921
100
AcDbArc
 50
71.2259784809
 51
76.5942681215
  0
ARC
  5
339
100
AcDbEntity
  8
0
100
AcDbCircle
 62
7
  6
CONTINUOUS
 10
5.4377976072
 20
10.6978647746
 40
0.0922295328
100
AcDbArc
 50
103.3935411873
 51
108.7860478958
  0
ARC
  5
33A
100
AcDbEntity
  8
0
100
AcDbCircle
 62
7
  6
CONTINUOUS
 10
5.4375956943
 20
10.6988469427
 40
0.0912179839
100
AcDbArc
 50
76.6114377546
 51
77.6715040898
  0
ARC
  5
33B
100
AcDbEntity
  8
0
100
AcDbCircle
 62
7
  6
CONTINUOUS
 10
5.4375058288
 20
10.6784321344
 40
0.0910067678
100
AcDbArc
 50
258.1500355262
 51
270.0440815596
  0
ARC
  5
33C
100
AcDbEntity
  8
0
100
AcDbCircle
 62
7
  6
CONTINUOUS
 10
5.4376886139
 20
10.6992836489
 40
0.0907715086
100
AcDbArc
 50
77.6699468366
 51
103.3884791857
  0
ARC
  5
33D
100
AcDbEntity
  8
0
100
AcDbCircle
 62
7
  6
CONTINUOUS
 10
5.4375755951
 20
10.6998341234
 40
0.0902371587
100
AcDbArc
 50
85.7160025708
 51
94.2841642056
  0
ARC
  5
33E
100
AcDbEntity
  8
0
100
AcDbCircle
 62
7
  6
CONTINUOUS
 10
5.6270186386
 20
10.4265926812
 40
0.3634663971
100
AcDbArc
 50
83.840911508
 51
96.1590959834
  0
ARC
  5
33F
100
AcDbEntity
  8
0
100
AcDbCircle
 62
7
  6
CONTINUOUS
 10
5.6285681649
 20
10.4452907827
 40
0.3447102907
100
AcDbArc
 50
83.2112333459
 51
83.7635342172
  0
ARC
  5
340
100
AcDbEntity
  8
0
100
AcDbCircle
 62
7
  6
CONTINUOUS
 10
5.6293992076
 20
10.4518938677
 40
0.3380552679
100
AcDbArc
 50
80.3662593175
 51
83.2188043222
  0
ARC
  5
341
100
AcDbEntity
  8
0
100
AcDbCircle
 62
7
  6
CONTINUOUS
 10
5.6317065725
 20
10.4655023201
 40
0.3242525905
100
AcDbArc
 50
78.1714682882
 51
80.3658104695
  0
ARC
  5
342
100
AcDbEntity
  8
0
100
AcDbCircle
 62
7
  6
CONTINUOUS
 10
5.633883571
 20
10.4760493625
 40
0.3134832629
100
AcDbArc
 50
76.9658857835
 51
78.1657660861
  0
ARC
  5
343
100
AcDbEntity
  8
0
100
AcDbCircle
 62
7
  6
CONTINUOUS
 10
5.6366017554
 20
10.4875668094
 40
0.3016495209
100
AcDbArc
 50
74.2348813924
 51
76.9754986915
  0
ARC
  5
344
100
AcDbEntity
  8
0
100
AcDbCircle
 62
7
  6
CONTINUOUS
 10
5.6415725422
 20
10.5050027316
 40
0.2835189446
100
AcDbArc
 50
70.4422281717
 51
74.2442908368
  0
ARC
  5
345
100
AcDbEntity
  8
0
100
AcDbCircle
 62
7
  6
CONTINUOUS
 10
5.723846784
 20
10.586242236
 40
0.2375
100
AcDbArc
 50
51.520240054
 51
59.6730219032
  0
ARC
  5
346
100
AcDbEntity
  8
0
100
AcDbCircle
 62
7
  6
CONTINUOUS
 10
5.723846784
 20
10.791242236
 40
0.2375
100
AcDbArc
 50
300.3269780967
 51
307.5738952961
  0
ARC
  5
347
100
AcDbEntity
  8
0
100
AcDbCircle
 62
7
  6
CONTINUOUS
 10
5.811613317
 20
10.6884666137
 40
0.1027377697
100
AcDbArc
 50
54.554646271
 51
60.4847657566
  0
ARC
  5
348
100
AcDbEntity
  8
0
100
AcDbCircle
 62
7
  6
CONTINUOUS
 10
5.8121610097
 20
10.6881563083
 40
0.1017182842
100
AcDbArc
 50
299.6190866557
 51
305.4754593991
  0
ARC
  5
349
100
AcDbEntity
  8
0
100
AcDbCircle
 62
7
  6
CONTINUOUS
 10
5.8207174753
 20
10.6893974733
 40
0.1016357854
100
AcDbArc
 50
119.4826590979
 51
125.4775239409
  0
ARC
  5
34A
100
AcDbEntity
  8
0
100
AcDbCircle
 62
7
  6
CONTINUOUS
 10
5.8141902485
 20
10.6928793603
 40
0.0976281744
100
AcDbArc
 50
60.5249950934
 51
65.1280234902
  0
ARC
  5
34B
100
AcDbEntity
  8
0
100
AcDbCircle
 62
7
  6
CONTINUOUS
 10
5.8184817141
 20
10.6933690878
 40
0.0970781242
100
AcDbArc
 50
114.8602138921
 51
119.4876342979
  0
ARC
  5
34C
100
AcDbEntity
  8
0
100
AcDbCircle
 62
7
  6
CONTINUOUS
 10
5.8143819082
 20
10.6934654604
 40
0.0970619186
100
AcDbArc
 50
54.1747982206
 51
61.9583065369
  0
ARC
  5
34D
100
AcDbEntity
  8
0
100
AcDbCircle
 62
7
  6
CONTINUOUS
 10
5.8151670178
 20
10.6949147633
 40
0.0953707386
100
AcDbArc
 50
65.1461061789
 51
67.2607378314
  0
ARC
  5
34E
100
AcDbEntity
  8
0
100
AcDbCircle
 62
7
  6
CONTINUOUS
 10
5.8176853746
 20
10.6950756789
 40
0.0951948867
100
AcDbArc
 50
112.7368538552
 51
114.8571522648
  0
ARC
  5
34F
100
AcDbEntity
  8
0
100
AcDbCircle
 62
7
  6
CONTINUOUS
 10
5.8156350606
 20
10.6960299984
 40
0.0941612705
100
AcDbArc
 50
67.2610923463
 51
71.2253145184
  0
ARC
  5
350
100
AcDbEntity
  8
0
100
AcDbCircle
 62
7
  6
CONTINUOUS
 10
5.8172131033
 20
10.6962284209
 40
0.0939491926
100
AcDbArc
 50
110.1601920659
 51
112.7429299399
  0
ARC
  5
351
100
AcDbEntity
  8
0
100
AcDbCircle
 62
7
  6
CONTINUOUS
 10
5.8160515842
 20
10.6963782778
 40
0.093716582
100
AcDbArc
 50
69.8462192845
 51
77.5955641979
  0
ARC
  5
352
100
AcDbEntity
  8
0
100
AcDbCircle
 62
7
  6
CONTINUOUS
 10
5.8168535823
 20
10.696458939
 40
0.0936345758
100
AcDbArc
 50
95.5045777758
 51
110.1601920659
  0
ARC
  5
353
100
AcDbEntity
  8
0
100
AcDbCircle
 62
7
  6
CONTINUOUS
 10
5.816193407
 20
10.6968819379
 40
0.0931949054
100
AcDbArc
 50
61.9538219388
 51
69.8213862241
  0
ARC
  5
354
100
AcDbEntity
  8
0
100
AcDbCircle
 62
7
  6
CONTINUOUS
 10
5.8161242957
 20
10.6974648361
 40
0.0926453193
100
AcDbArc
 50
71.2261833049
 51
76.5941263715
  0
ARC
  5
355
100
AcDbEntity
  8
0
100
AcDbCircle
 62
7
  6
CONTINUOUS
 10
5.8166837705
 20
10.6978646027
 40
0.0922297067
100
AcDbArc
 50
103.3936065263
 51
108.7862449906
  0
ARC
  5
356
100
AcDbEntity
  8
0
100
AcDbCircle
 62
7
  6
CONTINUOUS
 10
5.8163085986
 20
10.6980015294
 40
0.0920760665
100
AcDbArc
 50
77.5347827109
 51
85.7060120003
  0
ARC
  5
357
100
AcDbEntity
  8
0
100
AcDbCircle
 62
7
  6
CONTINUOUS
 10
5.8164911095
 20
10.6984006196
 40
0.0916584642
100
AcDbArc
 50
84.1454093417
 51
95.8551984255
  0
ARC
  5
358
100
AcDbEntity
  8
0
100
AcDbCircle
 62
7
  6
CONTINUOUS
 10
5.8164415827
 20
10.6988469114
 40
0.0912180153
100
AcDbArc
 50
102.3285217496
 51
103.3885442859
  0
ARC
  5
359
100
AcDbEntity
  8
0
100
AcDbCircle
 62
7
  6
CONTINUOUS
 10
5.8165037197
 20
10.6992093418
 40
0.0908633349
100
AcDbArc
 50
94.2809916191
 51
95.4513474026
  0
ARC
  5
35A
100
AcDbEntity
  8
0
100
AcDbCircle
 62
7
  6
CONTINUOUS
 10
5.8163456102
 20
10.6993026922
 40
0.0907522534
100
AcDbArc
 50
95.8588498875
 51
102.3307677716
  0
ARC
  5
35B
100
AcDbEntity
  8
0
100
AcDbCircle
 62
7
  6
CONTINUOUS
 10
5.816577782
 20
10.6993041077
 40
0.090750848
100
AcDbArc
 50
76.6112940421
 51
84.1416596473
  0
ARC
  5
35C
100
AcDbEntity
  8
0
100
AcDbCircle
 62
7
  6
CONTINUOUS
 10
5.8164616644
 20
10.6998340935
 40
0.0902371871
100
AcDbArc
 50
85.7158058284
 51
94.2839749256
  0
SPLINE
  5
35D
100
AcDbEntity
  8
0
100
AcDbSpline
 62
7
  6
CONTINUOUS
 70
0
 71
3
 72
17
 73
13
 74
0
 42
0.0000001
 43
0.0000001
 44
0.0000000001
 40
0.0
 40
0.0
 40
0.0
 40
0.0
 40
0.124995045
 40
0.249965273
 40
0.3749278397
 40
0.4374636925
 40
0.5000000246
 40
0.5625363565
 40
0.625072208
 40
0.750034781
 40
0.8750049996
 40
1.0
 40
1.0
 40
1.0
 40
1.0
 10
2.7584295187
 20
0.4803063638
 30
0.0
 10
2.7802862047
 20
0.5097439831
 30
0.0
 10
2.8194118248
 20
0.5721876069
 30
0.0
 10
2.8624281517
 20
0.6738766396
 30
0.0
 10
2.8843418566
 20
0.763318557
 30
0.0
 10
2.8931518856
 20
0.8361943324
 30
0.0
 10
2.8953547368
 20
0.8912421934
 30
0.0
 10
2.8931518909
 20
0.946290054
 30
0.0
 10
2.8843418766
 20
1.0191658326
 30
0.0
 10
2.8624281766
 20
1.1086077506
 30
0.0
 10
2.8194118674
 20
1.2102967739
 30
0.0
 10
2.7802862755
 20
1.2727403971
 30
0.0
 10
2.7584295989
 20
1.3021780072
 30
0.0
  0
SPLINE
  5
35E
100
AcDbEntity
  8
0
100
AcDbSpline
 62
7
  6
CONTINUOUS
 70
0
 71
3
 72
17
 73
13
 74
0
 42
0.0000001
 43
0.0000001
 44
0.0000000001
 40
0.0
 40
0.0
 40
0.0
 40
0.0
 40
0.1249950449
 40
0.2499652729
 40
0.3749278396
 40
0.4374636924
 40
0.5000000245
 40
0.5625363564
 40
0.625072208
 40
0.750034781
 40
0.8750049996
 40
1.0
 40
1.0
 40
1.0
 40
1.0
 10
2.4956077515
 20
1.3021781128
 30
0.0
 10
2.473751065
 20
1.2727404937
 30
0.0
 10
2.4346254448
 20
1.2102968697
 30
0.0
 10
2.3916091169
 20
1.1086078371
 30
0.0
 10
2.3696954113
 20
1.0191659195
 30
0.0
 10
2.3608853818
 20
0.9462901439
 30
0.0
 10
2.3586825303
 20
0.8912422827
 30
0.0
 10
2.3608853759
 20
0.8361944219
 30
0.0
 10
2.3696953899
 20
0.763318643
 30
0.0
 10
2.3916090894
 20
0.6738767245
 30
0.0
 10
2.4346253983
 20
0.5721877006
 30
0.0
 10
2.4737509902
 20
0.5097440771
 30
0.0
 10
2.4956076668
 20
0.4803064669
 30
0.0
  0
SPLINE
  5
35F
100
AcDbEntity
  8
0
100
AcDbSpline
 62
7
  6
CONTINUOUS
 70
0
 71
3
 72
9
 73
5
 74
0
 42
0.0000001
 43
0.0000001
 44
0.0000000001
 40
0.0
 40
0.0
 40
0.0
 40
0.0
 40
0.5160808332
 40
1.0
 40
1.0
 40
1.0
 40
1.0
 10
2.3828436234
 20
10.6053205825
 30
0.0
 10
2.3883895949
 20
10.6013751452
 30
0.0
 10
2.3999181678
 20
10.5947559885
 30
0.0
 10
2.412571661
 20
10.5906756917
 30
0.0
 10
2.4188176263
 20
10.5893648404
 30
0.0
  0
SPLINE
  5
360
100
AcDbEntity
  8
0
100
AcDbSpline
 62
7
  6
CONTINUOUS
 70
0
 71
3
 72
9
 73
5
 74
0
 42
0.0000001
 43
0.0000001
 44
0.0000000001
 40
0.0
 40
0.0
 40
0.0
 40
0.0
 40
0.4906862543
 40
1.0
 40
1.0
 40
1.0
 40
1.0
 10
2.4375758465
 20
10.5874253936
 30
0.0
 10
2.4442071387
 20
10.5874254138
 30
0.0
 10
2.4577640801
 20
10.5888939268
 30
0.0
 10
2.4706591439
 20
10.5933451406
 30
0.0
 10
2.4768872707
 20
10.5962754205
 30
0.0
  0
SPLINE
  5
361
100
AcDbEntity
  8
0
100
AcDbSpline
 62
7
  6
CONTINUOUS
 70
0
 71
3
 72
9
 73
5
 74
0
 42
0.0000001
 43
0.0000001
 44
0.0000000001
 40
0.0
 40
0.0
 40
0.0
 40
0.0
 40
0.2437374302
 40
1.0
 40
1.0
 40
1.0
 40
1.0
 10
2.4768872707
 20
10.5962754205
 30
0.0
 10
2.4782025156
 20
10.5968942319
 30
0.0
 10
2.4835406337
 20
10.5995550975
 30
0.0
 10
2.4886325701
 20
10.6027061944
 30
0.0
 10
2.4923075295
 20
10.6053205825
 30
0.0
  0
SPLINE
  5
362
100
AcDbEntity
  8
0
100
AcDbSpline
 62
7
  6
CONTINUOUS
 70
0
 71
3
 72
11
 73
7
 74
0
 42
0.0000001
 43
0.0000001
 44
0.0000000001
 40
0.0
 40
0.0
 40
0.0
 40
0.0
 40
0.2499956975
 40
0.5000000003
 40
0.7500043017
 40
1.0
 40
1.0
 40
1.0
 40
1.0
 10
2.5175547274
 20
10.6053205825
 30
0.0
 10
2.5350340311
 20
10.5991031419
 30
0.0
 10
2.5713136057
 20
10.5902020003
 30
0.0
 10
2.6270186335
 20
10.5860370674
 30
0.0
 10
2.6827236621
 20
10.5902019971
 30
0.0
 10
2.7190032359
 20
10.5991031419
 30
0.0
 10
2.7364825397
 20
10.6053205825
 30
0.0
  0
SPLINE
  5
363
100
AcDbEntity
  8
0
100
AcDbSpline
 62
7
  6
CONTINUOUS
 70
0
 71
3
 72
9
 73
5
 74
0
 42
0.0000001
 43
0.0000001
 44
0.0000000001
 40
0.0
 40
0.0
 40
0.0
 40
0.0
 40
0.2578200597
 40
1.0
 40
1.0
 40
1.0
 40
1.0
 10
2.7617297375
 20
10.6053205825
 30
0.0
 10
2.7631557614
 20
10.6043061006
 30
0.0
 10
2.7687831328
 20
10.6005087838
 30
0.0
 10
2.7747931649
 20
10.5972754557
 30
0.0
 10
2.7794057287
 20
10.5952495549
 30
0.0
  0
SPLINE
  5
364
100
AcDbEntity
  8
0
100
AcDbSpline
 62
7
  6
CONTINUOUS
 70
0
 71
3
 72
9
 73
5
 74
0
 42
0.0000001
 43
0.0000001
 44
0.0000000001
 40
0.0
 40
0.0
 40
0.0
 40
0.0
 40
0.5082510175
 40
1.0
 40
1.0
 40
1.0
 40
1.0
 10
2.7794057287
 20
10.5952495549
 30
0.0
 10
2.7853123071
 20
10.5926553054
 30
0.0
 10
2.7974912655
 20
10.5887207167
 30
0.0
 10
2.8102197647
 20
10.5874254077
 30
0.0
 10
2.8164614917
 20
10.5874253928
 30
0.0
  0
SPLINE
  5
365
100
AcDbEntity
  8
0
100
AcDbSpline
 62
7
  6
CONTINUOUS
 70
0
 71
3
 72
11
 73
7
 74
0
 42
0.0000001
 43
0.0000001
 44
0.0000000001
 40
0.0
 40
0.0
 40
0.0
 40
0.0
 40
0.2420627077
 40
0.4871674421
 40
0.7386954811
 40
1.0
 40
1.0
 40
1.0
 40
1.0
 10
2.8164614917
 20
10.5874253928
 30
0.0
 10
2.8203422546
 20
10.5874253836
 30
0.0
 10
2.8281620722
 20
10.587915914
 30
0.0
 10
2.8398181559
 20
10.5901865409
 30
0.0
 10
2.8513743369
 20
10.5940485267
 30
0.0
 10
2.8587910248
 20
10.5976599795
 30
0.0
 10
2.8624333889
 20
10.599729518
 30
0.0
  0
SPLINE
  5
366
100
AcDbEntity
  8
0
100
AcDbSpline
 62
7
  6
CONTINUOUS
 70
0
 71
3
 72
11
 73
7
 74
0
 42
0.0000001
 43
0.0000001
 44
0.0000000001
 40
0.0
 40
0.0
 40
0.0
 40
0.0
 40
0.2475222776
 40
0.4982048234
 40
0.7491023245
 40
1.0
 40
1.0
 40
1.0
 40
1.0
 10
2.6191436335
 20
0.919070596
 30
0.0
 10
2.6191436335
 20
0.9173525867
 30
0.0
 10
2.6186693765
 20
0.9138815254
 30
0.0
 10
2.6166794146
 20
0.9090169181
 30
0.0
 10
2.6134640091
 20
0.9048264002
 30
0.0
 10
2.6106678771
 20
0.9026721262
 30
0.0
 10
2.6091592783
 20
0.9018022217
 30
0.0
  0
LINE
  5
367
100
AcDbEntity
  8
0
100
AcDbLine
 62
7
  6
CONTINUOUS
 10
2.6028125332
 20
0.8994597067
 11
2.5991902736
 21
0.899117236
  0
SPLINE
  5
368
100
AcDbEntity
  8
0
100
AcDbSpline
 62
7
  6
CONTINUOUS
 70
0
 71
3
 72
11
 73
7
 74
0
 42
0.0000001
 43
0.0000001
 44
0.0000000001
 40
0.0
 40
0.0
 40
0.0
 40
0.0
 40
0.2475226063
 40
0.4982061812
 40
0.749103535
 40
1.0
 40
1.0
 40
1.0
 40
1.0
 10
2.5991902736
 20
0.883367236
 30
0.0
 10
2.6009084734
 20
0.883367236
 30
0.0
 10
2.6043799254
 20
0.8828928611
 30
0.0
 10
2.6092450031
 20
0.8809024744
 30
0.0
 10
2.6134357544
 20
0.877686401
 30
0.0
 10
2.6155899763
 20
0.8748897414
 30
0.0
 10
2.6164598001
 20
0.8733808856
 30
0.0
  0
LINE
  5
369
100
AcDbEntity
  8
0
100
AcDbLine
 62
7
  6
CONTINUOUS
 10
2.6188016123
 20
0.8670337778
 11
2.6191436335
 21
0.8634138761
  0
SPLINE
  5
36A
100
AcDbEntity
  8
0
100
AcDbSpline
 62
7
  6
CONTINUOUS
 70
0
 71
3
 72
11
 73
7
 74
0
 42
0.0000001
 43
0.0000001
 44
0.0000000001
 40
0.0
 40
0.0
 40
0.0
 40
0.0
 40
0.2475222776
 40
0.4982048234
 40
0.7491023245
 40
1.0
 40
1.0
 40
1.0
 40
1.0
 10
5.6191436335
 20
0.919070596
 30
0.0
 10
5.6191436335
 20
0.9173525867
 30
0.0
 10
5.6186693765
 20
0.9138815254
 30
0.0
 10
5.6166794146
 20
0.9090169181
 30
0.0
 10
5.6134640091
 20
0.9048264002
 30
0.0
 10
5.6106678771
 20
0.9026721262
 30
0.0
 10
5.6091592783
 20
0.9018022217
 30
0.0
  0
LINE
  5
36B
100
AcDbEntity
  8
0
100
AcDbLine
 62
7
  6
CONTINUOUS
 10
5.6028125332
 20
0.8994597067
 11
5.5991902736
 21
0.899117236
  0
SPLINE
  5
36C
100
AcDbEntity
  8
0
100
AcDbSpline
 62
7
  6
CONTINUOUS
 70
0
 71
3
 72
11
 73
7
 74
0
 42
0.0000001
 43
0.0000001
 44
0.0000000001
 40
0.0
 40
0.0
 40
0.0
 40
0.0
 40
0.2475226063
 40
0.4982061812
 40
0.749103535
 40
1.0
 40
1.0
 40
1.0
 40
1.0
 10
5.5991902736
 20
0.883367236
 30
0.0
 10
5.6009084734
 20
0.883367236
 30
0.0
 10
5.6043799254
 20
0.8828928611
 30
0.0
 10
5.6092450031
 20
0.8809024744
 30
0.0
 10
5.6134357544
 20
0.877686401
 30
0.0
 10
5.6155899763
 20
0.8748897414
 30
0.0
 10
5.6164598001
 20
0.8733808856
 30
0.0
  0
LINE
  5
36D
100
AcDbEntity
  8
0
100
AcDbLine
 62
7
  6
CONTINUOUS
 10
5.6188016123
 20
0.8670337778
 11
5.6191436335
 21
0.8634138761
  0
SPLINE
  5
36E
100
AcDbEntity
  8
0
100
AcDbSpline
 62
7
  6
CONTINUOUS
 70
0
 71
3
 72
11
 73
7
 74
0
 42
0.0000001
 43
0.0000001
 44
0.0000000001
 40
0.0
 40
0.0
 40
0.0
 40
0.0
 40
0.2475222776
 40
0.4982048234
 40
0.7491023245
 40
1.0
 40
1.0
 40
1.0
 40
1.0
 10
5.6348936335
 20
0.8634138761
 30
0.0
 10
5.6348936335
 20
0.8651318854
 30
0.0
 10
5.6353678905
 20
0.8686029466
 30
0.0
 10
5.6373578525
 20
0.873467554
 30
0.0
 10
5.640573258
 20
0.8776580718
 30
0.0
 10
5.6433693899
 20
0.8798123459
 30
0.0
 10
5.6448779887
 20
0.8806822503
 30
0.0
  0
LINE
  5
36F
100
AcDbEntity
  8
0
100
AcDbLine
 62
7
  6
CONTINUOUS
 10
5.6512247339
 20
0.8830247654
 11
5.6548469935
 21
0.883367236
  0
SPLINE
  5
370
100
AcDbEntity
  8
0
100
AcDbSpline
 62
7
  6
CONTINUOUS
 70
0
 71
3
 72
11
 73
7
 74
0
 42
0.0000001
 43
0.0000001
 44
0.0000000001
 40
0.0
 40
0.0
 40
0.0
 40
0.0
 40
0.2478921631
 40
0.4968997247
 40
0.7474770333
 40
1.0
 40
1.0
 40
1.0
 40
1.0
 10
5.7051436335
 20
1.396742236
 30
0.0
 10
5.7000194072
 20
1.396742236
 30
0.0
 10
5.6897366917
 20
1.3960533414
 30
0.0
 10
5.6745349336
 20
1.3930972964
 30
0.0
 10
5.6596802758
 20
1.3884169195
 30
0.0
 10
5.6500822477
 20
1.3843769898
 30
0.0
 10
5.6453518691
 20
1.3821698644
 30
0.0
  0
SPLINE
  5
371
100
AcDbEntity
  8
0
100
AcDbSpline
 62
7
  6
CONTINUOUS
 70
0
 71
3
 72
11
 73
7
 74
0
 42
0.0000001
 43
0.0000001
 44
0.0000000001
 40
0.0
 40
0.0
 40
0.0
 40
0.0
 40
0.2535355118
 40
0.5045700928
 40
0.7531156845
 40
1.0
 40
1.0
 40
1.0
 40
1.0
 10
5.7832686335
 20
1.3725702769
 30
0.0
 10
5.7772170491
 20
1.3760641608
 30
0.0
 10
5.7649057799
 20
1.3825737329
 30
0.0
 10
5.745623587
 20
1.3903834237
 30
0.0
 10
5.7256290493
 20
1.395526964
 30
0.0
 10
5.7119480858
 20
1.396742236
 30
0.0
 10
5.7051436335
 20
1.396742236
 30
0.0
  0
SPLINE
  5
372
100
AcDbEntity
  8
0
100
AcDbSpline
 62
7
  6
CONTINUOUS
 70
0
 71
3
 72
11
 73
7
 74
0
 42
0.0000001
 43
0.0000001
 44
0.0000000001
 40
0.0
 40
0.0
 40
0.0
 40
0.0
 40
0.2475226063
 40
0.4982061812
 40
0.749103535
 40
1.0
 40
1.0
 40
1.0
 40
1.0
 10
5.6548469935
 20
0.899117236
 30
0.0
 10
5.6531287937
 20
0.899117236
 30
0.0
 10
5.6496573417
 20
0.899591611
 30
0.0
 10
5.644792264
 20
0.9015819976
 30
0.0
 10
5.6406015127
 20
0.904798071
 30
0.0
 10
5.6384472908
 20
0.9075947306
 30
0.0
 10
5.6375774669
 20
0.9091035864
 30
0.0
  0
LINE
  5
373
100
AcDbEntity
  8
0
100
AcDbLine
 62
7
  6
CONTINUOUS
 10
5.6352356547
 20
0.9154506943
 11
5.6348936335
 21
0.919070596
  0
SPLINE
  5
374
100
AcDbEntity
  8
0
100
AcDbSpline
 62
7
  6
CONTINUOUS
 70
0
 71
3
 72
11
 73
7
 74
0
 42
0.0000001
 43
0.0000001
 44
0.0000000001
 40
0.0
 40
0.0
 40
0.0
 40
0.0
 40
0.2468843153
 40
0.4954299068
 40
0.7464644876
 40
1.0
 40
1.0
 40
1.0
 40
1.0
 10
5.5488936335
 20
1.396742236
 30
0.0
 10
5.5420891813
 20
1.396742236
 30
0.0
 10
5.5284082179
 20
1.3955269637
 30
0.0
 10
5.5084136801
 20
1.3903834236
 30
0.0
 10
5.4891314871
 20
1.3825737331
 30
0.0
 10
5.476820218
 20
1.3760641608
 30
0.0
 10
5.4707686335
 20
1.3725702769
 30
0.0
  0
SPLINE
  5
375
100
AcDbEntity
  8
0
100
AcDbSpline
 62
7
  6
CONTINUOUS
 70
0
 71
3
 72
11
 73
7
 74
0
 42
0.0000001
 43
0.0000001
 44
0.0000000001
 40
0.0
 40
0.0
 40
0.0
 40
0.0
 40
0.2525230147
 40
0.5031003434
 40
0.752107881
 40
1.0
 40
1.0
 40
1.0
 40
1.0
 10
5.6086862339
 20
1.3821694743
 30
0.0
 10
5.603955794
 20
1.3843766541
 30
0.0
 10
5.5943576398
 20
1.3884166868
 30
0.0
 10
5.5795027781
 20
1.3930971911
 30
0.0
 10
5.5643008023
 20
1.3960533214
 30
0.0
 10
5.5540179351
 20
1.396742236
 30
0.0
 10
5.5488936335
 20
1.396742236
 30
0.0
  0
SPLINE
  5
376
100
AcDbEntity
  8
0
100
AcDbSpline
 62
7
  6
CONTINUOUS
 70
0
 71
3
 72
11
 73
7
 74
0
 42
0.0000001
 43
0.0000001
 44
0.0000000001
 40
0.0
 40
0.0
 40
0.0
 40
0.0
 40
0.2475222776
 40
0.4982048234
 40
0.7491023245
 40
1.0
 40
1.0
 40
1.0
 40
1.0
 10
2.6348936335
 20
0.8634138761
 30
0.0
 10
2.6348936335
 20
0.8651318854
 30
0.0
 10
2.6353678905
 20
0.8686029466
 30
0.0
 10
2.6373578525
 20
0.873467554
 30
0.0
 10
2.640573258
 20
0.8776580718
 30
0.0
 10
2.6433693899
 20
0.8798123459
 30
0.0
 10
2.6448779887
 20
0.8806822503
 30
0.0
  0
LINE
  5
377
100
AcDbEntity
  8
0
100
AcDbLine
 62
7
  6
CONTINUOUS
 10
2.6512247339
 20
0.8830247654
 11
2.6548469935
 21
0.883367236
  0
SPLINE
  5
378
100
AcDbEntity
  8
0
100
AcDbSpline
 62
7
  6
CONTINUOUS
 70
0
 71
3
 72
11
 73
7
 74
0
 42
0.0000001
 43
0.0000001
 44
0.0000000001
 40
0.0
 40
0.0
 40
0.0
 40
0.0
 40
0.2475226063
 40
0.4982061812
 40
0.749103535
 40
1.0
 40
1.0
 40
1.0
 40
1.0
 10
2.6548469935
 20
0.899117236
 30
0.0
 10
2.6531287937
 20
0.899117236
 30
0.0
 10
2.6496573417
 20
0.899591611
 30
0.0
 10
2.644792264
 20
0.9015819976
 30
0.0
 10
2.6406015127
 20
0.904798071
 30
0.0
 10
2.6384472908
 20
0.9075947306
 30
0.0
 10
2.6375774669
 20
0.9091035864
 30
0.0
  0
LINE
  5
379
100
AcDbEntity
  8
0
100
AcDbLine
 62
7
  6
CONTINUOUS
 10
2.6352356547
 20
0.9154506943
 11
2.6348936335
 21
0.919070596
  0
SPLINE
  5
37A
100
AcDbEntity
  8
0
100
AcDbSpline
 62
7
  6
CONTINUOUS
 70
0
 71
3
 72
11
 73
7
 74
0
 42
0.0000001
 43
0.0000001
 44
0.0000000001
 40
0.0
 40
0.0
 40
0.0
 40
0.0
 40
0.2478921631
 40
0.4968997247
 40
0.7474770333
 40
1.0
 40
1.0
 40
1.0
 40
1.0
 10
2.7051436335
 20
1.396742236
 30
0.0
 10
2.7000194072
 20
1.396742236
 30
0.0
 10
2.6897366917
 20
1.3960533414
 30
0.0
 10
2.6745349336
 20
1.3930972964
 30
0.0
 10
2.6596802758
 20
1.3884169195
 30
0.0
 10
2.6500822477
 20
1.3843769898
 30
0.0
 10
2.6453518691
 20
1.3821698644
 30
0.0
  0
SPLINE
  5
37B
100
AcDbEntity
  8
0
100
AcDbSpline
 62
7
  6
CONTINUOUS
 70
0
 71
3
 72
11
 73
7
 74
0
 42
0.0000001
 43
0.0000001
 44
0.0000000001
 40
0.0
 40
0.0
 40
0.0
 40
0.0
 40
0.2535355118
 40
0.5045700928
 40
0.7531156845
 40
1.0
 40
1.0
 40
1.0
 40
1.0
 10
2.7832686335
 20
1.3725702769
 30
0.0
 10
2.7772170491
 20
1.3760641608
 30
0.0
 10
2.7649057799
 20
1.3825737329
 30
0.0
 10
2.745623587
 20
1.3903834237
 30
0.0
 10
2.7256290493
 20
1.395526964
 30
0.0
 10
2.7119480858
 20
1.396742236
 30
0.0
 10
2.7051436335
 20
1.396742236
 30
0.0
  0
SPLINE
  5
37C
100
AcDbEntity
  8
0
100
AcDbSpline
 62
7
  6
CONTINUOUS
 70
0
 71
3
 72
11
 73
7
 74
0
 42
0.0000001
 43
0.0000001
 44
0.0000000001
 40
0.0
 40
0.0
 40
0.0
 40
0.0
 40
0.2468843153
 40
0.4954299068
 40
0.7464644876
 40
1.0
 40
1.0
 40
1.0
 40
1.0
 10
2.5488936335
 20
1.396742236
 30
0.0
 10
2.5420891813
 20
1.396742236
 30
0.0
 10
2.5284082179
 20
1.3955269637
 30
0.0
 10
2.5084136801
 20
1.3903834236
 30
0.0
 10
2.4891314871
 20
1.3825737331
 30
0.0
 10
2.476820218
 20
1.3760641608
 30
0.0
 10
2.4707686335
 20
1.3725702769
 30
0.0
  0
SPLINE
  5
37D
100
AcDbEntity
  8
0
100
AcDbSpline
 62
7
  6
CONTINUOUS
 70
0
 71
3
 72
11
 73
7
 74
0
 42
0.0000001
 43
0.0000001
 44
0.0000000001
 40
0.0
 40
0.0
 40
0.0
 40
0.0
 40
0.2525230147
 40
0.5031003434
 40
0.752107881
 40
1.0
 40
1.0
 40
1.0
 40
1.0
 10
2.6086862339
 20
1.3821694743
 30
0.0
 10
2.603955794
 20
1.3843766541
 30
0.0
 10
2.5943576398
 20
1.3884166868
 30
0.0
 10
2.5795027781
 20
1.3930971911
 30
0.0
 10
2.5643008023
 20
1.3960533214
 30
0.0
 10
2.5540179351
 20
1.396742236
 30
0.0
 10
2.5488936335
 20
1.396742236
 30
0.0
  0
SPLINE
  5
37E
100
AcDbEntity
  8
0
100
AcDbSpline
 62
7
  6
CONTINUOUS
 70
0
 71
3
 72
17
 73
13
 74
0
 42
0.0000001
 43
0.0000001
 44
0.0000000001
 40
0.0
 40
0.0
 40
0.0
 40
0.0
 40
0.1249950377
 40
0.2499652569
 40
0.3749278351
 40
0.4374636959
 40
0.5000000343
 40
0.5625363721
 40
0.6250722304
 40
0.7500348178
 40
0.8750050277
 40
1.0
 40
1.0
 40
1.0
 40
1.0
 10
5.4956077515
 20
1.3021781129
 30
0.0
 10
5.4737510662
 20
1.2727404955
 30
0.0
 10
5.4346254484
 20
1.2102968757
 30
0.0
 10
5.3916091186
 20
1.1086078451
 30
0.0
 10
5.3696954135
 20
1.0191659241
 30
0.0
 10
5.360885381
 20
0.9462901412
 30
0.0
 10
5.3586825303
 20
0.891242274
 30
0.0
 10
5.360885377
 20
0.8361944076
 30
0.0
 10
5.3696953936
 20
0.7633186209
 30
0.0
 10
5.3916090977
 20
0.6738766995
 30
0.0
 10
5.4346254083
 20
0.5721876838
 30
0.0
 10
5.4737509938
 20
0.509744069
 30
0.0
 10
5.4956076665
 20
0.4803064661
 30
0.0
  0
SPLINE
  5
37F
100
AcDbEntity
  8
0
100
AcDbSpline
 62
7
  6
CONTINUOUS
 70
0
 71
3
 72
17
 73
13
 74
0
 42
0.0000001
 43
0.0000001
 44
0.0000000001
 40
0.0
 40
0.0
 40
0.0
 40
0.0
 40
0.124995045
 40
0.249965273
 40
0.3749278397
 40
0.4374636925
 40
0.5000000246
 40
0.5625363565
 40
0.625072208
 40
0.750034781
 40
0.8750049996
 40
1.0
 40
1.0
 40
1.0
 40
1.0
 10
5.7584295187
 20
0.4803063638
 30
0.0
 10
5.7802862048
 20
0.5097439831
 30
0.0
 10
5.8194118248
 20
0.5721876069
 30
0.0
 10
5.8624281517
 20
0.6738766396
 30
0.0
 10
5.8843418566
 20
0.7633185571
 30
0.0
 10
5.8931518856
 20
0.8361943325
 30
0.0
 10
5.8953547368
 20
0.8912421934
 30
0.0
 10
5.8931518909
 20
0.946290054
 30
0.0
 10
5.8843418765
 20
1.0191658326
 30
0.0
 10
5.8624281766
 20
1.1086077507
 30
0.0
 10
5.8194118674
 20
1.210296774
 30
0.0
 10
5.7802862755
 20
1.2727403972
 30
0.0
 10
5.7584295989
 20
1.3021780072
 30
0.0
  0
SPLINE
  5
380
100
AcDbEntity
  8
0
100
AcDbSpline
 62
7
  6
CONTINUOUS
 70
0
 71
3
 72
9
 73
5
 74
0
 42
0.0000001
 43
0.0000001
 44
0.0000000001
 40
0.0
 40
0.0
 40
0.0
 40
0.0
 40
0.5157945782
 40
1.0
 40
1.0
 40
1.0
 40
1.0
 10
5.3828436234
 20
10.7721638895
 30
0.0
 10
5.3882279555
 20
10.776041
 30
0.0
 10
5.3994501093
 20
10.7825441314
 30
0.0
 10
5.4117713911
 20
10.7865680608
 30
0.0
 10
5.4178543839
 20
10.7879071181
 30
0.0
  0
SPLINE
  5
381
100
AcDbEntity
  8
0
100
AcDbSpline
 62
7
  6
CONTINUOUS
 70
0
 71
3
 72
15
 73
11
 74
0
 42
0.0000001
 43
0.0000001
 44
0.0000000001
 40
0.0
 40
0.0
 40
0.0
 40
0.0
 40
0.1248284725
 40
0.249929272
 40
0.3750506533
 40
0.4999999992
 40
0.6249493458
 40
0.7500707286
 40
0.8751715284
 40
1.0
 40
1.0
 40
1.0
 40
1.0
 10
5.5175547274
 20
10.7721638895
 30
0.0
 10
5.5262788596
 20
10.7753052705
 30
0.0
 10
5.5440931514
 20
10.7806646052
 30
0.0
 10
5.5714431134
 20
10.7861407486
 30
0.0
 10
5.5991552111
 20
10.789348927
 30
0.0
 10
5.6270186335
 20
10.7904319499
 30
0.0
 10
5.6548820559
 20
10.7893489257
 30
0.0
 10
5.6825941538
 20
10.7861407484
 30
0.0
 10
5.7099441164
 20
10.7806646074
 30
0.0
 10
5.7277584082
 20
10.775305272
 30
0.0
 10
5.7364825397
 20
10.7721638895
 30
0.0
  0
SPLINE
  5
382
100
AcDbEntity
  8
0
100
AcDbSpline
 62
7
  6
CONTINUOUS
 70
0
 71
3
 72
9
 73
5
 74
0
 42
0.0000001
 43
0.0000001
 44
0.0000000001
 40
0.0
 40
0.0
 40
0.0
 40
0.0
 40
0.5122206402
 40
1.0
 40
1.0
 40
1.0
 40
1.0
 10
5.7617297375
 20
10.7721638895
 30
0.0
 10
5.7653270525
 20
10.7747542083
 30
0.0
 10
5.7726929084
 20
10.7793551671
 30
0.0
 10
5.7806204307
 20
10.7829009086
 30
0.0
 10
5.7845827938
 20
10.7843567774
 30
0.0
  0
SPLINE
  5
383
100
AcDbEntity
  8
0
100
AcDbSpline
 62
7
  6
CONTINUOUS
 70
0
 71
3
 72
9
 73
5
 74
0
 42
0.0000001
 43
0.0000001
 44
0.0000000001
 40
0.0
 40
0.0
 40
0.0
 40
0.0
 40
0.5122206402
 40
1.0
 40
1.0
 40
1.0
 40
1.0
 10
2.7617297375
 20
10.7721638895
 30
0.0
 10
2.7653270525
 20
10.7747542083
 30
0.0
 10
2.7726929084
 20
10.7793551671
 30
0.0
 10
2.7806204307
 20
10.7829009086
 30
0.0
 10
2.7845827938
 20
10.7843567774
 30
0.0
  0
SPLINE
  5
384
100
AcDbEntity
  8
0
100
AcDbSpline
 62
7
  6
CONTINUOUS
 70
0
 71
3
 72
15
 73
11
 74
0
 42
0.0000001
 43
0.0000001
 44
0.0000000001
 40
0.0
 40
0.0
 40
0.0
 40
0.0
 40
0.1248284725
 40
0.249929272
 40
0.3750506533
 40
0.4999999992
 40
0.6249493458
 40
0.7500707286
 40
0.8751715284
 40
1.0
 40
1.0
 40
1.0
 40
1.0
 10
2.5175547274
 20
10.7721638895
 30
0.0
 10
2.5262788596
 20
10.7753052705
 30
0.0
 10
2.5440931514
 20
10.7806646052
 30
0.0
 10
2.5714431134
 20
10.7861407486
 30
0.0
 10
2.5991552111
 20
10.789348927
 30
0.0
 10
2.6270186335
 20
10.7904319499
 30
0.0
 10
2.6548820559
 20
10.7893489257
 30
0.0
 10
2.6825941538
 20
10.7861407484
 30
0.0
 10
2.7099441164
 20
10.7806646074
 30
0.0
 10
2.7277584082
 20
10.775305272
 30
0.0
 10
2.7364825397
 20
10.7721638895
 30
0.0
  0
SPLINE
  5
385
100
AcDbEntity
  8
0
100
AcDbSpline
 62
7
  6
CONTINUOUS
 70
0
 71
3
 72
9
 73
5
 74
0
 42
0.0000001
 43
0.0000001
 44
0.0000000001
 40
0.0
 40
0.0
 40
0.0
 40
0.0
 40
0.5157945782
 40
1.0
 40
1.0
 40
1.0
 40
1.0
 10
2.3828436234
 20
10.7721638895
 30
0.0
 10
2.3882279555
 20
10.776041
 30
0.0
 10
2.3994501093
 20
10.7825441314
 30
0.0
 10
2.4117713911
 20
10.7865680608
 30
0.0
 10
2.4178543839
 20
10.7879071181
 30
0.0
  0
SPLINE
  5
386
100
AcDbEntity
  8
0
100
AcDbSpline
 62
7
  6
CONTINUOUS
 70
0
 71
3
 72
9
 73
5
 74
0
 42
0.0000001
 43
0.0000001
 44
0.0000000001
 40
0.0
 40
0.0
 40
0.0
 40
0.0
 40
0.4877793779
 40
1.0
 40
1.0
 40
1.0
 40
1.0
 10
2.4694544789
 20
10.7843567725
 30
0.0
 10
2.4734168409
 20
10.7829009036
 30
0.0
 10
2.4813443607
 20
10.7793551628
 30
0.0
 10
2.488710215
 20
10.7747542065
 30
0.0
 10
2.4923075295
 20
10.7721638895
 30
0.0
  0
SPLINE
  5
387
100
AcDbEntity
  8
0
100
AcDbSpline
 62
7
  6
CONTINUOUS
 70
0
 71
3
 72
9
 73
5
 74
0
 42
0.0000001
 43
0.0000001
 44
0.0000000001
 40
0.0
 40
0.0
 40
0.0
 40
0.0
 40
0.2578200597
 40
1.0
 40
1.0
 40
1.0
 40
1.0
 10
5.7617297375
 20
10.6053205825
 30
0.0
 10
5.7631557614
 20
10.6043061006
 30
0.0
 10
5.7687831328
 20
10.6005087838
 30
0.0
 10
5.7747931649
 20
10.5972754557
 30
0.0
 10
5.7794057287
 20
10.5952495549
 30
0.0
  0
SPLINE
  5
388
100
AcDbEntity
  8
0
100
AcDbSpline
 62
7
  6
CONTINUOUS
 70
0
 71
3
 72
9
 73
5
 74
0
 42
0.0000001
 43
0.0000001
 44
0.0000000001
 40
0.0
 40
0.0
 40
0.0
 40
0.0
 40
0.5082510175
 40
1.0
 40
1.0
 40
1.0
 40
1.0
 10
5.7794057287
 20
10.5952495549
 30
0.0
 10
5.7853123071
 20
10.5926553054
 30
0.0
 10
5.7974912655
 20
10.5887207167
 30
0.0
 10
5.8102197647
 20
10.5874254077
 30
0.0
 10
5.8164614917
 20
10.5874253928
 30
0.0
  0
SPLINE
  5
389
100
AcDbEntity
  8
0
100
AcDbSpline
 62
7
  6
CONTINUOUS
 70
0
 71
3
 72
11
 73
7
 74
0
 42
0.0000001
 43
0.0000001
 44
0.0000000001
 40
0.0
 40
0.0
 40
0.0
 40
0.0
 40
0.2420627077
 40
0.4871674421
 40
0.7386954811
 40
1.0
 40
1.0
 40
1.0
 40
1.0
 10
5.8164614917
 20
10.5874253928
 30
0.0
 10
5.8203422546
 20
10.5874253836
 30
0.0
 10
5.8281620722
 20
10.587915914
 30
0.0
 10
5.8398181559
 20
10.5901865409
 30
0.0
 10
5.8513743369
 20
10.5940485267
 30
0.0
 10
5.8587910248
 20
10.5976599795
 30
0.0
 10
5.8624333889
 20
10.599729518
 30
0.0
  0
SPLINE
  5
38A
100
AcDbEntity
  8
0
100
AcDbSpline
 62
7
  6
CONTINUOUS
 70
0
 71
3
 72
11
 73
7
 74
0
 42
0.0000001
 43
0.0000001
 44
0.0000000001
 40
0.0
 40
0.0
 40
0.0
 40
0.0
 40
0.2499956975
 40
0.5000000003
 40
0.7500043017
 40
1.0
 40
1.0
 40
1.0
 40
1.0
 10
5.5175547274
 20
10.6053205825
 30
0.0
 10
5.5350340311
 20
10.5991031419
 30
0.0
 10
5.5713136057
 20
10.5902020003
 30
0.0
 10
5.6270186335
 20
10.5860370674
 30
0.0
 10
5.6827236621
 20
10.5902019971
 30
0.0
 10
5.7190032359
 20
10.5991031419
 30
0.0
 10
5.7364825397
 20
10.6053205825
 30
0.0
  0
SPLINE
  5
38B
100
AcDbEntity
  8
0
100
AcDbSpline
 62
7
  6
CONTINUOUS
 70
0
 71
3
 72
9
 73
5
 74
0
 42
0.0000001
 43
0.0000001
 44
0.0000000001
 40
0.0
 40
0.0
 40
0.0
 40
0.0
 40
0.5160808332
 40
1.0
 40
1.0
 40
1.0
 40
1.0
 10
5.3828436234
 20
10.6053205825
 30
0.0
 10
5.3883895949
 20
10.6013751452
 30
0.0
 10
5.3999181678
 20
10.5947559885
 30
0.0
 10
5.412571661
 20
10.5906756917
 30
0.0
 10
5.4188176263
 20
10.5893648404
 30
0.0
  0
SPLINE
  5
38C
100
AcDbEntity
  8
0
100
AcDbSpline
 62
7
  6
CONTINUOUS
 70
0
 71
3
 72
9
 73
5
 74
0
 42
0.0000001
 43
0.0000001
 44
0.0000000001
 40
0.0
 40
0.0
 40
0.0
 40
0.0
 40
0.4917490029
 40
1.0
 40
1.0
 40
1.0
 40
1.0
 10
5.4375758465
 20
10.5874253936
 30
0.0
 10
5.4438175527
 20
10.5874254126
 30
0.0
 10
5.4565460081
 20
10.5887207209
 30
0.0
 10
5.4687249262
 20
10.5926552928
 30
0.0
 10
5.4746314858
 20
10.5952495305
 30
0.0
  0
SPLINE
  5
38D
100
AcDbEntity
  8
0
100
AcDbSpline
 62
9
  6
CONTINUOUS
 70
0
 71
3
 72
15
 73
11
 74
0
 42
0.0000001
 43
0.0000001
 44
0.0000000001
 40
0.0
 40
0.0
 40
0.0
 40
0.0
 40
0.1245656753
 40
0.2494942129
 40
0.3746750247
 40
0.4999995008
 40
0.6253242323
 40
0.7505047338
 40
0.8754318767
 40
1.0
 40
1.0
 40
1.0
 40
1.0
 10
2.5284796592
 20
1.3179675951
 30
0.0
 10
2.5344254339
 20
1.325126137
 30
0.0
 10
2.5480024651
 20
1.3381560083
 30
0.0
 10
2.572099092
 20
1.3528173911
 30
0.0
 10
2.5988910726
 20
1.3618488968
 30
0.0
 10
2.6270185433
 20
1.3649517372
 30
0.0
 10
2.6551459721
 20
1.3618488219
 30
0.0
 10
2.6819378833
 20
1.3528175097
 30
0.0
 10
2.7060346955
 20
1.3381562912
 30
0.0
 10
2.7196117026
 20
1.3251262663
 30
0.0
 10
2.7255575977
 20
1.3179675867
 30
0.0
  0
SPLINE
  5
38E
100
AcDbEntity
  8
0
100
AcDbSpline
 62
9
  6
CONTINUOUS
 70
0
 71
3
 72
17
 73
13
 74
0
 42
0.0000001
 43
0.0000001
 44
0.0000000001
 40
0.0
 40
0.0
 40
0.0
 40
0.0
 40
0.1252052331
 40
0.1877983196
 40
0.2503425086
 40
0.3752223774
 40
0.5000001333
 40
0.6247781498
 40
0.7496581156
 40
0.8122019832
 40
0.8747946105
 40
1.0
 40
1.0
 40
1.0
 40
1.0
 10
2.7531298955
 20
1.2824282
 30
0.0
 10
2.7735867098
 20
1.2541716295
 30
0.0
 10
2.8010629004
 20
1.2093214693
 30
0.0
 10
2.8303815918
 20
1.1459766287
 30
0.0
 10
2.8546123241
 20
1.0805976895
 30
0.0
 10
2.8750840964
 20
0.9956591141
 30
0.0
 10
2.8834301473
 20
0.891237714
 30
0.0
 10
2.8750824578
 20
0.7868164304
 30
0.0
 10
2.8546096482
 20
0.7018781076
 30
0.0
 10
2.8303782347
 20
0.6364996238
 30
0.0
 10
2.8010588546
 20
0.5731552898
 30
0.0
 10
2.7735820222
 20
0.5283056167
 30
0.0
 10
2.7531247944
 20
0.5000492917
 30
0.0
  0
SPLINE
  5
38F
100
AcDbEntity
  8
0
100
AcDbSpline
 62
9
  6
CONTINUOUS
 70
0
 71
3
 72
15
 73
11
 74
0
 42
0.0000001
 43
0.0000001
 44
0.0000000001
 40
0.0
 40
0.0
 40
0.0
 40
0.0
 40
0.1245656296
 40
0.2494941328
 40
0.3746749425
 40
0.4999994292
 40
0.6253241643
 40
0.7505046729
 40
0.8754318391
 40
1.0
 40
1.0
 40
1.0
 40
1.0
 10
2.725557608
 20
0.4645168769
 30
0.0
 10
2.7196118358
 20
0.4573583374
 30
0.0
 10
2.7060348102
 20
0.4443284689
 30
0.0
 10
2.6819381895
 20
0.4296670877
 30
0.0
 10
2.6551462117
 20
0.4206355804
 30
0.0
 10
2.6270187407
 20
0.4175327347
 30
0.0
 10
2.5988913097
 20
0.4206356458
 30
0.0
 10
2.5720993953
 20
0.4296669569
 30
0.0
 10
2.5480025778
 20
0.4443281765
 30
0.0
 10
2.5344255667
 20
0.4573582039
 30
0.0
 10
2.5284796694
 20
0.4645168854
 30
0.0
  0
SPLINE
  5
390
100
AcDbEntity
  8
0
100
AcDbSpline
 62
9
  6
CONTINUOUS
 70
0
 71
3
 72
17
 73
13
 74
0
 42
0.0000001
 43
0.0000001
 44
0.0000000001
 40
0.0
 40
0.0
 40
0.0
 40
0.0
 40
0.1252052642
 40
0.1877983705
 40
0.2503425801
 40
0.3752224872
 40
0.5000002674
 40
0.6247782834
 40
0.7496582224
 40
0.8122020657
 40
0.8747946636
 40
1.0
 40
1.0
 40
1.0
 40
1.0
 10
2.5009073961
 20
0.5000562388
 30
0.0
 10
2.4804505767
 20
0.5283128134
 30
0.0
 10
2.4529743785
 20
0.5731629815
 30
0.0
 10
2.4236556786
 20
0.6365078348
 30
0.0
 10
2.3994249399
 20
0.70188679
 30
0.0
 10
2.3789531665
 20
0.7868253831
 30
0.0
 10
2.3706071192
 20
0.8912467938
 30
0.0
 10
2.3789548156
 20
0.9956680689
 30
0.0
 10
2.3994276234
 20
1.0806063706
 30
0.0
 10
2.4236590243
 20
1.1459848299
 30
0.0
 10
2.4529783845
 20
1.209329135
 30
0.0
 10
2.4804551989
 20
1.2541787877
 30
0.0
 10
2.5009124135
 20
1.282435101
 30
0.0
  0
SPLINE
  5
391
100
AcDbEntity
  8
0
100
AcDbSpline
 62
9
  6
CONTINUOUS
 70
0
 71
3
 72
18
 73
14
 74
0
 42
0.0000001
 43
0.0000001
 44
0.0000000001
 40
0.0
 40
0.0
 40
0.0
 40
0.0
 40
0.0089345727
 40
0.0258207806
 40
0.0509367966
 40
0.0842675643
 40
0.125737123
 40
0.1752494422
 40
0.2979782018
 40
0.4502014969
 40
0.6240984982
 40
0.8104430048
 40
1.0
 40
1.0
 40
1.0
 40
1.0
 10
2.7386786986
 20
1.3275298299
 30
0.0
 10
2.7386317412
 20
1.3275418055
 30
0.0
 10
2.7384885998
 20
1.3274956147
 30
0.0
 10
2.7382420333
 20
1.3273864683
 30
0.0
 10
2.7378821085
 20
1.3271852828
 30
0.0
 10
2.7374206072
 20
1.326903807
 30
0.0
 10
2.7368549758
 20
1.3265356857
 30
0.0
 10
2.7358963503
 20
1.3258843686
 30
0.0
 10
2.7344648107
 20
1.3248600665
 30
0.0
 10
2.7325131732
 20
1.3234047154
 30
0.0
 10
2.7303060187
 20
1.3217150599
 30
0.0
 10
2.7279558177
 20
1.3198794553
 30
0.0
 10
2.7263596815
 20
1.3186108215
 30
0.0
 10
2.7255576022
 20
1.3179675902
 30
0.0
  0
SPLINE
  5
392
100
AcDbEntity
  8
0
100
AcDbSpline
 62
9
  6
CONTINUOUS
 70
0
 71
3
 72
18
 73
14
 74
0
 42
0.0000001
 43
0.0000001
 44
0.0000000001
 40
0.0
 40
0.0
 40
0.0
 40
0.0
 40
0.1895570295
 40
0.3759015432
 40
0.5497985342
 40
0.7020218116
 40
0.824750555
 40
0.8742628682
 40
0.9157324228
 40
0.9490631891
 40
0.9741792065
 40
0.9910654193
 40
1.0
 40
1.0
 40
1.0
 40
1.0
 10
2.7255576016
 20
0.4645168826
 30
0.0
 10
2.7263596804
 20
0.4638736517
 30
0.0
 10
2.7279558156
 20
0.4626050187
 30
0.0
 10
2.730306015
 20
0.4607694155
 30
0.0
 10
2.7325131678
 20
0.4590797614
 30
0.0
 10
2.7344648036
 20
0.4576244116
 30
0.0
 10
2.735896342
 20
0.4566001105
 30
0.0
 10
2.7368549667
 20
0.4559487939
 30
0.0
 10
2.7374205976
 20
0.455580673
 30
0.0
 10
2.7378820985
 20
0.4552991974
 30
0.0
 10
2.7382420231
 20
0.4550980121
 30
0.0
 10
2.7384885895
 20
0.4549888657
 30
0.0
 10
2.7386317308
 20
0.4549426749
 30
0.0
 10
2.7386786882
 20
0.4549546504
 30
0.0
  0
SPLINE
  5
393
100
AcDbEntity
  8
0
100
AcDbSpline
 62
9
  6
CONTINUOUS
 70
0
 71
3
 72
18
 73
14
 74
0
 42
0.0000001
 43
0.0000001
 44
0.0000000001
 40
0.0
 40
0.0
 40
0.0
 40
0.0
 40
0.0089345727
 40
0.0258207806
 40
0.0509367966
 40
0.0842675644
 40
0.125737123
 40
0.1752494422
 40
0.2979782018
 40
0.4502014969
 40
0.6240984982
 40
0.8104430047
 40
1.0
 40
1.0
 40
1.0
 40
1.0
 10
2.5153585685
 20
0.4549546421
 30
0.0
 10
2.5154055259
 20
0.4549426665
 30
0.0
 10
2.5155486672
 20
0.4549888573
 30
0.0
 10
2.5157952338
 20
0.4550980038
 30
0.0
 10
2.5161551586
 20
0.4552991893
 30
0.0
 10
2.5166166599
 20
0.4555806651
 30
0.0
 10
2.5171822913
 20
0.4559487864
 30
0.0
 10
2.5181409168
 20
0.4566001035
 30
0.0
 10
2.5195724564
 20
0.4576244056
 30
0.0
 10
2.5215240938
 20
0.4590797567
 30
0.0
 10
2.5237312484
 20
0.4607694121
 30
0.0
 10
2.5260814494
 20
0.4626050167
 30
0.0
 10
2.5276775856
 20
0.4638736505
 30
0.0
 10
2.5284796649
 20
0.4645168818
 30
0.0
  0
SPLINE
  5
394
100
AcDbEntity
  8
0
100
AcDbSpline
 62
9
  6
CONTINUOUS
 70
0
 71
3
 72
18
 73
14
 74
0
 42
0.0000001
 43
0.0000001
 44
0.0000000001
 40
0.0
 40
0.0
 40
0.0
 40
0.0
 40
0.1895570294
 40
0.375901543
 40
0.5497985341
 40
0.7020218116
 40
0.824750555
 40
0.8742628682
 40
0.9157324229
 40
0.9490631892
 40
0.9741792066
 40
0.9910654193
 40
1.0
 40
1.0
 40
1.0
 40
1.0
 10
2.5284796655
 20
1.3179675895
 30
0.0
 10
2.5276775866
 20
1.3186108204
 30
0.0
 10
2.5260814514
 20
1.3198794533
 30
0.0
 10
2.5237312521
 20
1.3217150566
 30
0.0
 10
2.5215240992
 20
1.3234047106
 30
0.0
 10
2.5195724634
 20
1.3248600604
 30
0.0
 10
2.518140925
 20
1.3258843616
 30
0.0
 10
2.5171823004
 20
1.3265356781
 30
0.0
 10
2.5166166695
 20
1.3269037991
 30
0.0
 10
2.5161551685
 20
1.3271852746
 30
0.0
 10
2.515795244
 20
1.32738646
 30
0.0
 10
2.5155486775
 20
1.3274956064
 30
0.0
 10
2.5154055363
 20
1.3275417972
 30
0.0
 10
2.5153585788
 20
1.3275298217
 30
0.0
  0
SPLINE
  5
395
100
AcDbEntity
  8
0
100
AcDbSpline
 62
9
  6
CONTINUOUS
 70
0
 71
3
 72
18
 73
14
 74
0
 42
0.0000001
 43
0.0000001
 44
0.0000000001
 40
0.0
 40
0.0
 40
0.0
 40
0.0
 40
0.0089345727
 40
0.0258207806
 40
0.0509367966
 40
0.0842675644
 40
0.125737123
 40
0.1752494422
 40
0.2979782018
 40
0.4502014969
 40
0.6240984982
 40
0.8104430047
 40
1.0
 40
1.0
 40
1.0
 40
1.0
 10
5.5153585685
 20
0.4549546421
 30
0.0
 10
5.5154055259
 20
0.4549426665
 30
0.0
 10
5.5155486672
 20
0.4549888573
 30
0.0
 10
5.5157952338
 20
0.4550980038
 30
0.0
 10
5.5161551586
 20
0.4552991893
 30
0.0
 10
5.5166166599
 20
0.4555806651
 30
0.0
 10
5.5171822913
 20
0.4559487864
 30
0.0
 10
5.5181409168
 20
0.4566001035
 30
0.0
 10
5.5195724564
 20
0.4576244056
 30
0.0
 10
5.5215240938
 20
0.4590797567
 30
0.0
 10
5.5237312484
 20
0.4607694121
 30
0.0
 10
5.5260814494
 20
0.4626050167
 30
0.0
 10
5.5276775856
 20
0.4638736505
 30
0.0
 10
5.5284796649
 20
0.4645168818
 30
0.0
  0
SPLINE
  5
396
100
AcDbEntity
  8
0
100
AcDbSpline
 62
9
  6
CONTINUOUS
 70
0
 71
3
 72
18
 73
14
 74
0
 42
0.0000001
 43
0.0000001
 44
0.0000000001
 40
0.0
 40
0.0
 40
0.0
 40
0.0
 40
0.1895570294
 40
0.375901543
 40
0.5497985341
 40
0.7020218116
 40
0.824750555
 40
0.8742628682
 40
0.9157324229
 40
0.9490631892
 40
0.9741792066
 40
0.9910654193
 40
1.0
 40
1.0
 40
1.0
 40
1.0
 10
5.5284796655
 20
1.3179675895
 30
0.0
 10
5.5276775866
 20
1.3186108204
 30
0.0
 10
5.5260814514
 20
1.3198794533
 30
0.0
 10
5.5237312521
 20
1.3217150566
 30
0.0
 10
5.5215240992
 20
1.3234047106
 30
0.0
 10
5.5195724634
 20
1.3248600604
 30
0.0
 10
5.518140925
 20
1.3258843616
 30
0.0
 10
5.5171823004
 20
1.3265356781
 30
0.0
 10
5.5166166695
 20
1.3269037991
 30
0.0
 10
5.5161551685
 20
1.3271852746
 30
0.0
 10
5.515795244
 20
1.32738646
 30
0.0
 10
5.5155486775
 20
1.3274956064
 30
0.0
 10
5.5154055363
 20
1.3275417972
 30
0.0
 10
5.5153585788
 20
1.3275298217
 30
0.0
  0
SPLINE
  5
397
100
AcDbEntity
  8
0
100
AcDbSpline
 62
9
  6
CONTINUOUS
 70
0
 71
3
 72
18
 73
14
 74
0
 42
0.0000001
 43
0.0000001
 44
0.0000000001
 40
0.0
 40
0.0
 40
0.0
 40
0.0
 40
0.0089699931
 40
0.0259318536
 40
0.0511534013
 40
0.0846081147
 40
0.1262084484
 40
0.1758467621
 40
0.2987667088
 40
0.4510376769
 40
0.6248210294
 40
0.8108877612
 40
1.0
 40
1.0
 40
1.0
 40
1.0
 10
5.7386786946
 20
0.4549546459
 30
0.0
 10
5.7386315511
 20
0.4549426227
 30
0.0
 10
5.7384878164
 20
0.4549892065
 30
0.0
 10
5.7382402886
 20
0.4550989209
 30
0.0
 10
5.7378789874
 20
0.4553010998
 30
0.0
 10
5.737415914
 20
0.4555837242
 30
0.0
 10
5.7368486349
 20
0.4559531043
 30
0.0
 10
5.7358881117
 20
0.4566059442
 30
0.0
 10
5.734455063
 20
0.4576315322
 30
0.0
 10
5.7325029809
 20
0.4590874148
 30
0.0
 10
5.7302974011
 20
0.4607760507
 30
0.0
 10
5.7279508463
 20
0.4626089457
 30
0.0
 10
5.7263577986
 20
0.4638751601
 30
0.0
 10
5.7255576027
 20
0.4645168809
 30
0.0
  0
SPLINE
  5
398
100
AcDbEntity
  8
0
100
AcDbSpline
 62
9
  6
CONTINUOUS
 70
0
 71
3
 72
18
 73
14
 74
0
 42
0.0000001
 43
0.0000001
 44
0.0000000001
 40
0.0
 40
0.0
 40
0.0
 40
0.0
 40
0.0089345727
 40
0.0258207806
 40
0.0509367966
 40
0.0842675643
 40
0.125737123
 40
0.1752494422
 40
0.2979782018
 40
0.4502014969
 40
0.6240984982
 40
0.8104430048
 40
1.0
 40
1.0
 40
1.0
 40
1.0
 10
5.7386786986
 20
1.3275298299
 30
0.0
 10
5.7386317412
 20
1.3275418055
 30
0.0
 10
5.7384885998
 20
1.3274956147
 30
0.0
 10
5.7382420333
 20
1.3273864683
 30
0.0
 10
5.7378821085
 20
1.3271852828
 30
0.0
 10
5.7374206072
 20
1.326903807
 30
0.0
 10
5.7368549758
 20
1.3265356857
 30
0.0
 10
5.7358963503
 20
1.3258843686
 30
0.0
 10
5.7344648107
 20
1.3248600665
 30
0.0
 10
5.7325131732
 20
1.3234047154
 30
0.0
 10
5.7303060187
 20
1.3217150599
 30
0.0
 10
5.7279558177
 20
1.3198794553
 30
0.0
 10
5.7263596815
 20
1.3186108215
 30
0.0
 10
5.7255576022
 20
1.3179675902
 30
0.0
  0
SPLINE
  5
399
100
AcDbEntity
  8
0
100
AcDbSpline
 62
9
  6
CONTINUOUS
 70
0
 71
3
 72
17
 73
13
 74
0
 42
0.0000001
 43
0.0000001
 44
0.0000000001
 40
0.0
 40
0.0
 40
0.0
 40
0.0
 40
0.1252052331
 40
0.1877983196
 40
0.2503425086
 40
0.3752223774
 40
0.5000001333
 40
0.6247781498
 40
0.7496581156
 40
0.8122019832
 40
0.8747946105
 40
1.0
 40
1.0
 40
1.0
 40
1.0
 10
5.7531298955
 20
1.2824282
 30
0.0
 10
5.7735867098
 20
1.2541716295
 30
0.0
 10
5.8010629004
 20
1.2093214693
 30
0.0
 10
5.8303815918
 20
1.1459766287
 30
0.0
 10
5.8546123241
 20
1.0805976895
 30
0.0
 10
5.8750840964
 20
0.9956591141
 30
0.0
 10
5.8834301473
 20
0.891237714
 30
0.0
 10
5.8750824578
 20
0.7868164304
 30
0.0
 10
5.8546096482
 20
0.7018781076
 30
0.0
 10
5.8303782347
 20
0.6364996238
 30
0.0
 10
5.8010588546
 20
0.5731552898
 30
0.0
 10
5.7735820222
 20
0.5283056167
 30
0.0
 10
5.7531247944
 20
0.5000492917
 30
0.0
  0
SPLINE
  5
39A
100
AcDbEntity
  8
0
100
AcDbSpline
 62
9
  6
CONTINUOUS
 70
0
 71
3
 72
15
 73
11
 74
0
 42
0.0000001
 43
0.0000001
 44
0.0000000001
 40
0.0
 40
0.0
 40
0.0
 40
0.0
 40
0.1245656296
 40
0.2494941328
 40
0.3746749425
 40
0.4999994292
 40
0.6253241643
 40
0.7505046729
 40
0.8754318391
 40
1.0
 40
1.0
 40
1.0
 40
1.0
 10
5.725557608
 20
0.4645168769
 30
0.0
 10
5.7196118358
 20
0.4573583374
 30
0.0
 10
5.7060348102
 20
0.4443284689
 30
0.0
 10
5.6819381895
 20
0.4296670877
 30
0.0
 10
5.6551462117
 20
0.4206355804
 30
0.0
 10
5.6270187407
 20
0.4175327347
 30
0.0
 10
5.5988913097
 20
0.4206356458
 30
0.0
 10
5.5720993953
 20
0.4296669569
 30
0.0
 10
5.5480025778
 20
0.4443281765
 30
0.0
 10
5.5344255667
 20
0.4573582039
 30
0.0
 10
5.5284796694
 20
0.4645168854
 30
0.0
  0
SPLINE
  5
39B
100
AcDbEntity
  8
0
100
AcDbSpline
 62
9
  6
CONTINUOUS
 70
0
 71
3
 72
17
 73
13
 74
0
 42
0.0000001
 43
0.0000001
 44
0.0000000001
 40
0.0
 40
0.0
 40
0.0
 40
0.0
 40
0.1252052642
 40
0.1877983705
 40
0.2503425801
 40
0.3752224872
 40
0.5000002674
 40
0.6247782834
 40
0.7496582224
 40
0.8122020657
 40
0.8747946636
 40
1.0
 40
1.0
 40
1.0
 40
1.0
 10
5.5009073961
 20
0.5000562388
 30
0.0
 10
5.4804505767
 20
0.5283128134
 30
0.0
 10
5.4529743785
 20
0.5731629815
 30
0.0
 10
5.4236556786
 20
0.6365078348
 30
0.0
 10
5.3994249399
 20
0.70188679
 30
0.0
 10
5.3789531665
 20
0.7868253831
 30
0.0
 10
5.3706071192
 20
0.8912467938
 30
0.0
 10
5.3789548156
 20
0.9956680689
 30
0.0
 10
5.3994276234
 20
1.0806063706
 30
0.0
 10
5.4236590243
 20
1.1459848299
 30
0.0
 10
5.4529783845
 20
1.209329135
 30
0.0
 10
5.4804551989
 20
1.2541787877
 30
0.0
 10
5.5009124135
 20
1.282435101
 30
0.0
  0
SPLINE
  5
39C
100
AcDbEntity
  8
0
100
AcDbSpline
 62
9
  6
CONTINUOUS
 70
0
 71
3
 72
15
 73
11
 74
0
 42
0.0000001
 43
0.0000001
 44
0.0000000001
 40
0.0
 40
0.0
 40
0.0
 40
0.0
 40
0.1245656753
 40
0.2494942129
 40
0.3746750247
 40
0.4999995008
 40
0.6253242323
 40
0.7505047338
 40
0.8754318767
 40
1.0
 40
1.0
 40
1.0
 40
1.0
 10
5.5284796592
 20
1.3179675951
 30
0.0
 10
5.5344254339
 20
1.325126137
 30
0.0
 10
5.5480024651
 20
1.3381560083
 30
0.0
 10
5.572099092
 20
1.3528173911
 30
0.0
 10
5.5988910726
 20
1.3618488968
 30
0.0
 10
5.6270185433
 20
1.3649517372
 30
0.0
 10
5.6551459721
 20
1.3618488219
 30
0.0
 10
5.6819378833
 20
1.3528175097
 30
0.0
 10
5.7060346955
 20
1.3381562912
 30
0.0
 10
5.7196117026
 20
1.3251262663
 30
0.0
 10
5.7255575977
 20
1.3179675867
 30
0.0
  0
ENDSEC
  0
SECTION
  2
OBJECTS
  0
DICTIONARY
  5
C
100
AcDbDictionary
280
0
281
1
  3
ACAD_GROUP
350
D
  3
ACAD_MLINESTYLE
350
17
  3
ACAD_LAYOUT
350
1A
  3
ACAD_PLOTSETTINGS
350
19
  3
ACAD_PLOTSTYLENAME
350
E
  0
DICTIONARY
  5
D
102
{ACAD_REACTORS
330
C
102
}
100
AcDbDictionary
280
0
281
1
  0
ACDBDICTIONARYWDFLT
  5
E
102
{ACAD_REACTORS
330
C
102
}
100
AcDbDictionary
281
1
  3
Normal
350
F
100
AcDbDictionaryWithDefault
340
F
  0
DICTIONARY
  5
17
102
{ACAD_REACTORS
330
C
102
}
100
AcDbDictionary
280
0
281
1
  3
Standard
350
18
  0
DICTIONARY
  5
19
102
{ACAD_REACTORS
330
C
102
}
100
AcDbDictionary
281
1
  0
DICTIONARY
  5
1A
102
{ACAD_REACTORS
330
C
102
}
100
AcDbDictionary
281
1
  3
Model
350
39D
  3
Layout1
350
39E
  0
ACDBPLACEHOLDER
  5
F
102
{ACAD_REACTORS
330
E
102
}
  0
MLINESTYLE
  5
18
102
{ACAD_REACTORS
330
17
102
}
100
AcDbMlineStyle
  2
STANDARD
 70
0
  3

 62
256
 51
90.0
 52
90.0
 71
2
 49
0.5
 62
256
  6
BYLAYER
 49
-0.5
 62
256
  6
BYLAYER
  0
LAYOUT
  5
39D
102
{ACAD_REACTORS
330
1A
102
}
100
AcDbPlotSettings
  1

  2
none_device
  4

  6

 40
0.0
 41
0.0
 42
0.0
 43
0.0
 44
215.9
 45
279.4
 46
0.0
 47
0.0
 48
0.0
 49
0.0
140
0.0
141
0.0
142
1.0
143
1.0
 70
1024
 72
0
 73
0
 74
0
  7

 75
0
147
1.0
148
0.0
149
0.0
100
AcDbLayout
  1
Model
 70
0
 71
0
 10
0.0
 20
0.0
 11
8.5
 21
11.0
 12
0.0
 22
0.0
 32
0.0
 14
0.0
 24
0.0
 34
0.0
 15
0.0
 25
0.0
 35
0.0
146
0.0
 13
0.0
 23
0.0
 33
0.0
 16
1.0
 26
0.0
 36
0.0
 17
0.0
 27
1.0
 37
0.0
 76
0
330
23E
345
0
346
0
  0
LAYOUT
  5
39E
102
{ACAD_REACTORS
330
1A
102
}
100
AcDbPlotSettings
  1

  2
none_device
  4

  6

 40
0.0
 41
0.0
 42
0.0
 43
0.0
 44
215.9
 45
279.4
 46
0.0
 47
0.0
 48
0.0
 49
0.0
140
0.0
141
0.0
142
1.0
143
1.0
 70
0
 72
0
 73
0
 74
0
  7

 75
0
147
1.0
148
0.0
149
0.0
100
AcDbLayout
  1
Layout1
 70
0
 71
1
 10
0.0
 20
0.0
 11
8.5
 21
11.0
 12
0.0
 22
0.0
 32
0.0
 14
0.0
 24
0.0
 34
0.0
 15
0.0
 25
0.0
 35
0.0
146
0.0
 13
0.0
 23
0.0
 33
0.0
 16
1.0
 26
0.0
 36
0.0
 17
0.0
 27
1.0
 37
0.0
 76
0
330
23F
345
0
346
0
  0
ENDSEC
  0
EOF
