999
DXF file: C:\Prowork\plots\495x_front.dxf
999
Pro/ENGINEER 2018500 by Parametric Technology Corporation
  0
SECTION
  2
HEADER
  9
$ACADVER
  1
AC1032
  9
$DWGCODEPAGE
  3
ANSI_1252
  9
$EXTMAX
 10
8.5
 20
11.0
 30
0.0
  9
$EXTMIN
 10
0.0
 20
0.0
 30
0.0
  9
$LIMMIN
 10
0.0
 20
0.0
  9
$LIMMAX
 10
8.5
 20
11.0
  9
$VIEWCTR
 10
4.25
 20
5.5
  9
$VIEWSIZE
 40
11.0
  9
$CLAYER
  8
0
  9
$LTSCALE
 40
0.717037037
  9
$CELTYPE
  6
BYLAYER
  9
$DIMSCALE
 40
1.0
  9
$DIMASZ
 40
0.1
  9
$DIMEXO
 40
0.0625
  9
$DIMDLI
 40
0.4954074074
  9
$DIMEXE
 40
0.125
  9
$DIMCEN
 40
0.1173333333
  9
$DIMLFAC
 40
1.0
  9
$DIMBLK
  1
_FILLED
  9
$DIMALT
 70
1
  9
$DIMALTD
 70
2
  9
$DIMALTTD
 70
2
  9
$DIMALTF
 40
25.4
  9
$DIMTXT
 40
0.08
  9
$DIMTOL
 70
1
  9
$DIMLIM
 70
0
  9
$DIMTFAC
 40
1.0
  9
$DIMTP
 40
0.001
  9
$DIMTM
 40
0.001
  9
$DIMGAP
 40
0.09
  9
$DIMDSEP
 70
46
  9
$AUNITS
 70
0
  9
$PDMODE
 70
3
  9
$PDSIZE
 40
0.06
  9
$HANDSEED
  5
359
  9
$TILEMODE
 70
1
  9
$MEASUREMENT
 70
0
  9
$INSUNITS
 70
1
  0
ENDSEC
  0
SECTION
  2
CLASSES
  0
CLASS
  1
ACDBDICTIONARYWDFLT
  2
AcDbDictionaryWithDefault
  3
AutoCAD 2000
 90
0
 91
1
280
0
281
0
  0
CLASS
  1
ACDBPLACEHOLDER
  2
AcDbPlaceHolder
  3
AutoCAD 2000
 90
0
 91
1
280
0
281
0
  0
CLASS
  1
LAYOUT
  2
AcDbLayout
  3
AutoCAD 2000
 90
0
 91
0
280
0
281
0
  0
ENDSEC
  0
SECTION
  2
TABLES
  0
TABLE
  2
VPORT
  5
8
100
AcDbSymbolTable
 70
2
  0
VPORT
  5
1F4
100
AcDbSymbolTableRecord
100
AcDbViewportTableRecord
  2
*ACTIVE
 70
0
 10
0.0
 20
0.0
 11
1.0
 21
1.0
 12
4.25
 22
5.5
 13
0.0
 23
0.0
 14
1.0
 24
1.0
 15
0.0
 25
0.0
 16
0.0
 26
0.0
 36
1.0
 17
0.0
 27
0.0
 37
0.0
 40
11.0
 41
0.7727272727
 42
50.0
 43
0.0
 44
0.0
 50
0.0
 51
0.0
 71
0
 72
100
 73
1
 74
1
 75
0
 76
0
 77
0
 78
0
  0
ENDTAB
  0
TABLE
  2
LTYPE
  5
5
100
AcDbSymbolTable
 70
6
  0
LTYPE
  5
14
100
AcDbSymbolTableRecord
100
AcDbLinetypeTableRecord
  2
BYBLOCK
 70
0
  3

 72
65
 73
0
 40
0.0
  0
LTYPE
  5
15
100
AcDbSymbolTableRecord
100
AcDbLinetypeTableRecord
  2
BYLAYER
 70
0
  3

 72
65
 73
0
 40
0.0
  0
LTYPE
  5
16
100
AcDbSymbolTableRecord
100
AcDbLinetypeTableRecord
  2
CONTINUOUS
 70
64
  3
Solid line
 72
65
 73
0
 40
0.0
  0
LTYPE
  5
1F5
100
AcDbSymbolTableRecord
100
AcDbLinetypeTableRecord
  2
CENTER
 70
64
  3
____ _ ____ _ ____ _ ____ _ ____ _ ____ _ ____
 72
65
 73
4
 40
0.6
 49
0.375
 74
0
 49
-0.075
 74
0
 49
0.075
 74
0
 49
-0.075
 74
0
  0
LTYPE
  5
1F6
100
AcDbSymbolTableRecord
100
AcDbLinetypeTableRecord
  2
HIDDEN
 70
64
  3
- - - - - - - - - - - - - - - - - - - -
 72
65
 73
2
 40
0.2
 49
0.1
 74
0
 49
-0.1
 74
0
  0
LTYPE
  5
1F7
100
AcDbSymbolTableRecord
100
AcDbLinetypeTableRecord
  2
PHANTOM
 70
64
  3
_____ _ _ _____ _ _ _____ _ _ _____
 72
65
 73
6
 40
0.8
 49
0.45
 74
0
 49
-0.05
 74
0
 49
0.1
 74
0
 49
-0.05
 74
0
 49
0.1
 74
0
 49
-0.05
 74
0
  0
LTYPE
  5
1F8
100
AcDbSymbolTableRecord
100
AcDbLinetypeTableRecord
  2
DOT
 70
64
  3
. . . . . . . . . . . . . . . . . . . .
 72
65
 73
2
 40
0.2
 49
0.1
 74
0
 49
-0.1
 74
0
  0
LTYPE
  5
1F9
100
AcDbSymbolTableRecord
100
AcDbLinetypeTableRecord
  2
DASHED
 70
64
  3
- - - - - - - - - - - - - - - - - - - -
 72
65
 73
2
 40
0.2
 49
0.1
 74
0
 49
-0.1
 74
0
  0
ENDTAB
  0
TABLE
  2
LAYER
  5
2
100
AcDbSymbolTable
 70
36
  0
LAYER
  5
10
100
AcDbSymbolTableRecord
100
AcDbLayerTableRecord
  2
0
 70
0
 62
7
  6
CONTINUOUS
370
-3
390
F
  0
LAYER
  5
1FA
100
AcDbSymbolTableRecord
100
AcDbLayerTableRecord
  2
DEFAULT_1
 70
0
 62
7
  6
CENTER
370
-3
390
F
  0
LAYER
  5
1FB
100
AcDbSymbolTableRecord
100
AcDbLayerTableRecord
  2
DEFAULT_2
 70
0
 62
8
  6
HIDDEN
370
-3
390
F
  0
LAYER
  5
1FC
100
AcDbSymbolTableRecord
100
AcDbLayerTableRecord
  2
DEFAULT_3
 70
0
 62
7
  6
PHANTOM
370
-3
390
F
  0
LAYER
  5
1FD
100
AcDbSymbolTableRecord
100
AcDbLayerTableRecord
  2
403X
 70
0
 62
7
  6
CONTINUOUS
370
-3
390
F
  0
LAYER
  5
1FE
100
AcDbSymbolTableRecord
100
AcDbLayerTableRecord
  2
435
 70
0
 62
7
  6
CONTINUOUS
370
-3
390
F
  0
LAYER
  5
1FF
100
AcDbSymbolTableRecord
100
AcDbLayerTableRecord
  2
441
 70
0
 62
7
  6
CONTINUOUS
370
-3
390
F
  0
LAYER
  5
200
100
AcDbSymbolTableRecord
100
AcDbLayerTableRecord
  2
50350
 70
0
 62
7
  6
CONTINUOUS
370
-3
390
F
  0
LAYER
  5
201
100
AcDbSymbolTableRecord
100
AcDbLayerTableRecord
  2
50356
 70
0
 62
7
  6
CONTINUOUS
370
-3
390
F
  0
LAYER
  5
202
100
AcDbSymbolTableRecord
100
AcDbLayerTableRecord
  2
50359
 70
0
 62
7
  6
CONTINUOUS
370
-3
390
F
  0
LAYER
  5
203
100
AcDbSymbolTableRecord
100
AcDbLayerTableRecord
  2
50362
 70
0
 62
7
  6
CONTINUOUS
370
-3
390
F
  0
LAYER
  5
204
100
AcDbSymbolTableRecord
100
AcDbLayerTableRecord
  2
50391
 70
0
 62
7
  6
CONTINUOUS
370
-3
390
F
  0
LAYER
  5
205
100
AcDbSymbolTableRecord
100
AcDbLayerTableRecord
  2
50663
 70
0
 62
7
  6
CONTINUOUS
370
-3
390
F
  0
LAYER
  5
206
100
AcDbSymbolTableRecord
100
AcDbLayerTableRecord
  2
50664
 70
0
 62
7
  6
CONTINUOUS
370
-3
390
F
  0
LAYER
  5
207
100
AcDbSymbolTableRecord
100
AcDbLayerTableRecord
  2
50668
 70
0
 62
7
  6
CONTINUOUS
370
-3
390
F
  0
LAYER
  5
208
100
AcDbSymbolTableRecord
100
AcDbLayerTableRecord
  2
50675
 70
0
 62
7
  6
CONTINUOUS
370
-3
390
F
  0
LAYER
  5
209
100
AcDbSymbolTableRecord
100
AcDbLayerTableRecord
  2
50677
 70
0
 62
7
  6
CONTINUOUS
370
-3
390
F
  0
LAYER
  5
20A
100
AcDbSymbolTableRecord
100
AcDbLayerTableRecord
  2
50678
 70
0
 62
7
  6
CONTINUOUS
370
-3
390
F
  0
LAYER
  5
20B
100
AcDbSymbolTableRecord
100
AcDbLayerTableRecord
  2
6-403
 70
0
 62
7
  6
CONTINUOUS
370
-3
390
F
  0
LAYER
  5
20C
100
AcDbSymbolTableRecord
100
AcDbLayerTableRecord
  2
91203
 70
0
 62
7
  6
CONTINUOUS
370
-3
390
F
  0
LAYER
  5
20D
100
AcDbSymbolTableRecord
100
AcDbLayerTableRecord
  2
92000
 70
0
 62
7
  6
CONTINUOUS
370
-3
390
F
  0
LAYER
  5
20E
100
AcDbSymbolTableRecord
100
AcDbLayerTableRecord
  2
ALL_FEATURES_4
 70
0
 62
7
  6
CONTINUOUS
370
-3
390
F
  0
LAYER
  5
20F
100
AcDbSymbolTableRecord
100
AcDbLayerTableRecord
  2
DEFAULT_COORDINATE_SYSTEM
 70
0
 62
7
  6
CONTINUOUS
370
-3
390
F
  0
LAYER
  5
210
100
AcDbSymbolTableRecord
100
AcDbLayerTableRecord
  2
DEFAULT_DATUM_AXES
 70
0
 62
7
  6
CONTINUOUS
370
-3
390
F
  0
LAYER
  5
211
100
AcDbSymbolTableRecord
100
AcDbLayerTableRecord
  2
DEFAULT_DATUM_PLANES
 70
0
 62
7
  6
CONTINUOUS
370
-3
390
F
  0
LAYER
  5
212
100
AcDbSymbolTableRecord
100
AcDbLayerTableRecord
  2
DEFAULT_SURFACES
 70
0
 62
7
  6
CONTINUOUS
370
-3
390
F
  0
LAYER
  5
213
100
AcDbSymbolTableRecord
100
AcDbLayerTableRecord
  2
INTF_441
 70
0
 62
7
  6
CONTINUOUS
370
-3
390
F
  0
LAYER
  5
214
100
AcDbSymbolTableRecord
100
AcDbLayerTableRecord
  2
INTF_50350
 70
0
 62
7
  6
CONTINUOUS
370
-3
390
F
  0
LAYER
  5
215
100
AcDbSymbolTableRecord
100
AcDbLayerTableRecord
  2
INTF_50356
 70
0
 62
7
  6
CONTINUOUS
370
-3
390
F
  0
LAYER
  5
216
100
AcDbSymbolTableRecord
100
AcDbLayerTableRecord
  2
INTF_50359
 70
0
 62
7
  6
CONTINUOUS
370
-3
390
F
  0
LAYER
  5
217
100
AcDbSymbolTableRecord
100
AcDbLayerTableRecord
  2
INTF_50362
 70
0
 62
7
  6
CONTINUOUS
370
-3
390
F
  0
LAYER
  5
218
100
AcDbSymbolTableRecord
100
AcDbLayerTableRecord
  2
INTF_50391
 70
0
 62
7
  6
CONTINUOUS
370
-3
390
F
  0
LAYER
  5
219
100
AcDbSymbolTableRecord
100
AcDbLayerTableRecord
  2
INTF_50663
 70
0
 62
7
  6
CONTINUOUS
370
-3
390
F
  0
LAYER
  5
21A
100
AcDbSymbolTableRecord
100
AcDbLayerTableRecord
  2
INTF_50664
 70
0
 62
7
  6
CONTINUOUS
370
-3
390
F
  0
LAYER
  5
21B
100
AcDbSymbolTableRecord
100
AcDbLayerTableRecord
  2
INTF_50668
 70
0
 62
7
  6
CONTINUOUS
370
-3
390
F
  0
LAYER
  5
21C
100
AcDbSymbolTableRecord
100
AcDbLayerTableRecord
  2
INTF_50675
 70
0
 62
7
  6
CONTINUOUS
370
-3
390
F
  0
LAYER
  5
21D
100
AcDbSymbolTableRecord
100
AcDbLayerTableRecord
  2
INTF_50677
 70
0
 62
7
  6
CONTINUOUS
370
-3
390
F
  0
LAYER
  5
21E
100
AcDbSymbolTableRecord
100
AcDbLayerTableRecord
  2
INTF_50678
 70
0
 62
7
  6
CONTINUOUS
370
-3
390
F
  0
LAYER
  5
21F
100
AcDbSymbolTableRecord
100
AcDbLayerTableRecord
  2
INTF_91203
 70
0
 62
7
  6
CONTINUOUS
370
-3
390
F
  0
LAYER
  5
220
100
AcDbSymbolTableRecord
100
AcDbLayerTableRecord
  2
INTF_92000
 70
0
 62
7
  6
CONTINUOUS
370
-3
390
F
  0
LAYER
  5
221
100
AcDbSymbolTableRecord
100
AcDbLayerTableRecord
  2
INTF_BLANK
 70
0
 62
7
  6
CONTINUOUS
370
-3
390
F
  0
LAYER
  5
222
100
AcDbSymbolTableRecord
100
AcDbLayerTableRecord
  2
PLATED_SURFACE
 70
0
 62
7
  6
CONTINUOUS
370
-3
390
F
  0
LAYER
  5
223
100
AcDbSymbolTableRecord
100
AcDbLayerTableRecord
  2
PLATED_SURFACE_1
 70
0
 62
7
  6
CONTINUOUS
370
-3
390
F
  0
LAYER
  5
224
100
AcDbSymbolTableRecord
100
AcDbLayerTableRecord
  2
WETTED_SURFACE
 70
0
 62
7
  6
CONTINUOUS
370
-3
390
F
  0
LAYER
  5
225
100
AcDbSymbolTableRecord
100
AcDbLayerTableRecord
  2
_BLACK_HOLE
 70
0
 62
7
  6
CONTINUOUS
370
-3
390
F
  0
ENDTAB
  0
TABLE
  2
STYLE
  5
3
100
AcDbSymbolTable
 70
1
  0
STYLE
  5
11
100
AcDbSymbolTableRecord
100
AcDbTextStyleTableRecord
  2
STANDARD
 70
0
 40
0.0
 41
0.8
 50
0.0
 71
0
 42
0.2
  3
txt
  4

  0
STYLE
  5
226
100
AcDbSymbolTableRecord
100
AcDbTextStyleTableRecord
  2
TEXTSTYLE_1
 70
0
 40
0.0
 41
0.8
 50
0.0
 71
0
 42
0.2
  3
gdt
  4

  0
ENDTAB
  0
TABLE
  2
VIEW
  5
6
100
AcDbSymbolTable
 70
0
  0
ENDTAB
  0
TABLE
  2
UCS
  5
7
100
AcDbSymbolTable
 70
0
  0
ENDTAB
  0
TABLE
  2
APPID
  5
9
100
AcDbSymbolTable
 70
1
  0
APPID
  5
227
100
AcDbSymbolTableRecord
100
AcDbRegAppTableRecord
  2
ACAD
 70
0
  0
ENDTAB
  0
TABLE
  2
BLOCK_RECORD
  5
1
100
AcDbSymbolTable
 70
0
  0
BLOCK_RECORD
  5
228
100
AcDbSymbolTableRecord
100
AcDbBlockTableRecord
  2
*Model_Space
  0
BLOCK_RECORD
  5
229
100
AcDbSymbolTableRecord
100
AcDbBlockTableRecord
  2
*Paper_Space
  0
BLOCK_RECORD
  5
22A
100
AcDbSymbolTableRecord
100
AcDbBlockTableRecord
  2
_FILLED
  0
ENDTAB
  0
TABLE
  2
DIMSTYLE
  5
A
100
AcDbSymbolTable
 70
1
100
AcDbDimStyleTable
 71
0
  0
DIMSTYLE
105
22B
100
AcDbSymbolTableRecord
100
AcDbDimStyleTableRecord
  2
STANDARD
 70
0
  3

  4

 40
1.0
 41
0.1
 42
0.0625
 43
0.38
 44
0.125
 45
0.0
 46
0.0
 47
0.001
 48
0.001
140
0.08
141
0.09
142
0.0
143
25.4
144
1.0
145
0.0
146
1.0
147
0.09
 71
1.0
 72
0.0
 73
1
 74
1
 75
0
 76
0
 77
0
 78
4
 79
1
170
1
171
2
172
0
173
0
174
0
175
0
176
0
177
0
178
0
270
2
179
3
271
3
272
3
273
2
274
2
275
0
280
0
281
0
282
0
283
1
284
4
285
0
286
0
287
3
288
0
340
11
278
46
341
22A
342
22A
343
22A
344
22A
  0
ENDTAB
  0
ENDSEC
  0
SECTION
  2
BLOCKS
  0
BLOCK
  5
20
100
AcDbEntity
  8
0
100
AcDbBlockBegin
  2
*Model_Space
 70
0
 10
0.0
 20
0.0
 30
0.0
  3
*Model_Space
  1

  0
ENDBLK
  5
21
100
AcDbEntity
  8
0
100
AcDbBlockEnd
  0
BLOCK
  5
1C
100
AcDbEntity
  8
0
100
AcDbBlockBegin
  2
*Paper_Space
 70
0
 10
0.0
 20
0.0
 30
0.0
  3
*Paper_Space
  1

  0
ENDBLK
  5
1D
100
AcDbEntity
  8
0
100
AcDbBlockEnd
  0
BLOCK
  5
22C
100
AcDbEntity
  8
0
100
AcDbBlockBegin
  2
_FILLED
 70
64
 10
0.0
 20
0.0
  3
_FILLED
  1

  0
SOLID
  5
22D
100
AcDbEntity
  8
0
  6
BYBLOCK
 62
0
100
AcDbTrace
 10
0.0
 20
0.0
 11
-1.0
 21
0.2
 12
-1.0
 22
-0.2
 13
-1.0
 23
-0.2
  0
ENDBLK
  5
22E
100
AcDbEntity
  8
0
  6
BYBLOCK
 62
0
100
AcDbBlockEnd
  0
ENDSEC
  0
SECTION
  2
ENTITIES
  0
MTEXT
  5
22F
100
AcDbEntity
  8
0
100
AcDbMText
 62
7
  6
CONTINUOUS
  7
STANDARD
 71
1
 72
1
 10
7.1127329193
 20
0.3303726708
 30
0.0
 11
1.0
 21
0.0
 31
0.0
 73
2
 44
0.9
  1
SCALE: .813
 40
0.08
 41
0.704
  0
LINE
  5
230
100
AcDbEntity
  8
0
100
AcDbLine
 62
7
  6
CONTINUOUS
 10
0.0
 20
0.0
 11
8.5
 21
0.0
  0
LINE
  5
231
100
AcDbEntity
  8
0
100
AcDbLine
 62
7
  6
CONTINUOUS
 10
0.0
 20
0.0
 11
0.0
 21
11.0
  0
LINE
  5
232
100
AcDbEntity
  8
0
100
AcDbLine
 62
7
  6
CONTINUOUS
 10
8.5
 20
0.0
 11
8.5
 21
11.0
  0
LINE
  5
233
100
AcDbEntity
  8
0
100
AcDbLine
 62
7
  6
CONTINUOUS
 10
0.0
 20
11.0
 11
8.5
 21
11.0
  0
LINE
  5
234
100
AcDbEntity
  8
0
100
AcDbLine
 62
7
  6
CONTINUOUS
 10
4.274160286
 20
1.4966101347
 11
4.2561796709
 21
1.4939502636
  0
LINE
  5
235
100
AcDbEntity
  8
0
100
AcDbLine
 62
7
  6
CONTINUOUS
 10
4.2561796709
 20
1.4939502636
 11
4.2382280479
 21
1.4926497596
  0
LINE
  5
236
100
AcDbEntity
  8
0
100
AcDbLine
 62
7
  6
CONTINUOUS
 10
4.2380482035
 20
1.4926367308
 11
4.2295162999
 21
1.4924869927
  0
LINE
  5
237
100
AcDbEntity
  8
0
100
AcDbLine
 62
7
  6
CONTINUOUS
 10
4.2295162999
 20
1.4924869927
 11
4.2199207764
 21
1.4926752966
  0
LINE
  5
238
100
AcDbEntity
  8
0
100
AcDbLine
 62
7
  6
CONTINUOUS
 10
4.2199207764
 20
1.4926752966
 11
4.2067415054
 21
1.4935514023
  0
LINE
  5
239
100
AcDbEntity
  8
0
100
AcDbLine
 62
7
  6
CONTINUOUS
 10
4.2067415054
 20
1.4935514023
 11
4.2017950263
 21
1.4940659704
  0
LINE
  5
23A
100
AcDbEntity
  8
0
100
AcDbLine
 62
7
  6
CONTINUOUS
 10
4.2017950263
 20
1.4940659704
 11
4.183825993
 21
1.4968023079
  0
LINE
  5
23B
100
AcDbEntity
  8
0
100
AcDbLine
 62
7
  6
CONTINUOUS
 10
4.3271971393
 20
0.8512191763
 11
4.3446041212
 21
0.842772172
  0
LINE
  5
23C
100
AcDbEntity
  8
0
100
AcDbLine
 62
7
  6
CONTINUOUS
 10
4.2091781056
 20
0.7830854039
 11
4.1099843626
 21
0.8403549381
  0
LINE
  5
23D
100
AcDbEntity
  8
0
100
AcDbLine
 62
7
  6
CONTINUOUS
 10
4.2091781056
 20
0.7830854039
 11
4.2295031056
 21
0.7713507597
  0
LINE
  5
23E
100
AcDbEntity
  8
0
100
AcDbLine
 62
7
  6
CONTINUOUS
 10
4.2918444495
 20
1.500588855
 11
4.274160286
 21
1.4966101347
  0
LINE
  5
23F
100
AcDbEntity
  8
0
100
AcDbLine
 62
7
  6
CONTINUOUS
 10
4.2404346051
 20
1.5933494111
 11
4.2185464347
 21
1.5928330444
  0
LINE
  5
240
100
AcDbEntity
  8
0
100
AcDbLine
 62
7
  6
CONTINUOUS
 10
4.4567984218
 20
1.6007583075
 11
4.4225906056
 21
1.6007583075
  0
LINE
  5
241
100
AcDbEntity
  8
0
100
AcDbLine
 62
7
  6
CONTINUOUS
 10
4.0364156056
 20
1.6007583075
 11
4.0185762709
 21
1.6007583075
  0
LINE
  5
242
100
AcDbEntity
  8
0
100
AcDbLine
 62
7
  6
CONTINUOUS
 10
4.4835656057
 20
1.6633593075
 11
3.9754406055
 21
1.6633593075
  0
LINE
  5
243
100
AcDbEntity
  8
0
100
AcDbLine
 62
7
  6
CONTINUOUS
 10
4.183825993
 20
1.4968023079
 11
4.1661590563
 21
1.5008561963
  0
LWPOLYLINE
  5
244
100
AcDbEntity
  8
0
100
AcDbPolyline
 62
7
  6
CONTINUOUS
 90
3
 70
0
 10
4.1661590563
 20
1.5008561963
 10
4.1487857957
 20
1.5062306421
 10
4.1318090719
 20
1.5129074386
  0
LINE
  5
245
100
AcDbEntity
  8
0
100
AcDbLine
 62
7
  6
CONTINUOUS
 10
4.1318090719
 20
1.5129074386
 11
4.11440209
 21
1.5213544429
  0
LINE
  5
246
100
AcDbEntity
  8
0
100
AcDbLine
 62
9
  6
CONTINUOUS
 10
3.6099461446
 20
0.8005739881
 11
3.8480137862
 21
0.5625063465
  0
LINE
  5
247
100
AcDbEntity
  8
0
100
AcDbLine
 62
7
  6
CONTINUOUS
 10
4.4835656057
 20
2.0040063075
 11
3.9754406055
 21
2.0040063075
  0
LINE
  5
248
100
AcDbEntity
  8
0
100
AcDbLine
 62
7
  6
CONTINUOUS
 10
4.2498281056
 20
1.581041211
 11
4.3490218486
 21
1.5237716768
  0
LINE
  5
249
100
AcDbEntity
  8
0
100
AcDbLine
 62
7
  6
CONTINUOUS
 10
4.0010314742
 20
1.6183011641
 11
4.0217300059
 21
1.6063385599
  0
LINE
  5
24A
100
AcDbEntity
  8
0
100
AcDbLine
 62
7
  6
CONTINUOUS
 10
4.0010516417
 20
1.6521954812
 11
4.0217921457
 21
1.6402050395
  0
LINE
  5
24B
100
AcDbEntity
  8
0
100
AcDbLine
 62
7
  6
CONTINUOUS
 10
4.4579774895
 20
1.6075202888
 11
4.4372234826
 21
1.6195179881
  0
LINE
  5
24C
100
AcDbEntity
  8
0
100
AcDbLine
 62
7
  6
CONTINUOUS
 10
4.4579649875
 20
1.6414026775
 11
4.4372084858
 21
1.6534026841
  0
LINE
  5
24D
100
AcDbEntity
  8
0
100
AcDbLine
 62
9
  6
CONTINUOUS
 10
4.1351916248
 20
0.863955535
 11
3.9113953331
 21
1.0877518266
  0
LINE
  5
24E
100
AcDbEntity
  8
0
100
AcDbLine
 62
7
  6
CONTINUOUS
 10
4.3799081056
 20
10.4461983075
 11
4.4327531056
 21
10.5153033074
  0
LINE
  5
24F
100
AcDbEntity
  8
0
100
AcDbLine
 62
9
  6
CONTINUOUS
 10
4.0878774295
 20
1.6110061725
 11
4.0738172686
 21
1.622928571
  0
LINE
  5
250
100
AcDbEntity
  8
0
100
AcDbLine
 62
9
  6
CONTINUOUS
 10
4.3238145864
 20
1.5001710799
 11
4.5476108781
 21
1.2763747883
  0
LINE
  5
251
100
AcDbEntity
  8
0
100
AcDbLine
 62
7
  6
CONTINUOUS
 10
4.0008468556
 20
1.652377493
 11
4.0010515956
 21
1.6521492762
  0
LINE
  5
252
100
AcDbEntity
  8
0
100
AcDbLine
 62
7
  6
CONTINUOUS
 10
4.0215191751
 20
1.6065820903
 11
4.0217300059
 21
1.6063385599
  0
LINE
  5
253
100
AcDbEntity
  8
0
100
AcDbLine
 62
7
  6
CONTINUOUS
 10
4.0217921457
 20
1.6402050395
 11
4.0215802036
 21
1.640450566
  0
LINE
  5
254
100
AcDbEntity
  8
0
100
AcDbLine
 62
7
  6
CONTINUOUS
 10
4.0008468556
 20
1.6184997612
 11
4.001031457
 21
1.6182830807
  0
LINE
  5
255
100
AcDbEntity
  8
0
100
AcDbLine
 62
9
  6
CONTINUOUS
 10
4.8490600666
 20
1.5635526268
 11
4.610992425
 21
1.8016202684
  0
LINE
  5
256
100
AcDbEntity
  8
0
100
AcDbLine
 62
7
  6
CONTINUOUS
 10
4.4581593556
 20
1.6412357604
 11
4.4579650414
 21
1.641458092
  0
LINE
  5
257
100
AcDbEntity
  8
0
100
AcDbLine
 62
7
  6
CONTINUOUS
 10
4.4374357686
 20
1.6192726994
 11
4.4372234826
 21
1.6195179881
  0
LINE
  5
258
100
AcDbEntity
  8
0
100
AcDbLine
 62
7
  6
CONTINUOUS
 10
4.4374211781
 20
1.6531567628
 11
4.4372084858
 21
1.6534026841
  0
LINE
  5
259
100
AcDbEntity
  8
0
100
AcDbLine
 62
7
  6
CONTINUOUS
 10
4.4581593556
 20
1.6073580556
 11
4.4579775392
 21
1.6075731133
  0
LWPOLYLINE
  5
25A
100
AcDbEntity
  8
0
100
AcDbPolyline
 62
7
  6
CONTINUOUS
 90
3
 70
0
 10
3.8902119808
 20
1.2971641611
 10
3.8912399606
 20
1.2952227138
 10
3.8990726582
 20
1.2788053586
  0
LWPOLYLINE
  5
25B
100
AcDbEntity
  8
0
100
AcDbPolyline
 62
7
  6
CONTINUOUS
 90
12
 70
0
 10
3.8990726582
 20
1.2788053586
 10
3.9056770876
 20
1.2618005676
 10
3.9109775581
 20
1.2444046514
 10
3.9149562784
 20
1.2267204878
 10
3.9176161494
 20
1.2087398727
 10
3.9189296823
 20
1.1906084054
 10
3.9188911164
 20
1.1724809783
 10
3.9175004426
 20
1.1543552281
 10
3.9147641051
 20
1.1363861948
 10
3.9107102167
 20
1.1187192582
 10
3.905335771
 20
1.1013459976
 10
3.8986589745
 20
1.0843692738
  0
LINE
  5
25C
100
AcDbEntity
  8
0
100
AcDbLine
 62
7
  6
CONTINUOUS
 10
4.5687942307
 20
1.0669623565
 11
4.5603473975
 21
1.0843689516
  0
LWPOLYLINE
  5
25D
100
AcDbEntity
  8
0
100
AcDbPolyline
 62
7
  6
CONTINUOUS
 90
13
 70
0
 10
4.5603473975
 20
1.0843689516
 10
4.5536706296
 20
1.1013455046
 10
4.5482961874
 20
1.1187185901
 10
4.5442422776
 20
1.1363853504
 10
4.5415058936
 20
1.1543542059
 10
4.5401151481
 20
1.1724797814
 10
4.5400764858
 20
1.1906070408
 10
4.5413898975
 20
1.2087383471
 10
4.5440496237
 20
1.2267188128
 10
4.5480281773
 20
1.2444028419
 10
4.5533284587
 20
1.2617986377
 10
4.5599326778
 20
1.2788033251
 10
4.5677651477
 20
1.2952205993
  0
LINE
  5
25E
100
AcDbEntity
  8
0
100
AcDbLine
 62
7
  6
CONTINUOUS
 10
3.8738156056
 20
1.0385142998
 11
3.8738156056
 21
1.3256123151
  0
LINE
  5
25F
100
AcDbEntity
  8
0
100
AcDbLine
 62
7
  6
CONTINUOUS
 10
3.8860106056
 20
10.7795283075
 11
3.8860106056
 21
10.6779033075
  0
LINE
  5
260
100
AcDbEntity
  8
0
100
AcDbLine
 62
7
  6
CONTINUOUS
 10
3.9754406056
 20
1.6633593075
 11
3.9754406056
 21
2.0040063075
  0
LINE
  5
261
100
AcDbEntity
  8
0
100
AcDbLine
 62
7
  6
CONTINUOUS
 10
4.0008468556
 20
1.6185137294
 11
4.0008468556
 21
1.6242442955
  0
LINE
  5
262
100
AcDbEntity
  8
0
100
AcDbLine
 62
7
  6
CONTINUOUS
 10
4.0008468556
 20
1.6524305212
 11
4.0008468556
 21
1.6581190259
  0
LINE
  5
263
100
AcDbEntity
  8
0
100
AcDbLine
 62
7
  6
CONTINUOUS
 10
4.0215191751
 20
1.6065820903
 11
4.0215191751
 21
1.6023463603
  0
LINE
  5
264
100
AcDbEntity
  8
0
100
AcDbLine
 62
7
  6
CONTINUOUS
 10
4.0215802036
 20
1.640450566
 11
4.0215802032
 21
1.6362144908
  0
LINE
  5
265
100
AcDbEntity
  8
0
100
AcDbLine
 62
7
  6
CONTINUOUS
 10
4.0262531056
 20
10.5153033074
 11
4.0262531056
 21
10.6209933075
  0
LINE
  5
266
100
AcDbEntity
  8
0
100
AcDbLine
 62
7
  6
CONTINUOUS
 10
4.0364156056
 20
1.5705184096
 11
4.0364156056
 21
1.6007583075
  0
LINE
  5
267
100
AcDbEntity
  8
0
100
AcDbLine
 62
7
  6
CONTINUOUS
 10
4.0790981056
 20
2.0040063075
 11
4.0790981056
 21
10.4461983075
  0
LINE
  5
268
100
AcDbEntity
  8
0
100
AcDbLine
 62
9
  6
CONTINUOUS
 10
4.0878774295
 20
1.6067704425
 11
4.0878774295
 21
1.6110061725
  0
LINE
  5
269
100
AcDbEntity
  8
0
100
AcDbLine
 62
7
  6
CONTINUOUS
 10
4.2295031056
 20
1.702662913
 11
4.2295031056
 21
1.9647027019
  0
LINE
  5
26A
100
AcDbEntity
  8
0
100
AcDbLine
 62
7
  6
CONTINUOUS
 10
4.3799081056
 20
2.0040063075
 11
4.3799081056
 21
10.4461983075
  0
LINE
  5
26B
100
AcDbEntity
  8
0
100
AcDbLine
 62
7
  6
CONTINUOUS
 10
4.4225906056
 20
1.6007583075
 11
4.4225906056
 21
1.5712824713
  0
LINE
  5
26C
100
AcDbEntity
  8
0
100
AcDbLine
 62
7
  6
CONTINUOUS
 10
4.4327531056
 20
10.5153033074
 11
4.4327531056
 21
10.6209933075
  0
LINE
  5
26D
100
AcDbEntity
  8
0
100
AcDbLine
 62
7
  6
CONTINUOUS
 10
4.4374211781
 20
1.6531567628
 11
4.4374211781
 21
1.6573925935
  0
LINE
  5
26E
100
AcDbEntity
  8
0
100
AcDbLine
 62
7
  6
CONTINUOUS
 10
4.4374357686
 20
1.6192726994
 11
4.4374357686
 21
1.6235084294
  0
LINE
  5
26F
100
AcDbEntity
  8
0
100
AcDbLine
 62
7
  6
CONTINUOUS
 10
4.4581593556
 20
1.6015756917
 11
4.4581593556
 21
1.6073116712
  0
LINE
  5
270
100
AcDbEntity
  8
0
100
AcDbLine
 62
7
  6
CONTINUOUS
 10
4.4581593556
 20
1.6354856791
 11
4.4581593556
 21
1.6411799884
  0
LINE
  5
271
100
AcDbEntity
  8
0
100
AcDbLine
 62
7
  6
CONTINUOUS
 10
4.4835656056
 20
1.6633593075
 11
4.4835656056
 21
2.0040063075
  0
LINE
  5
272
100
AcDbEntity
  8
0
100
AcDbLine
 62
7
  6
CONTINUOUS
 10
4.5729956056
 20
10.7795283075
 11
4.5729956056
 21
10.6779033075
  0
LINE
  5
273
100
AcDbEntity
  8
0
100
AcDbLine
 62
7
  6
CONTINUOUS
 10
4.5851906056
 20
1.3256123151
 11
4.5851906056
 21
1.0385142998
  0
LINE
  5
274
100
AcDbEntity
  8
0
100
AcDbLine
 62
7
  6
CONTINUOUS
 10
3.8986589745
 20
1.0843692738
 11
3.8902119701
 21
1.0669622919
  0
LINE
  5
275
100
AcDbEntity
  8
0
100
AcDbLine
 62
7
  6
CONTINUOUS
 10
4.5677651477
 20
1.2952205993
 11
4.5687942227
 21
1.2971641379
  0
LINE
  5
276
100
AcDbEntity
  8
0
100
AcDbLine
 62
7
  6
CONTINUOUS
 10
4.0008468556
 20
1.6242969072
 11
4.0010347432
 21
1.6245155295
  0
LINE
  5
277
100
AcDbEntity
  8
0
100
AcDbLine
 62
7
  6
CONTINUOUS
 10
4.021728701
 20
1.6025887572
 11
4.0215191751
 21
1.6023463603
  0
LINE
  5
278
100
AcDbEntity
  8
0
100
AcDbLine
 62
7
  6
CONTINUOUS
 10
4.0008468556
 20
1.6581746155
 11
4.0010473196
 21
1.6584004379
  0
LINE
  5
279
100
AcDbEntity
  8
0
100
AcDbLine
 62
9
  6
CONTINUOUS
 10
3.8480137862
 20
1.8016202684
 11
3.6099461446
 21
1.5635526268
  0
LINE
  5
27A
100
AcDbEntity
  8
0
100
AcDbLine
 62
7
  6
CONTINUOUS
 10
4.4372086927
 20
1.6571467497
 11
4.4374211781
 21
1.6573925935
  0
LINE
  5
27B
100
AcDbEntity
  8
0
100
AcDbLine
 62
7
  6
CONTINUOUS
 10
4.4581593556
 20
1.6015609067
 11
4.4579594498
 21
1.6013354216
  0
LINE
  5
27C
100
AcDbEntity
  8
0
100
AcDbLine
 62
7
  6
CONTINUOUS
 10
4.4581593556
 20
1.6354386346
 11
4.4579506549
 21
1.6352082243
  0
LINE
  5
27D
100
AcDbEntity
  8
0
100
AcDbLine
 62
9
  6
CONTINUOUS
 10
3.9113953331
 20
1.2763747883
 11
4.1351916248
 21
1.5001710799
  0
LINE
  5
27E
100
AcDbEntity
  8
0
100
AcDbLine
 62
9
  6
CONTINUOUS
 10
4.0738172686
 20
1.5948480439
 11
4.0878774295
 21
1.6067704425
  0
LINE
  5
27F
100
AcDbEntity
  8
0
100
AcDbLine
 62
7
  6
CONTINUOUS
 10
4.0790981056
 20
10.4461983075
 11
4.0262531056
 21
10.5153033074
  0
LINE
  5
280
100
AcDbEntity
  8
0
100
AcDbLine
 62
7
  6
CONTINUOUS
 10
4.0097143488
 20
1.6633593075
 11
4.0010473705
 21
1.6583489061
  0
LINE
  5
281
100
AcDbEntity
  8
0
100
AcDbLine
 62
7
  6
CONTINUOUS
 10
4.021792855
 20
1.6364602865
 11
4.0010347966
 21
1.6244596617
  0
LINE
  5
282
100
AcDbEntity
  8
0
100
AcDbLine
 62
7
  6
CONTINUOUS
 10
4.021728701
 20
1.6025887572
 11
4.018561752
 21
1.6007583075
  0
LINE
  5
283
100
AcDbEntity
  8
0
100
AcDbLine
 62
9
  6
CONTINUOUS
 10
4.5476108781
 20
1.0877518266
 11
4.3238145864
 21
0.863955535
  0
LINE
  5
284
100
AcDbEntity
  8
0
100
AcDbLine
 62
7
  6
CONTINUOUS
 10
4.4372086927
 20
1.6571467497
 11
4.4479541775
 21
1.6633593075
  0
LINE
  5
285
100
AcDbEntity
  8
0
100
AcDbLine
 62
7
  6
CONTINUOUS
 10
4.4372246838
 20
1.6232641819
 11
4.4492676106
 21
1.6302263054
  0
LINE
  5
286
100
AcDbEntity
  8
0
100
AcDbLine
 62
7
  6
CONTINUOUS
 10
4.1099843626
 20
1.5237716768
 11
4.2091781056
 21
1.581041211
  0
LWPOLYLINE
  5
287
100
AcDbEntity
  8
0
100
AcDbPolyline
 62
7
  6
CONTINUOUS
 90
3
 70
0
 10
4.3446039592
 20
1.5213544322
 10
4.342662512
 20
1.5203264525
 10
4.3262451568
 20
1.5124937548
  0
LINE
  5
288
100
AcDbEntity
  8
0
100
AcDbLine
 62
9
  6
CONTINUOUS
 10
4.610992425
 20
0.5625063465
 11
4.8490600666
 21
0.8005739881
  0
LWPOLYLINE
  5
289
100
AcDbEntity
  8
0
100
AcDbPolyline
 62
7
  6
CONTINUOUS
 90
3
 70
0
 10
4.3262451568
 20
1.5124937548
 10
4.3092403657
 20
1.5058893254
 10
4.2918444495
 20
1.500588855
  0
LINE
  5
28A
100
AcDbEntity
  8
0
100
AcDbLine
 62
7
  6
CONTINUOUS
 10
4.3490218486
 20
0.8403549381
 11
4.2498281056
 21
0.7830854039
  0
LINE
  5
28B
100
AcDbEntity
  8
0
100
AcDbLine
 62
7
  6
CONTINUOUS
 10
4.2295031056
 20
0.7713507597
 11
4.2498281056
 21
0.7830854039
  0
LWPOLYLINE
  5
28C
100
AcDbEntity
  8
0
100
AcDbPolyline
 62
7
  6
CONTINUOUS
 90
3
 70
0
 10
4.1144022519
 20
0.8427721827
 10
4.1163436992
 20
0.8438001624
 10
4.1327610544
 20
0.8516328601
  0
LWPOLYLINE
  5
28D
100
AcDbEntity
  8
0
100
AcDbPolyline
 62
7
  6
CONTINUOUS
 90
12
 70
0
 10
4.1327610544
 20
0.8516328601
 10
4.1497658454
 20
0.8582372895
 10
4.1671617616
 20
0.8635377599
 10
4.1848459252
 20
0.8675164802
 10
4.2028265403
 20
0.8701763513
 10
4.2209580076
 20
0.8714898841
 10
4.2390854347
 20
0.8714513183
 10
4.2572111849
 20
0.8700606445
 10
4.2751802182
 20
0.867324307
 10
4.2928471549
 20
0.8632704186
 10
4.3102204154
 20
0.8578959728
 10
4.3271971393
 20
0.8512191763
  0
LINE
  5
28E
100
AcDbEntity
  8
0
100
AcDbLine
 62
7
  6
CONTINUOUS
 10
4.3799081056
 20
10.4461983075
 11
4.0790981056
 21
10.4461983075
  0
LINE
  5
28F
100
AcDbEntity
  8
0
100
AcDbLine
 62
7
  6
CONTINUOUS
 10
4.0262531056
 20
10.5153033074
 11
4.4327531056
 21
10.5153033074
  0
LINE
  5
290
100
AcDbEntity
  8
0
100
AcDbLine
 62
7
  6
CONTINUOUS
 10
3.9327581056
 20
10.6209933075
 11
3.9363668324
 21
10.6212230685
  0
LINE
  5
291
100
AcDbEntity
  8
0
100
AcDbLine
 62
7
  6
CONTINUOUS
 10
4.5226393788
 20
10.6212230685
 11
4.5262481056
 21
10.6209933075
  0
LINE
  5
292
100
AcDbEntity
  8
0
100
AcDbLine
 62
9
  6
CONTINUOUS
 10
4.5226393788
 20
10.6212230685
 11
3.9363668324
 21
10.6212230685
  0
LINE
  5
293
100
AcDbEntity
  8
0
100
AcDbLine
 62
7
  6
CONTINUOUS
 10
4.5729956056
 20
10.6779033075
 11
3.8860106056
 21
10.6779033075
  0
LINE
  5
294
100
AcDbEntity
  8
0
100
AcDbLine
 62
7
  6
CONTINUOUS
 10
4.5729956056
 20
10.7795283075
 11
3.8860106056
 21
10.7795283075
  0
ARC
  5
295
100
AcDbEntity
  8
0
100
AcDbCircle
 62
7
  6
CONTINUOUS
 10
4.1966586167
 20
-2.2730564034
 40
3.8698569878
100
AcDbArc
 50
91.8201553445
 51
92.2080021911
  0
ARC
  5
296
100
AcDbEntity
  8
0
100
AcDbCircle
 62
7
  6
CONTINUOUS
 10
4.1095412031
 20
-0.0421269999
 40
1.6372279137
100
AcDbArc
 50
92.1694758948
 51
92.559926056
  0
ARC
  5
297
100
AcDbEntity
  8
0
100
AcDbCircle
 62
7
  6
CONTINUOUS
 10
4.0777593847
 20
0.6310022982
 40
0.9971921947
100
AcDbArc
 50
92.6595308939
 51
93.2333764317
  0
ARC
  5
298
100
AcDbEntity
  8
0
100
AcDbCircle
 62
7
  6
CONTINUOUS
 10
4.077729373
 20
0.6651301273
 40
0.9969407812
100
AcDbArc
 50
92.6584750973
 51
93.2324651374
  0
ARC
  5
299
100
AcDbEntity
  8
0
100
AcDbCircle
 62
7
  6
CONTINUOUS
 10
4.053959455
 20
0.29978689
 40
0.6158792434
100
AcDbArc
 50
25.2504755858
 51
61.841116168
  0
ARC
  5
29A
100
AcDbEntity
  8
0
100
AcDbCircle
 62
7
  6
CONTINUOUS
 10
3.3472266881
 20
1.3576069581
 40
0.6158792434
100
AcDbArc
 50
295.2504755858
 51
331.841116168
  0
ARC
  5
29B
100
AcDbEntity
  8
0
100
AcDbCircle
 62
7
  6
CONTINUOUS
 10
3.3472266881
 20
1.0065196568
 40
0.6158792434
100
AcDbArc
 50
28.1588700825
 51
64.7495244142
  0
ARC
  5
29C
100
AcDbEntity
  8
0
100
AcDbCircle
 62
7
  6
CONTINUOUS
 10
4.2276099243
 20
1.7960973051
 40
0.3036485644
100
AcDbArc
 50
272.3161196359
 51
272.7681038051
  0
ARC
  5
29D
100
AcDbEntity
  8
0
100
AcDbCircle
 62
7
  6
CONTINUOUS
 10
4.2294513597
 20
1.7485559541
 40
0.2560716467
100
AcDbArc
 50
271.4603775075
 51
272.3343223081
  0
ARC
  5
29E
100
AcDbEntity
  8
0
100
AcDbCircle
 62
7
  6
CONTINUOUS
 10
4.2294588212
 20
1.7389040297
 40
0.2464154112
100
AcDbArc
 50
267.9262507141
 51
269.9568207853
  0
ARC
  5
29F
100
AcDbEntity
  8
0
100
AcDbCircle
 62
7
  6
CONTINUOUS
 10
4.2293196116
 20
1.7322152652
 40
0.2397265875
100
AcDbArc
 50
266.101447443
 51
270.0468462358
  0
ARC
  5
2A0
100
AcDbEntity
  8
0
100
AcDbCircle
 62
7
  6
CONTINUOUS
 10
4.2292017245
 20
1.7301531016
 40
0.2376609185
100
AcDbArc
 50
266.0959351375
 51
267.91185052
  0
ARC
  5
2A1
100
AcDbEntity
  8
0
100
AcDbCircle
 62
7
  6
CONTINUOUS
 10
4.2271020263
 20
1.1836667589
 40
0.1915018173
100
AcDbArc
 50
324.7529815438
 51
328.6666359863
  0
ARC
  5
2A2
100
AcDbEntity
  8
0
100
AcDbCircle
 62
7
  6
CONTINUOUS
 10
4.2282106334
 20
1.1839786663
 40
0.1909261183
100
AcDbArc
 50
301.6313489063
 51
305.1666998766
  0
ARC
  5
2A3
100
AcDbEntity
  8
0
100
AcDbCircle
 62
7
  6
CONTINUOUS
 10
4.2295028348
 20
1.180855289
 40
0.1898199562
100
AcDbArc
 50
75.5534861654
 51
94.6618064909
  0
ARC
  5
2A4
100
AcDbEntity
  8
0
100
AcDbCircle
 62
7
  6
CONTINUOUS
 10
4.2282958295
 20
1.1820629293
 40
0.1898192133
100
AcDbArc
 50
355.3423162252
 51
4.6631786399
  0
ARC
  5
2A5
100
AcDbEntity
  8
0
100
AcDbCircle
 62
7
  6
CONTINUOUS
 10
4.228672439
 20
1.1819232902
 40
0.1894552789
100
AcDbArc
 50
4.7145285082
 51
14.462845058
  0
ARC
  5
2A6
100
AcDbEntity
  8
0
100
AcDbCircle
 62
7
  6
CONTINUOUS
 10
4.2292656299
 20
1.1821032974
 40
0.188855931
100
AcDbArc
 50
345.5215146643
 51
355.3062181536
  0
ARC
  5
2A7
100
AcDbEntity
  8
0
100
AcDbCircle
 62
7
  6
CONTINUOUS
 10
4.2294727088
 20
1.1822439216
 40
0.1887984772
100
AcDbArc
 50
274.6964020849
 51
284.4799881105
  0
ARC
  5
2A8
100
AcDbEntity
  8
0
100
AcDbCircle
 62
7
  6
CONTINUOUS
 10
4.2273780718
 20
1.1832248026
 40
0.186199028
100
AcDbArc
 50
148.3444429074
 51
154.9626860181
  0
ARC
  5
2A9
100
AcDbEntity
  8
0
100
AcDbCircle
 62
7
  6
CONTINUOUS
 10
4.2276294104
 20
1.1855366902
 40
0.184675838
100
AcDbArc
 50
115.0732564798
 51
121.3337961481
  0
ARC
  5
2AA
100
AcDbEntity
  8
0
100
AcDbCircle
 62
7
  6
CONTINUOUS
 10
3.6862435722
 20
0.6388037741
 40
0.17886
100
AcDbArc
 50
115.2504755858
 51
334.7495244142
  0
ARC
  5
2AB
100
AcDbEntity
  8
0
100
AcDbCircle
 62
7
  6
CONTINUOUS
 10
3.6862435722
 20
1.7253228408
 40
0.17886
100
AcDbArc
 50
25.2504755858
 51
244.7495244142
  0
ARC
  5
2AC
100
AcDbEntity
  8
0
100
AcDbCircle
 62
7
  6
CONTINUOUS
 10
3.4226671592
 20
36.7373742273
 40
35.0858055946
100
AcDbArc
 50
271.3176944089
 51
271.4855125684
  0
ARC
  5
2AD
100
AcDbEntity
  8
0
100
AcDbCircle
 62
7
  6
CONTINUOUS
 10
4.0149093442
 20
13.6047253179
 40
12.075250233
100
AcDbArc
 50
271.5049077739
 51
271.6510687971
  0
ARC
  5
2AE
100
AcDbEntity
  8
0
100
AcDbCircle
 62
7
  6
CONTINUOUS
 10
4.2182807725
 20
5.960252372
 40
4.310000023
100
AcDbArc
 50
271.9775991901
 51
272.1740572847
  0
ARC
  5
2AF
100
AcDbEntity
  8
0
100
AcDbCircle
 62
7
  6
CONTINUOUS
 10
4.053959455
 20
2.0643397249
 40
0.6158792434
100
AcDbArc
 50
298.1588700824
 51
334.7495244142
  0
ARC
  5
2B0
100
AcDbEntity
  8
0
100
AcDbCircle
 62
7
  6
CONTINUOUS
 10
3.9327581056
 20
10.6494483075
 40
0.028455
100
AcDbArc
 50
90.0
 51
277.286
  0
ARC
  5
2B1
100
AcDbEntity
  8
0
100
AcDbCircle
 62
7
  6
CONTINUOUS
 10
4.2295031056
 20
1.1820633075
 40
1.01625
100
AcDbArc
 50
98.5149099722
 51
81.4854232836
  0
ARC
  5
2B2
100
AcDbEntity
  8
0
100
AcDbCircle
 62
9
  6
CONTINUOUS
 10
4.2295031056
 20
1.1820633075
 40
0.9492365724
100
AcDbArc
 50
99.1213144589
 51
80.8786580945
  0
ARC
  5
2B3
100
AcDbEntity
  8
0
100
AcDbCircle
 62
9
  6
CONTINUOUS
 10
4.2295031056
 20
1.1820633075
 40
0.4316926691
100
AcDbArc
 50
153.815101133
 51
206.184898867
  0
ARC
  5
2B4
100
AcDbEntity
  8
0
100
AcDbCircle
 62
9
  6
CONTINUOUS
 10
4.2295031056
 20
1.1820633075
 40
0.4316926691
100
AcDbArc
 50
333.815101133
 51
26.184898867
  0
ARC
  5
2B5
100
AcDbEntity
  8
0
100
AcDbCircle
 62
9
  6
CONTINUOUS
 10
4.2295031056
 20
1.1820633075
 40
0.4316926691
100
AcDbArc
 50
243.8232802827
 51
296.1767197174
  0
ARC
  5
2B6
100
AcDbEntity
  8
0
100
AcDbCircle
 62
9
  6
CONTINUOUS
 10
4.2295031056
 20
1.1820633075
 40
0.3755167674
100
AcDbArc
 50
249.0233846127
 51
258.5655255608
  0
ARC
  5
2B7
100
AcDbEntity
  8
0
100
AcDbCircle
 62
9
  6
CONTINUOUS
 10
4.2295031056
 20
1.1820633075
 40
0.3755167674
100
AcDbArc
 50
161.4325084498
 51
198.567533452
  0
ARC
  5
2B8
100
AcDbEntity
  8
0
100
AcDbCircle
 62
9
  6
CONTINUOUS
 10
4.2295031056
 20
1.1820633075
 40
0.3755167674
100
AcDbArc
 50
341.4325084498
 51
18.567533452
  0
ARC
  5
2B9
100
AcDbEntity
  8
0
100
AcDbCircle
 62
9
  6
CONTINUOUS
 10
4.2295031056
 20
1.1820633075
 40
0.3755167674
100
AcDbArc
 50
281.4339702886
 51
290.9764986423
  0
ARC
  5
2BA
100
AcDbEntity
  8
0
100
AcDbCircle
 62
7
  6
CONTINUOUS
 10
4.2295375957
 20
1.7549434989
 40
0.2624550119
100
AcDbArc
 50
270.2074253745
 51
271.4060520076
  0
ARC
  5
2BB
100
AcDbEntity
  8
0
100
AcDbCircle
 62
7
  6
CONTINUOUS
 10
4.2295536024
 20
1.7545297591
 40
0.2620410041
100
AcDbArc
 50
269.9916944368
 51
271.4047729687
  0
ARC
  5
2BC
100
AcDbEntity
  8
0
100
AcDbCircle
 62
7
  6
CONTINUOUS
 10
4.2295573477
 20
1.7509456741
 40
0.2584571419
100
AcDbArc
 50
269.9369907924
 51
270.2062551616
  0
ARC
  5
2BD
100
AcDbEntity
  8
0
100
AcDbCircle
 62
7
  6
CONTINUOUS
 10
4.2306783139
 20
1.7490397302
 40
0.2566066611
100
AcDbArc
 50
263.4943593448
 51
264.6377431022
  0
ARC
  5
2BE
100
AcDbEntity
  8
0
100
AcDbCircle
 62
7
  6
CONTINUOUS
 10
4.230625321
 20
1.7484178527
 40
0.2559828527
100
AcDbArc
 50
263.4900338604
 51
264.6460820447
  0
ARC
  5
2BF
100
AcDbEntity
  8
0
100
AcDbCircle
 62
7
  6
CONTINUOUS
 10
4.2300120288
 20
1.7419885773
 40
0.2495240999
100
AcDbArc
 50
264.6387584037
 51
266.0953397655
  0
ARC
  5
2C0
100
AcDbEntity
  8
0
100
AcDbCircle
 62
7
  6
CONTINUOUS
 10
4.2299646061
 20
1.7414216253
 40
0.2489554979
100
AcDbArc
 50
264.6472400154
 51
266.0974059406
  0
ARC
  5
2C1
100
AcDbEntity
  8
0
100
AcDbCircle
 62
7
  6
CONTINUOUS
 10
4.2299285503
 20
1.7344774138
 40
0.2419855216
100
AcDbArc
 50
271.4324180032
 51
271.9684394586
  0
ARC
  5
2C2
100
AcDbEntity
  8
0
100
AcDbCircle
 62
7
  6
CONTINUOUS
 10
4.2318303605
 20
1.1804984616
 40
0.1914197141
100
AcDbArc
 50
144.8390335907
 51
148.3492023002
  0
ARC
  5
2C3
100
AcDbEntity
  8
0
100
AcDbCircle
 62
7
  6
CONTINUOUS
 10
4.2308013201
 20
1.1801252074
 40
0.190947563
100
AcDbArc
 50
121.3023492647
 51
125.2539177254
  0
ARC
  5
2C4
100
AcDbEntity
  8
0
100
AcDbCircle
 62
7
  6
CONTINUOUS
 10
4.2307132806
 20
1.1820630264
 40
0.1898221059
100
AcDbArc
 50
165.5534943613
 51
184.6615731955
  0
ARC
  5
2C5
100
AcDbEntity
  8
0
100
AcDbCircle
 62
7
  6
CONTINUOUS
 10
4.229503398
 20
1.1832716601
 40
0.189820287
100
AcDbArc
 50
255.5534987884
 51
274.6617707558
  0
ARC
  5
2C6
100
AcDbEntity
  8
0
100
AcDbCircle
 62
7
  6
CONTINUOUS
 10
4.2295337445
 20
1.1818812768
 40
0.1887999093
100
AcDbArc
 50
94.6964612582
 51
104.4799664899
  0
ARC
  5
2C7
100
AcDbEntity
  8
0
100
AcDbCircle
 62
7
  6
CONTINUOUS
 10
4.2296767119
 20
1.1820925275
 40
0.1887913978
100
AcDbArc
 50
184.6960631848
 51
194.4801887187
  0
ARC
  5
2C8
100
AcDbEntity
  8
0
100
AcDbCircle
 62
7
  6
CONTINUOUS
 10
4.2295031056
 20
1.1820633075
 40
0.188616
100
AcDbArc
 50
334.8593237213
 51
94.6964612582
  0
ARC
  5
2C9
100
AcDbEntity
  8
0
100
AcDbCircle
 62
7
  6
CONTINUOUS
 10
4.2295031056
 20
1.1820633075
 40
0.188616
100
AcDbArc
 50
104.4799664899
 51
184.6960631848
  0
ARC
  5
2CA
100
AcDbEntity
  8
0
100
AcDbCircle
 62
7
  6
CONTINUOUS
 10
4.2295031056
 20
1.1820633075
 40
0.188616
100
AcDbArc
 50
194.4801887187
 51
334.8593237213
  0
ARC
  5
2CB
100
AcDbEntity
  8
0
100
AcDbCircle
 62
7
  6
CONTINUOUS
 10
4.2317076632
 20
1.1808692428
 40
0.1861131293
100
AcDbArc
 50
328.6649452504
 51
334.9046915849
  0
ARC
  5
2CC
100
AcDbEntity
  8
0
100
AcDbCircle
 62
7
  6
CONTINUOUS
 10
4.2313731927
 20
1.1786236223
 40
0.1847080452
100
AcDbArc
 50
295.013105124
 51
301.667248838
  0
CIRCLE
  5
2CD
100
AcDbEntity
  8
0
100
AcDbCircle
 62
7
  6
CONTINUOUS
 10
4.2295031056
 20
1.1820633075
 40
0.142275
  0
ARC
  5
2CE
100
AcDbEntity
  8
0
100
AcDbCircle
 62
7
  6
CONTINUOUS
 10
4.2295031056
 20
1.5458372783
 40
0.04065
100
AcDbArc
 50
60.0
 51
120.0
  0
ARC
  5
2CF
100
AcDbEntity
  8
0
100
AcDbCircle
 62
7
  6
CONTINUOUS
 10
4.2295031056
 20
0.8182893366
 40
0.04065
100
AcDbArc
 50
240.0
 51
300.0
  0
ARC
  5
2D0
100
AcDbEntity
  8
0
100
AcDbCircle
 62
7
  6
CONTINUOUS
 10
4.4158997289
 20
-9.3810503326
 40
11.0431689632
100
AcDbArc
 50
91.5109535906
 51
91.7007344497
  0
ARC
  5
2D1
100
AcDbEntity
  8
0
100
AcDbCircle
 62
7
  6
CONTINUOUS
 10
4.3733540988
 20
-6.6872933904
 40
8.2312585935
100
AcDbArc
 50
91.6310166895
 51
92.0151522513
  0
ARC
  5
2D2
100
AcDbEntity
  8
0
100
AcDbCircle
 62
7
  6
CONTINUOUS
 10
4.3478875969
 20
-5.8337769948
 40
7.3816029466
100
AcDbArc
 50
91.5605291992
 51
92.1001405032
  0
ARC
  5
2D3
100
AcDbEntity
  8
0
100
AcDbCircle
 62
7
  6
CONTINUOUS
 10
4.4050467562
 20
0.29978689
 40
0.6158792434
100
AcDbArc
 50
118.1588700824
 51
154.7495244142
  0
ARC
  5
2D4
100
AcDbEntity
  8
0
100
AcDbCircle
 62
7
  6
CONTINUOUS
 10
5.0244955636
 20
-32.9198419287
 40
34.5898258488
100
AcDbArc
 50
91.3169688658
 51
91.4905993112
  0
ARC
  5
2D5
100
AcDbEntity
  8
0
100
AcDbCircle
 62
7
  6
CONTINUOUS
 10
5.1117795231
 20
1.0065196568
 40
0.6158792434
100
AcDbArc
 50
115.2504755858
 51
151.8411321568
  0
ARC
  5
2D6
100
AcDbEntity
  8
0
100
AcDbCircle
 62
7
  6
CONTINUOUS
 10
5.1117795231
 20
1.3576069581
 40
0.6158792434
100
AcDbArc
 50
208.1588780736
 51
244.7495244142
  0
ARC
  5
2D7
100
AcDbEntity
  8
0
100
AcDbCircle
 62
7
  6
CONTINUOUS
 10
4.772762639
 20
1.7253228408
 40
0.17886
100
AcDbArc
 50
295.2504755858
 51
154.7495244142
  0
ARC
  5
2D8
100
AcDbEntity
  8
0
100
AcDbCircle
 62
7
  6
CONTINUOUS
 10
4.772762639
 20
0.6388037741
 40
0.17886
100
AcDbArc
 50
205.2504755858
 51
64.7495244142
  0
ARC
  5
2D9
100
AcDbEntity
  8
0
100
AcDbCircle
 62
7
  6
CONTINUOUS
 10
4.3812907699
 20
2.6283608833
 40
0.9968179458
100
AcDbArc
 50
272.6580011649
 51
273.2320618394
  0
ARC
  5
2DA
100
AcDbEntity
  8
0
100
AcDbCircle
 62
7
  6
CONTINUOUS
 10
4.4050467562
 20
2.0643397249
 40
0.6158792434
100
AcDbArc
 50
205.2504755858
 51
241.841116168
  0
ARC
  5
2DB
100
AcDbEntity
  8
0
100
AcDbCircle
 62
7
  6
CONTINUOUS
 10
4.3804924612
 20
2.1953143444
 40
0.6091845825
100
AcDbArc
 50
273.1477912806
 51
273.9597537146
  0
ARC
  5
2DC
100
AcDbEntity
  8
0
100
AcDbCircle
 62
7
  6
CONTINUOUS
 10
4.3804924612
 20
2.1910786143
 40
0.6091845825
100
AcDbArc
 50
273.1477912806
 51
273.9597537147
  0
ARC
  5
2DD
100
AcDbEntity
  8
0
100
AcDbCircle
 62
7
  6
CONTINUOUS
 10
4.5262481056
 20
10.6494483075
 40
0.028455
100
AcDbArc
 50
262.714
 51
90.0
  0
SPLINE
  5
2DE
100
AcDbEntity
  8
0
100
AcDbSpline
 62
7
  6
CONTINUOUS
 70
0
 71
3
 72
13
 73
9
 74
0
 42
0.0000001
 43
0.0000001
 44
0.0000000001
 40
0.0
 40
0.0
 40
0.0
 40
0.0
 40
0.2468121483
 40
0.370876574
 40
0.4954534605
 40
0.6206745764
 40
0.7465234287
 40
1.0
 40
1.0
 40
1.0
 40
1.0
 10
4.1024718556
 20
1.6633593075
 30
0.0
 10
4.1135357609
 20
1.6633593075
 30
0.0
 10
4.1302002864
 20
1.6648441831
 30
0.0
 10
4.1519336789
 20
1.6694835339
 30
0.0
 10
4.1680309931
 20
1.6742033632
 30
0.0
 10
4.1838510694
 20
1.680003483
 30
0.0
 10
4.20460498
 20
1.6890180771
 30
0.0
 10
4.2196627595
 20
1.6969815865
 30
0.0
 10
4.2295031056
 20
1.702662913
 30
0.0
  0
SPLINE
  5
2DF
100
AcDbEntity
  8
0
100
AcDbSpline
 62
7
  6
CONTINUOUS
 70
0
 71
3
 72
13
 73
9
 74
0
 42
0.0000001
 43
0.0000001
 44
0.0000000001
 40
0.0
 40
0.0
 40
0.0
 40
0.0
 40
0.2534765732
 40
0.3793254401
 40
0.5045465927
 40
0.6291235041
 40
0.7531878971
 40
1.0
 40
1.0
 40
1.0
 40
1.0
 10
4.2295031056
 20
1.702662913
 30
0.0
 10
4.2393434518
 20
1.6969815865
 30
0.0
 10
4.2544012311
 20
1.6890180749
 30
0.0
 10
4.2751551445
 20
1.6800034813
 30
0.0
 10
4.2909752254
 20
1.6742033641
 30
0.0
 10
4.3070725411
 20
1.669483536
 30
0.0
 10
4.3288059293
 20
1.6648441755
 30
0.0
 10
4.3454704523
 20
1.6633593075
 30
0.0
 10
4.3565343556
 20
1.6633593075
 30
0.0
  0
SPLINE
  5
2E0
100
AcDbEntity
  8
0
100
AcDbSpline
 62
7
  6
CONTINUOUS
 70
0
 71
3
 72
13
 73
9
 74
0
 42
0.0000001
 43
0.0000001
 44
0.0000000001
 40
0.0
 40
0.0
 40
0.0
 40
0.0
 40
0.2468114477
 40
0.370877527
 40
0.4954573293
 40
0.6206823245
 40
0.7465315814
 40
1.0
 40
1.0
 40
1.0
 40
1.0
 10
4.1024718556
 20
2.0040063075
 30
0.0
 10
4.0914079825
 20
2.0040063075
 30
0.0
 10
4.0747434242
 20
2.0025213739
 30
0.0
 10
4.0530098476
 20
1.9978820644
 30
0.0
 10
4.0369121823
 20
1.9931620769
 30
0.0
 10
4.0210918477
 20
1.9873617294
 30
0.0
 10
4.0003381117
 20
1.9783471782
 30
0.0
 10
3.9852806344
 20
1.9703838452
 30
0.0
 10
3.9754406056
 20
1.9647027019
 30
0.0
  0
SPLINE
  5
2E1
100
AcDbEntity
  8
0
100
AcDbSpline
 62
7
  6
CONTINUOUS
 70
0
 71
3
 72
13
 73
9
 74
0
 42
0.0000001
 43
0.0000001
 44
0.0000000001
 40
0.0
 40
0.0
 40
0.0
 40
0.0
 40
0.253468418
 40
0.3793176749
 40
0.5045426702
 40
0.6291224725
 40
0.753188552
 40
1.0
 40
1.0
 40
1.0
 40
1.0
 10
4.2295031056
 20
1.9647027019
 30
0.0
 10
4.2196630768
 20
1.9703838452
 30
0.0
 10
4.2046055994
 20
1.9783471781
 30
0.0
 10
4.1838518635
 20
1.9873617293
 30
0.0
 10
4.168031529
 20
1.9931620771
 30
0.0
 10
4.1519338637
 20
1.9978820648
 30
0.0
 10
4.1302002871
 20
2.0025213743
 30
0.0
 10
4.1135357287
 20
2.0040063075
 30
0.0
 10
4.1024718556
 20
2.0040063075
 30
0.0
  0
SPLINE
  5
2E2
100
AcDbEntity
  8
0
100
AcDbSpline
 62
7
  6
CONTINUOUS
 70
0
 71
3
 72
13
 73
9
 74
0
 42
0.0000001
 43
0.0000001
 44
0.0000000001
 40
0.0
 40
0.0
 40
0.0
 40
0.0
 40
0.2468121483
 40
0.370876574
 40
0.4954534605
 40
0.6206745764
 40
0.7465234287
 40
1.0
 40
1.0
 40
1.0
 40
1.0
 10
4.3565343556
 20
1.6633593075
 30
0.0
 10
4.3675982609
 20
1.6633593075
 30
0.0
 10
4.3842627864
 20
1.6648441831
 30
0.0
 10
4.4059961789
 20
1.6694835339
 30
0.0
 10
4.4220934931
 20
1.6742033632
 30
0.0
 10
4.4379135694
 20
1.680003483
 30
0.0
 10
4.45866748
 20
1.6890180771
 30
0.0
 10
4.4737252595
 20
1.6969815865
 30
0.0
 10
4.4835656056
 20
1.702662913
 30
0.0
  0
SPLINE
  5
2E3
100
AcDbEntity
  8
0
100
AcDbSpline
 62
7
  6
CONTINUOUS
 70
0
 71
3
 72
13
 73
9
 74
0
 42
0.0000001
 43
0.0000001
 44
0.0000000001
 40
0.0
 40
0.0
 40
0.0
 40
0.0
 40
0.2534765732
 40
0.3793254401
 40
0.5045465927
 40
0.6291235041
 40
0.7531878971
 40
1.0
 40
1.0
 40
1.0
 40
1.0
 10
3.9754406056
 20
1.702662913
 30
0.0
 10
3.9852809518
 20
1.6969815865
 30
0.0
 10
4.0003387311
 20
1.6890180749
 30
0.0
 10
4.0210926445
 20
1.6800034813
 30
0.0
 10
4.0369127254
 20
1.6742033641
 30
0.0
 10
4.0530100411
 20
1.669483536
 30
0.0
 10
4.0747434293
 20
1.6648441755
 30
0.0
 10
4.0914079523
 20
1.6633593075
 30
0.0
 10
4.1024718556
 20
1.6633593075
 30
0.0
  0
SPLINE
  5
2E4
100
AcDbEntity
  8
0
100
AcDbSpline
 62
7
  6
CONTINUOUS
 70
0
 71
3
 72
13
 73
9
 74
0
 42
0.0000001
 43
0.0000001
 44
0.0000000001
 40
0.0
 40
0.0
 40
0.0
 40
0.0
 40
0.2468114477
 40
0.370877527
 40
0.4954573293
 40
0.6206823245
 40
0.7465315814
 40
1.0
 40
1.0
 40
1.0
 40
1.0
 10
4.3565343556
 20
2.0040063075
 30
0.0
 10
4.3454704825
 20
2.0040063075
 30
0.0
 10
4.3288059242
 20
2.0025213739
 30
0.0
 10
4.3070723476
 20
1.9978820644
 30
0.0
 10
4.2909746823
 20
1.9931620769
 30
0.0
 10
4.2751543477
 20
1.9873617294
 30
0.0
 10
4.2544006117
 20
1.9783471782
 30
0.0
 10
4.2393431344
 20
1.9703838452
 30
0.0
 10
4.2295031056
 20
1.9647027019
 30
0.0
  0
SPLINE
  5
2E5
100
AcDbEntity
  8
0
100
AcDbSpline
 62
7
  6
CONTINUOUS
 70
0
 71
3
 72
13
 73
9
 74
0
 42
0.0000001
 43
0.0000001
 44
0.0000000001
 40
0.0
 40
0.0
 40
0.0
 40
0.0
 40
0.253468418
 40
0.3793176749
 40
0.5045426702
 40
0.6291224725
 40
0.753188552
 40
1.0
 40
1.0
 40
1.0
 40
1.0
 10
4.4835656056
 20
1.9647027019
 30
0.0
 10
4.4737255768
 20
1.9703838452
 30
0.0
 10
4.4586680994
 20
1.9783471781
 30
0.0
 10
4.4379143635
 20
1.9873617293
 30
0.0
 10
4.422094029
 20
1.9931620771
 30
0.0
 10
4.4059963637
 20
1.9978820648
 30
0.0
 10
4.3842627871
 20
2.0025213743
 30
0.0
 10
4.3675982287
 20
2.0040063075
 30
0.0
 10
4.3565343556
 20
2.0040063075
 30
0.0
  0
SPLINE
  5
2E6
100
AcDbEntity
  8
0
100
AcDbSpline
 62
7
  6
CONTINUOUS
 70
0
 71
3
 72
9
 73
5
 74
0
 42
0.0000001
 43
0.0000001
 44
0.0000000001
 40
0.0
 40
0.0
 40
0.0
 40
0.0
 40
0.2504006648
 40
1.0
 40
1.0
 40
1.0
 40
1.0
 10
4.0961314529
 20
1.3154349601
 30
0.0
 10
4.0942179572
 20
1.3135342615
 30
0.0
 10
4.0867534084
 20
1.3057666787
 30
0.0
 10
4.0799869032
 20
1.297333282
 30
0.0
 10
4.0753375828
 20
1.2907323833
 30
0.0
  0
SPLINE
  5
2E7
100
AcDbEntity
  8
0
100
AcDbSpline
 62
7
  6
CONTINUOUS
 70
0
 71
3
 72
9
 73
5
 74
0
 42
0.0000001
 43
0.0000001
 44
0.0000000001
 40
0.0
 40
0.0
 40
0.0
 40
0.0
 40
0.2529401402
 40
1.0
 40
1.0
 40
1.0
 40
1.0
 10
4.0586757263
 20
1.2620257966
 30
0.0
 10
4.0574334539
 20
1.2593612775
 30
0.0
 10
4.0527794415
 20
1.2487079616
 30
0.0
 10
4.0491113311
 20
1.2376323027
 30
0.0
 10
4.0468823898
 20
1.2292403127
 30
0.0
  0
SPLINE
  5
2E8
100
AcDbEntity
  8
0
100
AcDbSpline
 62
7
  6
CONTINUOUS
 70
0
 71
3
 72
9
 73
5
 74
0
 42
0.0000001
 43
0.0000001
 44
0.0000000001
 40
0.0
 40
0.0
 40
0.0
 40
0.0
 40
0.2470755064
 40
1.0
 40
1.0
 40
1.0
 40
1.0
 10
4.1823259366
 20
1.3646839799
 30
0.0
 10
4.1795353766
 20
1.3639432071
 30
0.0
 10
4.1683032982
 20
1.3607186968
 30
0.0
 10
4.1573381672
 20
1.3565366281
 30
0.0
 10
4.1493680949
 20
1.3528099146
 30
0.0
  0
SPLINE
  5
2E9
100
AcDbEntity
  8
0
100
AcDbSpline
 62
7
  6
CONTINUOUS
 70
0
 71
3
 72
9
 73
5
 74
0
 42
0.0000001
 43
0.0000001
 44
0.0000000001
 40
0.0
 40
0.0
 40
0.0
 40
0.0
 40
0.2494954487
 40
1.0
 40
1.0
 40
1.0
 40
1.0
 10
4.1205861904
 20
1.3360533863
 30
0.0
 10
4.1184121362
 20
1.3345171989
 30
0.0
 10
4.1098271626
 20
1.3281805491
 30
0.0
 10
4.1017735175
 20
1.3211172973
 30
0.0
 10
4.0961314529
 20
1.3154349601
 30
0.0
  0
SPLINE
  5
2EA
100
AcDbEntity
  8
0
100
AcDbSpline
 62
7
  6
CONTINUOUS
 70
0
 71
3
 72
9
 73
5
 74
0
 42
0.0000001
 43
0.0000001
 44
0.0000000001
 40
0.0
 40
0.0
 40
0.0
 40
0.0
 40
0.4943774338
 40
1.0
 40
1.0
 40
1.0
 40
1.0
 10
4.0468824331
 20
1.1348861388
 30
0.0
 10
4.0491125748
 20
1.1266786921
 30
0.0
 10
4.0545787278
 20
1.1103200171
 30
0.0
 10
4.062100278
 20
1.094777063
 30
0.0
 10
4.06645226
 20
1.0872455228
 30
0.0
  0
SPLINE
  5
2EB
100
AcDbEntity
  8
0
100
AcDbSpline
 62
7
  6
CONTINUOUS
 70
0
 71
3
 72
9
 73
5
 74
0
 42
0.0000001
 43
0.0000001
 44
0.0000000001
 40
0.0
 40
0.0
 40
0.0
 40
0.0
 40
0.2484739788
 40
1.0
 40
1.0
 40
1.0
 40
1.0
 10
4.06645226
 20
1.0872455228
 30
0.0
 10
4.0684702487
 20
1.0837531915
 30
0.0
 10
4.0770669934
 20
1.0699771792
 30
0.0
 10
4.0874827359
 20
1.0573436361
 30
0.0
 10
4.0961074392
 20
1.0487157634
 30
0.0
  0
SPLINE
  5
2EC
100
AcDbEntity
  8
0
100
AcDbSpline
 62
7
  6
CONTINUOUS
 70
0
 71
3
 72
9
 73
5
 74
0
 42
0.0000001
 43
0.0000001
 44
0.0000000001
 40
0.0
 40
0.0
 40
0.0
 40
0.0
 40
0.2515535472
 40
1.0
 40
1.0
 40
1.0
 40
1.0
 10
4.0961074392
 20
1.0487157634
 30
0.0
 10
4.098999185
 20
1.045822955
 30
0.0
 10
4.1108627355
 20
1.0346983691
 30
0.0
 10
4.1241605966
 20
1.0250925706
 30
0.0
 10
4.134698386
 20
1.0190048593
 30
0.0
  0
SPLINE
  5
2ED
100
AcDbEntity
  8
0
100
AcDbSpline
 62
7
  6
CONTINUOUS
 70
0
 71
3
 72
9
 73
5
 74
0
 42
0.0000001
 43
0.0000001
 44
0.0000000001
 40
0.0
 40
0.0
 40
0.0
 40
0.0
 40
0.5056216243
 40
1.0
 40
1.0
 40
1.0
 40
1.0
 10
4.134698386
 20
1.0190048593
 30
0.0
 10
4.1422281727
 20
1.0146548799
 30
0.0
 10
4.157767237
 20
1.0071367974
 30
0.0
 10
4.1741211975
 20
1.001672439
 30
0.0
 10
4.182326197
 20
0.9994425654
 30
0.0
  0
SPLINE
  5
2EE
100
AcDbEntity
  8
0
100
AcDbSpline
 62
7
  6
CONTINUOUS
 70
0
 71
3
 72
9
 73
5
 74
0
 42
0.0000001
 43
0.0000001
 44
0.0000000001
 40
0.0
 40
0.0
 40
0.0
 40
0.0
 40
0.2470840533
 40
1.0
 40
1.0
 40
1.0
 40
1.0
 10
4.2766802276
 20
0.9994426228
 30
0.0
 10
4.2794562428
 20
1.0001799748
 30
0.0
 10
4.2906298699
 20
1.0033874915
 30
0.0
 10
4.3015400085
 20
1.0075404132
 30
0.0
 10
4.3094724732
 20
1.0112391417
 30
0.0
  0
SPLINE
  5
2EF
100
AcDbEntity
  8
0
100
AcDbSpline
 62
7
  6
CONTINUOUS
 70
0
 71
3
 72
9
 73
5
 74
0
 42
0.0000001
 43
0.0000001
 44
0.0000000001
 40
0.0
 40
0.0
 40
0.0
 40
0.0
 40
0.2494772799
 40
1.0
 40
1.0
 40
1.0
 40
1.0
 10
4.3381759244
 20
1.027900425
 30
0.0
 10
4.3403724033
 20
1.0294475613
 30
0.0
 10
4.3490456873
 20
1.0358322076
 30
0.0
 10
4.3571789491
 20
1.0429571461
 30
0.0
 10
4.3628747582
 20
1.0486916548
 30
0.0
  0
SPLINE
  5
2F0
100
AcDbEntity
  8
0
100
AcDbSpline
 62
7
  6
CONTINUOUS
 70
0
 71
3
 72
9
 73
5
 74
0
 42
0.0000001
 43
0.0000001
 44
0.0000000001
 40
0.0
 40
0.0
 40
0.0
 40
0.0
 40
0.2503866718
 40
1.0
 40
1.0
 40
1.0
 40
1.0
 10
4.3628747582
 20
1.0486916548
 30
0.0
 10
4.364770773
 20
1.0505744368
 30
0.0
 10
4.3721687082
 20
1.0582681972
 30
0.0
 10
4.3788798473
 20
1.0666172952
 30
0.0
 10
4.3834961193
 20
1.0731505444
 30
0.0
  0
SPLINE
  5
2F1
100
AcDbEntity
  8
0
100
AcDbSpline
 62
7
  6
CONTINUOUS
 70
0
 71
3
 72
9
 73
5
 74
0
 42
0.0000001
 43
0.0000001
 44
0.0000000001
 40
0.0
 40
0.0
 40
0.0
 40
0.0
 40
0.2529523035
 40
1.0
 40
1.0
 40
1.0
 40
1.0
 10
4.4002523703
 20
1.1019339615
 30
0.0
 10
4.4015041562
 20
1.1046113037
 30
0.0
 10
4.4061927962
 20
1.1153164032
 30
0.0
 10
4.4098844384
 20
1.1264497613
 30
0.0
 10
4.4121237965
 20
1.1348862088
 30
0.0
  0
SPLINE
  5
2F2
100
AcDbEntity
  8
0
100
AcDbSpline
 62
7
  6
CONTINUOUS
 70
0
 71
3
 72
9
 73
5
 74
0
 42
0.0000001
 43
0.0000001
 44
0.0000000001
 40
0.0
 40
0.0
 40
0.0
 40
0.0
 40
0.4943812652
 40
1.0
 40
1.0
 40
1.0
 40
1.0
 10
4.4121238579
 20
1.229240179
 30
0.0
 10
4.4098957401
 20
1.2374381945
 30
0.0
 10
4.4044368045
 20
1.2537783686
 30
0.0
 10
4.3969279463
 20
1.2693053988
 30
0.0
 10
4.3925836076
 20
1.2768298235
 30
0.0
  0
SPLINE
  5
2F3
100
AcDbEntity
  8
0
100
AcDbSpline
 62
7
  6
CONTINUOUS
 70
0
 71
3
 72
9
 73
5
 74
0
 42
0.0000001
 43
0.0000001
 44
0.0000000001
 40
0.0
 40
0.0
 40
0.0
 40
0.0
 40
0.2484701075
 40
1.0
 40
1.0
 40
1.0
 40
1.0
 10
4.3925836076
 20
1.2768298235
 30
0.0
 10
4.3905657369
 20
1.2803247895
 30
0.0
 10
4.3819685126
 20
1.2941113654
 30
0.0
 10
4.3715493665
 20
1.3067543824
 30
0.0
 10
4.3629210757
 20
1.3153885306
 30
0.0
  0
SPLINE
  5
2F4
100
AcDbEntity
  8
0
100
AcDbSpline
 62
7
  6
CONTINUOUS
 70
0
 71
3
 72
9
 73
5
 74
0
 42
0.0000001
 43
0.0000001
 44
0.0000000001
 40
0.0
 40
0.0
 40
0.0
 40
0.0
 40
0.2515456378
 40
1.0
 40
1.0
 40
1.0
 40
1.0
 10
4.3629210757
 20
1.3153885306
 30
0.0
 10
4.360034915
 20
1.3182766506
 30
0.0
 10
4.3481944157
 20
1.3293843361
 30
0.0
 10
4.3349244657
 20
1.3389788869
 30
0.0
 10
4.3244090736
 20
1.3450631749
 30
0.0
  0
SPLINE
  5
2F5
100
AcDbEntity
  8
0
100
AcDbSpline
 62
7
  6
CONTINUOUS
 70
0
 71
3
 72
9
 73
5
 74
0
 42
0.0000001
 43
0.0000001
 44
0.0000000001
 40
0.0
 40
0.0
 40
0.0
 40
0.0
 40
0.5056294074
 40
1.0
 40
1.0
 40
1.0
 40
1.0
 10
4.3244090736
 20
1.3450631749
 30
0.0
 10
4.316865102
 20
1.3494281758
 30
0.0
 10
4.3012942476
 20
1.3569709707
 30
0.0
 10
4.2849036899
 20
1.3624497095
 30
0.0
 10
4.2766801113
 20
1.3646840231
 30
0.0
  0
LINE
  5
2F6
100
AcDbEntity
  8
0
100
AcDbLine
 62
7
  6
CONTINUOUS
 10
4.0223980039
 20
1.639968796
 11
4.0217776764
 21
1.6402050511
  0
SPLINE
  5
2F7
100
AcDbEntity
  8
0
100
AcDbSpline
 62
7
  6
CONTINUOUS
 70
0
 71
3
 72
16
 73
12
 74
0
 42
0.0000001
 43
0.0000001
 44
0.0000000001
 40
0.0
 40
0.0
 40
0.0
 40
0.0
 40
0.0253003706
 40
0.0468470723
 40
0.0753870878
 40
0.1111972794
 40
0.1544110309
 40
0.26329546
 40
0.4023373597
 40
0.5716202201
 40
1.0
 40
1.0
 40
1.0
 40
1.0
 10
4.0215555822
 20
1.6404505762
 30
0.0
 10
4.0215531398
 20
1.6405371998
 30
0.0
 10
4.0216983885
 20
1.6406693855
 30
0.0
 10
4.0219204121
 20
1.6407787945
 30
0.0
 10
4.0221996133
 20
1.6408843663
 30
0.0
 10
4.0225522827
 20
1.6409867067
 30
0.0
 10
4.0231788061
 20
1.6411375606
 30
0.0
 10
4.0241597177
 20
1.6413179248
 30
0.0
 10
4.0255740171
 20
1.6415244758
 30
0.0
 10
4.0280795236
 20
1.641825059
 30
0.0
 10
4.0301183405
 20
1.6420131245
 30
0.0
 10
4.0315804001
 20
1.6421367024
 30
0.0
  0
SPLINE
  5
2F8
100
AcDbEntity
  8
0
100
AcDbSpline
 62
7
  6
CONTINUOUS
 70
0
 71
3
 72
18
 73
14
 74
0
 42
0.0000001
 43
0.0000001
 44
0.0000000001
 40
0.0
 40
0.0
 40
0.0
 40
0.0
 40
0.028069815
 40
0.0647338953
 40
0.1094459267
 40
0.1614789281
 40
0.2200596267
 40
0.2842860739
 40
0.4257953779
 40
0.5773470011
 40
0.7296088064
 40
0.8734006924
 40
1.0
 40
1.0
 40
1.0
 40
1.0
 10
4.0315804001
 20
1.6421367024
 30
0.0
 10
4.0347094832
 20
1.6424011823
 30
0.0
 10
4.0419357229
 20
1.6428894344
 30
0.0
 10
4.0541626215
 20
1.6435372942
 30
0.0
 10
4.0690733943
 20
1.6441891011
 30
0.0
 10
4.0864376945
 20
1.6448459442
 30
0.0
 10
4.1059864308
 20
1.6455052496
 30
0.0
 10
4.1355421552
 20
1.6464165232
 30
0.0
 10
4.175497588
 20
1.6475213816
 30
0.0
 10
4.2253001138
 20
1.6488162962
 30
0.0
 10
4.2753580917
 20
1.6501119028
 30
0.0
 10
4.32262373
 20
1.6514022332
 30
0.0
 10
4.3528590265
 20
1.6523299334
 30
0.0
 10
4.3670135475
 20
1.6528194056
 30
0.0
  0
SPLINE
  5
2F9
100
AcDbEntity
  8
0
100
AcDbSpline
 62
7
  6
CONTINUOUS
 70
0
 71
3
 72
17
 73
13
 74
0
 42
0.0000001
 43
0.0000001
 44
0.0000000001
 40
0.0
 40
0.0
 40
0.0
 40
0.0
 40
0.2017545279
 40
0.383726883
 40
0.5448005687
 40
0.6838686905
 40
0.799835613
 40
0.8916185802
 40
0.9281265463
 40
0.9583282046
 40
0.9822638978
 40
1.0
 40
1.0
 40
1.0
 40
1.0
 10
4.3817821453
 20
1.6533547067
 30
0.0
 10
4.385473124
 20
1.6534954533
 30
0.0
 10
4.3924927639
 20
1.6537742439
 30
0.0
 10
4.4024572256
 20
1.6542123233
 30
0.0
 10
4.4112728451
 20
1.6546494054
 30
0.0
 10
4.418878551
 20
1.6550843693
 30
0.0
 10
4.4252133186
 20
1.6555168809
 30
0.0
 10
4.4296697037
 20
1.6558942907
 30
0.0
 10
4.4325542835
 20
1.6562093976
 30
0.0
 10
4.4341998976
 20
1.6564260299
 30
0.0
 10
4.4354981327
 20
1.6566408662
 30
0.0
 10
4.4362444397
 20
1.6568042742
 30
0.0
 10
4.4365567009
 20
1.6568933119
 30
0.0
  0
LINE
  5
2FA
100
AcDbEntity
  8
0
100
AcDbLine
 62
7
  6
CONTINUOUS
 10
4.4366810105
 20
1.6569301261
 11
4.4372182875
 21
1.6571467927
  0
SPLINE
  5
2FB
100
AcDbEntity
  8
0
100
AcDbSpline
 62
7
  6
CONTINUOUS
 70
0
 71
3
 72
12
 73
8
 74
0
 42
0.0000001
 43
0.0000001
 44
0.0000000001
 40
0.0
 40
0.0
 40
0.0
 40
0.0
 40
0.0524430633
 40
0.1250424258
 40
0.332596534
 40
0.6243831697
 40
1.0
 40
1.0
 40
1.0
 40
1.0
 10
4.4579473936
 20
1.635208239
 30
0.0
 10
4.4578503482
 20
1.6351545003
 30
0.0
 10
4.4576031483
 20
1.6350562809
 30
0.0
 10
4.4569267082
 20
1.6348628297
 30
0.0
 10
4.4557352767
 20
1.6346404804
 30
0.0
 10
4.4539024702
 20
1.6343858408
 30
0.0
 10
4.4524985385
 20
1.6342340553
 30
0.0
 10
4.451707949
 20
1.6341550406
 30
0.0
  0
LINE
  5
2FC
100
AcDbEntity
  8
0
100
AcDbLine
 62
7
  6
CONTINUOUS
 10
4.451707949
 20
1.6341550406
 11
4.4374915734
 21
1.633128505
  0
SPLINE
  5
2FD
100
AcDbEntity
  8
0
100
AcDbSpline
 62
7
  6
CONTINUOUS
 70
0
 71
3
 72
13
 73
9
 74
0
 42
0.0000001
 43
0.0000001
 44
0.0000000001
 40
0.0
 40
0.0
 40
0.0
 40
0.0
 40
0.0839542581
 40
0.1835772022
 40
0.4227048459
 40
0.558132384
 40
0.7012121527
 40
1.0
 40
1.0
 40
1.0
 40
1.0
 10
4.4275174385
 20
1.6326153776
 30
0.0
 10
4.4219798652
 20
1.6323543884
 30
0.0
 10
4.4098680698
 20
1.6318509
 30
0.0
 10
4.3819730811
 20
1.6308654423
 30
0.0
 10
4.3506745962
 20
1.6299627107
 30
0.0
 10
4.3165054212
 20
1.6290724885
 30
0.0
 10
4.2783970186
 20
1.6281192979
 30
0.0
 10
4.2492279034
 20
1.6274110398
 30
0.0
 10
4.2295031056
 20
1.626969181
 30
0.0
  0
SPLINE
  5
2FE
100
AcDbEntity
  8
0
100
AcDbSpline
 62
7
  6
CONTINUOUS
 70
0
 71
3
 72
12
 73
8
 74
0
 42
0.0000001
 43
0.0000001
 44
0.0000000001
 40
0.0
 40
0.0
 40
0.0
 40
0.0
 40
0.0522074315
 40
0.1246282282
 40
0.332029797
 40
0.6239537328
 40
1.0
 40
1.0
 40
1.0
 40
1.0
 10
4.0010548692
 20
1.6521492915
 30
0.0
 10
4.0011513282
 20
1.6520953629
 30
0.0
 10
4.0013977319
 20
1.6519968992
 30
0.0
 10
4.0020732945
 20
1.6518029728
 30
0.0
 10
4.0032651508
 20
1.6515802305
 30
0.0
 10
4.0051000817
 20
1.6513250933
 30
0.0
 10
4.0065062076
 20
1.6511730629
 30
0.0
 10
4.0072982625
 20
1.6510939031
 30
0.0
  0
LINE
  5
2FF
100
AcDbEntity
  8
0
100
AcDbLine
 62
7
  6
CONTINUOUS
 10
4.2422742471
 20
1.4928030449
 11
4.2535308274
 21
1.4934952493
  0
SPLINE
  5
300
100
AcDbEntity
  8
0
100
AcDbSpline
 62
9
  6
CONTINUOUS
 70
0
 71
3
 72
14
 73
10
 74
0
 42
0.0000001
 43
0.0000001
 44
0.0000000001
 40
0.0
 40
0.0
 40
0.0
 40
0.0
 40
0.1245091256
 40
0.2507360302
 40
0.3778324381
 40
0.5049703145
 40
0.7563575673
 40
0.879568571
 40
1.0
 40
1.0
 40
1.0
 40
1.0
 10
4.3238145709
 20
1.5001710664
 30
0.0
 10
4.3163624294
 20
1.497241766
 30
0.0
 10
4.3010542674
 20
1.4920822276
 30
0.0
 10
4.2773719937
 20
1.4865024572
 30
0.0
 10
4.2531036617
 20
1.4831048118
 30
0.0
 10
4.2205819781
 20
1.481622899
 30
0.0
 10
4.1882465092
 20
1.4848491322
 30
0.0
 10
4.1572655946
 20
1.4922971377
 30
0.0
 10
4.1423997137
 20
1.4973377319
 30
0.0
 10
4.1351916321
 20
1.5001710994
 30
0.0
  0
LINE
  5
301
100
AcDbEntity
  8
0
100
AcDbLine
 62
9
  6
CONTINUOUS
 10
3.9113954353
 20
1.0877525671
 11
3.8902127079
 21
1.0669636703
  0
SPLINE
  5
302
100
AcDbEntity
  8
0
100
AcDbSpline
 62
9
  6
CONTINUOUS
 70
0
 71
3
 72
14
 73
10
 74
0
 42
0.0000001
 43
0.0000001
 44
0.0000000001
 40
0.0
 40
0.0
 40
0.0
 40
0.0
 40
0.1245091256
 40
0.2507360302
 40
0.3778324381
 40
0.5049703145
 40
0.7563575673
 40
0.879568571
 40
1.0
 40
1.0
 40
1.0
 40
1.0
 10
4.1351916403
 20
0.8639555485
 30
0.0
 10
4.1426437817
 20
0.8668848489
 30
0.0
 10
4.1579519438
 20
0.8720443873
 30
0.0
 10
4.1816342175
 20
0.8776241577
 30
0.0
 10
4.2059025495
 20
0.8810218031
 30
0.0
 10
4.2384242331
 20
0.8825037159
 30
0.0
 10
4.2707597019
 20
0.8792774827
 30
0.0
 10
4.3017406166
 20
0.8718294772
 30
0.0
 10
4.3166064975
 20
0.866788883
 30
0.0
 10
4.3238145791
 20
0.8639555155
 30
0.0
  0
SPLINE
  5
303
100
AcDbEntity
  8
0
100
AcDbSpline
 62
9
  6
CONTINUOUS
 70
0
 71
3
 72
15
 73
11
 74
0
 42
0.0000001
 43
0.0000001
 44
0.0000000001
 40
0.0
 40
0.0
 40
0.0
 40
0.0
 40
0.1224228633
 40
0.247106192
 40
0.3732229685
 40
0.5000000602
 40
0.6267771436
 40
0.7528938963
 40
0.8775771875
 40
1.0
 40
1.0
 40
1.0
 40
1.0
 10
4.1351915905
 20
1.5001710093
 30
0.0
 10
4.1425208848
 20
1.4972899927
 30
0.0
 10
4.1576058659
 20
1.492190415
 30
0.0
 10
4.1809930252
 20
1.4866241908
 30
0.0
 10
4.2050711768
 20
1.4831790873
 30
0.0
 10
4.2295031634
 20
1.4819869354
 30
0.0
 10
4.2539351481
 20
1.4831790954
 30
0.0
 10
4.2780132941
 20
1.4866242062
 30
0.0
 10
4.3014004446
 20
1.4921904362
 30
0.0
 10
4.3164854187
 20
1.4972900165
 30
0.0
 10
4.3238147092
 20
1.5001710341
 30
0.0
  0
SPLINE
  5
304
100
AcDbEntity
  8
0
100
AcDbSpline
 62
9
  6
CONTINUOUS
 70
0
 71
3
 72
15
 73
11
 74
0
 42
0.0000001
 43
0.0000001
 44
0.0000000001
 40
0.0
 40
0.0
 40
0.0
 40
0.0
 40
0.1505036196
 40
0.2963364025
 40
0.436643262
 40
0.5703174435
 40
0.6960335609
 40
0.8115910935
 40
0.9140612642
 40
1.0
 40
1.0
 40
1.0
 40
1.0
 10
4.0468823898
 20
1.2292403127
 30
0.0
 10
4.0399735232
 20
1.2312735774
 30
0.0
 10
4.0263758925
 20
1.2352964419
 30
0.0
 10
4.0063893529
 20
1.2413892926
 30
0.0
 10
3.9872647968
 20
1.2475414931
 30
0.0
 10
3.9691628711
 20
1.2537198756
 30
0.0
 10
3.9522943579
 20
1.2598356296
 30
0.0
 10
3.9369353004
 20
1.2657253226
 30
0.0
 10
3.9234274144
 20
1.2711196566
 30
0.0
 10
3.9151301602
 20
1.2746536938
 30
0.0
 10
3.9113953331
 20
1.2763747883
 30
0.0
  0
SPLINE
  5
305
100
AcDbEntity
  8
0
100
AcDbSpline
 62
9
  6
CONTINUOUS
 70
0
 71
3
 72
13
 73
9
 74
0
 42
0.0000001
 43
0.0000001
 44
0.0000000001
 40
0.0
 40
0.0
 40
0.0
 40
0.0
 40
0.0769411777
 40
0.1717155217
 40
0.4058026027
 40
0.5408480163
 40
0.6857650338
 40
1.0
 40
1.0
 40
1.0
 40
1.0
 10
4.1351915888
 20
1.5001710038
 30
0.0
 10
4.1366760804
 20
1.4968018908
 30
0.0
 10
4.1399070412
 20
1.4892465098
 30
0.0
 10
4.147232656
 20
1.4712628832
 30
0.0
 10
4.1550386633
 20
1.4504758077
 30
0.0
 10
4.1630368189
 20
1.427213945
 30
0.0
 10
4.1718301637
 20
1.4001742329
 30
0.0
 10
4.1781599653
 20
1.3791316016
 30
0.0
 10
4.1823258959
 20
1.3646839744
 30
0.0
  0
SPLINE
  5
306
100
AcDbEntity
  8
0
100
AcDbSpline
 62
9
  6
CONTINUOUS
 70
0
 71
3
 72
15
 73
11
 74
0
 42
0.0000001
 43
0.0000001
 44
0.0000000001
 40
0.0
 40
0.0
 40
0.0
 40
0.0
 40
0.1505051399
 40
0.2963382839
 40
0.4366438382
 40
0.570316379
 40
0.6960330006
 40
0.8115897899
 40
0.914055224
 40
1.0
 40
1.0
 40
1.0
 40
1.0
 10
4.182326197
 20
0.9994425654
 30
0.0
 10
4.1802922497
 20
0.992533825
 30
0.0
 10
4.1762685298
 20
0.9789363576
 30
0.0
 10
4.1701755101
 20
0.9589498478
 30
0.0
 10
4.1640239285
 20
0.9398252302
 30
0.0
 10
4.1578464691
 20
0.9217231138
 30
0.0
 10
4.1517308478
 20
0.904854646
 30
0.0
 10
4.1458410341
 20
0.8894958924
 30
0.0
 10
4.1404479827
 20
0.8759874912
 30
0.0
 10
4.1369139666
 20
0.8676901046
 30
0.0
 10
4.1351916248
 20
0.863955535
 30
0.0
  0
SPLINE
  5
307
100
AcDbEntity
  8
0
100
AcDbSpline
 62
9
  6
CONTINUOUS
 70
0
 71
3
 72
13
 73
9
 74
0
 42
0.0000001
 43
0.0000001
 44
0.0000000001
 40
0.0
 40
0.0
 40
0.0
 40
0.0
 40
0.0769411765
 40
0.1717155134
 40
0.4058025743
 40
0.5408479809
 40
0.6857649982
 40
1.0
 40
1.0
 40
1.0
 40
1.0
 10
3.9113954092
 20
1.0877517906
 30
0.0
 10
3.9147645221
 20
1.0892362821
 30
0.0
 10
3.9223199028
 20
1.0924672429
 30
0.0
 10
3.9403035281
 20
1.0997928572
 30
0.0
 10
3.961090602
 20
1.1075988641
 30
0.0
 10
3.9843524635
 20
1.1155970193
 30
0.0
 10
4.0113921768
 20
1.1243903644
 30
0.0
 10
4.0324348098
 20
1.1307201665
 30
0.0
 10
4.0468824386
 20
1.1348860977
 30
0.0
  0
SPLINE
  5
308
100
AcDbEntity
  8
0
100
AcDbSpline
 62
7
  6
CONTINUOUS
 70
0
 71
3
 72
13
 73
9
 74
0
 42
0.0000001
 43
0.0000001
 44
0.0000000001
 40
0.0
 40
0.0
 40
0.0
 40
0.0
 40
0.0513614092
 40
0.1231397535
 40
0.2159160527
 40
0.3299353336
 40
0.6220902334
 40
1.0
 40
1.0
 40
1.0
 40
1.0
 10
4.4372220098
 20
1.6195179984
 30
0.0
 10
4.437117254
 20
1.619578953
 30
0.0
 10
4.43684655
 20
1.6196896971
 30
0.0
 10
4.4363577106
 20
1.619833022
 30
0.0
 10
4.4357159814
 20
1.6199778003
 30
0.0
 10
4.4345578171
 20
1.6201902238
 30
0.0
 10
4.4327243357
 20
1.6204441035
 30
0.0
 10
4.4311524294
 20
1.620615443
 30
0.0
 10
4.4302650935
 20
1.6207042199
 30
0.0
  0
SPLINE
  5
309
100
AcDbEntity
  8
0
100
AcDbSpline
 62
7
  6
CONTINUOUS
 70
0
 71
3
 72
14
 73
10
 74
0
 42
0.0000001
 43
0.0000001
 44
0.0000000001
 40
0.0
 40
0.0
 40
0.0
 40
0.0
 40
0.0469089458
 40
0.1155385113
 40
0.2064939596
 40
0.3200067413
 40
0.4561788031
 40
0.6150077435
 40
1.0
 40
1.0
 40
1.0
 40
1.0
 10
4.4579739658
 20
1.6075731261
 30
0.0
 10
4.4578601371
 20
1.607640435
 30
0.0
 10
4.4575535526
 20
1.6077585049
 30
0.0
 10
4.4569919861
 20
1.6079099814
 30
0.0
 10
4.4562367421
 20
1.6080631443
 30
0.0
 10
4.4552890351
 20
1.6082179848
 30
0.0
 10
4.4541477993
 20
1.6083735448
 30
0.0
 10
4.4522437643
 20
1.6085961722
 30
0.0
 10
4.4507172819
 20
1.6087403764
 30
0.0
 10
4.449636055
 20
1.6088345979
 30
0.0
  0
SPLINE
  5
30A
100
AcDbEntity
  8
0
100
AcDbSpline
 62
9
  6
CONTINUOUS
 70
0
 71
3
 72
15
 73
11
 74
0
 42
0.0000001
 43
0.0000001
 44
0.0000000001
 40
0.0
 40
0.0
 40
0.0
 40
0.0
 40
0.1224227805
 40
0.247106048
 40
0.3732227858
 40
0.4999998639
 40
0.6267769609
 40
0.7528937523
 40
0.8775771047
 40
1.0
 40
1.0
 40
1.0
 40
1.0
 10
4.5476108273
 20
1.2763749123
 30
0.0
 10
4.5447298113
 20
1.2690456235
 30
0.0
 10
4.5396302335
 20
1.2539606525
 30
0.0
 10
4.5340640059
 20
1.2305735064
 30
0.0
 10
4.5306188961
 20
1.2064953634
 30
0.0
 10
4.5294267363
 20
1.1820633799
 30
0.0
 10
4.5306188878
 20
1.1576313926
 30
0.0
 10
4.5340639909
 20
1.1335532383
 30
0.0
 10
4.539630215
 20
1.1101660746
 30
0.0
 10
4.5447297931
 20
1.09508109
 30
0.0
 10
4.5476108102
 20
1.0877517937
 30
0.0
  0
SPLINE
  5
30B
100
AcDbEntity
  8
0
100
AcDbSpline
 62
9
  6
CONTINUOUS
 70
0
 71
3
 72
17
 73
13
 74
0
 42
0.0000001
 43
0.0000001
 44
0.0000000001
 40
0.0
 40
0.0
 40
0.0
 40
0.0
 40
0.1504417271
 40
0.2962096697
 40
0.4365104162
 40
0.5703827886
 40
0.6959998978
 40
0.7550611564
 40
0.8112659201
 40
0.9136435062
 40
0.9590182272
 40
1.0
 40
1.0
 40
1.0
 40
1.0
 10
4.2766801113
 20
1.3646840231
 30
0.0
 10
4.2787455144
 20
1.3715803804
 30
0.0
 10
4.282801351
 20
1.3851620888
 30
0.0
 10
4.2888835755
 20
1.4051452221
 30
0.0
 10
4.2949802832
 20
1.4242944721
 30
0.0
 10
4.3011806385
 20
1.442394291
 30
0.0
 10
4.3063811714
 20
1.456723843
 30
0.0
 10
4.3104322979
 20
1.4675154592
 30
0.0
 10
4.3141497148
 20
1.4772440743
 30
0.0
 10
4.317728909
 20
1.4863253275
 30
0.0
 10
4.3212604705
 20
1.494638165
 30
0.0
 10
4.3229700638
 20
1.4984011629
 30
0.0
 10
4.3238145864
 20
1.5001710799
 30
0.0
  0
SPLINE
  5
30C
100
AcDbEntity
  8
0
100
AcDbSpline
 62
7
  6
CONTINUOUS
 70
0
 71
3
 72
12
 73
8
 74
0
 42
0.0000001
 43
0.0000001
 44
0.0000000001
 40
0.0
 40
0.0
 40
0.0
 40
0.0
 40
0.0511745135
 40
0.1228103893
 40
0.3295400842
 40
0.6220663888
 40
1.0
 40
1.0
 40
1.0
 40
1.0
 10
4.001038069
 20
1.6245155211
 30
0.0
 10
4.0011319086
 20
1.6245702893
 30
0.0
 10
4.0013747832
 20
1.6246698225
 30
0.0
 10
4.0020463966
 20
1.6248658275
 30
0.0
 10
4.0032400237
 20
1.6250902661
 30
0.0
 10
4.005084144
 20
1.6253475669
 30
0.0
 10
4.0064998192
 20
1.6255006553
 30
0.0
 10
4.0072982642
 20
1.6255804451
 30
0.0
  0
LINE
  5
30D
100
AcDbEntity
  8
0
100
AcDbLine
 62
7
  6
CONTINUOUS
 10
4.0072982642
 20
1.6255804451
 11
4.0215146378
 21
1.6266070399
  0
SPLINE
  5
30E
100
AcDbEntity
  8
0
100
AcDbSpline
 62
7
  6
CONTINUOUS
 70
0
 71
3
 72
13
 73
9
 74
0
 42
0.0000001
 43
0.0000001
 44
0.0000000001
 40
0.0
 40
0.0
 40
0.0
 40
0.0
 40
0.0839542469
 40
0.1835771083
 40
0.297156234
 40
0.4227050424
 40
0.7012122006
 40
1.0
 40
1.0
 40
1.0
 40
1.0
 10
4.0314887654
 20
1.6271204152
 30
0.0
 10
4.0370263332
 20
1.6273815282
 30
0.0
 10
4.0491381248
 20
1.6278850562
 30
0.0
 10
4.0687479838
 20
1.6285770969
 30
0.0
 10
4.091105853
 20
1.6292718431
 30
0.0
 10
4.1252730662
 20
1.630236859
 30
0.0
 10
4.1716690743
 20
1.6314052118
 30
0.0
 10
4.2097791127
 20
1.6322898922
 30
0.0
 10
4.2295031056
 20
1.6327663639
 30
0.0
  0
SPLINE
  5
30F
100
AcDbEntity
  8
0
100
AcDbSpline
 62
7
  6
CONTINUOUS
 70
0
 71
3
 72
14
 73
10
 74
0
 42
0.0000001
 43
0.0000001
 44
0.0000000001
 40
0.0
 40
0.0
 40
0.0
 40
0.0
 40
0.0463974339
 40
0.1147079057
 40
0.2055075588
 40
0.3190071382
 40
0.455292594
 40
0.6143573422
 40
1.0
 40
1.0
 40
1.0
 40
1.0
 10
4.0217634448
 20
1.636460288
 30
0.0
 10
4.0218965011
 20
1.6365375832
 30
0.0
 10
4.0222558317
 20
1.6366722548
 30
0.0
 10
4.0229144881
 20
1.636845034
 30
0.0
 10
4.0238024441
 20
1.6370197421
 30
0.0
 10
4.024918046
 20
1.6371965042
 30
0.0
 10
4.0262625011
 20
1.6373741468
 30
0.0
 10
4.0285067195
 20
1.6376284698
 30
0.0
 10
4.0303059505
 20
1.6377932519
 30
0.0
 10
4.0315804001
 20
1.6379009724
 30
0.0
  0
SPLINE
  5
310
100
AcDbEntity
  8
0
100
AcDbSpline
 62
7
  6
CONTINUOUS
 70
0
 71
3
 72
37
 73
33
 74
0
 42
0.0000001
 43
0.0000001
 44
0.0000000001
 40
0.0
 40
0.0
 40
0.0
 40
0.0
 40
0.0158151548
 40
0.035299863
 40
0.0846995576
 40
0.146609694
 40
0.2191164678
 40
0.300000158
 40
0.3867571284
 40
0.4766489714
 40
0.5668444427
 40
0.6545413033
 40
0.696623753
 40
0.7370921499
 40
0.7756219394
 40
0.8118894494
 40
0.8455757427
 40
0.8764335895
 40
0.9042720589
 40
0.9289019892
 40
0.9501352896
 40
0.9677860447
 40
0.9752104775
 40
0.9816706492
 40
0.9871455839
 40
0.9916298571
 40
0.9951299137
 40
0.9965142587
 40
0.9976576437
 40
0.9985640771
 40
0.9992414168
 40
1.0
 40
1.0
 40
1.0
 40
1.0
 10
4.0315804001
 20
1.6379009724
 30
0.0
 10
4.0337149606
 20
1.6380813922
 30
0.0
 10
4.0384841856
 20
1.6384264709
 30
0.0
 10
4.0499368474
 20
1.6391049628
 30
0.0
 10
4.0676354073
 20
1.6399096646
 30
0.0
 10
4.0925163117
 20
1.6408346041
 30
0.0
 10
4.1216641424
 20
1.6417662522
 30
0.0
 10
4.1541788148
 20
1.6427016077
 30
0.0
 10
4.1890491864
 20
1.6436378978
 30
0.0
 10
4.2251811951
 20
1.6445769803
 30
0.0
 10
4.2614405481
 20
1.6455163449
 30
0.0
 10
4.291225741
 20
1.6463082309
 30
0.0
 10
4.3142769735
 20
1.6469495821
 30
0.0
 10
4.3306705544
 20
1.6474240574
 30
0.0
 10
4.3462761598
 20
1.6478983537
 30
0.0
 10
4.3609626954
 20
1.6483721374
 30
0.0
 10
4.3746094964
 20
1.6488456218
 30
0.0
 10
4.3871138577
 20
1.6493186233
 30
0.0
 10
4.398390606
 20
1.649790648
 30
0.0
 10
4.4083625193
 20
1.6502612508
 30
0.0
 10
4.4169528102
 20
1.6507301646
 30
0.0
 10
4.4232123241
 20
1.6511374777
 30
0.0
 10
4.4274707473
 20
1.6514719946
 30
0.0
 10
4.4300825109
 20
1.6517074767
 30
0.0
 10
4.4322942075
 20
1.6519418158
 30
0.0
 10
4.4341026611
 20
1.652175355
 30
0.0
 10
4.4353550539
 20
1.6523793463
 30
0.0
 10
4.436154695
 20
1.6525501866
 30
0.0
 10
4.4366031526
 20
1.6526657388
 30
0.0
 10
4.436959598
 20
1.6527851905
 30
0.0
 10
4.4372348441
 20
1.6529063426
 30
0.0
 10
4.4374283467
 20
1.6530540549
 30
0.0
 10
4.4374263351
 20
1.6531567858
 30
0.0
  0
SPLINE
  5
311
100
AcDbEntity
  8
0
100
AcDbSpline
 62
7
  6
CONTINUOUS
 70
0
 71
3
 72
12
 73
8
 74
0
 42
0.0000001
 43
0.0000001
 44
0.0000000001
 40
0.0
 40
0.0
 40
0.0
 40
0.0
 40
0.0539210632
 40
0.1275213914
 40
0.3356711079
 40
0.6263378817
 40
1.0
 40
1.0
 40
1.0
 40
1.0
 10
4.4372087935
 20
1.6534026854
 30
0.0
 10
4.4371131488
 20
1.6534573755
 30
0.0
 10
4.4368713889
 20
1.6535583495
 30
0.0
 10
4.4362148143
 20
1.653757081
 30
0.0
 10
4.4350656928
 20
1.653986614
 30
0.0
 10
4.4333027084
 20
1.6542492829
 30
0.0
 10
4.4319539469
 20
1.6544057638
 30
0.0
 10
4.431194788
 20
1.6544870926
 30
0.0
  0
SPLINE
  5
312
100
AcDbEntity
  8
0
100
AcDbSpline
 62
7
  6
CONTINUOUS
 70
0
 71
3
 72
12
 73
8
 74
0
 42
0.0000001
 43
0.0000001
 44
0.0000000001
 40
0.0
 40
0.0
 40
0.0
 40
0.0
 40
0.0515744177
 40
0.1235146075
 40
0.3305050488
 40
0.6227980381
 40
1.0
 40
1.0
 40
1.0
 40
1.0
 10
4.4579617356
 20
1.6414580783
 30
0.0
 10
4.4578668724
 20
1.6415125202
 30
0.0
 10
4.4576226241
 20
1.6416116397
 30
0.0
 10
4.4569494621
 20
1.6418068413
 30
0.0
 10
4.4557565031
 20
1.6420306284
 30
0.0
 10
4.4539159166
 20
1.6422870944
 30
0.0
 10
4.4525039251
 20
1.6424397756
 30
0.0
 10
4.4517079477
 20
1.6425193224
 30
0.0
  0
SPLINE
  5
313
100
AcDbEntity
  8
0
100
AcDbSpline
 62
7
  6
CONTINUOUS
 70
0
 71
3
 72
12
 73
8
 74
0
 42
0.0000001
 43
0.0000001
 44
0.0000000001
 40
0.0
 40
0.0
 40
0.0
 40
0.0
 40
0.0519500904
 40
0.1241756643
 40
0.3314103337
 40
0.6234842657
 40
1.0
 40
1.0
 40
1.0
 40
1.0
 10
4.0010506064
 20
1.6584004221
 30
0.0
 10
4.0011464202
 20
1.6584545588
 30
0.0
 10
4.0013919505
 20
1.6585532892
 30
0.0
 10
4.0020665448
 20
1.6587477346
 30
0.0
 10
4.0032588561
 20
1.6589709038
 30
0.0
 10
4.0050960953
 20
1.659226583
 30
0.0
 10
4.0065046109
 20
1.6593788795
 30
0.0
 10
4.0072982628
 20
1.6594581972
 30
0.0
  0
LINE
  5
314
100
AcDbEntity
  8
0
100
AcDbLine
 62
7
  6
CONTINUOUS
 10
4.0072982628
 20
1.6594581972
 11
4.0215146378
 21
1.6604847499
  0
SPLINE
  5
315
100
AcDbEntity
  8
0
100
AcDbSpline
 62
7
  6
CONTINUOUS
 70
0
 71
3
 72
9
 73
5
 74
0
 42
0.0000001
 43
0.0000001
 44
0.0000000001
 40
0.0
 40
0.0
 40
0.0
 40
0.0
 40
0.4449214648
 40
1.0
 40
1.0
 40
1.0
 40
1.0
 10
4.0314887705
 20
1.6609979538
 30
0.0
 10
4.0398909351
 20
1.6613940112
 30
0.0
 10
4.0587825542
 20
1.6621324275
 30
0.0
 10
4.0776784706
 20
1.6627370797
 30
0.0
 10
4.0881678289
 20
1.663051719
 30
0.0
  0
SPLINE
  5
316
100
AcDbEntity
  8
0
100
AcDbSpline
 62
9
  6
CONTINUOUS
 70
0
 71
3
 72
15
 73
11
 74
0
 42
0.0000001
 43
0.0000001
 44
0.0000000001
 40
0.0
 40
0.0
 40
0.0
 40
0.0
 40
0.1224228628
 40
0.2471061913
 40
0.3732229675
 40
0.5000000591
 40
0.6267771426
 40
0.7528938956
 40
0.877577187
 40
1.0
 40
1.0
 40
1.0
 40
1.0
 10
3.9113954037
 20
1.0877517923
 30
0.0
 10
3.9142764204
 20
1.0950810866
 30
0.0
 10
3.9193759981
 20
1.1101660676
 30
0.0
 10
3.9249422222
 20
1.1335532269
 30
0.0
 10
3.9283873257
 20
1.1576313785
 30
0.0
 10
3.9295794776
 20
1.1820633651
 30
0.0
 10
3.9283873177
 20
1.2064953498
 30
0.0
 10
3.9249422069
 20
1.2305734958
 30
0.0
 10
3.9193759769
 20
1.2539606464
 30
0.0
 10
3.9142763965
 20
1.2690456206
 30
0.0
 10
3.911395379
 20
1.2763749111
 30
0.0
  0
SPLINE
  5
317
100
AcDbEntity
  8
0
100
AcDbSpline
 62
9
  6
CONTINUOUS
 70
0
 71
3
 72
14
 73
10
 74
0
 42
0.0000001
 43
0.0000001
 44
0.0000000001
 40
0.0
 40
0.0
 40
0.0
 40
0.0
 40
0.2448238947
 40
0.3690222272
 40
0.4941288347
 40
0.6199670611
 40
0.746360701
 40
0.8731097622
 40
1.0
 40
1.0
 40
1.0
 40
1.0
 10
4.2642873947
 20
1.3200206478
 30
0.0
 10
4.2612342504
 20
1.3088182421
 30
0.0
 10
4.2568310116
 20
1.2918789933
 30
0.0
 10
4.2510609967
 20
1.2691660544
 30
0.0
 10
4.2467097524
 20
1.2519147712
 30
0.0
 10
4.2423811475
 20
1.2345504883
 30
0.0
 10
4.2380992366
 20
1.2170944173
 30
0.0
 10
4.2338307711
 20
1.1995837381
 30
0.0
 10
4.2309567299
 20
1.1879029929
 30
0.0
 10
4.2295031154
 20
1.1820632976
 30
0.0
  0
SPLINE
  5
318
100
AcDbEntity
  8
0
100
AcDbSpline
 62
9
  6
CONTINUOUS
 70
0
 71
3
 72
14
 73
10
 74
0
 42
0.0000001
 43
0.0000001
 44
0.0000000001
 40
0.0
 40
0.0
 40
0.0
 40
0.0
 40
0.1268902834
 40
0.2536394473
 40
0.3800331576
 40
0.5058712956
 40
0.6309776982
 40
0.755175842
 40
1.0
 40
1.0
 40
1.0
 40
1.0
 10
4.2295031154
 20
1.1820632976
 30
0.0
 10
4.235342685
 20
1.183517424
 30
0.0
 10
4.2470232043
 20
1.1863924109
 30
0.0
 10
4.2645336936
 20
1.1906616946
 30
0.0
 10
4.2819898384
 20
1.1949433112
 30
0.0
 10
4.299354446
 20
1.1992705614
 30
0.0
 10
4.3166060654
 20
1.2036203758
 30
0.0
 10
4.3393191712
 20
1.2093897051
 30
0.0
 10
4.3562582119
 20
1.2137937779
 30
0.0
 10
4.3674604589
 20
1.2168475491
 30
0.0
  0
SPLINE
  5
319
100
AcDbEntity
  8
0
100
AcDbSpline
 62
9
  6
CONTINUOUS
 70
0
 71
3
 72
14
 73
10
 74
0
 42
0.0000001
 43
0.0000001
 44
0.0000000001
 40
0.0
 40
0.0
 40
0.0
 40
0.0
 40
0.1268902236
 40
0.2536392437
 40
0.3800328446
 40
0.5058710505
 40
0.630977646
 40
0.7551759769
 40
1.0
 40
1.0
 40
1.0
 40
1.0
 10
4.2295047487
 20
1.1820616643
 30
0.0
 10
4.2280504956
 20
1.1762221817
 30
0.0
 10
4.2251753812
 20
1.1645418081
 30
0.0
 10
4.2209059629
 20
1.1470315237
 30
0.0
 10
4.2166238185
 20
1.1295756734
 30
0.0
 10
4.212295716
 20
1.1122114264
 30
0.0
 10
4.2079451931
 20
1.0949601192
 30
0.0
 10
4.2021756796
 20
1.0722472528
 30
0.0
 10
4.1977721672
 20
1.0553082205
 30
0.0
 10
4.1947188522
 20
1.0441059575
 30
0.0
  0
SPLINE
  5
31A
100
AcDbEntity
  8
0
100
AcDbSpline
 62
9
  6
CONTINUOUS
 70
0
 71
3
 72
9
 73
5
 74
0
 42
0.0000001
 43
0.0000001
 44
0.0000000001
 40
0.0
 40
0.0
 40
0.0
 40
0.0
 40
0.4919008456
 40
1.0
 40
1.0
 40
1.0
 40
1.0
 10
4.0915458077
 20
1.1472787568
 30
0.0
 10
4.1140796165
 20
1.1533175194
 30
0.0
 10
4.1600306899
 20
1.1650646708
 30
0.0
 10
4.2060971661
 20
1.1763381985
 30
0.0
 10
4.2295043182
 20
1.1820634242
 30
0.0
  0
SPLINE
  5
31B
100
AcDbEntity
  8
0
100
AcDbSpline
 62
9
  6
CONTINUOUS
 70
0
 71
3
 72
9
 73
5
 74
0
 42
0.0000001
 43
0.0000001
 44
0.0000000001
 40
0.0
 40
0.0
 40
0.0
 40
0.0
 40
0.5080876726
 40
1.0
 40
1.0
 40
1.0
 40
1.0
 10
4.2295041825
 20
1.1820627963
 30
0.0
 10
4.2529104179
 20
1.176337803
 30
0.0
 10
4.2989761287
 20
1.1650644698
 30
0.0
 10
4.3449264392
 20
1.1533175201
 30
0.0
 10
4.3674603923
 20
1.1472786928
 30
0.0
  0
SPLINE
  5
31C
100
AcDbEntity
  8
0
100
AcDbSpline
 62
9
  6
CONTINUOUS
 70
0
 71
3
 72
9
 73
5
 74
0
 42
0.0000001
 43
0.0000001
 44
0.0000000001
 40
0.0
 40
0.0
 40
0.0
 40
0.0
 40
0.4919062863
 40
1.0
 40
1.0
 40
1.0
 40
1.0
 10
4.264287659
 20
1.0441060091
 30
0.0
 10
4.2582488133
 20
1.0666400565
 30
0.0
 10
4.2465016709
 20
1.1125911199
 30
0.0
 10
4.2352281592
 20
1.1586575872
 30
0.0
 10
4.2295030001
 20
1.1820644835
 30
0.0
  0
SPLINE
  5
31D
100
AcDbEntity
  8
0
100
AcDbSpline
 62
9
  6
CONTINUOUS
 70
0
 71
3
 72
14
 73
10
 74
0
 42
0.0000001
 43
0.0000001
 44
0.0000000001
 40
0.0
 40
0.0
 40
0.0
 40
0.0
 40
0.126890218
 40
0.253639234
 40
0.3800328303
 40
0.5058710362
 40
0.630977637
 40
0.7551759735
 40
1.0
 40
1.0
 40
1.0
 40
1.0
 10
4.2295021334
 20
1.1820623353
 30
0.0
 10
4.2236625936
 20
1.183516444
 30
0.0
 10
4.2119821136
 20
1.1863912976
 30
0.0
 10
4.1944716976
 20
1.1906604357
 30
0.0
 10
4.177015751
 20
1.194942447
 30
0.0
 10
4.1596514437
 20
1.1992705636
 30
0.0
 10
4.1424000918
 20
1.2036211629
 30
0.0
 10
4.119687159
 20
1.209390746
 30
0.0
 10
4.1027480643
 20
1.2137942607
 30
0.0
 10
4.0915457653
 20
1.2168475966
 30
0.0
  0
SPLINE
  5
31E
100
AcDbEntity
  8
0
100
AcDbSpline
 62
9
  6
CONTINUOUS
 70
0
 71
3
 72
9
 73
5
 74
0
 42
0.0000001
 43
0.0000001
 44
0.0000000001
 40
0.0
 40
0.0
 40
0.0
 40
0.0
 40
0.4919206078
 40
1.0
 40
1.0
 40
1.0
 40
1.0
 10
4.194718555
 20
1.3200206053
 30
0.0
 10
4.2007575393
 20
1.2974859693
 30
0.0
 10
4.2125046067
 20
1.2515350437
 30
0.0
 10
4.2237781182
 20
1.2054687328
 30
0.0
 10
4.2295031142
 20
1.1820625752
 30
0.0
  0
SPLINE
  5
31F
100
AcDbEntity
  8
0
100
AcDbSpline
 62
9
  6
CONTINUOUS
 70
0
 71
3
 72
15
 73
11
 74
0
 42
0.0000001
 43
0.0000001
 44
0.0000000001
 40
0.0
 40
0.0
 40
0.0
 40
0.0
 40
0.1224228744
 40
0.2471062113
 40
0.3732229929
 40
0.5000000864
 40
0.6267771679
 40
0.7528939155
 40
0.8775771984
 40
1.0
 40
1.0
 40
1.0
 40
1.0
 10
4.3238146184
 20
0.8639556008
 30
0.0
 10
4.3164853235
 20
0.8668366174
 30
0.0
 10
4.3014003414
 20
0.8719361947
 30
0.0
 10
4.2780131809
 20
0.8775024184
 30
0.0
 10
4.2539350289
 20
0.8809475215
 30
0.0
 10
4.2295030426
 20
0.8821396732
 30
0.0
 10
4.2050710588
 20
0.8809475136
 30
0.0
 10
4.1809929143
 20
0.8775024036
 30
0.0
 10
4.1576057656
 20
0.8719361752
 30
0.0
 10
4.1425207927
 20
0.8668365963
 30
0.0
 10
4.1351915028
 20
0.8639555796
 30
0.0
  0
LINE
  5
320
100
AcDbEntity
  8
0
100
AcDbLine
 62
9
  6
CONTINUOUS
 10
4.5476108781
 20
1.2763747883
 11
4.5687863624
 21
1.2971564499
  0
SPLINE
  5
321
100
AcDbEntity
  8
0
100
AcDbSpline
 62
9
  6
CONTINUOUS
 70
0
 71
3
 72
14
 73
10
 74
0
 42
0.0000001
 43
0.0000001
 44
0.0000000001
 40
0.0
 40
0.0
 40
0.0
 40
0.0
 40
0.1204312761
 40
0.2436421652
 40
0.4950293181
 40
0.6221672186
 40
0.7492636979
 40
0.8754907173
 40
1.0
 40
1.0
 40
1.0
 40
1.0
 10
4.5476108965
 20
1.0877518335
 30
0.0
 10
4.5447775325
 20
1.0949599059
 30
0.0
 10
4.5397369428
 20
1.1098257701
 30
0.0
 10
4.5322889374
 20
1.1408066606
 30
0.0
 10
4.5290626984
 20
1.1731421165
 30
0.0
 10
4.5305446034
 20
1.2056638003
 30
0.0
 10
4.5339422454
 20
1.2299321465
 30
0.0
 10
4.539522017
 20
1.2536144428
 30
0.0
 10
4.5446815601
 20
1.2689226219
 30
0.0
 10
4.5476108644
 20
1.2763747728
 30
0.0
  0
SPLINE
  5
322
100
AcDbEntity
  8
0
100
AcDbSpline
 62
9
  6
CONTINUOUS
 70
0
 71
3
 72
17
 73
13
 74
0
 42
0.0000001
 43
0.0000001
 44
0.0000000001
 40
0.0
 40
0.0
 40
0.0
 40
0.0
 40
0.1504415072
 40
0.2962070063
 40
0.4365067946
 40
0.5703804361
 40
0.6959965273
 40
0.7550551872
 40
0.8112552623
 40
0.9136247184
 40
0.9590034071
 40
1.0
 40
1.0
 40
1.0
 40
1.0
 10
4.4121238579
 20
1.229240179
 30
0.0
 10
4.4190199505
 20
1.2313064635
 30
0.0
 10
4.4326014052
 20
1.235362769
 30
0.0
 10
4.4525847651
 20
1.2414437366
 30
0.0
 10
4.4717342897
 20
1.2475393653
 30
0.0
 10
4.4898339112
 20
1.2537402977
 30
0.0
 10
4.5041632769
 20
1.2589410571
 30
0.0
 10
4.5149547381
 20
1.2629915093
 30
0.0
 10
4.5246831612
 20
1.266707389
 30
0.0
 10
4.5337646295
 20
1.2702849668
 30
0.0
 10
4.5420776505
 20
1.2738174617
 30
0.0
 10
4.5458408391
 20
1.2755288691
 30
0.0
 10
4.5476108781
 20
1.2763747883
 30
0.0
  0
SPLINE
  5
323
100
AcDbEntity
  8
0
100
AcDbSpline
 62
9
  6
CONTINUOUS
 70
0
 71
3
 72
13
 73
9
 74
0
 42
0.0000001
 43
0.0000001
 44
0.0000000001
 40
0.0
 40
0.0
 40
0.0
 40
0.0
 40
0.0769404723
 40
0.171714987
 40
0.405803282
 40
0.5408489532
 40
0.6857658844
 40
1.0
 40
1.0
 40
1.0
 40
1.0
 10
4.3238146071
 20
0.8639556101
 30
0.0
 10
4.3223301282
 20
0.8673246915
 30
0.0
 10
4.319099178
 20
0.8748800488
 30
0.0
 10
4.3117735526
 20
0.8928637049
 30
0.0
 10
4.3039675202
 20
0.9136508538
 30
0.0
 10
4.2959693631
 20
0.9369127846
 30
0.0
 10
4.2871760487
 20
0.9639524706
 30
0.0
 10
4.2808462531
 20
0.9849950549
 30
0.0
 10
4.2766803047
 20
0.9994426338
 30
0.0
  0
SPLINE
  5
324
100
AcDbEntity
  8
0
100
AcDbSpline
 62
9
  6
CONTINUOUS
 70
0
 71
3
 72
13
 73
9
 74
0
 42
0.0000001
 43
0.0000001
 44
0.0000000001
 40
0.0
 40
0.0
 40
0.0
 40
0.0
 40
0.3142351761
 40
0.4591523035
 40
0.5941978642
 40
0.8282852188
 40
0.9230594007
 40
1.0
 40
1.0
 40
1.0
 40
1.0
 10
4.412123804
 20
1.1348862583
 30
0.0
 10
4.4265714213
 20
1.1307202859
 30
0.0
 10
4.4476140503
 20
1.1243904672
 30
0.0
 10
4.4746537749
 20
1.1155971381
 30
0.0
 10
4.4979156562
 20
1.107598999
 30
0.0
 10
4.5187027321
 20
1.0997929907
 30
0.0
 10
4.5366863256
 20
1.0924673813
 30
0.0
 10
4.5442416688
 20
1.0892364332
 30
0.0
 10
4.5476107541
 20
1.0877519526
 30
0.0
  0
SPLINE
  5
325
100
AcDbEntity
  8
0
100
AcDbSpline
 62
7
  6
CONTINUOUS
 70
0
 71
3
 72
33
 73
29
 74
0
 42
0.0000001
 43
0.0000001
 44
0.0000000001
 40
0.0
 40
0.0
 40
0.0
 40
0.0
 40
0.0669746505
 40
0.141192195
 40
0.2209396951
 40
0.304507646
 40
0.3901727305
 40
0.4761234584
 40
0.5605351232
 40
0.641715288
 40
0.7180238291
 40
0.7877933774
 40
0.8197017311
 40
0.849386173
 40
0.8767319264
 40
0.9016284486
 40
0.9239653594
 40
0.9436297606
 40
0.9605034313
 40
0.9744684323
 40
0.9854091042
 40
0.9932496714
 40
0.9960167395
 40
0.997116465
 40
0.9980300584
 40
0.9987618221
 40
0.9993199294
 40
1.0
 40
1.0
 40
1.0
 40
1.0
 10
4.0878774295
 20
1.6067704425
 30
0.0
 10
4.0956860074
 20
1.6070472033
 30
0.0
 10
4.1121490451
 20
1.6075902471
 30
0.0
 10
4.1379130491
 20
1.6083621594
 30
0.0
 10
4.165613689
 20
1.6091338854
 30
0.0
 10
4.1946503108
 20
1.6099059268
 30
0.0
 10
4.2244108427
 20
1.6106789551
 30
0.0
 10
4.2542698282
 20
1.6114523486
 30
0.0
 10
4.2836054159
 20
1.6122255774
 30
0.0
 10
4.3118157417
 20
1.612997865
 30
0.0
 10
4.3383172347
 20
1.6137687853
 30
0.0
 10
4.3590713262
 20
1.6144269413
 30
0.0
 10
4.3743871783
 20
1.6149613467
 30
0.0
 10
4.3847557648
 20
1.6153501964
 30
0.0
 10
4.3943057264
 20
1.6157385961
 30
0.0
 10
4.4029977596
 20
1.6161264368
 30
0.0
 10
4.4107927085
 20
1.6165135028
 30
0.0
 10
4.4176505048
 20
1.6168992579
 30
0.0
 10
4.4235298599
 20
1.6172834105
 30
0.0
 10
4.4283895065
 20
1.6176636888
 30
0.0
 10
4.4321911143
 20
1.6180402859
 30
0.0
 10
4.43468481
 20
1.6183717191
 30
0.0
 10
4.4360252981
 20
1.6186358428
 30
0.0
 10
4.4365658166
 20
1.6187756802
 30
0.0
 10
4.4368707574
 20
1.6188708656
 30
0.0
 10
4.4371119709
 20
1.6189684837
 30
0.0
 10
4.4373082117
 20
1.6190725912
 30
0.0
 10
4.4374315044
 20
1.6191933876
 30
0.0
 10
4.4374320593
 20
1.6192727249
 30
0.0
  0
LINE
  5
326
100
AcDbEntity
  8
0
100
AcDbLine
 62
9
  6
CONTINUOUS
 10
4.3238138459
 20
0.8639556371
 11
4.3446027427
 21
0.8427729098
  0
SPLINE
  5
327
100
AcDbEntity
  8
0
100
AcDbSpline
 62
7
  6
CONTINUOUS
 70
0
 71
3
 72
10
 73
6
 74
0
 42
0.0000001
 43
0.0000001
 44
0.0000000001
 40
0.0
 40
0.0
 40
0.0
 40
0.0
 40
0.5759305668
 40
0.8086126029
 40
1.0
 40
1.0
 40
1.0
 40
1.0
 10
4.0881488877
 20
1.6572538912
 30
0.0
 10
4.0753507169
 20
1.6568699546
 30
0.0
 10
4.0573828048
 20
1.6562931241
 30
0.0
 10
4.0351693733
 20
1.6553892313
 30
0.0
 10
4.0257526111
 20
1.6549281472
 30
0.0
 10
4.021504579
 20
1.6546869959
 30
0.0
  0
SPLINE
  5
328
100
AcDbEntity
  8
0
100
AcDbSpline
 62
7
  6
CONTINUOUS
 70
0
 71
3
 72
16
 73
12
 74
0
 42
0.0000001
 43
0.0000001
 44
0.0000000001
 40
0.0
 40
0.0
 40
0.0
 40
0.0
 40
0.2089069896
 40
0.3944194151
 40
0.5562114915
 40
0.6939654731
 40
0.80737882
 40
0.8961815884
 40
0.9602439881
 40
0.9831014569
 40
1.0
 40
1.0
 40
1.0
 40
1.0
 10
4.021504579
 20
1.6546869959
 30
0.0
 10
4.0200769618
 20
1.6546059533
 30
0.0
 10
4.0173820087
 20
1.6544454842
 30
0.0
 10
4.0135833585
 20
1.6541910723
 30
0.0
 10
4.0102728611
 20
1.6539374406
 30
0.0
 10
4.0074575551
 20
1.653684704
 30
0.0
 10
4.0051436301
 20
1.6534344247
 30
0.0
 10
4.0033382232
 20
1.6531859034
 30
0.0
 10
4.0021534747
 20
1.6529684174
 30
0.0
 10
4.0014679862
 20
1.6527806527
 30
0.0
 10
4.0012119203
 20
1.6526853503
 30
0.0
 10
4.0011083676
 20
1.6526338185
 30
0.0
  0
SPLINE
  5
329
100
AcDbEntity
  8
0
100
AcDbSpline
 62
7
  6
CONTINUOUS
 70
0
 71
3
 72
13
 73
9
 74
0
 42
0.0000001
 43
0.0000001
 44
0.0000000001
 40
0.0
 40
0.0
 40
0.0
 40
0.0
 40
0.3096733517
 40
0.5942708048
 40
0.7198093102
 40
0.8307541162
 40
0.9247648839
 40
1.0
 40
1.0
 40
1.0
 40
1.0
 10
4.2295031056
 20
1.6327663639
 30
0.0
 10
4.2509773589
 20
1.6332851166
 30
0.0
 10
4.2921879453
 20
1.6342394593
 30
0.0
 10
4.342101447
 20
1.6355141136
 30
0.0
 10
4.3782308623
 20
1.6365701925
 30
0.0
 10
4.4011433307
 20
1.6373238021
 30
0.0
 10
4.4205643596
 20
1.6380740727
 30
0.0
 10
4.4322913346
 20
1.6386304112
 30
0.0
 10
4.4375016322
 20
1.638926259
 30
0.0
  0
SPLINE
  5
32A
100
AcDbEntity
  8
0
100
AcDbSpline
 62
7
  6
CONTINUOUS
 70
0
 71
3
 72
16
 73
12
 74
0
 42
0.0000001
 43
0.0000001
 44
0.0000000001
 40
0.0
 40
0.0
 40
0.0
 40
0.0
 40
0.2089071045
 40
0.3944195959
 40
0.5562116886
 40
0.69396564
 40
0.8073789202
 40
0.89618161
 40
0.960243965
 40
0.9831014346
 40
1.0
 40
1.0
 40
1.0
 40
1.0
 10
4.4375016322
 20
1.638926259
 30
0.0
 10
4.4389292489
 20
1.639007321
 30
0.0
 10
4.4416242009
 20
1.6391678181
 30
0.0
 10
4.4454228507
 20
1.639422246
 30
0.0
 10
4.4487333481
 20
1.6396758732
 30
0.0
 10
4.4515486545
 20
1.6399285925
 30
0.0
 10
4.4538625801
 20
1.6401788499
 30
0.0
 10
4.455667988
 20
1.6404273519
 30
0.0
 10
4.4568527371
 20
1.64064483
 30
0.0
 10
4.4575382258
 20
1.6408325934
 30
0.0
 10
4.4577942916
 20
1.6409278963
 30
0.0
 10
4.4578978442
 20
1.6409794287
 30
0.0
  0
SPLINE
  5
32B
100
AcDbEntity
  8
0
100
AcDbSpline
 62
7
  6
CONTINUOUS
 70
0
 71
3
 72
9
 73
5
 74
0
 42
0.0000001
 43
0.0000001
 44
0.0000000001
 40
0.0
 40
0.0
 40
0.0
 40
0.0
 40
0.5586712721
 40
1.0
 40
1.0
 40
1.0
 40
1.0
 10
4.0737428233
 20
1.622928571
 30
0.0
 10
4.0647234327
 20
1.6226342988
 30
0.0
 10
4.0485801201
 20
1.6220769327
 30
0.0
 10
4.0324411561
 20
1.6213909695
 30
0.0
 10
4.0253221521
 20
1.6210181119
 30
0.0
  0
SPLINE
  5
32C
100
AcDbEntity
  8
0
100
AcDbSpline
 62
7
  6
CONTINUOUS
 70
0
 71
3
 72
18
 73
14
 74
0
 42
0.0000001
 43
0.0000001
 44
0.0000000001
 40
0.0
 40
0.0
 40
0.0
 40
0.0
 40
0.2192418359
 40
0.4124049016
 40
0.5789114063
 40
0.718221407
 40
0.8300226422
 40
0.8755520699
 40
0.9141469234
 40
0.9458075384
 40
0.9705625312
 40
0.9885124594
 40
1.0
 40
1.0
 40
1.0
 40
1.0
 10
4.0253221521
 20
1.6210181119
 30
0.0
 10
4.0235274715
 20
1.6209241156
 30
0.0
 10
4.0201520459
 20
1.6207382182
 30
0.0
 10
4.0154158493
 20
1.6204424827
 30
0.0
 10
4.0113361838
 20
1.620147958
 30
0.0
 10
4.0079254466
 20
1.6198547558
 30
0.0
 10
4.0055069749
 20
1.6195987856
 30
0.0
 10
4.003914925
 20
1.6193872605
 30
0.0
 10
4.0029769845
 20
1.6192402892
 30
0.0
 10
4.0022122579
 20
1.6190943399
 30
0.0
 10
4.0016183207
 20
1.6189501406
 30
0.0
 10
4.0011992248
 20
1.6188087081
 30
0.0
 10
4.0009794919
 20
1.6186948319
 30
0.0
 10
4.0009123516
 20
1.6186288087
 30
0.0
  0
LINE
  5
32D
100
AcDbEntity
  8
0
100
AcDbLine
 62
9
  6
CONTINUOUS
 10
4.1351923652
 20
1.5001709778
 11
4.1144034685
 21
1.5213537051
  0
SPLINE
  5
32E
100
AcDbEntity
  8
0
100
AcDbSpline
 62
7
  6
CONTINUOUS
 70
0
 71
3
 72
12
 73
8
 74
0
 42
0.0000001
 43
0.0000001
 44
0.0000000001
 40
0.0
 40
0.0
 40
0.0
 40
0.0
 40
0.2733341054
 40
0.4071303879
 40
0.5372573726
 40
0.7823499761
 40
1.0
 40
1.0
 40
1.0
 40
1.0
 10
4.2295031056
 20
1.626969181
 30
0.0
 10
4.2153103234
 20
1.6266512458
 30
0.0
 10
4.1941709648
 20
1.6261444674
 30
0.0
 10
4.1662755111
 20
1.6254577204
 30
0.0
 10
4.1398465144
 20
1.6248028786
 30
0.0
 10
4.1090647238
 20
1.6239975199
 30
0.0
 10
4.0850415054
 20
1.6232830088
 30
0.0
 10
4.0737428233
 20
1.622928571
 30
0.0
  0
SPLINE
  5
32F
100
AcDbEntity
  8
0
100
AcDbSpline
 62
7
  6
CONTINUOUS
 70
0
 71
3
 72
24
 73
20
 74
0
 42
0.0000001
 43
0.0000001
 44
0.0000000001
 40
0.0
 40
0.0
 40
0.0
 40
0.0
 40
0.1348463076
 40
0.290526478
 40
0.4549676116
 40
0.5365323297
 40
0.6156037484
 40
0.6907449335
 40
0.7605062824
 40
0.823418087
 40
0.8782093881
 40
0.9240473414
 40
0.9433656592
 40
0.9601475647
 40
0.9742894956
 40
0.9856893897
 40
0.9942590968
 40
0.9974800369
 40
1.0
 40
1.0
 40
1.0
 40
1.0
 10
4.0878774295
 20
1.6110061725
 30
0.0
 10
4.1035424485
 20
1.6115613906
 30
0.0
 10
4.1372981616
 20
1.6126025748
 30
0.0
 10
4.1901653142
 20
1.6140329736
 30
0.0
 10
4.2368428293
 20
1.6152335005
 30
0.0
 10
4.2746176422
 20
1.6162223755
 30
0.0
 10
4.3020149952
 20
1.6169614941
 30
0.0
 10
4.3280398099
 20
1.6176995456
 30
0.0
 10
4.3521854405
 20
1.6184358716
 30
0.0
 10
4.373964459
 20
1.6191697418
 30
0.0
 10
4.3929607991
 20
1.6199027676
 30
0.0
 10
4.4068895216
 20
1.620538613
 30
0.0
 10
4.4163999474
 20
1.6210612998
 30
0.0
 10
4.4222286564
 20
1.6214293573
 30
0.0
 10
4.4271351365
 20
1.6217946248
 30
0.0
 10
4.431083775
 20
1.6221570334
 30
0.0
 10
4.4337617222
 20
1.6224751804
 30
0.0
 10
4.4354033618
 20
1.6227451191
 30
0.0
 10
4.4360570628
 20
1.6228818138
 30
0.0
 10
4.4363409643
 20
1.6229539657
 30
0.0
  0
LINE
  5
330
100
AcDbEntity
  8
0
100
AcDbLine
 62
7
  6
CONTINUOUS
 10
4.4364861015
 20
1.6229921714
 11
4.4372197846
 21
1.6232642152
  0
LINE
  5
331
100
AcDbEntity
  8
0
100
AcDbLine
 62
9
  6
CONTINUOUS
 10
4.3445963875
 20
1.5213466312
 11
4.3238145864
 21
1.5001710799
  0
LINE
  5
332
100
AcDbEntity
  8
0
100
AcDbLine
 62
9
  6
CONTINUOUS
 10
4.1144098237
 20
0.8427799838
 11
4.1351916248
 21
0.863955535
  0
LINE
  5
333
100
AcDbEntity
  8
0
100
AcDbLine
 62
9
  6
CONTINUOUS
 10
3.8902197819
 20
1.2971565894
 11
3.9113953331
 21
1.2763747883
  0
LINE
  5
334
100
AcDbEntity
  8
0
100
AcDbLine
 62
9
  6
CONTINUOUS
 10
4.5687935413
 20
1.0669636445
 11
4.5476107727
 21
1.0877525797
  0
SPLINE
  5
335
100
AcDbEntity
  8
0
100
AcDbSpline
 62
7
  6
CONTINUOUS
 70
0
 71
3
 72
15
 73
11
 74
0
 42
0.0000001
 43
0.0000001
 44
0.0000000001
 40
0.0
 40
0.0
 40
0.0
 40
0.0
 40
0.0339891042
 40
0.0580059325
 40
0.0881711428
 40
0.1686398425
 40
0.2772694745
 40
0.4146125566
 40
0.5808479731
 40
1.0
 40
1.0
 40
1.0
 40
1.0
 10
4.0215215457
 20
1.6023463773
 30
0.0
 10
4.0215199618
 20
1.6022966536
 30
0.0
 10
4.0215692635
 20
1.6022142302
 30
0.0
 10
4.0216698421
 20
1.602135654
 30
0.0
 10
4.0218411713
 20
1.6020357446
 30
0.0
 10
4.0221414418
 20
1.6019199805
 30
0.0
 10
4.0226008214
 20
1.6017876305
 30
0.0
 10
4.02318964
 20
1.6016548473
 30
0.0
 10
4.0242297185
 20
1.6014611132
 30
0.0
 10
4.0250783086
 20
1.6013399528
 30
0.0
 10
4.0256866435
 20
1.6012605038
 30
0.0
  0
LINE
  5
336
100
AcDbEntity
  8
0
100
AcDbLine
 62
7
  6
CONTINUOUS
 10
4.4578274128
 20
1.6012730078
 11
4.4556308072
 21
1.6007583075
  0
LINE
  5
337
100
AcDbEntity
  8
0
100
AcDbLine
 62
7
  6
CONTINUOUS
 10
4.102646946
 20
1.5279639077
 11
4.1178993458
 21
1.5283849057
  0
LINE
  5
338
100
AcDbEntity
  8
0
100
AcDbLine
 62
7
  6
CONTINUOUS
 10
4.3628286829
 20
1.5344883558
 11
4.3678277992
 21
1.5346350403
  0
SPLINE
  5
339
100
AcDbEntity
  8
0
100
AcDbSpline
 62
7
  6
CONTINUOUS
 70
0
 71
3
 72
13
 73
9
 74
0
 42
0.0000001
 43
0.0000001
 44
0.0000000001
 40
0.0
 40
0.0
 40
0.0
 40
0.0
 40
0.049796323
 40
0.1205955553
 40
0.212942803
 40
0.3269950132
 40
0.6202391906
 40
1.0
 40
1.0
 40
1.0
 40
1.0
 10
4.0217340227
 20
1.6063386091
 30
0.0
 10
4.021843897
 20
1.6062739992
 30
0.0
 10
4.0221323861
 20
1.606157954
 30
0.0
 10
4.0226563444
 20
1.6060084975
 30
0.0
 10
4.0233502033
 20
1.6058573812
 30
0.0
 10
4.0246097446
 20
1.6056351443
 30
0.0
 10
4.0266076312
 20
1.605369972
 30
0.0
 10
4.0283210118
 20
1.6051909194
 30
0.0
 10
4.0292886366
 20
1.605098082
 30
0.0
  0
SPLINE
  5
33A
100
AcDbEntity
  8
0
100
AcDbSpline
 62
7
  6
CONTINUOUS
 70
0
 71
3
 72
13
 73
9
 74
0
 42
0.0000001
 43
0.0000001
 44
0.0000000001
 40
0.0
 40
0.0
 40
0.0
 40
0.0
 40
0.0507267394
 40
0.1221103096
 40
0.2147100027
 40
0.3287376679
 40
0.6213270952
 40
1.0
 40
1.0
 40
1.0
 40
1.0
 10
4.0010326643
 20
1.6182831246
 30
0.0
 10
4.0011287072
 20
1.6182269455
 30
0.0
 10
4.0013785368
 20
1.6181253749
 30
0.0
 10
4.0018307145
 20
1.6179941457
 30
0.0
 10
4.0024264152
 20
1.6178615281
 30
0.0
 10
4.0035040408
 20
1.617666753
 30
0.0
 10
4.0052114529
 20
1.6174341071
 30
0.0
 10
4.0066754759
 20
1.6172770756
 30
0.0
 10
4.0075020824
 20
1.6171956919
 30
0.0
  0
SPLINE
  5
33B
100
AcDbEntity
  8
0
100
AcDbSpline
 62
7
  6
CONTINUOUS
 70
0
 71
3
 72
9
 73
5
 74
0
 42
0.0000001
 43
0.0000001
 44
0.0000000001
 40
0.0
 40
0.0
 40
0.0
 40
0.0
 40
0.4565107869
 40
1.0
 40
1.0
 40
1.0
 40
1.0
 10
4.3890058381
 20
1.5477674879
 30
0.0
 10
4.3772692365
 20
1.5472933087
 30
0.0
 10
4.3515538938
 20
1.5464049483
 30
0.0
 10
4.3258347653
 20
1.5456455467
 30
0.0
 10
4.3118561795
 20
1.5452507163
 30
0.0
  0
SPLINE
  5
33C
100
AcDbEntity
  8
0
100
AcDbSpline
 62
7
  6
CONTINUOUS
 70
0
 71
3
 72
10
 73
6
 74
0
 42
0.0000001
 43
0.0000001
 44
0.0000000001
 40
0.0
 40
0.0
 40
0.0
 40
0.0
 40
0.2078834784
 40
0.4470614748
 40
1.0
 40
1.0
 40
1.0
 40
1.0
 10
4.3959236609
 20
1.5522922572
 30
0.0
 10
4.389617556
 20
1.5520193556
 30
0.0
 10
4.3760535478
 20
1.5514900251
 30
0.0
 10
4.3457079088
 20
1.550456005
 30
0.0
 10
4.3216667105
 20
1.5497580379
 30
0.0
 10
4.3048842261
 20
1.5492910044
 30
0.0
  0
SPLINE
  5
33D
100
AcDbEntity
  8
0
100
AcDbSpline
 62
7
  6
CONTINUOUS
 70
0
 71
3
 72
10
 73
6
 74
0
 42
0.0000001
 43
0.0000001
 44
0.0000000001
 40
0.0
 40
0.0
 40
0.0
 40
0.0
 40
0.2069476663
 40
0.4472281571
 40
1.0
 40
1.0
 40
1.0
 40
1.0
 10
4.051227916
 20
1.5601875012
 30
0.0
 10
4.0600608119
 20
1.5605200603
 30
0.0
 10
4.0791521075
 20
1.5611642956
 30
0.0
 10
4.1218461401
 20
1.5624061737
 30
0.0
 10
4.1557086946
 20
1.5632469591
 30
0.0
 10
4.1793118029
 20
1.5638176011
 30
0.0
  0
SPLINE
  5
33E
100
AcDbEntity
  8
0
100
AcDbSpline
 62
7
  6
CONTINUOUS
 70
0
 71
3
 72
11
 73
7
 74
0
 42
0.0000001
 43
0.0000001
 44
0.0000000001
 40
0.0
 40
0.0
 40
0.0
 40
0.0
 40
0.2963171783
 40
0.5685669179
 40
0.8063316303
 40
1.0
 40
1.0
 40
1.0
 40
1.0
 10
4.2757409684
 20
1.5661090061
 30
0.0
 10
4.2901364743
 20
1.566455841
 30
0.0
 10
4.3177579375
 20
1.5671345621
 30
0.0
 10
4.3569283607
 20
1.5681719778
 30
0.0
 10
4.3911084507
 20
1.5692123194
 30
0.0
 10
4.4120602588
 20
1.5699841208
 30
0.0
 10
4.4214631605
 20
1.5703842809
 30
0.0
  0
SPLINE
  5
33F
100
AcDbEntity
  8
0
100
AcDbSpline
 62
7
  6
CONTINUOUS
 70
0
 71
3
 72
11
 73
7
 74
0
 42
0.0000001
 43
0.0000001
 44
0.0000000001
 40
0.0
 40
0.0
 40
0.0
 40
0.0
 40
0.2028976052
 40
0.4420683895
 40
0.7103248124
 40
1.0
 40
1.0
 40
1.0
 40
1.0
 10
4.4133352431
 20
1.5642449495
 30
0.0
 10
4.4046822633
 20
1.5639002116
 30
0.0
 10
4.3858254282
 20
1.5632491664
 30
0.0
 10
4.3555215905
 20
1.5623460468
 30
0.0
 10
4.321512736
 20
1.5614346518
 30
0.0
 10
4.2977070479
 20
1.560844298
 30
0.0
 10
4.2853471127
 20
1.560543857
 30
0.0
  0
SPLINE
  5
340
100
AcDbEntity
  8
0
100
AcDbSpline
 62
7
  6
CONTINUOUS
 70
0
 71
3
 72
10
 73
6
 74
0
 42
0.0000001
 43
0.0000001
 44
0.0000000001
 40
0.0
 40
0.0
 40
0.0
 40
0.0
 40
0.5441160625
 40
0.7855618736
 40
1.0
 40
1.0
 40
1.0
 40
1.0
 10
4.1688050241
 20
1.5577654164
 30
0.0
 10
4.1489786172
 20
1.5572807067
 30
0.0
 10
4.1203549685
 20
1.5565566631
 30
0.0
 10
4.0839214103
 20
1.5555047531
 30
0.0
 10
4.0673134827
 20
1.5549726339
 30
0.0
 10
4.0595022813
 20
1.5546989644
 30
0.0
  0
SPLINE
  5
341
100
AcDbEntity
  8
0
100
AcDbSpline
 62
7
  6
CONTINUOUS
 70
0
 71
3
 72
12
 73
8
 74
0
 42
0.0000001
 43
0.0000001
 44
0.0000000001
 40
0.0
 40
0.0
 40
0.0
 40
0.0
 40
0.0825363004
 40
0.18004278
 40
0.41492438
 40
0.6928298047
 40
1.0
 40
1.0
 40
1.0
 40
1.0
 10
4.4139438154
 20
1.5828131604
 30
0.0
 10
4.4099966593
 20
1.5825916212
 30
0.0
 10
4.4013834287
 20
1.5821618629
 30
0.0
 10
4.381526963
 20
1.581318585
 30
0.0
 10
4.3523118651
 20
1.5803094777
 30
0.0
 10
4.3130544148
 20
1.5791433342
 30
0.0
 10
4.2850403098
 20
1.5783874214
 30
0.0
 10
4.2703324439
 20
1.5779986303
 30
0.0
  0
LINE
  5
342
100
AcDbEntity
  8
0
100
AcDbLine
 62
7
  6
CONTINUOUS
 10
4.2703324439
 20
1.5779986303
 11
4.2557878142
 21
1.5776165564
  0
LINE
  5
343
100
AcDbEntity
  8
0
100
AcDbLine
 62
7
  6
CONTINUOUS
 10
4.2007342875
 20
1.5761851537
 11
4.1883804712
 21
1.5758601804
  0
SPLINE
  5
344
100
AcDbEntity
  8
0
100
AcDbSpline
 62
7
  6
CONTINUOUS
 70
0
 71
3
 72
13
 73
9
 74
0
 42
0.0000001
 43
0.0000001
 44
0.0000000001
 40
0.0
 40
0.0
 40
0.0
 40
0.0
 40
0.319103545
 40
0.6028732917
 40
0.7260900082
 40
0.8344476769
 40
0.9262670783
 40
1.0
 40
1.0
 40
1.0
 40
1.0
 10
4.1883804712
 20
1.5758601804
 30
0.0
 10
4.1723024813
 20
1.5754349307
 30
0.0
 10
4.1419272902
 20
1.5746129075
 30
0.0
 10
4.1053469402
 20
1.5735117294
 30
0.0
 10
4.0793882766
 20
1.5725997376
 30
0.0
 10
4.0631012415
 20
1.5719505911
 30
0.0
 10
4.0493105366
 20
1.57130473
 30
0.0
 10
4.0409795424
 20
1.5708277184
 30
0.0
 10
4.0372717808
 20
1.5705756109
 30
0.0
  0
SPLINE
  5
345
100
AcDbEntity
  8
0
100
AcDbSpline
 62
7
  6
CONTINUOUS
 70
0
 71
3
 72
12
 73
8
 74
0
 42
0.0000001
 43
0.0000001
 44
0.0000000001
 40
0.0
 40
0.0
 40
0.0
 40
0.0
 40
0.0825363004
 40
0.18004278
 40
0.41492438
 40
0.6928298047
 40
1.0
 40
1.0
 40
1.0
 40
1.0
 10
4.4139438154
 20
1.5870488904
 30
0.0
 10
4.4099966593
 20
1.5868273512
 30
0.0
 10
4.4013834287
 20
1.5863975929
 30
0.0
 10
4.381526963
 20
1.585554315
 30
0.0
 10
4.3523118651
 20
1.5845452077
 30
0.0
 10
4.3130544148
 20
1.5833790642
 30
0.0
 10
4.2850403098
 20
1.5826231514
 30
0.0
 10
4.2703324439
 20
1.5822343603
 30
0.0
  0
LINE
  5
346
100
AcDbEntity
  8
0
100
AcDbLine
 62
7
  6
CONTINUOUS
 10
4.2703324439
 20
1.5822343603
 11
4.2499347284
 21
1.5816996094
  0
LINE
  5
347
100
AcDbEntity
  8
0
100
AcDbLine
 62
7
  6
CONTINUOUS
 10
4.2084521174
 20
1.5806224492
 11
4.1883804712
 21
1.5800959104
  0
SPLINE
  5
348
100
AcDbEntity
  8
0
100
AcDbSpline
 62
7
  6
CONTINUOUS
 70
0
 71
3
 72
13
 73
9
 74
0
 42
0.0000001
 43
0.0000001
 44
0.0000000001
 40
0.0
 40
0.0
 40
0.0
 40
0.0
 40
0.3206452841
 40
0.6051819208
 40
0.7283647704
 40
0.8363506298
 40
0.9274247772
 40
1.0
 40
1.0
 40
1.0
 40
1.0
 10
4.1883804712
 20
1.5800959104
 30
0.0
 10
4.1721358888
 20
1.5796662545
 30
0.0
 10
4.1414765768
 20
1.578836356
 30
0.0
 10
4.1045797293
 20
1.5777235408
 30
0.0
 10
4.0784600765
 20
1.5768010641
 30
0.0
 10
4.0621418944
 20
1.5761452708
 30
0.0
 10
4.0483908347
 20
1.5754931668
 30
0.0
 10
4.0401107308
 20
1.5750103592
 30
0.0
 10
4.0364415626
 20
1.5747541396
 30
0.0
  0
SPLINE
  5
349
100
AcDbEntity
  8
0
100
AcDbSpline
 62
7
  6
CONTINUOUS
 70
0
 71
3
 72
16
 73
12
 74
0
 42
0.0000001
 43
0.0000001
 44
0.0000000001
 40
0.0
 40
0.0
 40
0.0
 40
0.0
 40
0.1183091033
 40
0.253454497
 40
0.3981157839
 40
0.5446489827
 40
0.6852053408
 40
0.8122917472
 40
0.9191205308
 40
0.9631070088
 40
1.0
 40
1.0
 40
1.0
 40
1.0
 10
4.0737428233
 20
1.5948480439
 30
0.0
 10
4.0879339296
 20
1.5953170712
 30
0.0
 10
4.1183403976
 20
1.5961744534
 30
0.0
 10
4.1661048214
 20
1.5973857814
 30
0.0
 10
4.2172575013
 20
1.5986033481
 30
0.0
 10
4.2690597911
 20
1.5998176203
 30
0.0
 10
4.3187523077
 20
1.6010310179
 30
0.0
 10
4.3636782728
 20
1.6022380012
 30
0.0
 10
4.397014528
 20
1.6032852358
 30
0.0
 10
4.4195253935
 20
1.6041605311
 30
0.0
 10
4.4292220295
 20
1.6046071753
 30
0.0
 10
4.4336436875
 20
1.604838572
 30
0.0
  0
LINE
  5
34A
100
AcDbEntity
  8
0
100
AcDbLine
 62
7
  6
CONTINUOUS
 10
4.4336436875
 20
1.604838572
 11
4.4491248177
 21
1.6058375916
  0
SPLINE
  5
34B
100
AcDbEntity
  8
0
100
AcDbSpline
 62
7
  6
CONTINUOUS
 70
0
 71
3
 72
11
 73
7
 74
0
 42
0.0000001
 43
0.0000001
 44
0.0000000001
 40
0.0
 40
0.0
 40
0.0
 40
0.0
 40
0.3387763953
 40
0.6186660209
 40
0.8391745887
 40
1.0
 40
1.0
 40
1.0
 40
1.0
 10
4.4491248177
 20
1.6058375916
 30
0.0
 10
4.4500287487
 20
1.6059142232
 30
0.0
 10
4.4516786486
 20
1.6060640733
 30
0.0
 10
4.453912826
 20
1.6063080719
 30
0.0
 10
4.4556668211
 20
1.6065499838
 30
0.0
 10
4.4566723735
 20
1.6067344376
 30
0.0
 10
4.4570907374
 20
1.6068366008
 30
0.0
  0
SPLINE
  5
34C
100
AcDbEntity
  8
0
100
AcDbSpline
 62
7
  6
CONTINUOUS
 70
0
 71
3
 72
12
 73
8
 74
0
 42
0.0000001
 43
0.0000001
 44
0.0000000001
 40
0.0
 40
0.0
 40
0.0
 40
0.0
 40
0.394860582
 40
0.6862583465
 40
0.7949639449
 40
0.8809691486
 40
1.0
 40
1.0
 40
1.0
 40
1.0
 10
4.4570907374
 20
1.6068366008
 30
0.0
 10
4.457247721
 20
1.6068749357
 30
0.0
 10
4.4575189733
 20
1.6069485102
 30
0.0
 10
4.4578254974
 20
1.6070595113
 30
0.0
 10
4.4580012355
 20
1.6071555944
 30
0.0
 10
4.4581035643
 20
1.6072302122
 30
0.0
 10
4.4581566544
 20
1.6073093582
 30
0.0
 10
4.4581564068
 20
1.6073580708
 30
0.0
  0
SPLINE
  5
34D
100
AcDbEntity
  8
0
100
AcDbSpline
 62
7
  6
CONTINUOUS
 70
0
 71
3
 72
12
 73
8
 74
0
 42
0.0000001
 43
0.0000001
 44
0.0000000001
 40
0.0
 40
0.0
 40
0.0
 40
0.0
 40
0.08782799
 40
0.1897145168
 40
0.4291214665
 40
0.7044076342
 40
1.0
 40
1.0
 40
1.0
 40
1.0
 10
4.4225906056
 20
1.5985130773
 30
0.0
 10
4.4172609894
 20
1.5982732892
 30
0.0
 10
4.4057459915
 20
1.5978146943
 30
0.0
 10
4.3796946124
 20
1.5969261126
 30
0.0
 10
4.3422565726
 20
1.5958462307
 30
0.0
 10
4.293052642
 20
1.5945945002
 30
0.0
 10
4.2583850136
 20
1.5937731742
 30
0.0
 10
4.2404346051
 20
1.5933494111
 30
0.0
  0
LINE
  5
34E
100
AcDbEntity
  8
0
100
AcDbLine
 62
7
  6
CONTINUOUS
 10
4.2185464347
 20
1.5928330444
 11
4.1967583461
 21
1.5923166728
  0
SPLINE
  5
34F
100
AcDbEntity
  8
0
100
AcDbSpline
 62
7
  6
CONTINUOUS
 70
0
 71
3
 72
12
 73
8
 74
0
 42
0.0000001
 43
0.0000001
 44
0.0000000001
 40
0.0
 40
0.0
 40
0.0
 40
0.0
 40
0.296980843
 40
0.570745676
 40
0.8088459099
 40
0.9109640107
 40
1.0
 40
1.0
 40
1.0
 40
1.0
 10
4.1967583461
 20
1.5923166728
 30
0.0
 10
4.1808830804
 20
1.5919384296
 30
0.0
 10
4.1503737928
 20
1.5912016695
 30
0.0
 10
4.1071390212
 20
1.5900704214
 30
0.0
 10
4.0743231992
 20
1.5890958114
 30
0.0
 10
4.0513847146
 20
1.5882916686
 30
0.0
 10
4.0411717308
 20
1.5878811498
 30
0.0
 10
4.0364156056
 20
1.5876698647
 30
0.0
  0
SPLINE
  5
350
100
AcDbEntity
  8
0
100
AcDbSpline
 62
7
  6
CONTINUOUS
 70
0
 71
3
 72
10
 73
6
 74
0
 42
0.0000001
 43
0.0000001
 44
0.0000000001
 40
0.0
 40
0.0
 40
0.0
 40
0.0
 40
0.5688912658
 40
0.8031373916
 40
1.0
 40
1.0
 40
1.0
 40
1.0
 10
4.0878236847
 20
1.6110061725
 30
0.0
 10
4.0787280481
 20
1.6106842781
 30
0.0
 10
4.0658881715
 20
1.6101961575
 30
0.0
 10
4.0499074848
 20
1.6094424044
 30
0.0
 10
4.0430209706
 20
1.6090584581
 30
0.0
 10
4.0398777338
 20
1.6088602483
 30
0.0
  0
LINE
  5
351
100
AcDbEntity
  8
0
100
AcDbLine
 62
7
  6
CONTINUOUS
 10
4.0398777338
 20
1.6088602483
 11
4.0267076366
 21
1.6077856612
  0
SPLINE
  5
352
100
AcDbEntity
  8
0
100
AcDbSpline
 62
7
  6
CONTINUOUS
 70
0
 71
3
 72
13
 73
9
 74
0
 42
0.0000001
 43
0.0000001
 44
0.0000000001
 40
0.0
 40
0.0
 40
0.0
 40
0.0
 40
0.3920452012
 40
0.688256164
 40
0.8006627397
 40
0.889559279
 40
0.9555083824
 40
1.0
 40
1.0
 40
1.0
 40
1.0
 10
4.0267076366
 20
1.6077856612
 30
0.0
 10
4.0260250158
 20
1.6077058906
 30
0.0
 10
4.0248282756
 20
1.6075526779
 30
0.0
 10
4.0234424595
 20
1.6073230152
 30
0.0
 10
4.0225921133
 20
1.6071293033
 30
0.0
 10
4.0221411285
 20
1.6069986415
 30
0.0
 10
4.0218168745
 20
1.6068702959
 30
0.0
 10
4.0216478918
 20
1.6067673307
 30
0.0
 10
4.0215942377
 20
1.6067107227
 30
0.0
  0
SPLINE
  5
353
100
AcDbEntity
  8
0
100
AcDbSpline
 62
7
  6
CONTINUOUS
 70
0
 71
3
 72
9
 73
5
 74
0
 42
0.0000001
 43
0.0000001
 44
0.0000000001
 40
0.0
 40
0.0
 40
0.0
 40
0.0
 40
0.562719508
 40
1.0
 40
1.0
 40
1.0
 40
1.0
 10
4.0878236847
 20
1.6067704425
 30
0.0
 10
4.0792594512
 20
1.6064673544
 30
0.0
 10
4.0640416205
 20
1.6058873774
 30
0.0
 10
4.0488292028
 20
1.6051622826
 30
0.0
 10
4.0421817249
 20
1.6047656939
 30
0.0
  0
LINE
  5
354
100
AcDbEntity
  8
0
100
AcDbLine
 62
7
  6
CONTINUOUS
 10
4.0421817249
 20
1.6047656939
 11
4.0287075822
 21
1.6037637643
  0
SPLINE
  5
355
100
AcDbEntity
  8
0
100
AcDbSpline
 62
7
  6
CONTINUOUS
 70
0
 71
3
 72
11
 73
7
 74
0
 42
0.0000001
 43
0.0000001
 44
0.0000000001
 40
0.0
 40
0.0
 40
0.0
 40
0.0
 40
0.3479871711
 40
0.6306869574
 40
0.8479463942
 40
1.0
 40
1.0
 40
1.0
 40
1.0
 10
4.0287075822
 20
1.6037637643
 30
0.0
 10
4.0279420847
 20
1.6036875992
 30
0.0
 10
4.0265557888
 20
1.6035390864
 30
0.0
 10
4.0246965228
 20
1.6032959366
 30
0.0
 10
4.0232757345
 20
1.6030549262
 30
0.0
 10
4.0224783745
 20
1.6028695727
 30
0.0
 10
4.0221592922
 20
1.6027638626
 30
0.0
  0
LINE
  5
356
100
AcDbEntity
  8
0
100
AcDbLine
 62
7
  6
CONTINUOUS
 10
4.0221592922
 20
1.6027638626
 11
4.021740136
 21
1.6025888165
  0
ENDSEC
  0
SECTION
  2
OBJECTS
  0
DICTIONARY
  5
C
100
AcDbDictionary
280
0
281
1
  3
ACAD_GROUP
350
D
  3
ACAD_MLINESTYLE
350
17
  3
ACAD_LAYOUT
350
1A
  3
ACAD_PLOTSETTINGS
350
19
  3
ACAD_PLOTSTYLENAME
350
E
  0
DICTIONARY
  5
D
102
{ACAD_REACTORS
330
C
102
}
100
AcDbDictionary
280
0
281
1
  0
ACDBDICTIONARYWDFLT
  5
E
102
{ACAD_REACTORS
330
C
102
}
100
AcDbDictionary
281
1
  3
Normal
350
F
100
AcDbDictionaryWithDefault
340
F
  0
DICTIONARY
  5
17
102
{ACAD_REACTORS
330
C
102
}
100
AcDbDictionary
280
0
281
1
  3
Standard
350
18
  0
DICTIONARY
  5
19
102
{ACAD_REACTORS
330
C
102
}
100
AcDbDictionary
281
1
  0
DICTIONARY
  5
1A
102
{ACAD_REACTORS
330
C
102
}
100
AcDbDictionary
281
1
  3
Model
350
357
  3
Layout1
350
358
  0
ACDBPLACEHOLDER
  5
F
102
{ACAD_REACTORS
330
E
102
}
  0
MLINESTYLE
  5
18
102
{ACAD_REACTORS
330
17
102
}
100
AcDbMlineStyle
  2
STANDARD
 70
0
  3

 62
256
 51
90.0
 52
90.0
 71
2
 49
0.5
 62
256
  6
BYLAYER
 49
-0.5
 62
256
  6
BYLAYER
  0
LAYOUT
  5
357
102
{ACAD_REACTORS
330
1A
102
}
100
AcDbPlotSettings
  1

  2
none_device
  4

  6

 40
0.0
 41
0.0
 42
0.0
 43
0.0
 44
215.9
 45
279.4
 46
0.0
 47
0.0
 48
0.0
 49
0.0
140
0.0
141
0.0
142
1.0
143
1.0
 70
1024
 72
0
 73
0
 74
0
  7

 75
0
147
1.0
148
0.0
149
0.0
100
AcDbLayout
  1
Model
 70
0
 71
0
 10
0.0
 20
0.0
 11
8.5
 21
11.0
 12
0.0
 22
0.0
 32
0.0
 14
0.0
 24
0.0
 34
0.0
 15
0.0
 25
0.0
 35
0.0
146
0.0
 13
0.0
 23
0.0
 33
0.0
 16
1.0
 26
0.0
 36
0.0
 17
0.0
 27
1.0
 37
0.0
 76
0
330
228
345
0
346
0
  0
LAYOUT
  5
358
102
{ACAD_REACTORS
330
1A
102
}
100
AcDbPlotSettings
  1

  2
none_device
  4

  6

 40
0.0
 41
0.0
 42
0.0
 43
0.0
 44
215.9
 45
279.4
 46
0.0
 47
0.0
 48
0.0
 49
0.0
140
0.0
141
0.0
142
1.0
143
1.0
 70
0
 72
0
 73
0
 74
0
  7

 75
0
147
1.0
148
0.0
149
0.0
100
AcDbLayout
  1
Layout1
 70
0
 71
1
 10
0.0
 20
0.0
 11
8.5
 21
11.0
 12
0.0
 22
0.0
 32
0.0
 14
0.0
 24
0.0
 34
0.0
 15
0.0
 25
0.0
 35
0.0
146
0.0
 13
0.0
 23
0.0
 33
0.0
 16
1.0
 26
0.0
 36
0.0
 17
0.0
 27
1.0
 37
0.0
 76
0
330
229
345
0
346
0
  0
ENDSEC
  0
EOF
