999
DXF file: E:\BT Custom\CADOUTPUT\_FRONT.dxf
999
Pro/ENGINEER 2018400 by Parametric Technology Corporation
  0
SECTION
  2
HEADER
  9
$ACADVER
  1
AC1018
  9
$DWGCODEPAGE
  3
ANSI_1252
  9
$EXTMAX
 10
22.0
 20
17.0
 30
0.0
  9
$EXTMIN
 10
0.0
 20
0.0
 30
0.0
  9
$LIMMIN
 10
0.0
 20
0.0
  9
$LIMMAX
 10
22.0
 20
17.0
  9
$VIEWCTR
 10
11.0
 20
8.5
  9
$VIEWSIZE
 40
17.0
  9
$CLAYER
  8
0
  9
$LTSCALE
 40
1.21
  9
$CELTYPE
  6
BYLAYER
  9
$DIMSCALE
 40
1.0
  9
$DIMASZ
 40
0.1
  9
$DIMEXO
 40
0.0625
  9
$DIMDLI
 40
0.836
  9
$DIMEXE
 40
0.125
  9
$DIMCEN
 40
0.198
  9
$DIMLFAC
 40
1.0
  9
$DIMBLK
  1
_FILLED
  9
$DIMALT
 70
1
  9
$DIMALTD
 70
2
  9
$DIMALTTD
 70
2
  9
$DIMALTF
 40
25.4
  9
$DIMTXT
 40
0.08
  9
$DIMTOL
 70
1
  9
$DIMLIM
 70
0
  9
$DIMTFAC
 40
1.0
  9
$DIMTP
 40
0.001
  9
$DIMTM
 40
0.001
  9
$DIMGAP
 40
0.09
  9
$DIMDSEP
 70
46
  9
$AUNITS
 70
0
  9
$PDMODE
 70
3
  9
$PDSIZE
 40
0.06
  9
$HANDSEED
  5
465
  9
$TILEMODE
 70
1
  9
$MEASUREMENT
 70
0
  9
$INSUNITS
 70
1
  0
ENDSEC
  0
SECTION
  2
CLASSES
  0
CLASS
  1
ACDBDICTIONARYWDFLT
  2
AcDbDictionaryWithDefault
  3
AutoCAD 2000
 90
0
 91
1
280
0
281
0
  0
CLASS
  1
ACDBPLACEHOLDER
  2
AcDbPlaceHolder
  3
AutoCAD 2000
 90
0
 91
1
280
0
281
0
  0
CLASS
  1
LAYOUT
  2
AcDbLayout
  3
AutoCAD 2000
 90
0
 91
0
280
0
281
0
  0
ENDSEC
  0
SECTION
  2
TABLES
  0
TABLE
  2
VPORT
  5
8
100
AcDbSymbolTable
 70
2
  0
VPORT
  5
1F4
100
AcDbSymbolTableRecord
100
AcDbViewportTableRecord
  2
*ACTIVE
 70
0
 10
0.0
 20
0.0
 11
1.0
 21
1.0
 12
11.0
 22
8.5
 13
0.0
 23
0.0
 14
1.0
 24
1.0
 15
0.0
 25
0.0
 16
0.0
 26
0.0
 36
1.0
 17
0.0
 27
0.0
 37
0.0
 40
17.0
 41
1.2941176471
 42
50.0
 43
0.0
 44
0.0
 50
0.0
 51
0.0
 71
0
 72
100
 73
1
 74
1
 75
0
 76
0
 77
0
 78
0
  0
ENDTAB
  0
TABLE
  2
LTYPE
  5
5
100
AcDbSymbolTable
 70
6
  0
LTYPE
  5
14
100
AcDbSymbolTableRecord
100
AcDbLinetypeTableRecord
  2
BYBLOCK
 70
0
  3

 72
65
 73
0
 40
0.0
  0
LTYPE
  5
15
100
AcDbSymbolTableRecord
100
AcDbLinetypeTableRecord
  2
BYLAYER
 70
0
  3

 72
65
 73
0
 40
0.0
  0
LTYPE
  5
16
100
AcDbSymbolTableRecord
100
AcDbLinetypeTableRecord
  2
CONTINUOUS
 70
64
  3
Solid line
 72
65
 73
0
 40
0.0
  0
LTYPE
  5
1F5
100
AcDbSymbolTableRecord
100
AcDbLinetypeTableRecord
  2
CENTER
 70
64
  3
____ _ ____ _ ____ _ ____ _ ____ _ ____ _ ____
 72
65
 73
4
 40
0.6
 49
0.375
 74
0
 49
-0.075
 74
0
 49
0.075
 74
0
 49
-0.075
 74
0
  0
LTYPE
  5
1F6
100
AcDbSymbolTableRecord
100
AcDbLinetypeTableRecord
  2
HIDDEN
 70
64
  3
- - - - - - - - - - - - - - - - - - - -
 72
65
 73
2
 40
0.2
 49
0.1
 74
0
 49
-0.1
 74
0
  0
LTYPE
  5
1F7
100
AcDbSymbolTableRecord
100
AcDbLinetypeTableRecord
  2
PHANTOM
 70
64
  3
_____ _ _ _____ _ _ _____ _ _ _____
 72
65
 73
6
 40
0.8
 49
0.45
 74
0
 49
-0.05
 74
0
 49
0.1
 74
0
 49
-0.05
 74
0
 49
0.1
 74
0
 49
-0.05
 74
0
  0
LTYPE
  5
1F8
100
AcDbSymbolTableRecord
100
AcDbLinetypeTableRecord
  2
DOT
 70
64
  3
. . . . . . . . . . . . . . . . . . . .
 72
65
 73
2
 40
0.2
 49
0.1
 74
0
 49
-0.1
 74
0
  0
LTYPE
  5
1F9
100
AcDbSymbolTableRecord
100
AcDbLinetypeTableRecord
  2
DASHED
 70
64
  3
- - - - - - - - - - - - - - - - - - - -
 72
65
 73
2
 40
0.2
 49
0.1
 74
0
 49
-0.1
 74
0
  0
ENDTAB
  0
TABLE
  2
LAYER
  5
2
100
AcDbSymbolTable
 70
36
  0
LAYER
  5
10
100
AcDbSymbolTableRecord
100
AcDbLayerTableRecord
  2
0
 70
0
 62
7
  6
CONTINUOUS
370
-3
390
F
  0
LAYER
  5
1FA
100
AcDbSymbolTableRecord
100
AcDbLayerTableRecord
  2
DEFAULT_1
 70
0
 62
7
  6
CENTER
370
-3
390
F
  0
LAYER
  5
1FB
100
AcDbSymbolTableRecord
100
AcDbLayerTableRecord
  2
DEFAULT_2
 70
0
 62
8
  6
HIDDEN
370
-3
390
F
  0
LAYER
  5
1FC
100
AcDbSymbolTableRecord
100
AcDbLayerTableRecord
  2
DEFAULT_3
 70
0
 62
7
  6
PHANTOM
370
-3
390
F
  0
LAYER
  5
1FD
100
AcDbSymbolTableRecord
100
AcDbLayerTableRecord
  2
ALL_FEATURES
 70
0
 62
7
  6
CONTINUOUS
370
-3
390
F
  0
LAYER
  5
1FE
100
AcDbSymbolTableRecord
100
AcDbLayerTableRecord
  2
AXES_FEATURES
 70
0
 62
7
  6
CONTINUOUS
370
-3
390
F
  0
LAYER
  5
1FF
100
AcDbSymbolTableRecord
100
AcDbLayerTableRecord
  2
DEFAULT_COORDINATE_SYSTEM
 70
0
 62
7
  6
CONTINUOUS
370
-3
390
F
  0
LAYER
  5
200
100
AcDbSymbolTableRecord
100
AcDbLayerTableRecord
  2
DEFAULT_DATUM_AXES
 70
0
 62
7
  6
CONTINUOUS
370
-3
390
F
  0
LAYER
  5
201
100
AcDbSymbolTableRecord
100
AcDbLayerTableRecord
  2
DEFAULT_DATUM_PLANES
 70
0
 62
7
  6
CONTINUOUS
370
-3
390
F
  0
LAYER
  5
202
100
AcDbSymbolTableRecord
100
AcDbLayerTableRecord
  2
DIMENSIONS
 70
0
 62
7
  6
CONTINUOUS
370
-3
390
F
  0
ENDTAB
  0
TABLE
  2
STYLE
  5
3
100
AcDbSymbolTable
 70
1
  0
STYLE
  5
11
100
AcDbSymbolTableRecord
100
AcDbTextStyleTableRecord
  2
STANDARD
 70
0
 40
0.0
 41
0.8
 50
0.0
 71
0
 42
0.2
  3
txt
  4

  0
STYLE
  5
203
100
AcDbSymbolTableRecord
100
AcDbTextStyleTableRecord
  2
TEXTSTYLE_1
 70
0
 40
0.0
 41
0.8
 50
0.0
 71
0
 42
0.2
  3
gdt
  4

  0
ENDTAB
  0
TABLE
  2
VIEW
  5
6
100
AcDbSymbolTable
 70
0
  0
ENDTAB
  0
TABLE
  2
UCS
  5
7
100
AcDbSymbolTable
 70
0
  0
ENDTAB
  0
TABLE
  2
APPID
  5
9
100
AcDbSymbolTable
 70
1
  0
APPID
  5
204
100
AcDbSymbolTableRecord
100
AcDbRegAppTableRecord
  2
ACAD
 70
0
  0
ENDTAB
  0
TABLE
  2
BLOCK_RECORD
  5
1
100
AcDbSymbolTable
 70
0
  0
BLOCK_RECORD
  5
205
100
AcDbSymbolTableRecord
100
AcDbBlockTableRecord
  2
*Model_Space
  0
BLOCK_RECORD
  5
206
100
AcDbSymbolTableRecord
100
AcDbBlockTableRecord
  2
*Paper_Space
  0
BLOCK_RECORD
  5
207
100
AcDbSymbolTableRecord
100
AcDbBlockTableRecord
  2
_FILLED
  0
ENDTAB
  0
TABLE
  2
DIMSTYLE
  5
A
100
AcDbSymbolTable
 70
1
100
AcDbDimStyleTable
 71
0
  0
DIMSTYLE
105
208
100
AcDbSymbolTableRecord
100
AcDbDimStyleTableRecord
  2
STANDARD
 70
0
  3

  4

 40
1.0
 41
0.1
 42
0.0625
 43
0.38
 44
0.125
 45
0.0
 46
0.0
 47
0.001
 48
0.001
140
0.08
141
0.09
142
0.0
143
25.4
144
1.0
145
0.0
146
1.0
147
0.09
 71
1.0
 72
0.0
 73
1
 74
1
 75
0
 76
0
 77
0
 78
4
 79
1
170
1
171
2
172
0
173
0
174
0
175
0
176
0
177
0
178
0
270
2
179
3
271
3
272
3
273
2
274
2
275
0
280
0
281
0
282
0
283
1
284
4
285
0
286
0
287
3
288
0
340
11
278
46
341
207
342
207
343
207
344
207
  0
ENDTAB
  0
ENDSEC
  0
SECTION
  2
BLOCKS
  0
BLOCK
  5
20
100
AcDbEntity
  8
0
100
AcDbBlockBegin
  2
*Model_Space
 70
0
 10
0.0
 20
0.0
 30
0.0
  3
*Model_Space
  1

  0
ENDBLK
  5
21
100
AcDbEntity
  8
0
100
AcDbBlockEnd
  0
BLOCK
  5
1C
100
AcDbEntity
  8
0
100
AcDbBlockBegin
  2
*Paper_Space
 70
0
 10
0.0
 20
0.0
 30
0.0
  3
*Paper_Space
  1

  0
ENDBLK
  5
1D
100
AcDbEntity
  8
0
100
AcDbBlockEnd
  0
BLOCK
  5
209
100
AcDbEntity
  8
0
100
AcDbBlockBegin
  2
_FILLED
 70
64
 10
0.0
 20
0.0
  3
_FILLED
  1

  0
SOLID
  5
20A
100
AcDbEntity
  8
0
  6
BYBLOCK
 62
0
100
AcDbTrace
 10
0.0
 20
0.0
 11
-1.0
 21
0.2
 12
-1.0
 22
-0.2
 13
-1.0
 23
-0.2
  0
ENDBLK
  5
20B
100
AcDbEntity
  8
0
  6
BYBLOCK
 62
0
100
AcDbBlockEnd
  0
ENDSEC
  0
SECTION
  2
ENTITIES
  0
LINE
  5
20C
100
AcDbEntity
  8
0
100
AcDbLine
 62
7
  6
CONTINUOUS
 10
12.7097640734
 20
7.6551695021
 11
12.6392131786
 21
7.6551695021
  0
LINE
  5
20D
100
AcDbEntity
  8
0
100
AcDbLine
 62
7
  6
CONTINUOUS
 10
12.4910711001
 20
7.6551695021
 11
12.6084113877
 21
7.6551695021
  0
LINE
  5
20E
100
AcDbEntity
  8
0
100
AcDbLine
 62
7
  6
CONTINUOUS
 10
12.7097640734
 20
7.6843578974
 11
12.6717751424
 21
7.6843578974
  0
LINE
  5
20F
100
AcDbEntity
  8
0
100
AcDbLine
 62
7
  6
CONTINUOUS
 10
12.6084113877
 20
7.6880247823
 11
12.5236330371
 21
7.6880247823
  0
LINE
  5
210
100
AcDbEntity
  8
0
100
AcDbLine
 62
7
  6
CONTINUOUS
 10
12.6717751424
 20
7.8473142254
 11
12.7216447573
 21
7.8473142254
  0
LINE
  5
211
100
AcDbEntity
  8
0
100
AcDbLine
 62
7
  6
CONTINUOUS
 10
12.4910711001
 20
7.8801695021
 11
12.5236330371
 21
7.8801695021
  0
LINE
  5
212
100
AcDbEntity
  8
0
100
AcDbLine
 62
7
  6
CONTINUOUS
 10
12.6392131786
 20
7.8801695021
 11
12.7206180076
 21
7.8801695021
  0
LINE
  5
213
100
AcDbEntity
  8
0
100
AcDbLine
 62
7
  6
CONTINUOUS
 10
10.4486589857
 20
8.9383406078
 11
10.4483314389
 21
8.9373563191
  0
LINE
  5
214
100
AcDbEntity
  8
0
100
AcDbLine
 62
7
  6
CONTINUOUS
 10
10.4483314389
 20
8.9373563191
 11
10.4480259604
 21
8.9364630421
  0
LINE
  5
215
100
AcDbEntity
  8
0
100
AcDbLine
 62
7
  6
CONTINUOUS
 10
10.4480259604
 20
8.9364630421
 11
10.4477798424
 21
8.9357595705
  0
LINE
  5
216
100
AcDbEntity
  8
0
100
AcDbLine
 62
7
  6
CONTINUOUS
 10
10.4477979057
 20
8.9358109159
 11
10.447706489
 21
8.9355525842
  0
LINE
  5
217
100
AcDbEntity
  8
0
100
AcDbLine
 62
7
  6
CONTINUOUS
 10
10.4477509209
 20
8.9356778992
 11
10.4473963967
 21
8.9346906353
  0
LWPOLYLINE
  5
218
100
AcDbEntity
  8
0
100
AcDbPolyline
 62
7
  6
CONTINUOUS
 90
37
 70
0
 10
10.4473963967
 20
8.9346906353
 10
10.4472153036
 20
8.9341965839
 10
10.4469933061
 20
8.9335999033
 10
10.4467420038
 20
8.9329358834
 10
10.446472878
 20
8.9322376154
 10
10.4461881843
 20
8.9315127351
 10
10.4458881191
 20
8.9307633104
 10
10.4455732542
 20
8.9299922362
 10
10.4452447638
 20
8.9292036796
 10
10.4449042725
 20
8.9284025819
 10
10.4445532329
 20
8.9275931391
 10
10.444189935
 20
8.9267721668
 10
10.4438131284
 20
8.9259377618
 10
10.4434217472
 20
8.9250886006
 10
10.4430146709
 20
8.9242233879
 10
10.4425907246
 20
8.9233408641
 10
10.4421486785
 20
8.922439811
 10
10.4416874814
 20
8.9215195197
 10
10.4412068857
 20
8.9205809551
 10
10.4407068465
 20
8.9196254478
 10
10.4401873462
 20
8.9186543267
 10
10.4396483963
 20
8.9176689182
 10
10.4390900349
 20
8.9166705373
 10
10.4385121622
 20
8.915660199
 10
10.4379144743
 20
8.9146385365
 10
10.4372966601
 20
8.9136061663
 10
10.436658416
 20
8.9125637134
 10
10.4359994466
 20
8.9115118117
 10
10.4353194655
 20
8.9104511036
 10
10.4346181957
 20
8.9093822401
 10
10.4338953702
 20
8.9083058801
 10
10.4331507329
 20
8.9072226909
 10
10.4323840387
 20
8.9061333471
 10
10.431594948
 20
8.9050383851
 10
10.430782659
 20
8.9039377267
 10
10.429946219
 20
8.9028311599
 10
10.4290846452
 20
8.9017185141
  0
LINE
  5
219
100
AcDbEntity
  8
0
100
AcDbLine
 62
7
  6
CONTINUOUS
 10
10.1796314393
 20
9.2676695021
 11
10.4053371785
 21
9.6586033101
  0
LINE
  5
21A
100
AcDbEntity
  8
0
100
AcDbLine
 62
7
  6
CONTINUOUS
 10
10.5088647966
 20
9.8379184045
 11
10.558661891
 21
9.9241695021
  0
LINE
  5
21B
100
AcDbEntity
  8
0
100
AcDbLine
 62
7
  6
CONTINUOUS
 10
11.2775836678
 20
9.7607271352
 11
11.2768791172
 21
9.7604234091
  0
LINE
  5
21C
100
AcDbEntity
  8
0
100
AcDbLine
 62
7
  6
CONTINUOUS
 10
11.2762654051
 20
9.760162472
 11
11.2754590634
 21
9.7598249665
  0
LINE
  5
21D
100
AcDbEntity
  8
0
100
AcDbLine
 62
7
  6
CONTINUOUS
 10
11.2756618233
 20
9.7599097567
 11
11.274995979
 21
9.7596346933
  0
LWPOLYLINE
  5
21E
100
AcDbEntity
  8
0
100
AcDbPolyline
 62
7
  6
CONTINUOUS
 90
3
 70
0
 10
11.2755983016
 20
9.7598833853
 10
11.2738724898
 20
9.7591831324
 10
11.2722202203
 20
9.7585416891
  0
LINE
  5
21F
100
AcDbEntity
  8
0
100
AcDbLine
 62
7
  6
CONTINUOUS
 10
11.2727851373
 20
9.7587578443
 11
11.2720658656
 21
9.7584825192
  0
LINE
  5
220
100
AcDbEntity
  8
0
100
AcDbLine
 62
7
  6
CONTINUOUS
 10
11.2722358117
 20
9.7585476111
 11
11.2714100445
 21
9.7582367076
  0
LINE
  5
221
100
AcDbEntity
  8
0
100
AcDbLine
 62
7
  6
CONTINUOUS
 10
11.2711609876
 20
9.7581451523
 11
11.2703421329
 21
9.7578457378
  0
LINE
  5
222
100
AcDbEntity
  8
0
100
AcDbLine
 62
7
  6
CONTINUOUS
 10
11.2706352091
 20
9.7579525334
 11
11.2699266328
 21
9.7576967124
  0
LINE
  5
223
100
AcDbEntity
  8
0
100
AcDbLine
 62
7
  6
CONTINUOUS
 10
11.2706352969
 20
9.7579525654
 11
11.2691120572
 21
9.7574101454
  0
LINE
  5
224
100
AcDbEntity
  8
0
100
AcDbLine
 62
7
  6
CONTINUOUS
 10
11.2696062117
 20
9.7575835795
 11
11.2691027004
 21
9.7574068847
  0
LINE
  5
225
100
AcDbEntity
  8
0
100
AcDbLine
 62
7
  6
CONTINUOUS
 10
11.268213005
 20
9.7571032968
 11
11.2679686646
 21
9.7570183372
  0
LWPOLYLINE
  5
226
100
AcDbEntity
  8
0
100
AcDbPolyline
 62
7
  6
CONTINUOUS
 90
3
 70
0
 10
11.2691027004
 20
9.7574068847
 10
11.2676465519
 20
9.756909965
 10
11.2662349042
 20
9.756448006
  0
LWPOLYLINE
  5
227
100
AcDbEntity
  8
0
100
AcDbPolyline
 62
7
  6
CONTINUOUS
 90
3
 70
0
 10
11.2662247956
 20
9.7564447676
 10
11.2648731417
 20
9.7560205971
 10
11.2635578687
 20
9.7556245814
  0
LINE
  5
228
100
AcDbEntity
  8
0
100
AcDbLine
 62
7
  6
CONTINUOUS
 10
11.2655371403
 20
9.7562270257
 11
11.2652750409
 21
9.7561449659
  0
LINE
  5
229
100
AcDbEntity
  8
0
100
AcDbLine
 62
7
  6
CONTINUOUS
 10
10.6197819735
 20
8.7817668365
 11
10.6204790634
 21
8.7819192626
  0
LINE
  5
22A
100
AcDbEntity
  8
0
100
AcDbLine
 62
7
  6
CONTINUOUS
 10
10.6204790634
 20
8.7819192626
 11
10.6210541957
 21
8.7820417535
  0
LINE
  5
22B
100
AcDbEntity
  8
0
100
AcDbLine
 62
7
  6
CONTINUOUS
 10
10.6210541957
 20
8.7820417535
 11
10.6216197687
 21
8.7821593336
  0
LINE
  5
22C
100
AcDbEntity
  8
0
100
AcDbLine
 62
7
  6
CONTINUOUS
 10
10.6214727813
 20
8.7821286542
 11
10.6221511071
 21
8.7822665737
  0
LINE
  5
22D
100
AcDbEntity
  8
0
100
AcDbLine
 62
7
  6
CONTINUOUS
 10
10.6221511071
 20
8.7822665737
 11
10.6229524033
 21
8.7824242338
  0
LINE
  5
22E
100
AcDbEntity
  8
0
100
AcDbLine
 62
7
  6
CONTINUOUS
 10
10.6229524033
 20
8.7824242338
 11
10.6238313882
 21
8.7825906706
  0
LINE
  5
22F
100
AcDbEntity
  8
0
100
AcDbLine
 62
7
  6
CONTINUOUS
 10
10.6238313882
 20
8.7825906706
 11
10.6247500903
 21
8.7827573877
  0
LINE
  5
230
100
AcDbEntity
  8
0
100
AcDbLine
 62
7
  6
CONTINUOUS
 10
10.6242318957
 20
8.782665566
 11
10.6244123613
 21
8.7826967732
  0
LINE
  5
231
100
AcDbEntity
  8
0
100
AcDbLine
 62
7
  6
CONTINUOUS
 10
10.6247500903
 20
8.7827573877
 11
10.62570454
 21
8.7829227917
  0
LWPOLYLINE
  5
232
100
AcDbEntity
  8
0
100
AcDbPolyline
 62
7
  6
CONTINUOUS
 90
48
 70
0
 10
10.62570454
 20
8.7829227917
 10
10.6267088761
 20
8.7830882959
 10
10.6272340998
 20
8.7831713705
 10
10.6277755438
 20
8.7832545183
 10
10.6283323572
 20
8.783337393
 10
10.628903657
 20
8.7834196543
 10
10.629488558
 20
8.7835009743
 10
10.6300861709
 20
8.7835810376
 10
10.6306955918
 20
8.7836595415
 10
10.6313159058
 20
8.7837361976
 10
10.6319461956
 20
8.7838107336
 10
10.6325855413
 20
8.7838828941
 10
10.6332330199
 20
8.7839524416
 10
10.6338877053
 20
8.7840191568
 10
10.6345486684
 20
8.7840828391
 10
10.6352149769
 20
8.7841433075
 10
10.6358856955
 20
8.7842004006
 10
10.6365598864
 20
8.7842539774
 10
10.6372366092
 20
8.7843039173
 10
10.6379149213
 20
8.7843501204
 10
10.638593816
 20
8.7843925042
 10
10.6392721084
 20
8.784430999
 10
10.6399485812
 20
8.78446556
 10
10.6406220163
 20
8.7844961694
 10
10.6412911946
 20
8.7845228363
 10
10.6419548968
 20
8.784545596
 10
10.6426119039
 20
8.7845645098
 10
10.643260997
 20
8.7845796642
 10
10.6439010808
 20
8.7845911722
 10
10.6445320393
 20
8.7845991777
 10
10.645154226
 20
8.7846038268
 10
10.6457679988
 20
8.7846052562
 10
10.6463737169
 20
8.784603593
 10
10.6469717408
 20
8.7845989553
 10
10.647562432
 20
8.784591452
 10
10.6481461534
 20
8.7845811837
 10
10.6487232681
 20
8.7845682422
 10
10.6492941406
 20
8.7845527111
 10
10.6498591356
 20
8.784534666
 10
10.6504186185
 20
8.7845141743
 10
10.6509729552
 20
8.7844912961
 10
10.6515225119
 20
8.7844660836
 10
10.652067655
 20
8.7844385817
 10
10.6526087512
 20
8.784408828
 10
10.6531461672
 20
8.784376853
 10
10.6536801804
 20
8.7843426861
 10
10.6542108142
 20
8.7843063692
 10
10.6547380471
 20
8.7842679468
  0
LWPOLYLINE
  5
233
100
AcDbEntity
  8
0
100
AcDbPolyline
 62
7
  6
CONTINUOUS
 90
80
 70
0
 10
11.2140091401
 20
8.7835919932
 10
11.2146190303
 20
8.7836705981
 10
11.2151436024
 20
8.7837355262
 10
11.2156742674
 20
8.7837988236
 10
11.2162104098
 20
8.7838603422
 10
11.2167520042
 20
8.7839200084
 10
11.2172990245
 20
8.7839777478
 10
11.217851444
 20
8.7840334863
 10
11.2184092355
 20
8.784087149
 10
11.218972371
 20
8.7841386612
 10
11.2195408218
 20
8.7841879477
 10
11.2201145587
 20
8.7842349331
 10
11.2206935518
 20
8.7842795419
 10
11.2212777703
 20
8.7843216983
 10
11.221867183
 20
8.7843613265
 10
11.2224617576
 20
8.7843983503
 10
11.2230614614
 20
8.7844326935
 10
11.2236662609
 20
8.7844642799
 10
11.2242761217
 20
8.7844930328
 10
11.2248910087
 20
8.7845188758
 10
11.2255108862
 20
8.7845417322
 10
11.2261357175
 20
8.7845615253
 10
11.2267654651
 20
8.7845781783
 10
11.2274000765
 20
8.784591614
 10
11.228039468
 20
8.7846017555
 10
11.2286835506
 20
8.7846085262
 10
11.2293322348
 20
8.7846118512
 10
11.2299854303
 20
8.7846116563
 10
11.2306430458
 20
8.7846078686
 10
11.2313049893
 20
8.7846004164
 10
11.231971168
 20
8.7845892292
 10
11.2326414883
 20
8.7845742377
 10
11.2333158558
 20
8.7845553741
 10
11.2339941754
 20
8.7845325716
 10
11.2346763511
 20
8.784505765
 10
11.2353622864
 20
8.7844748903
 10
11.2360518838
 20
8.7844398852
 10
11.2367450452
 20
8.7844006885
 10
11.2374416717
 20
8.7843572408
 10
11.2381416637
 20
8.7843094839
 10
11.2388450555
 20
8.784257351
 10
11.2395526074
 20
8.7842007133
 10
11.2402653216
 20
8.7841394013
 10
11.2409841973
 20
8.7840732204
 10
11.2417102295
 20
8.7840019504
 10
11.2424444089
 20
8.7839253451
 10
11.2431877216
 20
8.7838431316
 10
11.2439411476
 20
8.7837550096
 10
11.2447056612
 20
8.7836606505
 10
11.2454822295
 20
8.7835596968
 10
11.2462718122
 20
8.7834517609
 10
11.2470753603
 20
8.7833364244
 10
11.2478938153
 20
8.7832132367
 10
11.2487281082
 20
8.7830817143
 10
11.2495791577
 20
8.7829413396
 10
11.2504463123
 20
8.7827918336
 10
11.2513198527
 20
8.7826345939
 10
11.2521870002
 20
8.7824718944
 10
11.2530397253
 20
8.7823054514
 10
11.253875358
 20
8.7821361141
 10
11.2546915367
 20
8.7819647393
 10
11.2554859192
 20
8.7817922416
 10
11.2562568701
 20
8.7816194322
 10
11.2570054716
 20
8.7814465198
 10
11.2577334717
 20
8.7812735131
 10
11.2584426131
 20
8.7811003667
 10
11.2591346314
 20
8.7809269846
 10
11.2598112511
 20
8.7807532235
 10
11.2604741836
 20
8.7805788961
 10
11.2611247941
 20
8.7804038634
 10
11.2617632639
 20
8.7802282797
 10
11.2623895406
 20
8.7800523589
 10
11.2630035889
 20
8.7798763084
 10
11.2636053826
 20
8.779700331
 10
11.2641948935
 20
8.7795246279
 10
11.2647720743
 20
8.7793494043
 10
11.2653368676
 20
8.7791748664
 10
11.2658894665
 20
8.7790011398
 10
11.2664279897
 20
8.7788290111
 10
11.2669501775
 20
8.7786594267
  0
LINE
  5
234
100
AcDbEntity
  8
0
100
AcDbLine
 62
7
  6
CONTINUOUS
 10
11.3167227945
 20
8.6111695021
 11
10.558661891
 21
8.6111695021
  0
LINE
  5
235
100
AcDbEntity
  8
0
100
AcDbLine
 62
7
  6
CONTINUOUS
 10
10.6547380471
 20
8.7842679468
 11
10.6557822263
 21
8.784184964
  0
LINE
  5
236
100
AcDbEntity
  8
0
100
AcDbLine
 62
7
  6
CONTINUOUS
 10
10.6557822263
 20
8.784184964
 11
10.6568125541
 21
8.784094094
  0
LINE
  5
237
100
AcDbEntity
  8
0
100
AcDbLine
 62
7
  6
CONTINUOUS
 10
10.6568125541
 20
8.784094094
 11
10.6578288725
 21
8.7839956932
  0
LINE
  5
238
100
AcDbEntity
  8
0
100
AcDbLine
 62
7
  6
CONTINUOUS
 10
10.6578288725
 20
8.7839956932
 11
10.6588310291
 21
8.783890117
  0
LINE
  5
239
100
AcDbEntity
  8
0
100
AcDbLine
 62
7
  6
CONTINUOUS
 10
10.6588310291
 20
8.783890117
 11
10.6598188774
 21
8.7837777208
  0
LINE
  5
23A
100
AcDbEntity
  8
0
100
AcDbLine
 62
7
  6
CONTINUOUS
 10
10.6598188774
 20
8.7837777208
 11
10.6607922764
 21
8.7836588586
  0
LINE
  5
23B
100
AcDbEntity
  8
0
100
AcDbLine
 62
7
  6
CONTINUOUS
 10
10.6607922764
 20
8.7836588586
 11
10.661393179
 21
8.78358127
  0
LINE
  5
23C
100
AcDbEntity
  8
0
100
AcDbLine
 62
7
  6
CONTINUOUS
 10
11.2669501775
 20
8.7786594267
 11
11.2679376932
 21
8.778331475
  0
LINE
  5
23D
100
AcDbEntity
  8
0
100
AcDbLine
 62
7
  6
CONTINUOUS
 10
11.2679376932
 20
8.778331475
 11
11.2688355073
 21
8.7780250241
  0
LINE
  5
23E
100
AcDbEntity
  8
0
100
AcDbLine
 62
7
  6
CONTINUOUS
 10
11.2688355073
 20
8.7780250241
 11
11.2695501089
 21
8.7777754049
  0
LINE
  5
23F
100
AcDbEntity
  8
0
100
AcDbLine
 62
7
  6
CONTINUOUS
 10
11.2695604807
 20
8.7777717611
 11
11.2698030433
 21
8.777685858
  0
LINE
  5
240
100
AcDbEntity
  8
0
100
AcDbLine
 62
7
  6
CONTINUOUS
 10
11.2695501089
 20
8.7777754049
 11
11.2708051574
 21
8.7773247007
  0
LWPOLYLINE
  5
241
100
AcDbEntity
  8
0
100
AcDbPolyline
 62
7
  6
CONTINUOUS
 90
37
 70
0
 10
11.2708051574
 20
8.7773247007
 10
11.2713280653
 20
8.7771322483
 10
11.2719447555
 20
8.7769017263
 10
11.2726161441
 20
8.7766463586
 10
11.2733177277
 20
8.7763745728
 10
11.2740449648
 20
8.7760874888
 10
11.2747958322
 20
8.7757853069
 10
11.2755671263
 20
8.7754687513
 10
11.2763545199
 20
8.7751391007
 10
11.277153028
 20
8.774798043
 10
11.2779598999
 20
8.7744464403
 10
11.2787789004
 20
8.7740823154
 10
11.2796114732
 20
8.7737046082
 10
11.2804589132
 20
8.7733122595
 10
11.281322486
 20
8.772904157
 10
11.2822034206
 20
8.7724791352
 10
11.2831028995
 20
8.7720359773
 10
11.2840213113
 20
8.7715737925
 10
11.2849575267
 20
8.7710924299
 10
11.2859102388
 20
8.7705918505
 10
11.2868781423
 20
8.7700720424
 10
11.2878599347
 20
8.7695330223
 10
11.2888543386
 20
8.7689748255
 10
11.2898604441
 20
8.7683973083
 10
11.2908776438
 20
8.7678001647
 10
11.2919053308
 20
8.7671830901
 10
11.2929428899
 20
8.7665457877
 10
11.2939896974
 20
8.7658879686
 10
11.2950451211
 20
8.7652093527
 10
11.2961085207
 20
8.7645096692
 10
11.2971792478
 20
8.7637886574
 10
11.2982566465
 20
8.7630460669
 10
11.2993400531
 20
8.7622816584
 10
11.3004289903
 20
8.7614950628
 10
11.3015235773
 20
8.7606854577
 10
11.3026240187
 20
8.7598519048
 10
11.3037304783
 20
8.7589934361
  0
LINE
  5
242
100
AcDbEntity
  8
0
100
AcDbLine
 62
7
  6
CONTINUOUS
 10
10.558661891
 20
8.6111695021
 11
10.5088647966
 21
8.6974205998
  0
LINE
  5
243
100
AcDbEntity
  8
0
100
AcDbLine
 62
7
  6
CONTINUOUS
 10
10.4053371785
 20
8.8767356942
 11
10.1796314393
 21
9.2676695021
  0
LWPOLYLINE
  5
244
100
AcDbEntity
  8
0
100
AcDbPolyline
 62
7
  6
CONTINUOUS
 90
5
 70
0
 10
10.4454700037
 20
9.60559584
 10
10.4461704132
 20
9.6038705621
 10
10.4468120188
 20
9.6022188009
 10
10.4474013064
 20
9.6006343715
 10
10.4477054704
 20
9.5997807387
  0
LWPOLYLINE
  5
245
100
AcDbEntity
  8
0
100
AcDbPolyline
 62
7
  6
CONTINUOUS
 90
4
 70
0
 10
10.4477741609
 20
9.5995879594
 10
10.447943895
 20
9.5991116027
 10
10.4484442486
 20
9.5976465442
 10
10.4489063818
 20
9.5962353289
  0
LINE
  5
246
100
AcDbEntity
  8
0
100
AcDbLine
 62
7
  6
CONTINUOUS
 10
10.4485843236
 20
9.5971655096
 11
10.4488544901
 21
9.5963984385
  0
LWPOLYLINE
  5
247
100
AcDbEntity
  8
0
100
AcDbPolyline
 62
7
  6
CONTINUOUS
 90
3
 70
0
 10
10.4489063818
 20
9.5962353289
 10
10.4493339646
 20
9.5948739893
 10
10.4497301562
 20
9.5935591228
  0
LINE
  5
248
100
AcDbEntity
  8
0
100
AcDbLine
 62
7
  6
CONTINUOUS
 10
10.4488544901
 20
9.5963984385
 11
10.4489030388
 21
9.5962125262
  0
LINE
  5
249
100
AcDbEntity
  8
0
100
AcDbLine
 62
7
  6
CONTINUOUS
 10
10.4520227153
 20
9.5845046104
 11
10.4521157865
 21
9.5840614543
  0
LWPOLYLINE
  5
24A
100
AcDbEntity
  8
0
100
AcDbPolyline
 62
7
  6
CONTINUOUS
 90
55
 70
0
 10
10.4521157865
 20
9.5840614543
 10
10.4522828004
 20
9.5832437332
 10
10.4523813982
 20
9.5827467519
 10
10.4524849564
 20
9.5822124989
 10
10.452591282
 20
9.5816499586
 10
10.4526979227
 20
9.5810703882
 10
10.4528036722
 20
9.5804792117
 10
10.4529090036
 20
9.5798726642
 10
10.453014329
 20
9.5792468418
 10
10.4531199796
 20
9.5785977684
 10
10.4532261151
 20
9.5779219313
 10
10.4533321477
 20
9.5772202071
 10
10.4534371566
 20
9.5764958613
 10
10.4535402851
 20
9.575752191
 10
10.4536407941
 20
9.5749921584
 10
10.4537382655
 20
9.5742166793
 10
10.4538323868
 20
9.5734259185
 10
10.4539228444
 20
9.5726200404
 10
10.4540093241
 20
9.5717992117
 10
10.4540915105
 20
9.5709636026
 10
10.4541690879
 20
9.570113387
 10
10.4542417396
 20
9.5692487436
 10
10.4543091492
 20
9.5683698558
 10
10.4543709998
 20
9.567476912
 10
10.4544269138
 20
9.5665711622
 10
10.4544763726
 20
9.5656573189
 10
10.4545189681
 20
9.5647408108
 10
10.4545544561
 20
9.5638270758
 10
10.454582757
 20
9.5629215576
 10
10.4546039524
 20
9.5620297029
 10
10.4546182915
 20
9.5611561455
 10
10.454626174
 20
9.5603011963
 10
10.454627997
 20
9.5594637304
 10
10.4546241172
 20
9.5586426167
 10
10.4546148525
 20
9.5578367193
 10
10.4546004834
 20
9.5570448985
 10
10.4545812546
 20
9.5562660113
 10
10.4545573763
 20
9.5554989124
 10
10.4545290249
 20
9.5547424544
 10
10.4544963447
 20
9.5539954883
 10
10.4544594484
 20
9.5532568645
 10
10.4544184183
 20
9.5525254327
 10
10.4543733103
 20
9.5518000982
 10
10.4543242028
 20
9.551080471
 10
10.454271201
 20
9.5503666456
 10
10.4542144121
 20
9.549658725
 10
10.4541539444
 20
9.5489568107
 10
10.4540899078
 20
9.548261003
 10
10.4540224131
 20
9.5475714009
 10
10.4539515722
 20
9.5468881022
 10
10.4538774983
 20
9.5462112032
 10
10.4538003056
 20
9.5455407992
 10
10.453720109
 20
9.544876984
 10
10.4536370246
 20
9.5442198502
 10
10.4536037973
 20
9.5439681508
  0
LWPOLYLINE
  5
24B
100
AcDbEntity
  8
0
100
AcDbPolyline
 62
7
  6
CONTINUOUS
 90
80
 70
0
 10
10.4536147868
 20
8.9913527821
 10
10.4536973505
 20
8.9907117379
 10
10.4537622114
 20
8.9901865743
 10
10.4538254232
 20
8.9896554173
 10
10.453886851
 20
8.9891187789
 10
10.4539464208
 20
8.9885766852
 10
10.4540040584
 20
8.9880291624
 10
10.4540596891
 20
8.9874762378
 10
10.4541132384
 20
8.9869179391
 10
10.454164631
 20
8.9863542947
 10
10.4542137918
 20
8.9857853337
 10
10.4542606454
 20
8.9852110857
 10
10.4543051159
 20
8.9846315812
 10
10.4543471278
 20
8.9840468514
 10
10.4543866048
 20
8.983456928
 10
10.4544234709
 20
8.9828618437
 10
10.4544576498
 20
8.9822616316
 10
10.454489065
 20
8.9816563258
 10
10.4545176401
 20
8.9810459611
 10
10.4545432985
 20
8.980430573
 10
10.4545659634
 20
8.9798101978
 10
10.4545855581
 20
8.9791848725
 10
10.4546020058
 20
8.9785546354
 10
10.4546152295
 20
8.9779195407
 10
10.454625152
 20
8.9772796721
 10
10.4546316971
 20
8.976635117
 10
10.4546347896
 20
8.9759859636
 10
10.4546343556
 20
8.975332301
 10
10.454630322
 20
8.9746742191
 10
10.4546226171
 20
8.9740118084
 10
10.4546111704
 20
8.9733451606
 10
10.4545959124
 20
8.9726743679
 10
10.4545767752
 20
8.9719995232
 10
10.4545536918
 20
8.9713207204
 10
10.4545265968
 20
8.9706380542
 10
10.4544954261
 20
8.9699516198
 10
10.4544601169
 20
8.9692615132
 10
10.4544206079
 20
8.9685678315
 10
10.4543768392
 20
8.967870672
 10
10.4543287524
 20
8.9671701331
 10
10.4542762777
 20
8.9664661466
 10
10.4542192817
 20
8.9657579133
 10
10.4541575933
 20
8.9650444369
 10
10.4540910164
 20
8.9643247244
 10
10.4540193294
 20
8.9635977866
 10
10.4539422849
 20
8.9628626389
 10
10.4538596087
 20
8.9621183016
 10
10.4537709993
 20
8.9613638004
 10
10.4536761271
 20
8.9605981676
 10
10.4535746335
 20
8.9598204419
 10
10.4534661301
 20
8.9590296701
 10
10.4533501976
 20
8.9582249074
 10
10.4532263848
 20
8.9574052185
 10
10.4530942076
 20
8.956569679
 10
10.4529531478
 20
8.9557173763
 10
10.4528029926
 20
8.9548493386
 10
10.4526451976
 20
8.9539755287
 10
10.4524819586
 20
8.9531082067
 10
10.4523148701
 20
8.9522547566
 10
10.4521448104
 20
8.9514180415
 10
10.4519726966
 20
8.9506007316
 10
10.4517995118
 20
8.9498054748
 10
10.4516260886
 20
8.9490339696
 10
10.4514526068
 20
8.9482849833
 10
10.4512790642
 20
8.9475567123
 10
10.451105403
 20
8.9468473581
 10
10.4509315135
 20
8.9461551306
 10
10.4507572373
 20
8.945478251
 10
10.450582371
 20
8.9448149552
 10
10.4504067956
 20
8.9441639606
 10
10.4502306882
 20
8.9435251686
 10
10.4500542662
 20
8.9428986397
 10
10.4498777409
 20
8.9422844182
 10
10.4497013195
 20
8.9416825403
 10
10.4495252086
 20
8.9410930455
 10
10.4493496193
 20
8.940515996
 10
10.4491747482
 20
8.9399514108
 10
10.449000771
 20
8.939399252
 10
10.4488285409
 20
8.9388615912
 10
10.4486589857
 20
8.9383406078
  0
LINE
  5
24C
100
AcDbEntity
  8
0
100
AcDbLine
 62
7
  6
CONTINUOUS
 10
10.6488872576
 20
11.5801695021
 11
10.6488872576
 21
11.3551695021
  0
LINE
  5
24D
100
AcDbEntity
  8
0
100
AcDbLine
 62
7
  6
CONTINUOUS
 10
10.6814491862
 20
11.3551695021
 11
10.6814491862
 21
11.4522685866
  0
LINE
  5
24E
100
AcDbEntity
  8
0
100
AcDbLine
 62
7
  6
CONTINUOUS
 10
10.6814491862
 20
11.48512387
 11
10.6814491862
 21
11.5801695021
  0
LINE
  5
24F
100
AcDbEntity
  8
0
100
AcDbLine
 62
7
  6
CONTINUOUS
 10
10.7844152944
 20
11.5801695021
 11
10.7844152944
 21
11.48512387
  0
LINE
  5
250
100
AcDbEntity
  8
0
100
AcDbLine
 62
7
  6
CONTINUOUS
 10
10.7844152944
 20
11.4522685866
 11
10.7844152944
 21
11.3551695021
  0
LINE
  5
251
100
AcDbEntity
  8
0
100
AcDbLine
 62
7
  6
CONTINUOUS
 10
10.816977218
 20
11.3551695021
 11
10.816977218
 21
11.5801695021
  0
LINE
  5
252
100
AcDbEntity
  8
0
100
AcDbLine
 62
7
  6
CONTINUOUS
 10
10.9051923427
 20
9.3126695021
 11
10.9051923427
 21
9.5376695021
  0
LINE
  5
253
100
AcDbEntity
  8
0
100
AcDbLine
 62
7
  6
CONTINUOUS
 10
10.9208173427
 20
9.5220445021
 11
10.9208173427
 21
9.2890677518
  0
LINE
  5
254
100
AcDbEntity
  8
0
100
AcDbLine
 62
7
  6
CONTINUOUS
 10
10.9545673427
 20
9.2890677518
 11
10.9545673427
 21
9.5220445021
  0
LINE
  5
255
100
AcDbEntity
  8
0
100
AcDbLine
 62
7
  6
CONTINUOUS
 10
10.9701923427
 20
9.5376695021
 11
10.9701923427
 21
9.3126695021
  0
LINE
  5
256
100
AcDbEntity
  8
0
100
AcDbLine
 62
7
  6
CONTINUOUS
 10
10.4300440454
 20
8.9029530802
 11
10.4296678168
 21
8.9024625762
  0
LINE
  5
257
100
AcDbEntity
  8
0
100
AcDbLine
 62
7
  6
CONTINUOUS
 10
10.4292023289
 20
8.9018628862
 11
10.4288152877
 21
8.9013701758
  0
LWPOLYLINE
  5
258
100
AcDbEntity
  8
0
100
AcDbPolyline
 62
7
  6
CONTINUOUS
 90
9
 70
0
 10
10.4290846452
 20
8.9017185141
 10
10.4281969242
 20
8.9005996625
 10
10.4272820131
 20
8.8994745243
 10
10.4263388389
 20
8.8983430666
 10
10.4253662993
 20
8.8972053073
 10
10.4243632627
 20
8.8960613176
 10
10.4233285691
 20
8.8949112242
 10
10.42226103
 20
8.8937552127
 10
10.4211594298
 20
8.89259353
  0
LINE
  5
259
100
AcDbEntity
  8
0
100
AcDbLine
 62
7
  6
CONTINUOUS
 10
10.4308256485
 20
8.9039942102
 11
10.4300150778
 21
8.9029776504
  0
LINE
  5
25A
100
AcDbEntity
  8
0
100
AcDbLine
 62
7
  6
CONTINUOUS
 10
10.4282619639
 20
8.9006748885
 11
10.4278213943
 21
8.900128768
  0
LINE
  5
25B
100
AcDbEntity
  8
0
100
AcDbLine
 62
7
  6
CONTINUOUS
 10
10.4273600719
 20
8.8995638641
 11
10.4268789487
 21
8.8989821108
  0
LINE
  5
25C
100
AcDbEntity
  8
0
100
AcDbLine
 62
7
  6
CONTINUOUS
 10
10.4265476847
 20
8.8985858627
 11
10.4262082208
 21
8.8981833812
  0
LINE
  5
25D
100
AcDbEntity
  8
0
100
AcDbLine
 62
7
  6
CONTINUOUS
 10
10.4255011221
 20
8.8973563942
 11
10.4251311044
 21
8.8969296383
  0
LINE
  5
25E
100
AcDbEntity
  8
0
100
AcDbLine
 62
7
  6
CONTINUOUS
 10
10.4245520116
 20
8.8962698196
 11
10.4241480396
 21
8.8958152534
  0
LINE
  5
25F
100
AcDbEntity
  8
0
100
AcDbLine
 62
7
  6
CONTINUOUS
 10
10.4235113107
 20
8.895108107
 11
10.4230630053
 21
8.8946169297
  0
LINE
  5
260
100
AcDbEntity
  8
0
100
AcDbLine
 62
7
  6
CONTINUOUS
 10
10.4223487835
 20
8.8938455792
 11
10.421841664
 21
8.8933060484
  0
LINE
  5
261
100
AcDbEntity
  8
0
100
AcDbLine
 62
7
  6
CONTINUOUS
 10
10.4213084945
 20
8.8927459389
 11
10.4207479313
 21
8.8921647823
  0
LWPOLYLINE
  5
262
100
AcDbEntity
  8
0
100
AcDbPolyline
 62
7
  6
CONTINUOUS
 90
3
 70
0
 10
10.4207479313
 20
8.8921647823
 10
10.4201610761
 20
8.8915646846
 10
10.4198595269
 20
8.8912595826
  0
LINE
  5
263
100
AcDbEntity
  8
0
100
AcDbLine
 62
7
  6
CONTINUOUS
 10
10.0184535272
 20
8.4898520428
 11
10.4209943127
 21
8.8923929845
  0
LINE
  5
264
100
AcDbEntity
  8
0
100
AcDbLine
 62
7
  6
CONTINUOUS
 10
11.3135404276
 20
9.7849389433
 11
11.715509802
 21
10.1869083177
  0
LINE
  5
265
100
AcDbEntity
  8
0
100
AcDbLine
 62
9
  6
CONTINUOUS
 10
10.5155631019
 20
8.8455438087
 11
10.0184535272
 21
8.3484306866
  0
LINE
  5
266
100
AcDbEntity
  8
0
100
AcDbLine
 62
9
  6
CONTINUOUS
 10
11.3598215836
 20
9.6897951956
 11
11.8569311583
 21
10.1869083177
  0
LINE
  5
267
100
AcDbEntity
  8
0
100
AcDbLine
 62
7
  6
CONTINUOUS
 10
11.3135255017
 20
9.7849543217
 11
11.3121880728
 21
9.7836562435
  0
LINE
  5
268
100
AcDbEntity
  8
0
100
AcDbLine
 62
7
  6
CONTINUOUS
 10
11.3121880728
 20
9.7836562435
 11
11.3114986185
 21
9.7830002614
  0
LWPOLYLINE
  5
269
100
AcDbEntity
  8
0
100
AcDbPolyline
 62
7
  6
CONTINUOUS
 90
9
 70
0
 10
11.3134591825
 20
9.7850250965
 10
11.3090862633
 20
9.780901296
 10
11.3007901503
 20
9.7741660732
 10
11.2918785805
 20
9.7681722857
 10
11.2825242742
 20
9.7630323159
 10
11.2751940745
 20
9.7597223415
 10
11.2697524006
 20
9.7576359918
 10
11.2654196655
 20
9.7561877594
 10
11.2618310584
 20
9.7551259145
  0
LWPOLYLINE
  5
26A
100
AcDbEntity
  8
0
100
AcDbPolyline
 62
7
  6
CONTINUOUS
 90
9
 70
0
 10
11.3118994913
 20
9.7833761529
 10
11.3087549617
 20
9.7805174057
 10
11.3055343141
 20
9.7777906957
 10
11.3022961417
 20
9.775236984
 10
11.2991042606
 20
9.7728897616
 10
11.296026691
 20
9.7707752131
 10
11.2931340609
 20
9.7689125095
 10
11.2904578028
 20
9.767291011
 10
11.287957064
 20
9.7658602143
  0
LWPOLYLINE
  5
26B
100
AcDbEntity
  8
0
100
AcDbPolyline
 62
7
  6
CONTINUOUS
 90
5
 70
0
 10
11.3099087708
 20
9.7815428291
 10
11.3083882449
 20
9.7801970061
 10
11.3069319193
 20
9.778950121
 10
11.3055337878
 20
9.7777902659
 10
11.3041884578
 20
9.7767073455
  0
LINE
  5
26C
100
AcDbEntity
  8
0
100
AcDbLine
 62
7
  6
CONTINUOUS
 10
11.3028924467
 20
9.7756938016
 11
11.3016421054
 21
9.7747426997
  0
LWPOLYLINE
  5
26D
100
AcDbEntity
  8
0
100
AcDbPolyline
 62
7
  6
CONTINUOUS
 90
11
 70
0
 10
11.3008083439
 20
9.7741808437
 10
11.297586888
 20
9.7718281257
 10
11.2927791844
 20
9.7686906994
 10
11.2885400921
 20
9.7661855579
 10
11.2847478907
 20
9.764137107
 10
11.2813170965
 20
9.7624315812
 10
11.2781851238
 20
9.7609913487
 10
11.2753049023
 20
9.7597613736
 10
11.2726420445
 20
9.7587020931
 10
11.2701676131
 20
9.7577829335
 10
11.2698243541
 20
9.7576635789
  0
LINE
  5
26E
100
AcDbEntity
  8
0
100
AcDbLine
 62
7
  6
CONTINUOUS
 10
11.3004485876
 20
9.7738570223
 11
11.2992660402
 21
9.7730048652
  0
LINE
  5
26F
100
AcDbEntity
  8
0
100
AcDbLine
 62
7
  6
CONTINUOUS
 10
11.2993705582
 20
9.7730779212
 11
11.2981350532
 21
9.7722085661
  0
LINE
  5
270
100
AcDbEntity
  8
0
100
AcDbLine
 62
7
  6
CONTINUOUS
 10
11.2974936928
 20
9.7717641426
 11
11.2966650728
 21
9.7712009008
  0
LINE
  5
271
100
AcDbEntity
  8
0
100
AcDbLine
 62
7
  6
CONTINUOUS
 10
11.2970385211
 20
9.7714549259
 11
11.2958951625
 21
9.7706865592
  0
LWPOLYLINE
  5
272
100
AcDbEntity
  8
0
100
AcDbPolyline
 62
7
  6
CONTINUOUS
 90
3
 70
0
 10
11.2939371598
 20
9.7694179458
 10
11.292959995
 20
9.7688041248
 10
11.2920086712
 20
9.7682190158
  0
LINE
  5
273
100
AcDbEntity
  8
0
100
AcDbLine
 62
7
  6
CONTINUOUS
 10
11.2932650161
 20
9.768993029
 11
11.2926952477
 21
9.7686387912
  0
LINE
  5
274
100
AcDbEntity
  8
0
100
AcDbLine
 62
7
  6
CONTINUOUS
 10
11.2902166501
 20
9.7671483528
 11
11.289296837
 21
9.7666168484
  0
LINE
  5
275
100
AcDbEntity
  8
0
100
AcDbLine
 62
7
  6
CONTINUOUS
 10
11.2885667296
 20
9.7662005754
 11
11.2875954994
 21
9.7656598825
  0
LINE
  5
276
100
AcDbEntity
  8
0
100
AcDbLine
 62
7
  6
CONTINUOUS
 10
11.2878240321
 20
9.7657852018
 11
11.2871270548
 21
9.765401652
  0
LINE
  5
277
100
AcDbEntity
  8
0
100
AcDbLine
 62
7
  6
CONTINUOUS
 10
11.2861593521
 20
9.7648790347
 11
11.2851847963
 21
9.7643652428
  0
LINE
  5
278
100
AcDbEntity
  8
0
100
AcDbLine
 62
7
  6
CONTINUOUS
 10
11.2855568848
 20
9.764559421
 11
11.2849779215
 21
9.7642563926
  0
LWPOLYLINE
  5
279
100
AcDbEntity
  8
0
100
AcDbPolyline
 62
7
  6
CONTINUOUS
 90
5
 70
0
 10
11.2856039778
 20
9.7645852922
 10
11.2833853253
 20
9.7634443433
 10
11.2812878069
 20
9.7624185243
 10
11.2792976495
 20
9.7614913472
 10
11.277403954
 20
9.7606497633
  0
LINE
  5
27A
100
AcDbEntity
  8
0
100
AcDbLine
 62
7
  6
CONTINUOUS
 10
11.2841397078
 20
9.7638247512
 11
11.2835978412
 21
9.7635501288
  0
LINE
  5
27B
100
AcDbEntity
  8
0
100
AcDbLine
 62
7
  6
CONTINUOUS
 10
11.2822006519
 20
9.762858751
 11
11.2812724844
 21
9.7624102961
  0
LINE
  5
27C
100
AcDbEntity
  8
0
100
AcDbLine
 62
7
  6
CONTINUOUS
 10
11.2814914328
 20
9.762515902
 11
11.2807956565
 21
9.7621851071
  0
LINE
  5
27D
100
AcDbEntity
  8
0
100
AcDbLine
 62
7
  6
CONTINUOUS
 10
11.2794426438
 20
9.761557406
 11
11.2785493284
 21
9.7611532547
  0
LINE
  5
27E
100
AcDbEntity
  8
0
100
AcDbLine
 62
7
  6
CONTINUOUS
 10
11.27813828
 20
9.7609714629
 11
11.2775032707
 21
9.7606929312
  0
LINE
  5
27F
100
AcDbEntity
  8
0
100
AcDbLine
 62
7
  6
CONTINUOUS
 10
10.9701923427
 20
9.3126695021
 11
11.0526923427
 21
9.3476695021
  0
LINE
  5
280
100
AcDbEntity
  8
0
100
AcDbLine
 62
7
  6
CONTINUOUS
 10
11.0283525176
 20
9.3203705533
 11
10.9545673427
 21
9.2890677518
  0
LINE
  5
281
100
AcDbEntity
  8
0
100
AcDbLine
 62
7
  6
CONTINUOUS
 10
10.9208173427
 20
9.2890677518
 11
10.8470321678
 21
9.3203705533
  0
LINE
  5
282
100
AcDbEntity
  8
0
100
AcDbLine
 62
7
  6
CONTINUOUS
 10
10.8226923427
 20
9.3476695021
 11
10.9051923427
 21
9.3126695021
  0
LINE
  5
283
100
AcDbEntity
  8
0
100
AcDbLine
 62
7
  6
CONTINUOUS
 10
11.3025270731
 20
8.7599308282
 11
11.3030414935
 21
8.7595351302
  0
LINE
  5
284
100
AcDbEntity
  8
0
100
AcDbLine
 62
7
  6
CONTINUOUS
 10
11.3036595408
 20
8.7590538033
 11
11.3041614219
 21
8.758658131
  0
LWPOLYLINE
  5
285
100
AcDbEntity
  8
0
100
AcDbPolyline
 62
7
  6
CONTINUOUS
 90
9
 70
0
 10
11.3037304783
 20
8.7589934361
 10
11.3048430771
 20
8.7581090542
 10
11.3059618911
 20
8.7571977326
 10
11.307086949
 20
8.7562584155
 10
11.3082182302
 20
8.7552900185
 10
11.3093556618
 20
8.7542914289
 10
11.3104991162
 20
8.7532615057
 10
11.3116484087
 20
8.7521990808
 10
11.3128032946
 20
8.7511029591
  0
LINE
  5
286
100
AcDbEntity
  8
0
100
AcDbLine
 62
7
  6
CONTINUOUS
 10
11.3013680594
 20
8.7608025228
 11
11.3023841891
 21
8.7599922333
  0
LINE
  5
287
100
AcDbEntity
  8
0
100
AcDbLine
 62
7
  6
CONTINUOUS
 10
11.3046864655
 20
8.7582395169
 11
11.3052324804
 21
8.7577990378
  0
LINE
  5
288
100
AcDbEntity
  8
0
100
AcDbLine
 62
7
  6
CONTINUOUS
 10
11.305797291
 20
8.757337798
 11
11.306378971
 21
8.7568567433
  0
LINE
  5
289
100
AcDbEntity
  8
0
100
AcDbLine
 62
7
  6
CONTINUOUS
 10
11.3069756138
 20
8.7563568478
 11
11.3073814172
 21
8.7560130508
  0
LINE
  5
28A
100
AcDbEntity
  8
0
100
AcDbLine
 62
7
  6
CONTINUOUS
 10
11.3080046073
 20
8.7554790092
 11
11.3084313598
 21
8.7551090016
  0
LINE
  5
28B
100
AcDbEntity
  8
0
100
AcDbLine
 62
7
  6
CONTINUOUS
 10
11.3090911802
 20
8.7545299181
 11
11.3095457507
 21
8.75412595
  0
LINE
  5
28C
100
AcDbEntity
  8
0
100
AcDbLine
 62
7
  6
CONTINUOUS
 10
11.3102529025
 20
8.7534892282
 11
11.3107440697
 21
8.7530409407
  0
LINE
  5
28D
100
AcDbEntity
  8
0
100
AcDbLine
 62
7
  6
CONTINUOUS
 10
11.311515362
 20
8.7523267871
 11
11.3120548322
 21
8.7518197354
  0
LINE
  5
28E
100
AcDbEntity
  8
0
100
AcDbLine
 62
7
  6
CONTINUOUS
 10
11.3126148783
 20
8.7512866385
 11
11.3131959793
 21
8.7507261427
  0
LWPOLYLINE
  5
28F
100
AcDbEntity
  8
0
100
AcDbPolyline
 62
7
  6
CONTINUOUS
 90
3
 70
0
 10
11.3131959793
 20
8.7507261427
 10
11.3137960403
 20
8.7501393384
 10
11.3141011277
 20
8.7498378117
  0
LINE
  5
290
100
AcDbEntity
  8
0
100
AcDbLine
 62
7
  6
CONTINUOUS
 10
11.715509802
 20
8.3484306866
 11
11.3129688712
 21
8.7509714613
  0
LINE
  5
291
100
AcDbEntity
  8
0
100
AcDbLine
 62
7
  6
CONTINUOUS
 10
10.4204229016
 20
9.6435175871
 11
10.0184535272
 21
10.0454869614
  0
LINE
  5
292
100
AcDbEntity
  8
0
100
AcDbLine
 62
9
  6
CONTINUOUS
 10
11.3598180362
 20
8.8455402613
 11
11.8569311583
 21
8.3484306866
  0
LINE
  5
293
100
AcDbEntity
  8
0
100
AcDbLine
 62
9
  6
CONTINUOUS
 10
10.5155666493
 20
9.689798743
 11
10.0184535272
 21
10.1869083177
  0
LWPOLYLINE
  5
294
100
AcDbEntity
  8
0
100
AcDbPolyline
 62
7
  6
CONTINUOUS
 90
15
 70
0
 10
10.4204075478
 20
9.6435026843
 10
10.421981467
 20
9.6418811357
 10
10.4248384559
 20
9.6387389409
 10
10.4275637263
 20
9.6355205594
 10
10.4301163576
 20
9.6322844717
 10
10.4324628824
 20
9.6290943729
 10
10.4345771246
 20
9.6260181572
 10
10.4364398936
 20
9.6231263524
 10
10.4380615184
 20
9.6204507968
 10
10.4394923872
 20
9.6179508356
 10
10.4407674106
 20
9.6155984657
 10
10.4419084822
 20
9.6133804773
 10
10.442934434
 20
9.6112835898
 10
10.4438617454
 20
9.6092940488
 10
10.444703475
 20
9.6074009344
  0
LWPOLYLINE
  5
295
100
AcDbEntity
  8
0
100
AcDbPolyline
 62
7
  6
CONTINUOUS
 90
11
 70
0
 10
10.4203394506
 20
9.6434383386
 10
10.4239072227
 20
9.6396813718
 10
10.4297448032
 20
9.6326871794
 10
10.4345432268
 20
9.6260052693
 10
10.4383642957
 20
9.6198848592
 10
10.4414476284
 20
9.6142549421
 10
10.4439646397
 20
9.6090443306
 10
10.4460327373
 20
9.6042039731
 10
10.447741943
 20
9.5996842936
 10
10.4491478066
 20
9.5954806511
 10
10.4502368343
 20
9.5918049757
  0
LINE
  5
296
100
AcDbEntity
  8
0
100
AcDbLine
 62
7
  6
CONTINUOUS
 10
10.4302196222
 20
9.6320259836
 11
10.4314012364
 21
9.630564589
  0
LINE
  5
297
100
AcDbEntity
  8
0
100
AcDbLine
 62
7
  6
CONTINUOUS
 10
10.4300587982
 20
9.6323574424
 11
10.4306972403
 21
9.6315172249
  0
LINE
  5
298
100
AcDbEntity
  8
0
100
AcDbLine
 62
7
  6
CONTINUOUS
 10
10.4314217773
 20
9.6305391845
 11
10.4330873159
 21
9.6280326572
  0
LINE
  5
299
100
AcDbEntity
  8
0
100
AcDbLine
 62
7
  6
CONTINUOUS
 10
10.4362336425
 20
9.6232976403
 11
10.4375301854
 21
9.6213464275
  0
LINE
  5
29A
100
AcDbEntity
  8
0
100
AcDbLine
 62
7
  6
CONTINUOUS
 10
10.4375301854
 20
9.6213464275
 11
10.4426229148
 21
9.6119330661
  0
LINE
  5
29B
100
AcDbEntity
  8
0
100
AcDbLine
 62
7
  6
CONTINUOUS
 10
10.9376923427
 20
8.9576695021
 11
10.8226923427
 21
9.3476695021
  0
LINE
  5
29C
100
AcDbEntity
  8
0
100
AcDbLine
 62
7
  6
CONTINUOUS
 10
10.8470321678
 20
9.3203705533
 11
10.9376923427
 21
9.012914308
  0
LINE
  5
29D
100
AcDbEntity
  8
0
100
AcDbLine
 62
7
  6
CONTINUOUS
 10
11.0660319792
 20
11.5473142254
 11
11.0660319792
 21
11.5801695021
  0
LINE
  5
29E
100
AcDbEntity
  8
0
100
AcDbLine
 62
7
  6
CONTINUOUS
 10
11.1295424239
 20
11.5473142254
 11
11.1295424239
 21
11.3551695021
  0
LINE
  5
29F
100
AcDbEntity
  8
0
100
AcDbLine
 62
7
  6
CONTINUOUS
 10
11.1621043341
 20
11.3551695021
 11
11.1621043341
 21
11.5473142254
  0
LINE
  5
2A0
100
AcDbEntity
  8
0
100
AcDbLine
 62
7
  6
CONTINUOUS
 10
11.225614752
 20
11.5801695021
 11
11.225614752
 21
11.5473142254
  0
LINE
  5
2A1
100
AcDbEntity
  8
0
100
AcDbLine
 62
7
  6
CONTINUOUS
 10
10.9376923427
 20
9.012914308
 11
11.0283525176
 21
9.3203705533
  0
LINE
  5
2A2
100
AcDbEntity
  8
0
100
AcDbLine
 62
7
  6
CONTINUOUS
 10
11.0526923427
 20
9.3476695021
 11
10.9376923427
 21
8.9576695021
  0
LINE
  5
2A3
100
AcDbEntity
  8
0
100
AcDbLine
 62
7
  6
CONTINUOUS
 10
11.4267019496
 20
9.5969259053
 11
11.4270299093
 21
9.5979134856
  0
LINE
  5
2A4
100
AcDbEntity
  8
0
100
AcDbLine
 62
7
  6
CONTINUOUS
 10
11.4270299093
 20
9.5979134856
 11
11.4273363785
 21
9.5988113874
  0
LINE
  5
2A5
100
AcDbEntity
  8
0
100
AcDbLine
 62
7
  6
CONTINUOUS
 10
11.4273363785
 20
9.5988113874
 11
11.4275862648
 21
9.5995267733
  0
LINE
  5
2A6
100
AcDbEntity
  8
0
100
AcDbLine
 62
7
  6
CONTINUOUS
 10
11.4275897762
 20
9.5995367687
 11
11.4276759396
 21
9.5997800695
  0
LINE
  5
2A7
100
AcDbEntity
  8
0
100
AcDbLine
 62
7
  6
CONTINUOUS
 10
11.4275862648
 20
9.5995267733
 11
11.4280371421
 21
9.6007823112
  0
LWPOLYLINE
  5
2A8
100
AcDbEntity
  8
0
100
AcDbPolyline
 62
7
  6
CONTINUOUS
 90
37
 70
0
 10
11.4280371421
 20
9.6007823112
 10
11.4282295938
 20
9.6013052172
 10
11.4284601153
 20
9.6019219062
 10
11.4287154828
 20
9.6025932944
 10
11.4289872684
 20
9.6032948777
 10
11.4292743521
 20
9.6040221143
 10
11.4295765338
 20
9.6047729813
 10
11.4298930892
 20
9.605544275
 10
11.4302227396
 20
9.6063316684
 10
11.4305637972
 20
9.6071301765
 10
11.4309153997
 20
9.6079370483
 10
11.4312795245
 20
9.6087560487
 10
11.4316572315
 20
9.6095886214
 10
11.4320495801
 20
9.6104360614
 10
11.4324576824
 20
9.6112996341
 10
11.4328827042
 20
9.6121805686
 10
11.4333258619
 20
9.6130800475
 10
11.4337880467
 20
9.6139984594
 10
11.4342694092
 20
9.614934675
 10
11.4347699885
 20
9.6158873872
 10
11.4352897967
 20
9.616855291
 10
11.4358288168
 20
9.6178370836
 10
11.4363870136
 20
9.6188314878
 10
11.4369645309
 20
9.6198375937
 10
11.4375616746
 20
9.6208547937
 10
11.4381787492
 20
9.621882481
 10
11.4388160517
 20
9.6229200405
 10
11.4394738709
 20
9.6239668483
 10
11.440152487
 20
9.6250222724
 10
11.4408521705
 20
9.6260856724
 10
11.4415731825
 20
9.6271563999
 10
11.4423157732
 20
9.628233799
 10
11.4430801819
 20
9.629317206
 10
11.4438667776
 20
9.6304061436
 10
11.4446763829
 20
9.631500731
 10
11.445509936
 20
9.6326011728
 10
11.4463684049
 20
9.6337076327
  0
LINE
  5
2A9
100
AcDbEntity
  8
0
100
AcDbLine
 62
7
  6
CONTINUOUS
 10
11.4453780695
 20
9.6324349587
 11
11.4457344549
 21
9.6328992279
  0
LINE
  5
2AA
100
AcDbEntity
  8
0
100
AcDbLine
 62
7
  6
CONTINUOUS
 10
11.4462034859
 20
9.6335031535
 11
11.446595596
 21
9.6340019882
  0
LWPOLYLINE
  5
2AB
100
AcDbEntity
  8
0
100
AcDbPolyline
 62
7
  6
CONTINUOUS
 90
9
 70
0
 10
11.4463684049
 20
9.6337076327
 10
11.447252787
 20
9.6348202319
 10
11.4481641088
 20
9.6359390463
 10
11.4491034262
 20
9.6370641046
 10
11.4500718234
 20
9.6381953862
 10
11.4510704133
 20
9.6393328181
 10
11.4521003367
 20
9.6404762729
 10
11.4531627619
 20
9.6416255658
 10
11.4542588839
 20
9.642780452
  0
LINE
  5
2AC
100
AcDbEntity
  8
0
100
AcDbLine
 62
7
  6
CONTINUOUS
 10
11.4445593193
 20
9.631345215
 11
11.445369025
 21
9.6323606131
  0
LINE
  5
2AD
100
AcDbEntity
  8
0
100
AcDbLine
 62
7
  6
CONTINUOUS
 10
11.4471648298
 20
9.6347165961
 11
11.4476296485
 21
9.6352919266
  0
LINE
  5
2AE
100
AcDbEntity
  8
0
100
AcDbLine
 62
7
  6
CONTINUOUS
 10
11.4479591964
 20
9.635695461
 11
11.4483053757
 21
9.6361155324
  0
LINE
  5
2AF
100
AcDbEntity
  8
0
100
AcDbLine
 62
7
  6
CONTINUOUS
 10
11.4490496451
 20
9.6370056807
 11
11.4494486447
 21
9.6374757541
  0
LINE
  5
2B0
100
AcDbEntity
  8
0
100
AcDbLine
 62
7
  6
CONTINUOUS
 10
11.4498658216
 20
9.6379620453
 11
11.4503012597
 21
9.638464061
  0
LINE
  5
2B1
100
AcDbEntity
  8
0
100
AcDbLine
 62
7
  6
CONTINUOUS
 10
11.4509889134
 20
9.6392455435
 11
11.4514723571
 21
9.6397868487
  0
LINE
  5
2B2
100
AcDbEntity
  8
0
100
AcDbLine
 62
7
  6
CONTINUOUS
 10
11.4519799026
 20
9.6403481094
 11
11.4525154571
 21
9.6409326966
  0
LINE
  5
2B3
100
AcDbEntity
  8
0
100
AcDbLine
 62
7
  6
CONTINUOUS
 10
11.4530818861
 20
9.6415426245
 11
11.4536757837
 21
9.6421731047
  0
LINE
  5
2B4
100
AcDbEntity
  8
0
100
AcDbLine
 62
7
  6
CONTINUOUS
 10
11.4539808549
 20
9.6424934428
 11
11.4546034797
 21
9.6431399434
  0
LWPOLYLINE
  5
2B5
100
AcDbEntity
  8
0
100
AcDbPolyline
 62
7
  6
CONTINUOUS
 90
3
 70
0
 10
11.4546034797
 20
9.6431399434
 10
11.4552367951
 20
9.6437877066
 10
11.4555527004
 20
9.6441071792
  0
LINE
  5
2B6
100
AcDbEntity
  8
0
100
AcDbLine
 62
7
  6
CONTINUOUS
 10
11.8569311583
 20
10.0454869614
 11
11.4543904379
 21
9.642946085
  0
LINE
  5
2B7
100
AcDbEntity
  8
0
100
AcDbLine
 62
7
  6
CONTINUOUS
 10
10.5618442578
 20
8.750400061
 11
10.1598748834
 21
8.3484306866
  0
LWPOLYLINE
  5
2B8
100
AcDbEntity
  8
0
100
AcDbPolyline
 62
7
  6
CONTINUOUS
 90
3
 70
0
 10
10.563449806
 20
8.7519287166
 10
10.5634776706
 20
8.7519557636
 10
10.5666182875
 20
8.7548115645
  0
LWPOLYLINE
  5
2B9
100
AcDbEntity
  8
0
100
AcDbPolyline
 62
7
  6
CONTINUOUS
 90
11
 70
0
 10
10.5619235038
 20
8.7503166134
 10
10.5656797053
 20
8.7538836898
 10
10.5726730907
 20
8.7597207473
 10
10.5793542047
 20
8.7645188045
 10
10.585473867
 20
8.7683396365
 10
10.5911030847
 20
8.771422828
 10
10.5963130437
 20
8.7739397714
 10
10.6011527939
 20
8.776007858
 10
10.6056719096
 20
8.7777170982
 10
10.6098750348
 20
8.7791230326
 10
10.6135503058
 20
8.7802121637
  0
LWPOLYLINE
  5
2BA
100
AcDbEntity
  8
0
100
AcDbPolyline
 62
7
  6
CONTINUOUS
 90
3
 70
0
 10
10.5660961736
 20
8.7543465627
 10
10.5662441406
 20
8.7544838321
 10
10.569893894
 20
8.7575856288
  0
LWPOLYLINE
  5
2BB
100
AcDbEntity
  8
0
100
AcDbPolyline
 62
7
  6
CONTINUOUS
 90
6
 70
0
 10
10.5634494077
 20
8.7519291269
 10
10.5649998336
 20
8.753365244
 10
10.5664737828
 20
8.7546845555
 10
10.5678765048
 20
8.7559003109
 10
10.5692141931
 20
8.7570249727
 10
10.5704937429
 20
8.758070177
  0
LINE
  5
2BC
100
AcDbEntity
  8
0
100
AcDbLine
 62
7
  6
CONTINUOUS
 10
10.56983514
 20
8.7575358642
 11
10.5731400587
 21
8.7601428474
  0
LWPOLYLINE
  5
2BD
100
AcDbEntity
  8
0
100
AcDbPolyline
 62
7
  6
CONTINUOUS
 90
3
 70
0
 10
10.5717205425
 20
8.7590451514
 10
10.572898535
 20
8.7599571007
 10
10.5740318193
 20
8.7608126674
  0
LINE
  5
2BE
100
AcDbEntity
  8
0
100
AcDbLine
 62
7
  6
CONTINUOUS
 10
10.5730698233
 20
8.7600877688
 11
10.576258724
 21
8.7624338262
  0
LWPOLYLINE
  5
2BF
100
AcDbEntity
  8
0
100
AcDbPolyline
 62
7
  6
CONTINUOUS
 90
3
 70
0
 10
10.5751235877
 20
8.7616172354
 10
10.5761767476
 20
8.7623755244
 10
10.5771943535
 20
8.7630919694
  0
LWPOLYLINE
  5
2C0
100
AcDbEntity
  8
0
100
AcDbPolyline
 62
7
  6
CONTINUOUS
 90
4
 70
0
 10
10.5760665286
 20
8.7622984924
 10
10.5793340323
 20
8.7645478661
 10
10.5822252883
 20
8.7664106843
 10
10.5849003778
 20
8.7680323987
  0
LINE
  5
2C1
100
AcDbEntity
  8
0
100
AcDbLine
 62
7
  6
CONTINUOUS
 10
10.5781787795
 20
8.7637701905
 11
10.5791319721
 21
8.7644132486
  0
LWPOLYLINE
  5
2C2
100
AcDbEntity
  8
0
100
AcDbPolyline
 62
7
  6
CONTINUOUS
 90
4
 70
0
 10
10.5787323399
 20
8.7641466759
 10
10.5811816126
 20
8.7657530693
 10
10.5834474519
 20
8.7671646835
 10
10.5855564344
 20
8.7684169018
  0
LINE
  5
2C3
100
AcDbEntity
  8
0
100
AcDbLine
 62
7
  6
CONTINUOUS
 10
10.5809528408
 20
8.7656052874
 11
10.5818239484
 21
8.7661590671
  0
LINE
  5
2C4
100
AcDbEntity
  8
0
100
AcDbLine
 62
7
  6
CONTINUOUS
 10
10.5826706834
 20
8.7666873482
 11
10.5834944807
 21
8.7671919995
  0
LINE
  5
2C5
100
AcDbEntity
  8
0
100
AcDbLine
 62
7
  6
CONTINUOUS
 10
10.5850785789
 20
8.7681370708
 11
10.5858408482
 21
8.7685801768
  0
LINE
  5
2C6
100
AcDbEntity
  8
0
100
AcDbLine
 62
7
  6
CONTINUOUS
 10
10.5849003778
 20
8.7680323987
 11
10.5875288259
 21
8.7695361436
  0
LWPOLYLINE
  5
2C7
100
AcDbEntity
  8
0
100
AcDbPolyline
 62
7
  6
CONTINUOUS
 90
3
 70
0
 10
10.5865845375
 20
8.7690053055
 10
10.5873106478
 20
8.7694136295
 10
10.5880201192
 20
8.7698062246
  0
LWPOLYLINE
  5
2C8
100
AcDbEntity
  8
0
100
AcDbPolyline
 62
7
  6
CONTINUOUS
 90
5
 70
0
 10
10.5873998193
 20
8.7694633183
 10
10.5897517093
 20
8.7707384113
 10
10.591969252
 20
8.7718795662
 10
10.5940657155
 20
8.7729056077
 10
10.5960548414
 20
8.7738330094
  0
LWPOLYLINE
  5
2C9
100
AcDbEntity
  8
0
100
AcDbPolyline
 62
7
  6
CONTINUOUS
 90
3
 70
0
 10
10.5887136242
 20
8.7701839651
 10
10.5893918001
 20
8.7705476628
 10
10.5900553059
 20
8.7708981007
  0
LWPOLYLINE
  5
2CA
100
AcDbEntity
  8
0
100
AcDbPolyline
 62
7
  6
CONTINUOUS
 90
4
 70
0
 10
10.5893820277
 20
8.7705435197
 10
10.5911292286
 20
8.7714551428
 10
10.5927825507
 20
8.7722845721
 10
10.5943512023
 20
8.7730423553
  0
LINE
  5
2CB
100
AcDbEntity
  8
0
100
AcDbLine
 62
7
  6
CONTINUOUS
 10
10.5937627361
 20
8.7727604391
 11
10.5943396229
 21
8.7730359508
  0
LINE
  5
2CC
100
AcDbEntity
  8
0
100
AcDbLine
 62
7
  6
CONTINUOUS
 10
10.5954623752
 20
8.7735614038
 11
10.596008962
 21
8.7738121158
  0
LINE
  5
2CD
100
AcDbEntity
  8
0
100
AcDbLine
 62
7
  6
CONTINUOUS
 10
10.5958439981
 20
8.7737376697
 11
10.5979475639
 21
8.7746748366
  0
LINE
  5
2CE
100
AcDbEntity
  8
0
100
AcDbLine
 62
7
  6
CONTINUOUS
 10
10.5970740307
 20
8.7742911767
 11
10.5975931149
 21
8.7745201595
  0
LWPOLYLINE
  5
2CF
100
AcDbEntity
  8
0
100
AcDbPolyline
 62
7
  6
CONTINUOUS
 90
3
 70
0
 10
10.5972674625
 20
8.7743776806
 10
10.5986269426
 20
8.7749683173
 10
10.5999279751
 20
8.7755150103
  0
LINE
  5
2D0
100
AcDbEntity
  8
0
100
AcDbLine
 62
7
  6
CONTINUOUS
 10
10.5995869438
 20
8.7753726768
 11
10.6005380395
 21
8.7757644416
  0
LWPOLYLINE
  5
2D1
100
AcDbEntity
  8
0
100
AcDbPolyline
 62
7
  6
CONTINUOUS
 90
4
 70
0
 10
10.5997522814
 20
8.7754414664
 10
10.6014771983
 20
8.7761419806
 10
10.6031286154
 20
8.7767836948
 10
10.6047127101
 20
8.777373092
  0
LINE
  5
2D2
100
AcDbEntity
  8
0
100
AcDbLine
 62
7
  6
CONTINUOUS
 10
10.6010029279
 20
8.7759524755
 11
10.6019125335
 21
8.7763138726
  0
LINE
  5
2D3
100
AcDbEntity
  8
0
100
AcDbLine
 62
7
  6
CONTINUOUS
 10
10.6011759617
 20
8.7760226166
 11
10.6023764216
 21
8.7764955835
  0
LINE
  5
2D4
100
AcDbEntity
  8
0
100
AcDbLine
 62
7
  6
CONTINUOUS
 10
10.6044945212
 20
8.7772934156
 11
10.6057159556
 21
8.7777339262
  0
LINE
  5
2D5
100
AcDbEntity
  8
0
100
AcDbLine
 62
7
  6
CONTINUOUS
 10
10.6047127101
 20
8.777373092
 11
10.6062351597
 21
8.7779157933
  0
LINE
  5
2D6
100
AcDbEntity
  8
0
100
AcDbLine
 62
7
  6
CONTINUOUS
 10
10.6057159556
 20
8.7777339262
 11
10.6068746715
 21
8.7781368941
  0
LWPOLYLINE
  5
2D7
100
AcDbEntity
  8
0
100
AcDbPolyline
 62
7
  6
CONTINUOUS
 90
3
 70
0
 10
10.6062351597
 20
8.7779157933
 10
10.6076999149
 20
8.7784162627
 10
10.6091108366
 20
8.7788785127
  0
LINE
  5
2D8
100
AcDbEntity
  8
0
100
AcDbLine
 62
7
  6
CONTINUOUS
 10
10.6087237933
 20
8.7787536309
 11
10.6094364146
 21
8.7789824423
  0
LWPOLYLINE
  5
2D9
100
AcDbEntity
  8
0
100
AcDbPolyline
 62
7
  6
CONTINUOUS
 90
3
 70
0
 10
10.6091108366
 20
8.7788785127
 10
10.6104718886
 20
8.7793062119
 10
10.6117864786
 20
8.7797025211
  0
LINE
  5
2DA
100
AcDbEntity
  8
0
100
AcDbLine
 62
7
  6
CONTINUOUS
 10
10.6101367945
 20
8.7792025597
 11
10.6108271786
 21
8.7794149406
  0
LINE
  5
2DB
100
AcDbEntity
  8
0
100
AcDbLine
 62
7
  6
CONTINUOUS
 10
11.2545377691
 20
9.7533413199
 11
11.2540208448
 21
9.7532328843
  0
LINE
  5
2DC
100
AcDbEntity
  8
0
100
AcDbLine
 62
7
  6
CONTINUOUS
 10
11.2540208448
 20
9.7532328843
 11
11.2532899962
 21
9.7530837454
  0
LINE
  5
2DD
100
AcDbEntity
  8
0
100
AcDbLine
 62
7
  6
CONTINUOUS
 10
10.9545673427
 20
9.5220445021
 11
10.9208173427
 21
9.5220445021
  0
LINE
  5
2DE
100
AcDbEntity
  8
0
100
AcDbLine
 62
7
  6
CONTINUOUS
 10
10.9051923427
 20
9.5376695021
 11
10.9701923427
 21
9.5376695021
  0
LINE
  5
2DF
100
AcDbEntity
  8
0
100
AcDbLine
 62
7
  6
CONTINUOUS
 10
10.6083763584
 20
9.7566986257
 11
10.6073914808
 21
9.7570262473
  0
LINE
  5
2E0
100
AcDbEntity
  8
0
100
AcDbLine
 62
7
  6
CONTINUOUS
 10
10.6073914808
 20
9.7570262473
 11
10.606497349
 21
9.7573319135
  0
LINE
  5
2E1
100
AcDbEntity
  8
0
100
AcDbLine
 62
7
  6
CONTINUOUS
 10
10.606497349
 20
9.7573319135
 11
10.6057897798
 21
9.757579399
  0
LINE
  5
2E2
100
AcDbEntity
  8
0
100
AcDbLine
 62
7
  6
CONTINUOUS
 10
10.6058386447
 20
9.7575622125
 11
10.6055764965
 21
9.757654975
  0
LINE
  5
2E3
100
AcDbEntity
  8
0
100
AcDbLine
 62
7
  6
CONTINUOUS
 10
10.6057028471
 20
9.7576101797
 11
10.6047135209
 21
9.7579654318
  0
LWPOLYLINE
  5
2E4
100
AcDbEntity
  8
0
100
AcDbPolyline
 62
7
  6
CONTINUOUS
 90
37
 70
0
 10
10.6047135209
 20
9.7579654318
 10
10.6042194879
 20
9.7581465179
 10
10.6036228201
 20
9.7583685102
 10
10.6029588062
 20
9.7586198097
 10
10.6022605409
 20
9.7588889339
 10
10.6015356638
 20
9.7591736256
 10
10.6007862429
 20
9.7594736886
 10
10.6000151725
 20
9.7597885512
 10
10.5992266187
 20
9.7601170397
 10
10.5984255221
 20
9.7604575296
 10
10.5976160795
 20
9.7608085683
 10
10.5967951078
 20
9.761171865
 10
10.5959607036
 20
9.7615486703
 10
10.5951115432
 20
9.7619400502
 10
10.594246331
 20
9.7623471253
 10
10.5933638076
 20
9.7627710703
 10
10.5924627546
 20
9.7632131153
 10
10.5915424627
 20
9.7636743116
 10
10.590603897
 20
9.7641549068
 10
10.589648388
 20
9.7646549457
 10
10.5886772648
 20
9.765174446
 10
10.5876918539
 20
9.7657133961
 10
10.5866934703
 20
9.7662717577
 10
10.5856831291
 20
9.7668496309
 10
10.5846614636
 20
9.7674473194
 10
10.5836290903
 20
9.7680651343
 10
10.5825866341
 20
9.7687033793
 10
10.5815347291
 20
9.7693623496
 10
10.5804740176
 20
9.7700423317
 10
10.5794051507
 20
9.7707436027
 10
10.5783287872
 20
9.7714664295
 10
10.5772455944
 20
9.7722110682
 10
10.5761562472
 20
9.7729777639
 10
10.5750612817
 20
9.7737668561
 10
10.5739606197
 20
9.7745791467
 10
10.5728540494
 20
9.7754155884
 10
10.5717414001
 20
9.7762771641
  0
LINE
  5
2E5
100
AcDbEntity
  8
0
100
AcDbLine
 62
7
  6
CONTINUOUS
 10
10.5729759201
 20
9.7753178001
 11
10.5724854369
 21
9.7756940126
  0
LINE
  5
2E6
100
AcDbEntity
  8
0
100
AcDbLine
 62
7
  6
CONTINUOUS
 10
10.5718857696
 20
9.7761594825
 11
10.5713930808
 21
9.7765465063
  0
LWPOLYLINE
  5
2E7
100
AcDbEntity
  8
0
100
AcDbPolyline
 62
7
  6
CONTINUOUS
 90
9
 70
0
 10
10.5717414001
 20
9.7762771641
 10
10.5706225451
 20
9.777164887
 10
10.5694974034
 20
9.7780798001
 10
10.5683659422
 20
9.7790229764
 10
10.5672281794
 20
9.7799955183
 10
10.5660841862
 20
9.7809985573
 10
10.5649340894
 20
9.7820332534
 10
10.5637780744
 20
9.7831007952
 10
10.5626163881
 20
9.7842023982
  0
LINE
  5
2E8
100
AcDbEntity
  8
0
100
AcDbLine
 62
7
  6
CONTINUOUS
 10
10.5740164739
 20
9.7745365963
 11
10.573000492
 21
9.7753467678
  0
LINE
  5
2E9
100
AcDbEntity
  8
0
100
AcDbLine
 62
7
  6
CONTINUOUS
 10
10.5706978197
 20
9.7770998083
 11
10.5701517185
 21
9.7775403614
  0
LINE
  5
2EA
100
AcDbEntity
  8
0
100
AcDbLine
 62
7
  6
CONTINUOUS
 10
10.5695868317
 20
9.7780016687
 11
10.5690050918
 21
9.7784827793
  0
LINE
  5
2EB
100
AcDbEntity
  8
0
100
AcDbLine
 62
7
  6
CONTINUOUS
 10
10.56860885
 20
9.7788140371
 11
10.5682063726
 21
9.7791534963
  0
LINE
  5
2EC
100
AcDbEntity
  8
0
100
AcDbLine
 62
7
  6
CONTINUOUS
 10
10.5673793901
 20
9.7798605889
 11
10.5669526348
 21
9.7802306046
  0
LINE
  5
2ED
100
AcDbEntity
  8
0
100
AcDbLine
 62
7
  6
CONTINUOUS
 10
10.566292816
 20
9.7808096956
 11
10.5658382491
 21
9.7812136668
  0
LINE
  5
2EE
100
AcDbEntity
  8
0
100
AcDbLine
 62
7
  6
CONTINUOUS
 10
10.5651311019
 20
9.7818503942
 11
10.5646399265
 21
9.7822986962
  0
LINE
  5
2EF
100
AcDbEntity
  8
0
100
AcDbLine
 62
7
  6
CONTINUOUS
 10
10.5638685868
 20
9.7830129053
 11
10.5633290671
 21
9.7835200124
  0
LINE
  5
2F0
100
AcDbEntity
  8
0
100
AcDbLine
 62
7
  6
CONTINUOUS
 10
10.5627689694
 20
9.7840531685
 11
10.562187823
 21
9.7846137192
  0
LWPOLYLINE
  5
2F1
100
AcDbEntity
  8
0
100
AcDbPolyline
 62
7
  6
CONTINUOUS
 90
3
 70
0
 10
10.562187823
 20
9.7846137192
 10
10.5615877322
 20
9.785200565
 10
10.5612826329
 20
9.7855021099
  0
LINE
  5
2F2
100
AcDbEntity
  8
0
100
AcDbLine
 62
7
  6
CONTINUOUS
 10
10.1598748834
 20
10.1869083177
 11
10.5624158232
 21
9.7843675342
  0
LINE
  5
2F3
100
AcDbEntity
  8
0
100
AcDbLine
 62
7
  6
CONTINUOUS
 10
11.4549617839
 20
8.8918214172
 11
11.8569311583
 21
8.4898520428
  0
LINE
  5
2F4
100
AcDbEntity
  8
0
100
AcDbLine
 62
7
  6
CONTINUOUS
 10
11.4549771637
 20
8.8918363444
 11
11.4536977224
 21
8.8931545753
  0
LWPOLYLINE
  5
2F5
100
AcDbEntity
  8
0
100
AcDbPolyline
 62
7
  6
CONTINUOUS
 90
12
 70
0
 10
11.4550424371
 20
8.8918985675
 10
11.4520578635
 20
8.895018651
 10
11.4466225321
 20
8.9013959853
 10
11.4420448198
 20
8.907564468
 10
11.4383085242
 20
8.913297483
 10
11.4352574781
 20
8.9185846438
 10
11.432727249
 20
8.9235083876
 10
11.4306183811
 20
8.92810179
 10
11.4288498539
 20
8.9324066813
 10
11.4273627373
 20
8.9364518965
 10
11.426120493
 20
8.9402312689
 10
11.4251450168
 20
8.943544197
  0
LINE
  5
2F6
100
AcDbEntity
  8
0
100
AcDbLine
 62
7
  6
CONTINUOUS
 10
11.4536977224
 20
8.8931545753
 11
11.4529216099
 21
8.8939720967
  0
LWPOLYLINE
  5
2F7
100
AcDbEntity
  8
0
100
AcDbPolyline
 62
7
  6
CONTINUOUS
 90
4
 70
0
 10
11.4533987588
 20
8.8934626027
 10
11.4505399138
 20
8.8966072622
 10
11.4478131236
 20
8.899828036
 10
11.4452593516
 20
8.9030663246
  0
LINE
  5
2F8
100
AcDbEntity
  8
0
100
AcDbLine
 62
7
  6
CONTINUOUS
 10
11.4514475167
 20
8.8955845049
 11
11.4500882056
 21
8.8971251455
  0
LWPOLYLINE
  5
2F9
100
AcDbEntity
  8
0
100
AcDbPolyline
 62
7
  6
CONTINUOUS
 90
7
 70
0
 10
11.4516205792
 20
8.8953899014
 10
11.4460549906
 20
8.9020305041
 10
11.4419627904
 20
8.9076125287
 10
11.4388058512
 20
8.9124337716
 10
11.4362883678
 20
8.9166800885
 10
11.4342315725
 20
8.9204756867
 10
11.4325201279
 20
8.9239073303
  0
LWPOLYLINE
  5
2FA
100
AcDbEntity
  8
0
100
AcDbPolyline
 62
7
  6
CONTINUOUS
 90
5
 70
0
 10
11.4488303655
 20
8.8985995096
 10
11.4476615184
 20
8.9000140066
 10
11.4465713177
 20
8.9013741253
 10
11.445551923
 20
8.9026835233
 10
11.4445961022
 20
8.9039460942
  0
LWPOLYLINE
  5
2FB
100
AcDbEntity
  8
0
100
AcDbPolyline
 62
7
  6
CONTINUOUS
 90
3
 70
0
 10
11.4438808617
 20
8.9049118913
 10
11.4428517204
 20
8.9063433842
 10
11.4420532093
 20
8.9074837241
  0
LINE
  5
2FC
100
AcDbEntity
  8
0
100
AcDbLine
 62
7
  6
CONTINUOUS
 10
11.4431016819
 20
8.9059899986
 11
11.4424094631
 21
8.906969362
  0
LWPOLYLINE
  5
2FD
100
AcDbEntity
  8
0
100
AcDbPolyline
 62
7
  6
CONTINUOUS
 90
5
 70
0
 10
11.4429120902
 20
8.9062583052
 10
11.4407975244
 20
8.9093359505
 10
11.4389348242
 20
8.912228627
 10
11.4373133325
 20
8.9149049246
 10
11.4358825397
 20
8.9174057069
  0
LINE
  5
2FE
100
AcDbEntity
  8
0
100
AcDbLine
 62
7
  6
CONTINUOUS
 10
11.4417877701
 20
8.9078670048
 11
11.4412244711
 21
8.9086956889
  0
LINE
  5
2FF
100
AcDbEntity
  8
0
100
AcDbLine
 62
7
  6
CONTINUOUS
 10
11.4412979617
 20
8.9085888313
 11
11.4405825852
 21
8.9096605967
  0
LINE
  5
300
100
AcDbEntity
  8
0
100
AcDbLine
 62
7
  6
CONTINUOUS
 10
11.4393948277
 20
8.9114950558
 11
11.4386451909
 21
8.912695277
  0
LINE
  5
301
100
AcDbEntity
  8
0
100
AcDbLine
 62
7
  6
CONTINUOUS
 10
11.439016376
 20
8.9120960193
 11
11.4386621026
 21
8.9126658351
  0
LINE
  5
302
100
AcDbEntity
  8
0
100
AcDbLine
 62
7
  6
CONTINUOUS
 10
11.4386621026
 20
8.9126658351
 11
11.4380604234
 21
8.9136522446
  0
LINE
  5
303
100
AcDbEntity
  8
0
100
AcDbLine
 62
7
  6
CONTINUOUS
 10
11.4375026431
 20
8.9145842087
 11
11.4369177696
 21
8.9155804679
  0
LINE
  5
304
100
AcDbEntity
  8
0
100
AcDbLine
 62
7
  6
CONTINUOUS
 10
11.4364604636
 20
8.9163787577
 11
11.4359728797
 21
8.9172436108
  0
LINE
  5
305
100
AcDbEntity
  8
0
100
AcDbLine
 62
7
  6
CONTINUOUS
 10
11.436011728
 20
8.9171720734
 11
11.4355058253
 21
8.9180880798
  0
LINE
  5
306
100
AcDbEntity
  8
0
100
AcDbLine
 62
7
  6
CONTINUOUS
 10
11.4356126664
 20
8.9178914781
 11
11.4350580235
 21
8.9189131247
  0
LINE
  5
307
100
AcDbEntity
  8
0
100
AcDbLine
 62
7
  6
CONTINUOUS
 10
11.4350697593
 20
8.9188893112
 11
11.4346282496
 21
8.9197197453
  0
LINE
  5
308
100
AcDbEntity
  8
0
100
AcDbLine
 62
7
  6
CONTINUOUS
 10
11.434739738
 20
8.9195070855
 11
11.4342153928
 21
8.9205088561
  0
LINE
  5
309
100
AcDbEntity
  8
0
100
AcDbLine
 62
7
  6
CONTINUOUS
 10
11.4344290719
 20
8.9200966836
 11
11.43413256
 21
8.9206669406
  0
LWPOLYLINE
  5
30A
100
AcDbEntity
  8
0
100
AcDbPolyline
 62
7
  6
CONTINUOUS
 90
3
 70
0
 10
11.4346076232
 20
8.9197588332
 10
11.4334666811
 20
8.9219775228
 10
11.4324408695
 20
8.9240750764
  0
LINE
  5
30B
100
AcDbEntity
  8
0
100
AcDbLine
 62
7
  6
CONTINUOUS
 10
11.4338476254
 20
8.9212220712
 11
11.4334368233
 21
8.9220371408
  0
LINE
  5
30C
100
AcDbEntity
  8
0
100
AcDbLine
 62
7
  6
CONTINUOUS
 10
11.4327155447
 20
8.923503195
 11
11.4323135022
 21
8.9243409909
  0
LINE
  5
30D
100
AcDbEntity
  8
0
100
AcDbLine
 62
7
  6
CONTINUOUS
 10
11.4323744214
 20
8.9242145966
 11
11.4319611287
 21
8.9250910526
  0
LINE
  5
30E
100
AcDbEntity
  8
0
100
AcDbLine
 62
7
  6
CONTINUOUS
 10
11.4317315865
 20
8.9255870205
 11
11.431421339
 21
8.9262688597
  0
LINE
  5
30F
100
AcDbEntity
  8
0
100
AcDbLine
 62
7
  6
CONTINUOUS
 10
11.4315062644
 20
8.9260797196
 11
11.4311252568
 21
8.926928416
  0
LINE
  5
310
100
AcDbEntity
  8
0
100
AcDbLine
 62
7
  6
CONTINUOUS
 10
11.4315137
 20
8.9260652682
 11
11.4306721241
 21
8.927958996
  0
LINE
  5
311
100
AcDbEntity
  8
0
100
AcDbLine
 62
7
  6
CONTINUOUS
 10
11.43085495
 20
8.9275381417
 11
11.4305427525
 21
8.9282562595
  0
LINE
  5
312
100
AcDbEntity
  8
0
100
AcDbLine
 62
7
  6
CONTINUOUS
 10
11.4310754843
 20
8.9270384555
 11
11.4299057546
 21
8.9297646795
  0
LINE
  5
313
100
AcDbEntity
  8
0
100
AcDbLine
 62
7
  6
CONTINUOUS
 10
11.4302947606
 20
8.9288378687
 11
11.4299441909
 21
8.9296702798
  0
LINE
  5
314
100
AcDbEntity
  8
0
100
AcDbLine
 62
7
  6
CONTINUOUS
 10
11.4295636069
 20
8.9305965113
 11
11.4292875117
 21
8.9312825619
  0
LINE
  5
315
100
AcDbEntity
  8
0
100
AcDbLine
 62
7
  6
CONTINUOUS
 10
11.4293064012
 20
8.9312370566
 11
11.4290192024
 21
8.9319612336
  0
LINE
  5
316
100
AcDbEntity
  8
0
100
AcDbLine
 62
7
  6
CONTINUOUS
 10
11.4292055105
 20
8.931490521
 11
11.4285640763
 21
8.9331428187
  0
LINE
  5
317
100
AcDbEntity
  8
0
100
AcDbLine
 62
7
  6
CONTINUOUS
 10
11.4286732314
 20
8.9328546731
 11
11.4284335501
 21
8.9334881498
  0
LINE
  5
318
100
AcDbEntity
  8
0
100
AcDbLine
 62
7
  6
CONTINUOUS
 10
11.4279444844
 20
8.9348099071
 11
11.4276585467
 21
8.9356084482
  0
LINE
  5
319
100
AcDbEntity
  8
0
100
AcDbLine
 62
7
  6
CONTINUOUS
 10
11.4279749617
 20
8.9347277696
 11
11.4274325511
 21
8.9362510354
  0
LINE
  5
31A
100
AcDbEntity
  8
0
100
AcDbLine
 62
7
  6
CONTINUOUS
 10
11.4270895315
 20
8.9372500702
 11
11.4270635782
 21
8.9373244037
  0
LINE
  5
31B
100
AcDbEntity
  8
0
100
AcDbLine
 62
7
  6
CONTINUOUS
 10
11.4274785505
 20
8.9361192933
 11
11.4273036862
 21
8.9366227548
  0
LINE
  5
31C
100
AcDbEntity
  8
0
100
AcDbLine
 62
7
  6
CONTINUOUS
 10
11.4274325511
 20
8.9362510354
 11
11.4269323804
 21
8.9377165655
  0
LINE
  5
31D
100
AcDbEntity
  8
0
100
AcDbLine
 62
7
  6
CONTINUOUS
 10
11.4269887206
 20
8.9375466482
 11
11.4267788091
 21
8.9381776634
  0
LINE
  5
31E
100
AcDbEntity
  8
0
100
AcDbLine
 62
7
  6
CONTINUOUS
 10
11.4266519556
 20
8.9385664373
 11
11.4263519661
 21
8.9395000611
  0
LINE
  5
31F
100
AcDbEntity
  8
0
100
AcDbLine
 62
7
  6
CONTINUOUS
 10
11.4264704312
 20
8.9391282371
 11
11.4260636033
 21
8.9404244789
  0
LINE
  5
320
100
AcDbEntity
  8
0
100
AcDbLine
 62
7
  6
CONTINUOUS
 10
11.4236381897
 20
8.9495651895
 11
11.423508936
 21
8.9501503202
  0
LINE
  5
321
100
AcDbEntity
  8
0
100
AcDbLine
 62
7
  6
CONTINUOUS
 10
11.423508936
 20
8.9501503202
 11
11.4233539087
 21
8.9508711807
  0
LINE
  5
322
100
AcDbEntity
  8
0
100
AcDbLine
 62
7
  6
CONTINUOUS
 10
11.4233655634
 20
8.9508174696
 11
11.4232738414
 21
8.9512521917
  0
LINE
  5
323
100
AcDbEntity
  8
0
100
AcDbLine
 62
7
  6
CONTINUOUS
 10
11.4232894598
 20
8.9511788747
 11
11.423175495
 21
8.9517312524
  0
LINE
  5
324
100
AcDbEntity
  8
0
100
AcDbLine
 62
7
  6
CONTINUOUS
 10
11.423175495
 20
8.9517312524
 11
11.4230425223
 21
8.952393165
  0
LINE
  5
325
100
AcDbEntity
  8
0
100
AcDbLine
 62
7
  6
CONTINUOUS
 10
12.0941929939
 20
10.8801695021
 11
12.0485769602
 21
10.6827444699
  0
LINE
  5
326
100
AcDbEntity
  8
0
100
AcDbLine
 62
7
  6
CONTINUOUS
 10
12.0705782624
 20
10.6551695021
 11
12.1166343259
 21
10.8357268679
  0
LINE
  5
327
100
AcDbEntity
  8
0
100
AcDbLine
 62
7
  6
CONTINUOUS
 10
11.6957532462
 20
9.2676695021
 11
11.4700475069
 21
8.8767356942
  0
LINE
  5
328
100
AcDbEntity
  8
0
100
AcDbLine
 62
7
  6
CONTINUOUS
 10
11.3665198889
 20
8.6974205998
 11
11.3167227945
 21
8.6111695021
  0
LINE
  5
329
100
AcDbEntity
  8
0
100
AcDbLine
 62
7
  6
CONTINUOUS
 10
11.2532899962
 20
9.7530837454
 11
11.2524214525
 21
9.7529126785
  0
LWPOLYLINE
  5
32A
100
AcDbEntity
  8
0
100
AcDbPolyline
 62
7
  6
CONTINUOUS
 90
5
 70
0
 10
11.2524214525
 20
9.7529126785
 10
11.2514510847
 20
9.75272942
 10
11.2509198335
 20
9.7526325889
 10
11.2503702504
 20
9.7525350118
 10
11.249831948
 20
9.7524419895
  0
LINE
  5
32B
100
AcDbEntity
  8
0
100
AcDbLine
 62
7
  6
CONTINUOUS
 10
11.249831948
 20
9.7524419895
 11
11.2488219291
 21
9.7522742442
  0
LINE
  5
32C
100
AcDbEntity
  8
0
100
AcDbLine
 62
7
  6
CONTINUOUS
 10
11.2488219291
 20
9.7522742442
 11
11.2478748392
 21
9.7521249725
  0
LINE
  5
32D
100
AcDbEntity
  8
0
100
AcDbLine
 62
7
  6
CONTINUOUS
 10
11.2478748392
 20
9.7521249725
 11
11.2469647186
 21
9.7519888145
  0
LINE
  5
32E
100
AcDbEntity
  8
0
100
AcDbLine
 62
7
  6
CONTINUOUS
 10
11.2469647186
 20
9.7519888145
 11
11.2460832709
 21
9.7518637301
  0
LINE
  5
32F
100
AcDbEntity
  8
0
100
AcDbLine
 62
7
  6
CONTINUOUS
 10
11.2460832709
 20
9.7518637301
 11
11.2452248851
 21
9.7517483136
  0
LWPOLYLINE
  5
330
100
AcDbEntity
  8
0
100
AcDbPolyline
 62
7
  6
CONTINUOUS
 90
80
 70
0
 10
10.6613756098
 20
9.7517470503
 10
10.6607402129
 20
9.751665203
 10
10.6602151555
 20
9.7516003298
 10
10.6596840877
 20
9.7515371025
 10
10.6591475393
 20
9.7514756582
 10
10.658605536
 20
9.7514160709
 10
10.6580581044
 20
9.7513584148
 10
10.6575052713
 20
9.7513027645
 10
10.6569470646
 20
9.7512491947
 10
10.6563835124
 20
9.7511977803
 10
10.6558146438
 20
9.7511485967
 10
10.6552404885
 20
9.7511017193
 10
10.6546610767
 20
9.7510572236
 10
10.6540764395
 20
9.7510151856
 10
10.6534866087
 20
9.7509756811
 10
10.6528916167
 20
9.7509387864
 10
10.6522914967
 20
9.7509045777
 10
10.6516862826
 20
9.7508731314
 10
10.6510760092
 20
9.750844524
 10
10.6504607118
 20
9.7508188322
 10
10.6498404268
 20
9.7507961325
 10
10.649215191
 20
9.7507765018
 10
10.6485850425
 20
9.7507600169
 10
10.6479500352
 20
9.7507467547
 10
10.647310253
 20
9.7507367925
 10
10.6466657835
 20
9.7507302065
 10
10.646016715
 20
9.7507270718
 10
10.645363137
 20
9.7507274625
 10
10.6447051396
 20
9.7507314515
 10
10.6440428136
 20
9.7507391105
 10
10.6433762508
 20
9.7507505102
 10
10.6427055437
 20
9.7507657198
 10
10.6420307855
 20
9.7507848075
 10
10.6413520704
 20
9.7508078399
 10
10.6406694932
 20
9.7508348826
 10
10.6399831494
 20
9.7508659996
 10
10.6392931354
 20
9.7509012536
 10
10.6385995482
 20
9.750940706
 10
10.6379024856
 20
9.7509844164
 10
10.6372020461
 20
9.7510324434
 10
10.6364981681
 20
9.751084856
 10
10.635790059
 20
9.751141787
 10
10.6350767214
 20
9.7512034071
 10
10.6343571611
 20
9.7512699121
 10
10.633630388
 20
9.7513415233
 10
10.6328954161
 20
9.751418488
 10
10.6321512648
 20
9.7515010802
 10
10.6313969588
 20
9.7515896012
 10
10.6306315288
 20
9.7516843803
 10
10.6298540128
 20
9.7517857759
 10
10.6290634563
 20
9.7518941764
 10
10.6282589133
 20
9.7520100008
 10
10.6274394475
 20
9.7521337002
 10
10.6266041331
 20
9.7522657587
 10
10.6257520566
 20
9.7524066944
 10
10.6248841749
 20
9.7525567325
 10
10.6240104149
 20
9.7527144266
 10
10.623143133
 20
9.7528775662
 10
10.6222898241
 20
9.7530445356
 10
10.6214533124
 20
9.7532144626
 10
10.6206362117
 20
9.7533864413
 10
10.6198411139
 20
9.7535595012
 10
10.6190697097
 20
9.7537328127
 10
10.6183207938
 20
9.7539061909
 10
10.6175925726
 20
9.7540796359
 10
10.6168832581
 20
9.7542532033
 10
10.6161910701
 20
9.7544270003
 10
10.6155142397
 20
9.7546011823
 10
10.6148510125
 20
9.7547759499
 10
10.6142000888
 20
9.7549514263
 10
10.6135613562
 20
9.7551274382
 10
10.6129348736
 20
9.7553037689
 10
10.612320684
 20
9.7554802078
 10
10.6117188213
 20
9.7556565484
 10
10.6111293234
 20
9.7558325852
 10
10.6105522492
 20
9.7560081082
 10
10.6099876267
 20
9.7561829186
 10
10.6094353835
 20
9.7563568517
 10
10.6088975628
 20
9.7565290645
 10
10.6083763584
 20
9.7566986257
  0
LINE
  5
331
100
AcDbEntity
  8
0
100
AcDbLine
 62
7
  6
CONTINUOUS
 10
11.2452248851
 20
9.7517483136
 11
11.2443839016
 21
9.7516413388
  0
LINE
  5
332
100
AcDbEntity
  8
0
100
AcDbLine
 62
7
  6
CONTINUOUS
 10
11.2443839016
 20
9.7516413388
 11
11.2435546443
 21
9.751541753
  0
LINE
  5
333
100
AcDbEntity
  8
0
100
AcDbLine
 62
7
  6
CONTINUOUS
 10
11.2435546443
 20
9.751541753
 11
11.2427332049
 21
9.7514488651
  0
LINE
  5
334
100
AcDbEntity
  8
0
100
AcDbLine
 62
7
  6
CONTINUOUS
 10
11.2427332049
 20
9.7514488651
 11
11.2419190167
 21
9.7513624397
  0
LINE
  5
335
100
AcDbEntity
  8
0
100
AcDbLine
 62
7
  6
CONTINUOUS
 10
11.2419190167
 20
9.7513624397
 11
11.2411118747
 21
9.7512822952
  0
LINE
  5
336
100
AcDbEntity
  8
0
100
AcDbLine
 62
7
  6
CONTINUOUS
 10
11.2411118747
 20
9.7512822952
 11
11.2403115696
 21
9.7512082574
  0
LINE
  5
337
100
AcDbEntity
  8
0
100
AcDbLine
 62
7
  6
CONTINUOUS
 10
11.2403115696
 20
9.7512082574
 11
11.2395178882
 21
9.7511401605
  0
LINE
  5
338
100
AcDbEntity
  8
0
100
AcDbLine
 62
7
  6
CONTINUOUS
 10
11.2395178882
 20
9.7511401605
 11
11.2387306144
 21
9.7510778461
  0
LINE
  5
339
100
AcDbEntity
  8
0
100
AcDbLine
 62
7
  6
CONTINUOUS
 10
11.2387306144
 20
9.7510778461
 11
11.2379495294
 21
9.7510211638
  0
LINE
  5
33A
100
AcDbEntity
  8
0
100
AcDbLine
 62
7
  6
CONTINUOUS
 10
11.2379495294
 20
9.7510211638
 11
11.2371744121
 21
9.7509699707
  0
LINE
  5
33B
100
AcDbEntity
  8
0
100
AcDbLine
 62
7
  6
CONTINUOUS
 10
11.2371744121
 20
9.7509699707
 11
11.2364050393
 21
9.7509241314
  0
LINE
  5
33C
100
AcDbEntity
  8
0
100
AcDbLine
 62
7
  6
CONTINUOUS
 10
11.2364050393
 20
9.7509241314
 11
11.235641186
 21
9.7508835181
  0
LINE
  5
33D
100
AcDbEntity
  8
0
100
AcDbLine
 62
7
  6
CONTINUOUS
 10
11.235641186
 20
9.7508835181
 11
11.2348826252
 21
9.7508480101
  0
LINE
  5
33E
100
AcDbEntity
  8
0
100
AcDbLine
 62
7
  6
CONTINUOUS
 10
11.2348826252
 20
9.7508480101
 11
11.2341291284
 21
9.750817494
  0
LINE
  5
33F
100
AcDbEntity
  8
0
100
AcDbLine
 62
7
  6
CONTINUOUS
 10
11.2341291284
 20
9.750817494
 11
11.2333804655
 21
9.7507918635
  0
LINE
  5
340
100
AcDbEntity
  8
0
100
AcDbLine
 62
7
  6
CONTINUOUS
 10
11.2333804655
 20
9.7507918635
 11
11.2326364051
 21
9.7507710193
  0
LINE
  5
341
100
AcDbEntity
  8
0
100
AcDbLine
 62
7
  6
CONTINUOUS
 10
11.2326364051
 20
9.7507710193
 11
11.2318967144
 21
9.750754869
  0
LINE
  5
342
100
AcDbEntity
  8
0
100
AcDbLine
 62
7
  6
CONTINUOUS
 10
11.2318967144
 20
9.750754869
 11
11.2311611596
 21
9.7507433269
  0
LINE
  5
343
100
AcDbEntity
  8
0
100
AcDbLine
 62
7
  6
CONTINUOUS
 10
11.2311611596
 20
9.7507433269
 11
11.2304295057
 21
9.7507363143
  0
LINE
  5
344
100
AcDbEntity
  8
0
100
AcDbLine
 62
7
  6
CONTINUOUS
 10
11.2304295057
 20
9.7507363143
 11
11.2297015167
 21
9.750733759
  0
LINE
  5
345
100
AcDbEntity
  8
0
100
AcDbLine
 62
7
  6
CONTINUOUS
 10
10.558661891
 20
9.9241695021
 11
11.3167227945
 21
9.9241695021
  0
LINE
  5
346
100
AcDbEntity
  8
0
100
AcDbLine
 62
7
  6
CONTINUOUS
 10
11.2297015167
 20
9.750733759
 11
11.228976956
 21
9.7507355952
  0
LINE
  5
347
100
AcDbEntity
  8
0
100
AcDbLine
 62
7
  6
CONTINUOUS
 10
11.228976956
 20
9.7507355952
 11
11.228255586
 21
9.7507417641
  0
LINE
  5
348
100
AcDbEntity
  8
0
100
AcDbLine
 62
7
  6
CONTINUOUS
 10
11.228255586
 20
9.7507417641
 11
11.2275371686
 21
9.7507522128
  0
LINE
  5
349
100
AcDbEntity
  8
0
100
AcDbLine
 62
7
  6
CONTINUOUS
 10
11.2275371686
 20
9.7507522128
 11
11.2268214651
 21
9.7507668951
  0
LINE
  5
34A
100
AcDbEntity
  8
0
100
AcDbLine
 62
7
  6
CONTINUOUS
 10
11.2268214651
 20
9.7507668951
 11
11.2261082491
 21
9.7507857707
  0
LINE
  5
34B
100
AcDbEntity
  8
0
100
AcDbLine
 62
7
  6
CONTINUOUS
 10
11.2261082491
 20
9.7507857707
 11
11.225397455
 21
9.7508087995
  0
LINE
  5
34C
100
AcDbEntity
  8
0
100
AcDbLine
 62
7
  6
CONTINUOUS
 10
11.225397455
 20
9.7508087995
 11
11.2246891281
 21
9.7508359391
  0
LINE
  5
34D
100
AcDbEntity
  8
0
100
AcDbLine
 62
7
  6
CONTINUOUS
 10
11.2246891281
 20
9.7508359391
 11
11.2239833153
 21
9.7508671463
  0
LINE
  5
34E
100
AcDbEntity
  8
0
100
AcDbLine
 62
7
  6
CONTINUOUS
 10
11.2239833153
 20
9.7508671463
 11
11.2232800632
 21
9.7509023775
  0
LINE
  5
34F
100
AcDbEntity
  8
0
100
AcDbLine
 62
7
  6
CONTINUOUS
 10
11.2232800632
 20
9.7509023775
 11
11.2225794176
 21
9.7509415883
  0
LINE
  5
350
100
AcDbEntity
  8
0
100
AcDbLine
 62
7
  6
CONTINUOUS
 10
11.2225794176
 20
9.7509415883
 11
11.221881424
 21
9.7509847341
  0
LINE
  5
351
100
AcDbEntity
  8
0
100
AcDbLine
 62
7
  6
CONTINUOUS
 10
11.221881424
 20
9.7509847341
 11
11.2211861273
 21
9.7510317697
  0
LINE
  5
352
100
AcDbEntity
  8
0
100
AcDbLine
 62
7
  6
CONTINUOUS
 10
11.2211861273
 20
9.7510317697
 11
11.2204935718
 21
9.7510826492
  0
LINE
  5
353
100
AcDbEntity
  8
0
100
AcDbLine
 62
7
  6
CONTINUOUS
 10
11.2204935718
 20
9.7510826492
 11
11.2198038014
 21
9.7511373263
  0
LINE
  5
354
100
AcDbEntity
  8
0
100
AcDbLine
 62
7
  6
CONTINUOUS
 10
11.2198038014
 20
9.7511373263
 11
11.2191168595
 21
9.7511957544
  0
LINE
  5
355
100
AcDbEntity
  8
0
100
AcDbLine
 62
7
  6
CONTINUOUS
 10
11.2191168595
 20
9.7511957544
 11
11.2184327887
 21
9.7512578861
  0
LINE
  5
356
100
AcDbEntity
  8
0
100
AcDbLine
 62
7
  6
CONTINUOUS
 10
11.2184327887
 20
9.7512578861
 11
11.2177516313
 21
9.7513236737
  0
LINE
  5
357
100
AcDbEntity
  8
0
100
AcDbLine
 62
7
  6
CONTINUOUS
 10
11.2177516313
 20
9.7513236737
 11
11.2170734291
 21
9.7513930691
  0
LINE
  5
358
100
AcDbEntity
  8
0
100
AcDbLine
 62
7
  6
CONTINUOUS
 10
11.2170734291
 20
9.7513930691
 11
11.2163982231
 21
9.7514660236
  0
LINE
  5
359
100
AcDbEntity
  8
0
100
AcDbLine
 62
7
  6
CONTINUOUS
 10
11.2163982231
 20
9.7514660236
 11
11.215726054
 21
9.7515424882
  0
LINE
  5
35A
100
AcDbEntity
  8
0
100
AcDbLine
 62
7
  6
CONTINUOUS
 10
11.215726054
 20
9.7515424882
 11
11.2150569618
 21
9.7516224133
  0
LINE
  5
35B
100
AcDbEntity
  8
0
100
AcDbLine
 62
7
  6
CONTINUOUS
 10
11.2150569618
 20
9.7516224133
 11
11.214390986
 21
9.751705749
  0
LINE
  5
35C
100
AcDbEntity
  8
0
100
AcDbLine
 62
7
  6
CONTINUOUS
 10
11.214390986
 20
9.751705749
 11
11.2139917309
 21
9.7517575979
  0
LINE
  5
35D
100
AcDbEntity
  8
0
100
AcDbLine
 62
7
  6
CONTINUOUS
 10
11.3167227945
 20
9.9241695021
 11
11.3665198889
 21
9.8379184045
  0
LINE
  5
35E
100
AcDbEntity
  8
0
100
AcDbLine
 62
7
  6
CONTINUOUS
 10
11.4700475069
 20
9.6586033101
 11
11.6957532462
 21
9.2676695021
  0
LINE
  5
35F
100
AcDbEntity
  8
0
100
AcDbLine
 62
7
  6
CONTINUOUS
 10
11.4230425223
 20
8.952393165
 11
11.4228906539
 21
8.9531739515
  0
LINE
  5
360
100
AcDbEntity
  8
0
100
AcDbLine
 62
7
  6
CONTINUOUS
 10
11.4228906539
 20
8.9531739515
 11
11.4227033168
 21
8.9541775902
  0
LWPOLYLINE
  5
361
100
AcDbEntity
  8
0
100
AcDbPolyline
 62
7
  6
CONTINUOUS
 90
80
 70
0
 10
11.4217698506
 20
9.5439863012
 10
11.4216913259
 20
9.544595562
 10
11.4216263965
 20
9.5451201221
 10
11.4215630974
 20
9.5456507772
 10
11.4215015769
 20
9.5461869096
 10
11.4214419088
 20
9.5467284938
 10
11.4213841672
 20
9.547275504
 10
11.4213284266
 20
9.5478279133
 10
11.4212747616
 20
9.5483856945
 10
11.421223247
 20
9.5489488197
 10
11.421173958
 20
9.5495172602
 10
11.4211269699
 20
9.5500909868
 10
11.4210823584
 20
9.5506699696
 10
11.421040199
 20
9.5512541778
 10
11.4210005678
 20
9.5518435801
 10
11.4209635408
 20
9.5524381444
 10
11.4209291942
 20
9.553037838
 10
11.4208976044
 20
9.5536426272
 10
11.4208688479
 20
9.5542524778
 10
11.4208430011
 20
9.5548673547
 10
11.4208201409
 20
9.5554872221
 10
11.4208003438
 20
9.5561120434
 10
11.4207836867
 20
9.5567417811
 10
11.4207702466
 20
9.5573763828
 10
11.4207601008
 20
9.5580157645
 10
11.4207533255
 20
9.5586598376
 10
11.4207499958
 20
9.5593085124
 10
11.4207501859
 20
9.5599616984
 10
11.4207539686
 20
9.5606193044
 10
11.4207614157
 20
9.5612812385
 10
11.4207725977
 20
9.5619474077
 10
11.4207875838
 20
9.5626177184
 10
11.4208064419
 20
9.5632920763
 10
11.4208292387
 20
9.5639703862
 10
11.4208560395
 20
9.564652552
 10
11.4208869082
 20
9.5653384773
 10
11.4209219072
 20
9.5660280644
 10
11.4209610976
 20
9.5667212153
 10
11.4210045388
 20
9.567417831
 10
11.421052289
 20
9.5681178121
 10
11.421104415
 20
9.5688211919
 10
11.4211610455
 20
9.5695287302
 10
11.4212223499
 20
9.5702414291
 10
11.4212885229
 20
9.5709602879
 10
11.4213597845
 20
9.5716863019
 10
11.4214363809
 20
9.5724204618
 10
11.4215185851
 20
9.5731637538
 10
11.4216066972
 20
9.5739171581
 10
11.421701046
 20
9.5746816491
 10
11.4218019888
 20
9.575458194
 10
11.4219099132
 20
9.5762477527
 10
11.4220252377
 20
9.5770512762
 10
11.4221484128
 20
9.5778697062
 10
11.4222799219
 20
9.5787039737
 10
11.4224202828
 20
9.5795549978
 10
11.4225697756
 20
9.580422134
 10
11.4227270041
 20
9.5812956691
 10
11.422889693
 20
9.5821628142
 10
11.4230561231
 20
9.583015526
 10
11.4232254461
 20
9.5838511379
 10
11.4233968061
 20
9.5846672942
 10
11.42356929
 20
9.5854616592
 10
11.4237420871
 20
9.5862325989
 10
11.423914988
 20
9.5869811927
 10
11.4240879839
 20
9.5877091874
 10
11.42426112
 20
9.5884183248
 10
11.424434492
 20
9.589110339
 10
11.4246082427
 20
9.5897869537
 10
11.4247825594
 20
9.5904498792
 10
11.4249575813
 20
9.5911004822
 10
11.4251331544
 20
9.5917389456
 10
11.4253090651
 20
9.5923652174
 10
11.4254851061
 20
9.5929792622
 10
11.4256610746
 20
9.5935810542
 10
11.4258367695
 20
9.5941705653
 10
11.4260119857
 20
9.5947477487
 10
11.4261865169
 20
9.5953125463
 10
11.4263602383
 20
9.5958651534
 10
11.4265323647
 20
9.5964036935
 10
11.4267019496
 20
9.5969259053
  0
LINE
  5
362
100
AcDbEntity
  8
0
100
AcDbLine
 62
7
  6
CONTINUOUS
 10
12.2282542797
 20
10.8801695021
 11
12.1849850448
 21
10.6827444699
  0
LINE
  5
363
100
AcDbEntity
  8
0
100
AcDbLine
 62
7
  6
CONTINUOUS
 10
12.2080130698
 20
10.6551695021
 11
12.2624296191
 21
10.8801695021
  0
LINE
  5
364
100
AcDbEntity
  8
0
100
AcDbLine
 62
7
  6
CONTINUOUS
 10
12.3023253324
 20
10.6551695021
 11
12.320806423
 21
10.7183865803
  0
LINE
  5
365
100
AcDbEntity
  8
0
100
AcDbLine
 62
7
  6
CONTINUOUS
 10
12.3416343125
 20
10.8801695021
 11
12.2702034118
 21
10.6551695021
  0
LINE
  5
366
100
AcDbEntity
  8
0
100
AcDbLine
 62
7
  6
CONTINUOUS
 10
12.3307803514
 20
10.7512418638
 11
12.3683292391
 21
10.8567014473
  0
LINE
  5
367
100
AcDbEntity
  8
0
100
AcDbLine
 62
7
  6
CONTINUOUS
 10
12.2327757801
 20
7.6809843658
 11
12.2327757801
 21
7.7180932338
  0
LINE
  5
368
100
AcDbEntity
  8
0
100
AcDbLine
 62
7
  6
CONTINUOUS
 10
12.2327757801
 20
7.8131388592
 11
12.2327757801
 21
7.8577281701
  0
LINE
  5
369
100
AcDbEntity
  8
0
100
AcDbLine
 62
7
  6
CONTINUOUS
 10
12.8448774757
 20
10.8801695021
 11
12.7976480129
 21
10.6994654598
  0
LINE
  5
36A
100
AcDbEntity
  8
0
100
AcDbLine
 62
7
  6
CONTINUOUS
 10
12.8137823047
 20
10.6551695021
 11
12.8705456795
 21
10.8574348169
  0
LINE
  5
36B
100
AcDbEntity
  8
0
100
AcDbLine
 62
7
  6
CONTINUOUS
 10
12.9047209921
 20
10.6551695021
 11
12.8721590819
 21
10.6551695021
  0
LINE
  5
36C
100
AcDbEntity
  8
0
100
AcDbLine
 62
7
  6
CONTINUOUS
 10
12.8137823047
 20
10.6551695021
 11
12.7779935362
 21
10.6551695021
  0
LINE
  5
36D
100
AcDbEntity
  8
0
100
AcDbLine
 62
7
  6
CONTINUOUS
 10
12.7194700422
 20
10.6551695021
 11
12.6869081321
 21
10.6551695021
  0
LINE
  5
36E
100
AcDbEntity
  8
0
100
AcDbLine
 62
7
  6
CONTINUOUS
 10
12.6477457883
 20
10.6551695021
 11
12.6100502374
 21
10.6551695021
  0
LINE
  5
36F
100
AcDbEntity
  8
0
100
AcDbLine
 62
7
  6
CONTINUOUS
 10
12.5301121475
 20
10.6551695021
 11
12.4975502374
 21
10.6551695021
  0
LINE
  5
370
100
AcDbEntity
  8
0
100
AcDbLine
 62
7
  6
CONTINUOUS
 10
12.4677751424
 20
10.6551695021
 11
12.4349198522
 21
10.6551695021
  0
LINE
  5
371
100
AcDbEntity
  8
0
100
AcDbLine
 62
7
  6
CONTINUOUS
 10
12.3023253324
 20
10.6551695021
 11
12.2702034118
 21
10.6551695021
  0
LINE
  5
372
100
AcDbEntity
  8
0
100
AcDbLine
 62
7
  6
CONTINUOUS
 10
12.2080130698
 20
10.6551695021
 11
12.1629837426
 21
10.6551695021
  0
LINE
  5
373
100
AcDbEntity
  8
0
100
AcDbLine
 62
7
  6
CONTINUOUS
 10
12.0705782624
 20
10.6551695021
 11
12.0255489284
 21
10.6551695021
  0
LINE
  5
374
100
AcDbEntity
  8
0
100
AcDbLine
 62
7
  6
CONTINUOUS
 10
12.320806423
 20
10.7183865803
 11
12.4162920716
 21
10.7183865803
  0
LINE
  5
375
100
AcDbEntity
  8
0
100
AcDbLine
 62
7
  6
CONTINUOUS
 10
12.4064648332
 20
10.7512418638
 11
12.3307803514
 21
10.7512418638
  0
LINE
  5
376
100
AcDbEntity
  8
0
100
AcDbLine
 62
7
  6
CONTINUOUS
 10
12.5682477417
 20
10.7747099253
 11
12.5301121475
 21
10.7747099253
  0
LINE
  5
377
100
AcDbEntity
  8
0
100
AcDbLine
 62
7
  6
CONTINUOUS
 10
11.9709856934
 20
10.8801695021
 11
12.0255489284
 21
10.6551695021
  0
LINE
  5
378
100
AcDbEntity
  8
0
100
AcDbLine
 62
7
  6
CONTINUOUS
 10
12.0485769602
 20
10.6827444699
 11
12.0050143754
 21
10.8801695021
  0
LINE
  5
379
100
AcDbEntity
  8
0
100
AcDbLine
 62
7
  6
CONTINUOUS
 10
12.4910711001
 20
7.8801695021
 11
12.4910711001
 21
7.6551695021
  0
LINE
  5
37A
100
AcDbEntity
  8
0
100
AcDbLine
 62
7
  6
CONTINUOUS
 10
12.4975502374
 20
10.8801695021
 11
12.4975502374
 21
10.6551695021
  0
LINE
  5
37B
100
AcDbEntity
  8
0
100
AcDbLine
 62
7
  6
CONTINUOUS
 10
12.5236330371
 20
7.6880247823
 11
12.5236330371
 21
7.8801695021
  0
LINE
  5
37C
100
AcDbEntity
  8
0
100
AcDbLine
 62
7
  6
CONTINUOUS
 10
12.5301121475
 20
10.6551695021
 11
12.5301121475
 21
10.7684028851
  0
LINE
  5
37D
100
AcDbEntity
  8
0
100
AcDbLine
 62
7
  6
CONTINUOUS
 10
12.5301121475
 20
10.7747099253
 11
12.5301121475
 21
10.8473142254
  0
LINE
  5
37E
100
AcDbEntity
  8
0
100
AcDbLine
 62
7
  6
CONTINUOUS
 10
12.6084113877
 20
7.6880247823
 11
12.6084113877
 21
7.6551695021
  0
LINE
  5
37F
100
AcDbEntity
  8
0
100
AcDbLine
 62
7
  6
CONTINUOUS
 10
12.6392131786
 20
7.8801695021
 11
12.6392131786
 21
7.6551695021
  0
LINE
  5
380
100
AcDbEntity
  8
0
100
AcDbLine
 62
7
  6
CONTINUOUS
 10
12.6717751424
 20
7.6843578974
 11
12.6717751424
 21
7.8473142254
  0
LINE
  5
381
100
AcDbEntity
  8
0
100
AcDbLine
 62
7
  6
CONTINUOUS
 10
12.6869081321
 20
10.8801695021
 11
12.6869081321
 21
10.6551695021
  0
LINE
  5
382
100
AcDbEntity
  8
0
100
AcDbLine
 62
7
  6
CONTINUOUS
 10
12.7194700422
 20
10.6551695021
 11
12.7194700422
 21
10.8574348169
  0
LINE
  5
383
100
AcDbEntity
  8
0
100
AcDbLine
 62
7
  6
CONTINUOUS
 10
12.5301121475
 20
10.8473142254
 11
12.579395056
 21
10.8473142254
  0
LINE
  5
384
100
AcDbEntity
  8
0
100
AcDbLine
 62
7
  6
CONTINUOUS
 10
11.9709856934
 20
10.8801695021
 11
12.0050143754
 21
10.8801695021
  0
LINE
  5
385
100
AcDbEntity
  8
0
100
AcDbLine
 62
7
  6
CONTINUOUS
 10
12.0941929939
 20
10.8801695021
 11
12.1392223345
 21
10.8801695021
  0
LINE
  5
386
100
AcDbEntity
  8
0
100
AcDbLine
 62
7
  6
CONTINUOUS
 10
12.2282542797
 20
10.8801695021
 11
12.2624296191
 21
10.8801695021
  0
LINE
  5
387
100
AcDbEntity
  8
0
100
AcDbLine
 62
7
  6
CONTINUOUS
 10
12.3416343125
 20
10.8801695021
 11
12.3963442417
 21
10.8801695021
  0
LINE
  5
388
100
AcDbEntity
  8
0
100
AcDbLine
 62
7
  6
CONTINUOUS
 10
12.4975502374
 20
10.8801695021
 11
12.5827686312
 21
10.8801695021
  0
LINE
  5
389
100
AcDbEntity
  8
0
100
AcDbLine
 62
7
  6
CONTINUOUS
 10
12.6869081321
 20
10.8801695021
 11
12.7467516484
 21
10.8801695021
  0
LINE
  5
38A
100
AcDbEntity
  8
0
100
AcDbLine
 62
7
  6
CONTINUOUS
 10
12.8448774757
 20
10.8801695021
 11
12.9047209921
 21
10.8801695021
  0
LINE
  5
38B
100
AcDbEntity
  8
0
100
AcDbLine
 62
7
  6
CONTINUOUS
 10
12.4162920716
 20
10.7183865803
 11
12.4349198522
 21
10.6551695021
  0
LINE
  5
38C
100
AcDbEntity
  8
0
100
AcDbLine
 62
7
  6
CONTINUOUS
 10
12.1166343259
 20
10.8357268679
 11
12.1629837426
 21
10.6551695021
  0
LINE
  5
38D
100
AcDbEntity
  8
0
100
AcDbLine
 62
7
  6
CONTINUOUS
 10
12.1849850448
 20
10.6827444699
 11
12.1392223345
 21
10.8801695021
  0
LINE
  5
38E
100
AcDbEntity
  8
0
100
AcDbLine
 62
7
  6
CONTINUOUS
 10
12.8705456795
 20
10.8574348169
 11
12.8721590819
 21
10.6551695021
  0
LINE
  5
38F
100
AcDbEntity
  8
0
100
AcDbLine
 62
7
  6
CONTINUOUS
 10
12.9047209921
 20
10.6551695021
 11
12.9047209921
 21
10.8801695021
  0
LINE
  5
390
100
AcDbEntity
  8
0
100
AcDbLine
 62
7
  6
CONTINUOUS
 10
11.1621043341
 20
11.3551695021
 11
11.1295424239
 21
11.3551695021
  0
LINE
  5
391
100
AcDbEntity
  8
0
100
AcDbLine
 62
7
  6
CONTINUOUS
 10
10.816977218
 20
11.3551695021
 11
10.7844152944
 21
11.3551695021
  0
LINE
  5
392
100
AcDbEntity
  8
0
100
AcDbLine
 62
7
  6
CONTINUOUS
 10
10.6814491862
 20
11.3551695021
 11
10.6488872576
 21
11.3551695021
  0
LINE
  5
393
100
AcDbEntity
  8
0
100
AcDbLine
 62
7
  6
CONTINUOUS
 10
10.6814491862
 20
11.4522685866
 11
10.7844152944
 21
11.4522685866
  0
LINE
  5
394
100
AcDbEntity
  8
0
100
AcDbLine
 62
7
  6
CONTINUOUS
 10
10.7844152944
 20
11.48512387
 11
10.6814491862
 21
11.48512387
  0
LINE
  5
395
100
AcDbEntity
  8
0
100
AcDbLine
 62
7
  6
CONTINUOUS
 10
12.6477457883
 20
10.6551695021
 11
12.5782216968
 21
10.7513885404
  0
LINE
  5
396
100
AcDbEntity
  8
0
100
AcDbLine
 62
7
  6
CONTINUOUS
 10
12.5301121475
 20
10.7684028851
 11
12.6100502374
 21
10.6551695021
  0
LINE
  5
397
100
AcDbEntity
  8
0
100
AcDbLine
 62
7
  6
CONTINUOUS
 10
12.3683292391
 20
10.8567014473
 11
12.4064648332
 21
10.7512418638
  0
LINE
  5
398
100
AcDbEntity
  8
0
100
AcDbLine
 62
7
  6
CONTINUOUS
 10
12.4677751424
 20
10.6551695021
 11
12.3963442417
 21
10.8801695021
  0
LINE
  5
399
100
AcDbEntity
  8
0
100
AcDbLine
 62
7
  6
CONTINUOUS
 10
12.7194700422
 20
10.8574348169
 11
12.7779935362
 21
10.6551695021
  0
LINE
  5
39A
100
AcDbEntity
  8
0
100
AcDbLine
 62
7
  6
CONTINUOUS
 10
12.7976480129
 20
10.6994654598
 11
12.7467516484
 21
10.8801695021
  0
LINE
  5
39B
100
AcDbEntity
  8
0
100
AcDbLine
 62
7
  6
CONTINUOUS
 10
11.0660319792
 20
11.5473142254
 11
11.1295424239
 21
11.5473142254
  0
LINE
  5
39C
100
AcDbEntity
  8
0
100
AcDbLine
 62
7
  6
CONTINUOUS
 10
11.1621043341
 20
11.5473142254
 11
11.225614752
 21
11.5473142254
  0
LINE
  5
39D
100
AcDbEntity
  8
0
100
AcDbLine
 62
7
  6
CONTINUOUS
 10
11.225614752
 20
11.5801695021
 11
11.0660319792
 21
11.5801695021
  0
LINE
  5
39E
100
AcDbEntity
  8
0
100
AcDbLine
 62
7
  6
CONTINUOUS
 10
10.6488872576
 20
11.5801695021
 11
10.6814491862
 21
11.5801695021
  0
LINE
  5
39F
100
AcDbEntity
  8
0
100
AcDbLine
 62
7
  6
CONTINUOUS
 10
10.7844152944
 20
11.5801695021
 11
10.816977218
 21
11.5801695021
  0
ARC
  5
3A0
100
AcDbEntity
  8
0
100
AcDbCircle
 62
7
  6
CONTINUOUS
 10
10.0891642053
 20
8.4191413647
 40
0.1
100
AcDbArc
 50
135.0
 51
315.0
  0
ARC
  5
3A1
100
AcDbEntity
  8
0
100
AcDbCircle
 62
9
  6
CONTINUOUS
 10
10.1067675324
 20
8.4273305338
 40
0.0933431851
100
AcDbArc
 50
304.0477356223
 51
314.9971881427
  0
ARC
  5
3A2
100
AcDbEntity
  8
0
100
AcDbCircle
 62
9
  6
CONTINUOUS
 10
10.0973533731
 20
8.4367446931
 40
0.0933431833
100
AcDbArc
 50
135.0028118627
 51
145.9522646178
  0
ARC
  5
3A3
100
AcDbEntity
  8
0
100
AcDbCircle
 62
9
  6
CONTINUOUS
 10
10.8156732426
 20
9.9409856783
 40
0.3902426308
100
AcDbArc
 50
225.5433928269
 51
225.7297339792
  0
ARC
  5
3A4
100
AcDbEntity
  8
0
100
AcDbCircle
 62
7
  6
CONTINUOUS
 10
10.6457533271
 20
8.6646692026
 40
0.1199535432
100
AcDbArc
 50
124.041384792
 51
128.1907789929
  0
ARC
  5
3A5
100
AcDbEntity
  8
0
100
AcDbCircle
 62
7
  6
CONTINUOUS
 10
10.6457533271
 20
8.6646692026
 40
0.1199535432
100
AcDbArc
 50
117.9523972744
 51
118.578307773
  0
ARC
  5
3A6
100
AcDbEntity
  8
0
100
AcDbCircle
 62
7
  6
CONTINUOUS
 10
10.6457533271
 20
8.6646692026
 40
0.1199535432
100
AcDbArc
 50
113.2928992997
 51
113.6474607445
  0
ARC
  5
3A7
100
AcDbEntity
  8
0
100
AcDbCircle
 62
7
  6
CONTINUOUS
 10
10.6457533271
 20
8.6646692026
 40
0.1199535432
100
AcDbArc
 50
108.0286302595
 51
108.0866487231
  0
ARC
  5
3A8
100
AcDbEntity
  8
0
100
AcDbCircle
 62
7
  6
CONTINUOUS
 10
10.6457533271
 20
8.6646692026
 40
0.1199535432
100
AcDbArc
 50
107.6522545442
 51
107.7562810058
  0
ARC
  5
3A9
100
AcDbEntity
  8
0
100
AcDbCircle
 62
7
  6
CONTINUOUS
 10
10.6457533271
 20
8.6646692026
 40
0.1199535432
100
AcDbArc
 50
86.1480278029
 51
96.6890300165
  0
ARC
  5
3AA
100
AcDbEntity
  8
0
100
AcDbCircle
 62
7
  6
CONTINUOUS
 10
10.6457533271
 20
8.6646692026
 40
0.1199535432
100
AcDbArc
 50
82.3935371984
 51
85.7490516392
  0
ARC
  5
3AB
100
AcDbEntity
  8
0
100
AcDbCircle
 62
7
  6
CONTINUOUS
 10
10.3346920432
 20
9.5596085178
 40
0.1199535432
100
AcDbArc
 50
29.3842796092
 51
37.8595438504
  0
ARC
  5
3AC
100
AcDbEntity
  8
0
100
AcDbCircle
 62
7
  6
CONTINUOUS
 10
10.3346920432
 20
9.5596085178
 40
0.1199535432
100
AcDbArc
 50
27.2696141414
 51
28.5804509047
  0
ARC
  5
3AD
100
AcDbEntity
  8
0
100
AcDbCircle
 62
7
  6
CONTINUOUS
 10
10.3346920432
 20
9.5596085178
 40
0.1199535432
100
AcDbArc
 50
23.2931304737
 51
24.4825465364
  0
ARC
  5
3AE
100
AcDbEntity
  8
0
100
AcDbCircle
 62
7
  6
CONTINUOUS
 10
10.3346920432
 20
9.5596085178
 40
0.1199535432
100
AcDbArc
 50
17.5992732972
 51
18.0293427024
  0
ARC
  5
3AF
100
AcDbEntity
  8
0
100
AcDbCircle
 62
7
  6
CONTINUOUS
 10
10.3346920432
 20
9.5596085178
 40
0.1199535432
100
AcDbArc
 50
356.2738831517
 51
6.6314283727
  0
ARC
  5
3B0
100
AcDbEntity
  8
0
100
AcDbCircle
 62
7
  6
CONTINUOUS
 10
10.3346920432
 20
9.5596085178
 40
0.1199535432
100
AcDbArc
 50
352.3935371984
 51
355.7689573233
  0
ARC
  5
3B1
100
AcDbEntity
  8
0
100
AcDbCircle
 62
7
  6
CONTINUOUS
 10
10.0891642053
 20
10.1161976396
 40
0.1
100
AcDbArc
 50
45.0
 51
225.0
  0
ARC
  5
3B2
100
AcDbEntity
  8
0
100
AcDbCircle
 62
9
  6
CONTINUOUS
 10
10.0973533744
 20
10.0985943124
 40
0.0933431851
100
AcDbArc
 50
214.0477356223
 51
224.9971881427
  0
ARC
  5
3B3
100
AcDbEntity
  8
0
100
AcDbCircle
 62
9
  6
CONTINUOUS
 10
10.1067675337
 20
10.1080084718
 40
0.0933431833
100
AcDbArc
 50
45.0028118627
 51
55.9522646178
  0
CIRCLE
  5
3B4
100
AcDbEntity
  8
0
100
AcDbCircle
 62
7
  6
CONTINUOUS
 10
10.9376923427
 20
7.0976695021
 40
0.45
  0
ARC
  5
3B5
100
AcDbEntity
  8
0
100
AcDbCircle
 62
7
  6
CONTINUOUS
 10
10.9376923427
 20
7.0976695021
 40
0.45
100
AcDbArc
 50
0.0
 51
180.0
  0
CIRCLE
  5
3B6
100
AcDbEntity
  8
0
100
AcDbCircle
 62
9
  6
CONTINUOUS
 10
10.9376923427
 20
7.0976695021
 40
0.4492005033
  0
CIRCLE
  5
3B7
100
AcDbEntity
  8
0
100
AcDbCircle
 62
9
  6
CONTINUOUS
 10
10.9376923427
 20
7.0976695021
 40
0.4177005033
  0
ARC
  5
3B8
100
AcDbEntity
  8
0
100
AcDbCircle
 62
9
  6
CONTINUOUS
 10
11.0597116055
 20
8.5943534924
 40
0.3902423982
100
AcDbArc
 50
45.5433937152
 51
45.7297340122
  0
CIRCLE
  5
3B9
100
AcDbEntity
  8
0
100
AcDbCircle
 62
9
  6
CONTINUOUS
 10
10.9376923427
 20
7.0976695021
 40
0.3875
  0
ARC
  5
3BA
100
AcDbEntity
  8
0
100
AcDbCircle
 62
7
  6
CONTINUOUS
 10
11.7862204802
 20
8.4191413647
 40
0.1
100
AcDbArc
 50
225.0
 51
45.0
  0
ARC
  5
3BB
100
AcDbEntity
  8
0
100
AcDbCircle
 62
9
  6
CONTINUOUS
 10
11.7780313111
 20
8.4367446918
 40
0.0933431851
100
AcDbArc
 50
34.0477356224
 51
44.9971881427
  0
ARC
  5
3BC
100
AcDbEntity
  8
0
100
AcDbCircle
 62
9
  6
CONTINUOUS
 10
11.7686171518
 20
8.4273305325
 40
0.0933431833
100
AcDbArc
 50
225.0028118627
 51
235.9522646178
  0
CIRCLE
  5
3BD
100
AcDbEntity
  8
0
100
AcDbCircle
 62
7
  6
CONTINUOUS
 10
10.9376923427
 20
9.2676695021
 40
3.875
  0
CIRCLE
  5
3BE
100
AcDbEntity
  8
0
100
AcDbCircle
 62
9
  6
CONTINUOUS
 10
10.9376923427
 20
9.2676695021
 40
3.625
  0
CIRCLE
  5
3BF
100
AcDbEntity
  8
0
100
AcDbCircle
 62
9
  6
CONTINUOUS
 10
10.9376923427
 20
9.2676695021
 40
3.4090728059
  0
CIRCLE
  5
3C0
100
AcDbEntity
  8
0
100
AcDbCircle
 62
9
  6
CONTINUOUS
 10
10.9376923427
 20
9.2676695021
 40
3.1915680308
  0
CIRCLE
  5
3C1
100
AcDbEntity
  8
0
100
AcDbCircle
 62
9
  6
CONTINUOUS
 10
10.9376923427
 20
9.2676695021
 40
2.9717890928
  0
CIRCLE
  5
3C2
100
AcDbEntity
  8
0
100
AcDbCircle
 62
9
  6
CONTINUOUS
 10
10.9376923427
 20
9.2676695021
 40
2.7535781857
  0
ARC
  5
3C3
100
AcDbEntity
  8
0
100
AcDbCircle
 62
7
  6
CONTINUOUS
 10
10.9376923427
 20
9.2676695021
 40
1.18
100
AcDbArc
 50
229.8617333818
 51
310.1382666182
  0
ARC
  5
3C4
100
AcDbEntity
  8
0
100
AcDbCircle
 62
7
  6
CONTINUOUS
 10
10.9376923427
 20
9.2676695021
 40
1.18
100
AcDbArc
 50
139.8617333818
 51
220.1382666182
  0
ARC
  5
3C5
100
AcDbEntity
  8
0
100
AcDbCircle
 62
7
  6
CONTINUOUS
 10
10.9376923427
 20
9.2676695021
 40
1.18
100
AcDbArc
 50
49.8617333818
 51
130.1382666182
  0
ARC
  5
3C6
100
AcDbEntity
  8
0
100
AcDbCircle
 62
7
  6
CONTINUOUS
 10
10.9376923427
 20
9.2676695021
 40
1.18
100
AcDbArc
 50
319.8617333818
 51
40.1382666182
  0
ARC
  5
3C7
100
AcDbEntity
  8
0
100
AcDbCircle
 62
7
  6
CONTINUOUS
 10
10.9376923427
 20
9.2676695021
 40
1.0000026738
100
AcDbArc
 50
50.7396268454
 51
129.2603731546
  0
ARC
  5
3C8
100
AcDbEntity
  8
0
100
AcDbCircle
 62
7
  6
CONTINUOUS
 10
10.9376923427
 20
9.2676695021
 40
1.0000026738
100
AcDbArc
 50
320.741707615
 51
39.258292385
  0
ARC
  5
3C9
100
AcDbEntity
  8
0
100
AcDbCircle
 62
7
  6
CONTINUOUS
 10
10.9376923427
 20
9.2676695021
 40
1.0000026738
100
AcDbArc
 50
230.7396268454
 51
309.2603731546
  0
ARC
  5
3CA
100
AcDbEntity
  8
0
100
AcDbCircle
 62
7
  6
CONTINUOUS
 10
10.9376923427
 20
9.2676695021
 40
1.0000026738
100
AcDbArc
 50
140.741707615
 51
219.258292385
  0
ARC
  5
3CB
100
AcDbEntity
  8
0
100
AcDbCircle
 62
9
  6
CONTINUOUS
 10
10.9376923427
 20
9.2676695021
 40
0.8130026738
100
AcDbArc
 50
52.0688108354
 51
127.9311891646
  0
ARC
  5
3CC
100
AcDbEntity
  8
0
100
AcDbCircle
 62
9
  6
CONTINUOUS
 10
10.9376923427
 20
9.2676695021
 40
0.8130026738
100
AcDbArc
 50
322.068804363
 51
37.931195637
  0
ARC
  5
3CD
100
AcDbEntity
  8
0
100
AcDbCircle
 62
9
  6
CONTINUOUS
 10
10.9376923427
 20
9.2676695021
 40
0.8130026738
100
AcDbArc
 50
232.0688108354
 51
307.9311891646
  0
ARC
  5
3CE
100
AcDbEntity
  8
0
100
AcDbCircle
 62
9
  6
CONTINUOUS
 10
10.9376923427
 20
9.2676695021
 40
0.8130026738
100
AcDbArc
 50
142.068804363
 51
217.931195637
  0
ARC
  5
3CF
100
AcDbEntity
  8
0
100
AcDbCircle
 62
7
  6
CONTINUOUS
 10
10.9376923427
 20
9.2676695021
 40
0.741
100
AcDbArc
 50
232.7593522752
 51
237.6295013938
  0
ARC
  5
3D0
100
AcDbEntity
  8
0
100
AcDbCircle
 62
7
  6
CONTINUOUS
 10
10.9376923427
 20
9.2676695021
 40
0.741
100
AcDbArc
 50
182.3704986062
 51
217.240071485
  0
ARC
  5
3D1
100
AcDbEntity
  8
0
100
AcDbCircle
 62
7
  6
CONTINUOUS
 10
10.9376923427
 20
9.2676695021
 40
0.741
100
AcDbArc
 50
242.3704986062
 51
297.6295013938
  0
ARC
  5
3D2
100
AcDbEntity
  8
0
100
AcDbCircle
 62
7
  6
CONTINUOUS
 10
10.9376923427
 20
9.2676695021
 40
0.741
100
AcDbArc
 50
322.759928515
 51
357.6295013938
  0
ARC
  5
3D3
100
AcDbEntity
  8
0
100
AcDbCircle
 62
7
  6
CONTINUOUS
 10
10.9376923427
 20
9.2676695021
 40
0.741
100
AcDbArc
 50
302.3704986062
 51
307.2406477248
  0
ARC
  5
3D4
100
AcDbEntity
  8
0
100
AcDbCircle
 62
7
  6
CONTINUOUS
 10
10.9376923427
 20
9.2676695021
 40
0.741
100
AcDbArc
 50
2.3704986062
 51
37.2400714789
  0
ARC
  5
3D5
100
AcDbEntity
  8
0
100
AcDbCircle
 62
7
  6
CONTINUOUS
 10
10.9376923427
 20
9.2676695021
 40
0.741
100
AcDbArc
 50
52.7593521153
 51
57.6295013938
  0
ARC
  5
3D6
100
AcDbEntity
  8
0
100
AcDbCircle
 62
7
  6
CONTINUOUS
 10
10.9376923427
 20
9.2676695021
 40
0.741
100
AcDbArc
 50
62.3704986062
 51
117.6295013938
  0
ARC
  5
3D7
100
AcDbEntity
  8
0
100
AcDbCircle
 62
7
  6
CONTINUOUS
 10
10.9376923427
 20
9.2676695021
 40
0.741
100
AcDbArc
 50
122.3704986062
 51
127.2406478847
  0
ARC
  5
3D8
100
AcDbEntity
  8
0
100
AcDbCircle
 62
7
  6
CONTINUOUS
 10
10.9376923427
 20
9.2676695021
 40
0.741
100
AcDbArc
 50
142.7599285211
 51
177.6295013938
  0
ARC
  5
3D9
100
AcDbEntity
  8
0
100
AcDbCircle
 62
7
  6
CONTINUOUS
 10
10.9376923427
 20
9.2676695021
 40
0.6515
100
AcDbArc
 50
233.8305240418
 51
306.1694759582
  0
ARC
  5
3DA
100
AcDbEntity
  8
0
100
AcDbCircle
 62
7
  6
CONTINUOUS
 10
10.9376923427
 20
9.2676695021
 40
0.6515
100
AcDbArc
 50
143.8341732736
 51
216.1658267264
  0
ARC
  5
3DB
100
AcDbEntity
  8
0
100
AcDbCircle
 62
7
  6
CONTINUOUS
 10
10.9376923427
 20
9.2676695021
 40
0.6515
100
AcDbArc
 50
53.8305240418
 51
126.1694759582
  0
ARC
  5
3DC
100
AcDbEntity
  8
0
100
AcDbCircle
 62
7
  6
CONTINUOUS
 10
10.9376923427
 20
9.2676695021
 40
0.6515
100
AcDbArc
 50
323.8341732736
 51
36.1658267264
  0
ARC
  5
3DD
100
AcDbEntity
  8
0
100
AcDbCircle
 62
9
  6
CONTINUOUS
 10
10.9376923427
 20
9.2676695021
 40
0.6146339942
100
AcDbArc
 50
54.6542711337
 51
125.345695296
  0
ARC
  5
3DE
100
AcDbEntity
  8
0
100
AcDbCircle
 62
9
  6
CONTINUOUS
 10
10.9376923427
 20
9.2676695021
 40
0.6146339942
100
AcDbArc
 50
144.6542911645
 51
215.3457050713
  0
ARC
  5
3DF
100
AcDbEntity
  8
0
100
AcDbCircle
 62
9
  6
CONTINUOUS
 10
10.9376923427
 20
9.2676695021
 40
0.6146339942
100
AcDbArc
 50
234.6542757548
 51
305.3456952376
  0
ARC
  5
3E0
100
AcDbEntity
  8
0
100
AcDbCircle
 62
9
  6
CONTINUOUS
 10
10.9376923427
 20
9.2676695021
 40
0.6146339942
100
AcDbArc
 50
324.6542713739
 51
35.3456952363
  0
CIRCLE
  5
3E1
100
AcDbEntity
  8
0
100
AcDbCircle
 62
7
  6
CONTINUOUS
 10
10.9376923427
 20
9.2676695021
 40
0.5575
  0
ARC
  5
3E2
100
AcDbEntity
  8
0
100
AcDbCircle
 62
7
  6
CONTINUOUS
 10
10.9376923427
 20
9.2676695021
 40
0.5575
100
AcDbArc
 50
311.0869584806
 51
138.9130415203
  0
CIRCLE
  5
3E3
100
AcDbEntity
  8
0
100
AcDbCircle
 62
7
  6
CONTINUOUS
 10
10.9376923427
 20
9.2676695021
 40
0.5175
  0
CIRCLE
  5
3E4
100
AcDbEntity
  8
0
100
AcDbCircle
 62
9
  6
CONTINUOUS
 10
10.9376923427
 20
9.2676695021
 40
0.4249700199
  0
CIRCLE
  5
3E5
100
AcDbEntity
  8
0
100
AcDbCircle
 62
7
  6
CONTINUOUS
 10
10.9376923427
 20
9.2676695021
 40
0.4075
  0
CIRCLE
  5
3E6
100
AcDbEntity
  8
0
100
AcDbCircle
 62
7
  6
CONTINUOUS
 10
10.9376923427
 20
9.2676695021
 40
0.4
  0
CIRCLE
  5
3E7
100
AcDbEntity
  8
0
100
AcDbCircle
 62
9
  6
CONTINUOUS
 10
10.9376923427
 20
9.2676695021
 40
0.392917847
  0
ARC
  5
3E8
100
AcDbEntity
  8
0
100
AcDbCircle
 62
7
  6
CONTINUOUS
 10
11.2296313584
 20
9.8706698017
 40
0.1199535432
100
AcDbArc
 50
298.7279315277
 51
307.3912482384
  0
ARC
  5
3E9
100
AcDbEntity
  8
0
100
AcDbCircle
 62
7
  6
CONTINUOUS
 10
11.2296313584
 20
9.8706698017
 40
0.1199535432
100
AcDbArc
 50
293.3875773436
 51
298.3720542415
  0
ARC
  5
3EA
100
AcDbEntity
  8
0
100
AcDbCircle
 62
7
  6
CONTINUOUS
 10
11.2296313584
 20
9.8706698017
 40
0.1199535432
100
AcDbArc
 50
288.6021187812
 51
292.7453916376
  0
ARC
  5
3EB
100
AcDbEntity
  8
0
100
AcDbCircle
 62
7
  6
CONTINUOUS
 10
11.2296313584
 20
9.8706698017
 40
0.1199535432
100
AcDbArc
 50
287.5867182301
 51
288.0489546483
  0
ARC
  5
3EC
100
AcDbEntity
  8
0
100
AcDbCircle
 62
7
  6
CONTINUOUS
 10
11.2296313584
 20
9.8706698017
 40
0.1199535432
100
AcDbArc
 50
266.2753048035
 51
276.632856668
  0
ARC
  5
3ED
100
AcDbEntity
  8
0
100
AcDbCircle
 62
7
  6
CONTINUOUS
 10
11.2296313584
 20
9.8706698017
 40
0.1199535432
100
AcDbArc
 50
262.3935371984
 51
265.7667964937
  0
ARC
  5
3EE
100
AcDbEntity
  8
0
100
AcDbCircle
 62
7
  6
CONTINUOUS
 10
11.5406926423
 20
8.9757304865
 40
0.1199535432
100
AcDbArc
 50
213.7174964901
 51
218.5918680884
  0
ARC
  5
3EF
100
AcDbEntity
  8
0
100
AcDbCircle
 62
7
  6
CONTINUOUS
 10
11.5406926423
 20
8.9757304865
 40
0.1199535432
100
AcDbArc
 50
209.4000454236
 51
212.9751920678
  0
ARC
  5
3F0
100
AcDbEntity
  8
0
100
AcDbCircle
 62
7
  6
CONTINUOUS
 10
11.5406926423
 20
8.9757304865
 40
0.1199535432
100
AcDbArc
 50
208.2671850845
 51
208.5793678049
  0
ARC
  5
3F1
100
AcDbEntity
  8
0
100
AcDbCircle
 62
7
  6
CONTINUOUS
 10
11.5406926423
 20
8.9757304865
 40
0.1199535432
100
AcDbArc
 50
197.5669351746
 51
197.6508792317
  0
ARC
  5
3F2
100
AcDbEntity
  8
0
100
AcDbCircle
 62
7
  6
CONTINUOUS
 10
11.5406926423
 20
8.9757304865
 40
0.1199535432
100
AcDbArc
 50
176.2753820683
 51
186.6329365308
  0
ARC
  5
3F3
100
AcDbEntity
  8
0
100
AcDbCircle
 62
7
  6
CONTINUOUS
 10
11.5406926423
 20
8.9757304865
 40
0.1199535432
100
AcDbArc
 50
172.3935371984
 51
175.766677316
  0
ARC
  5
3F4
100
AcDbEntity
  8
0
100
AcDbCircle
 62
7
  6
CONTINUOUS
 10
11.7862204802
 20
10.1161976396
 40
0.1
100
AcDbArc
 50
315.0
 51
135.0
  0
ARC
  5
3F5
100
AcDbEntity
  8
0
100
AcDbCircle
 62
9
  6
CONTINUOUS
 10
11.768617153
 20
10.1080084705
 40
0.0933431851
100
AcDbArc
 50
124.0477356224
 51
134.9971881427
  0
ARC
  5
3F6
100
AcDbEntity
  8
0
100
AcDbCircle
 62
9
  6
CONTINUOUS
 10
11.7780313124
 20
10.0985943112
 40
0.0933431833
100
AcDbArc
 50
315.0028118627
 51
325.9522646178
  0
SPLINE
  5
3F7
100
AcDbEntity
  8
0
100
AcDbSpline
 62
7
  6
CONTINUOUS
 70
0
 71
3
 72
8
 73
4
 74
0
 42
0.0000001
 43
0.0000001
 44
0.0000000001
 40
0.0
 40
0.0
 40
0.0
 40
0.0
 40
1.0
 40
1.0
 40
1.0
 40
1.0
 10
10.9514785336
 20
11.3506225661
 30
0.0
 10
10.981693645
 20
11.3506225661
 30
0.0
 10
11.00486836
 20
11.3610365167
 30
0.0
 10
11.0211493149
 20
11.3821577687
 30
0.0
  0
SPLINE
  5
3F8
100
AcDbEntity
  8
0
100
AcDbSpline
 62
7
  6
CONTINUOUS
 70
0
 71
3
 72
8
 73
4
 74
0
 42
0.0000001
 43
0.0000001
 44
0.0000000001
 40
0.0
 40
0.0
 40
0.0
 40
0.0
 40
1.0
 40
1.0
 40
1.0
 40
1.0
 10
11.0211493149
 20
11.3821577687
 30
0.0
 10
11.0374302702
 20
11.4032790213
 30
0.0
 10
11.0456441061
 20
11.4332007962
 30
0.0
 10
11.0456441061
 20
11.4722164365
 30
0.0
  0
SPLINE
  5
3F9
100
AcDbEntity
  8
0
100
AcDbSpline
 62
7
  6
CONTINUOUS
 70
0
 71
3
 72
8
 73
4
 74
0
 42
0.0000001
 43
0.0000001
 44
0.0000000001
 40
0.0
 40
0.0
 40
0.0
 40
0.0
 40
1.0
 40
1.0
 40
1.0
 40
1.0
 10
11.0456441061
 20
11.4722164365
 30
0.0
 10
11.0456441061
 20
11.5107920604
 30
0.0
 10
11.0378703134
 20
11.5388070496
 30
0.0
 10
11.0225729481
 20
11.5571053317
 30
0.0
  0
SPLINE
  5
3FA
100
AcDbEntity
  8
0
100
AcDbSpline
 62
7
  6
CONTINUOUS
 70
0
 71
3
 72
8
 73
4
 74
0
 42
0.0000001
 43
0.0000001
 44
0.0000000001
 40
0.0
 40
0.0
 40
0.0
 40
0.0
 40
1.0
 40
1.0
 40
1.0
 40
1.0
 10
11.0225729481
 20
11.5571053317
 30
0.0
 10
11.0072151588
 20
11.5754758912
 30
0.0
 10
10.9834537642
 20
11.5847164365
 30
0.0
 10
10.9514785336
 20
11.5847164365
 30
0.0
  0
SPLINE
  5
3FB
100
AcDbEntity
  8
0
100
AcDbSpline
 62
7
  6
CONTINUOUS
 70
0
 71
3
 72
8
 73
4
 74
0
 42
0.0000001
 43
0.0000001
 44
0.0000000001
 40
0.0
 40
0.0
 40
0.0
 40
0.0
 40
1.0
 40
1.0
 40
1.0
 40
1.0
 10
10.9514785336
 20
11.5847164365
 30
0.0
 10
10.9214100854
 20
11.5847164365
 30
0.0
 10
10.8982353704
 20
11.5748891848
 30
0.0
 10
10.8819113858
 20
11.5554175257
 30
0.0
  0
SPLINE
  5
3FC
100
AcDbEntity
  8
0
100
AcDbSpline
 62
7
  6
CONTINUOUS
 70
0
 71
3
 72
8
 73
4
 74
0
 42
0.0000001
 43
0.0000001
 44
0.0000000001
 40
0.0
 40
0.0
 40
0.0
 40
0.0
 40
1.0
 40
1.0
 40
1.0
 40
1.0
 10
10.8819113858
 20
11.5554175257
 30
0.0
 10
10.8655267702
 20
11.5358735445
 30
0.0
 10
10.8574596243
 20
11.5081518951
 30
0.0
 10
10.8574596243
 20
11.4722164365
 30
0.0
  0
SPLINE
  5
3FD
100
AcDbEntity
  8
0
100
AcDbSpline
 62
7
  6
CONTINUOUS
 70
0
 71
3
 72
8
 73
4
 74
0
 42
0.0000001
 43
0.0000001
 44
0.0000000001
 40
0.0
 40
0.0
 40
0.0
 40
0.0
 40
1.0
 40
1.0
 40
1.0
 40
1.0
 10
10.8574596243
 20
11.4722164365
 30
0.0
 10
10.8574596243
 20
11.4332007962
 30
0.0
 10
10.8655267702
 20
11.4032790213
 30
0.0
 10
10.8819085233
 20
11.3821223139
 30
0.0
  0
SPLINE
  5
3FE
100
AcDbEntity
  8
0
100
AcDbSpline
 62
7
  6
CONTINUOUS
 70
0
 71
3
 72
8
 73
4
 74
0
 42
0.0000001
 43
0.0000001
 44
0.0000000001
 40
0.0
 40
0.0
 40
0.0
 40
0.0
 40
1.0
 40
1.0
 40
1.0
 40
1.0
 10
10.8819085233
 20
11.3821223139
 30
0.0
 10
10.8982353704
 20
11.3610365167
 30
0.0
 10
10.9214100854
 20
11.3506225661
 30
0.0
 10
10.9514785336
 20
11.3506225661
 30
0.0
  0
SPLINE
  5
3FF
100
AcDbEntity
  8
0
100
AcDbSpline
 62
7
  6
CONTINUOUS
 70
0
 71
3
 72
8
 73
4
 74
0
 42
0.0000001
 43
0.0000001
 44
0.0000000001
 40
0.0
 40
0.0
 40
0.0
 40
0.0
 40
1.0
 40
1.0
 40
1.0
 40
1.0
 10
12.5782216968
 20
10.7513885404
 30
0.0
 10
12.6009563687
 20
10.7515352103
 30
0.0
 10
12.6182640734
 20
10.7572555507
 30
0.0
 10
12.6299613705
 20
10.7687335316
 30
0.0
  0
SPLINE
  5
400
100
AcDbEntity
  8
0
100
AcDbSpline
 62
7
  6
CONTINUOUS
 70
0
 71
3
 72
8
 73
4
 74
0
 42
0.0000001
 43
0.0000001
 44
0.0000000001
 40
0.0
 40
0.0
 40
0.0
 40
0.0
 40
1.0
 40
1.0
 40
1.0
 40
1.0
 10
12.6299613705
 20
10.7687335316
 30
0.0
 10
12.6417321148
 20
10.7802835825
 30
0.0
 10
12.6477457883
 20
10.7977379503
 30
0.0
 10
12.6477457883
 20
10.820912652
 30
0.0
  0
SPLINE
  5
401
100
AcDbEntity
  8
0
100
AcDbSpline
 62
7
  6
CONTINUOUS
 70
0
 71
3
 72
8
 73
4
 74
0
 42
0.0000001
 43
0.0000001
 44
0.0000000001
 40
0.0
 40
0.0
 40
0.0
 40
0.0
 40
1.0
 40
1.0
 40
1.0
 40
1.0
 10
12.6477457883
 20
10.820912652
 30
0.0
 10
12.6477457883
 20
10.8398337724
 30
0.0
 10
12.6420254411
 20
10.8545013117
 30
0.0
 10
12.6308447641
 20
10.8647320137
 30
0.0
  0
SPLINE
  5
402
100
AcDbEntity
  8
0
100
AcDbSpline
 62
7
  6
CONTINUOUS
 70
0
 71
3
 72
8
 73
4
 74
0
 42
0.0000001
 43
0.0000001
 44
0.0000000001
 40
0.0
 40
0.0
 40
0.0
 40
0.0
 40
1.0
 40
1.0
 40
1.0
 40
1.0
 10
12.6308447641
 20
10.8647320137
 30
0.0
 10
12.6195841493
 20
10.8750358614
 30
0.0
 10
12.6035965206
 20
10.8801695021
 30
0.0
 10
12.5827686312
 20
10.8801695021
 30
0.0
  0
SPLINE
  5
403
100
AcDbEntity
  8
0
100
AcDbSpline
 62
7
  6
CONTINUOUS
 70
0
 71
3
 72
8
 73
4
 74
0
 42
0.0000001
 43
0.0000001
 44
0.0000000001
 40
0.0
 40
0.0
 40
0.0
 40
0.0
 40
1.0
 40
1.0
 40
1.0
 40
1.0
 10
12.2327757801
 20
7.7180932338
 30
0.0
 10
12.2195750068
 20
7.7035723711
 30
0.0
 10
12.2081343259
 20
7.6935984461
 30
0.0
 10
12.1987282616
 20
7.6880568884
 30
0.0
  0
SPLINE
  5
404
100
AcDbEntity
  8
0
100
AcDbSpline
 62
7
  6
CONTINUOUS
 70
0
 71
3
 72
8
 73
4
 74
0
 42
0.0000001
 43
0.0000001
 44
0.0000000001
 40
0.0
 40
0.0
 40
0.0
 40
0.0
 40
1.0
 40
1.0
 40
1.0
 40
1.0
 10
12.1987282616
 20
7.6880568884
 30
0.0
 10
12.1892132054
 20
7.6824511184
 30
0.0
 10
12.1786525841
 20
7.6798109631
 30
0.0
 10
12.1670652266
 20
7.6798109631
 30
0.0
  0
SPLINE
  5
405
100
AcDbEntity
  8
0
100
AcDbSpline
 62
7
  6
CONTINUOUS
 70
0
 71
3
 72
8
 73
4
 74
0
 42
0.0000001
 43
0.0000001
 44
0.0000000001
 40
0.0
 40
0.0
 40
0.0
 40
0.0
 40
1.0
 40
1.0
 40
1.0
 40
1.0
 10
12.1670652266
 20
7.6798109631
 30
0.0
 10
12.1478507529
 20
7.6798109631
 30
0.0
 10
12.1330365437
 20
7.6874380826
 30
0.0
 10
12.1225722434
 20
7.7029515876
 30
0.0
  0
SPLINE
  5
406
100
AcDbEntity
  8
0
100
AcDbSpline
 62
7
  6
CONTINUOUS
 70
0
 71
3
 72
8
 73
4
 74
0
 42
0.0000001
 43
0.0000001
 44
0.0000000001
 40
0.0
 40
0.0
 40
0.0
 40
0.0
 40
1.0
 40
1.0
 40
1.0
 40
1.0
 10
12.1225722434
 20
7.7029515876
 30
0.0
 10
12.1120619643
 20
7.7185332569
 30
0.0
 10
12.1069283269
 20
7.7405345591
 30
0.0
 10
12.1069283269
 20
7.7691362547
 30
0.0
  0
SPLINE
  5
407
100
AcDbEntity
  8
0
100
AcDbSpline
 62
7
  6
CONTINUOUS
 70
0
 71
3
 72
8
 73
4
 74
0
 42
0.0000001
 43
0.0000001
 44
0.0000000001
 40
0.0
 40
0.0
 40
0.0
 40
0.0
 40
1.0
 40
1.0
 40
1.0
 40
1.0
 10
12.1069283269
 20
7.7691362547
 30
0.0
 10
12.1069283269
 20
7.7955378147
 30
0.0
 10
12.1120619643
 20
7.8159257012
 30
0.0
 10
12.1225746694
 20
7.8303347157
 30
0.0
  0
SPLINE
  5
408
100
AcDbEntity
  8
0
100
AcDbSpline
 62
7
  6
CONTINUOUS
 70
0
 71
3
 72
8
 73
4
 74
0
 42
0.0000001
 43
0.0000001
 44
0.0000000001
 40
0.0
 40
0.0
 40
0.0
 40
0.0
 40
1.0
 40
1.0
 40
1.0
 40
1.0
 10
12.1225746694
 20
7.8303347157
 30
0.0
 10
12.1330365437
 20
7.84467406
 30
0.0
 10
12.1478507529
 20
7.8518611597
 30
0.0
 10
12.1670652266
 20
7.8518611597
 30
0.0
  0
SPLINE
  5
409
100
AcDbEntity
  8
0
100
AcDbSpline
 62
7
  6
CONTINUOUS
 70
0
 71
3
 72
8
 73
4
 74
0
 42
0.0000001
 43
0.0000001
 44
0.0000000001
 40
0.0
 40
0.0
 40
0.0
 40
0.0
 40
1.0
 40
1.0
 40
1.0
 40
1.0
 10
12.1670652266
 20
7.8518611597
 30
0.0
 10
12.1814394127
 20
7.8518611597
 30
0.0
 10
12.1943468462
 20
7.8484876248
 30
0.0
 10
12.2057875184
 20
7.8417405627
 30
0.0
  0
SPLINE
  5
40A
100
AcDbEntity
  8
0
100
AcDbSpline
 62
7
  6
CONTINUOUS
 70
0
 71
3
 72
8
 73
4
 74
0
 42
0.0000001
 43
0.0000001
 44
0.0000000001
 40
0.0
 40
0.0
 40
0.0
 40
0.0
 40
1.0
 40
1.0
 40
1.0
 40
1.0
 10
12.2057875184
 20
7.8417405627
 30
0.0
 10
12.2172281946
 20
7.8349934983
 30
0.0
 10
12.2261754002
 20
7.8254595997
 30
0.0
 10
12.2327757801
 20
7.8131388592
 30
0.0
  0
SPLINE
  5
40B
100
AcDbEntity
  8
0
100
AcDbSpline
 62
7
  6
CONTINUOUS
 70
0
 71
3
 72
8
 73
4
 74
0
 42
0.0000001
 43
0.0000001
 44
0.0000000001
 40
0.0
 40
0.0
 40
0.0
 40
0.0
 40
1.0
 40
1.0
 40
1.0
 40
1.0
 10
12.2327757801
 20
7.8577281701
 30
0.0
 10
12.225148664
 20
7.8668220388
 30
0.0
 10
12.2159081186
 20
7.8735691088
 30
0.0
 10
12.2047607932
 20
7.8779693724
 30
0.0
  0
SPLINE
  5
40C
100
AcDbEntity
  8
0
100
AcDbSpline
 62
7
  6
CONTINUOUS
 70
0
 71
3
 72
8
 73
4
 74
0
 42
0.0000001
 43
0.0000001
 44
0.0000000001
 40
0.0
 40
0.0
 40
0.0
 40
0.0
 40
1.0
 40
1.0
 40
1.0
 40
1.0
 10
12.2047607932
 20
7.8779693724
 30
0.0
 10
12.1936134632
 20
7.8823696377
 30
0.0
 10
12.1805593531
 20
7.8847164365
 30
0.0
 10
12.1654517974
 20
7.8847164365
 30
0.0
  0
SPLINE
  5
40D
100
AcDbEntity
  8
0
100
AcDbSpline
 62
7
  6
CONTINUOUS
 70
0
 71
3
 72
8
 73
4
 74
0
 42
0.0000001
 43
0.0000001
 44
0.0000000001
 40
0.0
 40
0.0
 40
0.0
 40
0.0
 40
1.0
 40
1.0
 40
1.0
 40
1.0
 10
12.1654517974
 20
7.8847164365
 30
0.0
 10
12.1362634021
 20
7.8847164365
 30
0.0
 10
12.1138220701
 20
7.8748891848
 30
0.0
 10
12.0979811342
 20
7.8553813691
 30
0.0
  0
SPLINE
  5
40E
100
AcDbEntity
  8
0
100
AcDbSpline
 62
7
  6
CONTINUOUS
 70
0
 71
3
 72
8
 73
4
 74
0
 42
0.0000001
 43
0.0000001
 44
0.0000000001
 40
0.0
 40
0.0
 40
0.0
 40
0.0
 40
1.0
 40
1.0
 40
1.0
 40
1.0
 10
12.0979811342
 20
7.8553813691
 30
0.0
 10
12.082140191
 20
7.8358735445
 30
0.0
 10
12.0743663974
 20
7.8081518951
 30
0.0
 10
12.0743663974
 20
7.7722164365
 30
0.0
  0
SPLINE
  5
40F
100
AcDbEntity
  8
0
100
AcDbSpline
 62
7
  6
CONTINUOUS
 70
0
 71
3
 72
8
 73
4
 74
0
 42
0.0000001
 43
0.0000001
 44
0.0000000001
 40
0.0
 40
0.0
 40
0.0
 40
0.0
 40
1.0
 40
1.0
 40
1.0
 40
1.0
 10
12.0743663974
 20
7.7722164365
 30
0.0
 10
12.0743663974
 20
7.7332007962
 30
0.0
 10
12.082140191
 20
7.7032790213
 30
0.0
 10
12.097981131
 20
7.6821577683
 30
0.0
  0
SPLINE
  5
410
100
AcDbEntity
  8
0
100
AcDbSpline
 62
7
  6
CONTINUOUS
 70
0
 71
3
 72
8
 73
4
 74
0
 42
0.0000001
 43
0.0000001
 44
0.0000000001
 40
0.0
 40
0.0
 40
0.0
 40
0.0
 40
1.0
 40
1.0
 40
1.0
 40
1.0
 10
12.097981131
 20
7.6821577683
 30
0.0
 10
12.1138220701
 20
7.6610365167
 30
0.0
 10
12.1362634021
 20
7.6506225661
 30
0.0
 10
12.1654517974
 20
7.6506225661
 30
0.0
  0
SPLINE
  5
411
100
AcDbEntity
  8
0
100
AcDbSpline
 62
7
  6
CONTINUOUS
 70
0
 71
3
 72
8
 73
4
 74
0
 42
0.0000001
 43
0.0000001
 44
0.0000000001
 40
0.0
 40
0.0
 40
0.0
 40
0.0
 40
1.0
 40
1.0
 40
1.0
 40
1.0
 10
12.1654517974
 20
7.6506225661
 30
0.0
 10
12.1789459239
 20
7.6506225661
 30
0.0
 10
12.1917066808
 20
7.6534093978
 30
0.0
 10
12.2034133646
 20
7.6586042395
 30
0.0
  0
SPLINE
  5
412
100
AcDbEntity
  8
0
100
AcDbSpline
 62
7
  6
CONTINUOUS
 70
0
 71
3
 72
8
 73
4
 74
0
 42
0.0000001
 43
0.0000001
 44
0.0000000001
 40
0.0
 40
0.0
 40
0.0
 40
0.0
 40
1.0
 40
1.0
 40
1.0
 40
1.0
 10
12.2034133646
 20
7.6586042395
 30
0.0
 10
12.2151747356
 20
7.6638233486
 30
0.0
 10
12.2250019874
 20
7.6713037924
 30
0.0
 10
12.2327757801
 20
7.6809843658
 30
0.0
  0
SPLINE
  5
413
100
AcDbEntity
  8
0
100
AcDbSpline
 62
7
  6
CONTINUOUS
 70
0
 71
3
 72
8
 73
4
 74
0
 42
0.0000001
 43
0.0000001
 44
0.0000000001
 40
0.0
 40
0.0
 40
0.0
 40
0.0
 40
1.0
 40
1.0
 40
1.0
 40
1.0
 10
12.3526095431
 20
7.6506225661
 30
0.0
 10
12.3828246813
 20
7.6506225661
 30
0.0
 10
12.4059993963
 20
7.6610365167
 30
0.0
 10
12.4222803512
 20
7.6821577687
 30
0.0
  0
SPLINE
  5
414
100
AcDbEntity
  8
0
100
AcDbSpline
 62
7
  6
CONTINUOUS
 70
0
 71
3
 72
8
 73
4
 74
0
 42
0.0000001
 43
0.0000001
 44
0.0000000001
 40
0.0
 40
0.0
 40
0.0
 40
0.0
 40
1.0
 40
1.0
 40
1.0
 40
1.0
 10
12.4222803512
 20
7.6821577687
 30
0.0
 10
12.4385613065
 20
7.7032790213
 30
0.0
 10
12.4467751424
 20
7.7332007962
 30
0.0
 10
12.4467751424
 20
7.7722164365
 30
0.0
  0
SPLINE
  5
415
100
AcDbEntity
  8
0
100
AcDbSpline
 62
7
  6
CONTINUOUS
 70
0
 71
3
 72
8
 73
4
 74
0
 42
0.0000001
 43
0.0000001
 44
0.0000000001
 40
0.0
 40
0.0
 40
0.0
 40
0.0
 40
1.0
 40
1.0
 40
1.0
 40
1.0
 10
12.4467751424
 20
7.7722164365
 30
0.0
 10
12.4467751424
 20
7.8107920604
 30
0.0
 10
12.4390013497
 20
7.8388070496
 30
0.0
 10
12.4237039733
 20
7.8571053449
 30
0.0
  0
SPLINE
  5
416
100
AcDbEntity
  8
0
100
AcDbSpline
 62
7
  6
CONTINUOUS
 70
0
 71
3
 72
8
 73
4
 74
0
 42
0.0000001
 43
0.0000001
 44
0.0000000001
 40
0.0
 40
0.0
 40
0.0
 40
0.0
 40
1.0
 40
1.0
 40
1.0
 40
1.0
 10
12.4237039733
 20
7.8571053449
 30
0.0
 10
12.4083461951
 20
7.8754758912
 30
0.0
 10
12.3845847736
 20
7.8847164365
 30
0.0
 10
12.3526095431
 20
7.8847164365
 30
0.0
  0
SPLINE
  5
417
100
AcDbEntity
  8
0
100
AcDbSpline
 62
7
  6
CONTINUOUS
 70
0
 71
3
 72
8
 73
4
 74
0
 42
0.0000001
 43
0.0000001
 44
0.0000000001
 40
0.0
 40
0.0
 40
0.0
 40
0.0
 40
1.0
 40
1.0
 40
1.0
 40
1.0
 10
12.3526095431
 20
7.8847164365
 30
0.0
 10
12.3225410949
 20
7.8847164365
 30
0.0
 10
12.2993664067
 20
7.8748891848
 30
0.0
 10
12.2830424126
 20
7.8554175224
 30
0.0
  0
SPLINE
  5
418
100
AcDbEntity
  8
0
100
AcDbSpline
 62
7
  6
CONTINUOUS
 70
0
 71
3
 72
8
 73
4
 74
0
 42
0.0000001
 43
0.0000001
 44
0.0000000001
 40
0.0
 40
0.0
 40
0.0
 40
0.0
 40
1.0
 40
1.0
 40
1.0
 40
1.0
 10
12.2830424126
 20
7.8554175224
 30
0.0
 10
12.2666577931
 20
7.8358735445
 30
0.0
 10
12.2585906471
 20
7.8081518951
 30
0.0
 10
12.2585906471
 20
7.7722164365
 30
0.0
  0
SPLINE
  5
419
100
AcDbEntity
  8
0
100
AcDbSpline
 62
7
  6
CONTINUOUS
 70
0
 71
3
 72
8
 73
4
 74
0
 42
0.0000001
 43
0.0000001
 44
0.0000000001
 40
0.0
 40
0.0
 40
0.0
 40
0.0
 40
1.0
 40
1.0
 40
1.0
 40
1.0
 10
12.2585906471
 20
7.7722164365
 30
0.0
 10
12.2585906471
 20
7.7332007962
 30
0.0
 10
12.2666577931
 20
7.7032790213
 30
0.0
 10
12.2830395504
 20
7.6821223171
 30
0.0
  0
SPLINE
  5
41A
100
AcDbEntity
  8
0
100
AcDbSpline
 62
7
  6
CONTINUOUS
 70
0
 71
3
 72
8
 73
4
 74
0
 42
0.0000001
 43
0.0000001
 44
0.0000000001
 40
0.0
 40
0.0
 40
0.0
 40
0.0
 40
1.0
 40
1.0
 40
1.0
 40
1.0
 10
12.2830395504
 20
7.6821223171
 30
0.0
 10
12.2993664067
 20
7.6610365167
 30
0.0
 10
12.3225410949
 20
7.6506225661
 30
0.0
 10
12.3526095431
 20
7.6506225661
 30
0.0
  0
SPLINE
  5
41B
100
AcDbEntity
  8
0
100
AcDbSpline
 62
7
  6
CONTINUOUS
 70
0
 71
3
 72
8
 73
4
 74
0
 42
0.0000001
 43
0.0000001
 44
0.0000000001
 40
0.0
 40
0.0
 40
0.0
 40
0.0
 40
1.0
 40
1.0
 40
1.0
 40
1.0
 10
12.7097640734
 20
7.6551695021
 30
0.0
 10
12.7414459507
 20
7.6551695021
 30
0.0
 10
12.7665273945
 20
7.6655834527
 30
0.0
 10
12.7851502889
 20
7.6867090093
 30
0.0
  0
SPLINE
  5
41C
100
AcDbEntity
  8
0
100
AcDbSpline
 62
7
  6
CONTINUOUS
 70
0
 71
3
 72
8
 73
4
 74
0
 42
0.0000001
 43
0.0000001
 44
0.0000000001
 40
0.0
 40
0.0
 40
0.0
 40
0.0
 40
1.0
 40
1.0
 40
1.0
 40
1.0
 10
12.7851502889
 20
7.6867090093
 30
0.0
 10
12.8036362927
 20
7.707679279
 30
0.0
 10
12.8130234878
 20
7.7361343014
 30
0.0
 10
12.8130234878
 20
7.7720697599
 30
0.0
  0
SPLINE
  5
41D
100
AcDbEntity
  8
0
100
AcDbSpline
 62
7
  6
CONTINUOUS
 70
0
 71
3
 72
8
 73
4
 74
0
 42
0.0000001
 43
0.0000001
 44
0.0000000001
 40
0.0
 40
0.0
 40
0.0
 40
0.0
 40
1.0
 40
1.0
 40
1.0
 40
1.0
 10
12.8130234878
 20
7.7720697599
 30
0.0
 10
12.8130234878
 20
7.8091786312
 30
0.0
 10
12.8055430751
 20
7.8360202211
 30
0.0
 10
12.7904979062
 20
7.8535485663
 30
0.0
  0
SPLINE
  5
41E
100
AcDbEntity
  8
0
100
AcDbSpline
 62
7
  6
CONTINUOUS
 70
0
 71
3
 72
8
 73
4
 74
0
 42
0.0000001
 43
0.0000001
 44
0.0000000001
 40
0.0
 40
0.0
 40
0.0
 40
0.0
 40
1.0
 40
1.0
 40
1.0
 40
1.0
 10
12.7904979062
 20
7.8535485663
 30
0.0
 10
12.7753279369
 20
7.87122231
 30
0.0
 10
12.7520065586
 20
7.8801695021
 30
0.0
 10
12.7206180076
 20
7.8801695021
 30
0.0
  0
SPLINE
  5
41F
100
AcDbEntity
  8
0
100
AcDbSpline
 62
7
  6
CONTINUOUS
 70
0
 71
3
 72
8
 73
4
 74
0
 42
0.0000001
 43
0.0000001
 44
0.0000000001
 40
0.0
 40
0.0
 40
0.0
 40
0.0
 40
1.0
 40
1.0
 40
1.0
 40
1.0
 10
12.7216447573
 20
7.8473142254
 30
0.0
 10
12.7408592443
 20
7.8473142254
 30
0.0
 10
12.7555267434
 20
7.8405671554
 30
0.0
 10
12.7654654291
 20
7.8273399408
 30
0.0
  0
SPLINE
  5
420
100
AcDbEntity
  8
0
100
AcDbSpline
 62
7
  6
CONTINUOUS
 70
0
 71
3
 72
8
 73
4
 74
0
 42
0.0000001
 43
0.0000001
 44
0.0000000001
 40
0.0
 40
0.0
 40
0.0
 40
0.0
 40
1.0
 40
1.0
 40
1.0
 40
1.0
 10
12.7654654291
 20
7.8273399408
 30
0.0
 10
12.7754746001
 20
7.8140189188
 30
0.0
 10
12.7804615776
 20
7.794511092
 30
0.0
 10
12.7804615776
 20
7.7689895781
 30
0.0
  0
SPLINE
  5
421
100
AcDbEntity
  8
0
100
AcDbSpline
 62
7
  6
CONTINUOUS
 70
0
 71
3
 72
8
 73
4
 74
0
 42
0.0000001
 43
0.0000001
 44
0.0000000001
 40
0.0
 40
0.0
 40
0.0
 40
0.0
 40
1.0
 40
1.0
 40
1.0
 40
1.0
 10
12.7804615776
 20
7.7689895781
 30
0.0
 10
12.7804615776
 20
7.7430280412
 30
0.0
 10
12.7740078609
 20
7.7224934916
 30
0.0
 10
12.7613504755
 20
7.7072753556
 30
0.0
  0
SPLINE
  5
422
100
AcDbEntity
  8
0
100
AcDbSpline
 62
7
  6
CONTINUOUS
 70
0
 71
3
 72
8
 73
4
 74
0
 42
0.0000001
 43
0.0000001
 44
0.0000000001
 40
0.0
 40
0.0
 40
0.0
 40
0.0
 40
1.0
 40
1.0
 40
1.0
 40
1.0
 10
12.7613504755
 20
7.7072753556
 30
0.0
 10
12.7486330371
 20
7.6919850169
 30
0.0
 10
12.7314719956
 20
7.6843578974
 30
0.0
 10
12.7097640734
 20
7.6843578974
 30
0.0
  0
SPLINE
  5
423
100
AcDbEntity
  8
0
100
AcDbSpline
 62
7
  6
CONTINUOUS
 70
0
 71
3
 72
8
 73
4
 74
0
 42
0.0000001
 43
0.0000001
 44
0.0000000001
 40
0.0
 40
0.0
 40
0.0
 40
0.0
 40
1.0
 40
1.0
 40
1.0
 40
1.0
 10
12.579395056
 20
10.8473142254
 30
0.0
 10
12.5908357503
 20
10.8473142254
 30
0.0
 10
12.5996362927
 20
10.8445273834
 30
0.0
 10
12.6057966415
 20
10.8389537396
 30
0.0
  0
SPLINE
  5
424
100
AcDbEntity
  8
0
100
AcDbSpline
 62
7
  6
CONTINUOUS
 70
0
 71
3
 72
8
 73
4
 74
0
 42
0.0000001
 43
0.0000001
 44
0.0000000001
 40
0.0
 40
0.0
 40
0.0
 40
0.0
 40
1.0
 40
1.0
 40
1.0
 40
1.0
 10
12.6057966415
 20
10.8389537396
 30
0.0
 10
12.6119570198
 20
10.8333800691
 30
0.0
 10
12.6151838782
 20
10.8256062629
 30
0.0
 10
12.6151838782
 20
10.8153389948
 30
0.0
  0
SPLINE
  5
425
100
AcDbEntity
  8
0
100
AcDbSpline
 62
7
  6
CONTINUOUS
 70
0
 71
3
 72
8
 73
4
 74
0
 42
0.0000001
 43
0.0000001
 44
0.0000000001
 40
0.0
 40
0.0
 40
0.0
 40
0.0
 40
1.0
 40
1.0
 40
1.0
 40
1.0
 10
12.6151838782
 20
10.8153389948
 30
0.0
 10
12.6151838782
 20
10.8009648087
 30
0.0
 10
12.6115169766
 20
10.790550864
 30
0.0
 10
12.60421965
 20
10.7842021968
 30
0.0
  0
SPLINE
  5
426
100
AcDbEntity
  8
0
100
AcDbSpline
 62
7
  6
CONTINUOUS
 70
0
 71
3
 72
8
 73
4
 74
0
 42
0.0000001
 43
0.0000001
 44
0.0000000001
 40
0.0
 40
0.0
 40
0.0
 40
0.0
 40
1.0
 40
1.0
 40
1.0
 40
1.0
 10
12.60421965
 20
10.7842021968
 30
0.0
 10
12.5968494239
 20
10.7777901071
 30
0.0
 10
12.5848220768
 20
10.7747099253
 30
0.0
 10
12.5682477417
 20
10.7747099253
 30
0.0
  0
SPLINE
  5
427
100
AcDbEntity
  8
0
100
AcDbSpline
 62
7
  6
CONTINUOUS
 70
0
 71
3
 72
8
 73
4
 74
0
 42
0.0000001
 43
0.0000001
 44
0.0000000001
 40
0.0
 40
0.0
 40
0.0
 40
0.0
 40
1.0
 40
1.0
 40
1.0
 40
1.0
 10
12.3526095431
 20
7.6798109631
 30
0.0
 10
12.3329550664
 20
7.6798109631
 30
0.0
 10
12.3177008073
 20
7.6874380826
 30
0.0
 10
12.3070902858
 20
7.7029514114
 30
0.0
  0
SPLINE
  5
428
100
AcDbEntity
  8
0
100
AcDbSpline
 62
7
  6
CONTINUOUS
 70
0
 71
3
 72
8
 73
4
 74
0
 42
0.0000001
 43
0.0000001
 44
0.0000000001
 40
0.0
 40
0.0
 40
0.0
 40
0.0
 40
1.0
 40
1.0
 40
1.0
 40
1.0
 10
12.3070902858
 20
7.7029514114
 30
0.0
 10
12.2964329015
 20
7.7185332569
 30
0.0
 10
12.2911525707
 20
7.7405345591
 30
0.0
 10
12.2911525707
 20
7.7691362547
 30
0.0
  0
SPLINE
  5
429
100
AcDbEntity
  8
0
100
AcDbSpline
 62
7
  6
CONTINUOUS
 70
0
 71
3
 72
8
 73
4
 74
0
 42
0.0000001
 43
0.0000001
 44
0.0000000001
 40
0.0
 40
0.0
 40
0.0
 40
0.0
 40
1.0
 40
1.0
 40
1.0
 40
1.0
 10
12.2911525707
 20
7.7691362547
 30
0.0
 10
12.2911525707
 20
7.7955378147
 30
0.0
 10
12.2964329015
 20
7.8159257012
 30
0.0
 10
12.3070927362
 20
7.8303348657
 30
0.0
  0
SPLINE
  5
42A
100
AcDbEntity
  8
0
100
AcDbSpline
 62
7
  6
CONTINUOUS
 70
0
 71
3
 72
8
 73
4
 74
0
 42
0.0000001
 43
0.0000001
 44
0.0000000001
 40
0.0
 40
0.0
 40
0.0
 40
0.0
 40
1.0
 40
1.0
 40
1.0
 40
1.0
 10
12.3070927362
 20
7.8303348657
 30
0.0
 10
12.3177008073
 20
7.84467406
 30
0.0
 10
12.3329550664
 20
7.8518611597
 30
0.0
 10
12.3526095431
 20
7.8518611597
 30
0.0
  0
SPLINE
  5
42B
100
AcDbEntity
  8
0
100
AcDbSpline
 62
7
  6
CONTINUOUS
 70
0
 71
3
 72
8
 73
4
 74
0
 42
0.0000001
 43
0.0000001
 44
0.0000000001
 40
0.0
 40
0.0
 40
0.0
 40
0.0
 40
1.0
 40
1.0
 40
1.0
 40
1.0
 10
12.3526095431
 20
7.8518611597
 30
0.0
 10
12.3743175189
 20
7.8518611597
 30
0.0
 10
12.3901584576
 20
7.8452607664
 30
0.0
 10
12.3998390145
 20
7.8323533393
 30
0.0
  0
SPLINE
  5
42C
100
AcDbEntity
  8
0
100
AcDbSpline
 62
7
  6
CONTINUOUS
 70
0
 71
3
 72
8
 73
4
 74
0
 42
0.0000001
 43
0.0000001
 44
0.0000000001
 40
0.0
 40
0.0
 40
0.0
 40
0.0
 40
1.0
 40
1.0
 40
1.0
 40
1.0
 10
12.3998390145
 20
7.8323533393
 30
0.0
 10
12.4095195811
 20
7.8194458994
 30
0.0
 10
12.4142132054
 20
7.7983246567
 30
0.0
 10
12.4142132054
 20
7.7691362547
 30
0.0
  0
SPLINE
  5
42D
100
AcDbEntity
  8
0
100
AcDbSpline
 62
7
  6
CONTINUOUS
 70
0
 71
3
 72
8
 73
4
 74
0
 42
0.0000001
 43
0.0000001
 44
0.0000000001
 40
0.0
 40
0.0
 40
0.0
 40
0.0
 40
1.0
 40
1.0
 40
1.0
 40
1.0
 10
12.4142132054
 20
7.7691362547
 30
0.0
 10
12.4142132054
 20
7.7405345591
 30
0.0
 10
12.4087862115
 20
7.7185332569
 30
0.0
 10
12.3981756707
 20
7.7030199195
 30
0.0
  0
SPLINE
  5
42E
100
AcDbEntity
  8
0
100
AcDbSpline
 62
7
  6
CONTINUOUS
 70
0
 71
3
 72
8
 73
4
 74
0
 42
0.0000001
 43
0.0000001
 44
0.0000000001
 40
0.0
 40
0.0
 40
0.0
 40
0.0
 40
1.0
 40
1.0
 40
1.0
 40
1.0
 10
12.3981756707
 20
7.7030199195
 30
0.0
 10
12.3875182788
 20
7.6874380826
 30
0.0
 10
12.3722640465
 20
7.6798109631
 30
0.0
 10
12.3526095431
 20
7.6798109631
 30
0.0
  0
SPLINE
  5
42F
100
AcDbEntity
  8
0
100
AcDbSpline
 62
7
  6
CONTINUOUS
 70
0
 71
3
 72
8
 73
4
 74
0
 42
0.0000001
 43
0.0000001
 44
0.0000000001
 40
0.0
 40
0.0
 40
0.0
 40
0.0
 40
1.0
 40
1.0
 40
1.0
 40
1.0
 10
10.9514785336
 20
11.3798109631
 30
0.0
 10
10.9318240301
 20
11.3798109631
 30
0.0
 10
10.9165697979
 20
11.3874380826
 30
0.0
 10
10.9059592586
 20
11.4029514177
 30
0.0
  0
SPLINE
  5
430
100
AcDbEntity
  8
0
100
AcDbSpline
 62
7
  6
CONTINUOUS
 70
0
 71
3
 72
8
 73
4
 74
0
 42
0.0000001
 43
0.0000001
 44
0.0000000001
 40
0.0
 40
0.0
 40
0.0
 40
0.0
 40
1.0
 40
1.0
 40
1.0
 40
1.0
 10
10.9059592586
 20
11.4029514177
 30
0.0
 10
10.8953018652
 20
11.4185332569
 30
0.0
 10
10.8900215344
 20
11.4405345591
 30
0.0
 10
10.8900215344
 20
11.4691362547
 30
0.0
  0
SPLINE
  5
431
100
AcDbEntity
  8
0
100
AcDbSpline
 62
7
  6
CONTINUOUS
 70
0
 71
3
 72
8
 73
4
 74
0
 42
0.0000001
 43
0.0000001
 44
0.0000000001
 40
0.0
 40
0.0
 40
0.0
 40
0.0
 40
1.0
 40
1.0
 40
1.0
 40
1.0
 10
10.8900215344
 20
11.4691362547
 30
0.0
 10
10.8900215344
 20
11.4955378147
 30
0.0
 10
10.8953018652
 20
11.5159257012
 30
0.0
 10
10.9059617087
 20
11.5303348593
 30
0.0
  0
SPLINE
  5
432
100
AcDbEntity
  8
0
100
AcDbSpline
 62
7
  6
CONTINUOUS
 70
0
 71
3
 72
8
 73
4
 74
0
 42
0.0000001
 43
0.0000001
 44
0.0000000001
 40
0.0
 40
0.0
 40
0.0
 40
0.0
 40
1.0
 40
1.0
 40
1.0
 40
1.0
 10
10.9059617087
 20
11.5303348593
 30
0.0
 10
10.9165697979
 20
11.54467406
 30
0.0
 10
10.9318240301
 20
11.5518611597
 30
0.0
 10
10.9514785336
 20
11.5518611597
 30
0.0
  0
SPLINE
  5
433
100
AcDbEntity
  8
0
100
AcDbSpline
 62
7
  6
CONTINUOUS
 70
0
 71
3
 72
8
 73
4
 74
0
 42
0.0000001
 43
0.0000001
 44
0.0000000001
 40
0.0
 40
0.0
 40
0.0
 40
0.0
 40
1.0
 40
1.0
 40
1.0
 40
1.0
 10
10.9514785336
 20
11.5518611597
 30
0.0
 10
10.9731864826
 20
11.5518611597
 30
0.0
 10
10.9890274213
 20
11.5452607664
 30
0.0
 10
10.9987079965
 20
11.5323533329
 30
0.0
  0
SPLINE
  5
434
100
AcDbEntity
  8
0
100
AcDbSpline
 62
7
  6
CONTINUOUS
 70
0
 71
3
 72
8
 73
4
 74
0
 42
0.0000001
 43
0.0000001
 44
0.0000000001
 40
0.0
 40
0.0
 40
0.0
 40
0.0
 40
1.0
 40
1.0
 40
1.0
 40
1.0
 10
10.9987079965
 20
11.5323533329
 30
0.0
 10
11.0083885716
 20
11.5194458994
 30
0.0
 10
11.0130821692
 20
11.4983246567
 30
0.0
 10
11.0130821692
 20
11.4691362547
 30
0.0
  0
SPLINE
  5
435
100
AcDbEntity
  8
0
100
AcDbSpline
 62
7
  6
CONTINUOUS
 70
0
 71
3
 72
8
 73
4
 74
0
 42
0.0000001
 43
0.0000001
 44
0.0000000001
 40
0.0
 40
0.0
 40
0.0
 40
0.0
 40
1.0
 40
1.0
 40
1.0
 40
1.0
 10
11.0130821692
 20
11.4691362547
 30
0.0
 10
11.0130821692
 20
11.4405345591
 30
0.0
 10
11.0076551752
 20
11.4185332569
 30
0.0
 10
10.9970446521
 20
11.4030199257
 30
0.0
  0
SPLINE
  5
436
100
AcDbEntity
  8
0
100
AcDbSpline
 62
7
  6
CONTINUOUS
 70
0
 71
3
 72
8
 73
4
 74
0
 42
0.0000001
 43
0.0000001
 44
0.0000000001
 40
0.0
 40
0.0
 40
0.0
 40
0.0
 40
1.0
 40
1.0
 40
1.0
 40
1.0
 10
10.9970446521
 20
11.4030199257
 30
0.0
 10
10.9863872694
 20
11.3874380826
 30
0.0
 10
10.9711330102
 20
11.3798109631
 30
0.0
 10
10.9514785336
 20
11.3798109631
 30
0.0
  0
LINE
  5
437
100
AcDbEntity
  8
0
100
AcDbLine
 62
9
  6
CONTINUOUS
 10
10.1590288338
 20
8.3499890405
 11
10.1588434199
 21
8.349864056
  0
SPLINE
  5
438
100
AcDbEntity
  8
0
100
AcDbSpline
 62
9
  6
CONTINUOUS
 70
0
 71
3
 72
23
 73
19
 74
0
 42
0.0000001
 43
0.0000001
 44
0.0000000001
 40
0.0
 40
0.0
 40
0.0
 40
0.0
 40
0.0613737947
 40
0.1228484523
 40
0.184448528
 40
0.2461972247
 40
0.3081122946
 40
0.3702065933
 40
0.43248752
 40
0.4949568778
 40
0.557610858
 40
0.6204402147
 40
0.6834305342
 40
0.746562568
 40
0.8098138874
 40
0.8731553218
 40
0.9365642388
 40
1.0
 40
1.0
 40
1.0
 40
1.0
 10
10.1588434199
 20
8.349864056
 30
0.0
 10
10.156529649
 20
8.3483083975
 30
0.0
 10
10.1517562642
 20
8.3454000816
 30
0.0
 10
10.1442315528
 20
8.3416897752
 30
0.0
 10
10.1363910416
 20
8.3386548918
 30
0.0
 10
10.1282942714
 20
8.3363184777
 30
0.0
 10
10.1200016015
 20
8.3346978623
 30
0.0
 10
10.1115751504
 20
8.3338050959
 30
0.0
 10
10.1030779275
 20
8.3336467214
 30
0.0
 10
10.0945734591
 20
8.3342238182
 30
0.0
 10
10.0861252932
 20
8.3355319749
 30
0.0
 10
10.0777965366
 20
8.3375613397
 30
0.0
 10
10.0696494107
 20
8.3402967031
 30
0.0
 10
10.0617446853
 20
8.3437175313
 30
0.0
 10
10.0541415376
 20
8.3477982306
 30
0.0
 10
10.0468962395
 20
8.352508321
 30
0.0
 10
10.0400638627
 20
8.3578122467
 30
0.0
 10
10.0358169135
 20
8.3617186045
 30
0.0
 10
10.0337791793
 20
8.3637563387
 30
0.0
  0
SPLINE
  5
439
100
AcDbEntity
  8
0
100
AcDbSpline
 62
9
  6
CONTINUOUS
 70
0
 71
3
 72
17
 73
13
 74
0
 42
0.0000001
 43
0.0000001
 44
0.0000000001
 40
0.0
 40
0.0
 40
0.0
 40
0.0
 40
0.1241281157
 40
0.1863802031
 40
0.2487306295
 40
0.3736390056
 40
0.4988106183
 40
0.624141377
 40
0.7495179092
 40
0.8122124732
 40
0.8748753072
 40
1.0
 40
1.0
 40
1.0
 40
1.0
 10
11.312968871
 20
8.7509714612
 30
0.0
 10
11.3098206196
 20
8.7541109646
 30
0.0
 10
11.3048121999
 20
8.7585546912
 30
0.0
 10
11.2976588233
 20
8.7638712374
 30
0.0
 10
11.2901874943
 20
8.7687836824
 30
0.0
 10
11.2803193282
 20
8.7741173739
 30
0.0
 10
11.2678117037
 20
8.7791319494
 30
0.0
 10
11.2547996513
 20
8.7826988539
 30
0.0
 10
11.2436808608
 20
8.7844238879
 30
0.0
 10
11.2347167024
 20
8.7850406028
 30
0.0
 10
11.2257419298
 20
8.7851471011
 30
0.0
 10
11.2190146236
 20
8.7846516106
 30
0.0
 10
11.2145710475
 20
8.7840674073
 30
0.0
  0
SPLINE
  5
43A
100
AcDbEntity
  8
0
100
AcDbSpline
 62
9
  6
CONTINUOUS
 70
0
 71
3
 72
32
 73
28
 74
0
 42
0.0000001
 43
0.0000001
 44
0.0000000001
 40
0.0
 40
0.0
 40
0.0
 40
0.0
 40
0.0041066015
 40
0.0082927066
 40
0.0171734006
 40
0.0271503042
 40
0.0385646384
 40
0.0516358449
 40
0.0664957705
 40
0.0746230706
 40
0.0832226472
 40
0.1018490712
 40
0.122389021
 40
0.1448350994
 40
0.1691650239
 40
0.1953458256
 40
0.2233340142
 40
0.2530793932
 40
0.3175996265
 40
0.3883757016
 40
0.4647915364
 40
0.5461632269
 40
0.6317499123
 40
0.72076474
 40
0.8123818658
 40
0.9057519619
 40
1.0
 40
1.0
 40
1.0
 40
1.0
 10
10.218685277
 20
8.4072410802
 30
0.0
 10
10.2187859442
 20
8.4073417474
 30
0.0
 10
10.2189749617
 20
8.4075598783
 30
0.0
 10
10.2192994173
 20
8.4080610106
 30
0.0
 10
10.2195930719
 20
8.4088133807
 30
0.0
 10
10.2197559157
 20
8.4098560578
 30
0.0
 10
10.2197445516
 20
8.4110548212
 30
0.0
 10
10.2195612536
 20
8.4124090914
 30
0.0
 10
10.2192756943
 20
8.4136276806
 30
0.0
 10
10.2189678487
 20
8.4146786973
 30
0.0
 10
10.2185835205
 20
8.4158427164
 30
0.0
 10
10.2179917741
 20
8.4173902769
 30
0.0
 10
10.2171320946
 20
8.4193462887
 30
0.0
 10
10.2161067412
 20
8.4214432428
 30
0.0
 10
10.2149180695
 20
8.4236762067
 30
0.0
 10
10.2135687238
 20
8.4260398605
 30
0.0
 10
10.212061917
 20
8.4285286304
 30
0.0
 10
10.2097849982
 20
8.4321036299
 30
0.0
 10
10.2065632011
 20
8.4368335964
 30
0.0
 10
10.2022353857
 20
8.4427625926
 30
0.0
 10
10.1973878877
 20
8.4490316297
 30
0.0
 10
10.1920669471
 20
8.4555802889
 30
0.0
 10
10.1863233049
 20
8.4623454915
 30
0.0
 10
10.1802120033
 20
8.4692620182
 30
0.0
 10
10.1737916365
 20
8.4762633197
 30
0.0
 10
10.1671239493
 20
8.4832818585
 30
0.0
 10
10.1625637289
 20
8.4879201891
 30
0.0
 10
10.1602533794
 20
8.4902305388
 30
0.0
  0
SPLINE
  5
43B
100
AcDbEntity
  8
0
100
AcDbSpline
 62
9
  6
CONTINUOUS
 70
0
 71
3
 72
31
 73
27
 74
0
 42
0.0000001
 43
0.0000001
 44
0.0000000001
 40
0.0
 40
0.0
 40
0.0
 40
0.0
 40
0.0924703332
 40
0.1843222431
 40
0.2748803527
 40
0.3634532058
 40
0.4493311014
 40
0.5317601719
 40
0.6099226475
 40
0.6829455705
 40
0.7499870414
 40
0.8102620005
 40
0.8630590601
 40
0.8864606195
 40
0.9077794762
 40
0.9269634999
 40
0.9439722689
 40
0.9587747132
 40
0.9713513397
 40
0.9816978325
 40
0.9860408482
 40
0.9898375097
 40
0.993100387
 40
0.9958505224
 40
0.9981261964
 40
1.0
 40
1.0
 40
1.0
 40
1.0
 10
10.5155631019
 20
8.8455438087
 30
0.0
 10
10.5178243572
 20
8.8431366768
 30
0.0
 10
10.522103871
 20
8.838120868
 30
0.0
 10
10.527873266
 20
8.8301682201
 30
0.0
 10
10.5330509025
 20
8.8219848808
 30
0.0
 10
10.5377001786
 20
8.8137367998
 30
0.0
 10
10.5418796114
 20
8.8055671413
 30
0.0
 10
10.5456381077
 20
8.7976057232
 30
0.0
 10
10.5490173983
 20
8.7899763259
 30
0.0
 10
10.5520523191
 20
8.782796975
 30
0.0
 10
10.5547334065
 20
8.7761626029
 30
0.0
 10
10.5570390702
 20
8.770156728
 30
0.0
 10
10.5586897312
 20
8.7655698291
 30
0.0
 10
10.5597944599
 20
8.7622665972
 30
0.0
 10
10.560479276
 20
8.7600891938
 30
0.0
 10
10.561051492
 20
8.7581162014
 30
0.0
 10
10.5615093173
 20
8.7563530379
 30
0.0
 10
10.561851253
 20
8.7548044864
 30
0.0
 10
10.5620780483
 20
8.7534757459
 30
0.0
 10
10.5621782462
 20
8.7525057664
 30
0.0
 10
10.5621948635
 20
8.7518453952
 30
0.0
 10
10.5621793428
 20
8.7514380873
 30
0.0
 10
10.5621373769
 20
8.7510897598
 30
0.0
 10
10.5620697703
 20
8.7508006572
 30
0.0
 10
10.5619775557
 20
8.7505709436
 30
0.0
 10
10.5618915802
 20
8.7504473842
 30
0.0
 10
10.5618442578
 20
8.750400061
 30
0.0
  0
SPLINE
  5
43C
100
AcDbEntity
  8
0
100
AcDbSpline
 62
9
  6
CONTINUOUS
 70
0
 71
3
 72
17
 73
13
 74
0
 42
0.0000001
 43
0.0000001
 44
0.0000000001
 40
0.0
 40
0.0
 40
0.0
 40
0.0
 40
0.124128116
 40
0.1863802035
 40
0.2487306299
 40
0.3736390062
 40
0.4988106188
 40
0.6241413775
 40
0.7495179095
 40
0.8122124734
 40
0.8748753074
 40
1.0
 40
1.0
 40
1.0
 40
1.0
 10
10.5624158233
 20
9.7843675343
 30
0.0
 10
10.5655640747
 20
9.7812280316
 30
0.0
 10
10.5705724943
 20
9.776784306
 30
0.0
 10
10.5777258705
 20
9.771467761
 30
0.0
 10
10.5851971991
 20
9.7665553172
 30
0.0
 10
10.5950653644
 20
9.7612216271
 30
0.0
 10
10.6075729878
 20
9.7562070529
 30
0.0
 10
10.6205850389
 20
9.7526401495
 30
0.0
 10
10.6317038281
 20
9.750915116
 30
0.0
 10
10.6406679855
 20
9.7502984014
 30
0.0
 10
10.649642757
 20
9.7501919032
 30
0.0
 10
10.6563700624
 20
9.7506873937
 30
0.0
 10
10.660813638
 20
9.751271597
 30
0.0
  0
LINE
  5
43D
100
AcDbEntity
  8
0
100
AcDbLine
 62
9
  6
CONTINUOUS
 10
11.7163558517
 20
8.3499890405
 11
11.7165412656
 21
8.349864056
  0
SPLINE
  5
43E
100
AcDbEntity
  8
0
100
AcDbSpline
 62
9
  6
CONTINUOUS
 70
0
 71
3
 72
23
 73
19
 74
0
 42
0.0000001
 43
0.0000001
 44
0.0000000001
 40
0.0
 40
0.0
 40
0.0
 40
0.0
 40
0.0613737942
 40
0.1228484515
 40
0.1844485269
 40
0.2461972235
 40
0.3081122933
 40
0.3702065919
 40
0.4324875187
 40
0.4949568766
 40
0.5576108569
 40
0.6204402138
 40
0.6834305335
 40
0.7465625675
 40
0.8098138871
 40
0.8731553216
 40
0.9365642387
 40
1.0
 40
1.0
 40
1.0
 40
1.0
 10
11.7165412656
 20
8.349864056
 30
0.0
 10
11.7188550365
 20
8.3483083975
 30
0.0
 10
11.7236284213
 20
8.3454000817
 30
0.0
 10
11.7311531326
 20
8.3416897754
 30
0.0
 10
11.7389936438
 20
8.338654892
 30
0.0
 10
11.7470904139
 20
8.336318478
 30
0.0
 10
11.7553830838
 20
8.3346978625
 30
0.0
 10
11.7638095349
 20
8.3338050962
 30
0.0
 10
11.7723067577
 20
8.3336467217
 30
0.0
 10
11.7808112262
 20
8.3342238185
 30
0.0
 10
11.789259392
 20
8.3355319752
 30
0.0
 10
11.7975881487
 20
8.3375613399
 30
0.0
 10
11.8057352745
 20
8.3402967034
 30
0.0
 10
11.81364
 20
8.3437175315
 30
0.0
 10
11.8212431478
 20
8.3477982308
 30
0.0
 10
11.8284884459
 20
8.3525083212
 30
0.0
 10
11.8353208227
 20
8.3578122467
 30
0.0
 10
11.839567772
 20
8.3617186045
 30
0.0
 10
11.8416055062
 20
8.3637563387
 30
0.0
  0
SPLINE
  5
43F
100
AcDbEntity
  8
0
100
AcDbSpline
 62
9
  6
CONTINUOUS
 70
0
 71
3
 72
31
 73
27
 74
0
 42
0.0000001
 43
0.0000001
 44
0.0000000001
 40
0.0
 40
0.0
 40
0.0
 40
0.0
 40
0.0064845511
 40
0.0102421352
 40
0.0143990619
 40
0.0189860277
 40
0.0240270466
 40
0.0355309622
 40
0.0490023312
 40
0.0644849789
 40
0.0819942397
 40
0.1015247281
 40
0.1230558944
 40
0.1465503517
 40
0.1719606661
 40
0.1992258474
 40
0.2590397658
 40
0.3253663229
 40
0.3974868219
 40
0.4745975025
 40
0.5558958535
 40
0.6406309931
 40
0.7280923826
 40
0.8175935374
 40
0.9084522518
 40
1.0
 40
1.0
 40
1.0
 40
1.0
 10
11.31308139
 20
8.7508590986
 30
0.0
 10
11.3129164017
 20
8.7510240886
 30
0.0
 10
11.3127091995
 20
8.7513388347
 30
0.0
 10
11.3125109613
 20
8.751817561
 30
0.0
 10
11.3123847281
 20
8.7522503863
 30
0.0
 10
11.3122896342
 20
8.7527376893
 30
0.0
 10
11.3122006031
 20
8.7534934509
 30
0.0
 10
11.3121793737
 20
8.7545757132
 30
0.0
 10
11.3122820706
 20
8.7560291199
 30
0.0
 10
11.3125124473
 20
8.7576860659
 30
0.0
 10
11.3128703392
 20
8.7595424078
 30
0.0
 10
11.3133536027
 20
8.7615942553
 30
0.0
 10
11.3139599241
 20
8.763836958
 30
0.0
 10
11.3146863953
 20
8.7662653214
 30
0.0
 10
11.3155298143
 20
8.7688733023
 30
0.0
 10
11.31684785
 20
8.7727005405
 30
0.0
 10
11.3187752849
 20
8.7778739483
 30
0.0
 10
11.3214371148
 20
8.7844933025
 30
0.0
 10
11.3244934188
 20
8.7916228418
 30
0.0
 10
11.3279600241
 20
8.7991600303
 30
0.0
 10
11.3318727913
 20
8.8069873094
 30
0.0
 10
11.33626976
 20
8.8149821474
 30
0.0
 10
11.3411967405
 20
8.8230118053
 30
0.0
 10
11.3467082789
 20
8.8309252453
 30
0.0
 10
11.3528603957
 20
8.838544599
 30
0.0
 10
11.3574167295
 20
8.8432852959
 30
0.0
 10
11.359818113
 20
8.8455401845
 30
0.0
  0
SPLINE
  5
440
100
AcDbEntity
  8
0
100
AcDbSpline
 62
9
  6
CONTINUOUS
 70
0
 71
3
 72
32
 73
28
 74
0
 42
0.0000001
 43
0.0000001
 44
0.0000000001
 40
0.0
 40
0.0
 40
0.0
 40
0.0
 40
0.0041066024
 40
0.0082927083
 40
0.0171734038
 40
0.0271503087
 40
0.0385646438
 40
0.0516358511
 40
0.0664957772
 40
0.0746230775
 40
0.0832226544
 40
0.1018490786
 40
0.1223890285
 40
0.1448351069
 40
0.1691650315
 40
0.195345833
 40
0.2233340215
 40
0.2530794003
 40
0.317599633
 40
0.3883757076
 40
0.4647915416
 40
0.5461632313
 40
0.6317499158
 40
0.7207647426
 40
0.8123818675
 40
0.9057519628
 40
1.0
 40
1.0
 40
1.0
 40
1.0
 10
11.6566994084
 20
8.4072410802
 30
0.0
 10
11.6565987412
 20
8.4073417474
 30
0.0
 10
11.6564097238
 20
8.4075598783
 30
0.0
 10
11.6560852681
 20
8.4080610108
 30
0.0
 10
11.6557916133
 20
8.4088133809
 30
0.0
 10
11.6556287694
 20
8.4098560582
 30
0.0
 10
11.6556401334
 20
8.4110548217
 30
0.0
 10
11.6558234313
 20
8.412409092
 30
0.0
 10
11.6561089905
 20
8.4136276813
 30
0.0
 10
11.6564168361
 20
8.414678698
 30
0.0
 10
11.6568011642
 20
8.4158427172
 30
0.0
 10
11.6573929105
 20
8.4173902777
 30
0.0
 10
11.6582525899
 20
8.4193462896
 30
0.0
 10
11.6592779433
 20
8.4214432438
 30
0.0
 10
11.660466615
 20
8.4236762077
 30
0.0
 10
11.6618159606
 20
8.4260398616
 30
0.0
 10
11.6633227674
 20
8.4285286315
 30
0.0
 10
11.6655996862
 20
8.432103631
 30
0.0
 10
11.6688214833
 20
8.4368335975
 30
0.0
 10
11.6731492987
 20
8.4427625937
 30
0.0
 10
11.6779967968
 20
8.4490316307
 30
0.0
 10
11.6833177375
 20
8.4555802898
 30
0.0
 10
11.6890613798
 20
8.4623454923
 30
0.0
 10
11.6951726816
 20
8.4692620189
 30
0.0
 10
11.7015930486
 20
8.4762633201
 30
0.0
 10
11.708260736
 20
8.4832818587
 30
0.0
 10
11.7128209566
 20
8.4879201892
 30
0.0
 10
11.7151313061
 20
8.4902305387
 30
0.0
  0
LINE
  5
441
100
AcDbEntity
  8
0
100
AcDbLine
 62
9
  6
CONTINUOUS
 10
10.1590288338
 20
10.1853499638
 11
10.1588434199
 21
10.1854749483
  0
SPLINE
  5
442
100
AcDbEntity
  8
0
100
AcDbSpline
 62
9
  6
CONTINUOUS
 70
0
 71
3
 72
23
 73
19
 74
0
 42
0.0000001
 43
0.0000001
 44
0.0000000001
 40
0.0
 40
0.0
 40
0.0
 40
0.0
 40
0.0613737942
 40
0.1228484515
 40
0.1844485269
 40
0.2461972235
 40
0.3081122933
 40
0.3702065919
 40
0.4324875187
 40
0.4949568766
 40
0.5576108569
 40
0.6204402138
 40
0.6834305335
 40
0.7465625675
 40
0.8098138871
 40
0.8731553216
 40
0.9365642387
 40
1.0
 40
1.0
 40
1.0
 40
1.0
 10
10.1588434199
 20
10.1854749483
 30
0.0
 10
10.156529649
 20
10.1870306068
 30
0.0
 10
10.1517562642
 20
10.1899389226
 30
0.0
 10
10.1442315529
 20
10.1936492289
 30
0.0
 10
10.1363910417
 20
10.1966841123
 30
0.0
 10
10.1282942716
 20
10.1990205263
 30
0.0
 10
10.1200016017
 20
10.2006411417
 30
0.0
 10
10.1115751506
 20
10.2015339081
 30
0.0
 10
10.1030779277
 20
10.2016922826
 30
0.0
 10
10.0945734593
 20
10.2011151858
 30
0.0
 10
10.0861252934
 20
10.1998070291
 30
0.0
 10
10.0777965368
 20
10.1977776643
 30
0.0
 10
10.0696494109
 20
10.1950423009
 30
0.0
 10
10.0617446855
 20
10.1916214727
 30
0.0
 10
10.0541415377
 20
10.1875407735
 30
0.0
 10
10.0468962396
 20
10.1828306831
 30
0.0
 10
10.0400638628
 20
10.1775267575
 30
0.0
 10
10.0358169135
 20
10.1736203998
 30
0.0
 10
10.0337791793
 20
10.1715826656
 30
0.0
  0
SPLINE
  5
443
100
AcDbEntity
  8
0
100
AcDbSpline
 62
9
  6
CONTINUOUS
 70
0
 71
3
 72
17
 73
13
 74
0
 42
0.0000001
 43
0.0000001
 44
0.0000000001
 40
0.0
 40
0.0
 40
0.0
 40
0.0
 40
0.1243906797
 40
0.1867243565
 40
0.2491261241
 40
0.374058841
 40
0.4991741439
 40
0.6243999687
 40
0.7496575212
 40
0.8122985648
 40
0.8749175546
 40
1.0
 40
1.0
 40
1.0
 40
1.0
 10
11.4549617839
 20
8.8918214172
 30
0.0
 10
11.4517821935
 20
8.8950010076
 30
0.0
 10
11.4472811523
 20
8.900057708
 30
0.0
 10
11.4418951049
 20
8.9072796757
 30
0.0
 10
11.4369218496
 20
8.9148165165
 30
0.0
 10
11.4315230356
 20
8.9247679882
 30
0.0
 10
11.4264481744
 20
8.9373802099
 30
0.0
 10
11.4228401498
 20
8.9504997414
 30
0.0
 10
11.4210968851
 20
8.961710783
 30
0.0
 10
11.4204751141
 20
8.9707498584
 30
0.0
 10
11.4203697729
 20
8.9798024201
 30
0.0
 10
11.4208732934
 20
8.9865885083
 30
0.0
 10
11.4214656522
 20
8.9910711658
 30
0.0
  0
SPLINE
  5
444
100
AcDbEntity
  8
0
100
AcDbSpline
 62
9
  6
CONTINUOUS
 70
0
 71
3
 72
12
 73
8
 74
0
 42
0.0000001
 43
0.0000001
 44
0.0000000001
 40
0.0
 40
0.0
 40
0.0
 40
0.0
 40
0.2796043246
 40
0.552175761
 40
0.7981818039
 40
0.9056052111
 40
1.0
 40
1.0
 40
1.0
 40
1.0
 10
11.3598199934
 20
8.8455420198
 30
0.0
 10
11.3573548974
 20
8.8481232534
 30
0.0
 10
11.3524708329
 20
8.8532056586
 30
0.0
 10
11.3453670994
 20
8.860510089
 30
0.0
 10
11.3397579288
 20
8.8662018779
 30
0.0
 10
11.3357168769
 20
8.8702453747
 30
0.0
 10
11.3338853492
 20
8.8720572289
 30
0.0
 10
11.3330252344
 20
8.8729011357
 30
0.0
  0
SPLINE
  5
445
100
AcDbEntity
  8
0
100
AcDbSpline
 62
9
  6
CONTINUOUS
 70
0
 71
3
 72
31
 73
27
 74
0
 42
0.0000001
 43
0.0000001
 44
0.0000000001
 40
0.0
 40
0.0
 40
0.0
 40
0.0
 40
0.0064845511
 40
0.0102421352
 40
0.0143990619
 40
0.0189860277
 40
0.0240270466
 40
0.0355309622
 40
0.0490023312
 40
0.0644849789
 40
0.0819942397
 40
0.1015247281
 40
0.1230558944
 40
0.1465503517
 40
0.1719606661
 40
0.1992258474
 40
0.2590397658
 40
0.3253663229
 40
0.3974868219
 40
0.4745975025
 40
0.5558958535
 40
0.6406309931
 40
0.7280923826
 40
0.8175935374
 40
0.9084522518
 40
1.0
 40
1.0
 40
1.0
 40
1.0
 10
10.5623032954
 20
9.7844799057
 30
0.0
 10
10.5624682838
 20
9.7843149157
 30
0.0
 10
10.562675486
 20
9.7840001696
 30
0.0
 10
10.5628737242
 20
9.7835214433
 30
0.0
 10
10.5629999573
 20
9.7830886179
 30
0.0
 10
10.5630950513
 20
9.782601315
 30
0.0
 10
10.5631840823
 20
9.7818455534
 30
0.0
 10
10.5632053118
 20
9.7807632911
 30
0.0
 10
10.5631026149
 20
9.7793098844
 30
0.0
 10
10.5628722382
 20
9.7776529384
 30
0.0
 10
10.5625143462
 20
9.7757965965
 30
0.0
 10
10.5620310828
 20
9.773744749
 30
0.0
 10
10.5614247614
 20
9.7715020463
 30
0.0
 10
10.5606982901
 20
9.7690736829
 30
0.0
 10
10.5598548711
 20
9.766465702
 30
0.0
 10
10.5585368355
 20
9.7626384638
 30
0.0
 10
10.5566094006
 20
9.757465056
 30
0.0
 10
10.5539475707
 20
9.7508457018
 30
0.0
 10
10.5508912667
 20
9.7437161625
 30
0.0
 10
10.5474246614
 20
9.736178974
 30
0.0
 10
10.5435118942
 20
9.7283516948
 30
0.0
 10
10.5391149255
 20
9.7203568569
 30
0.0
 10
10.534187945
 20
9.712327199
 30
0.0
 10
10.5286764066
 20
9.704413759
 30
0.0
 10
10.5225242898
 20
9.6967944053
 30
0.0
 10
10.517967956
 20
9.6920537084
 30
0.0
 10
10.5155665725
 20
9.6897988198
 30
0.0
  0
SPLINE
  5
446
100
AcDbEntity
  8
0
100
AcDbSpline
 62
9
  6
CONTINUOUS
 70
0
 71
3
 72
32
 73
28
 74
0
 42
0.0000001
 43
0.0000001
 44
0.0000000001
 40
0.0
 40
0.0
 40
0.0
 40
0.0
 40
0.0041066024
 40
0.0082927083
 40
0.0171734038
 40
0.0271503087
 40
0.0385646438
 40
0.0516358511
 40
0.0664957772
 40
0.0746230775
 40
0.0832226544
 40
0.1018490786
 40
0.1223890285
 40
0.1448351069
 40
0.1691650315
 40
0.195345833
 40
0.2233340215
 40
0.2530794003
 40
0.317599633
 40
0.3883757076
 40
0.4647915416
 40
0.5461632313
 40
0.6317499158
 40
0.7207647426
 40
0.8123818675
 40
0.9057519628
 40
1.0
 40
1.0
 40
1.0
 40
1.0
 10
10.218685277
 20
10.1280979241
 30
0.0
 10
10.2187859443
 20
10.1279972569
 30
0.0
 10
10.2189749617
 20
10.127779126
 30
0.0
 10
10.2192994174
 20
10.1272779935
 30
0.0
 10
10.2195930721
 20
10.1265256234
 30
0.0
 10
10.219755916
 20
10.1254829461
 30
0.0
 10
10.2197445521
 20
10.1242841826
 30
0.0
 10
10.2195612542
 20
10.1229299123
 30
0.0
 10
10.219275695
 20
10.121711323
 30
0.0
 10
10.2189678494
 20
10.1206603062
 30
0.0
 10
10.2185835213
 20
10.1194962871
 30
0.0
 10
10.217991775
 20
10.1179487266
 30
0.0
 10
10.2171320956
 20
10.1159927147
 30
0.0
 10
10.2161067422
 20
10.1138957605
 30
0.0
 10
10.2149180705
 20
10.1116627966
 30
0.0
 10
10.2135687249
 20
10.1092991427
 30
0.0
 10
10.2120619181
 20
10.1068103728
 30
0.0
 10
10.2097849993
 20
10.1032353733
 30
0.0
 10
10.2065632022
 20
10.0985054068
 30
0.0
 10
10.2022353868
 20
10.0925764106
 30
0.0
 10
10.1973878887
 20
10.0863073736
 30
0.0
 10
10.192066948
 20
10.0797587145
 30
0.0
 10
10.1863233057
 20
10.072993512
 30
0.0
 10
10.1802120039
 20
10.0660769854
 30
0.0
 10
10.1737916369
 20
10.0590756842
 30
0.0
 10
10.1671239495
 20
10.0520571456
 30
0.0
 10
10.1625637289
 20
10.0474188151
 30
0.0
 10
10.1602533793
 20
10.0451084656
 30
0.0
  0
SPLINE
  5
447
100
AcDbEntity
  8
0
100
AcDbSpline
 62
9
  6
CONTINUOUS
 70
0
 71
3
 72
17
 73
13
 74
0
 42
0.0000001
 43
0.0000001
 44
0.0000000001
 40
0.0
 40
0.0
 40
0.0
 40
0.0
 40
0.1241281161
 40
0.1863802036
 40
0.24873063
 40
0.3736390063
 40
0.498810619
 40
0.6241413776
 40
0.7495179095
 40
0.8122124734
 40
0.8748753074
 40
1.0
 40
1.0
 40
1.0
 40
1.0
 10
10.4209943126
 20
8.8923929847
 30
0.0
 10
10.4241338151
 20
8.895541236
 30
0.0
 10
10.4285775405
 20
8.9005496556
 30
0.0
 10
10.4338940851
 20
8.9077030318
 30
0.0
 10
10.4388065287
 20
8.9151743603
 30
0.0
 10
10.4441402186
 20
8.9250425254
 30
0.0
 10
10.4491547924
 20
8.9375501485
 30
0.0
 10
10.4527216956
 20
8.9505621993
 30
0.0
 10
10.4544467289
 20
8.9616809883
 30
0.0
 10
10.4550634435
 20
8.9706451454
 30
0.0
 10
10.4551699416
 20
8.9796199167
 30
0.0
 10
10.4546744511
 20
8.9863472219
 30
0.0
 10
10.4540902479
 20
8.9907907974
 30
0.0
  0
LINE
  5
448
100
AcDbEntity
  8
0
100
AcDbLine
 62
9
  6
CONTINUOUS
 10
11.8553728044
 20
8.4890059932
 11
11.8554977889
 21
8.4888205793
  0
SPLINE
  5
449
100
AcDbEntity
  8
0
100
AcDbSpline
 62
9
  6
CONTINUOUS
 70
0
 71
3
 72
23
 73
19
 74
0
 42
0.0000001
 43
0.0000001
 44
0.0000000001
 40
0.0
 40
0.0
 40
0.0
 40
0.0
 40
0.0613737947
 40
0.1228484523
 40
0.184448528
 40
0.2461972247
 40
0.3081122946
 40
0.3702065933
 40
0.43248752
 40
0.4949568778
 40
0.557610858
 40
0.6204402147
 40
0.6834305342
 40
0.746562568
 40
0.8098138874
 40
0.8731553218
 40
0.9365642388
 40
1.0
 40
1.0
 40
1.0
 40
1.0
 10
11.8554977889
 20
8.4888205793
 30
0.0
 10
11.8570534474
 20
8.4865068084
 30
0.0
 10
11.8599617633
 20
8.4817334236
 30
0.0
 10
11.8636720697
 20
8.4742087122
 30
0.0
 10
11.8667069531
 20
8.466368201
 30
0.0
 10
11.8690433672
 20
8.4582714308
 30
0.0
 10
11.8706639826
 20
8.4499787609
 30
0.0
 10
11.871556749
 20
8.4415523098
 30
0.0
 10
11.8717151235
 20
8.4330550869
 30
0.0
 10
11.8711380267
 20
8.4245506185
 30
0.0
 10
11.86982987
 20
8.4161024526
 30
0.0
 10
11.8678005052
 20
8.407773696
 30
0.0
 10
11.8650651418
 20
8.3996265702
 30
0.0
 10
11.8616443135
 20
8.3917218448
 30
0.0
 10
11.8575636142
 20
8.384118697
 30
0.0
 10
11.8528535238
 20
8.3768733989
 30
0.0
 10
11.8475495982
 20
8.3700410222
 30
0.0
 10
11.8436432404
 20
8.3657940729
 30
0.0
 10
11.8416055062
 20
8.3637563387
 30
0.0
  0
SPLINE
  5
44A
100
AcDbEntity
  8
0
100
AcDbSpline
 62
9
  6
CONTINUOUS
 70
0
 71
3
 72
32
 73
28
 74
0
 42
0.0000001
 43
0.0000001
 44
0.0000000001
 40
0.0
 40
0.0
 40
0.0
 40
0.0
 40
0.0041066015
 40
0.0082927066
 40
0.0171734006
 40
0.0271503042
 40
0.0385646384
 40
0.0516358449
 40
0.0664957705
 40
0.0746230706
 40
0.0832226472
 40
0.1018490712
 40
0.122389021
 40
0.1448350994
 40
0.1691650239
 40
0.1953458256
 40
0.2233340142
 40
0.2530793932
 40
0.3175996265
 40
0.3883757016
 40
0.4647915364
 40
0.5461632269
 40
0.6317499123
 40
0.72076474
 40
0.8123818658
 40
0.9057519619
 40
1.0
 40
1.0
 40
1.0
 40
1.0
 10
11.7981207647
 20
8.5486624365
 30
0.0
 10
11.7980200975
 20
8.5487631036
 30
0.0
 10
11.7978019666
 20
8.5489521211
 30
0.0
 10
11.7973008342
 20
8.5492765767
 30
0.0
 10
11.7965484642
 20
8.5495702313
 30
0.0
 10
11.7955057871
 20
8.5497330751
 30
0.0
 10
11.7943070237
 20
8.549721711
 30
0.0
 10
11.7929527535
 20
8.549538413
 30
0.0
 10
11.7917341643
 20
8.5492528537
 30
0.0
 10
11.7906831476
 20
8.5489450081
 30
0.0
 10
11.7895191284
 20
8.5485606799
 30
0.0
 10
11.787971568
 20
8.5479689336
 30
0.0
 10
11.7860155562
 20
8.5471092541
 30
0.0
 10
11.7839186021
 20
8.5460839006
 30
0.0
 10
11.7816856382
 20
8.5448952289
 30
0.0
 10
11.7793219843
 20
8.5435458832
 30
0.0
 10
11.7768332144
 20
8.5420390764
 30
0.0
 10
11.773258215
 20
8.5397621576
 30
0.0
 10
11.7685282485
 20
8.5365403605
 30
0.0
 10
11.7625992523
 20
8.5322125451
 30
0.0
 10
11.7563302152
 20
8.5273650471
 30
0.0
 10
11.749781556
 20
8.5220441065
 30
0.0
 10
11.7430163534
 20
8.5163004643
 30
0.0
 10
11.7360998266
 20
8.5101891627
 30
0.0
 10
11.7290985252
 20
8.5037687959
 30
0.0
 10
11.7220799864
 20
8.4971011087
 30
0.0
 10
11.7174416558
 20
8.4925408883
 30
0.0
 10
11.7151313061
 20
8.4902305388
 30
0.0
  0
SPLINE
  5
44B
100
AcDbEntity
  8
0
100
AcDbSpline
 62
9
  6
CONTINUOUS
 70
0
 71
3
 72
31
 73
27
 74
0
 42
0.0000001
 43
0.0000001
 44
0.0000000001
 40
0.0
 40
0.0
 40
0.0
 40
0.0
 40
0.0924703332
 40
0.1843222431
 40
0.2748803527
 40
0.3634532058
 40
0.4493311014
 40
0.5317601719
 40
0.6099226475
 40
0.6829455705
 40
0.7499870414
 40
0.8102620005
 40
0.8630590601
 40
0.8864606195
 40
0.9077794762
 40
0.9269634999
 40
0.9439722689
 40
0.9587747132
 40
0.9713513397
 40
0.9816978325
 40
0.9860408482
 40
0.9898375097
 40
0.993100387
 40
0.9958505224
 40
0.9981261964
 40
1.0
 40
1.0
 40
1.0
 40
1.0
 10
11.3598180362
 20
8.8455402613
 30
0.0
 10
11.362225168
 20
8.8478015166
 30
0.0
 10
11.3672409769
 20
8.8520810304
 30
0.0
 10
11.3751936248
 20
8.8578504254
 30
0.0
 10
11.383376964
 20
8.8630280619
 30
0.0
 10
11.3916250451
 20
8.867677338
 30
0.0
 10
11.3997947036
 20
8.8718567708
 30
0.0
 10
11.4077561217
 20
8.8756152671
 30
0.0
 10
11.4153855189
 20
8.8789945577
 30
0.0
 10
11.4225648699
 20
8.8820294785
 30
0.0
 10
11.4291992419
 20
8.8847105659
 30
0.0
 10
11.4352051169
 20
8.8870162296
 30
0.0
 10
11.4397920158
 20
8.8886668906
 30
0.0
 10
11.4430952477
 20
8.8897716193
 30
0.0
 10
11.445272651
 20
8.8904564354
 30
0.0
 10
11.4472456434
 20
8.8910286514
 30
0.0
 10
11.449008807
 20
8.8914864767
 30
0.0
 10
11.4505573585
 20
8.8918284124
 30
0.0
 10
11.4518860989
 20
8.8920552077
 30
0.0
 10
11.4528560785
 20
8.8921554056
 30
0.0
 10
11.4535164497
 20
8.8921720229
 30
0.0
 10
11.4539237576
 20
8.8921565022
 30
0.0
 10
11.4542720851
 20
8.8921145363
 30
0.0
 10
11.4545611876
 20
8.8920469297
 30
0.0
 10
11.4547909013
 20
8.8919547151
 30
0.0
 10
11.4549144606
 20
8.8918687396
 30
0.0
 10
11.4549617839
 20
8.8918214172
 30
0.0
  0
LINE
  5
44C
100
AcDbEntity
  8
0
100
AcDbLine
 62
9
  6
CONTINUOUS
 10
10.0200118811
 20
10.046333011
 11
10.0198868965
 21
10.046518425
  0
SPLINE
  5
44D
100
AcDbEntity
  8
0
100
AcDbSpline
 62
9
  6
CONTINUOUS
 70
0
 71
3
 72
23
 73
19
 74
0
 42
0.0000001
 43
0.0000001
 44
0.0000000001
 40
0.0
 40
0.0
 40
0.0
 40
0.0
 40
0.0613737947
 40
0.1228484523
 40
0.184448528
 40
0.2461972247
 40
0.3081122946
 40
0.3702065933
 40
0.43248752
 40
0.4949568778
 40
0.557610858
 40
0.6204402147
 40
0.6834305342
 40
0.746562568
 40
0.8098138874
 40
0.8731553218
 40
0.9365642388
 40
1.0
 40
1.0
 40
1.0
 40
1.0
 10
10.0198868965
 20
10.046518425
 30
0.0
 10
10.0183312381
 20
10.0488321959
 30
0.0
 10
10.0154229221
 20
10.0536055807
 30
0.0
 10
10.0117126158
 20
10.0611302921
 30
0.0
 10
10.0086777324
 20
10.0689708033
 30
0.0
 10
10.0063413183
 20
10.0770675735
 30
0.0
 10
10.0047207029
 20
10.0853602433
 30
0.0
 10
10.0038279365
 20
10.0937866945
 30
0.0
 10
10.003669562
 20
10.1022839173
 30
0.0
 10
10.0042466588
 20
10.1107883858
 30
0.0
 10
10.0055548155
 20
10.1192365516
 30
0.0
 10
10.0075841803
 20
10.1275653083
 30
0.0
 10
10.0103195437
 20
10.1357124341
 30
0.0
 10
10.0137403719
 20
10.1436171595
 30
0.0
 10
10.0178210712
 20
10.1512203073
 30
0.0
 10
10.0225311616
 20
10.1584656054
 30
0.0
 10
10.0278350873
 20
10.1652979821
 30
0.0
 10
10.0317414451
 20
10.1695449314
 30
0.0
 10
10.0337791793
 20
10.1715826656
 30
0.0
  0
SPLINE
  5
44E
100
AcDbEntity
  8
0
100
AcDbSpline
 62
9
  6
CONTINUOUS
 70
0
 71
3
 72
32
 73
28
 74
0
 42
0.0000001
 43
0.0000001
 44
0.0000000001
 40
0.0
 40
0.0
 40
0.0
 40
0.0
 40
0.0041066015
 40
0.0082927066
 40
0.0171734006
 40
0.0271503042
 40
0.0385646384
 40
0.0516358449
 40
0.0664957705
 40
0.0746230706
 40
0.0832226472
 40
0.1018490712
 40
0.122389021
 40
0.1448350994
 40
0.1691650239
 40
0.1953458256
 40
0.2233340142
 40
0.2530793932
 40
0.3175996265
 40
0.3883757016
 40
0.4647915364
 40
0.5461632269
 40
0.6317499123
 40
0.72076474
 40
0.8123818658
 40
0.9057519619
 40
1.0
 40
1.0
 40
1.0
 40
1.0
 10
10.0772639208
 20
9.9866765678
 30
0.0
 10
10.077364588
 20
9.9865759006
 30
0.0
 10
10.0775827188
 20
9.9863868832
 30
0.0
 10
10.0780838512
 20
9.9860624276
 30
0.0
 10
10.0788362213
 20
9.985768773
 30
0.0
 10
10.0798788984
 20
9.9856059292
 30
0.0
 10
10.0810776618
 20
9.9856172933
 30
0.0
 10
10.082431932
 20
9.9858005913
 30
0.0
 10
10.0836505212
 20
9.9860861506
 30
0.0
 10
10.0847015379
 20
9.9863939962
 30
0.0
 10
10.085865557
 20
9.9867783244
 30
0.0
 10
10.0874131175
 20
9.9873700707
 30
0.0
 10
10.0893691293
 20
9.9882297502
 30
0.0
 10
10.0914660834
 20
9.9892551036
 30
0.0
 10
10.0936990473
 20
9.9904437754
 30
0.0
 10
10.0960627011
 20
9.9917931211
 30
0.0
 10
10.098551471
 20
9.9932999278
 30
0.0
 10
10.1021264705
 20
9.9955768467
 30
0.0
 10
10.106856437
 20
9.9987986438
 30
0.0
 10
10.1127854332
 20
10.0031264592
 30
0.0
 10
10.1190544703
 20
10.0079739572
 30
0.0
 10
10.1256031295
 20
10.0132948978
 30
0.0
 10
10.1323683321
 20
10.01903854
 30
0.0
 10
10.1392848588
 20
10.0251498416
 30
0.0
 10
10.1462861602
 20
10.0315702084
 30
0.0
 10
10.1533046991
 20
10.0382378956
 30
0.0
 10
10.1579430297
 20
10.042798116
 30
0.0
 10
10.1602533794
 20
10.0451084655
 30
0.0
  0
SPLINE
  5
44F
100
AcDbEntity
  8
0
100
AcDbSpline
 62
9
  6
CONTINUOUS
 70
0
 71
3
 72
31
 73
27
 74
0
 42
0.0000001
 43
0.0000001
 44
0.0000000001
 40
0.0
 40
0.0
 40
0.0
 40
0.0
 40
0.0924703332
 40
0.1843222431
 40
0.2748803527
 40
0.3634532058
 40
0.4493311014
 40
0.5317601719
 40
0.6099226475
 40
0.6829455705
 40
0.7499870414
 40
0.8102620005
 40
0.8630590601
 40
0.8864606195
 40
0.9077794762
 40
0.9269634999
 40
0.9439722689
 40
0.9587747132
 40
0.9713513397
 40
0.9816978325
 40
0.9860408482
 40
0.9898375097
 40
0.993100387
 40
0.9958505224
 40
0.9981261964
 40
1.0
 40
1.0
 40
1.0
 40
1.0
 10
10.5155666493
 20
9.689798743
 30
0.0
 10
10.5131595174
 20
9.6875374877
 30
0.0
 10
10.5081437086
 20
9.6832579739
 30
0.0
 10
10.5001910607
 20
9.6774885789
 30
0.0
 10
10.4920077214
 20
9.6723109424
 30
0.0
 10
10.4837596403
 20
9.6676616663
 30
0.0
 10
10.4755899819
 20
9.6634822335
 30
0.0
 10
10.4676285638
 20
9.6597237372
 30
0.0
 10
10.4599991665
 20
9.6563444466
 30
0.0
 10
10.4528198156
 20
9.6533095258
 30
0.0
 10
10.4461854435
 20
9.6506284384
 30
0.0
 10
10.4401795686
 20
9.6483227747
 30
0.0
 10
10.4355926697
 20
9.6466721136
 30
0.0
 10
10.4322894377
 20
9.6455673849
 30
0.0
 10
10.4301120344
 20
9.6448825689
 30
0.0
 10
10.428139042
 20
9.6443103529
 30
0.0
 10
10.4263758785
 20
9.6438525276
 30
0.0
 10
10.4248273269
 20
9.6435105919
 30
0.0
 10
10.4234985865
 20
9.6432837966
 30
0.0
 10
10.422528607
 20
9.6431835987
 30
0.0
 10
10.4218682357
 20
9.6431669814
 30
0.0
 10
10.4214609279
 20
9.6431825021
 30
0.0
 10
10.4211126004
 20
9.643224468
 30
0.0
 10
10.4208234978
 20
9.6432920746
 30
0.0
 10
10.4205937842
 20
9.6433842892
 30
0.0
 10
10.4204702248
 20
9.6434702647
 30
0.0
 10
10.4204229016
 20
9.6435175871
 30
0.0
  0
LINE
  5
450
100
AcDbEntity
  8
0
100
AcDbLine
 62
9
  6
CONTINUOUS
 10
11.8553728044
 20
10.0463330111
 11
11.8554977889
 21
10.046518425
  0
SPLINE
  5
451
100
AcDbEntity
  8
0
100
AcDbSpline
 62
9
  6
CONTINUOUS
 70
0
 71
3
 72
23
 73
19
 74
0
 42
0.0000001
 43
0.0000001
 44
0.0000000001
 40
0.0
 40
0.0
 40
0.0
 40
0.0
 40
0.0613737942
 40
0.1228484515
 40
0.1844485269
 40
0.2461972235
 40
0.3081122933
 40
0.3702065919
 40
0.4324875187
 40
0.4949568766
 40
0.5576108569
 40
0.6204402138
 40
0.6834305335
 40
0.7465625675
 40
0.8098138871
 40
0.8731553216
 40
0.9365642387
 40
1.0
 40
1.0
 40
1.0
 40
1.0
 10
11.8554977889
 20
10.046518425
 30
0.0
 10
11.8570534474
 20
10.0488321959
 30
0.0
 10
11.8599617632
 20
10.0536055807
 30
0.0
 10
11.8636720695
 20
10.061130292
 30
0.0
 10
11.8667069529
 20
10.0689708032
 30
0.0
 10
11.8690433669
 20
10.0770675733
 30
0.0
 10
11.8706639823
 20
10.0853602432
 30
0.0
 10
11.8715567487
 20
10.0937866943
 30
0.0
 10
11.8717151232
 20
10.1022839171
 30
0.0
 10
11.8711380264
 20
10.1107883856
 30
0.0
 10
11.8698298697
 20
10.1192365514
 30
0.0
 10
11.8678005049
 20
10.1275653081
 30
0.0
 10
11.8650651415
 20
10.135712434
 30
0.0
 10
11.8616443133
 20
10.1436171594
 30
0.0
 10
11.8575636141
 20
10.1512203072
 30
0.0
 10
11.8528535237
 20
10.1584656053
 30
0.0
 10
11.8475495981
 20
10.1652979821
 30
0.0
 10
11.8436432404
 20
10.1695449314
 30
0.0
 10
11.8416055062
 20
10.1715826656
 30
0.0
  0
SPLINE
  5
452
100
AcDbEntity
  8
0
100
AcDbSpline
 62
9
  6
CONTINUOUS
 70
0
 71
3
 72
31
 73
27
 74
0
 42
0.0000001
 43
0.0000001
 44
0.0000000001
 40
0.0
 40
0.0
 40
0.0
 40
0.0
 40
0.0064845511
 40
0.0102421352
 40
0.0143990619
 40
0.0189860277
 40
0.0240270466
 40
0.0355309622
 40
0.0490023312
 40
0.0644849789
 40
0.0819942397
 40
0.1015247281
 40
0.1230558944
 40
0.1465503517
 40
0.1719606661
 40
0.1992258474
 40
0.2590397658
 40
0.3253663229
 40
0.3974868219
 40
0.4745975025
 40
0.5558958535
 40
0.6406309931
 40
0.7280923826
 40
0.8175935374
 40
0.9084522518
 40
1.0
 40
1.0
 40
1.0
 40
1.0
 10
11.4545027463
 20
9.6430585494
 30
0.0
 10
11.4543377563
 20
9.6428935611
 30
0.0
 10
11.4540230101
 20
9.6426863589
 30
0.0
 10
11.4535442838
 20
9.6424881207
 30
0.0
 10
11.4531114585
 20
9.6423618875
 30
0.0
 10
11.4526241556
 20
9.6422667936
 30
0.0
 10
11.451868394
 20
9.6421777625
 30
0.0
 10
11.4507861317
 20
9.6421565331
 30
0.0
 10
11.449332725
 20
9.64225923
 30
0.0
 10
11.447675779
 20
9.6424896067
 30
0.0
 10
11.4458194371
 20
9.6428474987
 30
0.0
 10
11.4437675896
 20
9.6433307621
 30
0.0
 10
11.4415248869
 20
9.6439370835
 30
0.0
 10
11.4390965235
 20
9.6446635547
 30
0.0
 10
11.4364885426
 20
9.6455069737
 30
0.0
 10
11.4326613044
 20
9.6468250094
 30
0.0
 10
11.4274878966
 20
9.6487524443
 30
0.0
 10
11.4208685424
 20
9.6514142742
 30
0.0
 10
11.4137390031
 20
9.6544705782
 30
0.0
 10
11.4062018146
 20
9.6579371835
 30
0.0
 10
11.3983745354
 20
9.6618499507
 30
0.0
 10
11.3903796975
 20
9.6662469194
 30
0.0
 10
11.3823500396
 20
9.6711738999
 30
0.0
 10
11.3744365996
 20
9.6766854383
 30
0.0
 10
11.3668172459
 20
9.6828375551
 30
0.0
 10
11.362076549
 20
9.6873938889
 30
0.0
 10
11.3598216604
 20
9.6897952724
 30
0.0
  0
SPLINE
  5
453
100
AcDbEntity
  8
0
100
AcDbSpline
 62
9
  6
CONTINUOUS
 70
0
 71
3
 72
32
 73
28
 74
0
 42
0.0000001
 43
0.0000001
 44
0.0000000001
 40
0.0
 40
0.0
 40
0.0
 40
0.0
 40
0.0041066024
 40
0.0082927083
 40
0.0171734038
 40
0.0271503087
 40
0.0385646438
 40
0.0516358511
 40
0.0664957772
 40
0.0746230775
 40
0.0832226544
 40
0.1018490786
 40
0.1223890285
 40
0.1448351069
 40
0.1691650315
 40
0.195345833
 40
0.2233340215
 40
0.2530794003
 40
0.317599633
 40
0.3883757076
 40
0.4647915416
 40
0.5461632313
 40
0.6317499158
 40
0.7207647426
 40
0.8123818675
 40
0.9057519628
 40
1.0
 40
1.0
 40
1.0
 40
1.0
 10
11.7981207647
 20
9.9866765678
 30
0.0
 10
11.7980200975
 20
9.9865759006
 30
0.0
 10
11.7978019666
 20
9.9863868832
 30
0.0
 10
11.7973008341
 20
9.9860624275
 30
0.0
 10
11.796548464
 20
9.9857687728
 30
0.0
 10
11.7955057867
 20
9.9856059288
 30
0.0
 10
11.7943070232
 20
9.9856172928
 30
0.0
 10
11.7929527529
 20
9.9858005907
 30
0.0
 10
11.7917341636
 20
9.9860861499
 30
0.0
 10
11.7906831468
 20
9.9863939955
 30
0.0
 10
11.7895191277
 20
9.9867783236
 30
0.0
 10
11.7879715672
 20
9.9873700699
 30
0.0
 10
11.7860155553
 20
9.9882297493
 30
0.0
 10
11.7839186011
 20
9.9892551027
 30
0.0
 10
11.7816856372
 20
9.9904437744
 30
0.0
 10
11.7793219833
 20
9.99179312
 30
0.0
 10
11.7768332134
 20
9.9932999268
 30
0.0
 10
11.7732582139
 20
9.9955768456
 30
0.0
 10
11.7685282474
 20
9.9987986427
 30
0.0
 10
11.7625992512
 20
10.0031264581
 30
0.0
 10
11.7563302141
 20
10.0079739562
 30
0.0
 10
11.7497815551
 20
10.0132948969
 30
0.0
 10
11.7430163526
 20
10.0190385392
 30
0.0
 10
11.736099826
 20
10.025149841
 30
0.0
 10
11.7290985248
 20
10.031570208
 30
0.0
 10
11.7220799862
 20
10.0382378954
 30
0.0
 10
11.7174416557
 20
10.042798116
 30
0.0
 10
11.7151313061
 20
10.0451084656
 30
0.0
  0
SPLINE
  5
454
100
AcDbEntity
  8
0
100
AcDbSpline
 62
9
  6
CONTINUOUS
 70
0
 71
3
 72
17
 73
13
 74
0
 42
0.0000001
 43
0.0000001
 44
0.0000000001
 40
0.0
 40
0.0
 40
0.0
 40
0.0
 40
0.1243906797
 40
0.1867243565
 40
0.2491261241
 40
0.374058841
 40
0.4991741439
 40
0.6243999687
 40
0.7496575212
 40
0.8122985648
 40
0.8749175546
 40
1.0
 40
1.0
 40
1.0
 40
1.0
 10
11.3135404276
 20
9.7849389433
 30
0.0
 10
11.3103608373
 20
9.7817593529
 30
0.0
 10
11.3053041369
 20
9.7772583117
 30
0.0
 10
11.2980821692
 20
9.7718722643
 30
0.0
 10
11.2905453284
 20
9.766899009
 30
0.0
 10
11.2805938566
 20
9.761500195
 30
0.0
 10
11.267981635
 20
9.7564253338
 30
0.0
 10
11.2548621035
 20
9.7528173092
 30
0.0
 10
11.2436510619
 20
9.7510740445
 30
0.0
 10
11.2346119865
 20
9.7504522735
 30
0.0
 10
11.2255594248
 20
9.7503469323
 30
0.0
 10
11.2187733365
 20
9.7508504528
 30
0.0
 10
11.2142906791
 20
9.7514428116
 30
0.0
  0
SPLINE
  5
455
100
AcDbEntity
  8
0
100
AcDbSpline
 62
9
  6
CONTINUOUS
 70
0
 71
3
 72
12
 73
8
 74
0
 42
0.0000001
 43
0.0000001
 44
0.0000000001
 40
0.0
 40
0.0
 40
0.0
 40
0.0
 40
0.2839084288
 40
0.5592837697
 40
0.8044187174
 40
0.9094736188
 40
1.0
 40
1.0
 40
1.0
 40
1.0
 10
11.3598198251
 20
9.6897971528
 30
0.0
 10
11.3571119966
 20
9.6872111578
 30
0.0
 10
11.351794305
 20
9.6820994987
 30
0.0
 10
11.3441920945
 20
9.674699639
 30
0.0
 10
11.338320673
 20
9.6689036098
 30
0.0
 10
11.3342161878
 20
9.6647881933
 30
0.0
 10
11.3324066155
 20
9.6629500107
 30
0.0
 10
11.3315732991
 20
9.6620950428
 30
0.0
  0
SPLINE
  5
456
100
AcDbEntity
  8
0
100
AcDbSpline
 62
9
  6
CONTINUOUS
 70
0
 71
3
 72
17
 73
13
 74
0
 42
0.0000001
 43
0.0000001
 44
0.0000000001
 40
0.0
 40
0.0
 40
0.0
 40
0.0
 40
0.1241281137
 40
0.1863802006
 40
0.2487306265
 40
0.3736390023
 40
0.4988106151
 40
0.6241413743
 40
0.7495179073
 40
0.8122124718
 40
0.8748753064
 40
1.0
 40
1.0
 40
1.0
 40
1.0
 10
11.454390438
 20
9.6429460849
 30
0.0
 10
11.4512509302
 20
9.6397978334
 30
0.0
 10
11.4468071974
 20
9.6347894129
 30
0.0
 10
11.4414906434
 20
9.6276360343
 30
0.0
 10
11.436578191
 20
9.6201647025
 30
0.0
 10
11.4312444912
 20
9.6102965318
 30
0.0
 10
11.4262299075
 20
9.5977889002
 30
0.0
 10
11.4226629968
 20
9.5847768393
 30
0.0
 10
11.4209379592
 20
9.5736580412
 30
0.0
 10
11.4203212426
 20
9.5646938764
 30
0.0
 10
11.4202147432
 20
9.5557190973
 30
0.0
 10
11.4207102338
 20
9.5489917862
 30
0.0
 10
11.4212944376
 20
9.5445482069
 30
0.0
  0
SPLINE
  5
457
100
AcDbEntity
  8
0
100
AcDbSpline
 62
9
  6
CONTINUOUS
 70
0
 71
3
 72
17
 73
13
 74
0
 42
0.0000001
 43
0.0000001
 44
0.0000000001
 40
0.0
 40
0.0
 40
0.0
 40
0.0
 40
0.1243906797
 40
0.1867243565
 40
0.2491261241
 40
0.374058841
 40
0.4991741439
 40
0.6243999687
 40
0.7496575212
 40
0.8122985648
 40
0.8749175546
 40
1.0
 40
1.0
 40
1.0
 40
1.0
 10
10.4204229016
 20
9.6435175871
 30
0.0
 10
10.423602492
 20
9.6403379967
 30
0.0
 10
10.4281035332
 20
9.6352812963
 30
0.0
 10
10.4334895806
 20
9.6280593286
 30
0.0
 10
10.4384628358
 20
9.6205224878
 30
0.0
 10
10.4438616499
 20
9.610571016
 30
0.0
 10
10.4489365111
 20
9.5979587944
 30
0.0
 10
10.4525445357
 20
9.5848392629
 30
0.0
 10
10.4542878004
 20
9.5736282213
 30
0.0
 10
10.4549095713
 20
9.5645891459
 30
0.0
 10
10.4550149126
 20
9.5555365842
 30
0.0
 10
10.4545113921
 20
9.5487504959
 30
0.0
 10
10.4539190332
 20
9.5442678385
 30
0.0
  0
SPLINE
  5
458
100
AcDbEntity
  8
0
100
AcDbSpline
 62
9
  6
CONTINUOUS
 70
0
 71
3
 72
12
 73
8
 74
0
 42
0.0000001
 43
0.0000001
 44
0.0000000001
 40
0.0
 40
0.0
 40
0.0
 40
0.0
 40
0.2796043042
 40
0.5521757272
 40
0.7981817742
 40
0.9056051926
 40
1.0
 40
1.0
 40
1.0
 40
1.0
 10
10.5155646921
 20
9.6897969845
 30
0.0
 10
10.5180297875
 20
9.6872157515
 30
0.0
 10
10.5229138508
 20
9.6821333475
 30
0.0
 10
10.5300175829
 20
9.6748289186
 30
0.0
 10
10.5356267526
 20
9.6691371306
 30
0.0
 10
10.539667804
 20
9.6650936342
 30
0.0
 10
10.5414993317
 20
9.6632817799
 30
0.0
 10
10.5423594465
 20
9.6624378731
 30
0.0
  0
LINE
  5
459
100
AcDbEntity
  8
0
100
AcDbLine
 62
9
  6
CONTINUOUS
 10
11.7163558516
 20
10.1853499638
 11
11.7165412656
 21
10.1854749483
  0
SPLINE
  5
45A
100
AcDbEntity
  8
0
100
AcDbSpline
 62
9
  6
CONTINUOUS
 70
0
 71
3
 72
23
 73
19
 74
0
 42
0.0000001
 43
0.0000001
 44
0.0000000001
 40
0.0
 40
0.0
 40
0.0
 40
0.0
 40
0.0613737947
 40
0.1228484523
 40
0.184448528
 40
0.2461972247
 40
0.3081122946
 40
0.3702065933
 40
0.43248752
 40
0.4949568778
 40
0.557610858
 40
0.6204402147
 40
0.6834305342
 40
0.746562568
 40
0.8098138874
 40
0.8731553218
 40
0.9365642388
 40
1.0
 40
1.0
 40
1.0
 40
1.0
 10
11.7165412656
 20
10.1854749483
 30
0.0
 10
11.7188550365
 20
10.1870306068
 30
0.0
 10
11.7236284213
 20
10.1899389227
 30
0.0
 10
11.7311531327
 20
10.1936492291
 30
0.0
 10
11.7389936439
 20
10.1966841125
 30
0.0
 10
11.7470904141
 20
10.1990205266
 30
0.0
 10
11.7553830839
 20
10.200641142
 30
0.0
 10
11.7638095351
 20
10.2015339084
 30
0.0
 10
11.7723067579
 20
10.2016922829
 30
0.0
 10
11.7808112264
 20
10.2011151861
 30
0.0
 10
11.7892593922
 20
10.1998070294
 30
0.0
 10
11.7975881489
 20
10.1977776646
 30
0.0
 10
11.8057352747
 20
10.1950423012
 30
0.0
 10
11.8136400001
 20
10.191621473
 30
0.0
 10
11.8212431479
 20
10.1875407737
 30
0.0
 10
11.828488446
 20
10.1828306832
 30
0.0
 10
11.8353208227
 20
10.1775267576
 30
0.0
 10
11.839567772
 20
10.1736203998
 30
0.0
 10
11.8416055062
 20
10.1715826656
 30
0.0
  0
SPLINE
  5
45B
100
AcDbEntity
  8
0
100
AcDbSpline
 62
9
  6
CONTINUOUS
 70
0
 71
3
 72
32
 73
28
 74
0
 42
0.0000001
 43
0.0000001
 44
0.0000000001
 40
0.0
 40
0.0
 40
0.0
 40
0.0
 40
0.0041066015
 40
0.0082927066
 40
0.0171734006
 40
0.0271503042
 40
0.0385646384
 40
0.0516358449
 40
0.0664957705
 40
0.0746230706
 40
0.0832226472
 40
0.1018490712
 40
0.122389021
 40
0.1448350994
 40
0.1691650239
 40
0.1953458256
 40
0.2233340142
 40
0.2530793932
 40
0.3175996265
 40
0.3883757016
 40
0.4647915364
 40
0.5461632269
 40
0.6317499123
 40
0.72076474
 40
0.8123818658
 40
0.9057519619
 40
1.0
 40
1.0
 40
1.0
 40
1.0
 10
11.6566994084
 20
10.1280979241
 30
0.0
 10
11.6565987412
 20
10.1279972569
 30
0.0
 10
11.6564097238
 20
10.127779126
 30
0.0
 10
11.6560852682
 20
10.1272779937
 30
0.0
 10
11.6557916136
 20
10.1265256236
 30
0.0
 10
11.6556287698
 20
10.1254829465
 30
0.0
 10
11.6556401339
 20
10.1242841831
 30
0.0
 10
11.6558234319
 20
10.1229299129
 30
0.0
 10
11.6561089912
 20
10.1217113237
 30
0.0
 10
11.6564168368
 20
10.120660307
 30
0.0
 10
11.656801165
 20
10.1194962878
 30
0.0
 10
11.6573929113
 20
10.1179487274
 30
0.0
 10
11.6582525908
 20
10.1159927156
 30
0.0
 10
11.6592779442
 20
10.1138957615
 30
0.0
 10
11.660466616
 20
10.1116627976
 30
0.0
 10
11.6618159617
 20
10.1092991437
 30
0.0
 10
11.6633227684
 20
10.1068103738
 30
0.0
 10
11.6655996873
 20
10.1032353744
 30
0.0
 10
11.6688214844
 20
10.0985054079
 30
0.0
 10
11.6731492997
 20
10.0925764117
 30
0.0
 10
11.6779967978
 20
10.0863073746
 30
0.0
 10
11.6833177384
 20
10.0797587154
 30
0.0
 10
11.6890613806
 20
10.0729935128
 30
0.0
 10
11.6951726822
 20
10.066076986
 30
0.0
 10
11.701593049
 20
10.0590756846
 30
0.0
 10
11.7082607362
 20
10.0520571458
 30
0.0
 10
11.7128209566
 20
10.0474188152
 30
0.0
 10
11.7151313061
 20
10.0451084655
 30
0.0
  0
SPLINE
  5
45C
100
AcDbEntity
  8
0
100
AcDbSpline
 62
9
  6
CONTINUOUS
 70
0
 71
3
 72
31
 73
27
 74
0
 42
0.0000001
 43
0.0000001
 44
0.0000000001
 40
0.0
 40
0.0
 40
0.0
 40
0.0
 40
0.0924703332
 40
0.1843222431
 40
0.2748803527
 40
0.3634532058
 40
0.4493311014
 40
0.5317601719
 40
0.6099226475
 40
0.6829455705
 40
0.7499870414
 40
0.8102620005
 40
0.8630590601
 40
0.8864606195
 40
0.9077794762
 40
0.9269634999
 40
0.9439722689
 40
0.9587747132
 40
0.9713513397
 40
0.9816978325
 40
0.9860408482
 40
0.9898375097
 40
0.993100387
 40
0.9958505224
 40
0.9981261964
 40
1.0
 40
1.0
 40
1.0
 40
1.0
 10
11.3598215836
 20
9.6897951956
 30
0.0
 10
11.3575603283
 20
9.6922023274
 30
0.0
 10
11.3532808145
 20
9.6972181363
 30
0.0
 10
11.3475114195
 20
9.7051707842
 30
0.0
 10
11.342333783
 20
9.7133541234
 30
0.0
 10
11.3376845069
 20
9.7216022045
 30
0.0
 10
11.3335050741
 20
9.729771863
 30
0.0
 10
11.3297465778
 20
9.7377332811
 30
0.0
 10
11.3263672872
 20
9.7453626784
 30
0.0
 10
11.3233323664
 20
9.7525420293
 30
0.0
 10
11.320651279
 20
9.7591764013
 30
0.0
 10
11.3183456153
 20
9.7651822763
 30
0.0
 10
11.3166949542
 20
9.7697691752
 30
0.0
 10
11.3155902255
 20
9.7730724071
 30
0.0
 10
11.3149054095
 20
9.7752498104
 30
0.0
 10
11.3143331935
 20
9.7772228028
 30
0.0
 10
11.3138753682
 20
9.7789859664
 30
0.0
 10
11.3135334325
 20
9.7805345179
 30
0.0
 10
11.3133066372
 20
9.7818632583
 30
0.0
 10
11.3132064393
 20
9.7828332379
 30
0.0
 10
11.313189822
 20
9.7834936091
 30
0.0
 10
11.3132053427
 20
9.783900917
 30
0.0
 10
11.3132473086
 20
9.7842492445
 30
0.0
 10
11.3133149152
 20
9.7845383471
 30
0.0
 10
11.3134071298
 20
9.7847680607
 30
0.0
 10
11.3134931053
 20
9.78489162
 30
0.0
 10
11.3135404276
 20
9.7849389433
 30
0.0
  0
LINE
  5
45D
100
AcDbEntity
  8
0
100
AcDbLine
 62
9
  6
CONTINUOUS
 10
10.0200118811
 20
8.4890059932
 11
10.0198868966
 21
8.4888205793
  0
SPLINE
  5
45E
100
AcDbEntity
  8
0
100
AcDbSpline
 62
9
  6
CONTINUOUS
 70
0
 71
3
 72
23
 73
19
 74
0
 42
0.0000001
 43
0.0000001
 44
0.0000000001
 40
0.0
 40
0.0
 40
0.0
 40
0.0
 40
0.0613737942
 40
0.1228484515
 40
0.1844485269
 40
0.2461972235
 40
0.3081122933
 40
0.3702065919
 40
0.4324875187
 40
0.4949568766
 40
0.5576108569
 40
0.6204402138
 40
0.6834305335
 40
0.7465625675
 40
0.8098138871
 40
0.8731553216
 40
0.9365642387
 40
1.0
 40
1.0
 40
1.0
 40
1.0
 10
10.0198868966
 20
8.4888205793
 30
0.0
 10
10.0183312381
 20
8.4865068084
 30
0.0
 10
10.0154229222
 20
8.4817334236
 30
0.0
 10
10.011712616
 20
8.4742087123
 30
0.0
 10
10.0086777326
 20
8.4663682011
 30
0.0
 10
10.0063413186
 20
8.458271431
 30
0.0
 10
10.0047207031
 20
8.4499787611
 30
0.0
 10
10.0038279368
 20
8.44155231
 30
0.0
 10
10.0036695623
 20
8.4330550871
 30
0.0
 10
10.0042466591
 20
8.4245506187
 30
0.0
 10
10.0055548158
 20
8.4161024528
 30
0.0
 10
10.0075841805
 20
8.4077736962
 30
0.0
 10
10.010319544
 20
8.3996265703
 30
0.0
 10
10.0137403721
 20
8.3917218449
 30
0.0
 10
10.0178210714
 20
8.3841186971
 30
0.0
 10
10.0225311618
 20
8.376873399
 30
0.0
 10
10.0278350873
 20
8.3700410222
 30
0.0
 10
10.0317414451
 20
8.3657940729
 30
0.0
 10
10.0337791793
 20
8.3637563387
 30
0.0
  0
SPLINE
  5
45F
100
AcDbEntity
  8
0
100
AcDbSpline
 62
9
  6
CONTINUOUS
 70
0
 71
3
 72
31
 73
27
 74
0
 42
0.0000001
 43
0.0000001
 44
0.0000000001
 40
0.0
 40
0.0
 40
0.0
 40
0.0
 40
0.0064845511
 40
0.0102421352
 40
0.0143990619
 40
0.0189860277
 40
0.0240270466
 40
0.0355309622
 40
0.0490023312
 40
0.0644849789
 40
0.0819942397
 40
0.1015247281
 40
0.1230558944
 40
0.1465503517
 40
0.1719606661
 40
0.1992258474
 40
0.2590397658
 40
0.3253663229
 40
0.3974868219
 40
0.4745975025
 40
0.5558958535
 40
0.6406309931
 40
0.7280923826
 40
0.8175935374
 40
0.9084522518
 40
1.0
 40
1.0
 40
1.0
 40
1.0
 10
10.4208819392
 20
8.8922804548
 30
0.0
 10
10.4210469292
 20
8.8924454432
 30
0.0
 10
10.4213616753
 20
8.8926526454
 30
0.0
 10
10.4218404016
 20
8.8928508836
 30
0.0
 10
10.4222732269
 20
8.8929771167
 30
0.0
 10
10.4227605299
 20
8.8930722107
 30
0.0
 10
10.4235162915
 20
8.8931612418
 30
0.0
 10
10.4245985538
 20
8.8931824712
 30
0.0
 10
10.4260519605
 20
8.8930797743
 30
0.0
 10
10.4277089065
 20
8.8928493976
 30
0.0
 10
10.4295652484
 20
8.8924915056
 30
0.0
 10
10.4316170959
 20
8.8920082422
 30
0.0
 10
10.4338597986
 20
8.8914019208
 30
0.0
 10
10.436288162
 20
8.8906754495
 30
0.0
 10
10.4388961428
 20
8.8898320305
 30
0.0
 10
10.442723381
 20
8.8885139949
 30
0.0
 10
10.4478967889
 20
8.88658656
 30
0.0
 10
10.4545161431
 20
8.8839247301
 30
0.0
 10
10.4616456824
 20
8.8808684261
 30
0.0
 10
10.4691828709
 20
8.8774018208
 30
0.0
 10
10.47701015
 20
8.8734890536
 30
0.0
 10
10.485004988
 20
8.8690920849
 30
0.0
 10
10.4930346459
 20
8.8641651044
 30
0.0
 10
10.5009480859
 20
8.858653566
 30
0.0
 10
10.5085674396
 20
8.8525014492
 30
0.0
 10
10.5133081365
 20
8.8479451154
 30
0.0
 10
10.5155630251
 20
8.8455437319
 30
0.0
  0
SPLINE
  5
460
100
AcDbEntity
  8
0
100
AcDbSpline
 62
9
  6
CONTINUOUS
 70
0
 71
3
 72
32
 73
28
 74
0
 42
0.0000001
 43
0.0000001
 44
0.0000000001
 40
0.0
 40
0.0
 40
0.0
 40
0.0
 40
0.0041066024
 40
0.0082927083
 40
0.0171734038
 40
0.0271503087
 40
0.0385646438
 40
0.0516358511
 40
0.0664957772
 40
0.0746230775
 40
0.0832226544
 40
0.1018490786
 40
0.1223890285
 40
0.1448351069
 40
0.1691650315
 40
0.195345833
 40
0.2233340215
 40
0.2530794003
 40
0.317599633
 40
0.3883757076
 40
0.4647915416
 40
0.5461632313
 40
0.6317499158
 40
0.7207647426
 40
0.8123818675
 40
0.9057519628
 40
1.0
 40
1.0
 40
1.0
 40
1.0
 10
10.0772639208
 20
8.5486624365
 30
0.0
 10
10.077364588
 20
8.5487631037
 30
0.0
 10
10.0775827189
 20
8.5489521211
 30
0.0
 10
10.0780838514
 20
8.5492765768
 30
0.0
 10
10.0788362215
 20
8.5495702315
 30
0.0
 10
10.0798788988
 20
8.5497330754
 30
0.0
 10
10.0810776623
 20
8.5497217115
 30
0.0
 10
10.0824319326
 20
8.5495384136
 30
0.0
 10
10.0836505219
 20
8.5492528544
 30
0.0
 10
10.0847015386
 20
8.5489450088
 30
0.0
 10
10.0858655578
 20
8.5485606807
 30
0.0
 10
10.0874131183
 20
8.5479689344
 30
0.0
 10
10.0893691302
 20
8.547109255
 30
0.0
 10
10.0914660844
 20
8.5460839016
 30
0.0
 10
10.0936990483
 20
8.5448952299
 30
0.0
 10
10.0960627022
 20
8.5435458843
 30
0.0
 10
10.0985514721
 20
8.5420390775
 30
0.0
 10
10.1021264716
 20
8.5397621587
 30
0.0
 10
10.1068564381
 20
8.5365403616
 30
0.0
 10
10.1127854343
 20
8.5322125462
 30
0.0
 10
10.1190544713
 20
8.5273650481
 30
0.0
 10
10.1256031304
 20
8.5220441074
 30
0.0
 10
10.1323683329
 20
8.5163004651
 30
0.0
 10
10.1392848595
 20
8.5101891633
 30
0.0
 10
10.1462861607
 20
8.5037687963
 30
0.0
 10
10.1533046993
 20
8.4971011089
 30
0.0
 10
10.1579430298
 20
8.4925408883
 30
0.0
 10
10.1602533793
 20
8.4902305387
 30
0.0
  0
SPLINE
  5
461
100
AcDbEntity
  8
0
100
AcDbSpline
 62
9
  6
CONTINUOUS
 70
0
 71
3
 72
17
 73
13
 74
0
 42
0.0000001
 43
0.0000001
 44
0.0000000001
 40
0.0
 40
0.0
 40
0.0
 40
0.0
 40
0.1243906797
 40
0.1867243565
 40
0.2491261241
 40
0.374058841
 40
0.4991741439
 40
0.6243999687
 40
0.7496575212
 40
0.8122985648
 40
0.8749175546
 40
1.0
 40
1.0
 40
1.0
 40
1.0
 10
10.5618442578
 20
8.750400061
 30
0.0
 10
10.5650238482
 20
8.7535796514
 30
0.0
 10
10.5700805485
 20
8.7580806926
 30
0.0
 10
10.5773025163
 20
8.76346674
 30
0.0
 10
10.5848393571
 20
8.7684399952
 30
0.0
 10
10.5947908288
 20
8.7738388093
 30
0.0
 10
10.6074030505
 20
8.7789136705
 30
0.0
 10
10.620522582
 20
8.7825216951
 30
0.0
 10
10.6317336236
 20
8.7842649598
 30
0.0
 10
10.640772699
 20
8.7848867307
 30
0.0
 10
10.6498252607
 20
8.784992072
 30
0.0
 10
10.6566113489
 20
8.7844885515
 30
0.0
 10
10.6610940064
 20
8.7838961927
 30
0.0
  0
SPLINE
  5
462
100
AcDbEntity
  8
0
100
AcDbSpline
 62
9
  6
CONTINUOUS
 70
0
 71
3
 72
12
 73
8
 74
0
 42
0.0000001
 43
0.0000001
 44
0.0000000001
 40
0.0
 40
0.0
 40
0.0
 40
0.0
 40
0.2839084288
 40
0.5592837697
 40
0.8044187174
 40
0.9094736188
 40
1.0
 40
1.0
 40
1.0
 40
1.0
 10
10.5155648604
 20
8.8455418515
 30
0.0
 10
10.5182726888
 20
8.8481278464
 30
0.0
 10
10.5235903804
 20
8.8532395056
 30
0.0
 10
10.531192591
 20
8.8606393653
 30
0.0
 10
10.5370640125
 20
8.8664353945
 30
0.0
 10
10.5411684977
 20
8.870550811
 30
0.0
 10
10.5429780699
 20
8.8723889936
 30
0.0
 10
10.5438113864
 20
8.8732439615
 30
0.0
  0
ENDSEC
  0
SECTION
  2
OBJECTS
  0
DICTIONARY
  5
C
100
AcDbDictionary
280
0
281
1
  3
ACAD_GROUP
350
D
  3
ACAD_MLINESTYLE
350
17
  3
ACAD_LAYOUT
350
1A
  3
ACAD_PLOTSETTINGS
350
19
  3
ACAD_PLOTSTYLENAME
350
E
  0
DICTIONARY
  5
D
102
{ACAD_REACTORS
330
C
102
}
100
AcDbDictionary
280
0
281
1
  0
ACDBDICTIONARYWDFLT
  5
E
102
{ACAD_REACTORS
330
C
102
}
100
AcDbDictionary
281
1
  3
Normal
350
F
100
AcDbDictionaryWithDefault
340
F
  0
DICTIONARY
  5
17
102
{ACAD_REACTORS
330
C
102
}
100
AcDbDictionary
280
0
281
1
  3
Standard
350
18
  0
DICTIONARY
  5
19
102
{ACAD_REACTORS
330
C
102
}
100
AcDbDictionary
281
1
  0
DICTIONARY
  5
1A
102
{ACAD_REACTORS
330
C
102
}
100
AcDbDictionary
281
1
  3
Model
350
463
  3
Layout1
350
464
  0
ACDBPLACEHOLDER
  5
F
102
{ACAD_REACTORS
330
E
102
}
  0
MLINESTYLE
  5
18
102
{ACAD_REACTORS
330
17
102
}
100
AcDbMlineStyle
  2
STANDARD
 70
0
  3

 62
256
 51
90.0
 52
90.0
 71
2
 49
0.5
 62
256
  6
BYLAYER
 49
-0.5
 62
256
  6
BYLAYER
  0
LAYOUT
  5
463
102
{ACAD_REACTORS
330
1A
102
}
100
AcDbPlotSettings
  1

  2
none_device
  4
ANSI_C_(22.00_x_17.00_Inches)
  6

 40
0.0
 41
0.0
 42
0.0
 43
0.0
 44
558.8
 45
431.8
 46
0.0
 47
0.0
 48
0.0
 49
0.0
140
0.0
141
0.0
142
1.0
143
1.0
 70
1024
 72
0
 73
0
 74
0
  7

 75
0
147
1.0
148
0.0
149
0.0
100
AcDbLayout
  1
Model
 70
0
 71
0
 10
0.0
 20
0.0
 11
22.0
 21
17.0
 12
0.0
 22
0.0
 32
0.0
 14
0.0
 24
0.0
 34
0.0
 15
0.0
 25
0.0
 35
0.0
146
0.0
 13
0.0
 23
0.0
 33
0.0
 16
1.0
 26
0.0
 36
0.0
 17
0.0
 27
1.0
 37
0.0
 76
0
330
205
345
0
346
0
  0
LAYOUT
  5
464
102
{ACAD_REACTORS
330
1A
102
}
100
AcDbPlotSettings
  1

  2
none_device
  4
ANSI_C_(22.00_x_17.00_Inches)
  6

 40
0.0
 41
0.0
 42
0.0
 43
0.0
 44
558.8
 45
431.8
 46
0.0
 47
0.0
 48
0.0
 49
0.0
140
0.0
141
0.0
142
1.0
143
1.0
 70
0
 72
0
 73
0
 74
0
  7

 75
0
147
1.0
148
0.0
149
0.0
100
AcDbLayout
  1
Layout1
 70
0
 71
1
 10
0.0
 20
0.0
 11
22.0
 21
17.0
 12
0.0
 22
0.0
 32
0.0
 14
0.0
 24
0.0
 34
0.0
 15
0.0
 25
0.0
 35
0.0
146
0.0
 13
0.0
 23
0.0
 33
0.0
 16
1.0
 26
0.0
 36
0.0
 17
0.0
 27
1.0
 37
0.0
 76
0
330
206
345
0
346
0
  0
ENDSEC
  0
EOF
