999
DXF file: E:\BT Custom\CADOUTPUT\_RIGHT.dxf
999
Pro/ENGINEER 2018400 by Parametric Technology Corporation
  0
SECTION
  2
HEADER
  9
$ACADVER
  1
AC1018
  9
$DWGCODEPAGE
  3
ANSI_1252
  9
$EXTMAX
 10
22.0
 20
17.0
 30
0.0
  9
$EXTMIN
 10
0.0
 20
0.0
 30
0.0
  9
$LIMMIN
 10
0.0
 20
0.0
  9
$LIMMAX
 10
22.0
 20
17.0
  9
$VIEWCTR
 10
11.0
 20
8.5
  9
$VIEWSIZE
 40
17.0
  9
$CLAYER
  8
0
  9
$LTSCALE
 40
1.21
  9
$CELTYPE
  6
BYLAYER
  9
$DIMSCALE
 40
1.0
  9
$DIMASZ
 40
0.1
  9
$DIMEXO
 40
0.0625
  9
$DIMDLI
 40
0.836
  9
$DIMEXE
 40
0.125
  9
$DIMCEN
 40
0.198
  9
$DIMLFAC
 40
1.0
  9
$DIMBLK
  1
_FILLED
  9
$DIMALT
 70
1
  9
$DIMALTD
 70
2
  9
$DIMALTTD
 70
2
  9
$DIMALTF
 40
25.4
  9
$DIMTXT
 40
0.08
  9
$DIMTOL
 70
1
  9
$DIMLIM
 70
0
  9
$DIMTFAC
 40
1.0
  9
$DIMTP
 40
0.001
  9
$DIMTM
 40
0.001
  9
$DIMGAP
 40
0.09
  9
$DIMDSEP
 70
46
  9
$AUNITS
 70
0
  9
$PDMODE
 70
3
  9
$PDSIZE
 40
0.06
  9
$HANDSEED
  5
2D9
  9
$TILEMODE
 70
1
  9
$MEASUREMENT
 70
0
  9
$INSUNITS
 70
1
  0
ENDSEC
  0
SECTION
  2
CLASSES
  0
CLASS
  1
ACDBDICTIONARYWDFLT
  2
AcDbDictionaryWithDefault
  3
AutoCAD 2000
 90
0
 91
1
280
0
281
0
  0
CLASS
  1
ACDBPLACEHOLDER
  2
AcDbPlaceHolder
  3
AutoCAD 2000
 90
0
 91
1
280
0
281
0
  0
CLASS
  1
LAYOUT
  2
AcDbLayout
  3
AutoCAD 2000
 90
0
 91
0
280
0
281
0
  0
ENDSEC
  0
SECTION
  2
TABLES
  0
TABLE
  2
VPORT
  5
8
100
AcDbSymbolTable
 70
2
  0
VPORT
  5
1F4
100
AcDbSymbolTableRecord
100
AcDbViewportTableRecord
  2
*ACTIVE
 70
0
 10
0.0
 20
0.0
 11
1.0
 21
1.0
 12
11.0
 22
8.5
 13
0.0
 23
0.0
 14
1.0
 24
1.0
 15
0.0
 25
0.0
 16
0.0
 26
0.0
 36
1.0
 17
0.0
 27
0.0
 37
0.0
 40
17.0
 41
1.2941176471
 42
50.0
 43
0.0
 44
0.0
 50
0.0
 51
0.0
 71
0
 72
100
 73
1
 74
1
 75
0
 76
0
 77
0
 78
0
  0
ENDTAB
  0
TABLE
  2
LTYPE
  5
5
100
AcDbSymbolTable
 70
6
  0
LTYPE
  5
14
100
AcDbSymbolTableRecord
100
AcDbLinetypeTableRecord
  2
BYBLOCK
 70
0
  3

 72
65
 73
0
 40
0.0
  0
LTYPE
  5
15
100
AcDbSymbolTableRecord
100
AcDbLinetypeTableRecord
  2
BYLAYER
 70
0
  3

 72
65
 73
0
 40
0.0
  0
LTYPE
  5
16
100
AcDbSymbolTableRecord
100
AcDbLinetypeTableRecord
  2
CONTINUOUS
 70
64
  3
Solid line
 72
65
 73
0
 40
0.0
  0
LTYPE
  5
1F5
100
AcDbSymbolTableRecord
100
AcDbLinetypeTableRecord
  2
CENTER
 70
64
  3
____ _ ____ _ ____ _ ____ _ ____ _ ____ _ ____
 72
65
 73
4
 40
0.6
 49
0.375
 74
0
 49
-0.075
 74
0
 49
0.075
 74
0
 49
-0.075
 74
0
  0
LTYPE
  5
1F6
100
AcDbSymbolTableRecord
100
AcDbLinetypeTableRecord
  2
HIDDEN
 70
64
  3
- - - - - - - - - - - - - - - - - - - -
 72
65
 73
2
 40
0.2
 49
0.1
 74
0
 49
-0.1
 74
0
  0
LTYPE
  5
1F7
100
AcDbSymbolTableRecord
100
AcDbLinetypeTableRecord
  2
PHANTOM
 70
64
  3
_____ _ _ _____ _ _ _____ _ _ _____
 72
65
 73
6
 40
0.8
 49
0.45
 74
0
 49
-0.05
 74
0
 49
0.1
 74
0
 49
-0.05
 74
0
 49
0.1
 74
0
 49
-0.05
 74
0
  0
LTYPE
  5
1F8
100
AcDbSymbolTableRecord
100
AcDbLinetypeTableRecord
  2
DOT
 70
64
  3
. . . . . . . . . . . . . . . . . . . .
 72
65
 73
2
 40
0.2
 49
0.1
 74
0
 49
-0.1
 74
0
  0
LTYPE
  5
1F9
100
AcDbSymbolTableRecord
100
AcDbLinetypeTableRecord
  2
DASHED
 70
64
  3
- - - - - - - - - - - - - - - - - - - -
 72
65
 73
2
 40
0.2
 49
0.1
 74
0
 49
-0.1
 74
0
  0
ENDTAB
  0
TABLE
  2
LAYER
  5
2
100
AcDbSymbolTable
 70
36
  0
LAYER
  5
10
100
AcDbSymbolTableRecord
100
AcDbLayerTableRecord
  2
0
 70
0
 62
7
  6
CONTINUOUS
370
-3
390
F
  0
LAYER
  5
1FA
100
AcDbSymbolTableRecord
100
AcDbLayerTableRecord
  2
DEFAULT_1
 70
0
 62
7
  6
CENTER
370
-3
390
F
  0
LAYER
  5
1FB
100
AcDbSymbolTableRecord
100
AcDbLayerTableRecord
  2
DEFAULT_2
 70
0
 62
8
  6
HIDDEN
370
-3
390
F
  0
LAYER
  5
1FC
100
AcDbSymbolTableRecord
100
AcDbLayerTableRecord
  2
DEFAULT_3
 70
0
 62
7
  6
PHANTOM
370
-3
390
F
  0
LAYER
  5
1FD
100
AcDbSymbolTableRecord
100
AcDbLayerTableRecord
  2
ALL_FEATURES
 70
0
 62
7
  6
CONTINUOUS
370
-3
390
F
  0
LAYER
  5
1FE
100
AcDbSymbolTableRecord
100
AcDbLayerTableRecord
  2
AXES_FEATURES
 70
0
 62
7
  6
CONTINUOUS
370
-3
390
F
  0
LAYER
  5
1FF
100
AcDbSymbolTableRecord
100
AcDbLayerTableRecord
  2
DEFAULT_COORDINATE_SYSTEM
 70
0
 62
7
  6
CONTINUOUS
370
-3
390
F
  0
LAYER
  5
200
100
AcDbSymbolTableRecord
100
AcDbLayerTableRecord
  2
DEFAULT_DATUM_AXES
 70
0
 62
7
  6
CONTINUOUS
370
-3
390
F
  0
LAYER
  5
201
100
AcDbSymbolTableRecord
100
AcDbLayerTableRecord
  2
DEFAULT_DATUM_PLANES
 70
0
 62
7
  6
CONTINUOUS
370
-3
390
F
  0
LAYER
  5
202
100
AcDbSymbolTableRecord
100
AcDbLayerTableRecord
  2
DIMENSIONS
 70
0
 62
7
  6
CONTINUOUS
370
-3
390
F
  0
ENDTAB
  0
TABLE
  2
STYLE
  5
3
100
AcDbSymbolTable
 70
1
  0
STYLE
  5
11
100
AcDbSymbolTableRecord
100
AcDbTextStyleTableRecord
  2
STANDARD
 70
0
 40
0.0
 41
0.8
 50
0.0
 71
0
 42
0.2
  3
txt
  4

  0
STYLE
  5
203
100
AcDbSymbolTableRecord
100
AcDbTextStyleTableRecord
  2
TEXTSTYLE_1
 70
0
 40
0.0
 41
0.8
 50
0.0
 71
0
 42
0.2
  3
gdt
  4

  0
ENDTAB
  0
TABLE
  2
VIEW
  5
6
100
AcDbSymbolTable
 70
0
  0
ENDTAB
  0
TABLE
  2
UCS
  5
7
100
AcDbSymbolTable
 70
0
  0
ENDTAB
  0
TABLE
  2
APPID
  5
9
100
AcDbSymbolTable
 70
1
  0
APPID
  5
204
100
AcDbSymbolTableRecord
100
AcDbRegAppTableRecord
  2
ACAD
 70
0
  0
ENDTAB
  0
TABLE
  2
BLOCK_RECORD
  5
1
100
AcDbSymbolTable
 70
0
  0
BLOCK_RECORD
  5
205
100
AcDbSymbolTableRecord
100
AcDbBlockTableRecord
  2
*Model_Space
  0
BLOCK_RECORD
  5
206
100
AcDbSymbolTableRecord
100
AcDbBlockTableRecord
  2
*Paper_Space
  0
BLOCK_RECORD
  5
207
100
AcDbSymbolTableRecord
100
AcDbBlockTableRecord
  2
_FILLED
  0
ENDTAB
  0
TABLE
  2
DIMSTYLE
  5
A
100
AcDbSymbolTable
 70
1
100
AcDbDimStyleTable
 71
0
  0
DIMSTYLE
105
208
100
AcDbSymbolTableRecord
100
AcDbDimStyleTableRecord
  2
STANDARD
 70
0
  3

  4

 40
1.0
 41
0.1
 42
0.0625
 43
0.38
 44
0.125
 45
0.0
 46
0.0
 47
0.001
 48
0.001
140
0.08
141
0.09
142
0.0
143
25.4
144
1.0
145
0.0
146
1.0
147
0.09
 71
1.0
 72
0.0
 73
1
 74
1
 75
0
 76
0
 77
0
 78
4
 79
1
170
1
171
2
172
0
173
0
174
0
175
0
176
0
177
0
178
0
270
2
179
3
271
3
272
3
273
2
274
2
275
0
280
0
281
0
282
0
283
1
284
4
285
0
286
0
287
3
288
0
340
11
278
46
341
207
342
207
343
207
344
207
  0
ENDTAB
  0
ENDSEC
  0
SECTION
  2
BLOCKS
  0
BLOCK
  5
20
100
AcDbEntity
  8
0
100
AcDbBlockBegin
  2
*Model_Space
 70
0
 10
0.0
 20
0.0
 30
0.0
  3
*Model_Space
  1

  0
ENDBLK
  5
21
100
AcDbEntity
  8
0
100
AcDbBlockEnd
  0
BLOCK
  5
1C
100
AcDbEntity
  8
0
100
AcDbBlockBegin
  2
*Paper_Space
 70
0
 10
0.0
 20
0.0
 30
0.0
  3
*Paper_Space
  1

  0
ENDBLK
  5
1D
100
AcDbEntity
  8
0
100
AcDbBlockEnd
  0
BLOCK
  5
209
100
AcDbEntity
  8
0
100
AcDbBlockBegin
  2
_FILLED
 70
64
 10
0.0
 20
0.0
  3
_FILLED
  1

  0
SOLID
  5
20A
100
AcDbEntity
  8
0
  6
BYBLOCK
 62
0
100
AcDbTrace
 10
0.0
 20
0.0
 11
-1.0
 21
0.2
 12
-1.0
 22
-0.2
 13
-1.0
 23
-0.2
  0
ENDBLK
  5
20B
100
AcDbEntity
  8
0
  6
BYBLOCK
 62
0
100
AcDbBlockEnd
  0
ENDSEC
  0
SECTION
  2
ENTITIES
  0
LINE
  5
20C
100
AcDbEntity
  8
0
100
AcDbLine
 62
7
  6
CONTINUOUS
 10
10.5789834891
 20
6.389891804
 11
10.4889834891
 21
6.389891804
  0
LINE
  5
20D
100
AcDbEntity
  8
0
100
AcDbLine
 62
7
  6
CONTINUOUS
 10
10.4819885196
 20
6.3906913007
 11
10.3459885196
 21
6.4221913007
  0
LINE
  5
20E
100
AcDbEntity
  8
0
100
AcDbLine
 62
7
  6
CONTINUOUS
 10
11.7589834891
 20
6.603891804
 11
11.4059834891
 21
6.603891804
  0
LINE
  5
20F
100
AcDbEntity
  8
0
100
AcDbLine
 62
7
  6
CONTINUOUS
 10
10.8149834891
 20
6.662891804
 11
11.3939834891
 21
6.662891804
  0
LINE
  5
210
100
AcDbEntity
  8
0
100
AcDbLine
 62
7
  6
CONTINUOUS
 10
10.8149834891
 20
7.016891804
 11
11.3939834891
 21
7.016891804
  0
LINE
  5
211
100
AcDbEntity
  8
0
100
AcDbLine
 62
9
  6
CONTINUOUS
 10
8.9558978199
 20
8.616973957
 11
8.9558978199
 21
9.4028096511
  0
LINE
  5
212
100
AcDbEntity
  8
0
100
AcDbLine
 62
7
  6
CONTINUOUS
 10
8.9619834891
 20
8.602391804
 11
8.9619834891
 21
9.417391804
  0
LINE
  5
213
100
AcDbEntity
  8
0
100
AcDbLine
 62
9
  6
CONTINUOUS
 10
8.9666645669
 20
8.5849217841
 11
8.9666645669
 21
9.434861824
  0
LINE
  5
214
100
AcDbEntity
  8
0
100
AcDbLine
 62
7
  6
CONTINUOUS
 10
8.9619834891
 20
9.417391804
 11
8.9666645669
 21
9.434861824
  0
LINE
  5
215
100
AcDbEntity
  8
0
100
AcDbLine
 62
7
  6
CONTINUOUS
 10
11.7589834891
 20
7.075891804
 11
11.4059834891
 21
7.075891804
  0
LINE
  5
216
100
AcDbEntity
  8
0
100
AcDbLine
 62
7
  6
CONTINUOUS
 10
10.5789834891
 20
7.289891804
 11
10.4889834891
 21
7.289891804
  0
LINE
  5
217
100
AcDbEntity
  8
0
100
AcDbLine
 62
7
  6
CONTINUOUS
 10
8.9619834891
 20
8.602391804
 11
8.9666645669
 21
8.5849217841
  0
LINE
  5
218
100
AcDbEntity
  8
0
100
AcDbLine
 62
7
  6
CONTINUOUS
 10
9.0819834891
 20
8.492391804
 11
9.0819834891
 21
9.527391804
  0
LINE
  5
219
100
AcDbEntity
  8
0
100
AcDbLine
 62
9
  6
CONTINUOUS
 10
9.130973284
 20
8.452391804
 11
9.130973284
 21
9.567391804
  0
LINE
  5
21A
100
AcDbEntity
  8
0
100
AcDbLine
 62
9
  6
CONTINUOUS
 10
9.2169834891
 20
8.452391804
 11
9.2169834891
 21
9.567391804
  0
LINE
  5
21B
100
AcDbEntity
  8
0
100
AcDbLine
 62
7
  6
CONTINUOUS
 10
9.2319834891
 20
8.4673919819
 11
9.2319834891
 21
9.5523916262
  0
LINE
  5
21C
100
AcDbEntity
  8
0
100
AcDbLine
 62
9
  6
CONTINUOUS
 10
9.2419834891
 20
8.459891804
 11
9.2419834891
 21
9.559891804
  0
LINE
  5
21D
100
AcDbEntity
  8
0
100
AcDbLine
 62
7
  6
CONTINUOUS
 10
10.4819885196
 20
7.2890923074
 11
10.3459885196
 21
7.2575923074
  0
LINE
  5
21E
100
AcDbEntity
  8
0
100
AcDbLine
 62
7
  6
CONTINUOUS
 10
9.3291466339
 20
8.5985743823
 11
9.2408206946
 21
8.2443695385
  0
LINE
  5
21F
100
AcDbEntity
  8
0
100
AcDbLine
 62
9
  6
CONTINUOUS
 10
9.4234209459
 20
8.6340437191
 11
9.3378494472
 21
8.2908847384
  0
LINE
  5
220
100
AcDbEntity
  8
0
100
AcDbLine
 62
7
  6
CONTINUOUS
 10
10.8149834891
 20
7.064891804
 11
10.6009974482
 21
7.2807180636
  0
LINE
  5
221
100
AcDbEntity
  8
0
100
AcDbLine
 62
7
  6
CONTINUOUS
 10
9.2408206947
 20
9.7754140693
 11
9.3293181582
 21
9.4205213789
  0
LINE
  5
222
100
AcDbEntity
  8
0
100
AcDbLine
 62
9
  6
CONTINUOUS
 10
9.3378494472
 20
9.7288988697
 11
9.4235354133
 21
9.3852808513
  0
LINE
  5
223
100
AcDbEntity
  8
0
100
AcDbLine
 62
9
  6
CONTINUOUS
 10
9.6969834891
 20
8.2838858335
 11
9.6969834891
 21
8.7702237551
  0
LINE
  5
224
100
AcDbEntity
  8
0
100
AcDbLine
 62
9
  6
CONTINUOUS
 10
9.6969834891
 20
9.2495354438
 11
9.6969834891
 21
9.7358977746
  0
LINE
  5
225
100
AcDbEntity
  8
0
100
AcDbLine
 62
9
  6
CONTINUOUS
 10
9.7869834891
 20
9.3667551735
 11
9.7869834891
 21
8.6530284346
  0
LINE
  5
226
100
AcDbEntity
  8
0
100
AcDbLine
 62
7
  6
CONTINUOUS
 10
9.7969834891
 20
8.2131751554
 11
9.7969834891
 21
9.8066084527
  0
LINE
  5
227
100
AcDbEntity
  8
0
100
AcDbLine
 62
9
  6
CONTINUOUS
 10
9.8569834891
 20
9.311391804
 11
9.8569834891
 21
8.708391804
  0
LINE
  5
228
100
AcDbEntity
  8
0
100
AcDbLine
 62
7
  6
CONTINUOUS
 10
10.1469834891
 20
8.70839183
 11
10.1469834891
 21
9.3113917781
  0
LINE
  5
229
100
AcDbEntity
  8
0
100
AcDbLine
 62
7
  6
CONTINUOUS
 10
10.1669834891
 20
9.4087406926
 11
10.1669834891
 21
8.6110429155
  0
LINE
  5
22A
100
AcDbEntity
  8
0
100
AcDbLine
 62
7
  6
CONTINUOUS
 10
10.5013670503
 20
9.550391804
 11
10.6072846776
 21
9.6245257982
  0
LINE
  5
22B
100
AcDbEntity
  8
0
100
AcDbLine
 62
7
  6
CONTINUOUS
 10
11.4169834891
 20
8.268891804
 11
11.4789834891
 21
8.268891804
  0
LINE
  5
22C
100
AcDbEntity
  8
0
100
AcDbLine
 62
7
  6
CONTINUOUS
 10
11.4169834891
 20
8.353391804
 11
11.0657757313
 21
8.353391804
  0
LINE
  5
22D
100
AcDbEntity
  8
0
100
AcDbLine
 62
7
  6
CONTINUOUS
 10
9.130973284
 20
8.452391804
 11
9.2169834891
 21
8.452391804
  0
LINE
  5
22E
100
AcDbEntity
  8
0
100
AcDbLine
 62
7
  6
CONTINUOUS
 10
9.2419834891
 20
8.459891804
 11
9.2945641905
 21
8.459891804
  0
LINE
  5
22F
100
AcDbEntity
  8
0
100
AcDbLine
 62
7
  6
CONTINUOUS
 10
10.5013670503
 20
8.469391804
 11
10.6072846776
 21
8.3952578098
  0
LINE
  5
230
100
AcDbEntity
  8
0
100
AcDbLine
 62
9
  6
CONTINUOUS
 10
10.1953842465
 20
8.5801520765
 11
10.1953842465
 21
9.4396315316
  0
LINE
  5
231
100
AcDbEntity
  8
0
100
AcDbLine
 62
7
  6
CONTINUOUS
 10
10.3219834891
 20
6.4523921173
 11
10.3219834891
 21
7.2273914907
  0
LINE
  5
232
100
AcDbEntity
  8
0
100
AcDbLine
 62
9
  6
CONTINUOUS
 10
10.3459885196
 20
6.4221913007
 11
10.3459885196
 21
7.2575923074
  0
LINE
  5
233
100
AcDbEntity
  8
0
100
AcDbLine
 62
7
  6
CONTINUOUS
 10
9.8569834891
 20
8.708391804
 11
10.1469834891
 21
8.708391804
  0
LINE
  5
234
100
AcDbEntity
  8
0
100
AcDbLine
 62
7
  6
CONTINUOUS
 10
8.868279515
 20
8.7551366099
 11
8.8678955743
 21
8.7551366099
  0
LINE
  5
235
100
AcDbEntity
  8
0
100
AcDbLine
 62
9
  6
CONTINUOUS
 10
10.4819885196
 20
6.3906913007
 11
10.4819885196
 21
7.2890923074
  0
LINE
  5
236
100
AcDbEntity
  8
0
100
AcDbLine
 62
9
  6
CONTINUOUS
 10
10.4889834891
 20
6.389891804
 11
10.4889834891
 21
7.289891804
  0
LINE
  5
237
100
AcDbEntity
  8
0
100
AcDbLine
 62
9
  6
CONTINUOUS
 10
10.5013670503
 20
8.469391804
 11
10.5013670503
 21
9.550391804
  0
LINE
  5
238
100
AcDbEntity
  8
0
100
AcDbLine
 62
9
  6
CONTINUOUS
 10
10.5789834891
 20
6.389891804
 11
10.5789834891
 21
7.289891804
  0
LINE
  5
239
100
AcDbEntity
  8
0
100
AcDbLine
 62
9
  6
CONTINUOUS
 10
10.6009974482
 20
6.3990655445
 11
10.6009974482
 21
7.2807180636
  0
LINE
  5
23A
100
AcDbEntity
  8
0
100
AcDbLine
 62
9
  6
CONTINUOUS
 10
10.6072846776
 20
8.3952578098
 11
10.6072846776
 21
9.6245257982
  0
LINE
  5
23B
100
AcDbEntity
  8
0
100
AcDbLine
 62
7
  6
CONTINUOUS
 10
11.0504834891
 20
9.6510552437
 11
11.0657758709
 21
9.666391804
  0
LINE
  5
23C
100
AcDbEntity
  8
0
100
AcDbLine
 62
7
  6
CONTINUOUS
 10
10.1669834891
 20
8.809891804
 11
10.1469834891
 21
8.809891804
  0
LINE
  5
23D
100
AcDbEntity
  8
0
100
AcDbLine
 62
7
  6
CONTINUOUS
 10
11.4169834891
 20
9.009891804
 11
11.1670408722
 21
9.009891804
  0
LINE
  5
23E
100
AcDbEntity
  8
0
100
AcDbLine
 62
7
  6
CONTINUOUS
 10
11.0504834891
 20
8.3687283644
 11
11.0657758709
 21
8.353391804
  0
LINE
  5
23F
100
AcDbEntity
  8
0
100
AcDbLine
 62
7
  6
CONTINUOUS
 10
10.8149834891
 20
6.614891804
 11
10.8149834891
 21
7.064891804
  0
LINE
  5
240
100
AcDbEntity
  8
0
100
AcDbLine
 62
9
  6
CONTINUOUS
 10
10.8354834891
 20
8.391391804
 11
10.8354834891
 21
9.628391804
  0
LINE
  5
241
100
AcDbEntity
  8
0
100
AcDbLine
 62
7
  6
CONTINUOUS
 10
8.8155255132
 20
9.054891804
 11
8.814521317
 21
9.054891804
  0
LINE
  5
242
100
AcDbEntity
  8
0
100
AcDbLine
 62
7
  6
CONTINUOUS
 10
8.8221052297
 20
9.0625928552
 11
8.821090007
 21
9.0625928552
  0
LINE
  5
243
100
AcDbEntity
  8
0
100
AcDbLine
 62
7
  6
CONTINUOUS
 10
10.1669834891
 20
9.209891804
 11
10.1469834891
 21
9.209891804
  0
LINE
  5
244
100
AcDbEntity
  8
0
100
AcDbLine
 62
7
  6
CONTINUOUS
 10
8.8688925311
 20
9.264266804
 11
8.8677490603
 21
9.264266804
  0
LINE
  5
245
100
AcDbEntity
  8
0
100
AcDbLine
 62
7
  6
CONTINUOUS
 10
8.8751843207
 20
9.279891804
 11
8.8761539843
 21
9.279891804
  0
LINE
  5
246
100
AcDbEntity
  8
0
100
AcDbLine
 62
7
  6
CONTINUOUS
 10
9.8569834891
 20
9.311391804
 11
10.1469834891
 21
9.311391804
  0
LINE
  5
247
100
AcDbEntity
  8
0
100
AcDbLine
 62
9
  6
CONTINUOUS
 10
11.0504834891
 20
8.3687283644
 11
11.0504834891
 21
9.6510552437
  0
LINE
  5
248
100
AcDbEntity
  8
0
100
AcDbLine
 62
7
  6
CONTINUOUS
 10
9.2419834891
 20
9.559891804
 11
9.2945641905
 21
9.559891804
  0
LINE
  5
249
100
AcDbEntity
  8
0
100
AcDbLine
 62
7
  6
CONTINUOUS
 10
9.130973284
 20
9.567391804
 11
9.2169834891
 21
9.567391804
  0
LINE
  5
24A
100
AcDbEntity
  8
0
100
AcDbLine
 62
7
  6
CONTINUOUS
 10
11.3939834891
 20
6.615891804
 11
11.3939834891
 21
7.063891804
  0
LINE
  5
24B
100
AcDbEntity
  8
0
100
AcDbLine
 62
9
  6
CONTINUOUS
 10
11.4059834891
 20
6.603891804
 11
11.4059834891
 21
7.075891804
  0
LINE
  5
24C
100
AcDbEntity
  8
0
100
AcDbLine
 62
7
  6
CONTINUOUS
 10
11.4169834891
 20
8.2688922388
 11
11.4169834891
 21
9.750891369
  0
LINE
  5
24D
100
AcDbEntity
  8
0
100
AcDbLine
 62
7
  6
CONTINUOUS
 10
11.4789834891
 20
9.8228944779
 11
11.4789834891
 21
8.1968891302
  0
LINE
  5
24E
100
AcDbEntity
  8
0
100
AcDbLine
 62
7
  6
CONTINUOUS
 10
11.0657757313
 20
9.666391804
 11
11.4169834891
 21
9.666391804
  0
LINE
  5
24F
100
AcDbEntity
  8
0
100
AcDbLine
 62
7
  6
CONTINUOUS
 10
11.4169834891
 20
9.750891804
 11
11.4789834891
 21
9.750891804
  0
LINE
  5
250
100
AcDbEntity
  8
0
100
AcDbLine
 62
7
  6
CONTINUOUS
 10
11.6669834891
 20
8.009891804
 11
11.6669834891
 21
10.009891804
  0
LINE
  5
251
100
AcDbEntity
  8
0
100
AcDbLine
 62
7
  6
CONTINUOUS
 10
11.7589834891
 20
6.559891804
 11
11.7589834891
 21
7.119891804
  0
LINE
  5
252
100
AcDbEntity
  8
0
100
AcDbLine
 62
7
  6
CONTINUOUS
 10
11.8539834891
 20
11.7634699897
 11
11.8539834891
 21
6.2563136183
  0
LINE
  5
253
100
AcDbEntity
  8
0
100
AcDbLine
 62
9
  6
CONTINUOUS
 10
11.9819834891
 20
6.0381027112
 11
11.9819834891
 21
11.9816808969
  0
LINE
  5
254
100
AcDbEntity
  8
0
100
AcDbLine
 62
7
  6
CONTINUOUS
 10
12.1099736539
 20
12.2030279345
 11
12.1099736539
 21
5.8167556736
  0
LINE
  5
255
100
AcDbEntity
  8
0
100
AcDbLine
 62
9
  6
CONTINUOUS
 10
12.233981294
 20
5.6008189982
 11
12.233981294
 21
12.4189646099
  0
LINE
  5
256
100
AcDbEntity
  8
0
100
AcDbLine
 62
7
  6
CONTINUOUS
 10
12.3579834891
 20
12.634891804
 11
12.3579834891
 21
5.384891804
  0
LINE
  5
257
100
AcDbEntity
  8
0
100
AcDbLine
 62
7
  6
CONTINUOUS
 10
10.8149834891
 20
6.614891804
 11
10.6009974482
 21
6.3990655445
  0
LINE
  5
258
100
AcDbEntity
  8
0
100
AcDbLine
 62
7
  6
CONTINUOUS
 10
12.6079834891
 20
5.1348927399
 11
12.6079834891
 21
12.8848908682
  0
ARC
  5
259
100
AcDbEntity
  8
0
100
AcDbCircle
 62
7
  6
CONTINUOUS
 10
10.1429801606
 20
7.957352902
 40
0.625
100
AcDbArc
 50
55.0110095298
 51
85.1903004544
  0
ARC
  5
25A
100
AcDbEntity
  8
0
100
AcDbCircle
 62
7
  6
CONTINUOUS
 10
9.3858945675
 20
8.9895704587
 40
0.568360276
100
AcDbArc
 50
204.396913537
 51
210.6421408444
  0
ARC
  5
25B
100
AcDbEntity
  8
0
100
AcDbCircle
 62
7
  6
CONTINUOUS
 10
9.3843954479
 20
8.9888426051
 40
0.5666943772
100
AcDbArc
 50
204.3923624041
 51
206.968296472
  0
ARC
  5
25C
100
AcDbEntity
  8
0
100
AcDbCircle
 62
7
  6
CONTINUOUS
 10
9.3740493537
 20
8.984882063
 40
0.555727464
100
AcDbArc
 50
169.1079574358
 51
171.9849864136
  0
ARC
  5
25D
100
AcDbEntity
  8
0
100
AcDbCircle
 62
7
  6
CONTINUOUS
 10
9.3726781632
 20
8.989509412
 40
0.5554034643
100
AcDbArc
 50
172.4516021777
 51
193.9936861794
  0
ARC
  5
25E
100
AcDbEntity
  8
0
100
AcDbCircle
 62
7
  6
CONTINUOUS
 10
10.7242478924
 20
8.5623669251
 40
0.2039751211
100
AcDbArc
 50
235.0110095298
 51
303.0478355064
  0
ARC
  5
25F
100
AcDbEntity
  8
0
100
AcDbCircle
 62
7
  6
CONTINUOUS
 10
9.365863313
 20
8.2131549106
 40
0.1288798255
100
AcDbArc
 50
165.9836076734
 51
179.9909998103
  0
ARC
  5
260
100
AcDbEntity
  8
0
100
AcDbCircle
 62
7
  6
CONTINUOUS
 10
9.0874052951
 20
8.6172741648
 40
0.125
100
AcDbArc
 50
195.0
 51
267.5140472802
  0
ARC
  5
261
100
AcDbEntity
  8
0
100
AcDbCircle
 62
7
  6
CONTINUOUS
 10
9.8652690734
 20
8.7527800661
 40
0.1239774096
100
AcDbArc
 50
222.9187712498
 51
224.2168798478
  0
ARC
  5
262
100
AcDbEntity
  8
0
100
AcDbCircle
 62
7
  6
CONTINUOUS
 10
9.8569834891
 20
8.648391804
 40
0.06
100
AcDbArc
 50
90.0
 51
180.0
  0
ARC
  5
263
100
AcDbEntity
  8
0
100
AcDbCircle
 62
7
  6
CONTINUOUS
 10
9.130973284
 20
8.502391804
 40
0.05
100
AcDbArc
 50
191.5369590328
 51
270.0
  0
ARC
  5
264
100
AcDbEntity
  8
0
100
AcDbCircle
 62
7
  6
CONTINUOUS
 10
10.1979834891
 20
8.6110429155
 40
0.031
100
AcDbArc
 50
180.0
 51
265.1903004544
  0
ARC
  5
265
100
AcDbEntity
  8
0
100
AcDbCircle
 62
7
  6
CONTINUOUS
 10
10.5789834891
 20
7.258891804
 40
0.031
100
AcDbArc
 50
44.7546926505
 51
90.0
  0
ARC
  5
266
100
AcDbEntity
  8
0
100
AcDbCircle
 62
7
  6
CONTINUOUS
 10
10.4889834891
 20
7.258891804
 40
0.031
100
AcDbArc
 50
90.0
 51
103.0407610339
  0
ARC
  5
267
100
AcDbEntity
  8
0
100
AcDbCircle
 62
7
  6
CONTINUOUS
 10
10.5789834891
 20
6.420891804
 40
0.031
100
AcDbArc
 50
270.0
 51
315.2453073495
  0
ARC
  5
268
100
AcDbEntity
  8
0
100
AcDbCircle
 62
7
  6
CONTINUOUS
 10
10.4889834891
 20
6.420891804
 40
0.031
100
AcDbArc
 50
256.9592389661
 51
270.0
  0
ARC
  5
269
100
AcDbEntity
  8
0
100
AcDbCircle
 62
7
  6
CONTINUOUS
 10
10.3529834891
 20
7.227391804
 40
0.031
100
AcDbArc
 50
103.0407610339
 51
180.0
  0
ARC
  5
26A
100
AcDbEntity
  8
0
100
AcDbCircle
 62
7
  6
CONTINUOUS
 10
10.3529834891
 20
6.452391804
 40
0.031
100
AcDbArc
 50
180.0
 51
256.9592389661
  0
ARC
  5
26B
100
AcDbEntity
  8
0
100
AcDbCircle
 62
9
  6
CONTINUOUS
 10
9.3068734641
 20
8.5925897114
 40
0.0217255846
100
AcDbArc
 50
15.1676426079
 51
17.9641997141
  0
ARC
  5
26C
100
AcDbEntity
  8
0
100
AcDbCircle
 62
9
  6
CONTINUOUS
 10
9.3074350086
 20
8.592730456
 40
0.0211467797
100
AcDbArc
 50
7.6314199818
 51
15.1976716898
  0
ARC
  5
26D
100
AcDbEntity
  8
0
100
AcDbCircle
 62
7
  6
CONTINUOUS
 10
8.9711663899
 20
8.629891804
 40
0.02
100
AcDbArc
 50
220.2326139158
 51
242.5999328409
  0
ARC
  5
26E
100
AcDbEntity
  8
0
100
AcDbCircle
 62
7
  6
CONTINUOUS
 10
9.2169834891
 20
8.467391804
 40
0.015
100
AcDbArc
 50
270.0
 51
360.0
  0
ARC
  5
26F
100
AcDbEntity
  8
0
100
AcDbCircle
 62
7
  6
CONTINUOUS
 10
9.2419834891
 20
8.469891804
 40
0.01
100
AcDbArc
 50
180.0
 51
270.0
  0
ARC
  5
270
100
AcDbEntity
  8
0
100
AcDbCircle
 62
7
  6
CONTINUOUS
 10
10.1429801606
 20
10.0624307061
 40
0.625
100
AcDbArc
 50
274.8096995456
 51
304.9889904702
  0
ARC
  5
271
100
AcDbEntity
  8
0
100
AcDbCircle
 62
7
  6
CONTINUOUS
 10
9.4203168225
 20
9.009891804
 40
0.6083333333
100
AcDbArc
 50
139.7673860839
 51
153.6511341187
  0
ARC
  5
272
100
AcDbEntity
  8
0
100
AcDbCircle
 62
7
  6
CONTINUOUS
 10
9.4203168225
 20
9.009891804
 40
0.6083333333
100
AcDbArc
 50
210.6364598536
 51
220.2326139161
  0
ARC
  5
273
100
AcDbEntity
  8
0
100
AcDbCircle
 62
7
  6
CONTINUOUS
 10
9.4203168225
 20
9.009891804
 40
0.6083333333
100
AcDbArc
 50
155.2821125575
 51
204.7573140003
  0
ARC
  5
274
100
AcDbEntity
  8
0
100
AcDbCircle
 62
7
  6
CONTINUOUS
 10
9.4203168225
 20
9.009891804
 40
0.6080992344
100
AcDbArc
 50
155.2719586833
 51
177.9834170324
  0
ARC
  5
275
100
AcDbEntity
  8
0
100
AcDbCircle
 62
7
  6
CONTINUOUS
 10
9.4203168225
 20
9.009891804
 40
0.6074645623
100
AcDbArc
 50
153.6105416983
 51
175.7517290609
  0
ARC
  5
276
100
AcDbEntity
  8
0
100
AcDbCircle
 62
7
  6
CONTINUOUS
 10
9.4203168225
 20
9.009891804
 40
0.6070988487
100
AcDbArc
 50
175.7524341081
 51
177.1071072718
  0
ARC
  5
277
100
AcDbEntity
  8
0
100
AcDbCircle
 62
7
  6
CONTINUOUS
 10
10.7242478924
 20
9.457416683
 40
0.2039751211
100
AcDbArc
 50
56.9521644936
 51
124.9889904702
  0
ARC
  5
278
100
AcDbEntity
  8
0
100
AcDbCircle
 62
7
  6
CONTINUOUS
 10
9.365863313
 20
9.8066286975
 40
0.1288798255
100
AcDbArc
 50
180.0090001903
 51
194.0163926033
  0
ARC
  5
279
100
AcDbEntity
  8
0
100
AcDbCircle
 62
7
  6
CONTINUOUS
 10
9.0874052951
 20
9.4025094433
 40
0.125
100
AcDbArc
 50
92.4859527198
 51
165.0
  0
ARC
  5
27A
100
AcDbEntity
  8
0
100
AcDbCircle
 62
7
  6
CONTINUOUS
 10
8.9236759707
 20
9.0169511792
 40
0.1122810872
100
AcDbArc
 50
156.0151681556
 51
160.6903513322
  0
ARC
  5
27B
100
AcDbEntity
  8
0
100
AcDbCircle
 62
7
  6
CONTINUOUS
 10
8.9062867959
 20
9.0218581323
 40
0.0941661557
100
AcDbArc
 50
173.3377466992
 51
174.251469642
  0
ARC
  5
27C
100
AcDbEntity
  8
0
100
AcDbCircle
 62
9
  6
CONTINUOUS
 10
9.315485999
 20
9.8066080466
 40
0.0785025135
100
AcDbArc
 50
177.9950021007
 51
179.9997036365
  0
ARC
  5
27D
100
AcDbEntity
  8
0
100
AcDbCircle
 62
7
  6
CONTINUOUS
 10
9.8569834891
 20
9.371391804
 40
0.06
100
AcDbArc
 50
180.0
 51
270.0
  0
ARC
  5
27E
100
AcDbEntity
  8
0
100
AcDbCircle
 62
7
  6
CONTINUOUS
 10
9.130973284
 20
9.517391804
 40
0.05
100
AcDbArc
 50
90.0
 51
168.4630409672
  0
ARC
  5
27F
100
AcDbEntity
  8
0
100
AcDbCircle
 62
7
  6
CONTINUOUS
 10
10.1979834891
 20
9.4087406926
 40
0.031
100
AcDbArc
 50
94.8096995456
 51
180.0
  0
ARC
  5
280
100
AcDbEntity
  8
0
100
AcDbCircle
 62
7
  6
CONTINUOUS
 10
8.9711663899
 20
9.389891804
 40
0.02
100
AcDbArc
 50
117.4000671591
 51
139.7673860842
  0
ARC
  5
281
100
AcDbEntity
  8
0
100
AcDbCircle
 62
7
  6
CONTINUOUS
 10
9.2169834891
 20
9.552391804
 40
0.015
100
AcDbArc
 50
0.0
 51
90.0
  0
ARC
  5
282
100
AcDbEntity
  8
0
100
AcDbCircle
 62
7
  6
CONTINUOUS
 10
9.2419834891
 20
9.549891804
 40
0.01
100
AcDbArc
 50
90.0
 51
180.0
  0
ARC
  5
283
100
AcDbEntity
  8
0
100
AcDbCircle
 62
7
  6
CONTINUOUS
 10
12.3599846314
 20
5.8167556736
 40
0.2500109774
100
AcDbArc
 50
180.0
 51
239.7355898687
  0
ARC
  5
284
100
AcDbEntity
  8
0
100
AcDbCircle
 62
7
  6
CONTINUOUS
 10
12.1039834891
 20
6.2563136183
 40
0.25
100
AcDbArc
 50
180.0
 51
240.7907880662
  0
ARC
  5
285
100
AcDbEntity
  8
0
100
AcDbCircle
 62
7
  6
CONTINUOUS
 10
11.8599834891
 20
5.819891804
 40
0.25
100
AcDbArc
 50
0.0594822709
 51
60.7907880662
  0
ARC
  5
286
100
AcDbEntity
  8
0
100
AcDbCircle
 62
7
  6
CONTINUOUS
 10
12.1079834891
 20
5.384891804
 40
0.25
100
AcDbArc
 50
0.0
 51
59.7355898687
  0
ARC
  5
287
100
AcDbEntity
  8
0
100
AcDbCircle
 62
7
  6
CONTINUOUS
 10
12.6079834891
 20
5.384891804
 40
0.25
100
AcDbArc
 50
180.0
 51
270.0
  0
ARC
  5
288
100
AcDbEntity
  8
0
100
AcDbCircle
 62
7
  6
CONTINUOUS
 10
11.8539834891
 20
8.0170279152
 40
0.1871361111
100
AcDbArc
 50
182.1854050713
 51
270.0
  0
ARC
  5
289
100
AcDbEntity
  8
0
100
AcDbCircle
 62
7
  6
CONTINUOUS
 10
11.6659834891
 20
8.1968891302
 40
0.187
100
AcDbArc
 50
180.0
 51
270.3063960032
  0
ARC
  5
28A
100
AcDbEntity
  8
0
100
AcDbCircle
 62
7
  6
CONTINUOUS
 10
10.9290225137
 20
8.2476172704
 40
0.1715245336
100
AcDbArc
 50
44.9173576842
 51
123.0478355064
  0
ARC
  5
28B
100
AcDbEntity
  8
0
100
AcDbCircle
 62
7
  6
CONTINUOUS
 10
11.8539834891
 20
6.559891804
 40
0.095
100
AcDbArc
 50
180.0
 51
270.0
  0
ARC
  5
28C
100
AcDbEntity
  8
0
100
AcDbCircle
 62
7
  6
CONTINUOUS
 10
11.8539834891
 20
7.119891804
 40
0.095
100
AcDbArc
 50
90.0
 51
180.0
  0
ARC
  5
28D
100
AcDbEntity
  8
0
100
AcDbCircle
 62
7
  6
CONTINUOUS
 10
11.4059834891
 20
7.063891804
 40
0.012
100
AcDbArc
 50
90.0
 51
180.0
  0
ARC
  5
28E
100
AcDbEntity
  8
0
100
AcDbCircle
 62
7
  6
CONTINUOUS
 10
11.4059834891
 20
6.615891804
 40
0.012
100
AcDbArc
 50
180.0
 51
270.0
  0
ARC
  5
28F
100
AcDbEntity
  8
0
100
AcDbCircle
 62
7
  6
CONTINUOUS
 10
12.3599846314
 20
12.2030279345
 40
0.2500109774
100
AcDbArc
 50
120.2644101313
 51
180.0
  0
ARC
  5
290
100
AcDbEntity
  8
0
100
AcDbCircle
 62
7
  6
CONTINUOUS
 10
12.1039834891
 20
11.7634699897
 40
0.25
100
AcDbArc
 50
119.2092119338
 51
180.0
  0
ARC
  5
291
100
AcDbEntity
  8
0
100
AcDbCircle
 62
7
  6
CONTINUOUS
 10
11.8599834891
 20
12.199891804
 40
0.25
100
AcDbArc
 50
299.2092119338
 51
359.9405177291
  0
ARC
  5
292
100
AcDbEntity
  8
0
100
AcDbCircle
 62
7
  6
CONTINUOUS
 10
12.1079834891
 20
12.634891804
 40
0.25
100
AcDbArc
 50
300.2644101313
 51
360.0
  0
ARC
  5
293
100
AcDbEntity
  8
0
100
AcDbCircle
 62
7
  6
CONTINUOUS
 10
12.6079834891
 20
12.634891804
 40
0.25
100
AcDbArc
 50
90.0
 51
180.0
  0
ARC
  5
294
100
AcDbEntity
  8
0
100
AcDbCircle
 62
7
  6
CONTINUOUS
 10
11.8539834891
 20
10.0027556929
 40
0.1871361111
100
AcDbArc
 50
90.0
 51
177.8145949287
  0
ARC
  5
295
100
AcDbEntity
  8
0
100
AcDbCircle
 62
7
  6
CONTINUOUS
 10
11.6659834891
 20
9.8228944779
 40
0.187
100
AcDbArc
 50
89.6936039968
 51
180.0
  0
ARC
  5
296
100
AcDbEntity
  8
0
100
AcDbCircle
 62
7
  6
CONTINUOUS
 10
10.9290225137
 20
9.7721663377
 40
0.1715245336
100
AcDbArc
 50
236.9521644936
 51
315.0826423158
  0
SPLINE
  5
297
100
AcDbEntity
  8
0
100
AcDbSpline
 62
7
  6
CONTINUOUS
 70
0
 71
3
 72
25
 73
21
 74
0
 42
0.0000001
 43
0.0000001
 44
0.0000000001
 40
0.0
 40
0.0
 40
0.0
 40
0.0
 40
0.0634297628
 40
0.1266806982
 40
0.189731018
 40
0.2525837417
 40
0.3152520351
 40
0.3777624593
 40
0.4401461088
 40
0.5024362463
 40
0.5646647029
 40
0.6268563859
 40
0.6890326479
 40
0.7201276303
 40
0.7512230864
 40
0.8134017418
 40
0.8755887927
 40
0.9066943623
 40
0.9378010586
 40
1.0
 40
1.0
 40
1.0
 40
1.0
 10
9.3604543469
 20
9.9437616422
 30
0.0
 10
9.3562944469
 20
9.9429694769
 30
0.0
 10
9.3480400905
 20
9.9410877021
 30
0.0
 10
9.3359188212
 20
9.9373729832
 30
0.0
 10
9.3241437795
 20
9.932776565
 30
0.0
 10
9.312789677
 20
9.9273092552
 30
0.0
 10
9.3019308334
 20
9.9209844209
 30
0.0
 10
9.2916434314
 20
9.9138206854
 30
0.0
 10
9.2820053143
 20
9.905842988
 30
0.0
 10
9.2730958557
 20
9.897084773
 30
0.0
 10
9.2649947713
 20
9.8875895217
 30
0.0
 10
9.2577809353
 20
9.8774129307
 30
0.0
 10
9.2525700772
 20
9.8684182997
 30
0.0
 10
9.2489187514
 20
9.8609584463
 30
0.0
 10
9.2456210552
 20
9.8533354485
 30
0.0
 10
9.2421800417
 20
9.8435260776
 30
0.0
 10
9.2396913066
 20
9.8334319417
 30
0.0
 10
9.2382903895
 20
9.8252428843
 30
0.0
 10
9.2372861151
 20
9.8169956586
 30
0.0
 10
9.2369834891
 20
9.8107609354
 30
0.0
 10
9.2369834891
 20
9.8066084527
 30
0.0
  0
SPLINE
  5
298
100
AcDbEntity
  8
0
100
AcDbSpline
 62
7
  6
CONTINUOUS
 70
0
 71
3
 72
13
 73
9
 74
0
 42
0.0000001
 43
0.0000001
 44
0.0000000001
 40
0.0
 40
0.0
 40
0.0
 40
0.0
 40
0.2491319726
 40
0.3744605417
 40
0.5000000346
 40
0.6255395208
 40
0.750868075
 40
1.0
 40
1.0
 40
1.0
 40
1.0
 10
9.6735126332
 20
9.9437616419
 30
0.0
 10
9.6478304148
 20
9.9486522797
 30
0.0
 10
9.6088420717
 20
9.9541449339
 30
0.0
 10
9.5564879978
 20
9.9578075125
 30
0.0
 10
9.5169834799
 20
9.9587264136
 30
0.0
 10
9.4774789636
 20
9.9578075117
 30
0.0
 10
9.425124897
 20
9.9541449325
 30
0.0
 10
9.3861365604
 20
9.948652279
 30
0.0
 10
9.3604543469
 20
9.9437616422
 30
0.0
  0
SPLINE
  5
299
100
AcDbEntity
  8
0
100
AcDbSpline
 62
7
  6
CONTINUOUS
 70
0
 71
3
 72
25
 73
21
 74
0
 42
0.0000001
 43
0.0000001
 44
0.0000000001
 40
0.0
 40
0.0
 40
0.0
 40
0.0
 40
0.062197413
 40
0.0933033159
 40
0.1244085505
 40
0.1865954178
 40
0.2487740125
 40
0.2798698536
 40
0.3109652615
 40
0.3731419187
 40
0.4353349954
 40
0.4975640861
 40
0.5598551097
 40
0.6222401411
 40
0.6847506507
 40
0.747419231
 40
0.8102722118
 40
0.8733214086
 40
0.9365725614
 40
1.0
 40
1.0
 40
1.0
 40
1.0
 10
9.7969834891
 20
9.8066084527
 30
0.0
 10
9.7969834891
 20
9.810760833
 30
0.0
 10
9.7966808864
 20
9.8169954013
 30
0.0
 10
9.7956766369
 20
9.8252424504
 30
0.0
 10
9.7942757788
 20
9.8334314277
 30
0.0
 10
9.7917870894
 20
9.8435255369
 30
0.0
 10
9.7883460773
 20
9.853334913
 30
0.0
 10
9.7850484639
 20
9.8609580019
 30
0.0
 10
9.7813970293
 20
9.8684178913
 30
0.0
 10
9.7761861829
 20
9.8774126962
 30
0.0
 10
9.768972221
 20
9.887589398
 30
0.0
 10
9.7608710644
 20
9.8970848408
 30
0.0
 10
9.7519614433
 20
9.9058431678
 30
0.0
 10
9.7423232152
 20
9.9138209759
 30
0.0
 10
9.7320356834
 20
9.9209847308
 30
0.0
 10
9.7211767751
 20
9.9273095356
 30
0.0
 10
9.7098226803
 20
9.9327767671
 30
0.0
 10
9.6980476804
 20
9.9373731708
 30
0.0
 10
9.685926594
 20
9.9410877477
 30
0.0
 10
9.6776723805
 20
9.9429695055
 30
0.0
 10
9.6735126332
 20
9.9437616419
 30
0.0
  0
SPLINE
  5
29A
100
AcDbEntity
  8
0
100
AcDbSpline
 62
7
  6
CONTINUOUS
 70
0
 71
3
 72
25
 73
21
 74
0
 42
0.0000001
 43
0.0000001
 44
0.0000000001
 40
0.0
 40
0.0
 40
0.0
 40
0.0
 40
0.0634297628
 40
0.1266806982
 40
0.189731018
 40
0.2525837416
 40
0.3152520351
 40
0.3777624593
 40
0.4401461087
 40
0.5024362462
 40
0.5646647029
 40
0.6268563859
 40
0.6890326478
 40
0.7201276303
 40
0.7512230864
 40
0.8134017418
 40
0.8755887927
 40
0.9066943623
 40
0.9378010586
 40
1.0
 40
1.0
 40
1.0
 40
1.0
 10
9.3604543453
 20
8.0760219662
 30
0.0
 10
9.3562944453
 20
8.0768141316
 30
0.0
 10
9.348040089
 20
8.0786959064
 30
0.0
 10
9.3359188198
 20
8.0824106254
 30
0.0
 10
9.3241437782
 20
8.0870070437
 30
0.0
 10
9.3127896759
 20
8.0924743535
 30
0.0
 10
9.3019308324
 20
8.0987991878
 30
0.0
 10
9.2916434305
 20
8.1059629233
 30
0.0
 10
9.2820053136
 20
8.1139406207
 30
0.0
 10
9.2730958552
 20
8.1226988357
 30
0.0
 10
9.2649947709
 20
8.132194087
 30
0.0
 10
9.257780935
 20
8.1423706779
 30
0.0
 10
9.252570077
 20
8.1513653089
 30
0.0
 10
9.2489187512
 20
8.1588251622
 30
0.0
 10
9.245621055
 20
8.1664481599
 30
0.0
 10
9.2421800416
 20
8.1762575308
 30
0.0
 10
9.2396913066
 20
8.1863516666
 30
0.0
 10
9.2382903895
 20
8.1945407239
 30
0.0
 10
9.2372861151
 20
8.2027879495
 30
0.0
 10
9.2369834891
 20
8.2090226727
 30
0.0
 10
9.2369834891
 20
8.2131751554
 30
0.0
  0
SPLINE
  5
29B
100
AcDbEntity
  8
0
100
AcDbSpline
 62
7
  6
CONTINUOUS
 70
0
 71
3
 72
13
 73
9
 74
0
 42
0.0000001
 43
0.0000001
 44
0.0000000001
 40
0.0
 40
0.0
 40
0.0
 40
0.0
 40
0.2491319726
 40
0.3744605418
 40
0.5000000347
 40
0.6255395209
 40
0.750868075
 40
1.0
 40
1.0
 40
1.0
 40
1.0
 10
9.6735126313
 20
8.0760219659
 30
0.0
 10
9.647830413
 20
8.0711313281
 30
0.0
 10
9.6088420698
 20
8.065638674
 30
0.0
 10
9.556487996
 20
8.0619760955
 30
0.0
 10
9.5169834781
 20
8.0610571945
 30
0.0
 10
9.4774789618
 20
8.0619760965
 30
0.0
 10
9.4251248953
 20
8.0656386758
 30
0.0
 10
9.3861365588
 20
8.0711313293
 30
0.0
 10
9.3604543453
 20
8.0760219662
 30
0.0
  0
SPLINE
  5
29C
100
AcDbEntity
  8
0
100
AcDbSpline
 62
7
  6
CONTINUOUS
 70
0
 71
3
 72
25
 73
21
 74
0
 42
0.0000001
 43
0.0000001
 44
0.0000000001
 40
0.0
 40
0.0
 40
0.0
 40
0.0
 40
0.062197413
 40
0.0933033159
 40
0.1244085505
 40
0.1865954178
 40
0.2487740125
 40
0.2798698536
 40
0.3109652614
 40
0.3731419186
 40
0.4353349953
 40
0.497564086
 40
0.5598551096
 40
0.6222401411
 40
0.6847506507
 40
0.7474192309
 40
0.8102722118
 40
0.8733214086
 40
0.9365725613
 40
1.0
 40
1.0
 40
1.0
 40
1.0
 10
9.7969834891
 20
8.2131751554
 30
0.0
 10
9.7969834891
 20
8.209022775
 30
0.0
 10
9.7966808864
 20
8.2027882067
 30
0.0
 10
9.7956766368
 20
8.1945411575
 30
0.0
 10
9.7942757787
 20
8.1863521802
 30
0.0
 10
9.7917870893
 20
8.1762580709
 30
0.0
 10
9.7883460771
 20
8.1664486946
 30
0.0
 10
9.7850484637
 20
8.1588256058
 30
0.0
 10
9.781397029
 20
8.1513657163
 30
0.0
 10
9.7761861825
 20
8.1423709113
 30
0.0
 10
9.7689722205
 20
8.1321942095
 30
0.0
 10
9.7608710638
 20
8.1226987666
 30
0.0
 10
9.7519614425
 20
8.1139404396
 30
0.0
 10
9.7423232142
 20
8.1059626315
 30
0.0
 10
9.7320356823
 20
8.0987988766
 30
0.0
 10
9.7211767738
 20
8.0924740718
 30
0.0
 10
9.7098226789
 20
8.0870068404
 30
0.0
 10
9.6980476788
 20
8.0824104368
 30
0.0
 10
9.6859265922
 20
8.07869586
 30
0.0
 10
9.6776723786
 20
8.0768141022
 30
0.0
 10
9.6735126313
 20
8.0760219659
 30
0.0
  0
SPLINE
  5
29D
100
AcDbEntity
  8
0
100
AcDbSpline
 62
7
  6
CONTINUOUS
 70
0
 71
3
 72
15
 73
11
 74
0
 42
0.0000001
 43
0.0000001
 44
0.0000000001
 40
0.0
 40
0.0
 40
0.0
 40
0.0
 40
0.1248252544
 40
0.2496017834
 40
0.3743795425
 40
0.4992084934
 40
0.6241385967
 40
0.7492180599
 40
0.8744915795
 40
1.0
 40
1.0
 40
1.0
 40
1.0
 10
8.8237504766
 20
9.0623685785
 30
0.0
 10
8.8219264838
 20
9.0494136702
 30
0.0
 10
8.8191944945
 20
9.0233704651
 30
0.0
 10
8.8178723292
 20
8.9841235118
 30
0.0
 10
8.819332097
 20
8.9448790407
 30
0.0
 10
8.8235674259
 20
8.9058208334
 30
0.0
 10
8.8305585933
 20
8.8671286527
 30
0.0
 10
8.840273676
 20
8.8289806006
 30
0.0
 10
8.8526668489
 20
8.7915550063
 30
0.0
 10
8.8626685148
 20
8.7672208907
 30
0.0
 10
8.8680907689
 20
8.7552361355
 30
0.0
  0
LINE
  5
29E
100
AcDbEntity
  8
0
100
AcDbLine
 62
7
  6
CONTINUOUS
 10
8.8680907689
 20
8.7552361355
 11
8.8682855035
 21
8.7548061937
  0
SPLINE
  5
29F
100
AcDbEntity
  8
0
100
AcDbSpline
 62
7
  6
CONTINUOUS
 70
0
 71
3
 72
8
 73
4
 74
0
 42
0.0000001
 43
0.0000001
 44
0.0000000001
 40
0.0
 40
0.0
 40
0.0
 40
0.0
 40
1.0
 40
1.0
 40
1.0
 40
1.0
 10
8.8177112247
 20
9.0540795396
 30
0.0
 10
8.8177020779
 20
9.0540533327
 30
0.0
 10
8.8176929311
 20
9.0540271259
 30
0.0
 10
8.8176837844
 20
9.054000919
 30
0.0
  0
SPLINE
  5
2A0
100
AcDbEntity
  8
0
100
AcDbSpline
 62
7
  6
CONTINUOUS
 70
0
 71
3
 72
9
 73
5
 74
0
 42
0.0000001
 43
0.0000001
 44
0.0000000001
 40
0.0
 40
0.0
 40
0.0
 40
0.0
 40
0.5053483942
 40
1.0
 40
1.0
 40
1.0
 40
1.0
 10
8.8176837844
 20
9.054000919
 30
0.0
 10
8.8164741814
 20
9.0505309042
 30
0.0
 10
8.8144326996
 20
9.0435353401
 30
0.0
 10
8.8131738083
 20
9.0363556773
 30
0.0
 10
8.8127565163
 20
9.0327829514
 30
0.0
  0
SPLINE
  5
2A1
100
AcDbEntity
  8
0
100
AcDbSpline
 62
9
  6
CONTINUOUS
 70
0
 71
3
 72
25
 73
21
 74
0
 42
0.0000001
 43
0.0000001
 44
0.0000000001
 40
0.0
 40
0.0
 40
0.0
 40
0.0
 40
0.023715453
 40
0.0468978693
 40
0.0697353644
 40
0.0924145406
 40
0.1151166281
 40
0.1380124747
 40
0.1849674237
 40
0.2343808468
 40
0.2870588472
 40
0.3435092579
 40
0.4038960069
 40
0.4681738905
 40
0.536155934
 40
0.6075407571
 40
0.6819342438
 40
0.8378537124
 40
0.9184246462
 40
1.0
 40
1.0
 40
1.0
 40
1.0
 10
9.3291468271
 20
8.5985751622
 30
0.0
 10
9.3293530599
 20
8.5994021094
 30
0.0
 10
9.3298207515
 20
8.6010232809
 30
0.0
 10
9.3306998689
 20
8.603372764
 30
0.0
 10
9.3317461695
 20
8.6056118779
 30
0.0
 10
9.332958632
 20
8.6077456179
 30
0.0
 10
9.3343362131
 20
8.6097791897
 30
0.0
 10
9.3364079394
 20
8.6123848462
 30
0.0
 10
9.339441254
 20
8.6154344747
 30
0.0
 10
9.3436873311
 20
8.6187196229
 30
0.0
 10
9.3485562154
 20
8.6216971689
 30
0.0
 10
9.3540285845
 20
8.6243902362
 30
0.0
 10
9.3600824304
 20
8.6267970378
 30
0.0
 10
9.3666820722
 20
8.6289051151
 30
0.0
 10
9.3737817358
 20
8.6306984795
 30
0.0
 10
9.3813273465
 20
8.6321600842
 30
0.0
 10
9.3920683894
 20
8.6336665772
 30
0.0
 10
9.4032363051
 20
8.6343926061
 30
0.0
 10
9.4146685113
 20
8.6344110795
 30
0.0
 10
9.4204933855
 20
8.6341979356
 30
0.0
 10
9.4234209459
 20
8.6340437191
 30
0.0
  0
SPLINE
  5
2A2
100
AcDbEntity
  8
0
100
AcDbSpline
 62
9
  6
CONTINUOUS
 70
0
 71
3
 72
17
 73
13
 74
0
 42
0.0000001
 43
0.0000001
 44
0.0000000001
 40
0.0
 40
0.0
 40
0.0
 40
0.0
 40
0.0522776836
 40
0.105596086
 40
0.1601806371
 40
0.2162064285
 40
0.3329074844
 40
0.4562074033
 40
0.5857420164
 40
0.7205471545
 40
0.8592009008
 40
1.0
 40
1.0
 40
1.0
 40
1.0
 10
9.3275399138
 20
8.5992903745
 30
0.0
 10
9.3272845553
 20
8.6000782221
 30
0.0
 10
9.3266780032
 20
8.6016416189
 30
0.0
 10
9.3255071853
 20
8.6038980626
 30
0.0
 10
9.3240760309
 20
8.6060706878
 30
0.0
 10
9.3218051259
 20
8.6088718657
 30
0.0
 10
9.3183458671
 20
8.6120787227
 30
0.0
 10
9.3134316856
 20
8.6153031505
 30
0.0
 10
9.3078330368
 20
8.6178775978
 30
0.0
 10
9.3017050191
 20
8.6197338061
 30
0.0
 10
9.2952168614
 20
8.6208235864
 30
0.0
 10
9.2907811695
 20
8.6210189265
 30
0.0
 10
9.2885508765
 20
8.6209831842
 30
0.0
  0
SPLINE
  5
2A3
100
AcDbEntity
  8
0
100
AcDbSpline
 62
9
  6
CONTINUOUS
 70
0
 71
3
 72
22
 73
18
 74
0
 42
0.0000001
 43
0.0000001
 44
0.0000000001
 40
0.0
 40
0.0
 40
0.0
 40
0.0
 40
0.0531161149
 40
0.1065838188
 40
0.1607374893
 40
0.2158821396
 40
0.2722807484
 40
0.3301471199
 40
0.3896416494
 40
0.4508703683
 40
0.5138862742
 40
0.578692301
 40
0.6452453898
 40
0.7134607409
 40
0.7832175685
 40
0.8543608926
 40
1.0
 40
1.0
 40
1.0
 40
1.0
 10
9.2369834855
 20
8.2131751554
 30
0.0
 10
9.2369834863
 20
8.2101489364
 30
0.0
 10
9.2373360487
 20
8.2040706872
 30
0.0
 10
9.2389166325
 20
8.1950310999
 30
0.0
 10
9.2415377951
 20
8.1861156619
 30
0.0
 10
9.2451800974
 20
8.1773867109
 30
0.0
 10
9.2498172734
 20
8.1689024907
 30
0.0
 10
9.2554165353
 20
8.1607194798
 30
0.0
 10
9.2619390759
 20
8.1528915122
 30
0.0
 10
9.26934036
 20
8.145469835
 30
0.0
 10
9.2775704058
 20
8.1385028906
 30
0.0
 10
9.2865740174
 20
8.1320361281
 30
0.0
 10
9.2962911754
 20
8.1261117746
 30
0.0
 10
9.3066569838
 20
8.1207686125
 30
0.0
 10
9.3176034436
 20
8.1160414771
 30
0.0
 10
9.332989656
 20
8.1105605217
 30
0.0
 10
9.3450057355
 20
8.1075308488
 30
0.0
 10
9.3531568507
 20
8.1059786406
 30
0.0
  0
SPLINE
  5
2A4
100
AcDbEntity
  8
0
100
AcDbSpline
 62
9
  6
CONTINUOUS
 70
0
 71
3
 72
22
 73
18
 74
0
 42
0.0000001
 43
0.0000001
 44
0.0000000001
 40
0.0
 40
0.0
 40
0.0
 40
0.0
 40
0.0530289182
 40
0.1064964346
 40
0.160717578
 40
0.2159755714
 40
0.2725122028
 40
0.3305217387
 40
0.390147742
 40
0.4514826778
 40
0.514569469
 40
0.5794044114
 40
0.645941008
 40
0.7140939537
 40
0.7837446055
 40
0.8547420343
 40
1.0
 40
1.0
 40
1.0
 40
1.0
 10
9.2370315464
 20
9.8093545884
 30
0.0
 10
9.2371355472
 20
9.8123255413
 30
0.0
 10
9.2376843223
 20
9.8182855264
 30
0.0
 10
9.2395160543
 20
9.8271251829
 30
0.0
 10
9.2423448897
 20
9.8358298392
 30
0.0
 10
9.2461508752
 20
9.8443411452
 30
0.0
 10
9.2509077673
 20
9.8526046123
 30
0.0
 10
9.2565834028
 20
9.8605673981
 30
0.0
 10
9.2631400898
 20
9.8681791234
 30
0.0
 10
9.2705348674
 20
9.8753918223
 30
0.0
 10
9.2787197636
 20
9.8821601443
 30
0.0
 10
9.2876419961
 20
9.8884415427
 30
0.0
 10
9.2972443307
 20
9.8941965022
 30
0.0
 10
9.3074650453
 20
9.8993887313
 30
0.0
 10
9.3182395868
 20
9.9039856064
 30
0.0
 10
9.3333612811
 20
9.9093210598
 30
0.0
 10
9.3451575163
 20
9.9122816627
 30
0.0
 10
9.3531568507
 20
9.9138049675
 30
0.0
  0
SPLINE
  5
2A5
100
AcDbEntity
  8
0
100
AcDbSpline
 62
9
  6
CONTINUOUS
 70
0
 71
3
 72
23
 73
19
 74
0
 42
0.0000001
 43
0.0000001
 44
0.0000000001
 40
0.0
 40
0.0
 40
0.0
 40
0.0
 40
0.0137546527
 40
0.027732839
 40
0.0571434156
 40
0.0897324491
 40
0.1265497792
 40
0.1682917767
 40
0.2154035753
 40
0.2681483948
 40
0.3266734225
 40
0.3910374268
 40
0.4612402252
 40
0.5372311662
 40
0.6189204372
 40
0.7061952377
 40
0.7989223674
 40
1.0
 40
1.0
 40
1.0
 40
1.0
 10
9.36045435
 20
8.0760219904
 30
0.0
 10
9.3603095699
 20
8.0760495549
 30
0.0
 10
9.3600209555
 20
8.0761244346
 30
0.0
 10
9.3594516781
 20
8.0763537528
 30
0.0
 10
9.3587602966
 20
8.0767984698
 30
0.0
 10
9.3580032491
 20
8.0775468058
 30
0.0
 10
9.3573006025
 20
8.0785134483
 30
0.0
 10
9.3566508353
 20
8.079695962
 30
0.0
 10
9.3560535762
 20
8.0810927616
 30
0.0
 10
9.3555092335
 20
8.0827015784
 30
0.0
 10
9.3550188845
 20
8.0845195225
 30
0.0
 10
9.3545834791
 20
8.0865429344
 30
0.0
 10
9.3542041151
 20
8.0887675245
 30
0.0
 10
9.353881687
 20
8.0911883697
 30
0.0
 10
9.3536169849
 20
8.0938000461
 30
0.0
 10
9.3534106888
 20
8.0965967803
 30
0.0
 10
9.3532088426
 20
8.1006753352
 30
0.0
 10
9.3531568506
 20
8.1038240994
 30
0.0
 10
9.3531568507
 20
8.1059786406
 30
0.0
  0
LINE
  5
2A6
100
AcDbEntity
  8
0
100
AcDbLine
 62
9
  6
CONTINUOUS
 10
9.3283720354
 20
9.4243910172
 11
9.32754816
 21
9.4209348832
  0
SPLINE
  5
2A7
100
AcDbEntity
  8
0
100
AcDbSpline
 62
9
  6
CONTINUOUS
 70
0
 71
3
 72
16
 73
12
 74
0
 42
0.0000001
 43
0.0000001
 44
0.0000000001
 40
0.0
 40
0.0
 40
0.0
 40
0.0
 40
0.0511637115
 40
0.1036261745
 40
0.2131291728
 40
0.329692095
 40
0.4534518354
 40
0.5837829458
 40
0.7194651394
 40
0.8588409356
 40
1.0
 40
1.0
 40
1.0
 40
1.0
 10
9.32754816
 20
9.4209348832
 30
0.0
 10
9.3272929406
 20
9.4201656582
 30
0.0
 10
9.3266857353
 20
9.4186361582
 30
0.0
 10
9.3251046686
 20
9.4156471624
 30
0.0
 10
9.3224402231
 20
9.4120916108
 30
0.0
 10
9.3183507722
 20
9.4083142786
 30
0.0
 10
9.3134396464
 20
9.4050555863
 30
0.0
 10
9.3078441916
 20
9.4024012442
 30
0.0
 10
9.3017178438
 20
9.4004203429
 30
0.0
 10
9.2952301303
 20
9.3991656527
 30
0.0
 10
9.2907866231
 20
9.3988364731
 30
0.0
 10
9.2885508789
 20
9.3988006435
 30
0.0
  0
SPLINE
  5
2A8
100
AcDbEntity
  8
0
100
AcDbSpline
 62
7
  6
CONTINUOUS
 70
0
 71
3
 72
11
 73
7
 74
0
 42
0.0000001
 43
0.0000001
 44
0.0000000001
 40
0.0
 40
0.0
 40
0.0
 40
0.0
 40
0.2404662671
 40
0.486304771
 40
0.7390298722
 40
1.0
 40
1.0
 40
1.0
 40
1.0
 10
8.814521317
 20
9.054891804
 30
0.0
 10
8.8151175625
 20
9.0578620476
 30
0.0
 10
8.816604925
 20
9.0638157715
 30
0.0
 10
8.8196613563
 20
9.0726223141
 30
0.0
 10
8.823557423
 20
9.0813737365
 30
0.0
 10
8.826656262
 20
9.0870638838
 30
0.0
 10
8.8283333392
 20
9.089891804
 30
0.0
  0
SPLINE
  5
2A9
100
AcDbEntity
  8
0
100
AcDbSpline
 62
9
  6
CONTINUOUS
 70
0
 71
3
 72
23
 73
19
 74
0
 42
0.0000001
 43
0.0000001
 44
0.0000000001
 40
0.0
 40
0.0
 40
0.0
 40
0.0
 40
0.0137546527
 40
0.0277328391
 40
0.057143416
 40
0.0897324501
 40
0.1265497808
 40
0.1682917788
 40
0.2154035779
 40
0.2681483978
 40
0.3266734258
 40
0.3910374302
 40
0.4612402286
 40
0.5372311694
 40
0.61892044
 40
0.7061952401
 40
0.7989223691
 40
1.0
 40
1.0
 40
1.0
 40
1.0
 10
9.6735126267
 20
8.0760219901
 30
0.0
 10
9.6736574068
 20
8.0760495546
 30
0.0
 10
9.6739460212
 20
8.0761244343
 30
0.0
 10
9.6745152986
 20
8.0763537525
 30
0.0
 10
9.6752066801
 20
8.0767984696
 30
0.0
 10
9.6759637277
 20
8.0775468055
 30
0.0
 10
9.6766663744
 20
8.0785134481
 30
0.0
 10
9.6773161416
 20
8.0796959618
 30
0.0
 10
9.6779134008
 20
8.0810927613
 30
0.0
 10
9.6784577435
 20
8.0827015782
 30
0.0
 10
9.6789480927
 20
8.0845195223
 30
0.0
 10
9.6793834982
 20
8.0865429342
 30
0.0
 10
9.6797628623
 20
8.0887675243
 30
0.0
 10
9.6800852906
 20
8.0911883696
 30
0.0
 10
9.6803499928
 20
8.093800046
 30
0.0
 10
9.680556289
 20
8.0965967802
 30
0.0
 10
9.6807581354
 20
8.1006753352
 30
0.0
 10
9.6808101276
 20
8.1038240994
 30
0.0
 10
9.6808101276
 20
8.1059786406
 30
0.0
  0
SPLINE
  5
2AA
100
AcDbEntity
  8
0
100
AcDbSpline
 62
7
  6
CONTINUOUS
 70
0
 71
3
 72
30
 73
26
 74
0
 42
0.0000001
 43
0.0000001
 44
0.0000000001
 40
0.0
 40
0.0
 40
0.0
 40
0.0
 40
0.063530756
 40
0.1267593141
 40
0.1896674345
 40
0.2522486632
 40
0.3145155134
 40
0.3455473422
 40
0.3765176869
 40
0.4074358968
 40
0.4383132248
 40
0.4691624058
 40
0.4999971867
 40
0.5308319674
 40
0.5616811478
 40
0.5925584749
 40
0.6234766837
 40
0.6544470269
 40
0.6854788542
 40
0.7477457007
 40
0.8103269247
 40
0.8417433465
 40
0.8732408937
 40
0.9364694593
 40
1.0
 40
1.0
 40
1.0
 40
1.0
 10
11.167040872
 20
9.009891804
 30
0.0
 10
11.1596973233
 20
8.997135659
 30
0.0
 10
11.1455274605
 20
8.9714016796
 30
0.0
 10
11.1260254568
 20
8.932006416
 30
0.0
 10
11.1086356143
 20
8.8918668959
 30
0.0
 10
11.0936908617
 20
8.8509862207
 30
0.0
 10
11.0835600608
 20
8.8162871886
 30
0.0
 10
11.0770395447
 20
8.7882382277
 30
0.0
 10
11.0729809919
 20
8.7670903592
 30
0.0
 10
11.0697844028
 20
8.7458311681
 30
0.0
 10
11.0674787749
 20
8.7244848267
 30
0.0
 10
11.0660864029
 20
8.7030786725
 30
0.0
 10
11.0656207809
 20
8.6816420729
 30
0.0
 10
11.0660863795
 20
8.660205473
 30
0.0
 10
11.0674787285
 20
8.6387993174
 30
0.0
 10
11.0697843336
 20
8.617452975
 30
0.0
 10
11.0729809014
 20
8.5961937783
 30
0.0
 10
11.0770394302
 20
8.5750459182
 30
0.0
 10
11.0835599327
 20
8.5469968952
 30
0.0
 10
11.0936905977
 20
8.5122982959
 30
0.0
 10
11.1061290522
 20
8.4782728625
 30
0.0
 10
11.1172971052
 20
8.4514250316
 30
0.0
 10
11.1292541068
 20
8.4247544454
 30
0.0
 10
11.145528112
 20
8.3918824509
 30
0.0
 10
11.1596959182
 20
8.3661479109
 30
0.0
 10
11.1670394332
 20
8.353391804
 30
0.0
  0
SPLINE
  5
2AB
100
AcDbEntity
  8
0
100
AcDbSpline
 62
7
  6
CONTINUOUS
 70
0
 71
3
 72
30
 73
26
 74
0
 42
0.0000001
 43
0.0000001
 44
0.0000000001
 40
0.0
 40
0.0
 40
0.0
 40
0.0
 40
0.0635305407
 40
0.1267591063
 40
0.1582566535
 40
0.1896730752
 40
0.2522542993
 40
0.3145211458
 40
0.3455529731
 40
0.3765233163
 40
0.4074415251
 40
0.4383188522
 40
0.4691680326
 40
0.5000028133
 40
0.5308375943
 40
0.5616867752
 40
0.5925641032
 40
0.6234823131
 40
0.6544526578
 40
0.6854844866
 40
0.7477513368
 40
0.8103325655
 40
0.8732406859
 40
0.9364692439
 40
1.0
 40
1.0
 40
1.0
 40
1.0
 10
11.167039433
 20
9.666391804
 30
0.0
 10
11.1596959179
 20
9.6536356972
 30
0.0
 10
11.1455281121
 20
9.627901157
 30
0.0
 10
11.1292541067
 20
9.5950291626
 30
0.0
 10
11.1172971052
 20
9.5683585764
 30
0.0
 10
11.1061290521
 20
9.5415107456
 30
0.0
 10
11.0936905976
 20
9.5074853121
 30
0.0
 10
11.0835599327
 20
9.4727867128
 30
0.0
 10
11.0770394302
 20
9.4447376898
 30
0.0
 10
11.0729809014
 20
9.4235898297
 30
0.0
 10
11.0697843335
 20
9.402330633
 30
0.0
 10
11.0674787285
 20
9.3809842906
 30
0.0
 10
11.0660863795
 20
9.359578135
 30
0.0
 10
11.0656207809
 20
9.3381415351
 30
0.0
 10
11.0660864029
 20
9.3167049355
 30
0.0
 10
11.0674787749
 20
9.2952987813
 30
0.0
 10
11.0697844029
 20
9.2739524399
 30
0.0
 10
11.0729809919
 20
9.2526932488
 30
0.0
 10
11.0770395447
 20
9.2315453803
 30
0.0
 10
11.0835600608
 20
9.2034964194
 30
0.0
 10
11.0936908618
 20
9.1687973873
 30
0.0
 10
11.1086356144
 20
9.1279167121
 30
0.0
 10
11.1260254569
 20
9.0877771921
 30
0.0
 10
11.1455274605
 20
9.0483819283
 30
0.0
 10
11.1596973235
 20
9.0226479491
 30
0.0
 10
11.1670408722
 20
9.009891804
 30
0.0
  0
SPLINE
  5
2AC
100
AcDbEntity
  8
0
100
AcDbSpline
 62
7
  6
CONTINUOUS
 70
0
 71
3
 72
11
 73
7
 74
0
 42
0.0000001
 43
0.0000001
 44
0.0000000001
 40
0.0
 40
0.0
 40
0.0
 40
0.0
 40
0.2414012763
 40
0.4876804796
 40
0.7401497236
 40
1.0
 40
1.0
 40
1.0
 40
1.0
 10
8.8155255132
 20
9.054891804
 30
0.0
 10
8.8160758616
 20
9.0576288631
 30
0.0
 10
8.8174267457
 20
9.0631129139
 30
0.0
 10
8.8201563035
 20
9.0712354015
 30
0.0
 10
8.823601506
 20
9.0793131234
 30
0.0
 10
8.8263295865
 20
9.0845795952
 30
0.0
 10
8.8278033446
 20
9.0871986222
 30
0.0
  0
LINE
  5
2AD
100
AcDbEntity
  8
0
100
AcDbLine
 62
7
  6
CONTINUOUS
 10
8.8220888073
 20
9.0624690731
 11
8.8221052297
 21
9.0625928552
  0
SPLINE
  5
2AE
100
AcDbEntity
  8
0
100
AcDbSpline
 62
9
  6
CONTINUOUS
 70
0
 71
3
 72
27
 73
23
 74
0
 42
0.0000001
 43
0.0000001
 44
0.0000000001
 40
0.0
 40
0.0
 40
0.0
 40
0.0
 40
0.1250053057
 40
0.2500106114
 40
0.3750159171
 40
0.43751857
 40
0.5000212228
 40
0.5625238757
 40
0.6250265285
 40
0.6875291814
 40
0.7187805078
 40
0.7500318342
 40
0.7812831607
 40
0.8125344867
 40
0.8281601511
 40
0.8437858142
 40
0.8594114817
 40
0.8750371446
 40
0.9062883026
 40
0.9375377338
 40
0.9687793553
 40
1.0
 40
1.0
 40
1.0
 40
1.0
 10
9.6969848689
 20
9.2495354438
 30
0.0
 10
9.6855886211
 20
9.2495354439
 30
0.0
 10
9.6627961254
 20
9.2495354441
 30
0.0
 10
9.6286073819
 20
9.2495354432
 30
0.0
 10
9.6001167623
 20
9.2495354455
 30
0.0
 10
9.5773242666
 20
9.2495354404
 30
0.0
 10
9.5602298948
 20
9.2495354558
 30
0.0
 10
9.5431355231
 20
9.2495354104
 30
0.0
 10
9.5260411513
 20
9.2495355304
 30
0.0
 10
9.5117958415
 20
9.249535261
 30
0.0
 10
9.5003995937
 20
9.2495355998
 30
0.0
 10
9.4918524078
 20
9.2495357865
 30
0.0
 10
9.483305222
 20
9.2495343562
 30
0.0
 10
9.4761825669
 20
9.2495354066
 30
0.0
 10
9.4704844435
 20
9.2495376234
 30
0.0
 10
9.4662108495
 20
9.2495380848
 30
0.0
 10
9.4619372583
 20
9.2495330091
 30
0.0
 10
9.4562391519
 20
9.2495299976
 30
0.0
 10
9.4491166596
 20
9.2495636664
 30
0.0
 10
9.4405716421
 20
9.2497399185
 30
0.0
 10
9.4320372165
 20
9.2501604265
 30
0.0
 10
9.4263628877
 20
9.2506667897
 30
0.0
 10
9.4235354133
 20
9.2509933051
 30
0.0
  0
SPLINE
  5
2AF
100
AcDbEntity
  8
0
100
AcDbSpline
 62
9
  6
CONTINUOUS
 70
0
 71
3
 72
48
 73
44
 74
0
 42
0.0000001
 43
0.0000001
 44
0.0000000001
 40
0.0
 40
0.0
 40
0.0
 40
0.0
 40
0.0078046567
 40
0.0117066278
 40
0.0156082059
 40
0.0195094524
 40
0.023411526
 40
0.0273154553
 40
0.0312213162
 40
0.0390362967
 40
0.0468505675
 40
0.0507563993
 40
0.0546612399
 40
0.0585655877
 40
0.0624705178
 40
0.0663766138
 40
0.0702836479
 40
0.0780979596
 40
0.0859108306
 40
0.0937234998
 40
0.0976297858
 40
0.1015360858
 40
0.109348846
 40
0.1171616942
 40
0.1249744482
 40
0.1405998724
 40
0.1562253322
 40
0.1718507951
 40
0.1874762487
 40
0.2031017051
 40
0.2187271628
 40
0.249978076
 40
0.2812289896
 40
0.3124799031
 40
0.3437308166
 40
0.3749817301
 40
0.437483557
 40
0.499985384
 40
0.5624872109
 40
0.6249890379
 40
0.7499926918
 40
0.8749963459
 40
1.0
 40
1.0
 40
1.0
 40
1.0
 10
9.4234209459
 20
8.7692710497
 30
0.0
 10
9.4241307544
 20
8.7693241146
 30
0.0
 10
9.4251932974
 20
8.7694310818
 30
0.0
 10
9.426608048
 20
8.7695880299
 30
0.0
 10
9.4276693485
 20
8.769702893
 30
0.0
 10
9.4287320365
 20
8.7698046741
 30
0.0
 10
9.4297968683
 20
8.7698839448
 30
0.0
 10
9.4308631747
 20
8.7699467555
 30
0.0
 10
9.4322865119
 20
8.7700156251
 30
0.0
 10
9.4340666622
 20
8.7700881572
 30
0.0
 10
9.4358460738
 20
8.7701769693
 30
0.0
 10
9.4372698285
 20
8.7702369129
 30
0.0
 10
9.4383377044
 20
8.7702716448
 30
0.0
 10
9.4394059198
 20
8.7702909105
 30
0.0
 10
9.4404744129
 20
8.7702908277
 30
0.0
 10
9.4415430466
 20
8.7702783486
 30
0.0
 10
9.4429680467
 20
8.7702530472
 30
0.0
 10
9.4447493786
 20
8.7702221132
 30
0.0
 10
9.4468871979
 20
8.7702294768
 30
0.0
 10
9.4486684026
 20
8.7702477257
 30
0.0
 10
9.4500934135
 20
8.7702566538
 30
0.0
 10
9.4515184563
 20
8.770258906
 30
0.0
 10
9.4532997743
 20
8.7702536899
 30
0.0
 10
9.4554373507
 20
8.770245249
 30
0.0
 10
9.4582874668
 20
8.7702437704
 30
0.0
 10
9.46185009
 20
8.7702490412
 30
0.0
 10
9.4661252419
 20
8.770247843
 30
0.0
 10
9.4704003947
 20
8.770246982
 30
0.0
 10
9.4746755478
 20
8.7702466565
 30
0.0
 10
9.4789507003
 20
8.7702465115
 30
0.0
 10
9.484650904
 20
8.7702461913
 30
0.0
 10
9.4917761586
 20
8.770245367
 30
0.0
 10
9.500326464
 20
8.7702446418
 30
0.0
 10
9.5088767695
 20
8.7702436711
 30
0.0
 10
9.5174270749
 20
8.7702426864
 30
0.0
 10
9.5288274821
 20
8.7702412722
 30
0.0
 10
9.5430779911
 20
8.77023938
 30
0.0
 10
9.560178602
 20
8.7702369891
 30
0.0
 10
9.5772792128
 20
8.7702345624
 30
0.0
 10
9.6000800272
 20
8.7702313915
 30
0.0
 10
9.6285810453
 20
8.7702277596
 30
0.0
 10
9.6627822671
 20
8.7702246057
 30
0.0
 10
9.6855830818
 20
8.7702237551
 30
0.0
 10
9.6969834891
 20
8.7702237551
 30
0.0
  0
SPLINE
  5
2B0
100
AcDbEntity
  8
0
100
AcDbSpline
 62
9
  6
CONTINUOUS
 70
0
 71
3
 72
30
 73
26
 74
0
 42
0.0000001
 43
0.0000001
 44
0.0000000001
 40
0.0
 40
0.0
 40
0.0
 40
0.0
 40
0.0508779819
 40
0.0768472985
 40
0.103171436
 40
0.1298549585
 40
0.1569156246
 40
0.1843681745
 40
0.212235237
 40
0.2405375716
 40
0.2692985374
 40
0.2985359734
 40
0.3282668743
 40
0.3584971312
 40
0.3892264543
 40
0.4204445553
 40
0.452134828
 40
0.5168142187
 40
0.5830686122
 40
0.6506404441
 40
0.7192690372
 40
0.7887139731
 40
0.8587656945
 40
0.9292447496
 40
1.0
 40
1.0
 40
1.0
 40
1.0
 10
9.2885508825
 20
8.6209830744
 30
0.0
 10
9.2884199583
 20
8.6247906144
 30
0.0
 10
9.2882596802
 20
8.6305438569
 30
0.0
 10
9.2882887901
 20
8.6382701561
 30
0.0
 10
9.2884767962
 20
8.644181987
 30
0.0
 10
9.288873021
 20
8.6501658796
 30
0.0
 10
9.2895202838
 20
8.6562132962
 30
0.0
 10
9.2904537791
 20
8.6623133183
 30
0.0
 10
9.2917080121
 20
8.6684509358
 30
0.0
 10
9.2933109562
 20
8.6746085492
 30
0.0
 10
9.2952880145
 20
8.6807646784
 30
0.0
 10
9.2976590282
 20
8.6868952676
 30
0.0
 10
9.3004402659
 20
8.6929724297
 30
0.0
 10
9.3036366912
 20
8.6989688438
 30
0.0
 10
9.3072477619
 20
8.7048560694
 30
0.0
 10
9.3112653443
 20
8.7106077567
 30
0.0
 10
9.3171874732
 20
8.7181105638
 30
0.0
 10
9.3255505404
 20
8.7270008911
 30
0.0
 10
9.3368807473
 20
8.7366650244
 30
0.0
 10
9.3494004605
 20
8.7452608493
 30
0.0
 10
9.3629199323
 20
8.7526836215
 30
0.0
 10
9.3772522787
 20
8.7588615914
 30
0.0
 10
9.3922205127
 20
8.7637451097
 30
0.0
 10
9.4076571038
 20
8.7673007424
 30
0.0
 10
9.4181468066
 20
8.7687664958
 30
0.0
 10
9.4234209459
 20
8.7692710497
 30
0.0
  0
SPLINE
  5
2B1
100
AcDbEntity
  8
0
100
AcDbSpline
 62
9
  6
CONTINUOUS
 70
0
 71
3
 72
23
 73
19
 74
0
 42
0.0000001
 43
0.0000001
 44
0.0000000001
 40
0.0
 40
0.0
 40
0.0
 40
0.0
 40
0.0137546527
 40
0.0277328391
 40
0.057143416
 40
0.0897324501
 40
0.1265497808
 40
0.1682917789
 40
0.2154035779
 40
0.2681483978
 40
0.3266734258
 40
0.3910374302
 40
0.4612402286
 40
0.5372311694
 40
0.6189204401
 40
0.7061952401
 40
0.7989223691
 40
1.0
 40
1.0
 40
1.0
 40
1.0
 10
9.3604543516
 20
9.943761618
 30
0.0
 10
9.3603095715
 20
9.9437340535
 30
0.0
 10
9.3600209571
 20
9.9436591738
 30
0.0
 10
9.3594516797
 20
9.9434298556
 30
0.0
 10
9.3587602982
 20
9.9429851385
 30
0.0
 10
9.3580032506
 20
9.9422368026
 30
0.0
 10
9.3573006039
 20
9.94127016
 30
0.0
 10
9.3566508367
 20
9.9400876463
 30
0.0
 10
9.3560535775
 20
9.9386908468
 30
0.0
 10
9.3555092347
 20
9.9370820299
 30
0.0
 10
9.3550188856
 20
9.9352640858
 30
0.0
 10
9.3545834801
 20
9.9332406739
 30
0.0
 10
9.3542041159
 20
9.9310160838
 30
0.0
 10
9.3538816877
 20
9.9285952385
 30
0.0
 10
9.3536169855
 20
9.9259835621
 30
0.0
 10
9.3534106892
 20
9.9231868279
 30
0.0
 10
9.3532088428
 20
9.9191082729
 30
0.0
 10
9.3531568507
 20
9.9159595087
 30
0.0
 10
9.3531568507
 20
9.9138049675
 30
0.0
  0
SPLINE
  5
2B2
100
AcDbEntity
  8
0
100
AcDbSpline
 62
9
  6
CONTINUOUS
 70
0
 71
3
 72
21
 73
17
 74
0
 42
0.0000001
 43
0.0000001
 44
0.0000000001
 40
0.0
 40
0.0
 40
0.0
 40
0.0
 40
0.1310209566
 40
0.2580808582
 40
0.3201891979
 40
0.3814514974
 40
0.4419984892
 40
0.5020221341
 40
0.5617668988
 40
0.6215338931
 40
0.6816647413
 40
0.7425320008
 40
0.8044944983
 40
0.8678837056
 40
0.9329771977
 40
1.0
 40
1.0
 40
1.0
 40
1.0
 10
9.2885508767
 20
9.3988004249
 30
0.0
 10
9.2884236327
 20
9.4025009377
 30
0.0
 10
9.2882083051
 20
9.4097915294
 30
0.0
 10
9.2883380566
 20
9.4188461381
 30
0.0
 10
9.2888669289
 20
9.4259059758
 30
0.0
 10
9.2895120171
 20
9.4310658865
 30
0.0
 10
9.2904440885
 20
9.4361226705
 30
0.0
 10
9.2916984824
 20
9.4410659103
 30
0.0
 10
9.2933037632
 20
9.4458841856
 30
0.0
 10
9.2952860981
 20
9.450564011
 30
0.0
 10
9.2976654747
 20
9.4550914721
 30
0.0
 10
9.3004577896
 20
9.4594507488
 30
0.0
 10
9.3036671815
 20
9.463629329
 30
0.0
 10
9.3072921189
 20
9.4676156125
 30
0.0
 10
9.3113233201
 20
9.4714014711
 30
0.0
 10
9.3142291494
 20
9.4737517997
 30
0.0
 10
9.3157412757
 20
9.4748924338
 30
0.0
  0
SPLINE
  5
2B3
100
AcDbEntity
  8
0
100
AcDbSpline
 62
9
  6
CONTINUOUS
 70
0
 71
3
 72
29
 73
25
 74
0
 42
0.0000001
 43
0.0000001
 44
0.0000000001
 40
0.0
 40
0.0
 40
0.0
 40
0.0
 40
0.0707724889
 40
0.1412459447
 40
0.211270871
 40
0.2806689066
 40
0.3492324769
 40
0.4167254175
 40
0.4828960353
 40
0.5474993385
 40
0.5791580866
 40
0.6103514114
 40
0.6410648632
 40
0.6712900081
 40
0.7010298321
 40
0.7302912425
 40
0.7590883148
 40
0.787437006
 40
0.8153556926
 40
0.8428625021
 40
0.8699752657
 40
0.896706556
 40
0.9490715019
 40
1.0
 40
1.0
 40
1.0
 40
1.0
 10
9.4235354133
 20
9.2509933051
 30
0.0
 10
9.4183317806
 20
9.2515933579
 30
0.0
 10
9.4079917258
 20
9.2532318011
 30
0.0
 10
9.3927959238
 20
9.2569975785
 30
0.0
 10
9.3780812724
 20
9.2620434782
 30
0.0
 10
9.3640093004
 20
9.2683375834
 30
0.0
 10
9.3507506391
 20
9.2758310084
 30
0.0
 10
9.3384837389
 20
9.2844514194
 30
0.0
 10
9.3273865471
 20
9.294093117
 30
0.0
 10
9.3191906541
 20
9.302924856
 30
0.0
 10
9.3133766895
 20
9.3103590394
 30
0.0
 10
9.3094249628
 20
9.3160507247
 30
0.0
 10
9.3058623229
 20
9.3218694751
 30
0.0
 10
9.3026937513
 20
9.3277900737
 30
0.0
 10
9.299913228
 20
9.3337840015
 30
0.0
 10
9.2975098642
 20
9.3398249776
 30
0.0
 10
9.295466728
 20
9.3458882199
 30
0.0
 10
9.2937633158
 20
9.351952007
 30
0.0
 10
9.2923742417
 20
9.3579970899
 30
0.0
 10
9.2912705916
 20
9.3640073373
 30
0.0
 10
9.2904185081
 20
9.3699692019
 30
0.0
 10
9.2895759548
 20
9.3777861127
 30
0.0
 10
9.2889491429
 20
9.387392851
 30
0.0
 10
9.2886813528
 20
9.3950332902
 30
0.0
 10
9.2885508767
 20
9.3988004249
 30
0.0
  0
SPLINE
  5
2B4
100
AcDbEntity
  8
0
100
AcDbSpline
 62
9
  6
CONTINUOUS
 70
0
 71
3
 72
22
 73
18
 74
0
 42
0.0000001
 43
0.0000001
 44
0.0000000001
 40
0.0
 40
0.0
 40
0.0
 40
0.0
 40
0.0661767955
 40
0.1306229132
 40
0.1935730808
 40
0.25530758
 40
0.3161529044
 40
0.3764392847
 40
0.4364841056
 40
0.4965769868
 40
0.5569666831
 40
0.6178599006
 40
0.6794157293
 40
0.7417483858
 40
0.8049424123
 40
0.8690374597
 40
1.0
 40
1.0
 40
1.0
 40
1.0
 10
9.3161800429
 20
8.546922325
 30
0.0
 10
9.3147703008
 20
8.5480592547
 30
0.0
 10
9.3120613767
 20
8.5503970536
 30
0.0
 10
9.3083080167
 20
8.5541421459
 30
0.0
 10
9.3049282774
 20
8.5580692833
 30
0.0
 10
9.3019260461
 20
8.5621705733
 30
0.0
 10
9.2992943019
 20
8.5664332688
 30
0.0
 10
9.297021998
 20
8.5708456322
 30
0.0
 10
9.2950925462
 20
8.5753954334
 30
0.0
 10
9.2934853075
 20
8.5800711569
 30
0.0
 10
9.292175659
 20
8.5848621987
 30
0.0
 10
9.2911350833
 20
8.5897590333
 30
0.0
 10
9.2903310935
 20
8.5947534565
 30
0.0
 10
9.2897294884
 20
8.5998391051
 30
0.0
 10
9.28928992
 20
8.6050105652
 30
0.0
 10
9.2888646821
 20
8.612065877
 30
0.0
 10
9.2886749417
 20
8.6174011473
 30
0.0
 10
9.2885508804
 20
8.6209830744
 30
0.0
  0
SPLINE
  5
2B5
100
AcDbEntity
  8
0
100
AcDbSpline
 62
7
  6
CONTINUOUS
 70
0
 71
3
 72
15
 73
11
 74
0
 42
0.0000001
 43
0.0000001
 44
0.0000000001
 40
0.0
 40
0.0
 40
0.0
 40
0.0
 40
0.1255248274
 40
0.2508103436
 40
0.3758981561
 40
0.5008320018
 40
0.6256592247
 40
0.7504296397
 40
0.8751932679
 40
1.0
 40
1.0
 40
1.0
 40
1.0
 10
8.8678955743
 20
8.7551366099
 30
0.0
 10
8.8623742753
 20
8.767109213
 30
0.0
 10
8.8521724687
 20
8.7914248023
 30
0.0
 10
8.8394737837
 20
8.828841629
 30
0.0
 10
8.8294495787
 20
8.866999932
 30
0.0
 10
8.8221470001
 20
8.9057218678
 30
0.0
 10
8.8175993264
 20
8.9448295986
 30
0.0
 10
8.8158276466
 20
8.9841436207
 30
0.0
 10
8.8168397663
 20
9.023480371
 30
0.0
 10
8.8193673385
 20
9.0495975784
 30
0.0
 10
8.821090007
 20
9.0625928552
 30
0.0
  0
SPLINE
  5
2B6
100
AcDbEntity
  8
0
100
AcDbSpline
 62
9
  6
CONTINUOUS
 70
0
 71
3
 72
23
 73
19
 74
0
 42
0.0000001
 43
0.0000001
 44
0.0000000001
 40
0.0
 40
0.0
 40
0.0
 40
0.0
 40
0.0137546526
 40
0.027732839
 40
0.0571434155
 40
0.089732449
 40
0.1265497791
 40
0.1682917765
 40
0.215403575
 40
0.2681483945
 40
0.3266734223
 40
0.3910374265
 40
0.461240225
 40
0.537231166
 40
0.6189204369
 40
0.7061952375
 40
0.7989223672
 40
1.0
 40
1.0
 40
1.0
 40
1.0
 10
9.6735126286
 20
9.9437616176
 30
0.0
 10
9.6736574087
 20
9.9437340531
 30
0.0
 10
9.6739460231
 20
9.9436591735
 30
0.0
 10
9.6745153004
 20
9.9434298553
 30
0.0
 10
9.6752066819
 20
9.9429851382
 30
0.0
 10
9.6759637294
 20
9.9422368023
 30
0.0
 10
9.6766663761
 20
9.9412701597
 30
0.0
 10
9.6773161432
 20
9.940087646
 30
0.0
 10
9.6779134023
 20
9.9386908465
 30
0.0
 10
9.6784577449
 20
9.9370820296
 30
0.0
 10
9.678948094
 20
9.9352640855
 30
0.0
 10
9.6793834993
 20
9.9332406736
 30
0.0
 10
9.6797628633
 20
9.9310160836
 30
0.0
 10
9.6800852914
 20
9.9285952383
 30
0.0
 10
9.6803499934
 20
9.9259835619
 30
0.0
 10
9.6805562895
 20
9.9231868278
 30
0.0
 10
9.6807581357
 20
9.9191082729
 30
0.0
 10
9.6808101277
 20
9.9159595086
 30
0.0
 10
9.6808101276
 20
9.9138049675
 30
0.0
  0
SPLINE
  5
2B7
100
AcDbEntity
  8
0
100
AcDbSpline
 62
9
  6
CONTINUOUS
 70
0
 71
3
 72
13
 73
9
 74
0
 42
0.0000001
 43
0.0000001
 44
0.0000000001
 40
0.0
 40
0.0
 40
0.0
 40
0.0
 40
0.248888716
 40
0.3743087166
 40
0.5
 40
0.6256912834
 40
0.751111284
 40
1.0
 40
1.0
 40
1.0
 40
1.0
 10
9.3531568507
 20
9.9138049675
 30
0.0
 10
9.3800098847
 20
9.9189185625
 30
0.0
 10
9.4207997911
 20
9.9246593555
 30
0.0
 10
9.4755942513
 20
9.9284896161
 30
0.0
 10
9.5169834891
 20
9.9294514676
 30
0.0
 10
9.558372727
 20
9.9284896161
 30
0.0
 10
9.6131671871
 20
9.9246593555
 30
0.0
 10
9.6539570935
 20
9.9189185625
 30
0.0
 10
9.6808101276
 20
9.9138049675
 30
0.0
  0
SPLINE
  5
2B8
100
AcDbEntity
  8
0
100
AcDbSpline
 62
9
  6
CONTINUOUS
 70
0
 71
3
 72
22
 73
18
 74
0
 42
0.0000001
 43
0.0000001
 44
0.0000000001
 40
0.0
 40
0.0
 40
0.0
 40
0.0
 40
0.1456391286
 40
0.2167823543
 40
0.2865391926
 40
0.3547545255
 40
0.4213076058
 40
0.486113624
 40
0.5491295148
 40
0.6103582124
 40
0.6698527192
 40
0.7277190964
 40
0.784117626
 40
0.8392625017
 40
0.8934155546
 40
0.9468844392
 40
1.0
 40
1.0
 40
1.0
 40
1.0
 10
9.6808101276
 20
9.9138049675
 30
0.0
 10
9.6889612439
 20
9.912252759
 30
0.0
 10
9.7009773199
 20
9.9092230889
 30
0.0
 10
9.7163635269
 20
9.90374213
 30
0.0
 10
9.7273099828
 20
9.8990150008
 30
0.0
 10
9.7376757911
 20
9.8936718404
 30
0.0
 10
9.7473929492
 20
9.887747491
 30
0.0
 10
9.7563965609
 20
9.8812807316
 30
0.0
 10
9.7646266048
 20
9.8743137884
 30
0.0
 10
9.7720278822
 20
9.8668921097
 30
0.0
 10
9.7785504243
 20
9.8590641456
 30
0.0
 10
9.784149677
 20
9.8508811365
 30
0.0
 10
9.7887868834
 20
9.8423969213
 30
0.0
 10
9.7924291422
 20
9.8336679829
 30
0.0
 10
9.7950503886
 20
9.8247525227
 30
0.0
 10
9.7966309203
 20
9.8157129226
 30
0.0
 10
9.7969834891
 20
9.8096346401
 30
0.0
 10
9.7969834891
 20
9.8066084527
 30
0.0
  0
SPLINE
  5
2B9
100
AcDbEntity
  8
0
100
AcDbSpline
 62
7
  6
CONTINUOUS
 70
0
 71
3
 72
24
 73
20
 74
0
 42
0.0000001
 43
0.0000001
 44
0.0000000001
 40
0.0
 40
0.0
 40
0.0
 40
0.0
 40
0.0603639938
 40
0.1204252275
 40
0.180423617
 40
0.2405517948
 40
0.300946387
 40
0.3312784147
 40
0.3617162185
 40
0.4229431284
 40
0.4846861458
 40
0.5469940643
 40
0.6098977786
 40
0.6734152845
 40
0.73755445
 40
0.8023047378
 40
0.8676501251
 40
0.9335628608
 40
1.0
 40
1.0
 40
1.0
 40
1.0
 10
9.7769665723
 20
9.3540356026
 30
0.0
 10
9.7751305658
 20
9.3521158441
 30
0.0
 10
9.7716005425
 20
9.3481574573
 30
0.0
 10
9.7666592114
 20
9.3419388807
 30
0.0
 10
9.7620038509
 20
9.3355175781
 30
0.0
 10
9.7575461276
 20
9.3289410907
 30
0.0
 10
9.753940086
 20
9.32336699
 30
0.0
 10
9.7510822697
 20
9.3188655614
 30
0.0
 10
9.7482183822
 20
9.3143246173
 30
0.0
 10
9.7446255319
 20
9.3086092183
 30
0.0
 10
9.7402429656
 20
9.3017337041
 30
0.0
 10
9.7357202981
 20
9.2948606554
 30
0.0
 10
9.7310077514
 20
9.2880208852
 30
0.0
 10
9.7260632274
 20
9.2812463158
 30
0.0
 10
9.7208518904
 20
9.2745708545
 30
0.0
 10
9.7153515586
 20
9.2680255522
 30
0.0
 10
9.7095468174
 20
9.2616422615
 30
0.0
 10
9.7034319375
 20
9.2554505592
 30
0.0
 10
9.6991664089
 20
9.2514818691
 30
0.0
 10
9.6969848689
 20
9.2495354438
 30
0.0
  0
SPLINE
  5
2BA
100
AcDbEntity
  8
0
100
AcDbSpline
 62
9
  6
CONTINUOUS
 70
0
 71
3
 72
21
 73
17
 74
0
 42
0.0000001
 43
0.0000001
 44
0.0000000001
 40
0.0
 40
0.0
 40
0.0
 40
0.0
 40
0.0500001082
 40
0.1032573561
 40
0.1594849243
 40
0.2183805661
 40
0.2796122825
 40
0.3428310382
 40
0.4076711508
 40
0.4737542692
 40
0.6080845114
 40
0.742665534
 40
0.8090608047
 40
0.8743325764
 40
0.9381052656
 40
1.0
 40
1.0
 40
1.0
 40
1.0
 10
9.4235354133
 20
9.3852808513
 30
0.0
 10
9.4240188431
 20
9.3830836797
 30
0.0
 10
9.4249247339
 20
9.3785255534
 30
0.0
 10
9.4260810191
 20
9.3714422257
 30
0.0
 10
9.4270721887
 20
9.3639300558
 30
0.0
 10
9.4278918851
 20
9.3560365939
 30
0.0
 10
9.4285347392
 20
9.3478112916
 30
0.0
 10
9.4289965851
 20
9.3393060545
 30
0.0
 10
9.4292744573
 20
9.3305744437
 30
0.0
 10
9.4293976771
 20
9.3186393904
 30
0.0
 10
9.4290820901
 20
9.3035653581
 30
0.0
 10
9.4281607079
 20
9.2885021691
 30
0.0
 10
9.4270589587
 20
9.276572515
 30
0.0
 10
9.4260643671
 20
9.2678345154
 30
0.0
 10
9.4249042503
 20
9.259321316
 30
0.0
 10
9.4240104145
 20
9.2537374155
 30
0.0
 10
9.4235354133
 20
9.2509933051
 30
0.0
  0
SPLINE
  5
2BB
100
AcDbEntity
  8
0
100
AcDbSpline
 62
9
  6
CONTINUOUS
 70
0
 71
3
 72
22
 73
18
 74
0
 42
0.0000001
 43
0.0000001
 44
0.0000000001
 40
0.0
 40
0.0
 40
0.0
 40
0.0
 40
0.1465831022
 40
0.2183784152
 40
0.2888315785
 40
0.3577305553
 40
0.4249017784
 40
0.4902116169
 40
0.5535743298
 40
0.6149582956
 40
0.6743920602
 40
0.7319694865
 40
0.7878530846
 40
0.8422744245
 40
0.8955303093
 40
0.9479745541
 40
1.0
 40
1.0
 40
1.0
 40
1.0
 10
9.3378494472
 20
9.7288988697
 30
0.0
 10
9.3321716419
 20
9.7281909496
 30
0.0
 10
9.3236343736
 20
9.7276511001
 30
0.0
 10
9.3123608604
 20
9.728037268
 30
0.0
 10
9.3041541404
 20
9.7288697027
 30
0.0
 10
9.296203312
 20
9.7302409744
 30
0.0
 10
9.2885680135
 20
9.7321409007
 30
0.0
 10
9.2813063052
 20
9.7345555529
 30
0.0
 10
9.2744732581
 20
9.7374671666
 30
0.0
 10
9.2681208708
 20
9.7408543877
 30
0.0
 10
9.2622977148
 20
9.7446924153
 30
0.0
 10
9.2570487052
 20
9.7489531026
 30
0.0
 10
9.2524148498
 20
9.7536050713
 30
0.0
 10
9.2484330412
 20
9.7586135657
 30
0.0
 10
9.2451354122
 20
9.7639409419
 30
0.0
 10
9.2425496165
 20
9.7695447591
 30
0.0
 10
9.2413120474
 20
9.7734436314
 30
0.0
 10
9.2408206946
 20
9.7754140692
 30
0.0
  0
SPLINE
  5
2BC
100
AcDbEntity
  8
0
100
AcDbSpline
 62
9
  6
CONTINUOUS
 70
0
 71
3
 72
25
 73
21
 74
0
 42
0.0000001
 43
0.0000001
 44
0.0000000001
 40
0.0
 40
0.0
 40
0.0
 40
0.0
 40
0.0805759875
 40
0.1599923677
 40
0.3134412508
 40
0.386652197
 40
0.456962804
 40
0.5240337035
 40
0.5876113101
 40
0.647547295
 40
0.7038470277
 40
0.7567979671
 40
0.8069778142
 40
0.8552147343
 40
0.8789442773
 40
0.9026063905
 40
0.9263671412
 40
0.9504015997
 40
0.9748872819
 40
1.0
 40
1.0
 40
1.0
 40
1.0
 10
9.4235354133
 20
9.3852808513
 30
0.0
 10
9.4206344359
 20
9.3850112361
 30
0.0
 10
9.414862932
 20
9.384585342
 30
0.0
 10
9.4035321667
 20
9.3842478278
 30
0.0
 10
9.392451553
 20
9.3847026176
 30
0.0
 10
9.3817886007
 20
9.3860058663
 30
0.0
 10
9.3742892853
 20
9.387351194
 30
0.0
 10
9.367222394
 20
9.3890619339
 30
0.0
 10
9.3606402655
 20
9.3911210184
 30
0.0
 10
9.3545874757
 20
9.393512713
 30
0.0
 10
9.3490959278
 20
9.3962265406
 30
0.0
 10
9.3441909128
 20
9.3992757122
 30
0.0
 10
9.3398933493
 20
9.402686546
 30
0.0
 10
9.3368160797
 20
9.4058768015
 30
0.0
 10
9.3347027376
 20
9.4086170757
 30
0.0
 10
9.3332879279
 20
9.4107689414
 30
0.0
 10
9.3320370002
 20
9.4130325844
 30
0.0
 10
9.3309512977
 20
9.4154127871
 30
0.0
 10
9.3300320875
 20
9.4179140273
 30
0.0
 10
9.3295379814
 20
9.4196398822
 30
0.0
 10
9.3293182702
 20
9.4205209299
 30
0.0
  0
SPLINE
  5
2BD
100
AcDbEntity
  8
0
100
AcDbSpline
 62
9
  6
CONTINUOUS
 70
0
 71
3
 72
21
 73
17
 74
0
 42
0.0000001
 43
0.0000001
 44
0.0000000001
 40
0.0
 40
0.0
 40
0.0
 40
0.0
 40
0.1479135623
 40
0.2198669238
 40
0.2901479535
 40
0.424887905
 40
0.4892651082
 40
0.5515793862
 40
0.6119002443
 40
0.6703758264
 40
0.7272346955
 40
0.7827829082
 40
0.8373955793
 40
0.8914964742
 40
0.9455482901
 40
1.0
 40
1.0
 40
1.0
 40
1.0
 10
9.379161079
 20
9.7748162545
 30
0.0
 10
9.3758141174
 20
9.7741788961
 30
0.0
 10
9.3708918875
 20
9.7728978618
 30
0.0
 10
9.3646407139
 20
9.7705191026
 30
0.0
 10
9.3588616513
 20
9.7678060654
 30
0.0
 10
9.3535607946
 20
9.7645129404
 30
0.0
 10
9.3489159823
 20
9.7606689241
 30
0.0
 10
9.3458682265
 20
9.7576144821
 30
0.0
 10
9.3432316575
 20
9.7543716731
 30
0.0
 10
9.3410293072
 20
9.7509673795
 30
0.0
 10
9.3392812139
 20
9.7474304062
 30
0.0
 10
9.3380036298
 20
9.7437910299
 30
0.0
 10
9.3372089166
 20
9.7400811241
 30
0.0
 10
9.3369047468
 20
9.7363333732
 30
0.0
 10
9.3370943424
 20
9.7325823644
 30
0.0
 10
9.3375459718
 20
9.7301158674
 30
0.0
 10
9.3378494472
 20
9.7288988697
 30
0.0
  0
SPLINE
  5
2BE
100
AcDbEntity
  8
0
100
AcDbSpline
 62
9
  6
CONTINUOUS
 70
0
 71
3
 72
23
 73
19
 74
0
 42
0.0000001
 43
0.0000001
 44
0.0000000001
 40
0.0
 40
0.0
 40
0.0
 40
0.0
 40
0.0526852403
 40
0.1093969882
 40
0.1696278545
 40
0.2328335525
 40
0.2984342099
 40
0.3658247385
 40
0.4343803877
 40
0.5034640829
 40
0.572433099
 40
0.6406459293
 40
0.7074691522
 40
0.7722841129
 40
0.8344942597
 40
0.8935307836
 40
0.9488629827
 40
1.0
 40
1.0
 40
1.0
 40
1.0
 10
9.379161079
 20
9.7748162545
 30
0.0
 10
9.3782735994
 20
9.7771464661
 30
0.0
 10
9.3765151849
 20
9.7820173377
 30
0.0
 10
9.3740048122
 20
9.789643821
 30
0.0
 10
9.3715417974
 20
9.7978072434
 30
0.0
 10
9.3691501211
 20
9.8064291224
 30
0.0
 10
9.3668530063
 20
9.8154267667
 30
0.0
 10
9.3646726964
 20
9.8247136591
 30
0.0
 10
9.3626302711
 20
9.8342005092
 30
0.0
 10
9.3607454335
 20
9.8437960548
 30
0.0
 10
9.3590363329
 20
9.8534079783
 30
0.0
 10
9.3575193828
 20
9.8629437975
 30
0.0
 10
9.3562091071
 20
9.8723117612
 30
0.0
 10
9.355117974
 20
9.8814217642
 30
0.0
 10
9.3542563041
 20
9.890186164
 30
0.0
 10
9.3536320575
 20
9.8985208283
 30
0.0
 10
9.3532509109
 20
9.9063455422
 30
0.0
 10
9.3531568506
 20
9.9113847492
 30
0.0
 10
9.3531568507
 20
9.9138049675
 30
0.0
  0
SPLINE
  5
2BF
100
AcDbEntity
  8
0
100
AcDbSpline
 62
9
  6
CONTINUOUS
 70
0
 71
3
 72
13
 73
9
 74
0
 42
0.0000001
 43
0.0000001
 44
0.0000000001
 40
0.0
 40
0.0
 40
0.0
 40
0.0
 40
0.2488885658
 40
0.3743086268
 40
0.5000000002
 40
0.6256913737
 40
0.7511114345
 40
1.0
 40
1.0
 40
1.0
 40
1.0
 10
9.6548058993
 20
9.7748162545
 30
0.0
 10
9.6322152652
 20
9.7791181651
 30
0.0
 10
9.5978999556
 20
9.7839477206
 30
0.0
 10
9.5518030289
 20
9.7871700059
 30
0.0
 10
9.5169834891
 20
9.7879791834
 30
0.0
 10
9.4821639493
 20
9.7871700059
 30
0.0
 10
9.4360670226
 20
9.7839477206
 30
0.0
 10
9.4017517131
 20
9.7791181651
 30
0.0
 10
9.379161079
 20
9.7748162545
 30
0.0
  0
SPLINE
  5
2C0
100
AcDbEntity
  8
0
100
AcDbSpline
 62
9
  6
CONTINUOUS
 70
0
 71
3
 72
23
 73
19
 74
0
 42
0.0000001
 43
0.0000001
 44
0.0000000001
 40
0.0
 40
0.0
 40
0.0
 40
0.0
 40
0.0526852401
 40
0.1093969877
 40
0.169627854
 40
0.232833552
 40
0.2984342094
 40
0.3658247382
 40
0.4343803876
 40
0.5034640829
 40
0.5724330992
 40
0.6406459296
 40
0.7074691527
 40
0.7722841134
 40
0.8344942602
 40
0.893530784
 40
0.948862983
 40
1.0
 40
1.0
 40
1.0
 40
1.0
 10
9.6548058993
 20
9.7748162545
 30
0.0
 10
9.6556933788
 20
9.7771464662
 30
0.0
 10
9.657451793
 20
9.7820173378
 30
0.0
 10
9.6599621653
 20
9.7896438212
 30
0.0
 10
9.6624251798
 20
9.7978072436
 30
0.0
 10
9.6648168559
 20
9.8064291226
 30
0.0
 10
9.6671139706
 20
9.815426767
 30
0.0
 10
9.6692942803
 20
9.8247136594
 30
0.0
 10
9.6713367056
 20
9.8342005095
 30
0.0
 10
9.6732215432
 20
9.8437960551
 30
0.0
 10
9.6749306438
 20
9.8534079786
 30
0.0
 10
9.676447594
 20
9.8629437977
 30
0.0
 10
9.6777578698
 20
9.8723117615
 30
0.0
 10
9.6788490032
 20
9.8814217644
 30
0.0
 10
9.6797106732
 20
9.8901861642
 30
0.0
 10
9.6803349202
 20
9.8985208285
 30
0.0
 10
9.6807160671
 20
9.9063455423
 30
0.0
 10
9.6808101276
 20
9.9113847492
 30
0.0
 10
9.6808101276
 20
9.9138049675
 30
0.0
  0
SPLINE
  5
2C1
100
AcDbEntity
  8
0
100
AcDbSpline
 62
9
  6
CONTINUOUS
 70
0
 71
3
 72
18
 73
14
 74
0
 42
0.0000001
 43
0.0000001
 44
0.0000000001
 40
0.0
 40
0.0
 40
0.0
 40
0.0
 40
0.0531317126
 40
0.1066261587
 40
0.1607985834
 40
0.2159646001
 40
0.2723854261
 40
0.3302739026
 40
0.4509233251
 40
0.5786930015
 40
0.7134273765
 40
0.8543037871
 40
1.0
 40
1.0
 40
1.0
 40
1.0
 10
9.6969834891
 20
9.7358977746
 30
0.0
 10
9.6969834891
 20
9.7369963656
 30
0.0
 10
9.6968554125
 20
9.7392031386
 30
0.0
 10
9.6962817079
 20
9.7424850321
 30
0.0
 10
9.6953300071
 20
9.7457219332
 30
0.0
 10
9.6940076712
 20
9.74889098
 30
0.0
 10
9.6923239884
 20
9.7519713573
 30
0.0
 10
9.6895768393
 20
9.7559865211
 30
0.0
 10
9.6852630414
 20
9.7606750317
 30
0.0
 10
9.6789728382
 20
9.7655435375
 30
0.0
 10
9.6716628546
 20
9.7696192831
 30
0.0
 10
9.6635276591
 20
9.7727998178
 30
0.0
 10
9.6577652433
 20
9.7742527097
 30
0.0
 10
9.6548058993
 20
9.7748162545
 30
0.0
  0
SPLINE
  5
2C2
100
AcDbEntity
  8
0
100
AcDbSpline
 62
9
  6
CONTINUOUS
 70
0
 71
3
 72
22
 73
18
 74
0
 42
0.0000001
 43
0.0000001
 44
0.0000000001
 40
0.0
 40
0.0
 40
0.0
 40
0.0
 40
0.1448636662
 40
0.2164759575
 40
0.2870772428
 40
0.3563691936
 40
0.4240895971
 40
0.4900197288
 40
0.5539945653
 40
0.6159122513
 40
0.6757436474
 40
0.7335409837
 40
0.7894443977
 40
0.8436853876
 40
0.8965829423
 40
0.9485363315
 40
1.0
 40
1.0
 40
1.0
 40
1.0
 10
9.6969834891
 20
9.7358977746
 30
0.0
 10
9.7035022682
 20
9.7358977748
 30
0.0
 10
9.7132623921
 20
9.7365706
 30
0.0
 10
9.725991088
 20
9.7388197317
 30
0.0
 10
9.7352283563
 20
9.741150762
 30
0.0
 10
9.7440992555
 20
9.7441097049
 30
0.0
 10
9.7525200722
 20
9.7476687261
 30
0.0
 10
9.7604100721
 20
9.7517943393
 30
0.0
 10
9.7676938478
 20
9.7564478667
 30
0.0
 10
9.7743015008
 20
9.7615858344
 30
0.0
 10
9.7801692763
 20
9.7671603618
 30
0.0
 10
9.7852399269
 20
9.7731195143
 30
0.0
 10
9.7894631509
 20
9.7794075926
 30
0.0
 10
9.7927958615
 20
9.7859650763
 30
0.0
 10
9.7952030779
 20
9.792729462
 30
0.0
 10
9.7966583154
 20
9.7996325585
 30
0.0
 10
9.7969834891
 20
9.8042926181
 30
0.0
 10
9.7969834891
 20
9.8066084527
 30
0.0
  0
SPLINE
  5
2C3
100
AcDbEntity
  8
0
100
AcDbSpline
 62
9
  6
CONTINUOUS
 70
0
 71
3
 72
33
 73
29
 74
0
 42
0.0000001
 43
0.0000001
 44
0.0000000001
 40
0.0
 40
0.0
 40
0.0
 40
0.0
 40
0.0868036694
 40
0.1320009373
 40
0.1785507611
 40
0.2267219844
 40
0.2515401867
 40
0.2769121003
 40
0.3028938276
 40
0.3295548168
 40
0.356974118
 40
0.3852393255
 40
0.4144441043
 40
0.4446866405
 40
0.4760530397
 40
0.5086123716
 40
0.5775822112
 40
0.6141564928
 40
0.65219255
 40
0.6917052582
 40
0.7326053428
 40
0.77479031
 40
0.796348557
 40
0.8182036667
 40
0.8626865647
 40
0.9079907869
 40
0.9538615756
 40
1.0
 40
1.0
 40
1.0
 40
1.0
 10
9.7769641862
 20
9.3540328399
 30
0.0
 10
9.7753731752
 20
9.3560958229
 30
0.0
 10
9.7728585822
 20
9.3591628813
 30
0.0
 10
9.76920832
 20
9.3630886148
 30
0.0
 10
9.7661817321
 20
9.3660036257
 30
0.0
 10
9.7634362172
 20
9.3683174532
 30
0.0
 10
9.7610931728
 20
9.3701138399
 30
0.0
 10
9.759238288
 20
9.3714507918
 30
0.0
 10
9.757297967
 20
9.3727620229
 30
0.0
 10
9.7552625688
 20
9.3740400687
 30
0.0
 10
9.7531231775
 20
9.3752785084
 30
0.0
 10
9.7508711364
 20
9.3764712235
 30
0.0
 10
9.7484989777
 20
9.3776141851
 30
0.0
 10
9.7459992284
 20
9.3787021251
 30
0.0
 10
9.7433670981
 20
9.3797332502
 30
0.0
 10
9.7396050219
 20
9.3810599222
 30
0.0
 10
9.7356293798
 20
9.3822445343
 30
0.0
 10
9.7314446678
 20
9.3832753323
 30
0.0
 10
9.7280932486
 20
9.3839855469
 30
0.0
 10
9.7245927324
 20
9.3846084736
 30
0.0
 10
9.7209544297
 20
9.3851596205
 30
0.0
 10
9.7178391501
 20
9.3855606956
 30
0.0
 10
9.7152848863
 20
9.3858367164
 30
0.0
 10
9.7126583054
 20
9.3860829302
 30
0.0
 10
9.7093162839
 20
9.3863292618
 30
0.0
 10
9.7052495731
 20
9.386533118
 30
0.0
 10
9.701129782
 20
9.3866503768
 30
0.0
 10
9.6983682362
 20
9.3866744658
 30
0.0
 10
9.6969834891
 20
9.3866741426
 30
0.0
  0
SPLINE
  5
2C4
100
AcDbEntity
  8
0
100
AcDbSpline
 62
7
  6
CONTINUOUS
 70
0
 71
3
 72
9
 73
5
 74
0
 42
0.0000001
 43
0.0000001
 44
0.0000000001
 40
0.0
 40
0.0
 40
0.0
 40
0.0
 40
0.4919777736
 40
1.0
 40
1.0
 40
1.0
 40
1.0
 10
9.7869834891
 20
9.3667551735
 30
0.0
 10
9.7855589697
 20
9.3645100365
 30
0.0
 10
9.782419437
 20
9.3600978401
 30
0.0
 10
9.7788618819
 20
9.3560171017
 30
0.0
 10
9.7769641862
 20
9.3540328399
 30
0.0
  0
SPLINE
  5
2C5
100
AcDbEntity
  8
0
100
AcDbSpline
 62
7
  6
CONTINUOUS
 70
0
 71
3
 72
15
 73
11
 74
0
 42
0.0000001
 43
0.0000001
 44
0.0000000001
 40
0.0
 40
0.0
 40
0.0
 40
0.0
 40
0.0986151495
 40
0.201036069
 40
0.3092096438
 40
0.4250304961
 40
0.5503103214
 40
0.6867804215
 40
0.8361384339
 40
1.0
 40
1.0
 40
1.0
 40
1.0
 10
9.7969834891
 20
9.3917294659
 30
0.0
 10
9.7969834891
 20
9.3908332381
 30
0.0
 10
9.7968776862
 20
9.3890047212
 30
0.0
 10
9.7964101077
 20
9.3862288608
 30
0.0
 10
9.7956287584
 20
9.3833625678
 30
0.0
 10
9.7945296039
 20
9.3803810996
 30
0.0
 10
9.793108619
 20
9.3772549813
 30
0.0
 10
9.7913627905
 20
9.3739498658
 30
0.0
 10
9.7892936057
 20
9.3704245016
 30
0.0
 10
9.7877813253
 20
9.3680126162
 30
0.0
 10
9.7869834891
 20
9.3667551735
 30
0.0
  0
SPLINE
  5
2C6
100
AcDbEntity
  8
0
100
AcDbSpline
 62
9
  6
CONTINUOUS
 70
0
 71
3
 72
30
 73
26
 74
0
 42
0.0000001
 43
0.0000001
 44
0.0000000001
 40
0.0
 40
0.0
 40
0.0
 40
0.0
 40
0.1250206104
 40
0.2500412209
 40
0.3750618313
 40
0.4375721366
 40
0.5000824418
 40
0.562592747
 40
0.6251030522
 40
0.6876133574
 40
0.71886851
 40
0.750123663
 40
0.7813788144
 40
0.7970063907
 40
0.8126339714
 40
0.8282615512
 40
0.8438891195
 40
0.8595166914
 40
0.8751442713
 40
0.8907718028
 40
0.9063989429
 40
0.9376464751
 40
0.9688630074
 40
0.9844461894
 40
1.0
 40
1.0
 40
1.0
 40
1.0
 10
9.6969834891
 20
9.3866741426
 30
0.0
 10
9.685586058
 20
9.3866741426
 30
0.0
 10
9.6627911957
 20
9.3866741424
 30
0.0
 10
9.6285989023
 20
9.3866741434
 30
0.0
 10
9.6001053245
 20
9.3866741409
 30
0.0
 10
9.5773104622
 20
9.3866741466
 30
0.0
 10
9.5602143155
 20
9.3866741265
 30
0.0
 10
9.5431181688
 20
9.3866741914
 30
0.0
 10
9.5260220221
 20
9.3866740231
 30
0.0
 10
9.5117752332
 20
9.3866743347
 30
0.0
 10
9.500377802
 20
9.386673943
 30
0.0
 10
9.4918297287
 20
9.3866737559
 30
0.0
 10
9.4847063345
 20
9.3866750933
 30
0.0
 10
9.4790076185
 20
9.3866753638
 30
0.0
 10
9.4747335815
 20
9.3866731648
 30
0.0
 10
9.4704595459
 20
9.3866700807
 30
0.0
 10
9.4661855088
 20
9.3866715951
 30
0.0
 10
9.4619114791
 20
9.3866790505
 30
0.0
 10
9.4576374442
 20
9.3866806333
 30
0.0
 10
9.4533634545
 20
9.3866664141
 30
0.0
 10
9.4476656822
 20
9.3866175247
 30
0.0
 10
9.4405474158
 20
9.3864791489
 30
0.0
 10
9.433438787
 20
9.3861416898
 30
0.0
 10
9.4277703127
 20
9.3857119057
 30
0.0
 10
9.4249448151
 20
9.3854363516
 30
0.0
 10
9.4235354133
 20
9.3852808513
 30
0.0
  0
SPLINE
  5
2C7
100
AcDbEntity
  8
0
100
AcDbSpline
 62
9
  6
CONTINUOUS
 70
0
 71
3
 72
22
 73
18
 74
0
 42
0.0000001
 43
0.0000001
 44
0.0000000001
 40
0.0
 40
0.0
 40
0.0
 40
0.0
 40
0.1465831034
 40
0.218378417
 40
0.2888315809
 40
0.3577305584
 40
0.4249017821
 40
0.4902116211
 40
0.5535743344
 40
0.6149583004
 40
0.674392065
 40
0.7319694911
 40
0.7878530887
 40
0.8422744279
 40
0.8955303118
 40
0.9479745555
 40
1.0
 40
1.0
 40
1.0
 40
1.0
 10
9.3378494472
 20
8.2908847384
 30
0.0
 10
9.3321716419
 20
8.2915926583
 30
0.0
 10
9.3236343735
 20
8.2921325076
 30
0.0
 10
9.3123608603
 20
8.2917463394
 30
0.0
 10
9.3041541402
 20
8.2909139046
 30
0.0
 10
9.2962033118
 20
8.2895426328
 30
0.0
 10
9.2885680133
 20
8.2876427064
 30
0.0
 10
9.281306305
 20
8.2852280541
 30
0.0
 10
9.2744732578
 20
8.2823164404
 30
0.0
 10
9.2681208705
 20
8.2789292193
 30
0.0
 10
9.2622977145
 20
8.2750911917
 30
0.0
 10
9.257048705
 20
8.2708305044
 30
0.0
 10
9.2524148496
 20
8.2661785358
 30
0.0
 10
9.248433041
 20
8.2611700416
 30
0.0
 10
9.245135412
 20
8.2558426655
 30
0.0
 10
9.2425496164
 20
8.2502388484
 30
0.0
 10
9.2413120473
 20
8.2463399763
 30
0.0
 10
9.2408206945
 20
8.2443695385
 30
0.0
  0
SPLINE
  5
2C8
100
AcDbEntity
  8
0
100
AcDbSpline
 62
9
  6
CONTINUOUS
 70
0
 71
3
 72
21
 73
17
 74
0
 42
0.0000001
 43
0.0000001
 44
0.0000000001
 40
0.0
 40
0.0
 40
0.0
 40
0.0
 40
0.0544517099
 40
0.1085035258
 40
0.1626044207
 40
0.2172170918
 40
0.2727653045
 40
0.3296241736
 40
0.3880997557
 40
0.4484206138
 40
0.5107348918
 40
0.575112095
 40
0.7098520465
 40
0.7801330762
 40
0.8520864377
 40
1.0
 40
1.0
 40
1.0
 40
1.0
 10
9.3378494472
 20
8.2908847384
 30
0.0
 10
9.3375459718
 20
8.2896677407
 30
0.0
 10
9.3370943424
 20
8.2872012437
 30
0.0
 10
9.3369047468
 20
8.2834502349
 30
0.0
 10
9.3372089166
 20
8.279702484
 30
0.0
 10
9.3380036298
 20
8.2759925781
 30
0.0
 10
9.3392812139
 20
8.2723532019
 30
0.0
 10
9.3410293072
 20
8.2688162286
 30
0.0
 10
9.3432316575
 20
8.265411935
 30
0.0
 10
9.3458682265
 20
8.262169126
 30
0.0
 10
9.3489159823
 20
8.259114684
 30
0.0
 10
9.3535607946
 20
8.2552706677
 30
0.0
 10
9.3588616513
 20
8.2519775427
 30
0.0
 10
9.3646407139
 20
8.2492645055
 30
0.0
 10
9.3708918875
 20
8.2468857463
 30
0.0
 10
9.3758141174
 20
8.245604712
 30
0.0
 10
9.379161079
 20
8.2449673536
 30
0.0
  0
SPLINE
  5
2C9
100
AcDbEntity
  8
0
100
AcDbSpline
 62
9
  6
CONTINUOUS
 70
0
 71
3
 72
23
 73
19
 74
0
 42
0.0000001
 43
0.0000001
 44
0.0000000001
 40
0.0
 40
0.0
 40
0.0
 40
0.0
 40
0.0526852401
 40
0.1093969877
 40
0.169627854
 40
0.232833552
 40
0.2984342094
 40
0.3658247382
 40
0.4343803876
 40
0.5034640829
 40
0.5724330992
 40
0.6406459297
 40
0.7074691527
 40
0.7722841134
 40
0.8344942602
 40
0.893530784
 40
0.948862983
 40
1.0
 40
1.0
 40
1.0
 40
1.0
 10
9.379161079
 20
8.2449673536
 30
0.0
 10
9.3782735995
 20
8.2426371419
 30
0.0
 10
9.3765151852
 20
8.2377662703
 30
0.0
 10
9.3740048129
 20
8.2301397869
 30
0.0
 10
9.3715417984
 20
8.2219763645
 30
0.0
 10
9.3691501224
 20
8.2133544855
 30
0.0
 10
9.3668530077
 20
8.2043568411
 30
0.0
 10
9.364672698
 20
8.1950699487
 30
0.0
 10
9.3626302727
 20
8.1855830986
 30
0.0
 10
9.3607454351
 20
8.1759875529
 30
0.0
 10
9.3590363345
 20
8.1663756295
 30
0.0
 10
9.3575193843
 20
8.1568398103
 30
0.0
 10
9.3562091084
 20
8.1474718466
 30
0.0
 10
9.3551179751
 20
8.1383618437
 30
0.0
 10
9.354256305
 20
8.1295974439
 30
0.0
 10
9.3536320581
 20
8.1212627796
 30
0.0
 10
9.3532509112
 20
8.1134380658
 30
0.0
 10
9.3531568507
 20
8.1083988589
 30
0.0
 10
9.3531568507
 20
8.1059786406
 30
0.0
  0
SPLINE
  5
2CA
100
AcDbEntity
  8
0
100
AcDbSpline
 62
9
  6
CONTINUOUS
 70
0
 71
3
 72
13
 73
9
 74
0
 42
0.0000001
 43
0.0000001
 44
0.0000000001
 40
0.0
 40
0.0
 40
0.0
 40
0.0
 40
0.248888716
 40
0.3743087166
 40
0.5
 40
0.6256912834
 40
0.751111284
 40
1.0
 40
1.0
 40
1.0
 40
1.0
 10
9.3531568507
 20
8.1059786406
 30
0.0
 10
9.3800098847
 20
8.1008650456
 30
0.0
 10
9.4207997911
 20
8.0951242526
 30
0.0
 10
9.4755942513
 20
8.091293992
 30
0.0
 10
9.5169834891
 20
8.0903321405
 30
0.0
 10
9.558372727
 20
8.091293992
 30
0.0
 10
9.6131671871
 20
8.0951242526
 30
0.0
 10
9.6539570935
 20
8.1008650456
 30
0.0
 10
9.6808101276
 20
8.1059786406
 30
0.0
  0
SPLINE
  5
2CB
100
AcDbEntity
  8
0
100
AcDbSpline
 62
9
  6
CONTINUOUS
 70
0
 71
3
 72
13
 73
9
 74
0
 42
0.0000001
 43
0.0000001
 44
0.0000000001
 40
0.0
 40
0.0
 40
0.0
 40
0.0
 40
0.2488885655
 40
0.3743086263
 40
0.4999999998
 40
0.6256913732
 40
0.7511114342
 40
1.0
 40
1.0
 40
1.0
 40
1.0
 10
9.379161079
 20
8.2449673536
 30
0.0
 10
9.4017517131
 20
8.240665443
 30
0.0
 10
9.4360670226
 20
8.2358358875
 30
0.0
 10
9.4821639493
 20
8.2326136022
 30
0.0
 10
9.5169834891
 20
8.2318044247
 30
0.0
 10
9.5518030289
 20
8.2326136022
 30
0.0
 10
9.5978999556
 20
8.2358358875
 30
0.0
 10
9.6322152652
 20
8.240665443
 30
0.0
 10
9.6548058993
 20
8.2449673536
 30
0.0
  0
SPLINE
  5
2CC
100
AcDbEntity
  8
0
100
AcDbSpline
 62
9
  6
CONTINUOUS
 70
0
 71
3
 72
23
 73
19
 74
0
 42
0.0000001
 43
0.0000001
 44
0.0000000001
 40
0.0
 40
0.0
 40
0.0
 40
0.0
 40
0.0526852404
 40
0.1093969883
 40
0.1696278546
 40
0.2328335526
 40
0.2984342099
 40
0.3658247386
 40
0.4343803878
 40
0.5034640829
 40
0.5724330989
 40
0.6406459293
 40
0.7074691521
 40
0.7722841128
 40
0.8344942596
 40
0.8935307835
 40
0.9488629826
 40
1.0
 40
1.0
 40
1.0
 40
1.0
 10
9.6548058993
 20
8.2449673536
 30
0.0
 10
9.6556933789
 20
8.242637142
 30
0.0
 10
9.6574517935
 20
8.2377662704
 30
0.0
 10
9.6599621662
 20
8.2301397871
 30
0.0
 10
9.662425181
 20
8.2219763648
 30
0.0
 10
9.6648168573
 20
8.2133544857
 30
0.0
 10
9.6671139722
 20
8.2043568414
 30
0.0
 10
9.6692942821
 20
8.195069949
 30
0.0
 10
9.6713367074
 20
8.185583099
 30
0.0
 10
9.673221545
 20
8.1759875533
 30
0.0
 10
9.6749306456
 20
8.1663756298
 30
0.0
 10
9.6764475957
 20
8.1568398107
 30
0.0
 10
9.6777578714
 20
8.1474718469
 30
0.0
 10
9.6788490044
 20
8.138361844
 30
0.0
 10
9.6797106743
 20
8.1295974441
 30
0.0
 10
9.6803349209
 20
8.1212627798
 30
0.0
 10
9.6807160674
 20
8.1134380659
 30
0.0
 10
9.6808101277
 20
8.1083988589
 30
0.0
 10
9.6808101276
 20
8.1059786406
 30
0.0
  0
SPLINE
  5
2CD
100
AcDbEntity
  8
0
100
AcDbSpline
 62
9
  6
CONTINUOUS
 70
0
 71
3
 72
22
 73
18
 74
0
 42
0.0000001
 43
0.0000001
 44
0.0000000001
 40
0.0
 40
0.0
 40
0.0
 40
0.0
 40
0.1456391286
 40
0.2167823543
 40
0.2865391926
 40
0.3547545255
 40
0.4213076058
 40
0.486113624
 40
0.5491295148
 40
0.6103582124
 40
0.6698527192
 40
0.7277190964
 40
0.784117626
 40
0.8392625017
 40
0.8934155546
 40
0.9468844392
 40
1.0
 40
1.0
 40
1.0
 40
1.0
 10
9.6808101276
 20
8.1059786406
 30
0.0
 10
9.6889612439
 20
8.107530849
 30
0.0
 10
9.7009773199
 20
8.1105605192
 30
0.0
 10
9.7163635269
 20
8.1160414781
 30
0.0
 10
9.7273099828
 20
8.1207686073
 30
0.0
 10
9.7376757911
 20
8.1261117677
 30
0.0
 10
9.7473929492
 20
8.1320361171
 30
0.0
 10
9.7563965609
 20
8.1385028765
 30
0.0
 10
9.7646266048
 20
8.1454698197
 30
0.0
 10
9.7720278823
 20
8.1528914984
 30
0.0
 10
9.7785504243
 20
8.1607194625
 30
0.0
 10
9.784149677
 20
8.1689024716
 30
0.0
 10
9.7887868834
 20
8.1773866868
 30
0.0
 10
9.7924291422
 20
8.1861156252
 30
0.0
 10
9.7950503886
 20
8.1950310854
 30
0.0
 10
9.7966309203
 20
8.2040706855
 30
0.0
 10
9.7969834891
 20
8.210148968
 30
0.0
 10
9.7969834891
 20
8.2131751554
 30
0.0
  0
SPLINE
  5
2CE
100
AcDbEntity
  8
0
100
AcDbSpline
 62
9
  6
CONTINUOUS
 70
0
 71
3
 72
18
 73
14
 74
0
 42
0.0000001
 43
0.0000001
 44
0.0000000001
 40
0.0
 40
0.0
 40
0.0
 40
0.0
 40
0.1456962129
 40
0.2865726235
 40
0.4213069985
 40
0.5490766749
 40
0.6697260974
 40
0.7276145739
 40
0.7840353999
 40
0.8392014166
 40
0.8933738413
 40
0.9468682874
 40
1.0
 40
1.0
 40
1.0
 40
1.0
 10
9.6548058993
 20
8.2449673536
 30
0.0
 10
9.6577652433
 20
8.2455308984
 30
0.0
 10
9.6635276591
 20
8.2469837903
 30
0.0
 10
9.6716628546
 20
8.250164325
 30
0.0
 10
9.6789728382
 20
8.2542400706
 30
0.0
 10
9.6852630414
 20
8.2591085764
 30
0.0
 10
9.6895768393
 20
8.263797087
 30
0.0
 10
9.6923239884
 20
8.2678122507
 30
0.0
 10
9.6940076712
 20
8.2708926281
 30
0.0
 10
9.6953300071
 20
8.2740616749
 30
0.0
 10
9.6962817079
 20
8.277298576
 30
0.0
 10
9.6968554125
 20
8.2805804695
 30
0.0
 10
9.6969834891
 20
8.2827872425
 30
0.0
 10
9.6969834891
 20
8.2838858335
 30
0.0
  0
SPLINE
  5
2CF
100
AcDbEntity
  8
0
100
AcDbSpline
 62
7
  6
CONTINUOUS
 70
0
 71
3
 72
9
 73
5
 74
0
 42
0.0000001
 43
0.0000001
 44
0.0000000001
 40
0.0
 40
0.0
 40
0.0
 40
0.0
 40
0.5083766679
 40
1.0
 40
1.0
 40
1.0
 40
1.0
 10
9.7764138701
 20
8.6663211054
 30
0.0
 10
9.7784239615
 20
8.6642562267
 30
0.0
 10
9.7821853318
 20
8.6600015781
 30
0.0
 10
9.7854904974
 20
8.6553814885
 30
0.0
 10
9.7869834891
 20
8.6530284346
 30
0.0
  0
LINE
  5
2D0
100
AcDbEntity
  8
0
100
AcDbLine
 62
9
  6
CONTINUOUS
 10
9.7757608197
 20
8.6655708318
 11
9.7764138701
 21
8.6663211054
  0
SPLINE
  5
2D1
100
AcDbEntity
  8
0
100
AcDbSpline
 62
9
  6
CONTINUOUS
 70
0
 71
3
 72
20
 73
16
 74
0
 42
0.0000001
 43
0.0000001
 44
0.0000000001
 40
0.0
 40
0.0
 40
0.0
 40
0.0
 40
0.1803371771
 40
0.3440205165
 40
0.4178108757
 40
0.4864835798
 40
0.5505460709
 40
0.6105816216
 40
0.6671657085
 40
0.7208048166
 40
0.7719307022
 40
0.8208933911
 40
0.8679791594
 40
0.9134150203
 40
1.0
 40
1.0
 40
1.0
 40
1.0
 10
9.6969834891
 20
8.6331328246
 30
0.0
 10
9.702269531
 20
8.6331327663
 30
0.0
 10
9.7123640353
 20
8.6337004366
 30
0.0
 10
9.7244571175
 20
8.6358185082
 30
0.0
 10
9.7331224496
 20
8.6381687235
 30
0.0
 10
9.7388650228
 20
8.6400959022
 30
0.0
 10
9.7441079967
 20
8.6422118602
 30
0.0
 10
9.7488955138
 20
8.6444836571
 30
0.0
 10
9.7532761586
 20
8.6468800515
 30
0.0
 10
9.7572954424
 20
8.6493770176
 30
0.0
 10
9.7609945798
 20
8.6519535938
 30
0.0
 10
9.7644089521
 20
8.6545930007
 30
0.0
 10
9.7675697904
 20
8.6572801643
 30
0.0
 10
9.7714154901
 20
8.6608558272
 30
0.0
 10
9.774084666
 20
8.6636650926
 30
0.0
 10
9.7757608197
 20
8.6655708318
 30
0.0
  0
SPLINE
  5
2D2
100
AcDbEntity
  8
0
100
AcDbSpline
 62
9
  6
CONTINUOUS
 70
0
 71
3
 72
22
 73
18
 74
0
 42
0.0000001
 43
0.0000001
 44
0.0000000001
 40
0.0
 40
0.0
 40
0.0
 40
0.0
 40
0.1448636649
 40
0.2164759555
 40
0.2870772399
 40
0.3563691899
 40
0.4240895926
 40
0.4900197237
 40
0.5539945598
 40
0.6159122455
 40
0.6757436416
 40
0.7335409782
 40
0.7894443927
 40
0.8436853835
 40
0.8965829393
 40
0.94853633
 40
1.0
 40
1.0
 40
1.0
 40
1.0
 10
9.6969834891
 20
8.2838858335
 30
0.0
 10
9.7035022682
 20
8.2838858335
 30
0.0
 10
9.7132623921
 20
8.2832130086
 30
0.0
 10
9.725991088
 20
8.2809638772
 30
0.0
 10
9.7352283563
 20
8.2786328471
 30
0.0
 10
9.7440992555
 20
8.2756739043
 30
0.0
 10
9.7525200722
 20
8.2721148833
 30
0.0
 10
9.7604100721
 20
8.26798927
 30
0.0
 10
9.7676938478
 20
8.2633357427
 30
0.0
 10
9.7743015009
 20
8.258197775
 30
0.0
 10
9.7801692763
 20
8.2526232474
 30
0.0
 10
9.7852399269
 20
8.2466640949
 30
0.0
 10
9.7894631509
 20
8.2403760164
 30
0.0
 10
9.7927958615
 20
8.2338185325
 30
0.0
 10
9.7952030779
 20
8.2270541466
 30
0.0
 10
9.7966583154
 20
8.2201510499
 30
0.0
 10
9.7969834891
 20
8.2154909901
 30
0.0
 10
9.7969834891
 20
8.2131751554
 30
0.0
  0
SPLINE
  5
2D3
100
AcDbEntity
  8
0
100
AcDbSpline
 62
7
  6
CONTINUOUS
 70
0
 71
3
 72
15
 73
11
 74
0
 42
0.0000001
 43
0.0000001
 44
0.0000000001
 40
0.0
 40
0.0
 40
0.0
 40
0.0
 40
0.1638615661
 40
0.3132195786
 40
0.4496896786
 40
0.5749695039
 40
0.6907903562
 40
0.798963931
 40
0.9013848505
 40
1.0
 40
1.0
 40
1.0
 40
1.0
 10
9.7869834891
 20
8.6530284346
 30
0.0
 10
9.7877813253
 20
8.6517709919
 30
0.0
 10
9.7892936057
 20
8.6493591065
 30
0.0
 10
9.7913627905
 20
8.6458337423
 30
0.0
 10
9.793108619
 20
8.6425286268
 30
0.0
 10
9.7945296039
 20
8.6394025085
 30
0.0
 10
9.7956287584
 20
8.6364210403
 30
0.0
 10
9.7964101077
 20
8.6335547473
 30
0.0
 10
9.7968776862
 20
8.6307788869
 30
0.0
 10
9.7969834891
 20
8.62895037
 30
0.0
 10
9.7969834891
 20
8.6280541422
 30
0.0
  0
SPLINE
  5
2D4
100
AcDbEntity
  8
0
100
AcDbSpline
 62
9
  6
CONTINUOUS
 70
0
 71
3
 72
19
 73
15
 74
0
 42
0.0000001
 43
0.0000001
 44
0.0000000001
 40
0.0
 40
0.0
 40
0.0
 40
0.0
 40
0.049879548
 40
0.1030593029
 40
0.1592416189
 40
0.2181158519
 40
0.279343752
 40
0.3425715292
 40
0.4735326334
 40
0.6079265246
 40
0.7425766279
 40
0.8742983309
 40
0.9380928666
 40
1.0
 40
1.0
 40
1.0
 40
1.0
 10
9.4234209459
 20
8.6340437191
 30
0.0
 10
9.4238262198
 20
8.6362634203
 30
0.0
 10
9.4245852498
 20
8.6408642019
 30
0.0
 10
9.4255533591
 20
8.6480032587
 30
0.0
 10
9.4263830837
 20
8.6555691502
 30
0.0
 10
9.4270691578
 20
8.663514782
 30
0.0
 10
9.4276071905
 20
8.6717911833
 30
0.0
 10
9.4281284511
 20
8.6833342961
 30
0.0
 10
9.428380065
 20
8.6981997263
 30
0.0
 10
9.4280653096
 20
8.7162953057
 30
0.0
 10
9.4271437792
 20
8.7344045785
 30
0.0
 10
9.4258768628
 20
8.7492899071
 30
0.0
 10
9.4245677154
 20
8.7608616778
 30
0.0
 10
9.4238189384
 20
8.7664989886
 30
0.0
 10
9.4234209459
 20
8.7692710497
 30
0.0
  0
SPLINE
  5
2D5
100
AcDbEntity
  8
0
100
AcDbSpline
 62
7
  6
CONTINUOUS
 70
0
 71
3
 72
23
 73
19
 74
0
 42
0.0000001
 43
0.0000001
 44
0.0000000001
 40
0.0
 40
0.0
 40
0.0
 40
0.0
 40
0.0663392552
 40
0.1321155922
 40
0.1973005624
 40
0.2618829544
 40
0.325870526
 40
0.3892704619
 40
0.4521043314
 40
0.51439711
 40
0.5761850564
 40
0.6375111979
 40
0.6984288945
 40
0.7590030594
 40
0.8193172431
 40
0.8794808906
 40
0.9396429213
 40
1.0
 40
1.0
 40
1.0
 40
1.0
 10
9.6969834891
 20
8.7702237551
 30
0.0
 10
9.6990999508
 20
8.768332702
 30
0.0
 10
9.7032229746
 20
8.7644622757
 30
0.0
 10
9.7090937799
 20
8.7583929513
 30
0.0
 10
9.7146358345
 20
8.7521223935
 30
0.0
 10
9.7198696912
 20
8.7456915984
 30
0.0
 10
9.7248299093
 20
8.7391437418
 30
0.0
 10
9.7295551583
 20
8.7325166071
 30
0.0
 10
9.7340873938
 20
8.7258439527
 30
0.0
 10
9.7384724049
 20
8.7191563101
 30
0.0
 10
9.7427596711
 20
8.7124823393
 30
0.0
 10
9.7469994585
 20
8.7058478688
 30
0.0
 10
9.7512428886
 20
8.6992773591
 30
0.0
 10
9.755540551
 20
8.6927937955
 30
0.0
 10
9.7599461805
 20
8.6864218293
 30
0.0
 10
9.7645182452
 20
8.6801891803
 30
0.0
 10
9.7693220712
 20
8.6741301471
 30
0.0
 10
9.7727194575
 20
8.6702473013
 30
0.0
 10
9.7744779564
 20
8.6683563066
 30
0.0
  0
SPLINE
  5
2D6
100
AcDbEntity
  8
0
100
AcDbSpline
 62
9
  6
CONTINUOUS
 70
0
 71
3
 72
38
 73
34
 74
0
 42
0.0000001
 43
0.0000001
 44
0.0000000001
 40
0.0
 40
0.0
 40
0.0
 40
0.0
 40
0.0077759954
 40
0.0155587764
 40
0.023349044
 40
0.0311468951
 40
0.0389498219
 40
0.0467562727
 40
0.054567431
 40
0.0623828027
 40
0.0662908597
 40
0.0701984236
 40
0.0780121511
 40
0.0858249606
 40
0.0936378922
 40
0.1092649412
 40
0.1248920797
 40
0.1405189141
 40
0.1561458183
 40
0.1873997081
 40
0.2186535566
 40
0.2499074173
 40
0.2811612741
 40
0.312415132
 40
0.3436689896
 40
0.3749228471
 40
0.4374305623
 40
0.4999382774
 40
0.5624459925
 40
0.6249537076
 40
0.749969138
 40
0.8749845688
 40
1.0
 40
1.0
 40
1.0
 40
1.0
 10
9.4234209459
 20
8.6340437191
 30
0.0
 10
9.42412639
 20
8.6339711573
 30
0.0
 10
9.425538587
 20
8.6338326309
 30
0.0
 10
9.4276596612
 20
8.6336439772
 30
0.0
 10
9.4297843031
 20
8.6334739508
 30
0.0
 10
9.4319121031
 20
8.6333210456
 30
0.0
 10
9.4340433664
 20
8.6331977616
 30
0.0
 10
9.4361781033
 20
8.633119425
 30
0.0
 10
9.4383152266
 20
8.6330970842
 30
0.0
 10
9.4400967634
 20
8.6331025764
 30
0.0
 10
9.4415222845
 20
8.6331094016
 30
0.0
 10
9.4429476674
 20
8.6331133784
 30
0.0
 10
9.4447291681
 20
8.6331136445
 30
0.0
 10
9.4468668313
 20
8.6331104887
 30
0.0
 10
9.4497170664
 20
8.6331076565
 30
0.0
 10
9.453279965
 20
8.6331094809
 30
0.0
 10
9.4575554862
 20
8.6331104522
 30
0.0
 10
9.4618309946
 20
8.6331098939
 30
0.0
 10
9.4675316534
 20
8.6331102105
 30
0.0
 10
9.4746574866
 20
8.6331108052
 30
0.0
 10
9.483208489
 20
8.6331113083
 30
0.0
 10
9.4917594884
 20
8.6331120758
 30
0.0
 10
9.5003104887
 20
8.6331128627
 30
0.0
 10
9.5088614887
 20
8.6331137549
 30
0.0
 10
9.5174124887
 20
8.6331147076
 30
0.0
 10
9.528813822
 20
8.6331160592
 30
0.0
 10
9.5430654887
 20
8.6331178703
 30
0.0
 10
9.5601674886
 20
8.6331201585
 30
0.0
 10
9.5772694885
 20
8.633122481
 30
0.0
 10
9.6000721551
 20
8.6331255158
 30
0.0
 10
9.6285754885
 20
8.6331289919
 30
0.0
 10
9.6627794887
 20
8.6331320105
 30
0.0
 10
9.6855821556
 20
8.6331328246
 30
0.0
 10
9.6969834891
 20
8.6331328246
 30
0.0
  0
ENDSEC
  0
SECTION
  2
OBJECTS
  0
DICTIONARY
  5
C
100
AcDbDictionary
280
0
281
1
  3
ACAD_GROUP
350
D
  3
ACAD_MLINESTYLE
350
17
  3
ACAD_LAYOUT
350
1A
  3
ACAD_PLOTSETTINGS
350
19
  3
ACAD_PLOTSTYLENAME
350
E
  0
DICTIONARY
  5
D
102
{ACAD_REACTORS
330
C
102
}
100
AcDbDictionary
280
0
281
1
  0
ACDBDICTIONARYWDFLT
  5
E
102
{ACAD_REACTORS
330
C
102
}
100
AcDbDictionary
281
1
  3
Normal
350
F
100
AcDbDictionaryWithDefault
340
F
  0
DICTIONARY
  5
17
102
{ACAD_REACTORS
330
C
102
}
100
AcDbDictionary
280
0
281
1
  3
Standard
350
18
  0
DICTIONARY
  5
19
102
{ACAD_REACTORS
330
C
102
}
100
AcDbDictionary
281
1
  0
DICTIONARY
  5
1A
102
{ACAD_REACTORS
330
C
102
}
100
AcDbDictionary
281
1
  3
Model
350
2D7
  3
Layout1
350
2D8
  0
ACDBPLACEHOLDER
  5
F
102
{ACAD_REACTORS
330
E
102
}
  0
MLINESTYLE
  5
18
102
{ACAD_REACTORS
330
17
102
}
100
AcDbMlineStyle
  2
STANDARD
 70
0
  3

 62
256
 51
90.0
 52
90.0
 71
2
 49
0.5
 62
256
  6
BYLAYER
 49
-0.5
 62
256
  6
BYLAYER
  0
LAYOUT
  5
2D7
102
{ACAD_REACTORS
330
1A
102
}
100
AcDbPlotSettings
  1

  2
none_device
  4
ANSI_C_(22.00_x_17.00_Inches)
  6

 40
0.0
 41
0.0
 42
0.0
 43
0.0
 44
558.8
 45
431.8
 46
0.0
 47
0.0
 48
0.0
 49
0.0
140
0.0
141
0.0
142
1.0
143
1.0
 70
1024
 72
0
 73
0
 74
0
  7

 75
0
147
1.0
148
0.0
149
0.0
100
AcDbLayout
  1
Model
 70
0
 71
0
 10
0.0
 20
0.0
 11
22.0
 21
17.0
 12
0.0
 22
0.0
 32
0.0
 14
0.0
 24
0.0
 34
0.0
 15
0.0
 25
0.0
 35
0.0
146
0.0
 13
0.0
 23
0.0
 33
0.0
 16
1.0
 26
0.0
 36
0.0
 17
0.0
 27
1.0
 37
0.0
 76
0
330
205
345
0
346
0
  0
LAYOUT
  5
2D8
102
{ACAD_REACTORS
330
1A
102
}
100
AcDbPlotSettings
  1

  2
none_device
  4
ANSI_C_(22.00_x_17.00_Inches)
  6

 40
0.0
 41
0.0
 42
0.0
 43
0.0
 44
558.8
 45
431.8
 46
0.0
 47
0.0
 48
0.0
 49
0.0
140
0.0
141
0.0
142
1.0
143
1.0
 70
0
 72
0
 73
0
 74
0
  7

 75
0
147
1.0
148
0.0
149
0.0
100
AcDbLayout
  1
Layout1
 70
0
 71
1
 10
0.0
 20
0.0
 11
22.0
 21
17.0
 12
0.0
 22
0.0
 32
0.0
 14
0.0
 24
0.0
 34
0.0
 15
0.0
 25
0.0
 35
0.0
146
0.0
 13
0.0
 23
0.0
 33
0.0
 16
1.0
 26
0.0
 36
0.0
 17
0.0
 27
1.0
 37
0.0
 76
0
330
206
345
0
346
0
  0
ENDSEC
  0
EOF
