999
DXF file: E:\BT Custom\CADOUTPUT\_RIGHT.dxf
999
Pro/ENGINEER 2018400 by Parametric Technology Corporation
  0
SECTION
  2
HEADER
  9
$ACADVER
  1
AC1018
  9
$DWGCODEPAGE
  3
ANSI_1252
  9
$EXTMAX
 10
22.0
 20
17.0
 30
0.0
  9
$EXTMIN
 10
0.0
 20
0.0
 30
0.0
  9
$LIMMIN
 10
0.0
 20
0.0
  9
$LIMMAX
 10
22.0
 20
17.0
  9
$VIEWCTR
 10
11.0
 20
8.5
  9
$VIEWSIZE
 40
17.0
  9
$CLAYER
  8
0
  9
$LTSCALE
 40
1.21
  9
$CELTYPE
  6
BYLAYER
  9
$DIMSCALE
 40
1.0
  9
$DIMASZ
 40
0.1
  9
$DIMEXO
 40
0.0625
  9
$DIMDLI
 40
0.836
  9
$DIMEXE
 40
0.125
  9
$DIMCEN
 40
0.198
  9
$DIMLFAC
 40
1.0
  9
$DIMBLK
  1
_FILLED
  9
$DIMALT
 70
1
  9
$DIMALTD
 70
2
  9
$DIMALTTD
 70
2
  9
$DIMALTF
 40
25.4
  9
$DIMTXT
 40
0.08
  9
$DIMTOL
 70
1
  9
$DIMLIM
 70
0
  9
$DIMTFAC
 40
1.0
  9
$DIMTP
 40
0.001
  9
$DIMTM
 40
0.001
  9
$DIMGAP
 40
0.09
  9
$DIMDSEP
 70
46
  9
$AUNITS
 70
0
  9
$PDMODE
 70
3
  9
$PDSIZE
 40
0.06
  9
$HANDSEED
  5
2DE
  9
$TILEMODE
 70
1
  9
$MEASUREMENT
 70
0
  9
$INSUNITS
 70
1
  0
ENDSEC
  0
SECTION
  2
CLASSES
  0
CLASS
  1
ACDBDICTIONARYWDFLT
  2
AcDbDictionaryWithDefault
  3
AutoCAD 2000
 90
0
 91
1
280
0
281
0
  0
CLASS
  1
ACDBPLACEHOLDER
  2
AcDbPlaceHolder
  3
AutoCAD 2000
 90
0
 91
1
280
0
281
0
  0
CLASS
  1
LAYOUT
  2
AcDbLayout
  3
AutoCAD 2000
 90
0
 91
0
280
0
281
0
  0
ENDSEC
  0
SECTION
  2
TABLES
  0
TABLE
  2
VPORT
  5
8
100
AcDbSymbolTable
 70
2
  0
VPORT
  5
1F4
100
AcDbSymbolTableRecord
100
AcDbViewportTableRecord
  2
*ACTIVE
 70
0
 10
0.0
 20
0.0
 11
1.0
 21
1.0
 12
11.0
 22
8.5
 13
0.0
 23
0.0
 14
1.0
 24
1.0
 15
0.0
 25
0.0
 16
0.0
 26
0.0
 36
1.0
 17
0.0
 27
0.0
 37
0.0
 40
17.0
 41
1.2941176471
 42
50.0
 43
0.0
 44
0.0
 50
0.0
 51
0.0
 71
0
 72
100
 73
1
 74
1
 75
0
 76
0
 77
0
 78
0
  0
ENDTAB
  0
TABLE
  2
LTYPE
  5
5
100
AcDbSymbolTable
 70
6
  0
LTYPE
  5
14
100
AcDbSymbolTableRecord
100
AcDbLinetypeTableRecord
  2
BYBLOCK
 70
0
  3

 72
65
 73
0
 40
0.0
  0
LTYPE
  5
15
100
AcDbSymbolTableRecord
100
AcDbLinetypeTableRecord
  2
BYLAYER
 70
0
  3

 72
65
 73
0
 40
0.0
  0
LTYPE
  5
16
100
AcDbSymbolTableRecord
100
AcDbLinetypeTableRecord
  2
CONTINUOUS
 70
64
  3
Solid line
 72
65
 73
0
 40
0.0
  0
LTYPE
  5
1F5
100
AcDbSymbolTableRecord
100
AcDbLinetypeTableRecord
  2
CENTER
 70
64
  3
____ _ ____ _ ____ _ ____ _ ____ _ ____ _ ____
 72
65
 73
4
 40
0.6
 49
0.375
 74
0
 49
-0.075
 74
0
 49
0.075
 74
0
 49
-0.075
 74
0
  0
LTYPE
  5
1F6
100
AcDbSymbolTableRecord
100
AcDbLinetypeTableRecord
  2
HIDDEN
 70
64
  3
- - - - - - - - - - - - - - - - - - - -
 72
65
 73
2
 40
0.2
 49
0.1
 74
0
 49
-0.1
 74
0
  0
LTYPE
  5
1F7
100
AcDbSymbolTableRecord
100
AcDbLinetypeTableRecord
  2
PHANTOM
 70
64
  3
_____ _ _ _____ _ _ _____ _ _ _____
 72
65
 73
6
 40
0.8
 49
0.45
 74
0
 49
-0.05
 74
0
 49
0.1
 74
0
 49
-0.05
 74
0
 49
0.1
 74
0
 49
-0.05
 74
0
  0
LTYPE
  5
1F8
100
AcDbSymbolTableRecord
100
AcDbLinetypeTableRecord
  2
DOT
 70
64
  3
. . . . . . . . . . . . . . . . . . . .
 72
65
 73
2
 40
0.2
 49
0.1
 74
0
 49
-0.1
 74
0
  0
LTYPE
  5
1F9
100
AcDbSymbolTableRecord
100
AcDbLinetypeTableRecord
  2
DASHED
 70
64
  3
- - - - - - - - - - - - - - - - - - - -
 72
65
 73
2
 40
0.2
 49
0.1
 74
0
 49
-0.1
 74
0
  0
ENDTAB
  0
TABLE
  2
LAYER
  5
2
100
AcDbSymbolTable
 70
36
  0
LAYER
  5
10
100
AcDbSymbolTableRecord
100
AcDbLayerTableRecord
  2
0
 70
0
 62
7
  6
CONTINUOUS
370
-3
390
F
  0
LAYER
  5
1FA
100
AcDbSymbolTableRecord
100
AcDbLayerTableRecord
  2
DEFAULT_1
 70
0
 62
7
  6
CENTER
370
-3
390
F
  0
LAYER
  5
1FB
100
AcDbSymbolTableRecord
100
AcDbLayerTableRecord
  2
DEFAULT_2
 70
0
 62
8
  6
HIDDEN
370
-3
390
F
  0
LAYER
  5
1FC
100
AcDbSymbolTableRecord
100
AcDbLayerTableRecord
  2
DEFAULT_3
 70
0
 62
7
  6
PHANTOM
370
-3
390
F
  0
LAYER
  5
1FD
100
AcDbSymbolTableRecord
100
AcDbLayerTableRecord
  2
ALL_FEATURES
 70
0
 62
7
  6
CONTINUOUS
370
-3
390
F
  0
LAYER
  5
1FE
100
AcDbSymbolTableRecord
100
AcDbLayerTableRecord
  2
AXES_FEATURES
 70
0
 62
7
  6
CONTINUOUS
370
-3
390
F
  0
LAYER
  5
1FF
100
AcDbSymbolTableRecord
100
AcDbLayerTableRecord
  2
DEFAULT_COORDINATE_SYSTEM
 70
0
 62
7
  6
CONTINUOUS
370
-3
390
F
  0
LAYER
  5
200
100
AcDbSymbolTableRecord
100
AcDbLayerTableRecord
  2
DEFAULT_DATUM_AXES
 70
0
 62
7
  6
CONTINUOUS
370
-3
390
F
  0
LAYER
  5
201
100
AcDbSymbolTableRecord
100
AcDbLayerTableRecord
  2
DEFAULT_DATUM_PLANES
 70
0
 62
7
  6
CONTINUOUS
370
-3
390
F
  0
LAYER
  5
202
100
AcDbSymbolTableRecord
100
AcDbLayerTableRecord
  2
DIMENSIONS
 70
0
 62
7
  6
CONTINUOUS
370
-3
390
F
  0
ENDTAB
  0
TABLE
  2
STYLE
  5
3
100
AcDbSymbolTable
 70
1
  0
STYLE
  5
11
100
AcDbSymbolTableRecord
100
AcDbTextStyleTableRecord
  2
STANDARD
 70
0
 40
0.0
 41
0.8
 50
0.0
 71
0
 42
0.2
  3
txt
  4

  0
STYLE
  5
203
100
AcDbSymbolTableRecord
100
AcDbTextStyleTableRecord
  2
TEXTSTYLE_1
 70
0
 40
0.0
 41
0.8
 50
0.0
 71
0
 42
0.2
  3
gdt
  4

  0
ENDTAB
  0
TABLE
  2
VIEW
  5
6
100
AcDbSymbolTable
 70
0
  0
ENDTAB
  0
TABLE
  2
UCS
  5
7
100
AcDbSymbolTable
 70
0
  0
ENDTAB
  0
TABLE
  2
APPID
  5
9
100
AcDbSymbolTable
 70
1
  0
APPID
  5
204
100
AcDbSymbolTableRecord
100
AcDbRegAppTableRecord
  2
ACAD
 70
0
  0
ENDTAB
  0
TABLE
  2
BLOCK_RECORD
  5
1
100
AcDbSymbolTable
 70
0
  0
BLOCK_RECORD
  5
205
100
AcDbSymbolTableRecord
100
AcDbBlockTableRecord
  2
*Model_Space
  0
BLOCK_RECORD
  5
206
100
AcDbSymbolTableRecord
100
AcDbBlockTableRecord
  2
*Paper_Space
  0
BLOCK_RECORD
  5
207
100
AcDbSymbolTableRecord
100
AcDbBlockTableRecord
  2
_FILLED
  0
ENDTAB
  0
TABLE
  2
DIMSTYLE
  5
A
100
AcDbSymbolTable
 70
1
100
AcDbDimStyleTable
 71
0
  0
DIMSTYLE
105
208
100
AcDbSymbolTableRecord
100
AcDbDimStyleTableRecord
  2
STANDARD
 70
0
  3

  4

 40
1.0
 41
0.1
 42
0.0625
 43
0.38
 44
0.125
 45
0.0
 46
0.0
 47
0.001
 48
0.001
140
0.08
141
0.09
142
0.0
143
25.4
144
1.0
145
0.0
146
1.0
147
0.09
 71
1.0
 72
0.0
 73
1
 74
1
 75
0
 76
0
 77
0
 78
4
 79
1
170
1
171
2
172
0
173
0
174
0
175
0
176
0
177
0
178
0
270
2
179
3
271
3
272
3
273
2
274
2
275
0
280
0
281
0
282
0
283
1
284
4
285
0
286
0
287
3
288
0
340
11
278
46
341
207
342
207
343
207
344
207
  0
ENDTAB
  0
ENDSEC
  0
SECTION
  2
BLOCKS
  0
BLOCK
  5
20
100
AcDbEntity
  8
0
100
AcDbBlockBegin
  2
*Model_Space
 70
0
 10
0.0
 20
0.0
 30
0.0
  3
*Model_Space
  1

  0
ENDBLK
  5
21
100
AcDbEntity
  8
0
100
AcDbBlockEnd
  0
BLOCK
  5
1C
100
AcDbEntity
  8
0
100
AcDbBlockBegin
  2
*Paper_Space
 70
0
 10
0.0
 20
0.0
 30
0.0
  3
*Paper_Space
  1

  0
ENDBLK
  5
1D
100
AcDbEntity
  8
0
100
AcDbBlockEnd
  0
BLOCK
  5
209
100
AcDbEntity
  8
0
100
AcDbBlockBegin
  2
_FILLED
 70
64
 10
0.0
 20
0.0
  3
_FILLED
  1

  0
SOLID
  5
20A
100
AcDbEntity
  8
0
  6
BYBLOCK
 62
0
100
AcDbTrace
 10
0.0
 20
0.0
 11
-1.0
 21
0.2
 12
-1.0
 22
-0.2
 13
-1.0
 23
-0.2
  0
ENDBLK
  5
20B
100
AcDbEntity
  8
0
  6
BYBLOCK
 62
0
100
AcDbBlockEnd
  0
ENDSEC
  0
SECTION
  2
ENTITIES
  0
LINE
  5
20C
100
AcDbEntity
  8
0
100
AcDbLine
 62
7
  6
CONTINUOUS
 10
10.8369834891
 20
6.389891804
 11
10.7469834891
 21
6.389891804
  0
LINE
  5
20D
100
AcDbEntity
  8
0
100
AcDbLine
 62
7
  6
CONTINUOUS
 10
10.7399885196
 20
6.3906913007
 11
10.6039885196
 21
6.4221913007
  0
LINE
  5
20E
100
AcDbEntity
  8
0
100
AcDbLine
 62
7
  6
CONTINUOUS
 10
11.6689834891
 20
6.603891804
 11
11.6639834891
 21
6.603891804
  0
LINE
  5
20F
100
AcDbEntity
  8
0
100
AcDbLine
 62
7
  6
CONTINUOUS
 10
11.0729834891
 20
6.662891804
 11
11.6519834891
 21
6.662891804
  0
LINE
  5
210
100
AcDbEntity
  8
0
100
AcDbLine
 62
7
  6
CONTINUOUS
 10
11.0729834891
 20
7.016891804
 11
11.6519834891
 21
7.016891804
  0
LINE
  5
211
100
AcDbEntity
  8
0
100
AcDbLine
 62
9
  6
CONTINUOUS
 10
8.9531741959
 20
8.6147471475
 11
8.9531741959
 21
9.4050364606
  0
LINE
  5
212
100
AcDbEntity
  8
0
100
AcDbLine
 62
7
  6
CONTINUOUS
 10
8.9769834891
 20
8.5553818516
 11
8.9769834891
 21
9.4644017565
  0
LINE
  5
213
100
AcDbEntity
  8
0
100
AcDbLine
 62
7
  6
CONTINUOUS
 10
8.9960641371
 20
8.4966576518
 11
8.9960641371
 21
9.5231259563
  0
LINE
  5
214
100
AcDbEntity
  8
0
100
AcDbLine
 62
7
  6
CONTINUOUS
 10
9.015699392
 20
8.482391804
 11
9.015699392
 21
9.537391804
  0
LINE
  5
215
100
AcDbEntity
  8
0
100
AcDbLine
 62
7
  6
CONTINUOUS
 10
8.9769834891
 20
9.4644017602
 11
8.9960641371
 21
9.5231259563
  0
LINE
  5
216
100
AcDbEntity
  8
0
100
AcDbLine
 62
7
  6
CONTINUOUS
 10
10.7399885196
 20
7.2890923074
 11
10.6039885196
 21
7.2575923074
  0
LINE
  5
217
100
AcDbEntity
  8
0
100
AcDbLine
 62
7
  6
CONTINUOUS
 10
11.6689834891
 20
7.075891804
 11
11.6639834891
 21
7.075891804
  0
LINE
  5
218
100
AcDbEntity
  8
0
100
AcDbLine
 62
7
  6
CONTINUOUS
 10
10.8369834891
 20
7.289891804
 11
10.7469834891
 21
7.289891804
  0
LINE
  5
219
100
AcDbEntity
  8
0
100
AcDbLine
 62
7
  6
CONTINUOUS
 10
8.9769834891
 20
8.5553818479
 11
8.9960641371
 21
8.4966576518
  0
LINE
  5
21A
100
AcDbEntity
  8
0
100
AcDbLine
 62
7
  6
CONTINUOUS
 10
9.0869834891
 20
8.482391804
 11
9.0869834891
 21
9.537391804
  0
LINE
  5
21B
100
AcDbEntity
  8
0
100
AcDbLine
 62
7
  6
CONTINUOUS
 10
9.1024834891
 20
8.5092385916
 11
9.1024834891
 21
9.5105450165
  0
LINE
  5
21C
100
AcDbEntity
  8
0
100
AcDbLine
 62
7
  6
CONTINUOUS
 10
9.1179834891
 20
8.482391804
 11
9.1179834891
 21
9.537391804
  0
LINE
  5
21D
100
AcDbEntity
  8
0
100
AcDbLine
 62
7
  6
CONTINUOUS
 10
9.1979834891
 20
8.452391804
 11
9.1979834891
 21
9.567391804
  0
LINE
  5
21E
100
AcDbEntity
  8
0
100
AcDbLine
 62
7
  6
CONTINUOUS
 10
9.2069834891
 20
9.3698133814
 11
9.2069834891
 21
9.3583415136
  0
LINE
  5
21F
100
AcDbEntity
  8
0
100
AcDbLine
 62
7
  6
CONTINUOUS
 10
9.2069834891
 20
8.6614422251
 11
9.2069834891
 21
8.6499702266
  0
LINE
  5
220
100
AcDbEntity
  8
0
100
AcDbLine
 62
7
  6
CONTINUOUS
 10
9.1024834891
 20
9.5105450165
 11
9.1179834891
 21
9.537391804
  0
LINE
  5
221
100
AcDbEntity
  8
0
100
AcDbLine
 62
7
  6
CONTINUOUS
 10
8.9960641371
 20
9.5231259563
 11
9.015699392
 21
9.537391804
  0
LINE
  5
222
100
AcDbEntity
  8
0
100
AcDbLine
 62
7
  6
CONTINUOUS
 10
8.9960641371
 20
8.4966576518
 11
9.015699392
 21
8.482391804
  0
LINE
  5
223
100
AcDbEntity
  8
0
100
AcDbLine
 62
7
  6
CONTINUOUS
 10
9.1024834891
 20
8.5092385916
 11
9.1179834891
 21
8.482391804
  0
LINE
  5
224
100
AcDbEntity
  8
0
100
AcDbLine
 62
7
  6
CONTINUOUS
 10
9.5989834891
 20
9.3698133814
 11
9.5989834891
 21
9.3583415104
  0
LINE
  5
225
100
AcDbEntity
  8
0
100
AcDbLine
 62
7
  6
CONTINUOUS
 10
9.5989834891
 20
8.6614422393
 11
9.5989834891
 21
8.6499702266
  0
LINE
  5
226
100
AcDbEntity
  8
0
100
AcDbLine
 62
7
  6
CONTINUOUS
 10
9.6079834891
 20
8.452391804
 11
9.6079834891
 21
9.567391804
  0
LINE
  5
227
100
AcDbEntity
  8
0
100
AcDbLine
 62
7
  6
CONTINUOUS
 10
9.0869834891
 20
8.482391804
 11
9.1024834891
 21
8.5092385916
  0
LINE
  5
228
100
AcDbEntity
  8
0
100
AcDbLine
 62
7
  6
CONTINUOUS
 10
9.5227734428
 20
9.5933901637
 11
9.5638103319
 21
9.6229766896
  0
LINE
  5
229
100
AcDbEntity
  8
0
100
AcDbLine
 62
7
  6
CONTINUOUS
 10
11.4572362464
 20
7.822391804
 11
11.7639834891
 21
7.822391804
  0
LINE
  5
22A
100
AcDbEntity
  8
0
100
AcDbLine
 62
7
  6
CONTINUOUS
 10
9.5227734428
 20
8.4263934444
 11
9.5638103319
 21
8.3968069185
  0
LINE
  5
22B
100
AcDbEntity
  8
0
100
AcDbLine
 62
7
  6
CONTINUOUS
 10
11.0729834891
 20
7.064891804
 11
10.8589974482
 21
7.2807180636
  0
LINE
  5
22C
100
AcDbEntity
  8
0
100
AcDbLine
 62
7
  6
CONTINUOUS
 10
9.0869834891
 20
9.537391804
 11
9.1024834891
 21
9.5105450165
  0
LINE
  5
22D
100
AcDbEntity
  8
0
100
AcDbLine
 62
7
  6
CONTINUOUS
 10
9.6869834891
 20
8.482391804
 11
9.6869834891
 21
9.537391804
  0
LINE
  5
22E
100
AcDbEntity
  8
0
100
AcDbLine
 62
7
  6
CONTINUOUS
 10
9.7379834891
 20
8.6393918056
 11
9.7379834891
 21
9.3803918025
  0
LINE
  5
22F
100
AcDbEntity
  8
0
100
AcDbLine
 62
7
  6
CONTINUOUS
 10
10.0969834891
 20
8.666391804
 11
10.0969834891
 21
9.353391804
  0
LINE
  5
230
100
AcDbEntity
  8
0
100
AcDbLine
 62
7
  6
CONTINUOUS
 10
10.1169834891
 20
9.439891804
 11
10.1169834891
 21
8.579891804
  0
LINE
  5
231
100
AcDbEntity
  8
0
100
AcDbLine
 62
7
  6
CONTINUOUS
 10
9.6869834891
 20
8.482391804
 11
9.7379834891
 21
8.639391804
  0
LINE
  5
232
100
AcDbEntity
  8
0
100
AcDbLine
 62
7
  6
CONTINUOUS
 10
10.2369834891
 20
8.4325415349
 11
10.6297916394
 21
8.34535012
  0
LINE
  5
233
100
AcDbEntity
  8
0
100
AcDbLine
 62
7
  6
CONTINUOUS
 10
9.6869834891
 20
9.537391804
 11
9.7379834891
 21
9.380391804
  0
LINE
  5
234
100
AcDbEntity
  8
0
100
AcDbLine
 62
7
  6
CONTINUOUS
 10
10.2369834891
 20
8.4325415349
 11
10.2369834891
 21
9.5872420732
  0
LINE
  5
235
100
AcDbEntity
  8
0
100
AcDbLine
 62
7
  6
CONTINUOUS
 10
9.2831935354
 20
8.4263934444
 11
9.2421566464
 21
8.3968069185
  0
LINE
  5
236
100
AcDbEntity
  8
0
100
AcDbLine
 62
7
  6
CONTINUOUS
 10
9.015699392
 20
8.482391804
 11
9.0869834891
 21
8.482391804
  0
LINE
  5
237
100
AcDbEntity
  8
0
100
AcDbLine
 62
7
  6
CONTINUOUS
 10
10.2369834891
 20
8.579891804
 11
10.1169834891
 21
8.579891804
  0
LINE
  5
238
100
AcDbEntity
  8
0
100
AcDbLine
 62
7
  6
CONTINUOUS
 10
9.7379834891
 20
8.666391804
 11
10.0969834891
 21
8.666391804
  0
LINE
  5
239
100
AcDbEntity
  8
0
100
AcDbLine
 62
7
  6
CONTINUOUS
 10
8.9332407901
 20
8.702391804
 11
8.9327780996
 21
8.702391804
  0
LINE
  5
23A
100
AcDbEntity
  8
0
100
AcDbLine
 62
7
  6
CONTINUOUS
 10
8.9293954444
 20
8.722391804
 11
8.9289616687
 21
8.722391804
  0
LINE
  5
23B
100
AcDbEntity
  8
0
100
AcDbLine
 62
7
  6
CONTINUOUS
 10
10.2369834891
 20
8.7212166695
 11
10.6297916394
 21
8.677620962
  0
LINE
  5
23C
100
AcDbEntity
  8
0
100
AcDbLine
 62
7
  6
CONTINUOUS
 10
9.2831935354
 20
9.5933901637
 11
9.2421566464
 21
9.6229766896
  0
LINE
  5
23D
100
AcDbEntity
  8
0
100
AcDbLine
 62
7
  6
CONTINUOUS
 10
10.5799834891
 20
6.4523921173
 11
10.5799834891
 21
7.2273914907
  0
LINE
  5
23E
100
AcDbEntity
  8
0
100
AcDbLine
 62
9
  6
CONTINUOUS
 10
10.6039885196
 20
6.4221913007
 11
10.6039885196
 21
7.2575923074
  0
LINE
  5
23F
100
AcDbEntity
  8
0
100
AcDbLine
 62
9
  6
CONTINUOUS
 10
10.6297916394
 20
8.34535012
 11
10.6297916394
 21
9.6744334881
  0
LINE
  5
240
100
AcDbEntity
  8
0
100
AcDbLine
 62
9
  6
CONTINUOUS
 10
10.7399885196
 20
6.3906913007
 11
10.7399885196
 21
7.2890923074
  0
LINE
  5
241
100
AcDbEntity
  8
0
100
AcDbLine
 62
9
  6
CONTINUOUS
 10
10.7469834891
 20
6.389891804
 11
10.7469834891
 21
7.289891804
  0
LINE
  5
242
100
AcDbEntity
  8
0
100
AcDbLine
 62
7
  6
CONTINUOUS
 10
11.4422153624
 20
10.1796034494
 11
11.4572362464
 21
10.197391804
  0
LINE
  5
243
100
AcDbEntity
  8
0
100
AcDbLine
 62
7
  6
CONTINUOUS
 10
11.4422153624
 20
9.5947476267
 11
11.4572362464
 21
9.603641804
  0
LINE
  5
244
100
AcDbEntity
  8
0
100
AcDbLine
 62
7
  6
CONTINUOUS
 10
10.1169834891
 20
8.809891804
 11
10.0969834891
 21
8.809891804
  0
LINE
  5
245
100
AcDbEntity
  8
0
100
AcDbLine
 62
9
  6
CONTINUOUS
 10
8.9108091065
 20
8.9037713055
 11
8.9098040343
 21
8.9037713055
  0
LINE
  5
246
100
AcDbEntity
  8
0
100
AcDbLine
 62
7
  6
CONTINUOUS
 10
8.9089684748
 20
8.9280955468
 11
8.9079646002
 21
8.9280955468
  0
LINE
  5
247
100
AcDbEntity
  8
0
100
AcDbLine
 62
7
  6
CONTINUOUS
 10
8.9047449457
 20
8.942391804
 11
8.9037438084
 21
8.942391804
  0
LINE
  5
248
100
AcDbEntity
  8
0
100
AcDbLine
 62
7
  6
CONTINUOUS
 10
11.4422153624
 20
8.4250359814
 11
11.4572362464
 21
8.416141804
  0
LINE
  5
249
100
AcDbEntity
  8
0
100
AcDbLine
 62
7
  6
CONTINUOUS
 10
11.4422153624
 20
7.8401801587
 11
11.4572362464
 21
7.822391804
  0
LINE
  5
24A
100
AcDbEntity
  8
0
100
AcDbLine
 62
9
  6
CONTINUOUS
 10
10.8369834891
 20
6.389891804
 11
10.8369834891
 21
7.289891804
  0
LINE
  5
24B
100
AcDbEntity
  8
0
100
AcDbLine
 62
9
  6
CONTINUOUS
 10
10.8589974482
 20
6.3990655445
 11
10.8589974482
 21
7.2807180636
  0
LINE
  5
24C
100
AcDbEntity
  8
0
100
AcDbLine
 62
7
  6
CONTINUOUS
 10
10.1169834891
 20
9.209891804
 11
10.0969834891
 21
9.209891804
  0
LINE
  5
24D
100
AcDbEntity
  8
0
100
AcDbLine
 62
7
  6
CONTINUOUS
 10
8.9288683338
 20
9.297391804
 11
8.9290198577
 21
9.297391804
  0
LINE
  5
24E
100
AcDbEntity
  8
0
100
AcDbLine
 62
7
  6
CONTINUOUS
 10
11.0729834891
 20
6.614891804
 11
11.0729834891
 21
7.064891804
  0
LINE
  5
24F
100
AcDbEntity
  8
0
100
AcDbLine
 62
7
  6
CONTINUOUS
 10
10.2369834891
 20
9.2985669386
 11
10.6297916394
 21
9.342162646
  0
LINE
  5
250
100
AcDbEntity
  8
0
100
AcDbLine
 62
7
  6
CONTINUOUS
 10
9.7379834891
 20
9.353391804
 11
10.0969834891
 21
9.353391804
  0
LINE
  5
251
100
AcDbEntity
  8
0
100
AcDbLine
 62
7
  6
CONTINUOUS
 10
10.2369834891
 20
9.439891804
 11
10.1169834891
 21
9.439891804
  0
LINE
  5
252
100
AcDbEntity
  8
0
100
AcDbLine
 62
7
  6
CONTINUOUS
 10
9.015699392
 20
9.537391804
 11
9.0869834891
 21
9.537391804
  0
LINE
  5
253
100
AcDbEntity
  8
0
100
AcDbLine
 62
9
  6
CONTINUOUS
 10
11.4422153624
 20
7.8401801587
 11
11.4422153624
 21
10.1796034494
  0
LINE
  5
254
100
AcDbEntity
  8
0
100
AcDbLine
 62
7
  6
CONTINUOUS
 10
10.2369834891
 20
9.5872420732
 11
10.6297916394
 21
9.6744334881
  0
LINE
  5
255
100
AcDbEntity
  8
0
100
AcDbLine
 62
7
  6
CONTINUOUS
 10
11.6519834891
 20
6.615891804
 11
11.6519834891
 21
7.063891804
  0
LINE
  5
256
100
AcDbEntity
  8
0
100
AcDbLine
 62
9
  6
CONTINUOUS
 10
11.6639834891
 20
6.603891804
 11
11.6639834891
 21
7.075891804
  0
LINE
  5
257
100
AcDbEntity
  8
0
100
AcDbLine
 62
7
  6
CONTINUOUS
 10
11.6689834891
 20
6.559891804
 11
11.6689834891
 21
7.119891804
  0
LINE
  5
258
100
AcDbEntity
  8
0
100
AcDbLine
 62
7
  6
CONTINUOUS
 10
11.7639834891
 20
11.7634699897
 11
11.7639834891
 21
6.2563136183
  0
LINE
  5
259
100
AcDbEntity
  8
0
100
AcDbLine
 62
9
  6
CONTINUOUS
 10
11.8919834891
 20
6.0381027112
 11
11.8919834891
 21
11.9816808969
  0
LINE
  5
25A
100
AcDbEntity
  8
0
100
AcDbLine
 62
7
  6
CONTINUOUS
 10
12.0199736539
 20
12.2030279345
 11
12.0199736539
 21
5.8167556736
  0
LINE
  5
25B
100
AcDbEntity
  8
0
100
AcDbLine
 62
9
  6
CONTINUOUS
 10
12.143981294
 20
5.6008189982
 11
12.143981294
 21
12.4189646099
  0
LINE
  5
25C
100
AcDbEntity
  8
0
100
AcDbLine
 62
7
  6
CONTINUOUS
 10
11.4572362464
 20
10.197391804
 11
11.7639834891
 21
10.197391804
  0
LINE
  5
25D
100
AcDbEntity
  8
0
100
AcDbLine
 62
7
  6
CONTINUOUS
 10
12.2679834891
 20
12.634891804
 11
12.2679834891
 21
5.384891804
  0
LINE
  5
25E
100
AcDbEntity
  8
0
100
AcDbLine
 62
7
  6
CONTINUOUS
 10
12.5179834891
 20
5.1348927399
 11
12.5179834891
 21
12.8848908682
  0
LINE
  5
25F
100
AcDbEntity
  8
0
100
AcDbLine
 62
7
  6
CONTINUOUS
 10
11.0729834891
 20
6.614891804
 11
10.8589974482
 21
6.3990655445
  0
ARC
  5
260
100
AcDbEntity
  8
0
100
AcDbCircle
 62
7
  6
CONTINUOUS
 10
9.6352757232
 20
8.2796125132
 40
1.36
100
AcDbArc
 50
108.7559867836
 51
112.3561036556
  0
ARC
  5
261
100
AcDbEntity
  8
0
100
AcDbCircle
 62
7
  6
CONTINUOUS
 10
9.1649016736
 20
8.2815930232
 40
1.36
100
AcDbArc
 50
67.4255442891
 51
70.9862257999
  0
ARC
  5
262
100
AcDbEntity
  8
0
100
AcDbCircle
 62
7
  6
CONTINUOUS
 10
9.4029834891
 20
7.5297529152
 40
0.9451388889
100
AcDbArc
 50
77.4730187713
 51
80.873253273
  0
ARC
  5
263
100
AcDbEntity
  8
0
100
AcDbCircle
 62
7
  6
CONTINUOUS
 10
9.4029834891
 20
7.5297529152
 40
0.9451388889
100
AcDbArc
 50
99.1276188939
 51
102.5269812287
  0
ARC
  5
264
100
AcDbEntity
  8
0
100
AcDbCircle
 62
7
  6
CONTINUOUS
 10
9.1879163462
 20
8.9671904402
 40
0.2842717003
100
AcDbArc
 50
188.0290775692
 51
192.8685406423
  0
ARC
  5
265
100
AcDbEntity
  8
0
100
AcDbCircle
 62
7
  6
CONTINUOUS
 10
9.1850016432
 20
8.9850704455
 40
0.2828350442
100
AcDbArc
 50
189.0610841775
 51
191.6213045681
  0
ARC
  5
266
100
AcDbEntity
  8
0
100
AcDbCircle
 62
7
  6
CONTINUOUS
 10
9.1832408658
 20
8.9664640123
 40
0.2805317741
100
AcDbArc
 50
184.9225588611
 51
192.9134008752
  0
ARC
  5
267
100
AcDbEntity
  8
0
100
AcDbCircle
 62
7
  6
CONTINUOUS
 10
9.1824354934
 20
8.9846515395
 40
0.2802349452
100
AcDbArc
 50
188.6530735715
 51
189.0591331986
  0
ARC
  5
268
100
AcDbEntity
  8
0
100
AcDbCircle
 62
7
  6
CONTINUOUS
 10
9.180163566
 20
8.9659989489
 40
0.2764284965
100
AcDbArc
 50
184.8990582911
 51
187.9251696703
  0
ARC
  5
269
100
AcDbEntity
  8
0
100
AcDbCircle
 62
7
  6
CONTINUOUS
 10
9.1774416901
 20
8.9839746797
 40
0.2751961182
100
AcDbArc
 50
182.0634571274
 51
188.6393253336
  0
ARC
  5
26A
100
AcDbEntity
  8
0
100
AcDbCircle
 62
7
  6
CONTINUOUS
 10
9.4029834866
 20
8.1737380361
 40
0.2750000008
100
AcDbArc
 50
125.7906249419
 51
54.2093797306
  0
ARC
  5
26B
100
AcDbEntity
  8
0
100
AcDbCircle
 62
9
  6
CONTINUOUS
 10
9.5004663316
 20
8.6499532774
 40
0.0985171258
100
AcDbArc
 50
0.0098573506
 51
8.9473811084
  0
ARC
  5
26C
100
AcDbEntity
  8
0
100
AcDbCircle
 62
9
  6
CONTINUOUS
 10
9.3055006426
 20
8.6499532777
 40
0.0985171217
100
AcDbArc
 50
171.0526509589
 51
179.9901427724
  0
ARC
  5
26D
100
AcDbEntity
  8
0
100
AcDbCircle
 62
7
  6
CONTINUOUS
 10
10.7469834891
 20
7.258891804
 40
0.031
100
AcDbArc
 50
90.0
 51
103.0407610339
  0
ARC
  5
26E
100
AcDbEntity
  8
0
100
AcDbCircle
 62
7
  6
CONTINUOUS
 10
10.7469834891
 20
6.420891804
 40
0.031
100
AcDbArc
 50
256.9592389661
 51
270.0
  0
ARC
  5
26F
100
AcDbEntity
  8
0
100
AcDbCircle
 62
7
  6
CONTINUOUS
 10
10.6109834891
 20
7.227391804
 40
0.031
100
AcDbArc
 50
103.0407610339
 51
180.0
  0
ARC
  5
270
100
AcDbEntity
  8
0
100
AcDbCircle
 62
7
  6
CONTINUOUS
 10
10.6109834891
 20
6.452391804
 40
0.031
100
AcDbArc
 50
180.0
 51
256.9592389661
  0
ARC
  5
271
100
AcDbEntity
  8
0
100
AcDbCircle
 62
7
  6
CONTINUOUS
 10
8.9821838361
 20
8.622391804
 40
0.03
100
AcDbArc
 50
194.7630312681
 51
260.0138853066
  0
ARC
  5
272
100
AcDbEntity
  8
0
100
AcDbCircle
 62
7
  6
CONTINUOUS
 10
10.4526535046
 20
9.009891804
 40
1.5506700155
100
AcDbArc
 50
165.2369687319
 51
168.5623542416
  0
ARC
  5
273
100
AcDbEntity
  8
0
100
AcDbCircle
 62
7
  6
CONTINUOUS
 10
10.4526535046
 20
9.009891804
 40
1.5506700155
100
AcDbArc
 50
191.4376457584
 51
194.7630312681
  0
ARC
  5
274
100
AcDbEntity
  8
0
100
AcDbCircle
 62
7
  6
CONTINUOUS
 10
10.4526535046
 20
9.009891804
 40
1.5506700155
100
AcDbArc
 50
173.1137591015
 51
181.3224037183
  0
ARC
  5
275
100
AcDbEntity
  8
0
100
AcDbCircle
 62
7
  6
CONTINUOUS
 10
10.4511840241
 20
9.0101392627
 40
1.5491805496
100
AcDbArc
 50
181.332808842
 51
182.506814774
  0
ARC
  5
276
100
AcDbEntity
  8
0
100
AcDbCircle
 62
7
  6
CONTINUOUS
 10
10.4511728246
 20
9.0101399641
 40
1.5491693925
100
AcDbArc
 50
182.5814764552
 51
190.7044837102
  0
ARC
  5
277
100
AcDbEntity
  8
0
100
AcDbCircle
 62
7
  6
CONTINUOUS
 10
10.4511768448
 20
9.010765004
 40
1.5489428319
100
AcDbArc
 50
182.5299636854
 51
191.4835297627
  0
ARC
  5
278
100
AcDbEntity
  8
0
100
AcDbCircle
 62
7
  6
CONTINUOUS
 10
10.4511495298
 20
9.0101381098
 40
1.5481460259
100
AcDbArc
 50
182.1437922999
 51
182.5068779895
  0
ARC
  5
279
100
AcDbEntity
  8
0
100
AcDbCircle
 62
7
  6
CONTINUOUS
 10
9.6352757232
 20
9.7401710949
 40
1.36
100
AcDbArc
 50
247.6438963444
 51
251.2440132164
  0
ARC
  5
27A
100
AcDbEntity
  8
0
100
AcDbCircle
 62
7
  6
CONTINUOUS
 10
9.1649016736
 20
9.7381905849
 40
1.36
100
AcDbArc
 50
289.0137742001
 51
292.5744557109
  0
ARC
  5
27B
100
AcDbEntity
  8
0
100
AcDbCircle
 62
7
  6
CONTINUOUS
 10
10.1611111516
 20
9.0333464789
 40
1.2567183243
100
AcDbArc
 50
179.937779324
 51
181.0693978758
  0
ARC
  5
27C
100
AcDbEntity
  8
0
100
AcDbCircle
 62
7
  6
CONTINUOUS
 10
10.0696891495
 20
9.030946984
 40
1.1662685567
100
AcDbArc
 50
181.0344431233
 51
185.0593995217
  0
ARC
  5
27D
100
AcDbEntity
  8
0
100
AcDbCircle
 62
7
  6
CONTINUOUS
 10
10.0699382425
 20
9.0309470324
 40
1.1655167221
100
AcDbArc
 50
181.0351128597
 51
185.0626740724
  0
ARC
  5
27E
100
AcDbEntity
  8
0
100
AcDbCircle
 62
7
  6
CONTINUOUS
 10
10.0328915073
 20
9.0373097369
 40
1.1284701967
100
AcDbArc
 50
181.3922267878
 51
185.5506728834
  0
ARC
  5
27F
100
AcDbEntity
  8
0
100
AcDbCircle
 62
7
  6
CONTINUOUS
 10
9.9599690754
 20
9.0310452685
 40
1.0552840751
100
AcDbArc
 50
185.5951074779
 51
185.7968518942
  0
ARC
  5
280
100
AcDbEntity
  8
0
100
AcDbCircle
 62
7
  6
CONTINUOUS
 10
9.4029834891
 20
10.4900306929
 40
0.9451388889
100
AcDbArc
 50
279.1342143409
 51
282.5269812287
  0
ARC
  5
281
100
AcDbEntity
  8
0
100
AcDbCircle
 62
7
  6
CONTINUOUS
 10
9.4029834891
 20
10.4900306929
 40
0.9451388889
100
AcDbArc
 50
257.4730187713
 51
260.867409227
  0
ARC
  5
282
100
AcDbEntity
  8
0
100
AcDbCircle
 62
7
  6
CONTINUOUS
 10
9.4029834891
 20
9.8460455714
 40
0.275
100
AcDbArc
 50
305.7906204957
 51
234.2093797439
  0
ARC
  5
283
100
AcDbEntity
  8
0
100
AcDbCircle
 62
7
  6
CONTINUOUS
 10
9.4929741105
 20
9.6493514498
 40
0.1060093786
100
AcDbArc
 50
0.0003952591
 51
2.0035856385
  0
ARC
  5
284
100
AcDbEntity
  8
0
100
AcDbCircle
 62
7
  6
CONTINUOUS
 10
9.3129925885
 20
9.6493514487
 40
0.1060090993
100
AcDbArc
 50
177.9975068519
 51
179.9996041556
  0
ARC
  5
285
100
AcDbEntity
  8
0
100
AcDbCircle
 62
9
  6
CONTINUOUS
 10
9.5004398608
 20
9.3698325833
 40
0.0985436302
100
AcDbArc
 50
351.1043336728
 51
359.9888355454
  0
ARC
  5
286
100
AcDbEntity
  8
0
100
AcDbCircle
 62
9
  6
CONTINUOUS
 10
9.3055271158
 20
9.3698325832
 40
0.0985436285
100
AcDbArc
 50
180.0111644038
 51
188.8956500807
  0
ARC
  5
287
100
AcDbEntity
  8
0
100
AcDbCircle
 62
7
  6
CONTINUOUS
 10
8.9821838361
 20
9.397391804
 40
0.03
100
AcDbArc
 50
99.9861146934
 51
165.2369687319
  0
ARC
  5
288
100
AcDbEntity
  8
0
100
AcDbCircle
 62
7
  6
CONTINUOUS
 10
12.2699846314
 20
5.8167556736
 40
0.2500109774
100
AcDbArc
 50
180.0
 51
239.7355898687
  0
ARC
  5
289
100
AcDbEntity
  8
0
100
AcDbCircle
 62
7
  6
CONTINUOUS
 10
12.0139834891
 20
6.2563136183
 40
0.25
100
AcDbArc
 50
180.0
 51
240.7907880662
  0
ARC
  5
28A
100
AcDbEntity
  8
0
100
AcDbCircle
 62
7
  6
CONTINUOUS
 10
11.7699834891
 20
5.819891804
 40
0.25
100
AcDbArc
 50
0.0594822709
 51
60.7907880662
  0
ARC
  5
28B
100
AcDbEntity
  8
0
100
AcDbCircle
 62
7
  6
CONTINUOUS
 10
12.0179834891
 20
5.384891804
 40
0.25
100
AcDbArc
 50
0.0
 51
59.7355898687
  0
ARC
  5
28C
100
AcDbEntity
  8
0
100
AcDbCircle
 62
7
  6
CONTINUOUS
 10
12.5179834891
 20
5.384891804
 40
0.25
100
AcDbArc
 50
180.0
 51
270.0
  0
ARC
  5
28D
100
AcDbEntity
  8
0
100
AcDbCircle
 62
7
  6
CONTINUOUS
 10
11.7639834891
 20
6.559891804
 40
0.095
100
AcDbArc
 50
180.0
 51
270.0
  0
ARC
  5
28E
100
AcDbEntity
  8
0
100
AcDbCircle
 62
7
  6
CONTINUOUS
 10
11.7639834891
 20
7.119891804
 40
0.095
100
AcDbArc
 50
90.0
 51
180.0
  0
ARC
  5
28F
100
AcDbEntity
  8
0
100
AcDbCircle
 62
7
  6
CONTINUOUS
 10
10.8369834891
 20
7.258891804
 40
0.031
100
AcDbArc
 50
44.7546926505
 51
90.0
  0
ARC
  5
290
100
AcDbEntity
  8
0
100
AcDbCircle
 62
7
  6
CONTINUOUS
 10
10.8369834891
 20
6.420891804
 40
0.031
100
AcDbArc
 50
270.0
 51
315.2453073495
  0
ARC
  5
291
100
AcDbEntity
  8
0
100
AcDbCircle
 62
7
  6
CONTINUOUS
 10
11.6639834891
 20
7.063891804
 40
0.012
100
AcDbArc
 50
90.0
 51
180.0
  0
ARC
  5
292
100
AcDbEntity
  8
0
100
AcDbCircle
 62
7
  6
CONTINUOUS
 10
11.6639834891
 20
6.615891804
 40
0.012
100
AcDbArc
 50
180.0
 51
270.0
  0
ARC
  5
293
100
AcDbEntity
  8
0
100
AcDbCircle
 62
7
  6
CONTINUOUS
 10
12.2699846314
 20
12.2030279345
 40
0.2500109774
100
AcDbArc
 50
120.2644101313
 51
180.0
  0
ARC
  5
294
100
AcDbEntity
  8
0
100
AcDbCircle
 62
7
  6
CONTINUOUS
 10
12.0139834891
 20
11.7634699897
 40
0.25
100
AcDbArc
 50
119.2092119338
 51
180.0
  0
ARC
  5
295
100
AcDbEntity
  8
0
100
AcDbCircle
 62
7
  6
CONTINUOUS
 10
11.7699834891
 20
12.199891804
 40
0.25
100
AcDbArc
 50
299.2092119338
 51
359.9405177291
  0
ARC
  5
296
100
AcDbEntity
  8
0
100
AcDbCircle
 62
7
  6
CONTINUOUS
 10
12.0179834891
 20
12.634891804
 40
0.25
100
AcDbArc
 50
300.2644101313
 51
360.0
  0
ARC
  5
297
100
AcDbEntity
  8
0
100
AcDbCircle
 62
7
  6
CONTINUOUS
 10
12.5179834891
 20
12.634891804
 40
0.25
100
AcDbArc
 50
90.0
 51
180.0
  0
LINE
  5
298
100
AcDbEntity
  8
0
100
AcDbLine
 62
7
  6
CONTINUOUS
 10
8.9327780929
 20
9.3173917693
 11
8.9325005219
 21
9.3159242495
  0
LINE
  5
299
100
AcDbEntity
  8
0
100
AcDbLine
 62
7
  6
CONTINUOUS
 10
8.9325005219
 20
9.3159242495
 11
8.9293632217
 21
9.2993186927
  0
SPLINE
  5
29A
100
AcDbEntity
  8
0
100
AcDbSpline
 62
7
  6
CONTINUOUS
 70
0
 71
3
 72
20
 73
16
 74
0
 42
0.0000001
 43
0.0000001
 44
0.0000000001
 40
0.0
 40
0.0
 40
0.0
 40
0.0
 40
0.0594113423
 40
0.1188905609
 40
0.1785294144
 40
0.2383968274
 40
0.2985718806
 40
0.3591334868
 40
0.4201571636
 40
0.4817175454
 40
0.5438844432
 40
0.6067204047
 40
0.7345546154
 40
0.8656046806
 40
1.0
 40
1.0
 40
1.0
 40
1.0
 10
9.5989834891
 20
9.3698133814
 30
0.0
 10
9.5989834891
 20
9.3728083049
 30
0.0
 10
9.5987459199
 20
9.3788042782
 30
0.0
 10
9.597679642
 20
9.3877494532
 30
0.0
 10
9.595912385
 20
9.3966067623
 30
0.0
 10
9.5934567251
 20
9.405334446
 30
0.0
 10
9.5903306848
 20
9.4138942932
 30
0.0
 10
9.5865553013
 20
9.4222518301
 30
0.0
 10
9.5821537006
 20
9.430376281
 30
0.0
 10
9.5771511874
 20
9.4382406547
 30
0.0
 10
9.5715734641
 20
9.4458216729
 30
0.0
 10
9.5633601333
 20
9.4555777483
 30
0.0
 10
9.5517514098
 20
9.4669667447
 30
0.0
 10
9.5360428812
 20
9.4791251393
 30
0.0
 10
9.5246092791
 20
9.4861329429
 30
0.0
 10
9.5186626697
 20
9.4893789562
 30
0.0
  0
SPLINE
  5
29B
100
AcDbEntity
  8
0
100
AcDbSpline
 62
7
  6
CONTINUOUS
 70
0
 71
3
 72
20
 73
16
 74
0
 42
0.0000001
 43
0.0000001
 44
0.0000000001
 40
0.0
 40
0.0
 40
0.0
 40
0.0
 40
0.1343992246
 40
0.2654521635
 40
0.3932878466
 40
0.4561240574
 40
0.518290804
 40
0.5798507253
 40
0.6408737117
 40
0.7014343438
 40
0.7616082937
 40
0.8214744487
 40
0.8811119483
 40
0.9405900284
 40
1.0
 40
1.0
 40
1.0
 40
1.0
 10
9.2873479975
 20
9.4894027985
 30
0.0
 10
9.2813984649
 20
9.4861570798
 30
0.0
 10
9.2699591252
 20
9.4791495279
 30
0.0
 10
9.2542423822
 20
9.4669903736
 30
0.0
 10
9.2426273406
 20
9.4555998261
 30
0.0
 10
9.2344094548
 20
9.4458419956
 30
0.0
 10
9.2288286033
 20
9.438259456
 30
0.0
 10
9.2238232322
 20
9.4303933412
 30
0.0
 10
9.2194190999
 20
9.4222669236
 30
0.0
 10
9.2156414987
 20
9.4139072284
 30
0.0
 10
9.2125135997
 20
9.4053450435
 30
0.0
 10
9.2100564701
 20
9.3966148658
 30
0.0
 10
9.2082881312
 20
9.3877549313
 30
0.0
 10
9.2072212074
 20
9.3788070406
 30
0.0
 10
9.2069834891
 20
9.3728092206
 30
0.0
 10
9.2069834891
 20
9.3698133814
 30
0.0
  0
SPLINE
  5
29C
100
AcDbEntity
  8
0
100
AcDbSpline
 62
7
  6
CONTINUOUS
 70
0
 71
3
 72
38
 73
34
 74
0
 42
0.0000001
 43
0.0000001
 44
0.0000000001
 40
0.0
 40
0.0
 40
0.0
 40
0.0
 40
0.0039174237
 40
0.0068815907
 40
0.0089084586
 40
0.0100136327
 40
0.010225363
 40
0.0102468356
 40
0.010281316
 40
0.0109740525
 40
0.012541479
 40
0.0149653826
 40
0.018227793
 40
0.0223110457
 40
0.0271977956
 40
0.0328710299
 40
0.0465093891
 40
0.0630840325
 40
0.0824492596
 40
0.1044634278
 40
0.1289890304
 40
0.1558872744
 40
0.1850187959
 40
0.2162473481
 40
0.2844655712
 40
0.3595411053
 40
0.4405178405
 40
0.5264668246
 40
0.6164347114
 40
0.709476225
 40
0.8047879568
 40
0.9018060325
 40
1.0
 40
1.0
 40
1.0
 40
1.0
 10
9.2837692355
 20
9.4817837854
 30
0.0
 10
9.2837413986
 20
9.481752459
 30
0.0
 10
9.283692978
 20
9.4816974621
 30
0.0
 10
9.2836301288
 20
9.4816243376
 30
0.0
 10
9.2835895799
 20
9.4815762687
 30
0.0
 10
9.2835646487
 20
9.4815458214
 30
0.0
 10
9.2835574257
 20
9.4815369439
 30
0.0
 10
9.2835549223
 20
9.4815337789
 30
0.0
 10
9.2835631195
 20
9.4815440743
 30
0.0
 10
9.283572369
 20
9.4815562331
 30
0.0
 10
9.2836073365
 20
9.4816018366
 30
0.0
 10
9.2836513472
 20
9.4816611139
 30
0.0
 10
9.2837139055
 20
9.4817467954
 30
0.0
 10
9.2837894774
 20
9.4818529059
 30
0.0
 10
9.2838790971
 20
9.4819816409
 30
0.0
 10
9.284024513
 20
9.4821957034
 30
0.0
 10
9.2842343952
 20
9.4825172618
 30
0.0
 10
9.2845142759
 20
9.4829677982
 30
0.0
 10
9.2848297381
 20
9.4835015824
 30
0.0
 10
9.2851747869
 20
9.484116476
 30
0.0
 10
9.2855433255
 20
9.4848103681
 30
0.0
 10
9.2859301353
 20
9.485580516
 30
0.0
 10
9.2863303414
 20
9.4864239251
 30
0.0
 10
9.2868920064
 20
9.4876796296
 30
0.0
 10
9.2875935774
 20
9.4894105637
 30
0.0
 10
9.2883939025
 20
9.491673141
 30
0.0
 10
9.2891470084
 20
9.4941509953
 30
0.0
 10
9.2898238384
 20
9.4968155011
 30
0.0
 10
9.2904073544
 20
9.4996339153
 30
0.0
 10
9.2908791537
 20
9.5025747456
 30
0.0
 10
9.2912238154
 20
9.5056091216
 30
0.0
 10
9.2914355143
 20
9.5087108291
 30
0.0
 10
9.2914834891
 20
9.510799459
 30
0.0
 10
9.2914834891
 20
9.5118499084
 30
0.0
  0
SPLINE
  5
29D
100
AcDbEntity
  8
0
100
AcDbSpline
 62
7
  6
CONTINUOUS
 70
0
 71
3
 72
32
 73
28
 74
0
 42
0.0000001
 43
0.0000001
 44
0.0000000001
 40
0.0
 40
0.0
 40
0.0
 40
0.0
 40
0.0951075675
 40
0.1890801021
 40
0.2814508366
 40
0.3717433557
 40
0.459351947
 40
0.5434508464
 40
0.62317323
 40
0.6976549681
 40
0.7660512898
 40
0.7976968537
 40
0.8274897739
 40
0.855313739
 40
0.8810482738
 40
0.9045695598
 40
0.9257508072
 40
0.9444650724
 40
0.9605904277
 40
0.9740024092
 40
0.9845724997
 40
0.9887507185
 40
0.9921690928
 40
0.9948131773
 40
0.9966688218
 40
0.9979566307
 40
1.0
 40
1.0
 40
1.0
 40
1.0
 10
9.5144834891
 20
9.5118499084
 30
0.0
 10
9.5144834891
 20
9.5108408587
 30
0.0
 10
9.5145278295
 20
9.5088345269
 30
0.0
 10
9.5147233666
 20
9.5058539871
 30
0.0
 10
9.5150415332
 20
9.5029353614
 30
0.0
 10
9.5154768825
 20
9.5001001931
 30
0.0
 10
9.5160195267
 20
9.4973730765
 30
0.0
 10
9.516651322
 20
9.4947805915
 30
0.0
 10
9.5173554135
 20
9.4923514512
 30
0.0
 10
9.5181137095
 20
9.4901140213
 30
0.0
 10
9.518783089
 20
9.4883869593
 30
0.0
 10
9.5193233417
 20
9.4871197295
 30
0.0
 10
9.5197140554
 20
9.4862569595
 30
0.0
 10
9.5200965034
 20
9.4854595376
 30
0.0
 10
9.5204659728
 20
9.4847299057
 30
0.0
 10
9.5208178189
 20
9.4840705414
 30
0.0
 10
9.5211473709
 20
9.4834838987
 30
0.0
 10
9.5214500601
 20
9.4829722998
 30
0.0
 10
9.5217201791
 20
9.4825374962
 30
0.0
 10
9.521952488
 20
9.4821806412
 30
0.0
 10
9.5221202474
 20
9.4819341113
 30
0.0
 10
9.5222320247
 20
9.4817759577
 30
0.0
 10
9.522294498
 20
9.4816894414
 30
0.0
 10
9.5223476331
 20
9.4816180846
 30
0.0
 10
9.52237755
 20
9.481577988
 30
0.0
 10
9.5224315792
 20
9.4815094474
 30
0.0
 10
9.5223838893
 20
9.4815683284
 30
0.0
 10
9.5223699542
 20
9.4815849357
 30
0.0
  0
SPLINE
  5
29E
100
AcDbEntity
  8
0
100
AcDbSpline
 62
7
  6
CONTINUOUS
 70
0
 71
3
 72
13
 73
9
 74
0
 42
0.0000001
 43
0.0000001
 44
0.0000000001
 40
0.0
 40
0.0
 40
0.0
 40
0.0
 40
0.2211801975
 40
0.3417778254
 40
0.467423662
 40
0.5969296909
 40
0.7293323943
 40
1.0
 40
1.0
 40
1.0
 40
1.0
 10
9.5181294381
 20
9.5335810732
 30
0.0
 10
9.5175732776
 20
9.5320464886
 30
0.0
 10
9.5168222943
 20
9.5296342616
 30
0.0
 10
9.5160091161
 20
9.5262813194
 30
0.0
 10
9.5154705395
 20
9.523560251
 30
0.0
 10
9.5150372729
 20
9.5207322104
 30
0.0
 10
9.5146129297
 20
9.5168240653
 30
0.0
 10
9.5144834891
 20
9.5138473712
 30
0.0
 10
9.5144834891
 20
9.5118499084
 30
0.0
  0
SPLINE
  5
29F
100
AcDbEntity
  8
0
100
AcDbSpline
 62
7
  6
CONTINUOUS
 70
0
 71
3
 72
14
 73
10
 74
0
 42
0.0000001
 43
0.0000001
 44
0.0000000001
 40
0.0
 40
0.0
 40
0.0
 40
0.0
 40
0.2708771341
 40
0.4032498052
 40
0.5326558636
 40
0.6582341809
 40
0.7788080296
 40
0.8931411007
 40
1.0
 40
1.0
 40
1.0
 40
1.0
 10
9.2914834891
 20
9.5118499084
 30
0.0
 10
9.2914834891
 20
9.5138511369
 30
0.0
 10
9.2913534162
 20
9.5168324718
 30
0.0
 10
9.2909278467
 20
9.5207454424
 30
0.0
 10
9.2904943081
 20
9.5235752135
 30
0.0
 10
9.2899538279
 20
9.5262975318
 30
0.0
 10
9.2893243716
 20
9.5288861632
 30
0.0
 10
9.2886227561
 20
9.5313124859
 30
0.0
 10
9.2880991434
 20
9.5328611444
 30
0.0
 10
9.287829612
 20
9.5336031781
 30
0.0
  0
SPLINE
  5
2A0
100
AcDbEntity
  8
0
100
AcDbSpline
 62
7
  6
CONTINUOUS
 70
0
 71
3
 72
47
 73
43
 74
0
 42
0.0000001
 43
0.0000001
 44
0.0000000001
 40
0.0
 40
0.0
 40
0.0
 40
0.0
 40
0.0135073046
 40
0.0270339822
 40
0.0406019413
 40
0.0542306614
 40
0.0679394064
 40
0.0817470438
 40
0.0956716738
 40
0.1097299883
 40
0.1382965984
 40
0.1675657769
 40
0.1976138486
 40
0.2284843631
 40
0.2601870707
 40
0.2926983581
 40
0.3259638121
 40
0.3599012931
 40
0.3944052073
 40
0.4293507886
 40
0.4645988765
 40
0.5000006268
 40
0.5354023672
 40
0.5706504241
 40
0.6055959565
 40
0.6400998022
 40
0.6740372019
 40
0.7073025582
 40
0.7398137401
 40
0.7715163334
 40
0.8023867239
 40
0.8324346752
 40
0.8617037344
 40
0.8902702377
 40
0.9043285034
 40
0.9182530893
 40
0.9320606886
 40
0.9457694008
 40
0.9593980899
 40
0.9729660306
 40
0.9864927105
 40
1.0
 40
1.0
 40
1.0
 40
1.0
 10
9.2069834891
 20
9.6493521811
 30
0.0
 10
9.2069834891
 20
9.6469373331
 30
0.0
 10
9.2071489256
 20
9.6421025533
 30
0.0
 10
9.2078916791
 20
9.6348764458
 30
0.0
 10
9.2091260076
 20
9.6276956024
 30
0.0
 10
9.2108462036
 20
9.6205821492
 30
0.0
 10
9.2130450455
 20
9.6135569879
 30
0.0
 10
9.2157134922
 20
9.6066399614
 30
0.0
 10
9.2188411402
 20
9.5998491766
 30
0.0
 10
9.2236327205
 20
9.5909406873
 30
0.0
 10
9.230740369
 20
9.5801926087
 30
0.0
 10
9.2408540945
 20
9.5681286678
 30
0.0
 10
9.2524840443
 20
9.5569195154
 30
0.0
 10
9.2655070863
 20
9.5466511355
 30
0.0
 10
9.2797952189
 20
9.5373986246
 30
0.0
 10
9.2952135593
 20
9.5292302246
 30
0.0
 10
9.3116198538
 20
9.5222070706
 30
0.0
 10
9.3288641417
 20
9.5163829768
 30
0.0
 10
9.346789057
 20
9.5118036257
 30
0.0
 10
9.3652307014
 20
9.5085056913
 30
0.0
 10
9.3840199034
 20
9.5065160152
 30
0.0
 10
9.402983824
 20
9.5058509718
 30
0.0
 10
9.4219477374
 20
9.5065160636
 30
0.0
 10
9.4407369183
 20
9.5085057855
 30
0.0
 10
9.4591785283
 20
9.5118037613
 30
0.0
 10
9.477103398
 20
9.5163831473
 30
0.0
 10
9.4943476303
 20
9.5222072675
 30
0.0
 10
9.5107538618
 20
9.5292304388
 30
0.0
 10
9.5261721347
 20
9.5373988447
 30
0.0
 10
9.5404601959
 20
9.5466513526
 30
0.0
 10
9.5534831674
 20
9.5569197181
 30
0.0
 10
9.5651130501
 20
9.568128846
 30
0.0
 10
9.5752267174
 20
9.5801927546
 30
0.0
 10
9.5823343251
 20
9.5909408007
 30
0.0
 10
9.5871258815
 20
9.5998492623
 30
0.0
 10
9.5902535134
 20
9.6066400287
 30
0.0
 10
9.5929219512
 20
9.6135570366
 30
0.0
 10
9.5951207821
 20
9.6205821822
 30
0.0
 10
9.596840976
 20
9.6276956208
 30
0.0
 10
9.5980753004
 20
9.6348764564
 30
0.0
 10
9.5988180524
 20
9.6421025583
 30
0.0
 10
9.5989834891
 20
9.6469373358
 30
0.0
 10
9.5989834891
 20
9.6493521811
 30
0.0
  0
SPLINE
  5
2A1
100
AcDbEntity
  8
0
100
AcDbSpline
 62
7
  6
CONTINUOUS
 70
0
 71
3
 72
20
 73
16
 74
0
 42
0.0000001
 43
0.0000001
 44
0.0000000001
 40
0.0
 40
0.0
 40
0.0
 40
0.0
 40
0.0594071999
 40
0.1188836268
 40
0.1785190635
 40
0.2383833869
 40
0.2985559457
 40
0.3591153361
 40
0.4201376809
 40
0.481697252
 40
0.5438639998
 40
0.6067009325
 40
0.7345388407
 40
0.8655957716
 40
1.0
 40
1.0
 40
1.0
 40
1.0
 10
9.2069834891
 20
8.6499702266
 30
0.0
 10
9.2069834891
 20
8.6469732962
 30
0.0
 10
9.2072213785
 20
8.6409732331
 30
0.0
 10
9.208289092
 20
8.6320220297
 30
0.0
 10
9.2100587697
 20
8.6231588563
 30
0.0
 10
9.2125176839
 20
8.6144255804
 30
0.0
 10
9.2156478951
 20
8.6058604845
 30
0.0
 10
9.2194282666
 20
8.597498082
 30
0.0
 10
9.2238355316
 20
8.5893691648
 30
0.0
 10
9.2288444892
 20
8.5815008441
 30
0.0
 10
9.2344292755
 20
8.5739163707
 30
0.0
 10
9.2426528553
 20
8.5641562819
 30
0.0
 10
9.254275855
 20
8.5527637701
 30
0.0
 10
9.2700028853
 20
8.5406036211
 30
0.0
 10
9.2814494174
 20
8.5335963667
 30
0.0
 10
9.2874026107
 20
8.5303510165
 30
0.0
  0
SPLINE
  5
2A2
100
AcDbEntity
  8
0
100
AcDbSpline
 62
7
  6
CONTINUOUS
 70
0
 71
3
 72
20
 73
16
 74
0
 42
0.0000001
 43
0.0000001
 44
0.0000000001
 40
0.0
 40
0.0
 40
0.0
 40
0.0
 40
0.1344069444
 40
0.2654658119
 40
0.3933046777
 40
0.4561417308
 40
0.5183083519
 40
0.579867592
 40
0.6408894166
 40
0.7014481464
 40
0.7616199332
 40
0.8214834278
 40
0.8811179831
 40
0.9405935634
 40
1.0
 40
1.0
 40
1.0
 40
1.0
 10
9.5185339926
 20
8.5303344602
 30
0.0
 10
9.5244892214
 20
8.5335795979
 30
0.0
 10
9.5359397369
 20
8.5405866788
 30
0.0
 10
9.5516724716
 20
8.55274735
 30
0.0
 10
9.563299856
 20
8.5641409324
 30
0.0
 10
9.5715266031
 20
8.5739022297
 30
0.0
 10
9.5771135657
 20
8.5814877537
 30
0.0
 10
9.582124502
 20
8.5893572844
 30
0.0
 10
9.5865335376
 20
8.59748756
 30
0.0
 10
9.59031545
 20
8.6058514615
 30
0.0
 10
9.5934469524
 20
8.6144181848
 30
0.0
 10
9.5959068995
 20
8.623153196
 30
0.0
 10
9.5976773274
 20
8.6320181971
 30
0.0
 10
9.5987454943
 20
8.6409712969
 30
0.0
 10
9.5989834891
 20
8.6469726502
 30
0.0
 10
9.5989834891
 20
8.6499702266
 30
0.0
  0
SPLINE
  5
2A3
100
AcDbEntity
  8
0
100
AcDbSpline
 62
7
  6
CONTINUOUS
 70
0
 71
3
 72
42
 73
38
 74
0
 42
0.0000001
 43
0.0000001
 44
0.0000000001
 40
0.0
 40
0.0
 40
0.0
 40
0.0
 40
0.0008621106
 40
0.0009050158
 40
0.0009303509
 40
0.0011841216
 40
0.0024907561
 40
0.004836524
 40
0.0081904488
 40
0.0125223393
 40
0.017802828
 40
0.0240020418
 40
0.0310879975
 40
0.0390289677
 40
0.04779387
 40
0.0573523165
 40
0.0787297568
 40
0.102920837
 40
0.1296886272
 40
0.1588051503
 40
0.1900496353
 40
0.2232061359
 40
0.2580648401
 40
0.2944246518
 40
0.3320928662
 40
0.3708800018
 40
0.4106003342
 40
0.4510740655
 40
0.492127383
 40
0.5335872677
 40
0.5752817575
 40
0.6170411462
 40
0.7000687899
 40
0.7813112483
 40
0.8593726094
 40
0.9327831084
 40
1.0
 40
1.0
 40
1.0
 40
1.0
 10
9.522380912
 20
8.5382117853
 30
0.0
 10
9.5223907941
 20
8.5382236735
 30
0.0
 10
9.5223950817
 20
8.5382285398
 30
0.0
 10
9.5224123532
 20
8.5382501996
 30
0.0
 10
9.5224073284
 20
8.5382438953
 30
0.0
 10
9.5223933322
 20
8.5382257817
 30
0.0
 10
9.5223466677
 20
8.5381647083
 30
0.0
 10
9.5222747821
 20
8.5380669819
 30
0.0
 10
9.5221689306
 20
8.5379190937
 30
0.0
 10
9.5220371967
 20
8.5377284346
 30
0.0
 10
9.5218796205
 20
8.5374923734
 30
0.0
 10
9.5216994737
 20
8.5372125055
 30
0.0
 10
9.5214985508
 20
8.5368891806
 30
0.0
 10
9.5212791535
 20
8.5365232784
 30
0.0
 10
9.5210434255
 20
8.5361155243
 30
0.0
 10
9.5206971287
 20
8.5354934905
 30
0.0
 10
9.5202385681
 20
8.53461754
 30
0.0
 10
9.5196739756
 20
8.5334495088
 30
0.0
 10
9.5190906969
 20
8.532137138
 30
0.0
 10
9.5185035914
 20
8.5306889676
 30
0.0
 10
9.5179239953
 20
8.5291150755
 30
0.0
 10
9.5173625059
 20
8.5274257361
 30
0.0
 10
9.5168300344
 20
8.5256310948
 30
0.0
 10
9.516336818
 20
8.5237415234
 30
0.0
 10
9.5158890749
 20
8.5217683662
 30
0.0
 10
9.5154933629
 20
8.5197226938
 30
0.0
 10
9.515156174
 20
8.5176155745
 30
0.0
 10
9.5148837913
 20
8.5154581317
 30
0.0
 10
9.5146782636
 20
8.5132619761
 30
0.0
 10
9.5145418683
 20
8.5110385174
 30
0.0
 10
9.5144766304
 20
8.5087991277
 30
0.0
 10
9.5144881635
 20
8.5058133918
 30
0.0
 10
9.5146824051
 20
8.5021212708
 30
0.0
 10
9.5151865407
 20
8.4978021683
 30
0.0
 10
9.5159425433
 20
8.4936952207
 30
0.0
 10
9.5168959231
 20
8.4898887383
 30
0.0
 10
9.5176685163
 20
8.4874860773
 30
0.0
 10
9.5180759028
 20
8.4863516936
 30
0.0
  0
SPLINE
  5
2A4
100
AcDbEntity
  8
0
100
AcDbSpline
 62
7
  6
CONTINUOUS
 70
0
 71
3
 72
26
 73
22
 74
0
 42
0.0000001
 43
0.0000001
 44
0.0000000001
 40
0.0
 40
0.0
 40
0.0
 40
0.0
 40
0.0270684273
 40
0.0541580119
 40
0.0813110359
 40
0.10856892
 40
0.1359726783
 40
0.163561721
 40
0.191374014
 40
0.2194453992
 40
0.2764700099
 40
0.334891684
 40
0.3948789438
 40
0.4565323072
 40
0.5198812417
 40
0.5848849848
 40
0.6514371534
 40
0.7193726693
 40
0.7884761388
 40
0.8584919725
 40
1.0
 40
1.0
 40
1.0
 40
1.0
 10
9.598920225
 20
8.3667703953
 30
0.0
 10
9.5990048725
 20
8.3692213679
 30
0.0
 10
9.5990041627
 20
8.3741328185
 30
0.0
 10
9.5984913273
 20
8.3814874563
 30
0.0
 10
9.5974696878
 20
8.3888064561
 30
0.0
 10
9.5959434574
 20
8.3960659705
 30
0.0
 10
9.5939200155
 20
8.4032438325
 30
0.0
 10
9.5914077126
 20
8.4103186113
 30
0.0
 10
9.5884169904
 20
8.4172707465
 30
0.0
 10
9.5837840096
 20
8.4263975289
 30
0.0
 10
9.5768261059
 20
8.4374230204
 30
0.0
 10
9.5668181872
 20
8.4498130775
 30
0.0
 10
9.5552264941
 20
8.4613356249
 30
0.0
 10
9.5421793018
 20
8.4718989232
 30
0.0
 10
9.5278099583
 20
8.4814232357
 30
0.0
 10
9.5122590185
 20
8.4898362258
 30
0.0
 10
9.4956745918
 20
8.4970731639
 30
0.0
 10
9.4782137134
 20
8.5030769227
 30
0.0
 10
9.4600385184
 20
8.5077993446
 30
0.0
 10
9.4350077432
 20
8.5123494169
 30
0.0
 10
9.415804296
 20
8.5137106476
 30
0.0
 10
9.4029834891
 20
8.5137106476
 30
0.0
  0
SPLINE
  5
2A5
100
AcDbEntity
  8
0
100
AcDbSpline
 62
7
  6
CONTINUOUS
 70
0
 71
3
 72
24
 73
20
 74
0
 42
0.0000001
 43
0.0000001
 44
0.0000000001
 40
0.0
 40
0.0
 40
0.0
 40
0.0
 40
0.0642280328
 40
0.1341576971
 40
0.208443499
 40
0.2857991206
 40
0.444785503
 40
0.5241184354
 40
0.6017320554
 40
0.6764107607
 40
0.7468751346
 40
0.8117863059
 40
0.8697155284
 40
0.9191416224
 40
0.9584576349
 40
0.9738006642
 40
0.9859848054
 40
0.9947907934
 40
1.0
 40
1.0
 40
1.0
 40
1.0
 10
9.2879033278
 20
8.4863856217
 30
0.0
 10
9.288290543
 20
8.4874664336
 30
0.0
 10
9.2890274149
 20
8.4897504261
 30
0.0
 10
9.2899476162
 20
8.49336323
 30
0.0
 10
9.2906914117
 20
8.4972561204
 30
0.0
 10
9.2913908085
 20
8.5027670698
 30
0.0
 10
9.2915841402
 20
8.5084237997
 30
0.0
 10
9.2912526755
 20
8.5140640081
 30
0.0
 10
9.2907591825
 20
8.5181776786
 30
0.0
 10
9.2900369514
 20
8.5220959426
 30
0.0
 10
9.2891341235
 20
8.5257430005
 30
0.0
 10
9.2880943445
 20
8.5290404716
 30
0.0
 10
9.2869921652
 20
8.5319178615
 30
0.0
 10
9.2859030578
 20
8.5343044267
 30
0.0
 10
9.2850307036
 20
8.5359492658
 30
0.0
 10
9.2844184269
 20
8.5369754977
 30
0.0
 10
9.2840690874
 20
8.5375231139
 30
0.0
 10
9.2838058128
 20
8.5379104977
 30
0.0
 10
9.2836587955
 20
8.5381134062
 30
0.0
 10
9.2836026177
 20
8.5381876655
 30
0.0
  0
SPLINE
  5
2A6
100
AcDbEntity
  8
0
100
AcDbSpline
 62
7
  6
CONTINUOUS
 70
0
 71
3
 72
26
 73
22
 74
0
 42
0.0000001
 43
0.0000001
 44
0.0000000001
 40
0.0
 40
0.0
 40
0.0
 40
0.0
 40
0.1415119039
 40
0.2115293182
 40
0.2806339616
 40
0.3485701624
 40
0.4151224779
 40
0.480125822
 40
0.5434738542
 40
0.6051258989
 40
0.665111576
 40
0.7235315847
 40
0.7805546693
 40
0.8086253977
 40
0.8364372083
 40
0.8640258713
 40
0.8914294731
 40
0.918687385
 40
0.9458406763
 40
0.9729307787
 40
1.0
 40
1.0
 40
1.0
 40
1.0
 10
9.4029834891
 20
8.5137106476
 30
0.0
 10
9.3901600939
 20
8.5137106476
 30
0.0
 10
9.3709527837
 20
8.5123488697
 30
0.0
 10
9.3459172115
 20
8.5077969646
 30
0.0
 10
9.3277387874
 20
8.5030726662
 30
0.0
 10
9.3102751102
 20
8.4970665517
 30
0.0
 10
9.2936884047
 20
8.4898268171
 30
0.0
 10
9.27813579
 20
8.4814106339
 30
0.0
 10
9.2637654528
 20
8.4718827804
 30
0.0
 10
9.2507180186
 20
8.4613156476
 30
0.0
 10
9.2391269053
 20
8.4497890321
 30
0.0
 10
9.2291204477
 20
8.43739475
 30
0.0
 10
9.2221645855
 20
8.4263656686
 30
0.0
 10
9.2175337008
 20
8.4172360859
 30
0.0
 10
9.2145448312
 20
8.4102818627
 30
0.0
 10
9.2120345824
 20
8.4032050599
 30
0.0
 10
9.2100134744
 20
8.3960252317
 30
0.0
 10
9.208489828
 20
8.3887638371
 30
0.0
 10
9.2074709611
 20
8.3814430704
 30
0.0
 10
9.2069612124
 20
8.3740867828
 30
0.0
 10
9.2069626308
 20
8.3691743551
 30
0.0
 10
9.2070483934
 20
8.3667229211
 30
0.0
  0
LINE
  5
2A7
100
AcDbEntity
  8
0
100
AcDbLine
 62
7
  6
CONTINUOUS
 10
8.9293632217
 20
9.2993186927
 11
8.9290290249
 21
9.2975421365
  0
SPLINE
  5
2A8
100
AcDbEntity
  8
0
100
AcDbSpline
 62
7
  6
CONTINUOUS
 70
0
 71
3
 72
11
 73
7
 74
0
 42
0.0000001
 43
0.0000001
 44
0.0000000001
 40
0.0
 40
0.0
 40
0.0
 40
0.0
 40
0.2563731067
 40
0.5094575721
 40
0.7577975859
 40
1.0
 40
1.0
 40
1.0
 40
1.0
 10
8.9290290249
 20
9.2975421365
 30
0.0
 10
8.9244751237
 20
9.273253854
 30
0.0
 10
8.9166103863
 20
9.2247575599
 30
0.0
 10
8.9085567664
 20
9.1521286254
 30
0.0
 10
8.9043663343
 20
9.0805417957
 30
0.0
 10
8.9041702683
 20
9.0332301065
 30
0.0
 10
8.9047544403
 20
9.009891804
 30
0.0
  0
SPLINE
  5
2A9
100
AcDbEntity
  8
0
100
AcDbSpline
 62
7
  6
CONTINUOUS
 70
0
 71
3
 72
15
 73
11
 74
0
 42
0.0000001
 43
0.0000001
 44
0.0000000001
 40
0.0
 40
0.0
 40
0.0
 40
0.0
 40
0.1309050332
 40
0.2696500303
 40
0.4114846465
 40
0.5514875288
 40
0.6847816476
 40
0.806703208
 40
0.9129981094
 40
1.0
 40
1.0
 40
1.0
 40
1.0
 10
8.9100814488
 20
8.9244598531
 30
0.0
 10
8.9101685269
 20
8.9236021406
 30
0.0
 10
8.9103311956
 20
8.9218336292
 30
0.0
 10
8.9105375056
 20
8.9191314247
 30
0.0
 10
8.9107084803
 20
8.9163667154
 30
0.0
 10
8.9108380601
 20
8.9136356916
 30
0.0
 10
8.9109217207
 20
8.9110340796
 30
0.0
 10
8.9109568683
 20
8.9086533142
 30
0.0
 10
8.9109426267
 20
8.9065772453
 30
0.0
 10
8.9108970379
 20
8.9053046418
 30
0.0
 10
8.9108613252
 20
8.9047327741
 30
0.0
  0
LINE
  5
2AA
100
AcDbEntity
  8
0
100
AcDbLine
 62
7
  6
CONTINUOUS
 10
8.9108613252
 20
8.9047327741
 11
8.910759171
 21
8.9035765706
  0
SPLINE
  5
2AB
100
AcDbEntity
  8
0
100
AcDbSpline
 62
7
  6
CONTINUOUS
 70
0
 71
3
 72
16
 73
12
 74
0
 42
0.0000001
 43
0.0000001
 44
0.0000000001
 40
0.0
 40
0.0
 40
0.0
 40
0.0
 40
0.4038439757
 40
0.5655394847
 40
0.7003298027
 40
0.8086508124
 40
0.8917194426
 40
0.9246891983
 40
0.9528139365
 40
0.977312395
 40
1.0
 40
1.0
 40
1.0
 40
1.0
 10
8.910759171
 20
8.9035765706
 30
0.0
 10
8.9107378076
 20
8.9034043206
 30
0.0
 10
8.9107031202
 20
8.9031634784
 30
0.0
 10
8.9106408845
 20
8.9028688975
 30
0.0
 10
8.9105950753
 20
8.9027008644
 30
0.0
 10
8.9105468131
 20
8.9025691132
 30
0.0
 10
8.9105017519
 20
8.9024830736
 30
0.0
 10
8.9104627517
 20
8.9024346448
 30
0.0
 10
8.9104348306
 20
8.9024102971
 30
0.0
 10
8.9104057269
 20
8.9023952516
 30
0.0
 10
8.9103853124
 20
8.9023918409
 30
0.0
 10
8.9103755614
 20
8.9023918441
 30
0.0
  0
SPLINE
  5
2AC
100
AcDbEntity
  8
0
100
AcDbSpline
 62
7
  6
CONTINUOUS
 70
0
 71
3
 72
21
 73
17
 74
0
 42
0.0000001
 43
0.0000001
 44
0.0000000001
 40
0.0
 40
0.0
 40
0.0
 40
0.0
 40
0.0625015542
 40
0.1250048167
 40
0.1875066481
 40
0.2500091988
 40
0.3125116405
 40
0.3750141413
 40
0.437516728
 40
0.500019403
 40
0.5625221681
 40
0.6250249632
 40
0.687527785
 40
0.7500308253
 40
0.8750140981
 40
1.0
 40
1.0
 40
1.0
 40
1.0
 10
10.6297916394
 20
9.6744334881
 30
0.0
 10
10.6495963746
 20
9.6788295345
 30
0.0
 10
10.6890149553
 20
9.6885108076
 30
0.0
 10
10.7474339462
 20
9.7056448061
 30
0.0
 10
10.8050427289
 20
9.7253355809
 30
0.0
 10
10.861737572
 20
9.747518195
 30
0.0
 10
10.9174236323
 20
9.7721234674
 30
0.0
 10
10.9720114682
 20
9.7990764915
 30
0.0
 10
11.0254186444
 20
9.8282984315
 30
0.0
 10
11.077569235
 20
9.8597072205
 30
0.0
 10
11.1283939117
 20
9.8932184363
 30
0.0
 10
11.1778295022
 20
9.9287457962
 30
0.0
 10
11.2258200172
 20
9.96620267
 30
0.0
 10
11.2878039846
 20
10.0185931515
 30
0.0
 10
11.3614444888
 20
10.0884796156
 30
0.0
 10
11.4160421046
 20
10.1486079906
 30
0.0
 10
11.4422153624
 20
10.1796034494
 30
0.0
  0
SPLINE
  5
2AD
100
AcDbEntity
  8
0
100
AcDbSpline
 62
7
  6
CONTINUOUS
 70
0
 71
3
 72
21
 73
17
 74
0
 42
0.0000001
 43
0.0000001
 44
0.0000000001
 40
0.0
 40
0.0
 40
0.0
 40
0.0
 40
0.0625015542
 40
0.1250048167
 40
0.1875066481
 40
0.2500091988
 40
0.3125116405
 40
0.3750141413
 40
0.437516728
 40
0.500019403
 40
0.5625221681
 40
0.6250249632
 40
0.687527785
 40
0.7500308253
 40
0.8750140981
 40
1.0
 40
1.0
 40
1.0
 40
1.0
 10
10.6297916394
 20
8.34535012
 30
0.0
 10
10.6495963746
 20
8.3409540736
 30
0.0
 10
10.6890149553
 20
8.3312728005
 30
0.0
 10
10.7474339462
 20
8.314138802
 30
0.0
 10
10.8050427289
 20
8.2944480272
 30
0.0
 10
10.861737572
 20
8.2722654131
 30
0.0
 10
10.9174236323
 20
8.2476601407
 30
0.0
 10
10.9720114682
 20
8.2207071166
 30
0.0
 10
11.0254186444
 20
8.1914851766
 30
0.0
 10
11.077569235
 20
8.1600763876
 30
0.0
 10
11.1283939117
 20
8.1265651718
 30
0.0
 10
11.1778295022
 20
8.0910378119
 30
0.0
 10
11.2258200172
 20
8.0535809381
 30
0.0
 10
11.2878039846
 20
8.0011904566
 30
0.0
 10
11.3614444888
 20
7.9313039925
 30
0.0
 10
11.4160421046
 20
7.8711756174
 30
0.0
 10
11.4422153624
 20
7.8401801587
 30
0.0
  0
LINE
  5
2AE
100
AcDbEntity
  8
0
100
AcDbLine
 62
7
  6
CONTINUOUS
 10
8.9326775619
 20
9.3168602921
 11
8.9327780929
 21
9.3173917693
  0
SPLINE
  5
2AF
100
AcDbEntity
  8
0
100
AcDbSpline
 62
7
  6
CONTINUOUS
 70
0
 71
3
 72
11
 73
7
 74
0
 42
0.0000001
 43
0.0000001
 44
0.0000000001
 40
0.0
 40
0.0
 40
0.0
 40
0.0
 40
0.4765282215
 40
0.6032303087
 40
0.7327904118
 40
1.0
 40
1.0
 40
1.0
 40
1.0
 10
9.1979834891
 20
8.6156797735
 30
0.0
 10
9.1979834891
 20
8.6241737227
 30
0.0
 10
9.1993194233
 20
8.6349575512
 30
0.0
 10
9.2024033581
 20
8.6476470527
 30
0.0
 10
9.2050188705
 20
8.6566075583
 30
0.0
 10
9.2074464083
 20
8.6632611888
 30
0.0
 10
9.2092516778
 20
8.6676687262
 30
0.0
  0
SPLINE
  5
2B0
100
AcDbEntity
  8
0
100
AcDbSpline
 62
7
  6
CONTINUOUS
 70
0
 71
3
 72
39
 73
35
 74
0
 42
0.0000001
 43
0.0000001
 44
0.0000000001
 40
0.0
 40
0.0
 40
0.0
 40
0.0
 40
0.0280091941
 40
0.0568638563
 40
0.0864473013
 40
0.1166465288
 40
0.1473571754
 40
0.1784860782
 40
0.2099521085
 40
0.2416860308
 40
0.2736297699
 40
0.3057350237
 40
0.3379622321
 40
0.3702792691
 40
0.4026603797
 40
0.4350848997
 40
0.4675361188
 40
0.5000000001
 40
0.5324638814
 40
0.5649151005
 40
0.5973396207
 40
0.6297207314
 40
0.6620377684
 40
0.6942649768
 40
0.7263702305
 40
0.7583139696
 40
0.7900478919
 40
0.8215139221
 40
0.8526428249
 40
0.8833534715
 40
0.9135526988
 40
0.9431361438
 40
0.9719908058
 40
1.0
 40
1.0
 40
1.0
 40
1.0
 10
9.2092516778
 20
8.6676687262
 30
0.0
 10
9.2110282709
 20
8.6720062507
 30
0.0
 10
9.2149740415
 20
8.6806766848
 30
0.0
 10
9.2218810886
 20
8.6934000203
 30
0.0
 10
9.229814944
 20
8.7059457498
 30
0.0
 10
9.238718618
 20
8.7182080721
 30
0.0
 10
9.2485396557
 20
8.7300863082
 30
0.0
 10
9.2592299879
 20
8.7414814072
 30
0.0
 10
9.2707456141
 20
8.7522943013
 30
0.0
 10
9.283045087
 20
8.7624236352
 30
0.0
 10
9.2960871107
 20
8.7717639577
 30
0.0
 10
9.3098271963
 20
8.7802047021
 30
0.0
 10
9.3242134609
 20
8.78763058
 30
0.0
 10
9.3391820551
 20
8.7939239318
 30
0.0
 10
9.3546527627
 20
8.7989694936
 30
0.0
 10
9.3705258572
 20
8.8026619417
 30
0.0
 10
9.386681602
 20
8.8049153523
 30
0.0
 10
9.4029834899
 20
8.805673107
 30
0.0
 10
9.4192853779
 20
8.8049153522
 30
0.0
 10
9.4354411227
 20
8.8026619414
 30
0.0
 10
9.4513142172
 20
8.7989694931
 30
0.0
 10
9.4667849248
 20
8.7939239312
 30
0.0
 10
9.481753519
 20
8.7876305792
 30
0.0
 10
9.4961397835
 20
8.7802047012
 30
0.0
 10
9.509879869
 20
8.7717639568
 30
0.0
 10
9.5229218927
 20
8.7624236341
 30
0.0
 10
9.5352213654
 20
8.7522943002
 30
0.0
 10
9.5467369916
 20
8.741481406
 30
0.0
 10
9.5574273236
 20
8.730086307
 30
0.0
 10
9.5672483613
 20
8.7182080708
 30
0.0
 10
9.5761520352
 20
8.7059457485
 30
0.0
 10
9.5840858905
 20
8.693400019
 30
0.0
 10
9.5909929374
 20
8.6806766834
 30
0.0
 10
9.5949387079
 20
8.6720062493
 30
0.0
 10
9.596715301
 20
8.6676687248
 30
0.0
  0
SPLINE
  5
2B1
100
AcDbEntity
  8
0
100
AcDbSpline
 62
7
  6
CONTINUOUS
 70
0
 71
3
 72
11
 73
7
 74
0
 42
0.0000001
 43
0.0000001
 44
0.0000000001
 40
0.0
 40
0.0
 40
0.0
 40
0.0
 40
0.2672095875
 40
0.3967696975
 40
0.5234717828
 40
1.0
 40
1.0
 40
1.0
 40
1.0
 10
9.596715301
 20
8.6676687248
 30
0.0
 10
9.5985205704
 20
8.6632611875
 30
0.0
 10
9.6009481083
 20
8.6566075571
 30
0.0
 10
9.6035636204
 20
8.6476470516
 30
0.0
 10
9.6066475551
 20
8.6349575505
 30
0.0
 10
9.6079834891
 20
8.6241737224
 30
0.0
 10
9.6079834891
 20
8.6156797735
 30
0.0
  0
SPLINE
  5
2B2
100
AcDbEntity
  8
0
100
AcDbSpline
 62
7
  6
CONTINUOUS
 70
0
 71
3
 72
11
 73
7
 74
0
 42
0.0000001
 43
0.0000001
 44
0.0000000001
 40
0.0
 40
0.0
 40
0.0
 40
0.0
 40
0.4765282362
 40
0.6032303256
 40
0.7327904228
 40
1.0
 40
1.0
 40
1.0
 40
1.0
 10
9.6079834891
 20
9.4041038346
 30
0.0
 10
9.6079834891
 20
9.3956099036
 30
0.0
 10
9.6066475606
 20
9.3848260983
 30
0.0
 10
9.6035636381
 20
9.3721366227
 30
0.0
 10
9.6009481357
 20
9.3631761355
 30
0.0
 10
9.5985206072
 20
9.3565225183
 30
0.0
 10
9.5967153445
 20
9.3521149895
 30
0.0
  0
SPLINE
  5
2B3
100
AcDbEntity
  8
0
100
AcDbSpline
 62
7
  6
CONTINUOUS
 70
0
 71
3
 72
39
 73
35
 74
0
 42
0.0000001
 43
0.0000001
 44
0.0000000001
 40
0.0
 40
0.0
 40
0.0
 40
0.0
 40
0.0280091886
 40
0.0568638484
 40
0.086447288
 40
0.1166465145
 40
0.1473571599
 40
0.1784860623
 40
0.2099520962
 40
0.2416860188
 40
0.27362976
 40
0.3057350158
 40
0.3379622256
 40
0.3702792638
 40
0.4026603744
 40
0.4350848949
 40
0.4675361161
 40
0.5
 40
0.5324638839
 40
0.564915105
 40
0.5973396254
 40
0.6297207362
 40
0.6620377743
 40
0.6942649842
 40
0.7263702399
 40
0.7583139811
 40
0.7900479037
 40
0.8215139375
 40
0.85264284
 40
0.8833534854
 40
0.9135527119
 40
0.9431361516
 40
0.9719908114
 40
1.0
 40
1.0
 40
1.0
 40
1.0
 10
9.5967153445
 20
9.3521149895
 30
0.0
 10
9.5949387538
 20
9.3477774627
 30
0.0
 10
9.5909929869
 20
9.3391070235
 30
0.0
 10
9.5840859443
 20
9.3263836806
 30
0.0
 10
9.5761520919
 20
9.3138379428
 30
0.0
 10
9.5672484196
 20
9.3015756123
 30
0.0
 10
9.5574273822
 20
9.2896973672
 30
0.0
 10
9.5467370488
 20
9.2783022591
 30
0.0
 10
9.5352214203
 20
9.2674893559
 30
0.0
 10
9.522921944
 20
9.2573600132
 30
0.0
 10
9.5098799162
 20
9.2480196825
 30
0.0
 10
9.4961398256
 20
9.2395789304
 30
0.0
 10
9.4817535553
 20
9.2321530457
 30
0.0
 10
9.466784955
 20
9.225859688
 30
0.0
 10
9.4513142408
 20
9.2208141213
 30
0.0
 10
9.435441139
 20
9.2171216694
 30
0.0
 10
9.4192853861
 20
9.2148682564
 30
0.0
 10
9.4029834895
 20
9.2141105008
 30
0.0
 10
9.3866815928
 20
9.2148682564
 30
0.0
 10
9.3705258399
 20
9.2171216693
 30
0.0
 10
9.3546527381
 20
9.2208141211
 30
0.0
 10
9.339182024
 20
9.2258596878
 30
0.0
 10
9.3242134236
 20
9.2321530453
 30
0.0
 10
9.3098271533
 20
9.2395789301
 30
0.0
 10
9.2960870627
 20
9.2480196821
 30
0.0
 10
9.2830450349
 20
9.2573600128
 30
0.0
 10
9.2707455585
 20
9.2674893554
 30
0.0
 10
9.25922993
 20
9.2783022586
 30
0.0
 10
9.2485395966
 20
9.2896973666
 30
0.0
 10
9.2387185591
 20
9.3015756117
 30
0.0
 10
9.2298148868
 20
9.3138379422
 30
0.0
 10
9.2218810343
 20
9.32638368
 30
0.0
 10
9.2149739917
 20
9.3391070229
 30
0.0
 10
9.2110282248
 20
9.347777462
 30
0.0
 10
9.209251634
 20
9.3521149889
 30
0.0
  0
SPLINE
  5
2B4
100
AcDbEntity
  8
0
100
AcDbSpline
 62
7
  6
CONTINUOUS
 70
0
 71
3
 72
11
 73
7
 74
0
 42
0.0000001
 43
0.0000001
 44
0.0000000001
 40
0.0
 40
0.0
 40
0.0
 40
0.0
 40
0.2672095767
 40
0.396769673
 40
0.5234717619
 40
1.0
 40
1.0
 40
1.0
 40
1.0
 10
9.209251634
 20
9.3521149889
 30
0.0
 10
9.2074463713
 20
9.3565225177
 30
0.0
 10
9.2050188427
 20
9.3631761349
 30
0.0
 10
9.2024033403
 20
9.3721366221
 30
0.0
 10
9.1993194177
 20
9.3848260979
 30
0.0
 10
9.1979834891
 20
9.3956099034
 30
0.0
 10
9.1979834891
 20
9.4041038345
 30
0.0
  0
SPLINE
  5
2B5
100
AcDbEntity
  8
0
100
AcDbSpline
 62
7
  6
CONTINUOUS
 70
0
 71
3
 72
8
 73
4
 74
0
 42
0.0000001
 43
0.0000001
 44
0.0000000001
 40
0.0
 40
0.0
 40
0.0
 40
0.0
 40
1.0
 40
1.0
 40
1.0
 40
1.0
 10
8.9024225989
 20
8.9741056256
 30
0.0
 10
8.9024230724
 20
8.9740923756
 30
0.0
 10
8.902423546
 20
8.9740791257
 30
0.0
 10
8.9024240196
 20
8.9740658757
 30
0.0
  0
LINE
  5
2B6
100
AcDbEntity
  8
0
100
AcDbLine
 62
7
  6
CONTINUOUS
 10
8.9053680809
 20
8.9426363844
 11
8.905390339
 21
8.9424898633
  0
SPLINE
  5
2B7
100
AcDbEntity
  8
0
100
AcDbSpline
 62
9
  6
CONTINUOUS
 70
0
 71
3
 72
23
 73
19
 74
0
 42
0.0000001
 43
0.0000001
 44
0.0000000001
 40
0.0
 40
0.0
 40
0.0
 40
0.0
 40
0.1169601393
 40
0.14731535
 40
0.178060204
 40
0.240598909
 40
0.3043477388
 40
0.3690325921
 40
0.4343549174
 40
0.5
 40
0.5656450826
 40
0.6309674079
 40
0.6956522612
 40
0.759401091
 40
0.821939796
 40
0.85268465
 40
0.8830398607
 40
1.0
 40
1.0
 40
1.0
 40
1.0
 10
9.2421566502
 20
9.6229766922
 30
0.0
 10
9.2529313714
 20
9.6152083331
 30
0.0
 10
9.2674886386
 20
9.6067179401
 30
0.0
 10
9.2858981517
 20
9.5983533592
 30
0.0
 10
9.2989113329
 20
9.5930665466
 30
0.0
 10
9.3158232382
 20
9.5873461436
 30
0.0
 10
9.3368547821
 20
9.5819677786
 30
0.0
 10
9.3585345478
 20
9.5780882387
 30
0.0
 10
9.3806496015
 20
9.5757453522
 30
0.0
 10
9.4029834891
 20
9.5749618419
 30
0.0
 10
9.4253173768
 20
9.5757453522
 30
0.0
 10
9.4474324305
 20
9.5780882387
 30
0.0
 10
9.4691121961
 20
9.5819677786
 30
0.0
 10
9.4901437401
 20
9.5873461436
 30
0.0
 10
9.5070556454
 20
9.5930665466
 30
0.0
 10
9.5200688266
 20
9.5983533592
 30
0.0
 10
9.5384783396
 20
9.6067179401
 30
0.0
 10
9.5530356068
 20
9.6152083331
 30
0.0
 10
9.563810328
 20
9.6229766922
 30
0.0
  0
SPLINE
  5
2B8
100
AcDbEntity
  8
0
100
AcDbSpline
 62
7
  6
CONTINUOUS
 70
0
 71
3
 72
15
 73
11
 74
0
 42
0.0000001
 43
0.0000001
 44
0.0000000001
 40
0.0
 40
0.0
 40
0.0
 40
0.0
 40
0.1031293968
 40
0.1423132501
 40
0.1876724062
 40
0.2976094752
 40
0.4338265124
 40
0.5965219119
 40
0.7854016214
 40
1.0
 40
1.0
 40
1.0
 40
1.0
 10
8.9103755614
 20
8.9023918441
 30
0.0
 10
8.9103229871
 20
8.9023918616
 30
0.0
 10
8.9102606285
 20
8.9024533298
 30
0.0
 10
8.9102079294
 20
8.902530489
 30
0.0
 10
8.9101582324
 20
8.9026171049
 30
0.0
 10
8.9100971267
 20
8.9027524504
 30
0.0
 10
8.9100251854
 20
8.9029483293
 30
0.0
 10
8.9099515864
 20
8.9031858957
 30
0.0
 10
8.9098763601
 20
8.903464612
 30
0.0
 10
8.9098284093
 20
8.9036646556
 30
0.0
 10
8.9098040343
 20
8.9037713055
 30
0.0
  0
SPLINE
  5
2B9
100
AcDbEntity
  8
0
100
AcDbSpline
 62
7
  6
CONTINUOUS
 70
0
 71
3
 72
23
 73
19
 74
0
 42
0.0000001
 43
0.0000001
 44
0.0000000001
 40
0.0
 40
0.0
 40
0.0
 40
0.0
 40
0.0640019206
 40
0.1258145195
 40
0.1857516289
 40
0.2442347411
 40
0.3017454
 40
0.3588085556
 40
0.4159572057
 40
0.4737014681
 40
0.532505997
 40
0.592777298
 40
0.6548561662
 40
0.7190178687
 40
0.7854782363
 40
0.8543970228
 40
0.9258834343
 40
1.0
 40
1.0
 40
1.0
 40
1.0
 10
9.1979834891
 20
9.4041038345
 30
0.0
 10
9.1979834891
 20
9.4070903664
 30
0.0
 10
9.1982403808
 20
9.4129654317
 30
0.0
 10
9.1994457337
 20
9.4215626267
 30
0.0
 10
9.2014557334
 20
9.4297449325
 30
0.0
 10
9.2042539162
 20
9.4374797436
 30
0.0
 10
9.2078182319
 20
9.4447439602
 30
0.0
 10
9.2121206754
 20
9.4515227269
 30
0.0
 10
9.2171298203
 20
9.4578100929
 30
0.0
 10
9.2228128679
 20
9.463608026
 30
0.0
 10
9.2291373256
 20
9.4689254034
 30
0.0
 10
9.2360723259
 20
9.4737765641
 30
0.0
 10
9.2435895578
 20
9.4781793767
 30
0.0
 10
9.2516632167
 20
9.4821540916
 30
0.0
 10
9.2602697646
 20
9.4857222705
 30
0.0
 10
9.2693875624
 20
9.4889059523
 30
0.0
 10
9.2789957657
 20
9.4917272117
 30
0.0
 10
9.2855953677
 20
9.4933515538
 30
0.0
 10
9.2889688219
 20
9.4941138665
 30
0.0
  0
SPLINE
  5
2BA
100
AcDbEntity
  8
0
100
AcDbSpline
 62
7
  6
CONTINUOUS
 70
0
 71
3
 72
23
 73
19
 74
0
 42
0.0000001
 43
0.0000001
 44
0.0000000001
 40
0.0
 40
0.0
 40
0.0
 40
0.0
 40
0.0741025933
 40
0.1455764883
 40
0.2144845098
 40
0.2809361234
 40
0.3450912726
 40
0.4071659501
 40
0.4674355149
 40
0.5262407582
 40
0.5839880923
 40
0.6411419418
 40
0.698212044
 40
0.7557309053
 40
0.8142229142
 40
0.8741690363
 40
0.9359902602
 40
1.0
 40
1.0
 40
1.0
 40
1.0
 10
9.517087724
 20
9.4940936106
 30
0.0
 10
9.5204580725
 20
9.4933307981
 30
0.0
 10
9.527051581
 20
9.4917055042
 30
0.0
 10
9.5366507677
 20
9.4888829985
 30
0.0
 10
9.5457599233
 20
9.4856982983
 30
0.0
 10
9.5543582314
 20
9.4821293638
 30
0.0
 10
9.5624240785
 20
9.4781541949
 30
0.0
 10
9.5699339524
 20
9.4737512723
 30
0.0
 10
9.5768620762
 20
9.4689003888
 30
0.0
 10
9.5831801741
 20
9.4635837234
 30
0.0
 10
9.5888574211
 20
9.4577869815
 30
0.0
 10
9.5938613744
 20
9.4515013243
 30
0.0
 10
9.5981592948
 20
9.444724814
 30
0.0
 10
9.6017198177
 20
9.4374634142
 30
0.0
 10
9.6045149939
 20
9.4297319729
 30
0.0
 10
9.6065228211
 20
9.4215535643
 30
0.0
 10
9.6077268693
 20
9.4129607492
 30
0.0
 10
9.6079834891
 20
9.4070887732
 30
0.0
 10
9.6079834891
 20
9.4041038346
 30
0.0
  0
SPLINE
  5
2BB
100
AcDbEntity
  8
0
100
AcDbSpline
 62
7
  6
CONTINUOUS
 70
0
 71
3
 72
23
 73
19
 74
0
 42
0.0000001
 43
0.0000001
 44
0.0000000001
 40
0.0
 40
0.0
 40
0.0
 40
0.0
 40
0.0640024637
 40
0.1258156733
 40
0.185753405
 40
0.2442371329
 40
0.3017483578
 40
0.3588119963
 40
0.4159610069
 40
0.4737054805
 40
0.5325100654
 40
0.5927812467
 40
0.6548598208
 40
0.719021073
 40
0.7854808306
 40
0.8543988622
 40
0.9258844046
 40
1.0
 40
1.0
 40
1.0
 40
1.0
 10
9.6079834891
 20
8.6156797735
 30
0.0
 10
9.6079834891
 20
8.6126933525
 30
0.0
 10
9.6077266161
 20
8.6068185016
 30
0.0
 10
9.6065213543
 20
8.5982216109
 30
0.0
 10
9.6045115054
 20
8.5900395761
 30
0.0
 10
9.6017135319
 20
8.5823049999
 30
0.0
 10
9.5981494803
 20
8.5750409794
 30
0.0
 10
9.5938473514
 20
8.5682623699
 30
0.0
 10
9.588838568
 20
8.5619751227
 30
0.0
 10
9.5831559238
 20
8.5561772723
 30
0.0
 10
9.5768319082
 20
8.5508599443
 30
0.0
 10
9.5698973863
 20
8.5460088025
 30
0.0
 10
9.5623806659
 20
8.5416059822
 30
0.0
 10
9.5543075504
 20
8.5376312357
 30
0.0
 10
9.5457015758
 20
8.534063004
 30
0.0
 10
9.5365843793
 20
8.5308792516
 30
0.0
 10
9.5269768034
 20
8.5280579055
 30
0.0
 10
9.5203776252
 20
8.5264334971
 30
0.0
 10
9.517004387
 20
8.5256711496
 30
0.0
  0
SPLINE
  5
2BC
100
AcDbEntity
  8
0
100
AcDbSpline
 62
7
  6
CONTINUOUS
 70
0
 71
3
 72
23
 73
19
 74
0
 42
0.0000001
 43
0.0000001
 44
0.0000000001
 40
0.0
 40
0.0
 40
0.0
 40
0.0
 40
0.0741122345
 40
0.145594766
 40
0.2145102077
 40
0.2809678591
 40
0.3451275347
 40
0.4072051001
 40
0.4674758635
 40
0.5262806201
 40
0.5840258324
 40
0.6411760939
 40
0.6982414036
 40
0.7557546019
 40
0.8142404719
 40
0.8741803675
 40
0.9359956611
 40
1.0
 40
1.0
 40
1.0
 40
1.0
 10
9.2889410393
 20
8.5256760212
 30
0.0
 10
9.2855685484
 20
8.526438489
 30
0.0
 10
9.2789708363
 20
8.5280631265
 30
0.0
 10
9.2693654299
 20
8.5308847726
 30
0.0
 10
9.2602503129
 20
8.5340687702
 30
0.0
 10
9.251646321
 20
8.5376371838
 30
0.0
 10
9.2435750851
 20
8.5416120397
 30
0.0
 10
9.2360601353
 20
8.5460148866
 30
0.0
 10
9.2291272679
 20
8.5508659619
 30
0.0
 10
9.2228047827
 20
8.5561831188
 30
0.0
 10
9.2171235343
 20
8.5619806827
 30
0.0
 10
9.2121160001
 20
8.568267519
 30
0.0
 10
9.2078149596
 20
8.5750455858
 30
0.0
 10
9.2042518206
 20
8.5823089286
 30
0.0
 10
9.2014545709
 20
8.5900426941
 30
0.0
 10
9.1994452443
 20
8.5982237915
 30
0.0
 10
9.1982402969
 20
8.6068196284
 30
0.0
 10
9.1979834891
 20
8.6126937361
 30
0.0
 10
9.1979834891
 20
8.6156797735
 30
0.0
  0
SPLINE
  5
2BD
100
AcDbEntity
  8
0
100
AcDbSpline
 62
7
  6
CONTINUOUS
 70
0
 71
3
 72
22
 73
18
 74
0
 42
0.0000001
 43
0.0000001
 44
0.0000000001
 40
0.0
 40
0.0
 40
0.0
 40
0.0
 40
0.1383608395
 40
0.2065396453
 40
0.2739338387
 40
0.3404642998
 40
0.4060599005
 40
0.4706564769
 40
0.5341970387
 40
0.5966318125
 40
0.657918134
 40
0.7180205061
 40
0.7769104613
 40
0.8345658042
 40
0.8909705696
 40
0.9461177718
 40
1.0
 40
1.0
 40
1.0
 40
1.0
 10
10.6297916394
 20
8.677620962
 30
0.0
 10
10.6690729997
 20
8.6732613308
 30
0.0
 10
10.7275738863
 20
8.6654028726
 30
0.0
 10
10.8047110846
 20
8.6522304483
 30
0.0
 10
10.8613751585
 20
8.6411538341
 30
0.0
 10
10.9170332707
 20
8.628867015
 30
0.0
 10
10.9715968955
 20
8.6154070745
 30
0.0
 10
11.0249834315
 20
8.6008132755
 30
0.0
 10
11.07711704
 20
8.5851264353
 30
0.0
 10
11.1279283115
 20
8.5683885993
 30
0.0
 10
11.1773542295
 20
8.5506426231
 30
0.0
 10
11.2253380298
 20
8.5319319839
 30
0.0
 10
11.2718287838
 20
8.512300283
 30
0.0
 10
11.3167809411
 20
8.4917911457
 30
0.0
 10
11.3601549662
 20
8.4704476313
 30
0.0
 10
11.4019143195
 20
8.4483129626
 30
0.0
 10
11.4289715574
 20
8.4328779133
 30
0.0
 10
11.4422153624
 20
8.4250359814
 30
0.0
  0
SPLINE
  5
2BE
100
AcDbEntity
  8
0
100
AcDbSpline
 62
7
  6
CONTINUOUS
 70
0
 71
3
 72
22
 73
18
 74
0
 42
0.0000001
 43
0.0000001
 44
0.0000000001
 40
0.0
 40
0.0
 40
0.0
 40
0.0
 40
0.1383608395
 40
0.2065396453
 40
0.2739338387
 40
0.3404642998
 40
0.4060599005
 40
0.4706564769
 40
0.5341970387
 40
0.5966318125
 40
0.657918134
 40
0.7180205061
 40
0.7769104613
 40
0.8345658042
 40
0.8909705696
 40
0.9461177718
 40
1.0
 40
1.0
 40
1.0
 40
1.0
 10
10.6297916394
 20
9.342162646
 30
0.0
 10
10.6690729997
 20
9.3465222773
 30
0.0
 10
10.7275738863
 20
9.3543807355
 30
0.0
 10
10.8047110846
 20
9.3675531598
 30
0.0
 10
10.8613751585
 20
9.378629774
 30
0.0
 10
10.9170332707
 20
9.3909165931
 30
0.0
 10
10.9715968955
 20
9.4043765336
 30
0.0
 10
11.0249834315
 20
9.4189703326
 30
0.0
 10
11.07711704
 20
9.4346571728
 30
0.0
 10
11.1279283115
 20
9.4513950088
 30
0.0
 10
11.1773542295
 20
9.469140985
 30
0.0
 10
11.2253380298
 20
9.4878516242
 30
0.0
 10
11.2718287838
 20
9.5074833251
 30
0.0
 10
11.3167809411
 20
9.5279924624
 30
0.0
 10
11.3601549662
 20
9.5493359768
 30
0.0
 10
11.4019143195
 20
9.5714706455
 30
0.0
 10
11.4289715574
 20
9.5869056948
 30
0.0
 10
11.4422153624
 20
9.5947476267
 30
0.0
  0
SPLINE
  5
2BF
100
AcDbEntity
  8
0
100
AcDbSpline
 62
9
  6
CONTINUOUS
 70
0
 71
3
 72
13
 73
9
 74
0
 42
0.0000001
 43
0.0000001
 44
0.0000000001
 40
0.0
 40
0.0
 40
0.0
 40
0.0
 40
0.2361850865
 40
0.3588110025
 40
0.4839302598
 40
0.6111143349
 40
0.7398879985
 40
1.0
 40
1.0
 40
1.0
 40
1.0
 10
9.2718451384
 20
8.752971996
 30
0.0
 10
9.2809831727
 20
8.7587891786
 30
0.0
 10
9.295647466
 20
8.7664535801
 30
0.0
 10
9.3163432748
 20
8.7745028708
 30
0.0
 10
9.3327898123
 20
8.7795778325
 30
0.0
 10
9.3498204641
 20
8.7835684953
 30
0.0
 10
9.3731877539
 20
8.7874127345
 30
0.0
 10
9.3910535827
 20
8.7885631558
 30
0.0
 10
9.4029834891
 20
8.7885631558
 30
0.0
  0
LINE
  5
2C0
100
AcDbEntity
  8
0
100
AcDbLine
 62
7
  6
CONTINUOUS
 10
8.9064312731
 20
8.9274846076
 11
8.906375241
 21
8.9278850826
  0
SPLINE
  5
2C1
100
AcDbEntity
  8
0
100
AcDbSpline
 62
7
  6
CONTINUOUS
 70
0
 71
3
 72
11
 73
7
 74
0
 42
0.0000001
 43
0.0000001
 44
0.0000000001
 40
0.0
 40
0.0
 40
0.0
 40
0.0
 40
0.2425292369
 40
0.4909415624
 40
0.7438967764
 40
1.0
 40
1.0
 40
1.0
 40
1.0
 10
8.9036106676
 20
9.009891804
 30
0.0
 10
8.9031729992
 20
9.0332576053
 30
0.0
 10
8.9036272664
 20
9.0805898209
 30
0.0
 10
8.9081068913
 20
9.1521614632
 30
0.0
 10
8.9163566934
 20
9.2247125338
 30
0.0
 10
8.9242929634
 20
9.2731417812
 30
0.0
 10
8.9288683338
 20
9.297391804
 30
0.0
  0
SPLINE
  5
2C2
100
AcDbEntity
  8
0
100
AcDbSpline
 62
9
  6
CONTINUOUS
 70
0
 71
3
 72
21
 73
17
 74
0
 42
0.0000001
 43
0.0000001
 44
0.0000000001
 40
0.0
 40
0.0
 40
0.0
 40
0.0
 40
0.1169630859
 40
0.1780520702
 40
0.2405923456
 40
0.304342784
 40
0.3690292751
 40
0.4343532555
 40
0.5
 40
0.5656467445
 40
0.6309707249
 40
0.695657216
 40
0.7594076544
 40
0.8219479298
 40
0.8830369141
 40
1.0
 40
1.0
 40
1.0
 40
1.0
 10
9.2831935563
 20
9.5933901781
 30
0.0
 10
9.2912190194
 20
9.5876040669
 30
0.0
 10
9.3043180478
 20
9.5799637695
 30
0.0
 10
9.3230318608
 20
9.5719358579
 30
0.0
 10
9.338063424
 20
9.5668510046
 30
0.0
 10
9.3537282534
 20
9.5628452057
 30
0.0
 10
9.3698762401
 20
9.5599555181
 30
0.0
 10
9.3863483554
 20
9.5582104673
 30
0.0
 10
9.4029834891
 20
9.5576268769
 30
0.0
 10
9.4196186229
 20
9.5582104673
 30
0.0
 10
9.4360907382
 20
9.5599555181
 30
0.0
 10
9.4522387249
 20
9.5628452057
 30
0.0
 10
9.4679035542
 20
9.5668510046
 30
0.0
 10
9.4829351175
 20
9.5719358579
 30
0.0
 10
9.5016489304
 20
9.5799637695
 30
0.0
 10
9.5147479588
 20
9.5876040669
 30
0.0
 10
9.522773422
 20
9.5933901781
 30
0.0
  0
LINE
  5
2C3
100
AcDbEntity
  8
0
100
AcDbLine
 62
7
  6
CONTINUOUS
 10
8.9035755551
 20
8.940365341
 11
8.9034859994
 21
8.9423808722
  0
SPLINE
  5
2C4
100
AcDbEntity
  8
0
100
AcDbSpline
 62
7
  6
CONTINUOUS
 70
0
 71
3
 72
11
 73
7
 74
0
 42
0.0000001
 43
0.0000001
 44
0.0000000001
 40
0.0
 40
0.0
 40
0.0
 40
0.0
 40
0.2457417549
 40
0.4940259053
 40
0.7453071492
 40
1.0
 40
1.0
 40
1.0
 40
1.0
 10
9.2012980502
 20
9.377032156
 30
0.0
 10
9.2018998171
 20
9.3793695436
 30
0.0
 10
9.2032684083
 20
9.3840291283
 30
0.0
 10
9.2057909492
 20
9.3909062651
 30
0.0
 10
9.2087864944
 20
9.3976870306
 30
0.0
 10
9.2110776545
 20
9.4021010914
 30
0.0
 10
9.2122968197
 20
9.4042854117
 30
0.0
  0
SPLINE
  5
2C5
100
AcDbEntity
  8
0
100
AcDbSpline
 62
7
  6
CONTINUOUS
 70
0
 71
3
 72
11
 73
7
 74
0
 42
0.0000001
 43
0.0000001
 44
0.0000000001
 40
0.0
 40
0.0
 40
0.0
 40
0.0
 40
0.2546972041
 40
0.5059795401
 40
0.7542620364
 40
1.0
 40
1.0
 40
1.0
 40
1.0
 10
9.593659467
 20
9.4043045634
 30
0.0
 10
9.5948799465
 20
9.4021187972
 30
0.0
 10
9.5971735352
 20
9.3977017641
 30
0.0
 10
9.6001721125
 20
9.3909162632
 30
0.0
 10
9.6026970096
 20
9.3840342264
 30
0.0
 10
9.6040667202
 20
9.3793712557
 30
0.0
 10
9.6046689255
 20
9.377032166
 30
0.0
  0
SPLINE
  5
2C6
100
AcDbEntity
  8
0
100
AcDbSpline
 62
7
  6
CONTINUOUS
 70
0
 71
3
 72
11
 73
7
 74
0
 42
0.0000001
 43
0.0000001
 44
0.0000000001
 40
0.0
 40
0.0
 40
0.0
 40
0.0
 40
0.2457629938
 40
0.4940564091
 40
0.7453315323
 40
1.0
 40
1.0
 40
1.0
 40
1.0
 10
9.2012980165
 20
8.6427515828
 30
0.0
 10
9.2018973247
 20
8.6404237333
 30
0.0
 10
9.2032596438
 20
8.6357831224
 30
0.0
 10
9.20576899
 20
8.6289334465
 30
0.0
 10
9.2087475613
 20
8.6221792219
 30
0.0
 10
9.2110251285
 20
8.6177818238
 30
0.0
 10
9.2122369374
 20
8.6156056099
 30
0.0
  0
SPLINE
  5
2C7
100
AcDbEntity
  8
0
100
AcDbSpline
 62
7
  6
CONTINUOUS
 70
0
 71
3
 72
11
 73
7
 74
0
 42
0.0000001
 43
0.0000001
 44
0.0000000001
 40
0.0
 40
0.0
 40
0.0
 40
0.0
 40
0.2546707432
 40
0.5059464375
 40
0.7542389884
 40
1.0
 40
1.0
 40
1.0
 40
1.0
 10
9.5937244523
 20
8.6155955747
 30
0.0
 10
9.5949369473
 20
8.6177725458
 30
0.0
 10
9.5972157825
 20
8.6221715003
 30
0.0
 10
9.6001959374
 20
8.6289282034
 30
0.0
 10
9.6027065149
 20
8.6357804437
 30
0.0
 10
9.6040694196
 20
8.6404228262
 30
0.0
 10
9.6046689575
 20
8.6427515663
 30
0.0
  0
SPLINE
  5
2C8
100
AcDbEntity
  8
0
100
AcDbSpline
 62
9
  6
CONTINUOUS
 70
0
 71
3
 72
22
 73
18
 74
0
 42
0.0000001
 43
0.0000001
 44
0.0000000001
 40
0.0
 40
0.0
 40
0.0
 40
0.0
 40
0.1418790879
 40
0.2121839237
 40
0.2817008005
 40
0.3501909413
 40
0.4174370804
 40
0.483248497
 40
0.5474668222
 40
0.60997186
 40
0.6706875684
 40
0.7295878386
 40
0.7867018167
 40
0.8421182655
 40
0.895988211
 40
0.9485248941
 40
1.0
 40
1.0
 40
1.0
 40
1.0
 10
9.4029834891
 20
8.4890325143
 30
0.0
 10
9.3924965554
 20
8.4890325143
 30
0.0
 10
9.3767893698
 20
8.4880689378
 30
0.0
 10
9.3562083423
 20
8.4848498798
 30
0.0
 10
9.3411670693
 20
8.4815044666
 30
0.0
 10
9.3265942241
 20
8.4772465608
 30
0.0
 10
9.3125985919
 20
8.4721079234
 30
0.0
 10
9.2992862885
 20
8.4661270028
 30
0.0
 10
9.2867578564
 20
8.4593484102
 30
0.0
 10
9.2751081257
 20
8.4518225959
 30
0.0
 10
9.264425437
 20
8.4436054342
 30
0.0
 10
9.2547911401
 20
8.4347578381
 30
0.0
 10
9.2462791034
 20
8.4253452999
 30
0.0
 10
9.2389553727
 20
8.4154378433
 30
0.0
 10
9.23287753
 20
8.4051087912
 30
0.0
 10
9.2280950336
 20
8.394438128
 30
0.0
 10
9.2257765106
 20
8.3870858677
 30
0.0
 10
9.2248534322
 20
8.3833947794
 30
0.0
  0
SPLINE
  5
2C9
100
AcDbEntity
  8
0
100
AcDbSpline
 62
9
  6
CONTINUOUS
 70
0
 71
3
 72
22
 73
18
 74
0
 42
0.0000001
 43
0.0000001
 44
0.0000000001
 40
0.0
 40
0.0
 40
0.0
 40
0.0
 40
0.1418865929
 40
0.2121947754
 40
0.2817144983
 40
0.350206852
 40
0.4174544608
 40
0.4832665288
 40
0.5474846524
 40
0.6099886499
 40
0.6707025493
 40
0.7296003744
 40
0.7867114708
 40
0.8421248694
 40
0.8959919281
 40
0.9485262718
 40
1.0
 40
1.0
 40
1.0
 40
1.0
 10
9.4029834891
 20
8.4890325143
 30
0.0
 10
9.413473526
 20
8.4890325143
 30
0.0
 10
9.4291853465
 20
8.4880683695
 30
0.0
 10
9.4497722314
 20
8.4848474093
 30
0.0
 10
9.4648175496
 20
8.4815000392
 30
0.0
 10
9.479394029
 20
8.4772396685
 30
0.0
 10
9.4933927932
 20
8.4720980948
 30
0.0
 10
9.5067076395
 20
8.4661138112
 30
0.0
 10
9.5192379469
 20
8.4593314795
 30
0.0
 10
9.5308888144
 20
8.451801607
 30
0.0
 10
9.5415718397
 20
8.4435801303
 30
0.0
 10
9.5512056208
 20
8.4347280297
 30
0.0
 10
9.5597162469
 20
8.4253108688
 30
0.0
 10
9.5670376398
 20
8.4153987471
 30
0.0
 10
9.5731121962
 20
8.4050650669
 30
0.0
 10
9.57789045
 20
8.3943898998
 30
0.0
 10
9.5802054518
 20
8.3870348346
 30
0.0
 10
9.5811266238
 20
8.3833424222
 30
0.0
  0
SPLINE
  5
2CA
100
AcDbEntity
  8
0
100
AcDbSpline
 62
7
  6
CONTINUOUS
 70
0
 71
3
 72
24
 73
20
 74
0
 42
0.0000001
 43
0.0000001
 44
0.0000000001
 40
0.0
 40
0.0
 40
0.0
 40
0.0
 40
0.1432416722
 40
0.2141493821
 40
0.2841731975
 40
0.3530492527
 40
0.4205398252
 40
0.4864408499
 40
0.5505888851
 40
0.6128686921
 40
0.6732204421
 40
0.7316469278
 40
0.7882195347
 40
0.8430827156
 40
0.8964551325
 40
0.9226825726
 40
0.9486514654
 40
0.9744076966
 40
1.0
 40
1.0
 40
1.0
 40
1.0
 10
9.4029834891
 20
8.4948287827
 30
0.0
 10
9.3914171203
 20
8.4948287827
 30
0.0
 10
9.3740959149
 20
8.493707911
 30
0.0
 10
9.3514455917
 20
8.4899624962
 30
0.0
 10
9.3349417119
 20
8.4860745612
 30
0.0
 10
9.3190118184
 20
8.4811318598
 30
0.0
 10
9.3037882536
 20
8.4751753264
 30
0.0
 10
9.2893995309
 20
8.4682545026
 30
0.0
 10
9.2759666605
 20
8.460426699
 30
0.0
 10
9.2636029365
 20
8.4517565957
 30
0.0
 10
9.2524129492
 20
8.4423155918
 30
0.0
 10
9.2424920108
 20
8.4321814747
 30
0.0
 10
9.2339254087
 20
8.421437296
 30
0.0
 10
9.2267884873
 20
8.4101733044
 30
0.0
 10
9.2220567883
 20
8.4003701475
 30
0.0
 10
9.2190649173
 20
8.3923832379
 30
0.0
 10
9.2172236819
 20
8.3863596159
 30
0.0
 10
9.215776696
 20
8.3802824035
 30
0.0
 10
9.2150751696
 20
8.3761924956
 30
0.0
 10
9.2147918448
 20
8.3741455024
 30
0.0
  0
SPLINE
  5
2CB
100
AcDbEntity
  8
0
100
AcDbSpline
 62
7
  6
CONTINUOUS
 70
0
 71
3
 72
24
 73
20
 74
0
 42
0.0000001
 43
0.0000001
 44
0.0000000001
 40
0.0
 40
0.0
 40
0.0
 40
0.0
 40
0.1432510257
 40
0.2141628473
 40
0.2841900836
 40
0.3530686884
 40
0.4205607976
 40
0.4864622575
 40
0.5506096021
 40
0.6128876432
 40
0.6732366903
 40
0.7316597689
 40
0.7882285988
 40
0.8430880635
 40
0.8964573408
 40
0.9226836184
 40
0.9486517073
 40
0.9744075672
 40
1.0
 40
1.0
 40
1.0
 40
1.0
 10
9.4029834891
 20
8.4948287827
 30
0.0
 10
9.4145540912
 20
8.4948287827
 30
0.0
 10
9.4318816165
 20
8.4937070938
 30
0.0
 10
9.4545398763
 20
8.4899589416
 30
0.0
 10
9.4710491811
 20
8.4860681973
 30
0.0
 10
9.4869838777
 20
8.4811219656
 30
0.0
 10
9.5022114868
 20
8.4751612392
 30
0.0
 10
9.5166033671
 20
8.4682356303
 30
0.0
 10
9.5300383927
 20
8.46040253
 30
0.0
 10
9.5424031676
 20
8.4517267082
 30
0.0
 10
9.553593014
 20
8.4422796617
 30
0.0
 10
9.5635125477
 20
8.4321392832
 30
0.0
 10
9.5720764248
 20
8.4213887357
 30
0.0
 10
9.5792092623
 20
8.4101183897
 30
0.0
 10
9.5839363571
 20
8.400310061
 30
0.0
 10
9.5869238552
 20
8.3923192118
 30
0.0
 10
9.588761502
 20
8.3862927064
 30
0.0
 10
9.5902045727
 20
8.3802127151
 30
0.0
 10
9.5909032537
 20
8.3761210709
 30
0.0
 10
9.5911851077
 20
8.3740732369
 30
0.0
  0
SPLINE
  5
2CC
100
AcDbEntity
  8
0
100
AcDbSpline
 62
9
  6
CONTINUOUS
 70
0
 71
3
 72
15
 73
11
 74
0
 42
0.0000001
 43
0.0000001
 44
0.0000000001
 40
0.0
 40
0.0
 40
0.0
 40
0.0
 40
0.1312912173
 40
0.261934403
 40
0.3913046395
 40
0.5188021568
 40
0.6438795978
 40
0.7053692988
 40
0.7660797213
 40
1.0
 40
1.0
 40
1.0
 40
1.0
 10
9.4029834891
 20
8.4445601674
 30
0.0
 10
9.3955281258
 20
8.4445601674
 30
0.0
 10
9.3806488486
 20
8.4440382816
 30
0.0
 10
9.3585346987
 20
8.4416953358
 30
0.0
 10
9.3368547474
 20
8.4378158484
 30
0.0
 10
9.3158232479
 20
8.4324374567
 30
0.0
 10
9.2989113321
 20
8.4267170634
 30
0.0
 10
9.285898152
 20
8.4214302484
 30
0.0
 10
9.2674886383
 20
8.4130656685
 30
0.0
 10
9.2529313715
 20
8.404575275
 30
0.0
 10
9.2421566502
 20
8.3968069159
 30
0.0
  0
SPLINE
  5
2CD
100
AcDbEntity
  8
0
100
AcDbSpline
 62
9
  6
CONTINUOUS
 70
0
 71
3
 72
13
 73
9
 74
0
 42
0.0000001
 43
0.0000001
 44
0.0000000001
 40
0.0
 40
0.0
 40
0.0
 40
0.0
 40
0.2618204483
 40
0.3912150496
 40
0.518736615
 40
0.6438376571
 40
0.7660355862
 40
1.0
 40
1.0
 40
1.0
 40
1.0
 10
9.4029834891
 20
8.4619618817
 30
0.0
 10
9.3919117311
 20
8.4619618817
 30
0.0
 10
9.3753354442
 20
8.46080524
 30
0.0
 10
9.3537291794
 20
8.4569385334
 30
0.0
 10
9.3380631826
 20
8.4529325665
 30
0.0
 10
9.3230319221
 20
8.4478477604
 30
0.0
 10
9.3043180135
 20
8.4398198327
 30
0.0
 10
9.2912190195
 20
8.4321795412
 30
0.0
 10
9.2831935563
 20
8.42639343
 30
0.0
  0
SPLINE
  5
2CE
100
AcDbEntity
  8
0
100
AcDbSpline
 62
9
  6
CONTINUOUS
 70
0
 71
3
 72
15
 73
11
 74
0
 42
0.0000001
 43
0.0000001
 44
0.0000000001
 40
0.0
 40
0.0
 40
0.0
 40
0.0
 40
0.1312912173
 40
0.261934403
 40
0.3913046395
 40
0.5188021568
 40
0.6438795978
 40
0.7053692988
 40
0.7660797213
 40
1.0
 40
1.0
 40
1.0
 40
1.0
 10
9.4029834891
 20
8.4445601674
 30
0.0
 10
9.4104388525
 20
8.4445601674
 30
0.0
 10
9.4253181296
 20
8.4440382816
 30
0.0
 10
9.4474322796
 20
8.4416953358
 30
0.0
 10
9.4691122308
 20
8.4378158484
 30
0.0
 10
9.4901437303
 20
8.4324374567
 30
0.0
 10
9.5070556462
 20
8.4267170634
 30
0.0
 10
9.5200688263
 20
8.4214302484
 30
0.0
 10
9.53847834
 20
8.4130656685
 30
0.0
 10
9.5530356068
 20
8.404575275
 30
0.0
 10
9.563810328
 20
8.3968069159
 30
0.0
  0
SPLINE
  5
2CF
100
AcDbEntity
  8
0
100
AcDbSpline
 62
9
  6
CONTINUOUS
 70
0
 71
3
 72
13
 73
9
 74
0
 42
0.0000001
 43
0.0000001
 44
0.0000000001
 40
0.0
 40
0.0
 40
0.0
 40
0.0
 40
0.2618204483
 40
0.3912150496
 40
0.518736615
 40
0.6438376571
 40
0.7660355862
 40
1.0
 40
1.0
 40
1.0
 40
1.0
 10
9.4029834891
 20
8.4619618817
 30
0.0
 10
9.4140552471
 20
8.4619618817
 30
0.0
 10
9.4306315341
 20
8.46080524
 30
0.0
 10
9.4522377989
 20
8.4569385334
 30
0.0
 10
9.4679037957
 20
8.4529325665
 30
0.0
 10
9.4829350562
 20
8.4478477604
 30
0.0
 10
9.5016489647
 20
8.4398198327
 30
0.0
 10
9.5147479587
 20
8.4321795412
 30
0.0
 10
9.522773422
 20
8.42639343
 30
0.0
  0
SPLINE
  5
2D0
100
AcDbEntity
  8
0
100
AcDbSpline
 62
9
  6
CONTINUOUS
 70
0
 71
3
 72
13
 73
9
 74
0
 42
0.0000001
 43
0.0000001
 44
0.0000000001
 40
0.0
 40
0.0
 40
0.0
 40
0.0
 40
0.2601119829
 40
0.3888856397
 40
0.516069711
 40
0.6411889683
 40
0.7638148886
 40
1.0
 40
1.0
 40
1.0
 40
1.0
 10
9.4029834891
 20
8.7885631558
 30
0.0
 10
9.4149133844
 20
8.7885631558
 30
0.0
 10
9.4327791965
 20
8.7874127367
 30
0.0
 10
9.4561464652
 20
8.7835685046
 30
0.0
 10
9.4731771026
 20
8.7795778493
 30
0.0
 10
9.4896236273
 20
8.7745028969
 30
0.0
 10
9.5103194224
 20
8.7664536206
 30
0.0
 10
9.5249837079
 20
8.7587892327
 30
0.0
 10
9.5341217389
 20
8.7529720603
 30
0.0
  0
SPLINE
  5
2D1
100
AcDbEntity
  8
0
100
AcDbSpline
 62
9
  6
CONTINUOUS
 70
0
 71
3
 72
36
 73
32
 74
0
 42
0.0000001
 43
0.0000001
 44
0.0000000001
 40
0.0
 40
0.0
 40
0.0
 40
0.0
 40
0.0750123874
 40
0.1122539655
 40
0.1491673557
 40
0.2215755513
 40
0.2569206691
 40
0.2915780021
 40
0.3254839641
 40
0.3585891965
 40
0.3908604874
 40
0.4222826602
 40
0.4528603563
 40
0.4826195823
 40
0.5116088554
 40
0.5398997285
 40
0.5675864047
 40
0.5947841905
 40
0.6216266097
 40
0.6482611257
 40
0.6748436473
 40
0.7015322319
 40
0.7284805725
 40
0.7558319109
 40
0.7837139281
 40
0.8122349383
 40
0.8414814806
 40
0.8715172047
 40
0.9023828247
 40
0.9340968677
 40
1.0
 40
1.0
 40
1.0
 40
1.0
 10
9.4029834891
 20
8.766301951
 30
0.0
 10
9.4125761575
 20
8.766301951
 30
0.0
 10
9.4269479011
 20
8.7655201418
 30
0.0
 10
9.4458516236
 20
8.7629090704
 30
0.0
 10
9.4642527482
 20
8.7593074568
 30
0.0
 10
9.4820896587
 20
8.7542094345
 30
0.0
 10
9.4990783903
 20
8.7476226805
 30
0.0
 10
9.5111499102
 20
8.7420457954
 30
0.0
 10
9.5225784464
 20
8.7358266467
 30
0.0
 10
9.53329671
 20
8.729001465
 30
0.0
 10
9.5432407305
 20
8.7216103002
 30
0.0
 10
9.5523511997
 20
8.7136963696
 30
0.0
 10
9.5605734923
 20
8.7053059386
 30
0.0
 10
9.567857991
 20
8.6964880798
 30
0.0
 10
9.5741603025
 20
8.68729449
 30
0.0
 10
9.5794415317
 20
8.6777793437
 30
0.0
 10
9.5836685628
 20
8.6679991401
 30
0.0
 10
9.5868143921
 20
8.6580125276
 30
0.0
 10
9.5888585398
 20
8.6478800577
 30
0.0
 10
9.5897874764
 20
8.6376637922
 30
0.0
 10
9.5895949829
 20
8.6274267391
 30
0.0
 10
9.5882823351
 20
8.6172321547
 30
0.0
 10
9.5858582857
 20
8.6071428023
 30
0.0
 10
9.5823388118
 20
8.5972202821
 30
0.0
 10
9.577746687
 20
8.5875245242
 30
0.0
 10
9.5721110828
 20
8.5781134687
 30
0.0
 10
9.5654670755
 20
8.5690427824
 30
0.0
 10
9.5578557112
 20
8.5603659801
 30
0.0
 10
9.5493222295
 20
8.5521332151
 30
0.0
 10
9.5366271456
 20
8.5416833765
 30
0.0
 10
9.5261069683
 20
8.5348593253
 30
0.0
 10
9.5187504746
 20
8.5307472394
 30
0.0
  0
SPLINE
  5
2D2
100
AcDbEntity
  8
0
100
AcDbSpline
 62
9
  6
CONTINUOUS
 70
0
 71
3
 72
36
 73
32
 74
0
 42
0.0000001
 43
0.0000001
 44
0.0000000001
 40
0.0
 40
0.0
 40
0.0
 40
0.0
 40
0.0659001686
 40
0.0976127505
 40
0.1284769747
 40
0.1585114057
 40
0.1877567931
 40
0.2162768183
 40
0.2441580468
 40
0.2715088127
 40
0.2984568079
 40
0.3251452759
 40
0.3517279008
 40
0.378362722
 40
0.4052056222
 40
0.4324040329
 40
0.4600914427
 40
0.4883831226
 40
0.5173732418
 40
0.5471333225
 40
0.5777118561
 40
0.6091348279
 40
0.641406863
 40
0.6745127741
 40
0.7084193428
 40
0.7430772085
 40
0.7784227863
 40
0.8508317093
 40
0.8877453795
 40
0.9249871973
 40
1.0
 40
1.0
 40
1.0
 40
1.0
 10
9.2871930205
 20
8.530760368
 30
0.0
 10
9.2798379502
 20
8.5348730132
 30
0.0
 10
9.2693199556
 20
8.5416977778
 30
0.0
 10
9.2566278698
 20
8.5521482752
 30
0.0
 10
9.2480966008
 20
8.5603813732
 30
0.0
 10
9.2404874188
 20
8.5690583606
 30
0.0
 10
9.233845545
 20
8.578129089
 30
0.0
 10
9.2282120077
 20
8.5875400496
 30
0.0
 10
9.2236218665
 20
8.5972355827
 30
0.0
 10
9.2201042771
 20
8.6071577562
 30
0.0
 10
9.2176819986
 20
8.6172466488
 30
0.0
 10
9.2163709943
 20
8.6274406704
 30
0.0
 10
9.2161800051
 20
8.6376770689
 30
0.0
 10
9.2171102965
 20
8.6478926007
 30
0.0
 10
9.2191556412
 20
8.658024271
 30
0.0
 10
9.2223025041
 20
8.6680100318
 30
0.0
 10
9.2265304019
 20
8.6777893454
 30
0.0
 10
9.2318123295
 20
8.6873035771
 30
0.0
 10
9.2381151718
 20
8.6964962412
 30
0.0
 10
9.2454000365
 20
8.7053131755
 30
0.0
 10
9.2536225342
 20
8.7137026955
 30
0.0
 10
9.2627330531
 20
8.7216157403
 30
0.0
 10
9.2726769751
 20
8.7290060554
 30
0.0
 10
9.2833950001
 20
8.735830434
 30
0.0
 10
9.2948231677
 20
8.7420488361
 30
0.0
 10
9.3068941996
 20
8.74762504
 30
0.0
 10
9.3238821155
 20
8.7542109708
 30
0.0
 10
9.3417180454
 20
8.7593083514
 30
0.0
 10
9.3601180825
 20
8.7629095076
 30
0.0
 10
9.3790206214
 20
8.7655202424
 30
0.0
 10
9.3933914398
 20
8.766301951
 30
0.0
 10
9.4029834891
 20
8.766301951
 30
0.0
  0
SPLINE
  5
2D3
100
AcDbEntity
  8
0
100
AcDbSpline
 62
9
  6
CONTINUOUS
 70
0
 71
3
 72
39
 73
35
 74
0
 42
0.0000001
 43
0.0000001
 44
0.0000000001
 40
0.0
 40
0.0
 40
0.0
 40
0.0
 40
0.0257336623
 40
0.0519967363
 40
0.0789255347
 40
0.1066272689
 40
0.1351779455
 40
0.1646223457
 40
0.1949753236
 40
0.2262240165
 40
0.2583305184
 40
0.2912347759
 40
0.3248575545
 40
0.3591033842
 40
0.3938634317
 40
0.4290182913
 40
0.4644406994
 40
0.4999981892
 40
0.5355557035
 40
0.5709781842
 40
0.6061331634
 40
0.6408933751
 40
0.6751394102
 40
0.7087624312
 40
0.7416669627
 40
0.7737737638
 40
0.8050227738
 40
0.8353760781
 40
0.8648208044
 40
0.8933717965
 40
0.9210738246
 40
0.9480028839
 40
0.9742661746
 40
1.0
 40
1.0
 40
1.0
 40
1.0
 10
9.2248149762
 20
9.6365430211
 30
0.0
 10
9.2257324241
 20
9.6328480856
 30
0.0
 10
9.2280405468
 20
9.6254876597
 30
0.0
 10
9.2328104491
 20
9.6148038533
 30
0.0
 10
9.2388785037
 20
9.604461283
 30
0.0
 10
9.2461952024
 20
9.5945401872
 30
0.0
 10
9.2547029173
 20
9.5851141199
 30
0.0
 10
9.2643355067
 20
9.5762533228
 30
0.0
 10
9.2750189804
 20
9.5680234996
 30
0.0
 10
9.286671837
 20
9.5604857598
 30
0.0
 10
9.2992055534
 20
9.5536961585
 30
0.0
 10
9.3125251212
 20
9.5477053107
 30
0.0
 10
9.3265296758
 20
9.5425579838
 30
0.0
 10
9.3411132
 20
9.5382927274
 30
0.0
 10
9.3561652916
 20
9.5349415445
 30
0.0
 10
9.3715719831
 20
9.5325296169
 30
0.0
 10
9.3872166002
 20
9.5310750884
 30
0.0
 10
9.402980648
 20
9.5305889085
 30
0.0
 10
9.4187447173
 20
9.5310747386
 30
0.0
 10
9.4343893988
 20
9.5325289201
 30
0.0
 10
9.4497961971
 20
9.5349405059
 30
0.0
 10
9.4648484371
 20
9.5382913548
 30
0.0
 10
9.47943215
 20
9.5425562875
 30
0.0
 10
9.4934369325
 20
9.5477033033
 30
0.0
 10
9.5067567654
 20
9.5536938552
 30
0.0
 10
9.5192907821
 20
9.5604831776
 30
0.0
 10
9.5309439722
 20
9.568020658
 30
0.0
 10
9.5416278099
 20
9.5762502427
 30
0.0
 10
9.5512607915
 20
9.5851108242
 30
0.0
 10
9.5597689236
 20
9.5945367004
 30
0.0
 10
9.567086062
 20
9.604457631
 30
0.0
 10
9.5731545756
 20
9.6148000636
 30
0.0
 10
9.5779249528
 20
9.6254837611
 30
0.0
 10
9.5802334055
 20
9.632844142
 30
0.0
 10
9.5811510188
 20
9.6365390613
 30
0.0
  0
SPLINE
  5
2D4
100
AcDbEntity
  8
0
100
AcDbSpline
 62
7
  6
CONTINUOUS
 70
0
 71
3
 72
41
 73
37
 74
0
 42
0.0000001
 43
0.0000001
 44
0.0000000001
 40
0.0
 40
0.0
 40
0.0
 40
0.0
 40
0.012795691
 40
0.0256723835
 40
0.051754934
 40
0.0784368253
 40
0.1058635421
 40
0.1341448247
 40
0.1633532723
 40
0.1935248713
 40
0.2246612208
 40
0.2567325427
 40
0.2896812689
 40
0.3234256838
 40
0.3578636803
 40
0.3928763358
 40
0.4283314759
 40
0.4640870563
 40
0.4999945229
 40
0.5359020695
 40
0.5716578886
 40
0.6071134206
 40
0.6421266129
 40
0.6765652787
 40
0.7103104798
 40
0.7432600895
 40
0.7753323688
 40
0.8064697223
 40
0.8366423407
 40
0.8658517884
 40
0.8941340144
 40
0.9215615786
 40
0.9482441826
 40
0.974327276
 40
0.9872041665
 40
1.0
 40
1.0
 40
1.0
 40
1.0
 10
9.2147746144
 20
9.6457629198
 30
0.0
 10
9.2150553892
 20
9.643714515
 30
0.0
 10
9.2157520998
 20
9.6396216641
 30
0.0
 10
9.2176797945
 20
9.6314795975
 30
0.0
 10
9.2211005313
 20
9.6214083084
 30
0.0
 10
9.2267344941
 20
9.6097072141
 30
0.0
 10
9.2338642095
 20
9.5984314597
 30
0.0
 10
9.2424255432
 20
9.5876768565
 30
0.0
 10
9.2523435075
 20
9.5775320467
 30
0.0
 10
9.2635326169
 20
9.5680807822
 30
0.0
 10
9.2758974746
 20
9.5594008744
 30
0.0
 10
9.2893333399
 20
9.5515639362
 30
0.0
 10
9.3037267834
 20
9.5446347736
 30
0.0
 10
9.3189564991
 20
9.5386708619
 30
0.0
 10
9.3348942007
 20
9.5337217926
 30
0.0
 10
9.3514056548
 20
9.5298288255
 30
0.0
 10
9.3683517662
 20
9.5270244637
 30
0.0
 10
9.3855897512
 20
9.5253321654
 30
0.0
 10
9.4029743359
 20
9.5247660872
 30
0.0
 10
9.4203589979
 20
9.525330977
 30
0.0
 10
9.4375972136
 20
9.5270220968
 30
0.0
 10
9.4545437074
 20
9.5298253
 30
0.0
 10
9.4710556925
 20
9.5337171379
 30
0.0
 10
9.4869940688
 20
9.5386651168
 30
0.0
 10
9.5022245975
 20
9.544627986
 30
0.0
 10
9.5166189854
 20
9.5515561624
 30
0.0
 10
9.5300559186
 20
9.5593921789
 30
0.0
 10
9.5424219591
 20
9.5680712367
 30
0.0
 10
9.5536123566
 20
9.57752173
 30
0.0
 10
9.5635317043
 20
9.5876658534
 30
0.0
 10
9.5720945058
 20
9.5984198611
 30
0.0
 10
9.5792257622
 20
9.6096951165
 30
0.0
 10
9.5848613273
 20
9.6213958137
 30
0.0
 10
9.5882834515
 20
9.6314668775
 30
0.0
 10
9.5902122663
 20
9.6396088254
 30
0.0
 10
9.5909095394
 20
9.6437016362
 30
0.0
 10
9.5911905956
 20
9.6457500256
 30
0.0
  0
SPLINE
  5
2D5
100
AcDbEntity
  8
0
100
AcDbSpline
 62
9
  6
CONTINUOUS
 70
0
 71
3
 72
19
 73
15
 74
0
 42
0.0000001
 43
0.0000001
 44
0.0000000001
 40
0.0
 40
0.0
 40
0.0
 40
0.0
 40
0.0565395484
 40
0.1132670514
 40
0.1703429872
 40
0.2279412054
 40
0.286218745
 40
0.3453169963
 40
0.4053628237
 40
0.4664652409
 40
0.5921165961
 40
0.7228376946
 40
0.8588247453
 40
1.0
 40
1.0
 40
1.0
 40
1.0
 10
9.2163055532
 20
9.3854828915
 30
0.0
 10
9.2163055532
 20
9.3879664399
 30
0.0
 10
9.2165046249
 20
9.3929440588
 30
0.0
 10
9.2173982662
 20
9.4003804837
 30
0.0
 10
9.2188846667
 20
9.4077692366
 30
0.0
 10
9.2209585754
 20
9.4150854852
 30
0.0
 10
9.2236129022
 20
9.4223062111
 30
0.0
 10
9.2268390447
 20
9.4294080628
 30
0.0
 10
9.2306264647
 20
9.436368657
 30
0.0
 10
9.2364605912
 20
9.445514524
 30
0.0
 10
9.2451397791
 20
9.4564846061
 30
0.0
 10
9.2574520527
 20
9.4686012309
 30
0.0
 10
9.2716002976
 20
9.4796507028
 30
0.0
 10
9.2819545074
 20
9.4861015394
 30
0.0
 10
9.2873702866
 20
9.4891222629
 30
0.0
  0
SPLINE
  5
2D6
100
AcDbEntity
  8
0
100
AcDbSpline
 62
9
  6
CONTINUOUS
 70
0
 71
3
 72
19
 73
15
 74
0
 42
0.0000001
 43
0.0000001
 44
0.0000000001
 40
0.0
 40
0.0
 40
0.0
 40
0.0
 40
0.1411700894
 40
0.2771528844
 40
0.4078711954
 40
0.5335216035
 40
0.5946242756
 40
0.654670847
 40
0.713770308
 40
0.7720494775
 40
0.8296496843
 40
0.8867278987
 40
0.943457879
 40
1.0
 40
1.0
 40
1.0
 40
1.0
 10
9.5186373106
 20
9.4890996007
 30
0.0
 10
9.5240502491
 20
9.4860787396
 30
0.0
 10
9.5343989287
 20
9.4796279603
 30
0.0
 10
9.548539315
 20
9.468579602
 30
0.0
 10
9.5608445335
 20
9.4564650142
 30
0.0
 10
9.5695185828
 20
9.4454973747
 30
0.0
 10
9.5753492101
 20
9.4363538149
 30
0.0
 10
9.5791343541
 20
9.4293950571
 30
0.0
 10
9.5823585449
 20
9.4222951711
 30
0.0
 10
9.5850112558
 20
9.4150765199
 30
0.0
 10
9.5870838963
 20
9.4077624344
 30
0.0
 10
9.5885693846
 20
9.4003759115
 30
0.0
 10
9.5894624759
 20
9.392941761
 30
0.0
 10
9.5896614251
 20
9.387965677
 30
0.0
 10
9.5896614251
 20
9.3854828915
 30
0.0
  0
SPLINE
  5
2D7
100
AcDbEntity
  8
0
100
AcDbSpline
 62
9
  6
CONTINUOUS
 70
0
 71
3
 72
21
 73
17
 74
0
 42
0.0000001
 43
0.0000001
 44
0.0000000001
 40
0.0
 40
0.0
 40
0.0
 40
0.0
 40
0.1180368176
 40
0.1793338321
 40
0.2418845665
 40
0.3054738417
 40
0.3698626241
 40
0.4347941689
 40
0.5000000117
 40
0.5652058539
 40
0.6301373974
 40
0.6945261778
 40
0.7581154504
 40
0.8206661814
 40
0.8819631919
 40
1.0
 40
1.0
 40
1.0
 40
1.0
 10
9.5344503417
 20
9.2670212193
 30
0.0
 10
9.5253014963
 20
9.261170783
 30
0.0
 10
9.5106117411
 20
9.2534618281
 30
0.0
 10
9.4898714519
 20
9.2453657583
 30
0.0
 10
9.4733831232
 20
9.2402604142
 30
0.0
 10
9.4563067427
 20
9.2362457659
 30
0.0
 10
9.4387826119
 20
9.2333538235
 30
0.0
 10
9.4209584315
 20
9.2316090226
 30
0.0
 10
9.4029834617
 20
9.231025792
 30
0.0
 10
9.3850084921
 20
9.2316090261
 30
0.0
 10
9.3671843125
 20
9.2333538306
 30
0.0
 10
9.3496601828
 20
9.2362457764
 30
0.0
 10
9.3325838038
 20
9.2402604281
 30
0.0
 10
9.3160954771
 20
9.2453657755
 30
0.0
 10
9.2953551912
 20
9.2534618494
 30
0.0
 10
9.2806654389
 20
9.2611708072
 30
0.0
 10
9.2715165957
 20
9.2670212454
 30
0.0
  0
SPLINE
  5
2D8
100
AcDbEntity
  8
0
100
AcDbSpline
 62
9
  6
CONTINUOUS
 70
0
 71
3
 72
47
 73
43
 74
0
 42
0.0000001
 43
0.0000001
 44
0.0000000001
 40
0.0
 40
0.0
 40
0.0
 40
0.0
 40
0.0128545217
 40
0.0257423981
 40
0.0386902448
 40
0.0517282007
 40
0.064884911
 40
0.0781860592
 40
0.0916553172
 40
0.1053141073
 40
0.1332601447
 40
0.1621529119
 40
0.1920625135
 40
0.2230150469
 40
0.2549959478
 40
0.2879543046
 40
0.3218076028
 40
0.3564465637
 40
0.3917399147
 40
0.4275390245
 40
0.4636823901
 40
0.5
 40
0.5363176099
 40
0.5724609755
 40
0.6082600853
 40
0.6435534364
 40
0.6781923974
 40
0.7120456956
 40
0.7450040525
 40
0.7769849533
 40
0.8079374865
 40
0.837847088
 40
0.8667398553
 40
0.8946858927
 40
0.9083446828
 40
0.9218139407
 40
0.935115089
 40
0.9482717992
 40
0.9613097551
 40
0.9742576018
 40
0.9871454783
 40
1.0
 40
1.0
 40
1.0
 40
1.0
 10
9.5896614251
 20
9.3854828915
 30
0.0
 10
9.5896614251
 20
9.3833227896
 30
0.0
 10
9.5895109115
 20
9.3789954901
 30
0.0
 10
9.5888351954
 20
9.3725241579
 30
0.0
 10
9.5877104784
 20
9.3660840375
 30
0.0
 10
9.5861399676
 20
9.3596915672
 30
0.0
 10
9.5841275274
 20
9.3533619453
 30
0.0
 10
9.5816782156
 20
9.3471105442
 30
0.0
 10
9.5787979483
 20
9.3409523305
 30
0.0
 10
9.5743598953
 20
9.3328253782
 30
0.0
 10
9.5677384847
 20
9.3229657421
 30
0.0
 10
9.5582731045
 20
9.3118421948
 30
0.0
 10
9.5473191578
 20
9.301435525
 30
0.0
 10
9.5349841609
 20
9.291844137
 30
0.0
 10
9.5213869569
 20
9.2831570007
 30
0.0
 10
9.5066580456
 20
9.2754553951
 30
0.0
 10
9.4909383134
 20
9.2688114892
 30
0.0
 10
9.4743779767
 20
9.2632877885
 30
0.0
 10
9.4571352426
 20
9.2589363995
 30
0.0
 10
9.4393748619
 20
9.2557984718
 30
0.0
 10
9.4212665754
 20
9.2539037308
 30
0.0
 10
9.4029834891
 20
9.2532701464
 30
0.0
 10
9.3847004028
 20
9.2539037308
 30
0.0
 10
9.3665921164
 20
9.2557984718
 30
0.0
 10
9.3488317357
 20
9.2589363995
 30
0.0
 10
9.3315890015
 20
9.2632877885
 30
0.0
 10
9.3150286648
 20
9.2688114893
 30
0.0
 10
9.2993089325
 20
9.2754553952
 30
0.0
 10
9.2845800212
 20
9.2831570008
 30
0.0
 10
9.2709828173
 20
9.2918441371
 30
0.0
 10
9.2586478204
 20
9.301435525
 30
0.0
 10
9.2476938738
 20
9.3118421948
 30
0.0
 10
9.2382284935
 20
9.322965742
 30
0.0
 10
9.231607083
 20
9.3328253782
 30
0.0
 10
9.2271690299
 20
9.3409523305
 30
0.0
 10
9.2242887626
 20
9.3471105442
 30
0.0
 10
9.2218394508
 20
9.3533619453
 30
0.0
 10
9.2198270107
 20
9.3596915671
 30
0.0
 10
9.2182564999
 20
9.3660840375
 30
0.0
 10
9.2171317829
 20
9.3725241578
 30
0.0
 10
9.2164560668
 20
9.3789954901
 30
0.0
 10
9.2163055532
 20
9.3833227896
 30
0.0
 10
9.2163055532
 20
9.3854828915
 30
0.0
  0
ELLIPSE
  5
2D9
100
AcDbEntity
  8
0
100
AcDbEllipse
 62
7
  6
CONTINUOUS
 10
10.4544847187
 20
9.009891804
 30
0.0
 11
-0.0
 21
1.1875
 31
0.0
 40
0.9750549296
 41
-2.0943951024
 42
-1.0471975512
  0
ELLIPSE
  5
2DA
100
AcDbEntity
  8
0
100
AcDbEllipse
 62
7
  6
CONTINUOUS
 10
10.4544847187
 20
9.009891804
 30
0.0
 11
1.1162095399
 21
1.1492470711
 31
0.0
 40
0.2678505055
 41
-0.7926884546
 42
0.2545090966
  0
ELLIPSE
  5
2DB
100
AcDbEntity
  8
0
100
AcDbEllipse
 62
7
  6
CONTINUOUS
 10
10.4544847187
 20
9.009891804
 30
0.0
 11
1.1162095399
 21
-1.1492470711
 31
0.0
 40
0.2678505055
 41
-0.2545090966
 42
0.7926884546
  0
ENDSEC
  0
SECTION
  2
OBJECTS
  0
DICTIONARY
  5
C
100
AcDbDictionary
280
0
281
1
  3
ACAD_GROUP
350
D
  3
ACAD_MLINESTYLE
350
17
  3
ACAD_LAYOUT
350
1A
  3
ACAD_PLOTSETTINGS
350
19
  3
ACAD_PLOTSTYLENAME
350
E
  0
DICTIONARY
  5
D
102
{ACAD_REACTORS
330
C
102
}
100
AcDbDictionary
280
0
281
1
  0
ACDBDICTIONARYWDFLT
  5
E
102
{ACAD_REACTORS
330
C
102
}
100
AcDbDictionary
281
1
  3
Normal
350
F
100
AcDbDictionaryWithDefault
340
F
  0
DICTIONARY
  5
17
102
{ACAD_REACTORS
330
C
102
}
100
AcDbDictionary
280
0
281
1
  3
Standard
350
18
  0
DICTIONARY
  5
19
102
{ACAD_REACTORS
330
C
102
}
100
AcDbDictionary
281
1
  0
DICTIONARY
  5
1A
102
{ACAD_REACTORS
330
C
102
}
100
AcDbDictionary
281
1
  3
Model
350
2DC
  3
Layout1
350
2DD
  0
ACDBPLACEHOLDER
  5
F
102
{ACAD_REACTORS
330
E
102
}
  0
MLINESTYLE
  5
18
102
{ACAD_REACTORS
330
17
102
}
100
AcDbMlineStyle
  2
STANDARD
 70
0
  3

 62
256
 51
90.0
 52
90.0
 71
2
 49
0.5
 62
256
  6
BYLAYER
 49
-0.5
 62
256
  6
BYLAYER
  0
LAYOUT
  5
2DC
102
{ACAD_REACTORS
330
1A
102
}
100
AcDbPlotSettings
  1

  2
none_device
  4
ANSI_C_(22.00_x_17.00_Inches)
  6

 40
0.0
 41
0.0
 42
0.0
 43
0.0
 44
558.8
 45
431.8
 46
0.0
 47
0.0
 48
0.0
 49
0.0
140
0.0
141
0.0
142
1.0
143
1.0
 70
1024
 72
0
 73
0
 74
0
  7

 75
0
147
1.0
148
0.0
149
0.0
100
AcDbLayout
  1
Model
 70
0
 71
0
 10
0.0
 20
0.0
 11
22.0
 21
17.0
 12
0.0
 22
0.0
 32
0.0
 14
0.0
 24
0.0
 34
0.0
 15
0.0
 25
0.0
 35
0.0
146
0.0
 13
0.0
 23
0.0
 33
0.0
 16
1.0
 26
0.0
 36
0.0
 17
0.0
 27
1.0
 37
0.0
 76
0
330
205
345
0
346
0
  0
LAYOUT
  5
2DD
102
{ACAD_REACTORS
330
1A
102
}
100
AcDbPlotSettings
  1

  2
none_device
  4
ANSI_C_(22.00_x_17.00_Inches)
  6

 40
0.0
 41
0.0
 42
0.0
 43
0.0
 44
558.8
 45
431.8
 46
0.0
 47
0.0
 48
0.0
 49
0.0
140
0.0
141
0.0
142
1.0
143
1.0
 70
0
 72
0
 73
0
 74
0
  7

 75
0
147
1.0
148
0.0
149
0.0
100
AcDbLayout
  1
Layout1
 70
0
 71
1
 10
0.0
 20
0.0
 11
22.0
 21
17.0
 12
0.0
 22
0.0
 32
0.0
 14
0.0
 24
0.0
 34
0.0
 15
0.0
 25
0.0
 35
0.0
146
0.0
 13
0.0
 23
0.0
 33
0.0
 16
1.0
 26
0.0
 36
0.0
 17
0.0
 27
1.0
 37
0.0
 76
0
330
206
345
0
346
0
  0
ENDSEC
  0
EOF
