999
DXF file: E:\BT Custom\CADOUTPUT\_TOP.dxf
999
Pro/ENGINEER 2018400 by Parametric Technology Corporation
  0
SECTION
  2
HEADER
  9
$ACADVER
  1
AC1018
  9
$DWGCODEPAGE
  3
ANSI_1252
  9
$EXTMAX
 10
22.0
 20
17.0
 30
0.0
  9
$EXTMIN
 10
0.0
 20
0.0
 30
0.0
  9
$LIMMIN
 10
0.0
 20
0.0
  9
$LIMMAX
 10
22.0
 20
17.0
  9
$VIEWCTR
 10
11.0
 20
8.5
  9
$VIEWSIZE
 40
17.0
  9
$CLAYER
  8
0
  9
$LTSCALE
 40
1.21
  9
$CELTYPE
  6
BYLAYER
  9
$DIMSCALE
 40
1.0
  9
$DIMASZ
 40
0.1
  9
$DIMEXO
 40
0.0625
  9
$DIMDLI
 40
0.836
  9
$DIMEXE
 40
0.125
  9
$DIMCEN
 40
0.198
  9
$DIMLFAC
 40
1.0
  9
$DIMBLK
  1
_FILLED
  9
$DIMALT
 70
1
  9
$DIMALTD
 70
2
  9
$DIMALTTD
 70
2
  9
$DIMALTF
 40
25.4
  9
$DIMTXT
 40
0.08
  9
$DIMTOL
 70
1
  9
$DIMLIM
 70
0
  9
$DIMTFAC
 40
1.0
  9
$DIMTP
 40
0.001
  9
$DIMTM
 40
0.001
  9
$DIMGAP
 40
0.09
  9
$DIMDSEP
 70
46
  9
$AUNITS
 70
0
  9
$PDMODE
 70
3
  9
$PDSIZE
 40
0.06
  9
$HANDSEED
  5
243
  9
$TILEMODE
 70
1
  9
$MEASUREMENT
 70
0
  9
$INSUNITS
 70
1
  0
ENDSEC
  0
SECTION
  2
CLASSES
  0
CLASS
  1
ACDBDICTIONARYWDFLT
  2
AcDbDictionaryWithDefault
  3
AutoCAD 2000
 90
0
 91
1
280
0
281
0
  0
CLASS
  1
ACDBPLACEHOLDER
  2
AcDbPlaceHolder
  3
AutoCAD 2000
 90
0
 91
1
280
0
281
0
  0
CLASS
  1
LAYOUT
  2
AcDbLayout
  3
AutoCAD 2000
 90
0
 91
0
280
0
281
0
  0
ENDSEC
  0
SECTION
  2
TABLES
  0
TABLE
  2
VPORT
  5
8
100
AcDbSymbolTable
 70
2
  0
VPORT
  5
1F4
100
AcDbSymbolTableRecord
100
AcDbViewportTableRecord
  2
*ACTIVE
 70
0
 10
0.0
 20
0.0
 11
1.0
 21
1.0
 12
11.0
 22
8.5
 13
0.0
 23
0.0
 14
1.0
 24
1.0
 15
0.0
 25
0.0
 16
0.0
 26
0.0
 36
1.0
 17
0.0
 27
0.0
 37
0.0
 40
17.0
 41
1.2941176471
 42
50.0
 43
0.0
 44
0.0
 50
0.0
 51
0.0
 71
0
 72
100
 73
1
 74
1
 75
0
 76
0
 77
0
 78
0
  0
ENDTAB
  0
TABLE
  2
LTYPE
  5
5
100
AcDbSymbolTable
 70
6
  0
LTYPE
  5
14
100
AcDbSymbolTableRecord
100
AcDbLinetypeTableRecord
  2
BYBLOCK
 70
0
  3

 72
65
 73
0
 40
0.0
  0
LTYPE
  5
15
100
AcDbSymbolTableRecord
100
AcDbLinetypeTableRecord
  2
BYLAYER
 70
0
  3

 72
65
 73
0
 40
0.0
  0
LTYPE
  5
16
100
AcDbSymbolTableRecord
100
AcDbLinetypeTableRecord
  2
CONTINUOUS
 70
64
  3
Solid line
 72
65
 73
0
 40
0.0
  0
LTYPE
  5
1F5
100
AcDbSymbolTableRecord
100
AcDbLinetypeTableRecord
  2
CENTER
 70
64
  3
____ _ ____ _ ____ _ ____ _ ____ _ ____ _ ____
 72
65
 73
4
 40
0.6
 49
0.375
 74
0
 49
-0.075
 74
0
 49
0.075
 74
0
 49
-0.075
 74
0
  0
LTYPE
  5
1F6
100
AcDbSymbolTableRecord
100
AcDbLinetypeTableRecord
  2
HIDDEN
 70
64
  3
- - - - - - - - - - - - - - - - - - - -
 72
65
 73
2
 40
0.2
 49
0.1
 74
0
 49
-0.1
 74
0
  0
LTYPE
  5
1F7
100
AcDbSymbolTableRecord
100
AcDbLinetypeTableRecord
  2
PHANTOM
 70
64
  3
_____ _ _ _____ _ _ _____ _ _ _____
 72
65
 73
6
 40
0.8
 49
0.45
 74
0
 49
-0.05
 74
0
 49
0.1
 74
0
 49
-0.05
 74
0
 49
0.1
 74
0
 49
-0.05
 74
0
  0
LTYPE
  5
1F8
100
AcDbSymbolTableRecord
100
AcDbLinetypeTableRecord
  2
DOT
 70
64
  3
. . . . . . . . . . . . . . . . . . . .
 72
65
 73
2
 40
0.2
 49
0.1
 74
0
 49
-0.1
 74
0
  0
LTYPE
  5
1F9
100
AcDbSymbolTableRecord
100
AcDbLinetypeTableRecord
  2
DASHED
 70
64
  3
- - - - - - - - - - - - - - - - - - - -
 72
65
 73
2
 40
0.2
 49
0.1
 74
0
 49
-0.1
 74
0
  0
ENDTAB
  0
TABLE
  2
LAYER
  5
2
100
AcDbSymbolTable
 70
36
  0
LAYER
  5
10
100
AcDbSymbolTableRecord
100
AcDbLayerTableRecord
  2
0
 70
0
 62
7
  6
CONTINUOUS
370
-3
390
F
  0
LAYER
  5
1FA
100
AcDbSymbolTableRecord
100
AcDbLayerTableRecord
  2
DEFAULT_1
 70
0
 62
7
  6
CENTER
370
-3
390
F
  0
LAYER
  5
1FB
100
AcDbSymbolTableRecord
100
AcDbLayerTableRecord
  2
DEFAULT_2
 70
0
 62
8
  6
HIDDEN
370
-3
390
F
  0
LAYER
  5
1FC
100
AcDbSymbolTableRecord
100
AcDbLayerTableRecord
  2
DEFAULT_3
 70
0
 62
7
  6
PHANTOM
370
-3
390
F
  0
LAYER
  5
1FD
100
AcDbSymbolTableRecord
100
AcDbLayerTableRecord
  2
ALL_FEATURES
 70
0
 62
7
  6
CONTINUOUS
370
-3
390
F
  0
LAYER
  5
1FE
100
AcDbSymbolTableRecord
100
AcDbLayerTableRecord
  2
AXES_FEATURES
 70
0
 62
7
  6
CONTINUOUS
370
-3
390
F
  0
LAYER
  5
1FF
100
AcDbSymbolTableRecord
100
AcDbLayerTableRecord
  2
DEFAULT_COORDINATE_SYSTEM
 70
0
 62
7
  6
CONTINUOUS
370
-3
390
F
  0
LAYER
  5
200
100
AcDbSymbolTableRecord
100
AcDbLayerTableRecord
  2
DEFAULT_DATUM_AXES
 70
0
 62
7
  6
CONTINUOUS
370
-3
390
F
  0
LAYER
  5
201
100
AcDbSymbolTableRecord
100
AcDbLayerTableRecord
  2
DEFAULT_DATUM_PLANES
 70
0
 62
7
  6
CONTINUOUS
370
-3
390
F
  0
LAYER
  5
202
100
AcDbSymbolTableRecord
100
AcDbLayerTableRecord
  2
DIMENSIONS
 70
0
 62
7
  6
CONTINUOUS
370
-3
390
F
  0
ENDTAB
  0
TABLE
  2
STYLE
  5
3
100
AcDbSymbolTable
 70
1
  0
STYLE
  5
11
100
AcDbSymbolTableRecord
100
AcDbTextStyleTableRecord
  2
STANDARD
 70
0
 40
0.0
 41
0.8
 50
0.0
 71
0
 42
0.2
  3
txt
  4

  0
STYLE
  5
203
100
AcDbSymbolTableRecord
100
AcDbTextStyleTableRecord
  2
TEXTSTYLE_1
 70
0
 40
0.0
 41
0.8
 50
0.0
 71
0
 42
0.2
  3
gdt
  4

  0
ENDTAB
  0
TABLE
  2
VIEW
  5
6
100
AcDbSymbolTable
 70
0
  0
ENDTAB
  0
TABLE
  2
UCS
  5
7
100
AcDbSymbolTable
 70
0
  0
ENDTAB
  0
TABLE
  2
APPID
  5
9
100
AcDbSymbolTable
 70
1
  0
APPID
  5
204
100
AcDbSymbolTableRecord
100
AcDbRegAppTableRecord
  2
ACAD
 70
0
  0
ENDTAB
  0
TABLE
  2
BLOCK_RECORD
  5
1
100
AcDbSymbolTable
 70
0
  0
BLOCK_RECORD
  5
205
100
AcDbSymbolTableRecord
100
AcDbBlockTableRecord
  2
*Model_Space
  0
BLOCK_RECORD
  5
206
100
AcDbSymbolTableRecord
100
AcDbBlockTableRecord
  2
*Paper_Space
  0
BLOCK_RECORD
  5
207
100
AcDbSymbolTableRecord
100
AcDbBlockTableRecord
  2
_FILLED
  0
ENDTAB
  0
TABLE
  2
DIMSTYLE
  5
A
100
AcDbSymbolTable
 70
1
100
AcDbDimStyleTable
 71
0
  0
DIMSTYLE
105
208
100
AcDbSymbolTableRecord
100
AcDbDimStyleTableRecord
  2
STANDARD
 70
0
  3

  4

 40
1.0
 41
0.1
 42
0.0625
 43
0.38
 44
0.125
 45
0.0
 46
0.0
 47
0.001
 48
0.001
140
0.08
141
0.09
142
0.0
143
25.4
144
1.0
145
0.0
146
1.0
147
0.09
 71
1.0
 72
0.0
 73
1
 74
1
 75
0
 76
0
 77
0
 78
4
 79
1
170
1
171
2
172
0
173
0
174
0
175
0
176
0
177
0
178
0
270
2
179
3
271
3
272
3
273
2
274
2
275
0
280
0
281
0
282
0
283
1
284
4
285
0
286
0
287
3
288
0
340
11
278
46
341
207
342
207
343
207
344
207
  0
ENDTAB
  0
ENDSEC
  0
SECTION
  2
BLOCKS
  0
BLOCK
  5
20
100
AcDbEntity
  8
0
100
AcDbBlockBegin
  2
*Model_Space
 70
0
 10
0.0
 20
0.0
 30
0.0
  3
*Model_Space
  1

  0
ENDBLK
  5
21
100
AcDbEntity
  8
0
100
AcDbBlockEnd
  0
BLOCK
  5
1C
100
AcDbEntity
  8
0
100
AcDbBlockBegin
  2
*Paper_Space
 70
0
 10
0.0
 20
0.0
 30
0.0
  3
*Paper_Space
  1

  0
ENDBLK
  5
1D
100
AcDbEntity
  8
0
100
AcDbBlockEnd
  0
BLOCK
  5
209
100
AcDbEntity
  8
0
100
AcDbBlockBegin
  2
_FILLED
 70
64
 10
0.0
 20
0.0
  3
_FILLED
  1

  0
SOLID
  5
20A
100
AcDbEntity
  8
0
  6
BYBLOCK
 62
0
100
AcDbTrace
 10
0.0
 20
0.0
 11
-1.0
 21
0.2
 12
-1.0
 22
-0.2
 13
-1.0
 23
-0.2
  0
ENDBLK
  5
20B
100
AcDbEntity
  8
0
  6
BYBLOCK
 62
0
100
AcDbBlockEnd
  0
ENDSEC
  0
SECTION
  2
ENTITIES
  0
LINE
  5
20C
100
AcDbEntity
  8
0
100
AcDbLine
 62
7
  6
CONTINUOUS
 10
7.1723183383
 20
8.9573318604
 11
7.1723183383
 21
9.2373318604
  0
LINE
  5
20D
100
AcDbEntity
  8
0
100
AcDbLine
 62
9
  6
CONTINUOUS
 10
7.2023183383
 20
8.9273318604
 11
7.2023183383
 21
9.2373318604
  0
LINE
  5
20E
100
AcDbEntity
  8
0
100
AcDbLine
 62
7
  6
CONTINUOUS
 10
11.1253183383
 20
5.7273318604
 11
10.9693183383
 21
5.7273318604
  0
LINE
  5
20F
100
AcDbEntity
  8
0
100
AcDbLine
 62
9
  6
CONTINUOUS
 10
10.9293183383
 20
5.7673318604
 11
11.1653183383
 21
5.7673318604
  0
LINE
  5
210
100
AcDbEntity
  8
0
100
AcDbLine
 62
9
  6
CONTINUOUS
 10
11.1918715298
 20
5.9775992624
 11
11.1653183383
 21
5.9775994324
  0
LWPOLYLINE
  5
211
100
AcDbEntity
  8
0
100
AcDbPolyline
 62
7
  6
CONTINUOUS
 90
10
 70
0
 10
10.9027667897
 20
5.9399267267
 10
10.9059776608
 20
5.9386210018
 10
10.9109659808
 20
5.9358912469
 10
10.9155168534
 20
5.9324816987
 10
10.919538267
 20
5.9284612778
 10
10.9229489042
 20
5.923911301
 10
10.9256798443
 20
5.9189237791
 10
10.9276762922
 20
5.9135983449
 10
10.928897602
 20
5.9080414175
 10
10.9293181236
 20
5.9023764352
  0
LINE
  5
212
100
AcDbEntity
  8
0
100
AcDbLine
 62
9
  6
CONTINUOUS
 10
10.9027651468
 20
6.6713318604
 11
11.1918715298
 21
6.6713318613
  0
LINE
  5
213
100
AcDbEntity
  8
0
100
AcDbLine
 62
7
  6
CONTINUOUS
 10
10.9693183383
 20
6.7113318604
 11
11.1253183383
 21
6.7113318604
  0
LINE
  5
214
100
AcDbEntity
  8
0
100
AcDbLine
 62
9
  6
CONTINUOUS
 10
10.9759566362
 20
6.7513318604
 11
11.1186800404
 21
6.7513318604
  0
LWPOLYLINE
  5
215
100
AcDbEntity
  8
0
100
AcDbPolyline
 62
7
  6
CONTINUOUS
 90
16
 70
0
 10
10.6173183202
 20
6.3448568134
 10
10.6179318855
 20
6.3219080268
 10
10.6222719891
 20
6.2798094027
 10
10.6305909166
 20
6.2388849421
 10
10.6426510366
 20
6.199483111
 10
10.6581504929
 20
6.1620100263
 10
10.6766664737
 20
6.1269109603
 10
10.6976684969
 20
6.0946104682
 10
10.7206608641
 20
6.0652632311
 10
10.7452946205
 20
6.038825676
 10
10.7712619069
 20
6.0152127144
 10
10.7982963019
 20
5.9943459352
 10
10.8261714166
 20
5.9761268108
 10
10.8546816503
 20
5.9604636728
 10
10.8836646902
 20
5.9472621163
 10
10.9027676643
 20
5.9399264054
  0
LINE
  5
216
100
AcDbEntity
  8
0
100
AcDbLine
 62
7
  6
CONTINUOUS
 10
10.5973183383
 20
7.9383318604
 11
10.5973183383
 21
7.7023318604
  0
LINE
  5
217
100
AcDbEntity
  8
0
100
AcDbLine
 62
7
  6
CONTINUOUS
 10
10.6173183383
 20
8.9273318604
 11
10.6173183383
 21
8.5513318604
  0
LINE
  5
218
100
AcDbEntity
  8
0
100
AcDbLine
 62
7
  6
CONTINUOUS
 10
10.6173183383
 20
8.5013318604
 11
10.6173183383
 21
6.3448996614
  0
LINE
  5
219
100
AcDbEntity
  8
0
100
AcDbLine
 62
7
  6
CONTINUOUS
 10
10.7073183383
 20
8.5013318604
 11
10.7073183383
 21
8.5513318604
  0
LINE
  5
21A
100
AcDbEntity
  8
0
100
AcDbLine
 62
9
  6
CONTINUOUS
 10
10.9027651468
 20
5.9775989483
 11
10.9027651468
 21
6.6713318604
  0
LINE
  5
21B
100
AcDbEntity
  8
0
100
AcDbLine
 62
7
  6
CONTINUOUS
 10
10.9293183383
 20
5.7673318604
 11
10.9293183383
 21
6.6713318604
  0
LINE
  5
21C
100
AcDbEntity
  8
0
100
AcDbLine
 62
9
  6
CONTINUOUS
 10
10.9693183383
 20
5.7273318604
 11
10.9693183383
 21
6.7113318604
  0
LINE
  5
21D
100
AcDbEntity
  8
0
100
AcDbLine
 62
9
  6
CONTINUOUS
 10
11.1253183383
 20
5.7273318604
 11
11.1253183383
 21
6.7113318604
  0
LINE
  5
21E
100
AcDbEntity
  8
0
100
AcDbLine
 62
7
  6
CONTINUOUS
 10
11.1653183383
 20
6.6713318604
 11
11.1653183383
 21
5.7673318604
  0
LINE
  5
21F
100
AcDbEntity
  8
0
100
AcDbLine
 62
9
  6
CONTINUOUS
 10
11.1918715298
 20
6.6713318613
 11
11.1918715298
 21
5.9775992624
  0
LWPOLYLINE
  5
220
100
AcDbEntity
  8
0
100
AcDbPolyline
 62
7
  6
CONTINUOUS
 90
10
 70
0
 10
11.1653187044
 20
5.9022558549
 10
11.1657185102
 20
5.907897247
 10
11.1669249186
 20
5.9134772125
 10
11.1689121455
 20
5.9188258492
 10
11.1716393453
 20
5.9238360102
 10
11.1750516402
 20
5.9284074628
 10
11.179079638
 20
5.9324471089
 10
11.1836413244
 20
5.935872657
 10
11.1886438256
 20
5.9386143948
 10
11.1918708408
 20
5.9399274301
  0
LINE
  5
221
100
AcDbEntity
  8
0
100
AcDbLine
 62
7
  6
CONTINUOUS
 10
11.4973183383
 20
7.7023318604
 11
11.4773183383
 21
7.7023318604
  0
LINE
  5
222
100
AcDbEntity
  8
0
100
AcDbLine
 62
7
  6
CONTINUOUS
 10
10.6173183383
 20
7.7023318604
 11
10.5973183383
 21
7.7023318604
  0
LINE
  5
223
100
AcDbEntity
  8
0
100
AcDbLine
 62
7
  6
CONTINUOUS
 10
11.3873183383
 20
8.5013318604
 11
11.3873183383
 21
8.5513318604
  0
LINE
  5
224
100
AcDbEntity
  8
0
100
AcDbLine
 62
7
  6
CONTINUOUS
 10
11.4773183383
 20
8.9273318604
 11
11.4773183383
 21
8.5513318604
  0
LINE
  5
225
100
AcDbEntity
  8
0
100
AcDbLine
 62
7
  6
CONTINUOUS
 10
11.4773183383
 20
8.5013318604
 11
11.4773183383
 21
6.3449011444
  0
LINE
  5
226
100
AcDbEntity
  8
0
100
AcDbLine
 62
7
  6
CONTINUOUS
 10
11.4973183383
 20
7.9383318604
 11
11.4973183383
 21
7.7023318604
  0
LINE
  5
227
100
AcDbEntity
  8
0
100
AcDbLine
 62
7
  6
CONTINUOUS
 10
11.4973183383
 20
7.9383318604
 11
11.4773183383
 21
7.9383318604
  0
LINE
  5
228
100
AcDbEntity
  8
0
100
AcDbLine
 62
7
  6
CONTINUOUS
 10
10.6173183383
 20
7.9383318604
 11
10.5973183383
 21
7.9383318604
  0
LINE
  5
229
100
AcDbEntity
  8
0
100
AcDbLine
 62
7
  6
CONTINUOUS
 10
11.4773180887
 20
8.5013318604
 11
10.6173185878
 21
8.5013318604
  0
LINE
  5
22A
100
AcDbEntity
  8
0
100
AcDbLine
 62
7
  6
CONTINUOUS
 10
11.4773183383
 20
8.5513318604
 11
10.6173183383
 21
8.5513318604
  0
LINE
  5
22B
100
AcDbEntity
  8
0
100
AcDbLine
 62
7
  6
CONTINUOUS
 10
14.8923183383
 20
8.9273318604
 11
7.2023183383
 21
8.9273318604
  0
LWPOLYLINE
  5
22C
100
AcDbEntity
  8
0
100
AcDbPolyline
 62
7
  6
CONTINUOUS
 90
16
 70
0
 10
11.1918689565
 20
5.9399266063
 10
11.2111577756
 20
5.9473384463
 10
11.2401441
 20
5.9605584766
 10
11.2686550412
 20
5.9762408566
 10
11.2965284057
 20
5.9944793055
 10
11.3235622293
 20
6.0153700401
 10
11.3495309306
 20
6.0390118483
 10
11.3741660156
 20
6.0654856839
 10
11.3971492066
 20
6.094863683
 10
11.4181271671
 20
6.1271777919
 10
11.4366077764
 20
6.1622697485
 10
11.4520752642
 20
6.1997319008
 10
11.4641091202
 20
6.2391359093
 10
11.4724049052
 20
6.280070262
 10
11.4767182554
 20
6.3221676149
 10
11.477318356
 20
6.3449480761
  0
LINE
  5
22D
100
AcDbEntity
  8
0
100
AcDbLine
 62
9
  6
CONTINUOUS
 10
14.9223183383
 20
8.9573318604
 11
7.1723183383
 21
8.9573318604
  0
LINE
  5
22E
100
AcDbEntity
  8
0
100
AcDbLine
 62
7
  6
CONTINUOUS
 10
7.1723183383
 20
9.2373318604
 11
14.9223183383
 21
9.2373318604
  0
LINE
  5
22F
100
AcDbEntity
  8
0
100
AcDbLine
 62
9
  6
CONTINUOUS
 10
14.8923183383
 20
8.9273318604
 11
14.8923183383
 21
9.2373318604
  0
LINE
  5
230
100
AcDbEntity
  8
0
100
AcDbLine
 62
7
  6
CONTINUOUS
 10
14.9223183383
 20
8.9573318604
 11
14.9223183383
 21
9.2373318604
  0
ARC
  5
231
100
AcDbEntity
  8
0
100
AcDbCircle
 62
9
  6
CONTINUOUS
 10
11.123411338
 20
6.3449046481
 40
0.3539070558
100
AcDbArc
 50
357.9419196171
 51
359.9993695197
  0
ARC
  5
232
100
AcDbEntity
  8
0
100
AcDbCircle
 62
7
  6
CONTINUOUS
 10
10.9693183383
 20
5.7673318604
 40
0.04
100
AcDbArc
 50
180.0
 51
270.0
  0
ARC
  5
233
100
AcDbEntity
  8
0
100
AcDbCircle
 62
7
  6
CONTINUOUS
 10
11.1253183383
 20
5.7673318604
 40
0.04
100
AcDbArc
 50
270.0
 51
360.0
  0
ARC
  5
234
100
AcDbEntity
  8
0
100
AcDbCircle
 62
7
  6
CONTINUOUS
 10
11.1253183383
 20
6.6713318604
 40
0.04
100
AcDbArc
 50
0.0
 51
90.0
  0
ARC
  5
235
100
AcDbEntity
  8
0
100
AcDbCircle
 62
7
  6
CONTINUOUS
 10
10.9693183383
 20
6.6713318604
 40
0.04
100
AcDbArc
 50
90.0
 51
180.0
  0
ARC
  5
236
100
AcDbEntity
  8
0
100
AcDbCircle
 62
7
  6
CONTINUOUS
 10
7.2023183383
 20
8.9573318604
 40
0.03
100
AcDbArc
 50
180.0
 51
270.0
  0
ARC
  5
237
100
AcDbEntity
  8
0
100
AcDbCircle
 62
7
  6
CONTINUOUS
 10
14.8923183383
 20
8.9573318604
 40
0.03
100
AcDbArc
 50
270.0
 51
360.0
  0
SPLINE
  5
238
100
AcDbEntity
  8
0
100
AcDbSpline
 62
9
  6
CONTINUOUS
 70
0
 71
3
 72
25
 73
21
 74
0
 42
0.0000001
 43
0.0000001
 44
0.0000000001
 40
0.0
 40
0.0
 40
0.0
 40
0.0
 40
0.0079342063
 40
0.01650715
 40
0.0262207194
 40
0.0374179247
 40
0.050311414
 40
0.0650290727
 40
0.0816433396
 40
0.100185283
 40
0.1430615479
 40
0.1935383474
 40
0.2513008308
 40
0.3159042535
 40
0.3868053279
 40
0.463382682
 40
0.5449460764
 40
0.6307503322
 40
0.8118570572
 40
1.0
 40
1.0
 40
1.0
 40
1.0
 10
11.1253183383
 20
6.7113318604
 30
0.0
 10
11.1252086248
 20
6.7113318604
 30
0.0
 10
11.1249792287
 20
6.7113673304
 30
0.0
 10
11.1246467741
 20
6.7115207529
 30
0.0
 10
11.12432079
 20
6.7117697419
 30
0.0
 10
11.1240002176
 20
6.7121120647
 30
0.0
 10
11.1236838878
 20
6.7125468156
 30
0.0
 10
11.1233717976
 20
6.7130735278
 30
0.0
 10
11.1230643272
 20
6.7136913851
 30
0.0
 10
11.1226405644
 20
6.7146842338
 30
0.0
 10
11.1221381649
 20
6.7161496556
 30
0.0
 10
11.1215884243
 20
6.7181665617
 30
0.0
 10
11.1210725203
 20
6.7205010698
 30
0.0
 10
11.1205956797
 20
6.7231311714
 30
0.0
 10
11.1201629157
 20
6.7260321221
 30
0.0
 10
11.1197786728
 20
6.7291762136
 30
0.0
 10
11.1194468029
 20
6.7325333694
 30
0.0
 10
11.1190719573
 20
6.7373377223
 30
0.0
 10
11.1187620363
 20
6.7436239341
 30
0.0
 10
11.1186800409
 20
6.7487302381
 30
0.0
 10
11.1186800404
 20
6.7513318604
 30
0.0
  0
SPLINE
  5
239
100
AcDbEntity
  8
0
100
AcDbSpline
 62
9
  6
CONTINUOUS
 70
0
 71
3
 72
28
 73
24
 74
0
 42
0.0000001
 43
0.0000001
 44
0.0000000001
 40
0.0
 40
0.0
 40
0.0
 40
0.0
 40
0.1931969512
 40
0.382297588
 40
0.4725808715
 40
0.5582637287
 40
0.637965656
 40
0.7103965545
 40
0.7744717333
 40
0.8031226132
 40
0.8294322526
 40
0.853364605
 40
0.8749352702
 40
0.8941865421
 40
0.9111997235
 40
0.9261211902
 40
0.9391519736
 40
0.9505789462
 40
0.9608012957
 40
0.9703185385
 40
0.9796903163
 40
0.9894454746
 40
1.0
 40
1.0
 40
1.0
 40
1.0
 10
10.9027675264
 20
5.9775987357
 30
0.0
 10
10.9033240222
 20
5.9750863672
 30
0.0
 10
10.9043243396
 20
5.970091997
 30
0.0
 10
10.9053003809
 20
5.9638713237
 30
0.0
 10
10.9058777894
 20
5.959042788
 30
0.0
 10
10.9061914608
 20
5.9556514528
 30
0.0
 10
10.9063845956
 20
5.9524891624
 30
0.0
 10
10.9064541931
 20
5.9496095502
 30
0.0
 10
10.906407609
 20
5.947409075
 30
0.0
 10
10.906299953
 20
5.9458269832
 30
0.0
 10
10.9061913889
 20
5.9447815379
 30
0.0
 10
10.906052405
 20
5.9438348484
 30
0.0
 10
10.9058840262
 20
5.9429885071
 30
0.0
 10
10.9056872308
 20
5.9422431182
 30
0.0
 10
10.9054627112
 20
5.941598501
 30
0.0
 10
10.9052114592
 20
5.9410535476
 30
0.0
 10
10.9049337848
 20
5.9406065625
 30
0.0
 10
10.9046292779
 20
5.940255981
 30
0.0
 10
10.9042975812
 20
5.940000862
 30
0.0
 10
10.9039395373
 20
5.9398418624
 30
0.0
 10
10.9035592685
 20
5.9397788392
 30
0.0
 10
10.9031619179
 20
5.9398071722
 30
0.0
 10
10.90289954
 20
5.9398793438
 30
0.0
 10
10.90276714
 20
5.9399265972
 30
0.0
  0
LINE
  5
23A
100
AcDbEntity
  8
0
100
AcDbLine
 62
9
  6
CONTINUOUS
 10
10.9293183383
 20
5.9776480119
 11
10.9027651468
 21
5.9775989483
  0
SPLINE
  5
23B
100
AcDbEntity
  8
0
100
AcDbSpline
 62
9
  6
CONTINUOUS
 70
0
 71
3
 72
23
 73
19
 74
0
 42
0.0000001
 43
0.0000001
 44
0.0000000001
 40
0.0
 40
0.0
 40
0.0
 40
0.0
 40
0.0633897396
 40
0.1267324218
 40
0.1899503311
 40
0.2530108747
 40
0.3158776147
 40
0.3785372518
 40
0.4409890435
 40
0.5032517775
 40
0.5653582213
 40
0.6273528312
 40
0.6892895637
 40
0.7512266771
 40
0.813222157
 40
0.8753220153
 40
0.9375779367
 40
1.0
 40
1.0
 40
1.0
 40
1.0
 10
10.9027651468
 20
6.6713318604
 30
0.0
 10
10.9027648207
 20
6.6738743511
 30
0.0
 10
10.9029863123
 20
6.6789602925
 30
0.0
 10
10.9039840782
 20
6.6865227811
 30
0.0
 10
10.9056387198
 20
6.6939562271
 30
0.0
 10
10.9079352637
 20
6.7011971792
 30
0.0
 10
10.9108661136
 20
6.708181566
 30
0.0
 10
10.9144078023
 20
6.7148494262
 30
0.0
 10
10.9185363481
 20
6.721142361
 30
0.0
 10
10.9232289695
 20
6.726998927
 30
0.0
 10
10.9284532749
 20
6.7323616307
 30
0.0
 10
10.9341730451
 20
6.7371730003
 30
0.0
 10
10.9403461685
 20
6.7413760308
 30
0.0
 10
10.9469234058
 20
6.7449148586
 30
0.0
 10
10.9538461325
 20
6.7477371081
 30
0.0
 10
10.9610472092
 20
6.7497956705
 30
0.0
 10
10.9684477553
 20
6.7510502402
 30
0.0
 10
10.9734529579
 20
6.7513319575
 30
0.0
 10
10.9759566362
 20
6.7513318604
 30
0.0
  0
SPLINE
  5
23C
100
AcDbEntity
  8
0
100
AcDbSpline
 62
9
  6
CONTINUOUS
 70
0
 71
3
 72
26
 73
22
 74
0
 42
0.0000001
 43
0.0000001
 44
0.0000000001
 40
0.0
 40
0.0
 40
0.0
 40
0.0
 40
0.0546021834
 40
0.0819902947
 40
0.109461364
 40
0.1647282988
 40
0.2205838223
 40
0.2771996483
 40
0.3347560652
 40
0.393432898
 40
0.4534116615
 40
0.5148812548
 40
0.5780222859
 40
0.6430119196
 40
0.7100126877
 40
0.7443163506
 40
0.7791701412
 40
0.8145834361
 40
0.8505622137
 40
0.9241917971
 40
1.0
 40
1.0
 40
1.0
 40
1.0
 10
11.4770901012
 20
6.3321949415
 30
0.0
 10
11.476773312
 20
6.3233791352
 30
0.0
 10
11.4758016215
 20
6.310152242
 30
0.0
 10
11.4735198736
 20
6.292612597
 30
0.0
 10
11.4705669707
 20
6.2750636486
 30
0.0
 10
11.4656119461
 20
6.2532045165
 30
0.0
 10
11.4576552296
 20
6.2272733402
 30
0.0
 10
11.4476447022
 20
6.2016649697
 30
0.0
 10
11.4355477156
 20
6.1764667728
 30
0.0
 10
11.4213231838
 20
6.1517754566
 30
0.0
 10
11.4049230649
 20
6.127702551
 30
0.0
 10
11.3863050305
 20
6.1043696529
 30
0.0
 10
11.3654173436
 20
6.0819234072
 30
0.0
 10
11.342221142
 20
6.0605300047
 30
0.0
 10
11.3211090342
 20
6.0438673478
 30
0.0
 10
11.3030801703
 20
6.0312556457
 30
0.0
 10
11.2888656639
 20
6.022116747
 30
0.0
 10
11.2740712882
 20
6.0134036096
 30
0.0
 10
11.2534269302
 20
6.0023129634
 30
0.0
 10
11.2262067234
 20
5.9897276699
 30
0.0
 10
11.2035234828
 20
5.9813721748
 30
0.0
 10
11.1918715298
 20
5.9775993858
 30
0.0
  0
SPLINE
  5
23D
100
AcDbEntity
  8
0
100
AcDbSpline
 62
9
  6
CONTINUOUS
 70
0
 71
3
 72
25
 73
21
 74
0
 42
0.0000001
 43
0.0000001
 44
0.0000000001
 40
0.0
 40
0.0
 40
0.0
 40
0.0
 40
0.0079342139
 40
0.0165071641
 40
0.0262207389
 40
0.0374179483
 40
0.0503114408
 40
0.0650291018
 40
0.0816433703
 40
0.1001853149
 40
0.1430615808
 40
0.1935383798
 40
0.2513008618
 40
0.3159042823
 40
0.3868053538
 40
0.4633827045
 40
0.5449460953
 40
0.6307503473
 40
0.8118570646
 40
1.0
 40
1.0
 40
1.0
 40
1.0
 10
10.9693183383
 20
6.7113318604
 30
0.0
 10
10.9694280518
 20
6.7113318604
 30
0.0
 10
10.9696574482
 20
6.7113673304
 30
0.0
 10
10.9699899031
 20
6.7115207528
 30
0.0
 10
10.9703158875
 20
6.7117697419
 30
0.0
 10
10.9706364601
 20
6.7121120647
 30
0.0
 10
10.9709527902
 20
6.7125468156
 30
0.0
 10
10.9712648806
 20
6.7130735278
 30
0.0
 10
10.9715723513
 20
6.7136913851
 30
0.0
 10
10.9719961144
 20
6.7146842337
 30
0.0
 10
10.9724985141
 20
6.7161496556
 30
0.0
 10
10.973048255
 20
6.7181665617
 30
0.0
 10
10.9735641591
 20
6.7205010697
 30
0.0
 10
10.9740409997
 20
6.7231311714
 30
0.0
 10
10.9744737636
 20
6.726032122
 30
0.0
 10
10.9748580064
 20
6.7291762136
 30
0.0
 10
10.9751898761
 20
6.7325333693
 30
0.0
 10
10.9755647213
 20
6.7373377222
 30
0.0
 10
10.9758746415
 20
6.7436239341
 30
0.0
 10
10.9759566362
 20
6.7487302381
 30
0.0
 10
10.9759566362
 20
6.7513318604
 30
0.0
  0
SPLINE
  5
23E
100
AcDbEntity
  8
0
100
AcDbSpline
 62
9
  6
CONTINUOUS
 70
0
 71
3
 72
27
 73
23
 74
0
 42
0.0000001
 43
0.0000001
 44
0.0000000001
 40
0.0
 40
0.0
 40
0.0
 40
0.0
 40
0.0760574426
 40
0.1132555253
 40
0.1498746756
 40
0.1859109535
 40
0.2213629668
 40
0.2905333618
 40
0.3575025006
 40
0.4224162344
 40
0.4854511564
 40
0.5467973603
 40
0.6066484285
 40
0.6652054143
 40
0.7226591614
 40
0.7510379575
 40
0.7792131764
 40
0.8350352552
 40
0.8903177232
 40
0.9178187248
 40
0.9452528627
 40
1.0
 40
1.0
 40
1.0
 40
1.0
 10
10.9027651468
 20
5.9775991399
 30
0.0
 10
10.8907694132
 20
5.9814833686
 30
0.0
 10
10.8731322942
 20
5.9880047333
 30
0.0
 10
10.8504049752
 20
5.9980571235
 30
0.0
 10
10.8340613106
 20
6.0061038247
 30
0.0
 10
10.8183139567
 20
6.0146716678
 30
0.0
 10
10.7982934772
 20
6.0266373805
 30
0.0
 10
10.7747662472
 20
6.0426866684
 30
0.0
 10
10.7487918185
 20
6.0636285187
 30
0.0
 10
10.7252909868
 20
6.0858560627
 30
0.0
 10
10.7042334628
 20
6.1091670265
 30
0.0
 10
10.6855729681
 20
6.1333847772
 30
0.0
 10
10.6692534016
 20
6.1583548156
 30
0.0
 10
10.6552298616
 20
6.1839476453
 30
0.0
 10
10.6453706312
 20
6.2057884072
 30
0.0
 10
10.6386066924
 20
6.2234413745
 30
0.0
 10
10.6326148733
 20
6.241085654
 30
0.0
 10
10.6264559278
 20
6.2633642918
 30
0.0
 10
10.6220515626
 20
6.2859409922
 30
0.0
 10
10.619595295
 20
6.3040513701
 30
0.0
 10
10.6178459181
 20
6.3221535148
 30
0.0
 10
10.6173193469
 20
6.3357852001
 30
0.0
 10
10.6173182846
 20
6.3448612646
 30
0.0
  0
SPLINE
  5
23F
100
AcDbEntity
  8
0
100
AcDbSpline
 62
9
  6
CONTINUOUS
 70
0
 71
3
 72
29
 73
25
 74
0
 42
0.0000001
 43
0.0000001
 44
0.0000000001
 40
0.0
 40
0.0
 40
0.0
 40
0.0
 40
0.0105558887
 40
0.020315939
 40
0.029693175
 40
0.0392144701
 40
0.0494393587
 40
0.0608677762
 40
0.0738992552
 40
0.0888210474
 40
0.1058341862
 40
0.1250847499
 40
0.1466540656
 40
0.1705845686
 40
0.196892106
 40
0.2255410288
 40
0.2896145465
 40
0.3620450885
 40
0.4417444036
 40
0.5274225625
 40
0.6177029734
 40
0.7112402653
 40
0.8068102298
 40
1.0
 40
1.0
 40
1.0
 40
1.0
 10
11.191870383
 20
5.9399272367
 30
0.0
 10
11.1917379659
 20
5.9398799623
 30
0.0
 10
11.1914755081
 20
5.9398077376
 30
0.0
 10
11.1910780025
 20
5.9397792687
 30
0.0
 10
11.1906974984
 20
5.9398421237
 30
0.0
 10
11.190339213
 20
5.9400010257
 30
0.0
 10
11.1900073423
 20
5.9402561301
 30
0.0
 10
11.1897027492
 20
5.9406067487
 30
0.0
 10
11.1894250928
 20
5.9410538102
 30
0.0
 10
11.1891739346
 20
5.9415988455
 30
0.0
 10
11.1889495311
 20
5.9422435218
 30
0.0
 10
11.1887528247
 20
5.9429889321
 30
0.0
 10
11.1885844878
 20
5.9438352587
 30
0.0
 10
11.1884454782
 20
5.9447819062
 30
0.0
 10
11.1883368077
 20
5.9458272983
 30
0.0
 10
11.1882289814
 20
5.9474093596
 30
0.0
 10
11.1881824237
 20
5.9496098657
 30
0.0
 10
11.1882521522
 20
5.9524895132
 30
0.0
 10
11.1884452181
 20
5.9556518173
 30
0.0
 10
11.1887587383
 20
5.9590431478
 30
0.0
 10
11.1891853406
 20
5.9626077362
 30
0.0
 10
11.1897167133
 20
5.9662913644
 30
0.0
 10
11.1905566796
 20
5.9713140455
 30
0.0
 10
11.1913131661
 20
5.9750866479
 30
0.0
 10
11.1918692993
 20
5.9775990924
 30
0.0
  0
SPLINE
  5
240
100
AcDbEntity
  8
0
100
AcDbSpline
 62
9
  6
CONTINUOUS
 70
0
 71
3
 72
23
 73
19
 74
0
 42
0.0000001
 43
0.0000001
 44
0.0000000001
 40
0.0
 40
0.0
 40
0.0
 40
0.0
 40
0.0624222671
 40
0.1246781149
 40
0.186778336
 40
0.2487734523
 40
0.3107108038
 40
0.37264759
 40
0.4346421488
 40
0.4967486618
 40
0.5590114924
 40
0.6214632975
 40
0.6841224059
 40
0.7469898866
 40
0.8100502461
 40
0.8732677909
 40
0.9366104599
 40
1.0
 40
1.0
 40
1.0
 40
1.0
 10
11.1186800404
 20
6.7513318604
 30
0.0
 10
11.1211837251
 20
6.7513318754
 30
0.0
 10
11.1261889531
 20
6.7510505451
 30
0.0
 10
11.1335894489
 20
6.7497954764
 30
0.0
 10
11.1407905388
 20
6.7477371376
 30
0.0
 10
11.147713468
 20
6.7449152637
 30
0.0
 10
11.1542902638
 20
6.7413756484
 30
0.0
 10
11.1604637379
 20
6.7371731873
 30
0.0
 10
11.1661836508
 20
6.7323619382
 30
0.0
 10
11.1714075492
 20
6.7269988051
 30
0.0
 10
11.1760996464
 20
6.7211418828
 30
0.0
 10
11.1802294065
 20
6.7148497884
 30
0.0
 10
11.1837708429
 20
6.7081817028
 30
0.0
 10
11.1867004671
 20
6.7011968487
 30
0.0
 10
11.1889978245
 20
6.6939561808
 30
0.0
 10
11.1906524258
 20
6.686522721
 30
0.0
 10
11.1916500309
 20
6.6789602545
 30
0.0
 10
11.1918717486
 20
6.6738743413
 30
0.0
 10
11.1918715298
 20
6.6713318604
 30
0.0
  0
ENDSEC
  0
SECTION
  2
OBJECTS
  0
DICTIONARY
  5
C
100
AcDbDictionary
280
0
281
1
  3
ACAD_GROUP
350
D
  3
ACAD_MLINESTYLE
350
17
  3
ACAD_LAYOUT
350
1A
  3
ACAD_PLOTSETTINGS
350
19
  3
ACAD_PLOTSTYLENAME
350
E
  0
DICTIONARY
  5
D
102
{ACAD_REACTORS
330
C
102
}
100
AcDbDictionary
280
0
281
1
  0
ACDBDICTIONARYWDFLT
  5
E
102
{ACAD_REACTORS
330
C
102
}
100
AcDbDictionary
281
1
  3
Normal
350
F
100
AcDbDictionaryWithDefault
340
F
  0
DICTIONARY
  5
17
102
{ACAD_REACTORS
330
C
102
}
100
AcDbDictionary
280
0
281
1
  3
Standard
350
18
  0
DICTIONARY
  5
19
102
{ACAD_REACTORS
330
C
102
}
100
AcDbDictionary
281
1
  0
DICTIONARY
  5
1A
102
{ACAD_REACTORS
330
C
102
}
100
AcDbDictionary
281
1
  3
Model
350
241
  3
Layout1
350
242
  0
ACDBPLACEHOLDER
  5
F
102
{ACAD_REACTORS
330
E
102
}
  0
MLINESTYLE
  5
18
102
{ACAD_REACTORS
330
17
102
}
100
AcDbMlineStyle
  2
STANDARD
 70
0
  3

 62
256
 51
90.0
 52
90.0
 71
2
 49
0.5
 62
256
  6
BYLAYER
 49
-0.5
 62
256
  6
BYLAYER
  0
LAYOUT
  5
241
102
{ACAD_REACTORS
330
1A
102
}
100
AcDbPlotSettings
  1

  2
none_device
  4
ANSI_C_(22.00_x_17.00_Inches)
  6

 40
0.0
 41
0.0
 42
0.0
 43
0.0
 44
558.8
 45
431.8
 46
0.0
 47
0.0
 48
0.0
 49
0.0
140
0.0
141
0.0
142
1.0
143
1.0
 70
1024
 72
0
 73
0
 74
0
  7

 75
0
147
1.0
148
0.0
149
0.0
100
AcDbLayout
  1
Model
 70
0
 71
0
 10
0.0
 20
0.0
 11
22.0
 21
17.0
 12
0.0
 22
0.0
 32
0.0
 14
0.0
 24
0.0
 34
0.0
 15
0.0
 25
0.0
 35
0.0
146
0.0
 13
0.0
 23
0.0
 33
0.0
 16
1.0
 26
0.0
 36
0.0
 17
0.0
 27
1.0
 37
0.0
 76
0
330
205
345
0
346
0
  0
LAYOUT
  5
242
102
{ACAD_REACTORS
330
1A
102
}
100
AcDbPlotSettings
  1

  2
none_device
  4
ANSI_C_(22.00_x_17.00_Inches)
  6

 40
0.0
 41
0.0
 42
0.0
 43
0.0
 44
558.8
 45
431.8
 46
0.0
 47
0.0
 48
0.0
 49
0.0
140
0.0
141
0.0
142
1.0
143
1.0
 70
0
 72
0
 73
0
 74
0
  7

 75
0
147
1.0
148
0.0
149
0.0
100
AcDbLayout
  1
Layout1
 70
0
 71
1
 10
0.0
 20
0.0
 11
22.0
 21
17.0
 12
0.0
 22
0.0
 32
0.0
 14
0.0
 24
0.0
 34
0.0
 15
0.0
 25
0.0
 35
0.0
146
0.0
 13
0.0
 23
0.0
 33
0.0
 16
1.0
 26
0.0
 36
0.0
 17
0.0
 27
1.0
 37
0.0
 76
0
330
206
345
0
346
0
  0
ENDSEC
  0
EOF
