999
DXF file: E:\BT Custom\CADOUTPUT\_TOP.dxf
999
Pro/ENGINEER 2018400 by Parametric Technology Corporation
  0
SECTION
  2
HEADER
  9
$ACADVER
  1
AC1018
  9
$DWGCODEPAGE
  3
ANSI_1252
  9
$EXTMAX
 10
22.0
 20
17.0
 30
0.0
  9
$EXTMIN
 10
0.0
 20
0.0
 30
0.0
  9
$LIMMIN
 10
0.0
 20
0.0
  9
$LIMMAX
 10
22.0
 20
17.0
  9
$VIEWCTR
 10
11.0
 20
8.5
  9
$VIEWSIZE
 40
17.0
  9
$CLAYER
  8
0
  9
$LTSCALE
 40
1.21
  9
$CELTYPE
  6
BYLAYER
  9
$DIMSCALE
 40
1.0
  9
$DIMASZ
 40
0.1
  9
$DIMEXO
 40
0.0625
  9
$DIMDLI
 40
0.836
  9
$DIMEXE
 40
0.125
  9
$DIMCEN
 40
0.198
  9
$DIMLFAC
 40
1.0
  9
$DIMBLK
  1
_FILLED
  9
$DIMALT
 70
1
  9
$DIMALTD
 70
2
  9
$DIMALTTD
 70
2
  9
$DIMALTF
 40
25.4
  9
$DIMTXT
 40
0.08
  9
$DIMTOL
 70
1
  9
$DIMLIM
 70
0
  9
$DIMTFAC
 40
1.0
  9
$DIMTP
 40
0.001
  9
$DIMTM
 40
0.001
  9
$DIMGAP
 40
0.09
  9
$DIMDSEP
 70
46
  9
$AUNITS
 70
0
  9
$PDMODE
 70
3
  9
$PDSIZE
 40
0.06
  9
$HANDSEED
  5
44C
  9
$TILEMODE
 70
1
  9
$MEASUREMENT
 70
0
  9
$INSUNITS
 70
1
  0
ENDSEC
  0
SECTION
  2
CLASSES
  0
CLASS
  1
ACDBDICTIONARYWDFLT
  2
AcDbDictionaryWithDefault
  3
AutoCAD 2000
 90
0
 91
1
280
0
281
0
  0
CLASS
  1
ACDBPLACEHOLDER
  2
AcDbPlaceHolder
  3
AutoCAD 2000
 90
0
 91
1
280
0
281
0
  0
CLASS
  1
LAYOUT
  2
AcDbLayout
  3
AutoCAD 2000
 90
0
 91
0
280
0
281
0
  0
ENDSEC
  0
SECTION
  2
TABLES
  0
TABLE
  2
VPORT
  5
8
100
AcDbSymbolTable
 70
2
  0
VPORT
  5
1F4
100
AcDbSymbolTableRecord
100
AcDbViewportTableRecord
  2
*ACTIVE
 70
0
 10
0.0
 20
0.0
 11
1.0
 21
1.0
 12
11.0
 22
8.5
 13
0.0
 23
0.0
 14
1.0
 24
1.0
 15
0.0
 25
0.0
 16
0.0
 26
0.0
 36
1.0
 17
0.0
 27
0.0
 37
0.0
 40
17.0
 41
1.2941176471
 42
50.0
 43
0.0
 44
0.0
 50
0.0
 51
0.0
 71
0
 72
100
 73
1
 74
1
 75
0
 76
0
 77
0
 78
0
  0
ENDTAB
  0
TABLE
  2
LTYPE
  5
5
100
AcDbSymbolTable
 70
6
  0
LTYPE
  5
14
100
AcDbSymbolTableRecord
100
AcDbLinetypeTableRecord
  2
BYBLOCK
 70
0
  3

 72
65
 73
0
 40
0.0
  0
LTYPE
  5
15
100
AcDbSymbolTableRecord
100
AcDbLinetypeTableRecord
  2
BYLAYER
 70
0
  3

 72
65
 73
0
 40
0.0
  0
LTYPE
  5
16
100
AcDbSymbolTableRecord
100
AcDbLinetypeTableRecord
  2
CONTINUOUS
 70
64
  3
Solid line
 72
65
 73
0
 40
0.0
  0
LTYPE
  5
1F5
100
AcDbSymbolTableRecord
100
AcDbLinetypeTableRecord
  2
CENTER
 70
64
  3
____ _ ____ _ ____ _ ____ _ ____ _ ____ _ ____
 72
65
 73
4
 40
0.6
 49
0.375
 74
0
 49
-0.075
 74
0
 49
0.075
 74
0
 49
-0.075
 74
0
  0
LTYPE
  5
1F6
100
AcDbSymbolTableRecord
100
AcDbLinetypeTableRecord
  2
HIDDEN
 70
64
  3
- - - - - - - - - - - - - - - - - - - -
 72
65
 73
2
 40
0.2
 49
0.1
 74
0
 49
-0.1
 74
0
  0
LTYPE
  5
1F7
100
AcDbSymbolTableRecord
100
AcDbLinetypeTableRecord
  2
PHANTOM
 70
64
  3
_____ _ _ _____ _ _ _____ _ _ _____
 72
65
 73
6
 40
0.8
 49
0.45
 74
0
 49
-0.05
 74
0
 49
0.1
 74
0
 49
-0.05
 74
0
 49
0.1
 74
0
 49
-0.05
 74
0
  0
LTYPE
  5
1F8
100
AcDbSymbolTableRecord
100
AcDbLinetypeTableRecord
  2
DOT
 70
64
  3
. . . . . . . . . . . . . . . . . . . .
 72
65
 73
2
 40
0.2
 49
0.1
 74
0
 49
-0.1
 74
0
  0
LTYPE
  5
1F9
100
AcDbSymbolTableRecord
100
AcDbLinetypeTableRecord
  2
DASHED
 70
64
  3
- - - - - - - - - - - - - - - - - - - -
 72
65
 73
2
 40
0.2
 49
0.1
 74
0
 49
-0.1
 74
0
  0
ENDTAB
  0
TABLE
  2
LAYER
  5
2
100
AcDbSymbolTable
 70
36
  0
LAYER
  5
10
100
AcDbSymbolTableRecord
100
AcDbLayerTableRecord
  2
0
 70
0
 62
7
  6
CONTINUOUS
370
-3
390
F
  0
LAYER
  5
1FA
100
AcDbSymbolTableRecord
100
AcDbLayerTableRecord
  2
DEFAULT_1
 70
0
 62
7
  6
CENTER
370
-3
390
F
  0
LAYER
  5
1FB
100
AcDbSymbolTableRecord
100
AcDbLayerTableRecord
  2
DEFAULT_2
 70
0
 62
8
  6
HIDDEN
370
-3
390
F
  0
LAYER
  5
1FC
100
AcDbSymbolTableRecord
100
AcDbLayerTableRecord
  2
DEFAULT_3
 70
0
 62
7
  6
PHANTOM
370
-3
390
F
  0
LAYER
  5
1FD
100
AcDbSymbolTableRecord
100
AcDbLayerTableRecord
  2
ALL_FEATURES
 70
0
 62
7
  6
CONTINUOUS
370
-3
390
F
  0
LAYER
  5
1FE
100
AcDbSymbolTableRecord
100
AcDbLayerTableRecord
  2
AXES_FEATURES
 70
0
 62
7
  6
CONTINUOUS
370
-3
390
F
  0
LAYER
  5
1FF
100
AcDbSymbolTableRecord
100
AcDbLayerTableRecord
  2
DEFAULT_COORDINATE_SYSTEM
 70
0
 62
7
  6
CONTINUOUS
370
-3
390
F
  0
LAYER
  5
200
100
AcDbSymbolTableRecord
100
AcDbLayerTableRecord
  2
DEFAULT_DATUM_AXES
 70
0
 62
7
  6
CONTINUOUS
370
-3
390
F
  0
LAYER
  5
201
100
AcDbSymbolTableRecord
100
AcDbLayerTableRecord
  2
DEFAULT_DATUM_PLANES
 70
0
 62
7
  6
CONTINUOUS
370
-3
390
F
  0
LAYER
  5
202
100
AcDbSymbolTableRecord
100
AcDbLayerTableRecord
  2
DIMENSIONS
 70
0
 62
7
  6
CONTINUOUS
370
-3
390
F
  0
ENDTAB
  0
TABLE
  2
STYLE
  5
3
100
AcDbSymbolTable
 70
1
  0
STYLE
  5
11
100
AcDbSymbolTableRecord
100
AcDbTextStyleTableRecord
  2
STANDARD
 70
0
 40
0.0
 41
0.8
 50
0.0
 71
0
 42
0.2
  3
txt
  4

  0
STYLE
  5
203
100
AcDbSymbolTableRecord
100
AcDbTextStyleTableRecord
  2
TEXTSTYLE_1
 70
0
 40
0.0
 41
0.8
 50
0.0
 71
0
 42
0.2
  3
gdt
  4

  0
ENDTAB
  0
TABLE
  2
VIEW
  5
6
100
AcDbSymbolTable
 70
0
  0
ENDTAB
  0
TABLE
  2
UCS
  5
7
100
AcDbSymbolTable
 70
0
  0
ENDTAB
  0
TABLE
  2
APPID
  5
9
100
AcDbSymbolTable
 70
1
  0
APPID
  5
204
100
AcDbSymbolTableRecord
100
AcDbRegAppTableRecord
  2
ACAD
 70
0
  0
ENDTAB
  0
TABLE
  2
BLOCK_RECORD
  5
1
100
AcDbSymbolTable
 70
0
  0
BLOCK_RECORD
  5
205
100
AcDbSymbolTableRecord
100
AcDbBlockTableRecord
  2
*Model_Space
  0
BLOCK_RECORD
  5
206
100
AcDbSymbolTableRecord
100
AcDbBlockTableRecord
  2
*Paper_Space
  0
BLOCK_RECORD
  5
207
100
AcDbSymbolTableRecord
100
AcDbBlockTableRecord
  2
_FILLED
  0
ENDTAB
  0
TABLE
  2
DIMSTYLE
  5
A
100
AcDbSymbolTable
 70
1
100
AcDbDimStyleTable
 71
0
  0
DIMSTYLE
105
208
100
AcDbSymbolTableRecord
100
AcDbDimStyleTableRecord
  2
STANDARD
 70
0
  3

  4

 40
1.0
 41
0.1
 42
0.0625
 43
0.38
 44
0.125
 45
0.0
 46
0.0
 47
0.001
 48
0.001
140
0.08
141
0.09
142
0.0
143
25.4
144
1.0
145
0.0
146
1.0
147
0.09
 71
1.0
 72
0.0
 73
1
 74
1
 75
0
 76
0
 77
0
 78
4
 79
1
170
1
171
2
172
0
173
0
174
0
175
0
176
0
177
0
178
0
270
2
179
3
271
3
272
3
273
2
274
2
275
0
280
0
281
0
282
0
283
1
284
4
285
0
286
0
287
3
288
0
340
11
278
46
341
207
342
207
343
207
344
207
  0
ENDTAB
  0
ENDSEC
  0
SECTION
  2
BLOCKS
  0
BLOCK
  5
20
100
AcDbEntity
  8
0
100
AcDbBlockBegin
  2
*Model_Space
 70
0
 10
0.0
 20
0.0
 30
0.0
  3
*Model_Space
  1

  0
ENDBLK
  5
21
100
AcDbEntity
  8
0
100
AcDbBlockEnd
  0
BLOCK
  5
1C
100
AcDbEntity
  8
0
100
AcDbBlockBegin
  2
*Paper_Space
 70
0
 10
0.0
 20
0.0
 30
0.0
  3
*Paper_Space
  1

  0
ENDBLK
  5
1D
100
AcDbEntity
  8
0
100
AcDbBlockEnd
  0
BLOCK
  5
209
100
AcDbEntity
  8
0
100
AcDbBlockBegin
  2
_FILLED
 70
64
 10
0.0
 20
0.0
  3
_FILLED
  1

  0
SOLID
  5
20A
100
AcDbEntity
  8
0
  6
BYBLOCK
 62
0
100
AcDbTrace
 10
0.0
 20
0.0
 11
-1.0
 21
0.2
 12
-1.0
 22
-0.2
 13
-1.0
 23
-0.2
  0
ENDBLK
  5
20B
100
AcDbEntity
  8
0
  6
BYBLOCK
 62
0
100
AcDbBlockEnd
  0
ENDSEC
  0
SECTION
  2
ENTITIES
  0
LINE
  5
20C
100
AcDbEntity
  8
0
100
AcDbLine
 62
7
  6
CONTINUOUS
 10
7.2973183383
 20
9.3919432016
 11
7.2973183383
 21
9.5669432016
  0
LWPOLYLINE
  5
20D
100
AcDbEntity
  8
0
100
AcDbPolyline
 62
7
  6
CONTINUOUS
 90
19
 70
0
 10
11.5152869115
 20
5.4352890032
 10
11.5177978911
 20
5.4355758439
 10
11.5215830767
 20
5.4364230596
 10
11.5252291449
 20
5.4377398654
 10
11.528679864
 20
5.4395031924
 10
11.5318761137
 20
5.4416912542
 10
11.5347552949
 20
5.4442811618
 10
11.5372633133
 20
5.447233933
 10
11.5393690628
 20
5.4504869138
 10
11.5410473812
 20
5.4539784283
 10
11.5422739885
 20
5.4576502342
 10
11.5430232291
 20
5.461445414
 10
11.5432675374
 20
5.4653047242
 10
11.5429935687
 20
5.4691633999
 10
11.5422221343
 20
5.4729555933
 10
11.5409786513
 20
5.4766202811
 10
11.5392869136
 20
5.4800989832
 10
11.5371699554
 20
5.4833318435
 10
11.5356623
 20
5.4851765809
  0
LINE
  5
20E
100
AcDbEntity
  8
0
100
AcDbLine
 62
9
  6
CONTINUOUS
 10
10.7020759737
 20
5.4205823651
 11
11.3925607029
 21
5.4205823651
  0
LINE
  5
20F
100
AcDbEntity
  8
0
100
AcDbLine
 62
9
  6
CONTINUOUS
 10
10.5793497747
 20
5.4352890025
 11
11.5152869019
 21
5.4352890025
  0
LINE
  5
210
100
AcDbEntity
  8
0
100
AcDbLine
 62
9
  6
CONTINUOUS
 10
11.5356623
 20
5.4851765809
 11
10.5589743765
 21
5.4851765809
  0
LINE
  5
211
100
AcDbEntity
  8
0
100
AcDbLine
 62
7
  6
CONTINUOUS
 10
9.3130915785
 20
8.8169432016
 11
9.3103283474
 21
8.9224667406
  0
LINE
  5
212
100
AcDbEntity
  8
0
100
AcDbLine
 62
9
  6
CONTINUOUS
 10
11.5106317168
 20
5.545213593
 11
10.5840049599
 21
5.5452135938
  0
LWPOLYLINE
  5
213
100
AcDbEntity
  8
0
100
AcDbPolyline
 62
7
  6
CONTINUOUS
 90
17
 70
0
 10
10.7243183383
 20
6.2717205192
 10
10.720132593
 20
6.2714431701
 10
10.7159585911
 20
6.2706149625
 10
10.711886912
 20
6.2692510119
 10
10.7080046361
 20
6.2673757536
 10
10.7043971184
 20
6.2650218022
 10
10.7011443073
 20
6.2622275981
 10
10.6983025213
 20
6.2590264771
 10
10.6958983741
 20
6.2554678099
 10
10.6939592167
 20
6.2516097856
 10
10.6925231892
 20
6.2475300243
 10
10.6916240368
 20
6.243313062
 10
10.6912874784
 20
6.2390337654
 10
10.6915303265
 20
6.2347563187
 10
10.6923347086
 20
6.2305431599
 10
10.6936767413
 20
6.2264505012
 10
10.6949023858
 20
6.2237361718
  0
LINE
  5
214
100
AcDbEntity
  8
0
100
AcDbLine
 62
9
  6
CONTINUOUS
 10
10.7035935993
 20
6.1584307263
 11
11.3910430772
 21
6.1584307263
  0
LINE
  5
215
100
AcDbEntity
  8
0
100
AcDbLine
 62
9
  6
CONTINUOUS
 10
10.6949023858
 20
6.2237361718
 11
11.3997342908
 21
6.2237361718
  0
LINE
  5
216
100
AcDbEntity
  8
0
100
AcDbLine
 62
7
  6
CONTINUOUS
 10
11.3703181229
 20
6.2717205192
 11
10.7243185517
 21
6.2717205192
  0
LINE
  5
217
100
AcDbEntity
  8
0
100
AcDbLine
 62
7
  6
CONTINUOUS
 10
10.6064920788
 20
7.8689571607
 11
10.637108895
 21
7.8993129261
  0
LINE
  5
218
100
AcDbEntity
  8
0
100
AcDbLine
 62
7
  6
CONTINUOUS
 10
12.0454446088
 20
8.5890569161
 11
11.977546362
 21
8.5570315498
  0
LINE
  5
219
100
AcDbEntity
  8
0
100
AcDbLine
 62
7
  6
CONTINUOUS
 10
11.3530783383
 20
6.7629205192
 11
10.7415583383
 21
6.7629205192
  0
LINE
  5
21A
100
AcDbEntity
  8
0
100
AcDbLine
 62
9
  6
CONTINUOUS
 10
11.3903183383
 20
6.8001605192
 11
10.7043183383
 21
6.8001605192
  0
LINE
  5
21B
100
AcDbEntity
  8
0
100
AcDbLine
 62
7
  6
CONTINUOUS
 10
10.5348183383
 20
8.2829204827
 11
10.5348183383
 21
8.0184968861
  0
LINE
  5
21C
100
AcDbEntity
  8
0
100
AcDbLine
 62
7
  6
CONTINUOUS
 10
10.5606947785
 20
7.0212587828
 11
10.5606947785
 21
6.9938958115
  0
LINE
  5
21D
100
AcDbEntity
  8
0
100
AcDbLine
 62
7
  6
CONTINUOUS
 10
10.5629636422
 20
7.0212587828
 11
10.5629636422
 21
6.9938958115
  0
LINE
  5
21E
100
AcDbEntity
  8
0
100
AcDbLine
 62
7
  6
CONTINUOUS
 10
10.5674907911
 20
7.0212587828
 11
10.5674907911
 21
6.9938958115
  0
LINE
  5
21F
100
AcDbEntity
  8
0
100
AcDbLine
 62
7
  6
CONTINUOUS
 10
10.5742551174
 20
7.0212587828
 11
10.5742551174
 21
6.9938958115
  0
LINE
  5
220
100
AcDbEntity
  8
0
100
AcDbLine
 62
7
  6
CONTINUOUS
 10
10.5832250829
 20
7.0212587828
 11
10.5832250829
 21
6.9938958115
  0
LINE
  5
221
100
AcDbEntity
  8
0
100
AcDbLine
 62
7
  6
CONTINUOUS
 10
10.5943588654
 20
7.0212587828
 11
10.5943588654
 21
6.9938958115
  0
LINE
  5
222
100
AcDbEntity
  8
0
100
AcDbLine
 62
7
  6
CONTINUOUS
 10
10.5973183383
 20
7.7569432016
 11
10.5973183383
 21
7.8469432016
  0
LINE
  5
223
100
AcDbEntity
  8
0
100
AcDbLine
 62
7
  6
CONTINUOUS
 10
10.607604554
 20
7.0212587828
 11
10.607604554
 21
6.9938958115
  0
LINE
  5
224
100
AcDbEntity
  8
0
100
AcDbLine
 62
7
  6
CONTINUOUS
 10
10.6229003913
 20
7.0212587828
 11
10.6229003913
 21
6.9938958115
  0
LINE
  5
225
100
AcDbEntity
  8
0
100
AcDbLine
 62
7
  6
CONTINUOUS
 10
10.640175061
 20
7.0212587828
 11
10.640175061
 21
6.9938958115
  0
LINE
  5
226
100
AcDbEntity
  8
0
100
AcDbLine
 62
7
  6
CONTINUOUS
 10
10.6593480205
 20
7.0212587828
 11
10.6593480205
 21
6.9938958115
  0
LINE
  5
227
100
AcDbEntity
  8
0
100
AcDbLine
 62
7
  6
CONTINUOUS
 10
10.6803298768
 20
7.0212587828
 11
10.6803298768
 21
6.9938958115
  0
LINE
  5
228
100
AcDbEntity
  8
0
100
AcDbLine
 62
7
  6
CONTINUOUS
 10
10.7030228027
 20
7.0212587828
 11
10.7030228027
 21
6.9938958115
  0
LINE
  5
229
100
AcDbEntity
  8
0
100
AcDbLine
 62
7
  6
CONTINUOUS
 10
10.7043183383
 20
6.9517365655
 11
10.7043183383
 21
6.8001605192
  0
LINE
  5
22A
100
AcDbEntity
  8
0
100
AcDbLine
 62
7
  6
CONTINUOUS
 10
10.726518361
 20
6.966018496
 11
10.726518361
 21
7.0493713449
  0
LINE
  5
22B
100
AcDbEntity
  8
0
100
AcDbLine
 62
7
  6
CONTINUOUS
 10
10.7273209933
 20
7.0212587828
 11
10.7273209933
 21
6.9938958115
  0
LINE
  5
22C
100
AcDbEntity
  8
0
100
AcDbLine
 62
7
  6
CONTINUOUS
 10
10.7507070044
 20
6.966018496
 11
10.7507070044
 21
7.0493710069
  0
LINE
  5
22D
100
AcDbEntity
  8
0
100
AcDbLine
 62
7
  6
CONTINUOUS
 10
10.7531111593
 20
7.0212587828
 11
10.7531111593
 21
6.9938958115
  0
LINE
  5
22E
100
AcDbEntity
  8
0
100
AcDbLine
 62
7
  6
CONTINUOUS
 10
10.7762785869
 20
6.966018496
 11
10.7762785869
 21
7.049371074
  0
LINE
  5
22F
100
AcDbEntity
  8
0
100
AcDbLine
 62
7
  6
CONTINUOUS
 10
10.7802730549
 20
7.0212587828
 11
10.7802730549
 21
6.9938958115
  0
LINE
  5
230
100
AcDbEntity
  8
0
100
AcDbLine
 62
7
  6
CONTINUOUS
 10
10.7823183383
 20
6.7629205192
 11
10.7823183383
 21
6.2717205192
  0
LINE
  5
231
100
AcDbEntity
  8
0
100
AcDbLine
 62
7
  6
CONTINUOUS
 10
10.6149248835
 20
6.9517365655
 11
11.4797117931
 21
6.9517365655
  0
LINE
  5
232
100
AcDbEntity
  8
0
100
AcDbLine
 62
9
  6
CONTINUOUS
 10
10.6815387378
 20
7.0485699616
 11
10.6631383101
 21
7.0485700879
  0
LINE
  5
233
100
AcDbEntity
  8
0
100
AcDbLine
 62
9
  6
CONTINUOUS
 10
11.3181540921
 20
7.0485701783
 11
11.2926902404
 21
7.0485699522
  0
LINE
  5
234
100
AcDbEntity
  8
0
100
AcDbLine
 62
9
  6
CONTINUOUS
 10
10.7253175169
 20
7.0485699863
 11
10.7037843581
 21
7.0485700987
  0
LINE
  5
235
100
AcDbEntity
  8
0
100
AcDbLine
 62
9
  6
CONTINUOUS
 10
10.644573769
 20
7.0485699505
 11
10.629648791
 21
7.0485700123
  0
LINE
  5
236
100
AcDbEntity
  8
0
100
AcDbLine
 62
9
  6
CONTINUOUS
 10
11.500478368
 20
7.0485699834
 11
11.491266118
 21
7.0485699515
  0
LINE
  5
237
100
AcDbEntity
  8
0
100
AcDbLine
 62
9
  6
CONTINUOUS
 10
10.8589519884
 20
7.0485699496
 11
10.831451067
 21
7.0485701628
  0
LINE
  5
238
100
AcDbEntity
  8
0
100
AcDbLine
 62
9
  6
CONTINUOUS
 10
11.5181680041
 20
7.0485699544
 11
11.5171283334
 21
7.0485699498
  0
LINE
  5
239
100
AcDbEntity
  8
0
100
AcDbLine
 62
9
  6
CONTINUOUS
 10
11.3680773498
 20
7.0485700708
 11
11.3451249017
 21
7.0485699937
  0
LINE
  5
23A
100
AcDbEntity
  8
0
100
AcDbLine
 62
9
  6
CONTINUOUS
 10
10.6033705738
 20
7.0485699612
 11
10.5941583074
 21
7.0485699812
  0
LINE
  5
23B
100
AcDbEntity
  8
0
100
AcDbLine
 62
9
  6
CONTINUOUS
 10
11.2631856133
 20
7.0485701666
 11
11.235684544
 21
7.0485700233
  0
LINE
  5
23C
100
AcDbEntity
  8
0
100
AcDbLine
 62
9
  6
CONTINUOUS
 10
10.9194665405
 20
7.048569995
 11
10.8904407357
 21
7.0485701638
  0
LINE
  5
23D
100
AcDbEntity
  8
0
100
AcDbLine
 62
9
  6
CONTINUOUS
 10
10.8019465515
 20
7.0485700104
 11
10.7764826556
 21
7.0485700822
  0
LINE
  5
23E
100
AcDbEntity
  8
0
100
AcDbLine
 62
9
  6
CONTINUOUS
 10
11.4314983649
 20
7.0485700688
 11
11.4130977969
 21
7.0485700369
  0
LINE
  5
23F
100
AcDbEntity
  8
0
100
AcDbLine
 62
9
  6
CONTINUOUS
 10
11.4649878876
 20
7.0485700014
 11
11.45006285
 21
7.0485699828
  0
LINE
  5
240
100
AcDbEntity
  8
0
100
AcDbLine
 62
9
  6
CONTINUOUS
 10
11.1735340895
 20
7.0485700965
 11
11.1439473583
 21
7.0485699908
  0
LINE
  5
241
100
AcDbEntity
  8
0
100
AcDbLine
 62
9
  6
CONTINUOUS
 10
11.1105909459
 20
7.0485701775
 11
11.08029794
 21
7.0485699533
  0
LINE
  5
242
100
AcDbEntity
  8
0
100
AcDbLine
 62
9
  6
CONTINUOUS
 10
10.7750947358
 20
7.0485700976
 11
10.7508297798
 21
7.0485701237
  0
LINE
  5
243
100
AcDbEntity
  8
0
100
AcDbLine
 62
9
  6
CONTINUOUS
 10
11.0143388227
 20
7.0485700029
 11
10.9840458641
 21
7.0485700888
  0
LINE
  5
244
100
AcDbEntity
  8
0
100
AcDbLine
 62
9
  6
CONTINUOUS
 10
10.982362837
 20
7.0485701042
 11
10.9523527905
 21
7.0485701268
  0
LINE
  5
245
100
AcDbEntity
  8
0
100
AcDbLine
 62
9
  6
CONTINUOUS
 10
11.4120255435
 20
7.0485700246
 11
11.3920119998
 21
7.0485700315
  0
LINE
  5
246
100
AcDbEntity
  8
0
100
AcDbLine
 62
9
  6
CONTINUOUS
 10
11.0786025664
 20
7.0485699499
 11
11.048167678
 21
7.0485701484
  0
LINE
  5
247
100
AcDbEntity
  8
0
100
AcDbLine
 62
9
  6
CONTINUOUS
 10
11.2041958543
 20
7.0485700923
 11
11.1751699183
 21
7.04857011
  0
LINE
  5
248
100
AcDbEntity
  8
0
100
AcDbLine
 62
9
  6
CONTINUOUS
 10
11.04646901
 20
7.0485701553
 11
11.0160340031
 21
7.0485700172
  0
LINE
  5
249
100
AcDbEntity
  8
0
100
AcDbLine
 62
9
  6
CONTINUOUS
 10
10.6151112248
 20
7.0485699714
 11
10.6039396379
 21
7.0485699657
  0
LINE
  5
24A
100
AcDbEntity
  8
0
100
AcDbLine
 62
9
  6
CONTINUOUS
 10
11.4788484558
 20
7.0485699873
 11
11.4657696281
 21
7.0485699944
  0
LINE
  5
24B
100
AcDbEntity
  8
0
100
AcDbLine
 62
9
  6
CONTINUOUS
 10
11.234126097
 20
7.0485700082
 11
11.2057966579
 21
7.0485700778
  0
LINE
  5
24C
100
AcDbEntity
  8
0
100
AcDbLine
 62
9
  6
CONTINUOUS
 10
11.1422837139
 20
7.0485700049
 11
11.1122736997
 21
7.048570182
  0
LINE
  5
24D
100
AcDbEntity
  8
0
100
AcDbLine
 62
9
  6
CONTINUOUS
 10
10.950689544
 20
7.0485701128
 11
10.9211027373
 21
7.0485699823
  0
LINE
  5
24E
100
AcDbEntity
  8
0
100
AcDbLine
 62
9
  6
CONTINUOUS
 10
11.3908522993
 20
7.0485700443
 11
11.3693189735
 21
7.0485700817
  0
LINE
  5
24F
100
AcDbEntity
  8
0
100
AcDbLine
 62
9
  6
CONTINUOUS
 10
11.5081468751
 20
7.048569968
 11
11.5009368175
 21
7.0485699814
  0
LINE
  5
250
100
AcDbEntity
  8
0
100
AcDbLine
 62
9
  6
CONTINUOUS
 10
10.580738489
 20
7.0485699491
 11
10.5776243117
 21
7.0485699513
  0
LINE
  5
251
100
AcDbEntity
  8
0
100
AcDbLine
 62
9
  6
CONTINUOUS
 10
10.5861440665
 20
7.0485699635
 11
10.5809698837
 21
7.0485699499
  0
LINE
  5
252
100
AcDbEntity
  8
0
100
AcDbLine
 62
9
  6
CONTINUOUS
 10
10.5936998584
 20
7.0485699809
 11
10.5864897962
 21
7.0485699605
  0
LINE
  5
253
100
AcDbEntity
  8
0
100
AcDbLine
 62
9
  6
CONTINUOUS
 10
10.8888401766
 20
7.0485701596
 11
10.8605106415
 21
7.0485699519
  0
LINE
  5
254
100
AcDbEntity
  8
0
100
AcDbLine
 62
9
  6
CONTINUOUS
 10
11.5170123653
 20
7.0485699507
 11
11.5138981878
 21
7.0485699489
  0
LINE
  5
255
100
AcDbEntity
  8
0
100
AcDbLine
 62
9
  6
CONTINUOUS
 10
10.8299428913
 20
7.04857017
 11
10.8033983159
 21
7.0485700257
  0
LINE
  5
256
100
AcDbEntity
  8
0
100
AcDbLine
 62
9
  6
CONTINUOUS
 10
10.6288670734
 20
7.0485700089
 11
10.615788214
 21
7.0485699666
  0
LINE
  5
257
100
AcDbEntity
  8
0
100
AcDbLine
 62
9
  6
CONTINUOUS
 10
11.4906970437
 20
7.0485699545
 11
11.4795254183
 21
7.0485699917
  0
LINE
  5
258
100
AcDbEntity
  8
0
100
AcDbLine
 62
9
  6
CONTINUOUS
 10
10.749512004
 20
7.04857011
 11
10.7265593728
 21
7.0485699759
  0
LINE
  5
259
100
AcDbEntity
  8
0
100
AcDbLine
 62
9
  6
CONTINUOUS
 10
11.2912382949
 20
7.0485699496
 11
11.2646938059
 21
7.0485701595
  0
LINE
  5
25A
100
AcDbEntity
  8
0
100
AcDbLine
 62
9
  6
CONTINUOUS
 10
11.5136667937
 20
7.0485699489
 11
11.5084925997
 21
7.048569971
  0
LINE
  5
25B
100
AcDbEntity
  8
0
100
AcDbLine
 62
9
  6
CONTINUOUS
 10
11.449179957
 20
7.0485699754
 11
11.4324781327
 21
7.0485700581
  0
LINE
  5
25C
100
AcDbEntity
  8
0
100
AcDbLine
 62
9
  6
CONTINUOUS
 10
11.3438068259
 20
7.0485700083
 11
11.319541771
 21
7.0485701833
  0
LINE
  5
25D
100
AcDbEntity
  8
0
100
AcDbLine
 62
9
  6
CONTINUOUS
 10
10.7026247948
 20
7.0485700929
 11
10.6826111481
 21
7.0485699554
  0
LINE
  5
25E
100
AcDbEntity
  8
0
100
AcDbLine
 62
9
  6
CONTINUOUS
 10
10.6621585931
 20
7.0485700849
 11
10.6454567181
 21
7.0485699484
  0
LINE
  5
25F
100
AcDbEntity
  8
0
100
AcDbLine
 62
9
  6
CONTINUOUS
 10
10.5775083437
 20
7.0485699502
 11
10.5764686714
 21
7.0485699535
  0
LINE
  5
260
100
AcDbEntity
  8
0
100
AcDbLine
 62
9
  6
CONTINUOUS
 10
11.4948912015
 20
7.1121849174
 11
10.5997454751
 21
7.1121849174
  0
LINE
  5
261
100
AcDbEntity
  8
0
100
AcDbLine
 62
7
  6
CONTINUOUS
 10
10.6136141012
 20
7.6830437177
 11
10.598117835
 21
7.7499482321
  0
LINE
  5
262
100
AcDbEntity
  8
0
100
AcDbLine
 62
7
  6
CONTINUOUS
 10
10.8031138818
 20
6.966018496
 11
10.8031138818
 21
7.0493712529
  0
LINE
  5
263
100
AcDbEntity
  8
0
100
AcDbLine
 62
7
  6
CONTINUOUS
 10
10.8086800389
 20
7.0212587828
 11
10.8086800389
 21
6.9938958115
  0
LINE
  5
264
100
AcDbEntity
  8
0
100
AcDbLine
 62
7
  6
CONTINUOUS
 10
10.8310877705
 20
6.966018496
 11
10.8310877705
 21
7.0493708837
  0
LINE
  5
265
100
AcDbEntity
  8
0
100
AcDbLine
 62
7
  6
CONTINUOUS
 10
10.8381996649
 20
7.0212587828
 11
10.8381996649
 21
6.9938958115
  0
LINE
  5
266
100
AcDbEntity
  8
0
100
AcDbLine
 62
7
  6
CONTINUOUS
 10
10.8600698261
 20
6.966018496
 11
10.8600698261
 21
7.0493714209
  0
LINE
  5
267
100
AcDbEntity
  8
0
100
AcDbLine
 62
7
  6
CONTINUOUS
 10
10.8686942986
 20
7.0212587828
 11
10.8686942986
 21
6.9938958115
  0
LINE
  5
268
100
AcDbEntity
  8
0
100
AcDbLine
 62
7
  6
CONTINUOUS
 10
10.8899249206
 20
6.966018496
 11
10.8899249206
 21
7.0493708953
  0
LINE
  5
269
100
AcDbEntity
  8
0
100
AcDbLine
 62
7
  6
CONTINUOUS
 10
10.9000217601
 20
7.0212587828
 11
10.9000217601
 21
6.9938958115
  0
LINE
  5
26A
100
AcDbEntity
  8
0
100
AcDbLine
 62
7
  6
CONTINUOUS
 10
10.9205138558
 20
6.966018496
 11
10.9205138558
 21
7.0493713261
  0
LINE
  5
26B
100
AcDbEntity
  8
0
100
AcDbLine
 62
7
  6
CONTINUOUS
 10
10.9320359861
 20
7.0212587828
 11
10.9320359861
 21
6.9938958115
  0
LINE
  5
26C
100
AcDbEntity
  8
0
100
AcDbLine
 62
7
  6
CONTINUOUS
 10
10.9516940121
 20
6.966018496
 11
10.9516940121
 21
7.0493709996
  0
LINE
  5
26D
100
AcDbEntity
  8
0
100
AcDbLine
 62
7
  6
CONTINUOUS
 10
10.9645877118
 20
7.0212587828
 11
10.9645877118
 21
6.9938958115
  0
LINE
  5
26E
100
AcDbEntity
  8
0
100
AcDbLine
 62
7
  6
CONTINUOUS
 10
10.9833200132
 20
6.966018496
 11
10.9833200132
 21
7.0493710577
  0
LINE
  5
26F
100
AcDbEntity
  8
0
100
AcDbLine
 62
7
  6
CONTINUOUS
 10
10.9975251658
 20
7.0212587828
 11
10.9975251658
 21
6.9938958115
  0
LINE
  5
270
100
AcDbEntity
  8
0
100
AcDbLine
 62
7
  6
CONTINUOUS
 10
11.015244404
 20
6.966018496
 11
11.015244404
 21
7.0493712728
  0
LINE
  5
271
100
AcDbEntity
  8
0
100
AcDbLine
 62
7
  6
CONTINUOUS
 10
11.0306947785
 20
7.0212587828
 11
11.0306947785
 21
6.9938958115
  0
LINE
  5
272
100
AcDbEntity
  8
0
100
AcDbLine
 62
7
  6
CONTINUOUS
 10
11.0473183383
 20
8.2829204827
 11
11.0473183383
 21
8.0318434589
  0
LINE
  5
273
100
AcDbEntity
  8
0
100
AcDbLine
 62
9
  6
CONTINUOUS
 10
11.0473183383
 20
6.1584307117
 11
11.0473183383
 21
6.2717205192
  0
LINE
  5
274
100
AcDbEntity
  8
0
100
AcDbLine
 62
7
  6
CONTINUOUS
 10
11.0473183383
 20
6.966018496
 11
11.0473183383
 21
7.0493709198
  0
LINE
  5
275
100
AcDbEntity
  8
0
100
AcDbLine
 62
9
  6
CONTINUOUS
 10
11.0473183383
 20
5.5452135807
 11
11.0473183383
 21
5.4205823717
  0
LINE
  5
276
100
AcDbEntity
  8
0
100
AcDbLine
 62
7
  6
CONTINUOUS
 10
11.063941898
 20
7.0212587828
 11
11.063941898
 21
6.9938958115
  0
LINE
  5
277
100
AcDbEntity
  8
0
100
AcDbLine
 62
7
  6
CONTINUOUS
 10
11.0793922726
 20
6.966018496
 11
11.0793922726
 21
7.0493714189
  0
LINE
  5
278
100
AcDbEntity
  8
0
100
AcDbLine
 62
9
  6
CONTINUOUS
 10
11.5068934276
 20
7.4080396949
 11
10.587743249
 21
7.4080396949
  0
LINE
  5
279
100
AcDbEntity
  8
0
100
AcDbLine
 62
7
  6
CONTINUOUS
 10
11.0971115108
 20
7.0212587828
 11
11.0971115108
 21
6.9938958115
  0
LINE
  5
27A
100
AcDbEntity
  8
0
100
AcDbLine
 62
7
  6
CONTINUOUS
 10
11.1113166634
 20
6.966018496
 11
11.1113166634
 21
7.0493708505
  0
LINE
  5
27B
100
AcDbEntity
  8
0
100
AcDbLine
 62
7
  6
CONTINUOUS
 10
11.1300489648
 20
7.0212587828
 11
11.1300489648
 21
6.9938958115
  0
LINE
  5
27C
100
AcDbEntity
  8
0
100
AcDbLine
 62
7
  6
CONTINUOUS
 10
11.1429426644
 20
6.966018496
 11
11.1429426644
 21
7.0493713033
  0
LINE
  5
27D
100
AcDbEntity
  8
0
100
AcDbLine
 62
7
  6
CONTINUOUS
 10
11.1626006904
 20
7.0212587828
 11
11.1626006904
 21
6.9938958115
  0
LINE
  5
27E
100
AcDbEntity
  8
0
100
AcDbLine
 62
7
  6
CONTINUOUS
 10
11.1741228207
 20
6.966018496
 11
11.1741228207
 21
7.0493710407
  0
LINE
  5
27F
100
AcDbEntity
  8
0
100
AcDbLine
 62
7
  6
CONTINUOUS
 10
11.1946149165
 20
7.0212587828
 11
11.1946149165
 21
6.9938958115
  0
LINE
  5
280
100
AcDbEntity
  8
0
100
AcDbLine
 62
7
  6
CONTINUOUS
 10
11.204711756
 20
6.966018496
 11
11.204711756
 21
7.0493710861
  0
LINE
  5
281
100
AcDbEntity
  8
0
100
AcDbLine
 62
7
  6
CONTINUOUS
 10
11.225942378
 20
7.0212587828
 11
11.225942378
 21
6.9938958115
  0
LINE
  5
282
100
AcDbEntity
  8
0
100
AcDbLine
 62
7
  6
CONTINUOUS
 10
11.2345668505
 20
6.966018496
 11
11.2345668505
 21
7.0493712586
  0
LINE
  5
283
100
AcDbEntity
  8
0
100
AcDbLine
 62
7
  6
CONTINUOUS
 10
11.2564370117
 20
7.0212587828
 11
11.2564370117
 21
6.9938958115
  0
LINE
  5
284
100
AcDbEntity
  8
0
100
AcDbLine
 62
7
  6
CONTINUOUS
 10
11.263548906
 20
6.966018496
 11
11.263548906
 21
7.049370892
  0
LINE
  5
285
100
AcDbEntity
  8
0
100
AcDbLine
 62
7
  6
CONTINUOUS
 10
11.2859566376
 20
7.0212587828
 11
11.2859566376
 21
6.9938958115
  0
LINE
  5
286
100
AcDbEntity
  8
0
100
AcDbLine
 62
7
  6
CONTINUOUS
 10
11.2915227948
 20
6.966018496
 11
11.2915227948
 21
7.0493714205
  0
LINE
  5
287
100
AcDbEntity
  8
0
100
AcDbLine
 62
7
  6
CONTINUOUS
 10
11.3123183383
 20
6.7629205192
 11
11.3123183383
 21
6.2717205192
  0
LINE
  5
288
100
AcDbEntity
  8
0
100
AcDbLine
 62
7
  6
CONTINUOUS
 10
11.3143636216
 20
7.0212587828
 11
11.3143636216
 21
6.9938958115
  0
LINE
  5
289
100
AcDbEntity
  8
0
100
AcDbLine
 62
7
  6
CONTINUOUS
 10
11.3183580897
 20
6.966018496
 11
11.3183580897
 21
7.0493708479
  0
LINE
  5
28A
100
AcDbEntity
  8
0
100
AcDbLine
 62
7
  6
CONTINUOUS
 10
11.3415255173
 20
7.0212587828
 11
11.3415255173
 21
6.9938958115
  0
LINE
  5
28B
100
AcDbEntity
  8
0
100
AcDbLine
 62
7
  6
CONTINUOUS
 10
11.3439296721
 20
6.966018496
 11
11.3439296721
 21
7.0493712954
  0
LINE
  5
28C
100
AcDbEntity
  8
0
100
AcDbLine
 62
7
  6
CONTINUOUS
 10
11.3673156832
 20
7.0212587828
 11
11.3673156832
 21
6.9938958115
  0
LINE
  5
28D
100
AcDbEntity
  8
0
100
AcDbLine
 62
7
  6
CONTINUOUS
 10
11.3681183156
 20
6.966018496
 11
11.3681183156
 21
7.0493711077
  0
LINE
  5
28E
100
AcDbEntity
  8
0
100
AcDbLine
 62
9
  6
CONTINUOUS
 10
11.4779164123
 20
7.7059484614
 11
10.6167202642
 21
7.7059484614
  0
LINE
  5
28F
100
AcDbEntity
  8
0
100
AcDbLine
 62
9
  6
CONTINUOUS
 10
10.598117835
 20
7.7499482321
 11
10.6230633441
 21
7.7499482321
  0
LINE
  5
290
100
AcDbEntity
  8
0
100
AcDbLine
 62
9
  6
CONTINUOUS
 10
11.4715733325
 20
7.7499482321
 11
11.4965188416
 21
7.7499482321
  0
LINE
  5
291
100
AcDbEntity
  8
0
100
AcDbLine
 62
9
  6
CONTINUOUS
 10
10.5973183383
 20
7.7569432016
 11
10.6240717505
 21
7.7569432016
  0
LINE
  5
292
100
AcDbEntity
  8
0
100
AcDbLine
 62
9
  6
CONTINUOUS
 10
11.4705649261
 20
7.7569432016
 11
11.4973183383
 21
7.7569432016
  0
LINE
  5
293
100
AcDbEntity
  8
0
100
AcDbLine
 62
7
  6
CONTINUOUS
 10
11.3903183383
 20
6.9517365655
 11
11.3903183383
 21
6.8001605192
  0
LINE
  5
294
100
AcDbEntity
  8
0
100
AcDbLine
 62
7
  6
CONTINUOUS
 10
11.3916138739
 20
7.0212587828
 11
11.3916138739
 21
6.9938958115
  0
LINE
  5
295
100
AcDbEntity
  8
0
100
AcDbLine
 62
7
  6
CONTINUOUS
 10
11.4143067998
 20
7.0212587828
 11
11.4143067998
 21
6.9938958115
  0
LINE
  5
296
100
AcDbEntity
  8
0
100
AcDbLine
 62
7
  6
CONTINUOUS
 10
11.435288656
 20
7.0212587828
 11
11.435288656
 21
6.9938958115
  0
LINE
  5
297
100
AcDbEntity
  8
0
100
AcDbLine
 62
7
  6
CONTINUOUS
 10
11.4544616156
 20
7.0212587828
 11
11.4544616156
 21
6.9938958115
  0
LINE
  5
298
100
AcDbEntity
  8
0
100
AcDbLine
 62
7
  6
CONTINUOUS
 10
11.4717362853
 20
7.0212587828
 11
11.4717362853
 21
6.9938958115
  0
LINE
  5
299
100
AcDbEntity
  8
0
100
AcDbLine
 62
7
  6
CONTINUOUS
 10
11.4870321225
 20
7.0212587828
 11
11.4870321225
 21
6.9938958115
  0
LINE
  5
29A
100
AcDbEntity
  8
0
100
AcDbLine
 62
7
  6
CONTINUOUS
 10
11.4973183383
 20
7.7569432016
 11
11.4973183383
 21
7.8469432016
  0
LINE
  5
29B
100
AcDbEntity
  8
0
100
AcDbLine
 62
7
  6
CONTINUOUS
 10
11.5002778112
 20
7.0212587828
 11
11.5002778112
 21
6.9938958115
  0
LINE
  5
29C
100
AcDbEntity
  8
0
100
AcDbLine
 62
7
  6
CONTINUOUS
 10
11.5114115936
 20
7.0212587828
 11
11.5114115936
 21
6.9938958115
  0
LINE
  5
29D
100
AcDbEntity
  8
0
100
AcDbLine
 62
7
  6
CONTINUOUS
 10
11.5203815591
 20
7.0212587828
 11
11.5203815591
 21
6.9938958115
  0
LINE
  5
29E
100
AcDbEntity
  8
0
100
AcDbLine
 62
7
  6
CONTINUOUS
 10
11.5271458855
 20
7.0212587828
 11
11.5271458855
 21
6.9938958115
  0
LINE
  5
29F
100
AcDbEntity
  8
0
100
AcDbLine
 62
7
  6
CONTINUOUS
 10
11.5316730343
 20
7.0212587828
 11
11.5316730343
 21
6.9938958115
  0
LINE
  5
2A0
100
AcDbEntity
  8
0
100
AcDbLine
 62
7
  6
CONTINUOUS
 10
11.533941898
 20
7.0212587828
 11
11.533941898
 21
6.9938958115
  0
LINE
  5
2A1
100
AcDbEntity
  8
0
100
AcDbLine
 62
7
  6
CONTINUOUS
 10
11.5598183383
 20
8.0184968861
 11
11.5598183383
 21
8.2829204827
  0
LINE
  5
2A2
100
AcDbEntity
  8
0
100
AcDbLine
 62
7
  6
CONTINUOUS
 10
11.4810225754
 20
7.6830437177
 11
11.4965188416
 21
7.7499482321
  0
LINE
  5
2A3
100
AcDbEntity
  8
0
100
AcDbLine
 62
9
  6
CONTINUOUS
 10
10.5973183383
 20
7.8469432016
 11
10.6343704785
 21
7.8469432016
  0
LINE
  5
2A4
100
AcDbEntity
  8
0
100
AcDbLine
 62
9
  6
CONTINUOUS
 10
11.4602661981
 20
7.8469432016
 11
11.4973183383
 21
7.8469432016
  0
LINE
  5
2A5
100
AcDbEntity
  8
0
100
AcDbLine
 62
9
  6
CONTINUOUS
 10
11.4586206883
 20
7.8631697959
 11
10.6360159882
 21
7.8631697959
  0
LINE
  5
2A6
100
AcDbEntity
  8
0
100
AcDbLine
 62
9
  6
CONTINUOUS
 10
10.6064920788
 20
7.8689571607
 11
10.6363527388
 21
7.8689571607
  0
LINE
  5
2A7
100
AcDbEntity
  8
0
100
AcDbLine
 62
9
  6
CONTINUOUS
 10
11.4582839378
 20
7.8689571607
 11
11.4881445978
 21
7.8689571607
  0
LINE
  5
2A8
100
AcDbEntity
  8
0
100
AcDbLine
 62
9
  6
CONTINUOUS
 10
11.4618363751
 20
7.945334544
 11
10.6328003015
 21
7.945334544
  0
LINE
  5
2A9
100
AcDbEntity
  8
0
100
AcDbLine
 62
9
  6
CONTINUOUS
 10
11.4884119681
 20
7.986405864
 11
10.6062247085
 21
7.986405864
  0
LINE
  5
2AA
100
AcDbEntity
  8
0
100
AcDbLine
 62
9
  6
CONTINUOUS
 10
11.5558942895
 20
8.0174275214
 11
10.538742387
 21
8.0174275214
  0
LINE
  5
2AB
100
AcDbEntity
  8
0
100
AcDbLine
 62
7
  6
CONTINUOUS
 10
10.0491920678
 20
8.5890569161
 11
10.1170903146
 21
8.5570315498
  0
LINE
  5
2AC
100
AcDbEntity
  8
0
100
AcDbLine
 62
7
  6
CONTINUOUS
 10
11.4881445978
 20
7.8689571607
 11
11.4575277815
 21
7.8993129261
  0
LWPOLYLINE
  5
2AD
100
AcDbEntity
  8
0
100
AcDbPolyline
 62
7
  6
CONTINUOUS
 90
17
 70
0
 10
11.3997342908
 20
6.2237361718
 10
11.4009599353
 20
6.2264505012
 10
11.402301968
 20
6.2305431599
 10
11.4031063501
 20
6.2347563187
 10
11.4033491982
 20
6.2390337654
 10
11.4030126397
 20
6.243313062
 10
11.4021134874
 20
6.2475300243
 10
11.4006774598
 20
6.2516097856
 10
11.3987383025
 20
6.2554678099
 10
11.3963341552
 20
6.2590264771
 10
11.3934923693
 20
6.2622275981
 10
11.3902395581
 20
6.2650218022
 10
11.3866320405
 20
6.2673757536
 10
11.3827497646
 20
6.2692510119
 10
11.3786780855
 20
6.2706149625
 10
11.3745040836
 20
6.2714431701
 10
11.3703183383
 20
6.2717205192
  0
LWPOLYLINE
  5
2AE
100
AcDbEntity
  8
0
100
AcDbPolyline
 62
7
  6
CONTINUOUS
 90
19
 70
0
 10
10.5589743765
 20
5.4851765809
 10
10.5574667212
 20
5.4833318435
 10
10.5553497629
 20
5.4800989832
 10
10.5536580252
 20
5.4766202811
 10
10.5524145423
 20
5.4729555933
 10
10.5516431079
 20
5.4691633999
 10
10.5513691391
 20
5.4653047242
 10
10.5516134475
 20
5.461445414
 10
10.5523626881
 20
5.4576502342
 10
10.5535892954
 20
5.4539784283
 10
10.5552676137
 20
5.4504869138
 10
10.5573733633
 20
5.447233933
 10
10.5598813817
 20
5.4442811618
 10
10.5627605628
 20
5.4416912542
 10
10.5659568125
 20
5.4395031924
 10
10.5694075317
 20
5.4377398654
 10
10.5730535998
 20
5.4364230596
 10
10.5768387855
 20
5.4355758439
 10
10.5793497651
 20
5.4352890032
  0
LINE
  5
2AF
100
AcDbEntity
  8
0
100
AcDbLine
 62
7
  6
CONTINUOUS
 10
10.3555979757
 20
8.2829204827
 11
11.7390387009
 21
8.2829204827
  0
LINE
  5
2B0
100
AcDbEntity
  8
0
100
AcDbLine
 62
9
  6
CONTINUOUS
 10
10.2856698072
 20
8.4224849613
 11
11.8089668693
 21
8.4224849613
  0
LINE
  5
2B1
100
AcDbEntity
  8
0
100
AcDbLine
 62
9
  6
CONTINUOUS
 10
10.1170903146
 20
8.5570315498
 11
11.977546362
 21
8.5570315498
  0
LINE
  5
2B2
100
AcDbEntity
  8
0
100
AcDbLine
 62
9
  6
CONTINUOUS
 10
10.0491920678
 20
8.5890569161
 11
12.0454446088
 21
8.5890569161
  0
LINE
  5
2B3
100
AcDbEntity
  8
0
100
AcDbLine
 62
9
  6
CONTINUOUS
 10
9.9786242737
 20
8.6314123658
 11
12.1160124029
 21
8.6314123658
  0
LINE
  5
2B4
100
AcDbEntity
  8
0
100
AcDbLine
 62
9
  6
CONTINUOUS
 10
9.9454232332
 20
8.6762710321
 11
12.1492134434
 21
8.6762710321
  0
LINE
  5
2B5
100
AcDbEntity
  8
0
100
AcDbLine
 62
7
  6
CONTINUOUS
 10
9.3130915785
 20
8.8169432016
 11
12.7815450981
 21
8.8169432016
  0
LINE
  5
2B6
100
AcDbEntity
  8
0
100
AcDbLine
 62
9
  6
CONTINUOUS
 10
12.7843083292
 20
8.9224667406
 11
9.3103283474
 21
8.9224667406
  0
LINE
  5
2B7
100
AcDbEntity
  8
0
100
AcDbLine
 62
7
  6
CONTINUOUS
 10
7.8143185715
 20
8.9419432016
 11
14.2803183383
 21
8.9419432016
  0
LINE
  5
2B8
100
AcDbEntity
  8
0
100
AcDbLine
 62
7
  6
CONTINUOUS
 10
12.7815450981
 20
8.8169432016
 11
12.7843083292
 21
8.9224667406
  0
LINE
  5
2B9
100
AcDbEntity
  8
0
100
AcDbLine
 62
9
  6
CONTINUOUS
 10
7.7371205526
 20
9.0009550649
 11
14.357516124
 21
9.0009550649
  0
LINE
  5
2BA
100
AcDbEntity
  8
0
100
AcDbLine
 62
9
  6
CONTINUOUS
 10
7.3693482753
 20
9.3123412035
 11
14.7252884012
 21
9.3123412035
  0
LINE
  5
2BB
100
AcDbEntity
  8
0
100
AcDbLine
 62
9
  6
CONTINUOUS
 10
7.2973183383
 20
9.3919432016
 11
14.7973183383
 21
9.3919432016
  0
LINE
  5
2BC
100
AcDbEntity
  8
0
100
AcDbLine
 62
7
  6
CONTINUOUS
 10
7.2973183383
 20
9.5669432016
 11
14.7973183383
 21
9.5669432016
  0
LINE
  5
2BD
100
AcDbEntity
  8
0
100
AcDbLine
 62
7
  6
CONTINUOUS
 10
14.7973183383
 20
9.3919432016
 11
14.7973183383
 21
9.5669432016
  0
ARC
  5
2BE
100
AcDbEntity
  8
0
100
AcDbCircle
 62
7
  6
CONTINUOUS
 10
10.4885939627
 20
4.1585104853
 40
1.2799999998
100
AcDbArc
 50
80.3991821448
 51
85.9341474983
  0
ARC
  5
2BF
100
AcDbEntity
  8
0
100
AcDbCircle
 62
7
  6
CONTINUOUS
 10
10.6056543793
 20
6.1786274881
 40
0.1
100
AcDbArc
 50
348.3479564155
 51
26.8134357265
  0
ARC
  5
2C0
100
AcDbEntity
  8
0
100
AcDbCircle
 62
7
  6
CONTINUOUS
 10
10.4842081055
 20
5.5515844468
 40
0.0999999999
100
AcDbArc
 50
318.388318475
 51
356.3472908972
  0
ARC
  5
2C1
100
AcDbEntity
  8
0
100
AcDbCircle
 62
7
  6
CONTINUOUS
 10
8.8700279215
 20
7.3019204889
 40
2.6389999968
100
AcDbArc
 50
2.3045935724
 51
8.8065547675
  0
ARC
  5
2C2
100
AcDbEntity
  8
0
100
AcDbCircle
 62
7
  6
CONTINUOUS
 10
8.1382873919
 20
8.0899204801
 40
2.5080000028
100
AcDbArc
 50
351.1934452325
 51
354.8127503334
  0
ARC
  5
2C3
100
AcDbEntity
  8
0
100
AcDbCircle
 62
7
  6
CONTINUOUS
 10
7.327007316
 20
8.8894555888
 40
0.425
100
AcDbArc
 50
15.2096500848
 51
84.2823779725
  0
ARC
  5
2C4
100
AcDbEntity
  8
0
100
AcDbCircle
 62
7
  6
CONTINUOUS
 10
7.8143183383
 20
9.0219432016
 40
0.08
100
AcDbArc
 50
195.2096500848
 51
270.0
  0
ARC
  5
2C5
100
AcDbEntity
  8
0
100
AcDbCircle
 62
7
  6
CONTINUOUS
 10
7.3773183383
 20
9.3919432016
 40
0.08
100
AcDbArc
 50
180.0
 51
264.2823779725
  0
ARC
  5
2C6
100
AcDbEntity
  8
0
100
AcDbCircle
 62
7
  6
CONTINUOUS
 10
9.6733776265
 20
7.3342508572
 40
1.8349999961
100
AcDbArc
 50
353.0492078527
 51
2.3045935724
  0
ARC
  5
2C7
100
AcDbEntity
  8
0
100
AcDbCircle
 62
7
  6
CONTINUOUS
 10
10.3193183409
 20
7.8919204809
 40
0.3180000027
100
AcDbArc
 50
354.8127503334
 51
9.669738862
  0
ARC
  5
2C8
100
AcDbEntity
  8
0
100
AcDbCircle
 62
7
  6
CONTINUOUS
 10
10.7415583383
 20
6.8001605192
 40
0.03724
100
AcDbArc
 50
180.0
 51
270.0
  0
ARC
  5
2C9
100
AcDbEntity
  8
0
100
AcDbCircle
 62
7
  6
CONTINUOUS
 10
10.6177437755
 20
7.0075735968
 40
0.0586674729
100
AcDbArc
 50
165.895441516
 51
166.5105089865
  0
ARC
  5
2CA
100
AcDbEntity
  8
0
100
AcDbCircle
 62
7
  6
CONTINUOUS
 10
10.6147231881
 20
7.0073692193
 40
0.0557584532
100
AcDbArc
 50
227.8682795872
 51
228.7411589054
  0
ARC
  5
2CB
100
AcDbEntity
  8
0
100
AcDbCircle
 62
7
  6
CONTINUOUS
 10
10.6146398749
 20
7.0074651887
 40
0.0556806668
100
AcDbArc
 50
164.9706177062
 51
165.6569626681
  0
ARC
  5
2CC
100
AcDbEntity
  8
0
100
AcDbCircle
 62
7
  6
CONTINUOUS
 10
10.6139779622
 20
7.0071151317
 40
0.0548985254
100
AcDbArc
 50
193.9334986235
 51
194.6121436489
  0
ARC
  5
2CD
100
AcDbEntity
  8
0
100
AcDbCircle
 62
7
  6
CONTINUOUS
 10
10.6135014671
 20
7.0087234097
 40
0.0543982919
100
AcDbArc
 50
132.9040539727
 51
133.5028028671
  0
ARC
  5
2CE
100
AcDbEntity
  8
0
100
AcDbCircle
 62
7
  6
CONTINUOUS
 10
10.6146034218
 20
7.0115894988
 40
0.052297306
100
AcDbArc
 50
134.9989938649
 51
135.8281689712
  0
ARC
  5
2CF
100
AcDbEntity
  8
0
100
AcDbCircle
 62
7
  6
CONTINUOUS
 10
10.6183402152
 20
7.0142151801
 40
0.0507621191
100
AcDbArc
 50
137.5693154719
 51
139.7724644994
  0
ARC
  5
2D0
100
AcDbEntity
  8
0
100
AcDbCircle
 62
7
  6
CONTINUOUS
 10
10.5014561166
 20
7.0767551789
 40
0.1833345406
100
AcDbArc
 50
351.1564532938
 51
351.4098663553
  0
ARC
  5
2D1
100
AcDbEntity
  8
0
100
AcDbCircle
 62
7
  6
CONTINUOUS
 10
10.5500824013
 20
7.077797552
 40
0.1167729058
100
AcDbArc
 50
345.5041999535
 51
345.9107063247
  0
ARC
  5
2D2
100
AcDbEntity
  8
0
100
AcDbCircle
 62
7
  6
CONTINUOUS
 10
10.604299858
 20
7.1353369839
 40
0.1042888949
100
AcDbArc
 50
303.6953343766
 51
304.2205513636
  0
ARC
  5
2D3
100
AcDbEntity
  8
0
100
AcDbCircle
 62
7
  6
CONTINUOUS
 10
10.6046028373
 20
7.1348841013
 40
0.1037440263
100
AcDbArc
 50
304.222851553
 51
304.4855179615
  0
ARC
  5
2D4
100
AcDbEntity
  8
0
100
AcDbCircle
 62
7
  6
CONTINUOUS
 10
10.5870724756
 20
7.1335799869
 40
0.1026309181
100
AcDbArc
 50
304.0746370021
 51
304.6025556728
  0
ARC
  5
2D5
100
AcDbEntity
  8
0
100
AcDbCircle
 62
7
  6
CONTINUOUS
 10
10.5874368543
 20
7.1330509324
 40
0.101988524
100
AcDbArc
 50
304.6028453408
 51
304.8671623327
  0
ARC
  5
2D6
100
AcDbEntity
  8
0
100
AcDbCircle
 62
7
  6
CONTINUOUS
 10
10.5716662134
 20
7.1315335365
 40
0.1007715507
100
AcDbArc
 50
304.5840486583
 51
305.1153903301
  0
ARC
  5
2D7
100
AcDbEntity
  8
0
100
AcDbCircle
 62
7
  6
CONTINUOUS
 10
10.5720426687
 20
7.1309945011
 40
0.1001140758
100
AcDbArc
 50
305.1166081764
 51
305.3827425158
  0
ARC
  5
2D8
100
AcDbEntity
  8
0
100
AcDbCircle
 62
7
  6
CONTINUOUS
 10
10.5584247004
 20
7.1288137215
 40
0.0982467746
100
AcDbArc
 50
305.2381083811
 51
305.7739392562
  0
ARC
  5
2D9
100
AcDbEntity
  8
0
100
AcDbCircle
 62
7
  6
CONTINUOUS
 10
10.5587477412
 20
7.1283636466
 40
0.0976927694
100
AcDbArc
 50
305.7745352239
 51
306.0427223887
  0
ARC
  5
2DA
100
AcDbEntity
  8
0
100
AcDbCircle
 62
7
  6
CONTINUOUS
 10
10.5472123387
 20
7.1257421271
 40
0.095442623
100
AcDbArc
 50
306.0431972367
 51
306.5840242597
  0
ARC
  5
2DB
100
AcDbEntity
  8
0
100
AcDbCircle
 62
7
  6
CONTINUOUS
 10
10.5474925776
 20
7.1253634341
 40
0.0949715161
100
AcDbArc
 50
306.5844309541
 51
306.8549808391
  0
ARC
  5
2DC
100
AcDbEntity
  8
0
100
AcDbCircle
 62
7
  6
CONTINUOUS
 10
10.5380645208
 20
7.1223636472
 40
0.0924164798
100
AcDbArc
 50
307.0132047783
 51
307.5594185953
  0
ARC
  5
2DD
100
AcDbEntity
  8
0
100
AcDbCircle
 62
7
  6
CONTINUOUS
 10
10.5383129653
 20
7.1220387037
 40
0.0920074423
100
AcDbArc
 50
307.5601241331
 51
307.8332953625
  0
ARC
  5
2DE
100
AcDbEntity
  8
0
100
AcDbCircle
 62
7
  6
CONTINUOUS
 10
10.5595333402
 20
7.0795215854
 40
0.0913281472
100
AcDbArc
 50
340.1897914988
 51
340.7233335258
  0
ARC
  5
2DF
100
AcDbEntity
  8
0
100
AcDbCircle
 62
7
  6
CONTINUOUS
 10
10.5310895285
 20
7.1186204659
 40
0.0890958991
100
AcDbArc
 50
308.1644804685
 51
308.7163787201
  0
ARC
  5
2E0
100
AcDbEntity
  8
0
100
AcDbCircle
 62
7
  6
CONTINUOUS
 10
10.531276903
 20
7.1183857719
 40
0.0887955825
100
AcDbArc
 50
308.7167618769
 51
308.9925638685
  0
ARC
  5
2E1
100
AcDbEntity
  8
0
100
AcDbCircle
 62
7
  6
CONTINUOUS
 10
10.5262292474
 20
7.1146606421
 40
0.0856693468
100
AcDbArc
 50
309.5146030865
 51
310.0719873476
  0
ARC
  5
2E2
100
AcDbEntity
  8
0
100
AcDbCircle
 62
7
  6
CONTINUOUS
 10
10.5263496202
 20
7.1145173386
 40
0.0854821958
100
AcDbArc
 50
310.0720798366
 51
310.3503878203
  0
ARC
  5
2E3
100
AcDbEntity
  8
0
100
AcDbCircle
 62
7
  6
CONTINUOUS
 10
10.52344763
 20
7.1105718443
 40
0.0822605358
100
AcDbArc
 50
311.0858283444
 51
311.6479988841
  0
ARC
  5
2E4
100
AcDbEntity
  8
0
100
AcDbCircle
 62
7
  6
CONTINUOUS
 10
10.5235017611
 20
7.1105108644
 40
0.0821789961
100
AcDbArc
 50
311.6480514016
 51
311.9285262556
  0
ARC
  5
2E5
100
AcDbEntity
  8
0
100
AcDbCircle
 62
7
  6
CONTINUOUS
 10
10.5578377941
 20
7.0816233457
 40
0.079052853
100
AcDbArc
 50
335.2837603352
 51
335.9219225333
  0
ARC
  5
2E6
100
AcDbEntity
  8
0
100
AcDbCircle
 62
7
  6
CONTINUOUS
 10
10.5226996256
 20
7.1064233517
 40
0.0789818169
100
AcDbArc
 50
312.9041759043
 51
313.7517625772
  0
ARC
  5
2E7
100
AcDbEntity
  8
0
100
AcDbCircle
 62
7
  6
CONTINUOUS
 10
10.5239056211
 20
7.1022897116
 40
0.0759704594
100
AcDbArc
 50
314.9994062695
 51
315.848016838
  0
ARC
  5
2E8
100
AcDbEntity
  8
0
100
AcDbCircle
 62
7
  6
CONTINUOUS
 10
10.5258128856
 20
7.1031715816
 40
0.0744799977
100
AcDbArc
 50
313.7516638316
 51
6.9507936497
  0
ARC
  5
2E9
100
AcDbEntity
  8
0
100
AcDbCircle
 62
7
  6
CONTINUOUS
 10
10.5269422767
 20
7.0982434683
 40
0.0733923758
100
AcDbArc
 50
317.4042534484
 51
318.2485271276
  0
ARC
  5
2EA
100
AcDbEntity
  8
0
100
AcDbCircle
 62
7
  6
CONTINUOUS
 10
10.5518333277
 20
7.0842681322
 40
0.0732433596
100
AcDbArc
 50
330.8304862993
 51
331.5462351098
  0
ARC
  5
2EB
100
AcDbEntity
  8
0
100
AcDbCircle
 62
7
  6
CONTINUOUS
 10
10.531647951
 20
7.0943369089
 40
0.0714299928
100
AcDbArc
 50
320.1540219448
 51
320.9864093014
  0
ARC
  5
2EC
100
AcDbEntity
  8
0
100
AcDbCircle
 62
7
  6
CONTINUOUS
 10
10.5446888168
 20
7.0872887504
 40
0.0707799918
100
AcDbArc
 50
326.8362313625
 51
327.6081050702
  0
ARC
  5
2ED
100
AcDbEntity
  8
0
100
AcDbCircle
 62
7
  6
CONTINUOUS
 10
10.53772427
 20
7.0906552624
 40
0.0703987069
100
AcDbArc
 50
323.2860076977
 51
324.0959183758
  0
ARC
  5
2EE
100
AcDbEntity
  8
0
100
AcDbCircle
 62
7
  6
CONTINUOUS
 10
10.7399668633
 20
7.028704629
 40
0.0793551748
100
AcDbArc
 50
165.5039818906
 51
165.6526113445
  0
ARC
  5
2EF
100
AcDbEntity
  8
0
100
AcDbCircle
 62
7
  6
CONTINUOUS
 10
10.7038680312
 20
7.0275262733
 40
0.0620863747
100
AcDbArc
 50
160.1875564184
 51
160.4239000309
  0
ARC
  5
2F0
100
AcDbEntity
  8
0
100
AcDbCircle
 62
7
  6
CONTINUOUS
 10
10.6786603784
 20
7.0260084621
 40
0.0539550872
100
AcDbArc
 50
155.2825947663
 51
155.5829926641
  0
ARC
  5
2F1
100
AcDbEntity
  8
0
100
AcDbCircle
 62
7
  6
CONTINUOUS
 10
10.6594579081
 20
7.0241923619
 40
0.0500130743
100
AcDbArc
 50
150.8289303152
 51
151.159938826
  0
ARC
  5
2F2
100
AcDbEntity
  8
0
100
AcDbCircle
 62
7
  6
CONTINUOUS
 10
10.6241125357
 20
7.0171716345
 40
0.0490033041
100
AcDbArc
 50
140.1532181836
 51
140.3881829986
  0
ARC
  5
2F3
100
AcDbEntity
  8
0
100
AcDbCircle
 62
7
  6
CONTINUOUS
 10
10.6444603651
 20
7.0220884691
 40
0.0484065784
100
AcDbArc
 50
146.8345667747
 51
147.1611040964
  0
ARC
  5
2F4
100
AcDbEntity
  8
0
100
AcDbCircle
 62
7
  6
CONTINUOUS
 10
10.632819253
 20
7.0197367746
 40
0.0482288097
100
AcDbArc
 50
143.2853034374
 51
143.5767230136
  0
ARC
  5
2F5
100
AcDbEntity
  8
0
100
AcDbCircle
 62
7
  6
CONTINUOUS
 10
10.6443032807
 20
7.1372666434
 40
0.1061533189
100
AcDbArc
 50
303.3240285844
 51
303.8459149138
  0
ARC
  5
2F6
100
AcDbEntity
  8
0
100
AcDbCircle
 62
7
  6
CONTINUOUS
 10
10.6672964178
 20
7.1368077313
 40
0.1056047358
100
AcDbArc
 50
303.3264460438
 51
304.1103596022
  0
ARC
  5
2F7
100
AcDbEntity
  8
0
100
AcDbCircle
 62
7
  6
CONTINUOUS
 10
10.6914302066
 20
7.1364906402
 40
0.1053734751
100
AcDbArc
 50
303.4466329172
 51
304.2316403833
  0
ARC
  5
2F8
100
AcDbEntity
  8
0
100
AcDbCircle
 62
7
  6
CONTINUOUS
 10
10.6447922456
 20
7.1365290175
 40
0.1052683578
100
AcDbArc
 50
303.848486633
 51
304.1102828733
  0
ARC
  5
2F9
100
AcDbEntity
  8
0
100
AcDbCircle
 62
7
  6
CONTINUOUS
 10
10.6235174453
 20
7.1363958188
 40
0.1052608939
100
AcDbArc
 50
303.4501445436
 51
303.9733969761
  0
ARC
  5
2FA
100
AcDbEntity
  8
0
100
AcDbCircle
 62
7
  6
CONTINUOUS
 10
10.6239184033
 20
7.1357992013
 40
0.1045420623
100
AcDbArc
 50
303.973879994
 51
304.2359715744
  0
ARC
  5
2FB
100
AcDbEntity
  8
0
100
AcDbCircle
 62
7
  6
CONTINUOUS
 10
10.7172335509
 20
7.1353342171
 40
0.1042879583
100
AcDbArc
 50
303.6959018618
 51
304.4837927378
  0
ARC
  5
2FC
100
AcDbEntity
  8
0
100
AcDbCircle
 62
7
  6
CONTINUOUS
 10
10.7444865618
 20
7.1335222313
 40
0.1025599815
100
AcDbArc
 50
304.0725618848
 51
304.8646211194
  0
ARC
  5
2FD
100
AcDbEntity
  8
0
100
AcDbCircle
 62
7
  6
CONTINUOUS
 10
10.9314903962
 20
7.0766796969
 40
0.1828343493
100
AcDbArc
 50
188.5900142655
 51
188.8448661119
  0
ARC
  5
2FE
100
AcDbEntity
  8
0
100
AcDbCircle
 62
7
  6
CONTINUOUS
 10
10.8895106217
 20
7.0777912882
 40
0.1167441745
100
AcDbArc
 50
194.0896675761
 51
194.4959851046
  0
ARC
  5
2FF
100
AcDbEntity
  8
0
100
AcDbCircle
 62
7
  6
CONTINUOUS
 10
10.7726613414
 20
7.1316487413
 40
0.1009123059
100
AcDbArc
 50
304.58182464
 51
305.3789879876
  0
ARC
  5
300
100
AcDbEntity
  8
0
100
AcDbCircle
 62
7
  6
CONTINUOUS
 10
10.8023941671
 20
7.1286332246
 40
0.0980250741
100
AcDbArc
 50
305.2379197598
 51
306.0418905992
  0
ARC
  5
301
100
AcDbEntity
  8
0
100
AcDbCircle
 62
7
  6
CONTINUOUS
 10
10.8325259961
 20
7.1259561043
 40
0.0957075272
100
AcDbArc
 50
306.0397808687
 51
306.8507491427
  0
ARC
  5
302
100
AcDbEntity
  8
0
100
AcDbCircle
 62
7
  6
CONTINUOUS
 10
10.8639744382
 20
7.1221740121
 40
0.0921788307
100
AcDbArc
 50
307.0128096109
 51
307.8333314927
  0
ARC
  5
303
100
AcDbEntity
  8
0
100
AcDbCircle
 62
7
  6
CONTINUOUS
 10
10.8892133775
 20
7.0794829137
 40
0.0912131311
100
AcDbArc
 50
199.2763133459
 51
199.8112434443
  0
ARC
  5
304
100
AcDbEntity
  8
0
100
AcDbCircle
 62
7
  6
CONTINUOUS
 10
10.8959008732
 20
7.1182908328
 40
0.088672531
100
AcDbArc
 50
308.1582863297
 51
308.9914425215
  0
ARC
  5
305
100
AcDbEntity
  8
0
100
AcDbCircle
 62
7
  6
CONTINUOUS
 10
10.9280804152
 20
7.114390251
 40
0.0853165206
100
AcDbArc
 50
309.5097512465
 51
310.3508660462
  0
ARC
  5
306
100
AcDbEntity
  8
0
100
AcDbCircle
 62
7
  6
CONTINUOUS
 10
10.9603557318
 20
7.1104860374
 40
0.0821448769
100
AcDbArc
 50
311.0833630692
 51
311.9277903781
  0
ARC
  5
307
100
AcDbEntity
  8
0
100
AcDbCircle
 62
7
  6
CONTINUOUS
 10
10.9031163482
 20
7.0815588525
 40
0.0788934809
100
AcDbArc
 50
204.0788051915
 51
204.7202537974
  0
ARC
  5
308
100
AcDbEntity
  8
0
100
AcDbCircle
 62
7
  6
CONTINUOUS
 10
10.9929864152
 20
7.1061221842
 40
0.0785663025
100
AcDbArc
 50
312.8970494559
 51
313.752321211
  0
ARC
  5
309
100
AcDbEntity
  8
0
100
AcDbCircle
 62
7
  6
CONTINUOUS
 10
11.0249155561
 20
7.102258774
 40
0.075926181
100
AcDbArc
 50
314.9990258259
 51
315.8481146464
  0
ARC
  5
30A
100
AcDbEntity
  8
0
100
AcDbCircle
 62
7
  6
CONTINUOUS
 10
10.9244841167
 20
7.0842777966
 40
0.073264288
100
AcDbArc
 50
208.4534506726
 51
209.1688068644
  0
ARC
  5
30B
100
AcDbEntity
  8
0
100
AcDbCircle
 62
7
  6
CONTINUOUS
 10
11.0379124878
 20
7.0981011112
 40
0.0731775676
100
AcDbArc
 50
221.7525742946
 51
222.6002438326
  0
ARC
  5
30C
100
AcDbEntity
  8
0
100
AcDbCircle
 62
7
  6
CONTINUOUS
 10
11.0070537398
 20
7.0942217636
 40
0.071248091
100
AcDbArc
 50
219.0133368937
 51
219.8503274645
  0
ARC
  5
30D
100
AcDbEntity
  8
0
100
AcDbCircle
 62
7
  6
CONTINUOUS
 10
10.9495264062
 20
7.0871841964
 40
0.0705845793
100
AcDbArc
 50
212.3924939507
 51
213.1695729634
  0
ARC
  5
30E
100
AcDbEntity
  8
0
100
AcDbCircle
 62
7
  6
CONTINUOUS
 10
10.9775397321
 20
7.0906582324
 40
0.0704028351
100
AcDbArc
 50
215.9046517458
 51
216.7145200847
  0
ARC
  5
30F
100
AcDbEntity
  8
0
100
AcDbCircle
 62
7
  6
CONTINUOUS
 10
10.4247745833
 20
7.6069554266
 40
0.4260000011
100
AcDbArc
 50
74.4826565545
 51
75.0296784944
  0
ARC
  5
310
100
AcDbEntity
  8
0
100
AcDbCircle
 62
7
  6
CONTINUOUS
 10
10.4764078837
 20
7.7929204822
 40
0.2330000021
100
AcDbArc
 50
56.140811797
 51
74.4826565545
  0
ARC
  5
311
100
AcDbEntity
  8
0
100
AcDbCircle
 62
7
  6
CONTINUOUS
 10
10.571681174
 20
7.9349204809
 40
0.0620000037
100
AcDbArc
 50
9.669738862
 51
56.140811797
  0
ARC
  5
312
100
AcDbEntity
  8
0
100
AcDbCircle
 62
7
  6
CONTINUOUS
 10
10.6283183383
 20
7.7569432016
 40
0.031
100
AcDbArc
 50
180.0
 51
193.0407610339
  0
ARC
  5
313
100
AcDbEntity
  8
0
100
AcDbCircle
 62
7
  6
CONTINUOUS
 10
10.6283183383
 20
7.8469432016
 40
0.031
100
AcDbArc
 50
134.7546926505
 51
180.0
  0
ARC
  5
314
100
AcDbEntity
  8
0
100
AcDbCircle
 62
7
  6
CONTINUOUS
 10
10.5154996035
 20
8.8871822164
 40
0.6078409296
100
AcDbArc
 50
186.6356334607
 51
200.3029644135
  0
ARC
  5
315
100
AcDbEntity
  8
0
100
AcDbCircle
 62
7
  6
CONTINUOUS
 10
9.9039541309
 20
8.1170998854
 40
0.4888424103
100
AcDbArc
 50
38.6609554855
 51
64.1509412145
  0
ARC
  5
316
100
AcDbEntity
  8
0
100
AcDbCircle
 62
7
  6
CONTINUOUS
 10
9.9936812875
 20
8.1888845571
 40
0.3739337434
100
AcDbArc
 50
14.56496067
 51
38.6609554855
  0
ARC
  5
317
100
AcDbEntity
  8
0
100
AcDbCircle
 62
7
  6
CONTINUOUS
 10
10.2051759877
 20
8.9289031478
 40
0.3739337434
100
AcDbArc
 50
232.7092061085
 51
245.3456430447
  0
ARC
  5
318
100
AcDbEntity
  8
0
100
AcDbCircle
 62
7
  6
CONTINUOUS
 10
10.0392103315
 20
8.7109694497
 40
0.1
100
AcDbArc
 50
200.3029644135
 51
232.7092061085
  0
ARC
  5
319
100
AcDbEntity
  8
0
100
AcDbCircle
 62
7
  6
CONTINUOUS
 10
9.2903352009
 20
8.9219432016
 40
0.02
100
AcDbArc
 50
1.5
 51
90.0
  0
ARC
  5
31A
100
AcDbEntity
  8
0
100
AcDbCircle
 62
7
  6
CONTINUOUS
 10
11.6060427139
 20
4.1585104853
 40
1.2799999998
100
AcDbArc
 50
94.0658525017
 51
99.6008178552
  0
ARC
  5
31B
100
AcDbEntity
  8
0
100
AcDbCircle
 62
7
  6
CONTINUOUS
 10
11.0473183383
 20
5.8277205192
 40
0.42
100
AcDbArc
 50
153.743469952
 51
180.0047524214
  0
ARC
  5
31C
100
AcDbEntity
  8
0
100
AcDbCircle
 62
7
  6
CONTINUOUS
 10
11.0473183383
 20
5.8277205192
 40
0.42
100
AcDbArc
 50
359.9952475709
 51
26.2565300481
  0
ARC
  5
31D
100
AcDbEntity
  8
0
100
AcDbCircle
 62
7
  6
CONTINUOUS
 10
11.4889822972
 20
6.1786274881
 40
0.1
100
AcDbArc
 50
153.1865642735
 51
191.6520435845
  0
ARC
  5
31E
100
AcDbEntity
  8
0
100
AcDbCircle
 62
7
  6
CONTINUOUS
 10
11.6104285711
 20
5.5515844468
 40
0.0999999999
100
AcDbArc
 50
183.6527091028
 51
221.611681525
  0
ARC
  5
31F
100
AcDbEntity
  8
0
100
AcDbCircle
 62
7
  6
CONTINUOUS
 10
11.1642791523
 20
7.0765051152
 40
0.1816880664
100
AcDbArc
 50
351.1551547782
 51
351.4111523448
  0
ARC
  5
320
100
AcDbEntity
  8
0
100
AcDbCircle
 62
7
  6
CONTINUOUS
 10
11.2062479002
 20
7.0775053496
 40
0.115586525
100
AcDbArc
 50
345.5005302656
 51
345.9123226411
  0
ARC
  5
321
100
AcDbEntity
  8
0
100
AcDbCircle
 62
7
  6
CONTINUOUS
 10
11.3219337188
 20
7.1315911456
 40
0.100841244
100
AcDbArc
 50
234.6213414387
 51
235.4184836184
  0
ARC
  5
322
100
AcDbEntity
  8
0
100
AcDbCircle
 62
7
  6
CONTINUOUS
 10
11.2923200072
 20
7.128741033
 40
0.0981579757
100
AcDbArc
 50
233.9586135714
 51
234.7625280419
  0
ARC
  5
323
100
AcDbEntity
  8
0
100
AcDbCircle
 62
7
  6
CONTINUOUS
 10
11.2619244526
 20
7.125704188
 40
0.0953941041
100
AcDbArc
 50
233.1479431432
 51
233.9590409642
  0
ARC
  5
324
100
AcDbEntity
  8
0
100
AcDbCircle
 62
7
  6
CONTINUOUS
 10
11.2305074394
 20
7.1219742703
 40
0.0919263519
100
AcDbArc
 50
232.1666187233
 51
232.9909349893
  0
ARC
  5
325
100
AcDbEntity
  8
0
100
AcDbCircle
 62
7
  6
CONTINUOUS
 10
11.205855268
 20
7.0793297829
 40
0.0907547718
100
AcDbArc
 50
340.1880882238
 51
340.7250129369
  0
ARC
  5
326
100
AcDbEntity
  8
0
100
AcDbCircle
 62
7
  6
CONTINUOUS
 10
11.1988620054
 20
7.1184467
 40
0.0888728481
100
AcDbArc
 50
231.008423361
 51
231.8376205164
  0
ARC
  5
327
100
AcDbEntity
  8
0
100
AcDbCircle
 62
7
  6
CONTINUOUS
 10
11.1665250997
 20
7.1143558381
 40
0.0852702765
100
AcDbArc
 50
229.6502098235
 51
230.492579907
  0
ARC
  5
328
100
AcDbEntity
  8
0
100
AcDbCircle
 62
7
  6
CONTINUOUS
 10
11.1343317743
 20
7.110540902
 40
0.0822195507
100
AcDbArc
 50
228.0713357437
 51
228.9141732965
  0
ARC
  5
329
100
AcDbEntity
  8
0
100
AcDbCircle
 62
7
  6
CONTINUOUS
 10
11.101762554
 20
7.1062425533
 40
0.0787309045
100
AcDbArc
 50
226.2492269439
 51
227.1021690244
  0
ARC
  5
32A
100
AcDbEntity
  8
0
100
AcDbCircle
 62
7
  6
CONTINUOUS
 10
11.1920558542
 20
7.0813151292
 40
0.0783051132
100
AcDbArc
 50
335.2774788339
 51
335.9241455155
  0
ARC
  5
32B
100
AcDbEntity
  8
0
100
AcDbCircle
 62
7
  6
CONTINUOUS
 10
11.0696969945
 20
7.1022346365
 40
0.0758921593
100
AcDbArc
 50
224.1515769134
 51
225.0020425654
  0
ARC
  5
32C
100
AcDbEntity
  8
0
100
AcDbCircle
 62
7
  6
CONTINUOUS
 10
11.0569367374
 20
7.0979083055
 40
0.0728907463
100
AcDbArc
 50
317.3952307602
 51
318.2491113246
  0
ARC
  5
32D
100
AcDbEntity
  8
0
100
AcDbCircle
 62
7
  6
CONTINUOUS
 10
11.1705360034
 20
7.0840683491
 40
0.0728274499
100
AcDbArc
 50
330.8271405172
 51
331.5475838115
  0
ARC
  5
32E
100
AcDbEntity
  8
0
100
AcDbCircle
 62
7
  6
CONTINUOUS
 10
11.087613663
 20
7.0941948529
 40
0.0712070853
100
AcDbArc
 50
320.1522724261
 51
320.988114123
  0
ARC
  5
32F
100
AcDbEntity
  8
0
100
AcDbCircle
 62
7
  6
CONTINUOUS
 10
11.1453459413
 20
7.0870311029
 40
0.0703034623
100
AcDbArc
 50
326.8309454721
 51
327.6100979092
  0
ARC
  5
330
100
AcDbEntity
  8
0
100
AcDbCircle
 62
7
  6
CONTINUOUS
 10
11.1174328712
 20
7.0904126545
 40
0.0699868876
100
AcDbArc
 50
323.2801590431
 51
324.0967279264
  0
ARC
  5
331
100
AcDbEntity
  8
0
100
AcDbCircle
 62
7
  6
CONTINUOUS
 10
11.3530783383
 20
6.8001605192
 40
0.03724
100
AcDbArc
 50
270.0
 51
360.0
  0
ARC
  5
332
100
AcDbEntity
  8
0
100
AcDbCircle
 62
7
  6
CONTINUOUS
 10
11.3546861315
 20
7.0287088617
 40
0.0793383265
100
AcDbArc
 50
14.3473243136
 51
14.4960031046
  0
ARC
  5
333
100
AcDbEntity
  8
0
100
AcDbCircle
 62
7
  6
CONTINUOUS
 10
11.3907761752
 20
7.027528412
 40
0.0620785451
100
AcDbArc
 50
19.5765879701
 51
19.8124720957
  0
ARC
  5
334
100
AcDbEntity
  8
0
100
AcDbCircle
 62
7
  6
CONTINUOUS
 10
11.4159980316
 20
7.0260180004
 40
0.0539313651
100
AcDbArc
 50
24.4177546822
 51
24.7173927342
  0
ARC
  5
335
100
AcDbEntity
  8
0
100
AcDbCircle
 62
7
  6
CONTINUOUS
 10
11.4351843456
 20
7.0241949261
 40
0.0500069319
100
AcDbArc
 50
28.8405864985
 51
29.1710984619
  0
ARC
  5
336
100
AcDbEntity
  8
0
100
AcDbCircle
 62
7
  6
CONTINUOUS
 10
11.4705276809
 20
7.0171741825
 40
0.0489989423
100
AcDbArc
 50
39.612416536
 51
39.8467937063
  0
ARC
  5
337
100
AcDbEntity
  8
0
100
AcDbCircle
 62
7
  6
CONTINUOUS
 10
11.4501752962
 20
7.022088056
 40
0.0484076679
100
AcDbArc
 50
32.8386436629
 51
33.165416536
  0
ARC
  5
338
100
AcDbEntity
  8
0
100
AcDbCircle
 62
7
  6
CONTINUOUS
 10
11.4618199294
 20
7.0197384858
 40
0.0482257749
100
AcDbArc
 50
36.4234050019
 51
36.7146997985
  0
ARC
  5
339
100
AcDbEntity
  8
0
100
AcDbCircle
 62
7
  6
CONTINUOUS
 10
11.450754151
 20
7.1379076908
 40
0.1069199958
100
AcDbArc
 50
236.415529369
 51
236.6745633902
  0
ARC
  5
33A
100
AcDbEntity
  8
0
100
AcDbCircle
 62
7
  6
CONTINUOUS
 10
11.4274432112
 20
7.1369646264
 40
0.1057925694
100
AcDbArc
 50
235.8911988649
 51
236.6749426314
  0
ARC
  5
33B
100
AcDbEntity
  8
0
100
AcDbCircle
 62
7
  6
CONTINUOUS
 10
11.4030514491
 20
7.1362566049
 40
0.1050925379
100
AcDbArc
 50
235.7663697036
 51
236.5515843609
  0
ARC
  5
33C
100
AcDbEntity
  8
0
100
AcDbCircle
 62
7
  6
CONTINUOUS
 10
11.4496789407
 20
7.1362825645
 40
0.1049713804
100
AcDbArc
 50
235.8890242483
 51
236.4137622637
  0
ARC
  5
33D
100
AcDbEntity
  8
0
100
AcDbCircle
 62
7
  6
CONTINUOUS
 10
11.4706742623
 20
7.1357329344
 40
0.1044626658
100
AcDbArc
 50
235.7635921049
 51
236.2895573642
  0
ARC
  5
33E
100
AcDbEntity
  8
0
100
AcDbCircle
 62
7
  6
CONTINUOUS
 10
11.3774804974
 20
7.1354524649
 40
0.1044294205
100
AcDbArc
 50
235.5180179718
 51
236.3057128695
  0
ARC
  5
33F
100
AcDbEntity
  8
0
100
AcDbCircle
 62
7
  6
CONTINUOUS
 10
11.3500756485
 20
7.1334099367
 40
0.1024251379
100
AcDbArc
 50
235.1335956213
 51
235.9257868089
  0
ARC
  5
340
100
AcDbEntity
  8
0
100
AcDbCircle
 62
7
  6
CONTINUOUS
 10
11.4768929027
 20
7.0075735972
 40
0.0586674711
100
AcDbArc
 50
13.4894910139
 51
14.1045574437
  0
ARC
  5
341
100
AcDbEntity
  8
0
100
AcDbCircle
 62
7
  6
CONTINUOUS
 10
11.4799134885
 20
7.0073692193
 40
0.0557584532
100
AcDbArc
 50
311.2588410949
 51
312.1317204126
  0
ARC
  5
342
100
AcDbEntity
  8
0
100
AcDbCircle
 62
7
  6
CONTINUOUS
 10
11.4799968003
 20
7.0074651884
 40
0.0556806683
100
AcDbArc
 50
14.3430373294
 51
15.0293833496
  0
ARC
  5
343
100
AcDbEntity
  8
0
100
AcDbCircle
 62
7
  6
CONTINUOUS
 10
11.480326037
 20
7.0067633466
 40
0.0550365545
100
AcDbArc
 50
318.4547559123
 51
321.2350643464
  0
ARC
  5
344
100
AcDbEntity
  8
0
100
AcDbCircle
 62
7
  6
CONTINUOUS
 10
11.4806586925
 20
7.0071151371
 40
0.0548985479
100
AcDbArc
 50
345.3878644771
 51
346.0665013943
  0
ARC
  5
345
100
AcDbEntity
  8
0
100
AcDbCircle
 62
7
  6
CONTINUOUS
 10
11.4796543466
 20
7.0065966153
 40
0.05486008
100
AcDbArc
 50
258.0747774712
 51
270.0599970715
  0
ARC
  5
346
100
AcDbEntity
  8
0
100
AcDbCircle
 62
7
  6
CONTINUOUS
 10
11.4825211377
 20
7.0099588622
 40
0.0525401039
100
AcDbArc
 50
34.9089096254
 51
40.9059082721
  0
ARC
  5
347
100
AcDbEntity
  8
0
100
AcDbCircle
 62
7
  6
CONTINUOUS
 10
11.4800332544
 20
7.0115895111
 40
0.0522972984
100
AcDbArc
 50
44.1718211289
 51
45.0010052418
  0
ARC
  5
348
100
AcDbEntity
  8
0
100
AcDbCircle
 62
7
  6
CONTINUOUS
 10
11.4762963067
 20
7.0142150714
 40
0.0507623081
100
AcDbArc
 50
40.2275104482
 51
42.430657221
  0
ARC
  5
349
100
AcDbEntity
  8
0
100
AcDbCircle
 62
7
  6
CONTINUOUS
 10
11.5914749925
 20
7.0764943741
 40
0.1816091777
100
AcDbArc
 50
188.589203319
 51
188.8453825545
  0
ARC
  5
34A
100
AcDbEntity
  8
0
100
AcDbCircle
 62
7
  6
CONTINUOUS
 10
11.5436167036
 20
7.0775581326
 40
0.115805242
100
AcDbArc
 50
194.0872968875
 51
194.4972310498
  0
ARC
  5
34B
100
AcDbEntity
  8
0
100
AcDbCircle
 62
7
  6
CONTINUOUS
 10
11.4718595869
 20
7.1375154277
 40
0.1066032887
100
AcDbArc
 50
236.2913099986
 51
236.5505819108
  0
ARC
  5
34C
100
AcDbEntity
  8
0
100
AcDbCircle
 62
7
  6
CONTINUOUS
 10
11.4911866476
 20
7.1366073967
 40
0.1058172989
100
AcDbArc
 50
236.044312434
 51
236.3039527658
  0
ARC
  5
34D
100
AcDbEntity
  8
0
100
AcDbCircle
 62
7
  6
CONTINUOUS
 10
11.489822113
 20
7.1345736923
 40
0.1033682398
100
AcDbArc
 50
235.5137804131
 51
236.0420462306
  0
ARC
  5
34E
100
AcDbEntity
  8
0
100
AcDbCircle
 62
7
  6
CONTINUOUS
 10
11.5079169194
 20
7.1341002361
 40
0.1032595226
100
AcDbArc
 50
235.6624528589
 51
235.9254487865
  0
ARC
  5
34F
100
AcDbEntity
  8
0
100
AcDbCircle
 62
7
  6
CONTINUOUS
 10
11.5072573058
 20
7.133133033
 40
0.1020888086
100
AcDbArc
 50
235.1327328631
 51
235.6619445911
  0
ARC
  5
350
100
AcDbEntity
  8
0
100
AcDbCircle
 62
7
  6
CONTINUOUS
 10
11.5232650907
 20
7.1319613292
 40
0.1012909558
100
AcDbArc
 50
235.1508781207
 51
235.4154414529
  0
ARC
  5
351
100
AcDbEntity
  8
0
100
AcDbCircle
 62
7
  6
CONTINUOUS
 10
11.5225634525
 20
7.1309509342
 40
0.1000608372
100
AcDbArc
 50
234.6170666505
 51
235.1499899525
  0
ARC
  5
352
100
AcDbEntity
  8
0
100
AcDbCircle
 62
7
  6
CONTINUOUS
 10
11.5365771389
 20
7.1293301053
 40
0.0988792634
100
AcDbArc
 50
234.4951881249
 51
234.7619657471
  0
ARC
  5
353
100
AcDbEntity
  8
0
100
AcDbCircle
 62
7
  6
CONTINUOUS
 10
11.5358968661
 20
7.1283743113
 40
0.0977061004
100
AcDbArc
 50
233.9572145526
 51
234.4944197337
  0
ARC
  5
354
100
AcDbEntity
  8
0
100
AcDbCircle
 62
7
  6
CONTINUOUS
 10
11.5475111788
 20
7.1258605348
 40
0.0955894437
100
AcDbArc
 50
233.6859593027
 51
233.9563076666
  0
ARC
  5
355
100
AcDbEntity
  8
0
100
AcDbCircle
 62
7
  6
CONTINUOUS
 10
11.5472234502
 20
7.1254695207
 40
0.0951039752
100
AcDbArc
 50
233.1450919019
 51
233.6861304831
  0
ARC
  5
356
100
AcDbEntity
  8
0
100
AcDbCircle
 62
7
  6
CONTINUOUS
 10
11.5569121964
 20
7.1228145026
 40
0.0929811896
100
AcDbArc
 50
232.7614462768
 51
232.9864336144
  0
ARC
  5
357
100
AcDbEntity
  8
0
100
AcDbCircle
 62
7
  6
CONTINUOUS
 10
11.5563006465
 20
7.1220085976
 40
0.0919695199
100
AcDbArc
 50
232.1665503624
 51
232.7609401187
  0
ARC
  5
358
100
AcDbEntity
  8
0
100
AcDbCircle
 62
7
  6
CONTINUOUS
 10
11.5345007561
 20
7.0793081367
 40
0.090688909
100
AcDbArc
 50
199.2750984267
 51
199.8126789049
  0
ARC
  5
359
100
AcDbEntity
  8
0
100
AcDbCircle
 62
7
  6
CONTINUOUS
 10
11.563906838
 20
7.1190771965
 40
0.0896772719
100
AcDbArc
 50
231.6618374651
 51
231.8352347491
  0
ARC
  5
35A
100
AcDbEntity
  8
0
100
AcDbCircle
 62
7
  6
CONTINUOUS
 10
11.5633800202
 20
7.1184108095
 40
0.0888277965
100
AcDbArc
 50
231.0074553362
 51
231.661744421
  0
ARC
  5
35B
100
AcDbEntity
  8
0
100
AcDbCircle
 62
7
  6
CONTINUOUS
 10
11.5683343034
 20
7.1145730513
 40
0.0855552439
100
AcDbArc
 50
229.6496549293
 51
230.3665800043
  0
ARC
  5
35C
100
AcDbEntity
  8
0
100
AcDbCircle
 62
7
  6
CONTINUOUS
 10
11.5711586796
 20
7.1105374032
 40
0.0822146188
100
AcDbArc
 50
228.0715103793
 51
228.8536026343
  0
ARC
  5
35D
100
AcDbEntity
  8
0
100
AcDbCircle
 62
7
  6
CONTINUOUS
 10
11.5368675736
 20
7.0816530788
 40
0.0791276849
100
AcDbArc
 50
204.077420319
 51
204.5029642349
  0
ARC
  5
35E
100
AcDbEntity
  8
0
100
AcDbCircle
 62
7
  6
CONTINUOUS
 10
11.5719443351
 20
7.1064309668
 40
0.0789923565
100
AcDbArc
 50
226.2482417791
 51
226.4885713884
  0
ARC
  5
35F
100
AcDbEntity
  8
0
100
AcDbCircle
 62
7
  6
CONTINUOUS
 10
11.5719150521
 20
7.1064001107
 40
0.0789498171
100
AcDbArc
 50
226.4885661124
 51
227.0958830267
  0
ARC
  5
360
100
AcDbEntity
  8
0
100
AcDbCircle
 62
7
  6
CONTINUOUS
 10
11.5363911826
 20
7.0814377916
 40
0.0786049095
100
AcDbArc
 50
204.5041889071
 51
204.7179518521
  0
ARC
  5
361
100
AcDbEntity
  8
0
100
AcDbCircle
 62
7
  6
CONTINUOUS
 10
11.5707887876
 20
7.1023459812
 40
0.0760510765
100
AcDbArc
 50
224.1521023319
 51
224.4342653362
  0
ARC
  5
362
100
AcDbEntity
  8
0
100
AcDbCircle
 62
7
  6
CONTINUOUS
 10
11.5706647121
 20
7.1022240459
 40
0.0758771142
100
AcDbArc
 50
224.4341110442
 51
225.0009501351
  0
ARC
  5
363
100
AcDbEntity
  8
0
100
AcDbCircle
 62
7
  6
CONTINUOUS
 10
11.568823791
 20
7.1031715816
 40
0.0744799977
100
AcDbArc
 50
173.0492063503
 51
226.2483361684
  0
ARC
  5
364
100
AcDbEntity
  8
0
100
AcDbCircle
 62
7
  6
CONTINUOUS
 10
11.5678009096
 20
7.0983389624
 40
0.0735354249
100
AcDbArc
 50
221.7517193574
 51
222.0323033534
  0
ARC
  5
365
100
AcDbEntity
  8
0
100
AcDbCircle
 62
7
  6
CONTINUOUS
 10
11.5428068527
 20
7.0842693478
 40
0.0732470437
100
AcDbArc
 50
208.4533302422
 51
208.9308827637
  0
ARC
  5
366
100
AcDbEntity
  8
0
100
AcDbCircle
 62
7
  6
CONTINUOUS
 10
11.5675645659
 20
7.0981253695
 40
0.0732168655
100
AcDbArc
 50
222.0319856329
 51
222.5964611709
  0
ARC
  5
367
100
AcDbEntity
  8
0
100
AcDbCircle
 62
7
  6
CONTINUOUS
 10
11.5424010199
 20
7.0840465148
 40
0.0727840609
100
AcDbArc
 50
208.9319053416
 51
209.1719030645
  0
ARC
  5
368
100
AcDbEntity
  8
0
100
AcDbCircle
 62
7
  6
CONTINUOUS
 10
11.5631837479
 20
7.0944955457
 40
0.071681399
100
AcDbArc
 50
219.013996203
 51
219.2904088992
  0
ARC
  5
369
100
AcDbEntity
  8
0
100
AcDbCircle
 62
7
  6
CONTINUOUS
 10
11.5628054655
 20
7.09418562
 40
0.0711923678
100
AcDbArc
 50
219.2901530384
 51
219.8472386504
  0
ARC
  5
36A
100
AcDbEntity
  8
0
100
AcDbCircle
 62
7
  6
CONTINUOUS
 10
11.5502953806
 20
7.0875101235
 40
0.0711920169
100
AcDbArc
 50
212.3924878055
 51
212.6483801376
  0
ARC
  5
36B
100
AcDbEntity
  8
0
100
AcDbCircle
 62
7
  6
CONTINUOUS
 10
11.5572079556
 20
7.0908699464
 40
0.0707640007
100
AcDbArc
 50
215.9045493976
 51
216.1731504968
  0
ARC
  5
36C
100
AcDbEntity
  8
0
100
AcDbCircle
 62
7
  6
CONTINUOUS
 10
11.5495704343
 20
7.0870445612
 40
0.0703304517
100
AcDbArc
 50
212.6476414796
 51
213.1652804661
  0
ARC
  5
36D
100
AcDbEntity
  8
0
100
AcDbCircle
 62
7
  6
CONTINUOUS
 10
11.5566631424
 20
7.0904712066
 40
0.0700888601
100
AcDbArc
 50
216.1728939596
 51
216.7152955866
  0
ARC
  5
36E
100
AcDbEntity
  8
0
100
AcDbCircle
 62
7
  6
CONTINUOUS
 10
11.6698620932
 20
7.6069554266
 40
0.4260000011
100
AcDbArc
 50
104.9703215056
 51
105.5173434455
  0
ARC
  5
36F
100
AcDbEntity
  8
0
100
AcDbCircle
 62
7
  6
CONTINUOUS
 10
11.6182287929
 20
7.7929204822
 40
0.2330000021
100
AcDbArc
 50
105.5173434455
 51
123.859188203
  0
ARC
  5
370
100
AcDbEntity
  8
0
100
AcDbCircle
 62
7
  6
CONTINUOUS
 10
11.5229555026
 20
7.9349204809
 40
0.0620000037
100
AcDbArc
 50
123.859188203
 51
170.330261138
  0
ARC
  5
371
100
AcDbEntity
  8
0
100
AcDbCircle
 62
7
  6
CONTINUOUS
 10
11.4663183383
 20
7.7569432016
 40
0.031
100
AcDbArc
 50
346.9592389661
 51
360.0
  0
ARC
  5
372
100
AcDbEntity
  8
0
100
AcDbCircle
 62
7
  6
CONTINUOUS
 10
11.4663183383
 20
7.8469432016
 40
0.031
100
AcDbArc
 50
0.0
 51
45.2453073495
  0
ARC
  5
373
100
AcDbEntity
  8
0
100
AcDbCircle
 62
7
  6
CONTINUOUS
 10
12.4212590501
 20
7.3342508572
 40
1.8349999961
100
AcDbArc
 50
177.6954064276
 51
186.9507921473
  0
ARC
  5
374
100
AcDbEntity
  8
0
100
AcDbCircle
 62
7
  6
CONTINUOUS
 10
11.7753183356
 20
7.8919204809
 40
0.3180000027
100
AcDbArc
 50
170.330261138
 51
185.1872496666
  0
ARC
  5
375
100
AcDbEntity
  8
0
100
AcDbCircle
 62
7
  6
CONTINUOUS
 10
11.5791370731
 20
8.8871822164
 40
0.6078409296
100
AcDbArc
 50
339.6970355865
 51
353.3643665393
  0
ARC
  5
376
100
AcDbEntity
  8
0
100
AcDbCircle
 62
7
  6
CONTINUOUS
 10
12.1906825456
 20
8.1170998854
 40
0.4888424103
100
AcDbArc
 50
115.8490587855
 51
141.3390445145
  0
ARC
  5
377
100
AcDbEntity
  8
0
100
AcDbCircle
 62
7
  6
CONTINUOUS
 10
12.1009553891
 20
8.1888845571
 40
0.3739337434
100
AcDbArc
 50
141.3390445145
 51
165.43503933
  0
ARC
  5
378
100
AcDbEntity
  8
0
100
AcDbCircle
 62
7
  6
CONTINUOUS
 10
11.8894606889
 20
8.9289031478
 40
0.3739337434
100
AcDbArc
 50
294.6543569553
 51
307.2907938915
  0
ARC
  5
379
100
AcDbEntity
  8
0
100
AcDbCircle
 62
7
  6
CONTINUOUS
 10
12.0554263451
 20
8.7109694497
 40
0.1
100
AcDbArc
 50
307.2907938915
 51
339.6970355865
  0
ARC
  5
37A
100
AcDbEntity
  8
0
100
AcDbCircle
 62
7
  6
CONTINUOUS
 10
12.8043014757
 20
8.9219432016
 40
0.02
100
AcDbArc
 50
90.0
 51
178.5
  0
ARC
  5
37B
100
AcDbEntity
  8
0
100
AcDbCircle
 62
7
  6
CONTINUOUS
 10
13.2246087551
 20
7.3019204889
 40
2.6389999968
100
AcDbArc
 50
171.1934452325
 51
177.6954064276
  0
ARC
  5
37C
100
AcDbEntity
  8
0
100
AcDbCircle
 62
7
  6
CONTINUOUS
 10
13.9563492847
 20
8.0899204801
 40
2.5080000028
100
AcDbArc
 50
185.1872496666
 51
188.8065547675
  0
ARC
  5
37D
100
AcDbEntity
  8
0
100
AcDbCircle
 62
7
  6
CONTINUOUS
 10
14.7676293606
 20
8.8894555888
 40
0.425
100
AcDbArc
 50
95.7176220275
 51
164.7903499152
  0
ARC
  5
37E
100
AcDbEntity
  8
0
100
AcDbCircle
 62
7
  6
CONTINUOUS
 10
14.2803183383
 20
9.0219432016
 40
0.08
100
AcDbArc
 50
270.0
 51
344.7903499152
  0
ARC
  5
37F
100
AcDbEntity
  8
0
100
AcDbCircle
 62
7
  6
CONTINUOUS
 10
14.7173183383
 20
9.3919432016
 40
0.08
100
AcDbArc
 50
275.7176220275
 51
360.0
  0
SPLINE
  5
380
100
AcDbEntity
  8
0
100
AcDbSpline
 62
7
  6
CONTINUOUS
 70
0
 71
3
 72
17
 73
13
 74
0
 42
0.0000001
 43
0.0000001
 44
0.0000000001
 40
0.0
 40
0.0
 40
0.0
 40
0.0
 40
0.1249929652
 40
0.2497976919
 40
0.3121533598
 40
0.3744907739
 40
0.4368244211
 40
0.4991736932
 40
0.6239820174
 40
0.7490191843
 40
0.8743471316
 40
1.0
 40
1.0
 40
1.0
 40
1.0
 10
11.392560703
 20
5.4205823651
 30
0.0
 10
11.3783273536
 20
5.4181747653
 30
0.0
 10
11.3498183274
 20
5.4137312874
 30
0.0
 10
11.3140531958
 20
5.4091611396
 30
0.0
 10
11.2853971413
 20
5.4061329259
 30
0.0
 10
11.2638844107
 20
5.4041851268
 30
0.0
 10
11.2423455572
 20
5.4025624349
 30
0.0
 10
11.2135854863
 20
5.40078929
 30
0.0
 10
11.1775600517
 20
5.3992357991
 30
0.0
 10
11.1342415095
 20
5.3982016519
 30
0.0
 10
11.0908161794
 20
5.397765931
 30
0.0
 10
11.0618300896
 20
5.3977205192
 30
0.0
 10
11.0473183383
 20
5.3977205192
 30
0.0
  0
SPLINE
  5
381
100
AcDbEntity
  8
0
100
AcDbSpline
 62
7
  6
CONTINUOUS
 70
0
 71
3
 72
16
 73
12
 74
0
 42
0.0000001
 43
0.0000001
 44
0.0000000001
 40
0.0
 40
0.0
 40
0.0
 40
0.0
 40
0.1251611525
 40
0.2504152399
 40
0.3756709672
 40
0.5008177658
 40
0.6257712898
 40
0.7505192679
 40
0.8751678568
 40
0.9375373645
 40
1.0
 40
1.0
 40
1.0
 40
1.0
 10
11.3910430772
 20
6.1584307263
 30
0.0
 10
11.3963134494
 20
6.1328733548
 30
0.0
 10
11.4075415327
 20
6.0818802952
 30
0.0
 10
11.425579967
 20
6.005660647
 30
0.0
 10
11.443972395
 20
5.9295294396
 30
0.0
 10
11.4618690278
 20
5.8533429358
 30
0.0
 10
11.4784194268
 20
5.7769554686
 30
0.0
 10
11.4927706768
 20
5.7002231495
 30
0.0
 10
11.5021809071
 20
5.6358814823
 30
0.0
 10
11.5077452748
 20
5.5841598416
 30
0.0
 10
11.5098020413
 20
5.5582101063
 30
0.0
 10
11.5106317173
 20
5.5452135843
 30
0.0
  0
SPLINE
  5
382
100
AcDbEntity
  8
0
100
AcDbSpline
 62
7
  6
CONTINUOUS
 70
0
 71
3
 72
17
 73
13
 74
0
 42
0.0000001
 43
0.0000001
 44
0.0000000001
 40
0.0
 40
0.0
 40
0.0
 40
0.0
 40
0.1249929652
 40
0.2497976919
 40
0.3121533598
 40
0.3744907739
 40
0.4368244211
 40
0.4991736932
 40
0.6239820174
 40
0.7490191843
 40
0.8743471316
 40
1.0
 40
1.0
 40
1.0
 40
1.0
 10
10.7020759736
 20
5.4205823651
 30
0.0
 10
10.716309323
 20
5.4181747653
 30
0.0
 10
10.7448183492
 20
5.4137312874
 30
0.0
 10
10.7805834808
 20
5.4091611396
 30
0.0
 10
10.8092395353
 20
5.4061329259
 30
0.0
 10
10.8307522659
 20
5.4041851268
 30
0.0
 10
10.8522911194
 20
5.4025624349
 30
0.0
 10
10.8810511903
 20
5.40078929
 30
0.0
 10
10.9170766248
 20
5.3992357991
 30
0.0
 10
10.9603951671
 20
5.3982016519
 30
0.0
 10
11.0038204972
 20
5.397765931
 30
0.0
 10
11.032806587
 20
5.3977205192
 30
0.0
 10
11.0473183383
 20
5.3977205192
 30
0.0
  0
SPLINE
  5
383
100
AcDbEntity
  8
0
100
AcDbSpline
 62
7
  6
CONTINUOUS
 70
0
 71
3
 72
16
 73
12
 74
0
 42
0.0000001
 43
0.0000001
 44
0.0000000001
 40
0.0
 40
0.0
 40
0.0
 40
0.0
 40
0.1251611525
 40
0.2504152399
 40
0.3756709672
 40
0.5008177658
 40
0.6257712898
 40
0.7505192679
 40
0.8751678568
 40
0.9375373645
 40
1.0
 40
1.0
 40
1.0
 40
1.0
 10
10.7035935993
 20
6.1584307263
 30
0.0
 10
10.6983232271
 20
6.1328733548
 30
0.0
 10
10.6870951438
 20
6.0818802952
 30
0.0
 10
10.6690567096
 20
6.005660647
 30
0.0
 10
10.6506642816
 20
5.9295294396
 30
0.0
 10
10.6327676487
 20
5.8533429358
 30
0.0
 10
10.6162172497
 20
5.7769554686
 30
0.0
 10
10.6018659998
 20
5.7002231495
 30
0.0
 10
10.5924557695
 20
5.6358814823
 30
0.0
 10
10.5868914017
 20
5.5841598416
 30
0.0
 10
10.5848346353
 20
5.5582101063
 30
0.0
 10
10.5840049593
 20
5.5452135843
 30
0.0
  0
SPLINE
  5
384
100
AcDbEntity
  8
0
100
AcDbSpline
 62
7
  6
CONTINUOUS
 70
0
 71
3
 72
11
 73
7
 74
0
 42
0.0000001
 43
0.0000001
 44
0.0000000001
 40
0.0
 40
0.0
 40
0.0
 40
0.0
 40
0.2718250454
 40
0.529166114
 40
0.7715498927
 40
1.0
 40
1.0
 40
1.0
 40
1.0
 10
11.5316730343
 20
6.9938958115
 30
0.0
 10
11.5310159055
 20
6.9910459473
 30
0.0
 10
11.5293173258
 20
6.9855854118
 30
0.0
 10
11.5257188268
 20
6.9780747802
 30
0.0
 10
11.521363614
 20
6.971532621
 30
0.0
 10
11.5179841004
 20
6.9677328175
 30
0.0
 10
11.5162226598
 20
6.966018496
 30
0.0
  0
SPLINE
  5
385
100
AcDbEntity
  8
0
100
AcDbSpline
 62
7
  6
CONTINUOUS
 70
0
 71
3
 72
11
 73
7
 74
0
 42
0.0000001
 43
0.0000001
 44
0.0000000001
 40
0.0
 40
0.0
 40
0.0
 40
0.0
 40
0.2753141642
 40
0.5339277721
 40
0.7751490931
 40
1.0
 40
1.0
 40
1.0
 40
1.0
 10
11.5271458855
 20
6.9938958115
 30
0.0
 10
11.5265434953
 20
6.9910543314
 30
0.0
 10
11.5249911238
 20
6.9856169524
 30
0.0
 10
11.5216893226
 20
6.9781091265
 30
0.0
 10
11.5176910446
 20
6.9715662352
 30
0.0
 10
11.5145697735
 20
6.9677429408
 30
0.0
 10
11.5129407329
 20
6.966018496
 30
0.0
  0
SPLINE
  5
386
100
AcDbEntity
  8
0
100
AcDbSpline
 62
7
  6
CONTINUOUS
 70
0
 71
3
 72
11
 73
7
 74
0
 42
0.0000001
 43
0.0000001
 44
0.0000000001
 40
0.0
 40
0.0
 40
0.0
 40
0.0
 40
0.278933787
 40
0.5388970042
 40
0.7789313197
 40
1.0
 40
1.0
 40
1.0
 40
1.0
 10
11.5203815591
 20
6.9938958115
 30
0.0
 10
11.5198363645
 20
6.9910625497
 30
0.0
 10
11.5184357588
 20
6.9856485287
 30
0.0
 10
11.5154454303
 20
6.9781448059
 30
0.0
 10
11.5118228341
 20
6.9716027173
 30
0.0
 10
11.5089763383
 20
6.9677544107
 30
0.0
 10
11.5074878595
 20
6.966018496
 30
0.0
  0
SPLINE
  5
387
100
AcDbEntity
  8
0
100
AcDbSpline
 62
7
  6
CONTINUOUS
 70
0
 71
3
 72
11
 73
7
 74
0
 42
0.0000001
 43
0.0000001
 44
0.0000000001
 40
0.0
 40
0.0
 40
0.0
 40
0.0
 40
0.2826107998
 40
0.5439757102
 40
0.7828251542
 40
1.0
 40
1.0
 40
1.0
 40
1.0
 10
11.5114115936
 20
6.9938958115
 30
0.0
 10
11.5109257495
 20
6.9910704318
 30
0.0
 10
11.5096815079
 20
6.9856794348
 30
0.0
 10
11.5070156058
 20
6.978181045
 30
0.0
 10
11.5037852442
 20
6.9716415027
 30
0.0
 10
11.5012294107
 20
6.9677672079
 30
0.0
 10
11.4998894633
 20
6.966018496
 30
0.0
  0
SPLINE
  5
388
100
AcDbEntity
  8
0
100
AcDbSpline
 62
7
  6
CONTINUOUS
 70
0
 71
3
 72
13
 73
9
 74
0
 42
0.0000001
 43
0.0000001
 44
0.0000000001
 40
0.0
 40
0.0
 40
0.0
 40
0.0
 40
0.2862007649
 40
0.4207148678
 40
0.5490266352
 40
0.6710328303
 40
0.7867731325
 40
1.0
 40
1.0
 40
1.0
 40
1.0
 10
11.5002778112
 20
6.9938958115
 30
0.0
 10
11.4998531773
 20
6.9910778058
 30
0.0
 10
11.4990221053
 20
6.986961752
 30
0.0
 10
11.4975225284
 20
6.9817027606
 30
0.0
 10
11.4962803153
 20
6.9780758193
 30
0.0
 10
11.4949157166
 20
6.9746937108
 30
0.0
 10
11.4930068266
 20
6.9706277742
 30
0.0
 10
11.4913645513
 20
6.9677811834
 30
0.0
 10
11.4901809717
 20
6.966018496
 30
0.0
  0
SPLINE
  5
389
100
AcDbEntity
  8
0
100
AcDbSpline
 62
7
  6
CONTINUOUS
 70
0
 71
3
 72
14
 73
10
 74
0
 42
0.0000001
 43
0.0000001
 44
0.0000000001
 40
0.0
 40
0.0
 40
0.0
 40
0.0
 40
0.2896829193
 40
0.4251656299
 40
0.553866631
 40
0.6756427332
 40
0.7905010544
 40
0.8985689678
 40
1.0
 40
1.0
 40
1.0
 40
1.0
 10
11.4870321225
 20
6.9938958115
 30
0.0
 10
11.4866702727
 20
6.9910845034
 30
0.0
 10
11.4859630078
 20
6.9869774406
 30
0.0
 10
11.4846806935
 20
6.9817105017
 30
0.0
 10
11.4836202602
 20
6.9780843699
 30
0.0
 10
11.4824554862
 20
6.9747032754
 30
0.0
 10
11.4812000757
 20
6.9715711637
 30
0.0
 10
11.4798660448
 20
6.9686897692
 30
0.0
 10
11.4789014354
 20
6.9668794283
 30
0.0
 10
11.47840765
 20
6.966018496
 30
0.0
  0
SPLINE
  5
38A
100
AcDbEntity
  8
0
100
AcDbSpline
 62
7
  6
CONTINUOUS
 70
0
 71
3
 72
14
 73
10
 74
0
 42
0.0000001
 43
0.0000001
 44
0.0000000001
 40
0.0
 40
0.0
 40
0.0
 40
0.0
 40
0.2929199171
 40
0.4293186098
 40
0.5584046007
 40
0.6799933968
 40
0.7940557505
 40
0.9006843361
 40
1.0
 40
1.0
 40
1.0
 40
1.0
 10
11.4717362853
 20
6.9938958115
 30
0.0
 10
11.4714385196
 20
6.9910903653
 30
0.0
 10
11.4708572257
 20
6.9869914118
 30
0.0
 10
11.4697987891
 20
6.9817174849
 30
0.0
 10
11.4689248625
 20
6.9780922847
 30
0.0
 10
11.4679649882
 20
6.9747120625
 30
0.0
 10
11.466930495
 20
6.9715808405
 30
0.0
 10
11.4658312929
 20
6.9687002905
 30
0.0
 10
11.4650333595
 20
6.9668832008
 30
0.0
 10
11.4646243909
 20
6.966018496
 30
0.0
  0
SPLINE
  5
38B
100
AcDbEntity
  8
0
100
AcDbSpline
 62
7
  6
CONTINUOUS
 70
0
 71
3
 72
14
 73
10
 74
0
 42
0.0000001
 43
0.0000001
 44
0.0000000001
 40
0.0
 40
0.0
 40
0.0
 40
0.0
 40
0.295744006
 40
0.4329500287
 40
0.5623832035
 40
0.6838196015
 40
0.7971931947
 40
0.9025592041
 40
1.0
 40
1.0
 40
1.0
 40
1.0
 10
11.4544616156
 20
6.9938958115
 30
0.0
 10
11.4542289735
 20
6.9910952473
 30
0.0
 10
11.4537753006
 20
6.9870032145
 30
0.0
 10
11.4529462526
 20
6.9817234657
 30
0.0
 10
11.4522626428
 20
6.9780991657
 30
0.0
 10
11.4515118471
 20
6.9747198444
 30
0.0
 10
11.4507027629
 20
6.9715896046
 30
0.0
 10
11.4498431576
 20
6.968710073
 30
0.0
 10
11.4492168776
 20
6.9668868157
 30
0.0
 10
11.4488954584
 20
6.966018496
 30
0.0
  0
SPLINE
  5
38C
100
AcDbEntity
  8
0
100
AcDbSpline
 62
7
  6
CONTINUOUS
 70
0
 71
3
 72
14
 73
10
 74
0
 42
0.0000001
 43
0.0000001
 44
0.0000000001
 40
0.0
 40
0.0
 40
0.0
 40
0.0
 40
0.2980158986
 40
0.4358767908
 40
0.5655970666
 40
0.6869186061
 40
0.7997424656
 40
0.9040882889
 40
1.0
 40
1.0
 40
1.0
 40
1.0
 10
11.435288656
 20
6.9938958115
 30
0.0
 10
11.4351219293
 20
6.9910990275
 30
0.0
 10
11.4347970789
 20
6.9870124604
 30
0.0
 10
11.4342017631
 20
6.9817282106
 30
0.0
 10
11.4337114032
 20
6.9781046919
 30
0.0
 10
11.4331728833
 20
6.9747261866
 30
0.0
 10
11.432592614
 20
6.9715968816
 30
0.0
 10
11.4319761836
 20
6.9687183808
 30
0.0
 10
11.4315256878
 20
6.9668899709
 30
0.0
 10
11.431294188
 20
6.966018496
 30
0.0
  0
SPLINE
  5
38D
100
AcDbEntity
  8
0
100
AcDbSpline
 62
7
  6
CONTINUOUS
 70
0
 71
3
 72
13
 73
9
 74
0
 42
0.0000001
 43
0.0000001
 44
0.0000000001
 40
0.0
 40
0.0
 40
0.0
 40
0.0
 40
0.2996133443
 40
0.5678586373
 40
0.6891043112
 40
0.8015448157
 40
0.9051725043
 40
1.0
 40
1.0
 40
1.0
 40
1.0
 10
11.4143067998
 20
6.9938958115
 30
0.0
 10
11.4142065441
 20
6.9911016009
 30
0.0
 10
11.4139532082
 20
6.9858077397
 30
0.0
 10
11.4134809962
 20
6.9793934884
 30
0.0
 10
11.4130338519
 20
6.9747306671
 30
0.0
 10
11.4126847493
 20
6.9716021087
 30
0.0
 10
11.4123139522
 20
6.9687244612
 30
0.0
 10
11.4120423557
 20
6.9668923334
 30
0.0
 10
11.4119026449
 20
6.966018496
 30
0.0
  0
SPLINE
  5
38E
100
AcDbEntity
  8
0
100
AcDbSpline
 62
7
  6
CONTINUOUS
 70
0
 71
3
 72
11
 73
7
 74
0
 42
0.0000001
 43
0.0000001
 44
0.0000000001
 40
0.0
 40
0.0
 40
0.0
 40
0.0
 40
0.3004357132
 40
0.5690329047
 40
0.8024819813
 40
1.0
 40
1.0
 40
1.0
 40
1.0
 10
11.3916138739
 20
6.9938958115
 30
0.0
 10
11.3915804189
 20
6.9911029061
 30
0.0
 10
11.3914959518
 20
6.9858132939
 30
0.0
 10
11.3913126249
 20
6.9783548912
 30
0.0
 10
11.3910908484
 20
6.9718548304
 30
0.0
 10
11.3909091179
 20
6.9678521811
 30
0.0
 10
11.3908112415
 20
6.966018496
 30
0.0
  0
SPLINE
  5
38F
100
AcDbEntity
  8
0
100
AcDbSpline
 62
7
  6
CONTINUOUS
 70
0
 71
3
 72
11
 73
7
 74
0
 42
0.0000001
 43
0.0000001
 44
0.0000000001
 40
0.0
 40
0.0
 40
0.0
 40
0.0
 40
0.1975180216
 40
0.4309670912
 40
0.6995642826
 40
1.0
 40
1.0
 40
1.0
 40
1.0
 10
10.7038254351
 20
6.966018496
 30
0.0
 10
10.7037275586
 20
6.9678521811
 30
0.0
 10
10.7035458282
 20
6.9718548304
 30
0.0
 10
10.7033240516
 20
6.9783548912
 30
0.0
 10
10.7031407248
 20
6.9858132939
 30
0.0
 10
10.7030562577
 20
6.9911029061
 30
0.0
 10
10.7030228027
 20
6.9938958115
 30
0.0
  0
SPLINE
  5
390
100
AcDbEntity
  8
0
100
AcDbSpline
 62
7
  6
CONTINUOUS
 70
0
 71
3
 72
13
 73
9
 74
0
 42
0.0000001
 43
0.0000001
 44
0.0000000001
 40
0.0
 40
0.0
 40
0.0
 40
0.0
 40
0.0948274901
 40
0.1984551747
 40
0.3108956831
 40
0.432141357
 40
0.7003866616
 40
1.0
 40
1.0
 40
1.0
 40
1.0
 10
10.6827340317
 20
6.966018496
 30
0.0
 10
10.6825943209
 20
6.9668923334
 30
0.0
 10
10.6823227244
 20
6.968724461
 30
0.0
 10
10.6819519273
 20
6.9716021085
 30
0.0
 10
10.6816028247
 20
6.9747306669
 30
0.0
 10
10.6811556804
 20
6.9793934884
 30
0.0
 10
10.6806834683
 20
6.9858077397
 30
0.0
 10
10.6804301325
 20
6.9911016009
 30
0.0
 10
10.6803298768
 20
6.9938958115
 30
0.0
  0
SPLINE
  5
391
100
AcDbEntity
  8
0
100
AcDbSpline
 62
7
  6
CONTINUOUS
 70
0
 71
3
 72
14
 73
10
 74
0
 42
0.0000001
 43
0.0000001
 44
0.0000000001
 40
0.0
 40
0.0
 40
0.0
 40
0.0
 40
0.0959117115
 40
0.2002575365
 40
0.3130813969
 40
0.4344029344
 40
0.5641232083
 40
0.701984101
 40
1.0
 40
1.0
 40
1.0
 40
1.0
 10
10.6633424886
 20
6.966018496
 30
0.0
 10
10.6631109888
 20
6.9668899709
 30
0.0
 10
10.662660493
 20
6.9687183808
 30
0.0
 10
10.6620440626
 20
6.9715968817
 30
0.0
 10
10.6614637933
 20
6.9747261867
 30
0.0
 10
10.6609252733
 20
6.9781046919
 30
0.0
 10
10.6604349134
 20
6.9817282106
 30
0.0
 10
10.6598395976
 20
6.9870124604
 30
0.0
 10
10.6595147473
 20
6.9910990275
 30
0.0
 10
10.6593480205
 20
6.9938958115
 30
0.0
  0
SPLINE
  5
392
100
AcDbEntity
  8
0
100
AcDbSpline
 62
7
  6
CONTINUOUS
 70
0
 71
3
 72
14
 73
10
 74
0
 42
0.0000001
 43
0.0000001
 44
0.0000000001
 40
0.0
 40
0.0
 40
0.0
 40
0.0
 40
0.0974407964
 40
0.2028068083
 40
0.3161804014
 40
0.4376167924
 40
0.567049971
 40
0.7042559899
 40
1.0
 40
1.0
 40
1.0
 40
1.0
 10
10.6457412181
 20
6.966018496
 30
0.0
 10
10.645419799
 20
6.9668868157
 30
0.0
 10
10.6447935189
 20
6.968710073
 30
0.0
 10
10.6439339137
 20
6.9715896047
 30
0.0
 10
10.6431248295
 20
6.9747198444
 30
0.0
 10
10.6423740338
 20
6.9780991657
 30
0.0
 10
10.641690424
 20
6.9817234657
 30
0.0
 10
10.640861376
 20
6.9870032144
 30
0.0
 10
10.6404077031
 20
6.9910952472
 30
0.0
 10
10.640175061
 20
6.9938958115
 30
0.0
  0
SPLINE
  5
393
100
AcDbEntity
  8
0
100
AcDbSpline
 62
7
  6
CONTINUOUS
 70
0
 71
3
 72
14
 73
10
 74
0
 42
0.0000001
 43
0.0000001
 44
0.0000000001
 40
0.0
 40
0.0
 40
0.0
 40
0.0
 40
0.099315658
 40
0.2059442397
 40
0.3200065974
 40
0.4415953936
 40
0.5706813845
 40
0.7070800887
 40
1.0
 40
1.0
 40
1.0
 40
1.0
 10
10.6300122856
 20
6.966018496
 30
0.0
 10
10.6296033171
 20
6.9668832008
 30
0.0
 10
10.6288053837
 20
6.9687002904
 30
0.0
 10
10.6277061816
 20
6.9715808403
 30
0.0
 10
10.6266716885
 20
6.9747120623
 30
0.0
 10
10.6257118141
 20
6.9780922845
 30
0.0
 10
10.6248378875
 20
6.9817174849
 30
0.0
 10
10.6237794509
 20
6.9869914118
 30
0.0
 10
10.6231981569
 20
6.9910903654
 30
0.0
 10
10.6229003913
 20
6.9938958115
 30
0.0
  0
SPLINE
  5
394
100
AcDbEntity
  8
0
100
AcDbSpline
 62
7
  6
CONTINUOUS
 70
0
 71
3
 72
14
 73
10
 74
0
 42
0.0000001
 43
0.0000001
 44
0.0000000001
 40
0.0
 40
0.0
 40
0.0
 40
0.0
 40
0.1014310328
 40
0.2094989487
 40
0.3243572697
 40
0.446133365
 40
0.5748343697
 40
0.7103170767
 40
1.0
 40
1.0
 40
1.0
 40
1.0
 10
10.6162290266
 20
6.966018496
 30
0.0
 10
10.6157352412
 20
6.9668794283
 30
0.0
 10
10.6147706317
 20
6.9686897693
 30
0.0
 10
10.6134366009
 20
6.9715711638
 30
0.0
 10
10.6121811904
 20
6.9747032754
 30
0.0
 10
10.6110164164
 20
6.9780843699
 30
0.0
 10
10.6099559831
 20
6.9817105016
 30
0.0
 10
10.6086736688
 20
6.9869774406
 30
0.0
 10
10.6079664038
 20
6.9910845033
 30
0.0
 10
10.607604554
 20
6.9938958115
 30
0.0
  0
SPLINE
  5
395
100
AcDbEntity
  8
0
100
AcDbSpline
 62
7
  6
CONTINUOUS
 70
0
 71
3
 72
13
 73
9
 74
0
 42
0.0000001
 43
0.0000001
 44
0.0000000001
 40
0.0
 40
0.0
 40
0.0
 40
0.0
 40
0.2132268705
 40
0.3289671726
 40
0.4509733608
 40
0.5792851318
 40
0.7137992312
 40
1.0
 40
1.0
 40
1.0
 40
1.0
 10
10.6044557049
 20
6.966018496
 30
0.0
 10
10.6032721253
 20
6.9677811835
 30
0.0
 10
10.60162985
 20
6.9706277743
 30
0.0
 10
10.5997209599
 20
6.9746937108
 30
0.0
 10
10.5983563613
 20
6.9780758193
 30
0.0
 10
10.5971141482
 20
6.9817027605
 30
0.0
 10
10.5956145712
 20
6.986961752
 30
0.0
 10
10.5947834993
 20
6.9910778057
 30
0.0
 10
10.5943588654
 20
6.9938958115
 30
0.0
  0
SPLINE
  5
396
100
AcDbEntity
  8
0
100
AcDbSpline
 62
7
  6
CONTINUOUS
 70
0
 71
3
 72
11
 73
7
 74
0
 42
0.0000001
 43
0.0000001
 44
0.0000000001
 40
0.0
 40
0.0
 40
0.0
 40
0.0
 40
0.2171748488
 40
0.4560242857
 40
0.7173891963
 40
1.0
 40
1.0
 40
1.0
 40
1.0
 10
10.5947472132
 20
6.966018496
 30
0.0
 10
10.5934072658
 20
6.9677672079
 30
0.0
 10
10.5908514324
 20
6.9716415027
 30
0.0
 10
10.5876210707
 20
6.9781810449
 30
0.0
 10
10.5849551687
 20
6.9856794347
 30
0.0
 10
10.583710927
 20
6.9910704318
 30
0.0
 10
10.5832250829
 20
6.9938958115
 30
0.0
  0
SPLINE
  5
397
100
AcDbEntity
  8
0
100
AcDbSpline
 62
7
  6
CONTINUOUS
 70
0
 71
3
 72
11
 73
7
 74
0
 42
0.0000001
 43
0.0000001
 44
0.0000000001
 40
0.0
 40
0.0
 40
0.0
 40
0.0
 40
0.2210686701
 40
0.4611029901
 40
0.7210662185
 40
1.0
 40
1.0
 40
1.0
 40
1.0
 10
10.5871488171
 20
6.966018496
 30
0.0
 10
10.5856603384
 20
6.9677544107
 30
0.0
 10
10.5828138426
 20
6.9716027172
 30
0.0
 10
10.5791912463
 20
6.9781448058
 30
0.0
 10
10.5762009178
 20
6.9856485287
 30
0.0
 10
10.5748003121
 20
6.9910625498
 30
0.0
 10
10.5742551174
 20
6.9938958115
 30
0.0
  0
SPLINE
  5
398
100
AcDbEntity
  8
0
100
AcDbSpline
 62
7
  6
CONTINUOUS
 70
0
 71
3
 72
11
 73
7
 74
0
 42
0.0000001
 43
0.0000001
 44
0.0000000001
 40
0.0
 40
0.0
 40
0.0
 40
0.0
 40
0.22485091
 40
0.4660722239
 40
0.724685832
 40
1.0
 40
1.0
 40
1.0
 40
1.0
 10
10.5816959436
 20
6.966018496
 30
0.0
 10
10.580066903
 20
6.9677429408
 30
0.0
 10
10.576945632
 20
6.9715662352
 30
0.0
 10
10.572947354
 20
6.9781091264
 30
0.0
 10
10.5696455527
 20
6.9856169523
 30
0.0
 10
10.5680931812
 20
6.9910543314
 30
0.0
 10
10.5674907911
 20
6.9938958115
 30
0.0
  0
SPLINE
  5
399
100
AcDbEntity
  8
0
100
AcDbSpline
 62
7
  6
CONTINUOUS
 70
0
 71
3
 72
11
 73
7
 74
0
 42
0.0000001
 43
0.0000001
 44
0.0000000001
 40
0.0
 40
0.0
 40
0.0
 40
0.0
 40
0.2284501104
 40
0.470833882
 40
0.7281749509
 40
1.0
 40
1.0
 40
1.0
 40
1.0
 10
10.5784140168
 20
6.966018496
 30
0.0
 10
10.5766525762
 20
6.9677328176
 30
0.0
 10
10.5732730626
 20
6.971532621
 30
0.0
 10
10.5689178498
 20
6.9780747801
 30
0.0
 10
10.5653193507
 20
6.9855854117
 30
0.0
 10
10.5636207711
 20
6.9910459473
 30
0.0
 10
10.5629636422
 20
6.9938958115
 30
0.0
  0
SPLINE
  5
39A
100
AcDbEntity
  8
0
100
AcDbSpline
 62
7
  6
CONTINUOUS
 70
0
 71
3
 72
11
 73
7
 74
0
 42
0.0000001
 43
0.0000001
 44
0.0000000001
 40
0.0
 40
0.0
 40
0.0
 40
0.0
 40
0.2321160407
 40
0.4757029656
 40
0.7317313228
 40
1.0
 40
1.0
 40
1.0
 40
1.0
 10
10.5773183383
 20
6.966018496
 30
0.0
 10
10.5754676836
 20
6.9676925315
 30
0.0
 10
10.5719111225
 20
6.9713940725
 30
0.0
 10
10.567285991
 20
6.9777886711
 30
0.0
 10
10.5634362568
 20
6.9851231449
 30
0.0
 10
10.561582672
 20
6.9904747852
 30
0.0
 10
10.5608550899
 20
6.9932656361
 30
0.0
  0
SPLINE
  5
39B
100
AcDbEntity
  8
0
100
AcDbSpline
 62
7
  6
CONTINUOUS
 70
0
 71
3
 72
13
 73
9
 74
0
 42
0.0000001
 43
0.0000001
 44
0.0000000001
 40
0.0
 40
0.0
 40
0.0
 40
0.0
 40
0.1250657827
 40
0.2501254445
 40
0.3751825852
 40
0.5002426677
 40
0.7501211736
 40
1.0
 40
1.0
 40
1.0
 40
1.0
 10
10.577952617
 20
6.965453468
 30
0.0
 10
10.5792144354
 20
6.9643465531
 30
0.0
 10
10.5818399604
 20
6.9622456525
 30
0.0
 10
10.5860552522
 20
6.9594783197
 30
0.0
 10
10.5905120346
 20
6.9571187994
 30
0.0
 10
10.5967104085
 20
6.9545274674
 30
0.0
 10
10.604850725
 20
6.9523347974
 30
0.0
 10
10.6115712255
 20
6.951736583
 30
0.0
 10
10.6149248835
 20
6.9517365654
 30
0.0
  0
SPLINE
  5
39C
100
AcDbEntity
  8
0
100
AcDbSpline
 62
7
  6
CONTINUOUS
 70
0
 71
3
 72
13
 73
9
 74
0
 42
0.0000001
 43
0.0000001
 44
0.0000000001
 40
0.0
 40
0.0
 40
0.0
 40
0.0
 40
0.1250657827
 40
0.2501254445
 40
0.3751825852
 40
0.5002426677
 40
0.7501211736
 40
1.0
 40
1.0
 40
1.0
 40
1.0
 10
11.5166840595
 20
6.965453468
 30
0.0
 10
11.5154222411
 20
6.9643465531
 30
0.0
 10
11.5127967162
 20
6.9622456525
 30
0.0
 10
11.5085814244
 20
6.9594783197
 30
0.0
 10
11.504124642
 20
6.9571187994
 30
0.0
 10
11.4979262681
 20
6.9545274674
 30
0.0
 10
11.4897859515
 20
6.9523347974
 30
0.0
 10
11.4830654511
 20
6.951736583
 30
0.0
 10
11.4797117931
 20
6.9517365654
 30
0.0
  0
SPLINE
  5
39D
100
AcDbEntity
  8
0
100
AcDbSpline
 62
7
  6
CONTINUOUS
 70
0
 71
3
 72
11
 73
7
 74
0
 42
0.0000001
 43
0.0000001
 44
0.0000000001
 40
0.0
 40
0.0
 40
0.0
 40
0.0
 40
0.2682686782
 40
0.5242970354
 40
0.7678839661
 40
1.0
 40
1.0
 40
1.0
 40
1.0
 10
11.5337815885
 20
6.9932656433
 30
0.0
 10
11.5330540067
 20
6.9904747917
 30
0.0
 10
11.531200422
 20
6.9851231499
 30
0.0
 10
11.5273506875
 20
6.9777886741
 30
0.0
 10
11.5227255552
 20
6.9713940738
 30
0.0
 10
11.5191689933
 20
6.9676925318
 30
0.0
 10
11.5173183383
 20
6.966018496
 30
0.0
  0
SPLINE
  5
39E
100
AcDbEntity
  8
0
100
AcDbSpline
 62
7
  6
CONTINUOUS
 70
0
 71
3
 72
14
 73
10
 74
0
 42
0.0000001
 43
0.0000001
 44
0.0000000001
 40
0.0
 40
0.0
 40
0.0
 40
0.0
 40
0.2707952309
 40
0.4014087709
 40
0.5283900855
 40
0.6516065976
 40
0.7711131616
 40
0.8871594012
 40
1.0
 40
1.0
 40
1.0
 40
1.0
 10
10.5629636422
 20
7.0212587828
 30
0.0
 10
10.5635657733
 20
7.0239594559
 30
0.0
 10
10.5647257385
 20
7.0279112498
 30
0.0
 10
10.5667783869
 20
7.0329081994
 30
0.0
 10
10.5685065523
 20
7.0363984103
 30
0.0
 10
10.5704214574
 20
7.0396583952
 30
0.0
 10
10.5724996277
 20
7.0426820502
 30
0.0
 10
10.5747149832
 20
7.0454719275
 30
0.0
 10
10.5762895797
 20
7.0472039224
 30
0.0
 10
10.5770930077
 20
7.0480309183
 30
0.0
  0
SPLINE
  5
39F
100
AcDbEntity
  8
0
100
AcDbSpline
 62
7
  6
CONTINUOUS
 70
0
 71
3
 72
14
 73
10
 74
0
 42
0.0000001
 43
0.0000001
 44
0.0000000001
 40
0.0
 40
0.0
 40
0.0
 40
0.0
 40
0.2707952216
 40
0.4014087582
 40
0.528390075
 40
0.6516065913
 40
0.771113157
 40
0.8871593979
 40
1.0
 40
1.0
 40
1.0
 40
1.0
 10
11.5316730343
 20
7.0212587828
 30
0.0
 10
11.5310709033
 20
7.0239594558
 30
0.0
 10
11.5299109381
 20
7.0279112496
 30
0.0
 10
11.5278582898
 20
7.0329081991
 30
0.0
 10
11.5261301244
 20
7.03639841
 30
0.0
 10
11.5242152192
 20
7.039658395
 30
0.0
 10
11.5221370489
 20
7.0426820501
 30
0.0
 10
11.5199216934
 20
7.0454719275
 30
0.0
 10
11.5183470972
 20
7.0472039227
 30
0.0
 10
11.5175436693
 20
7.0480309188
 30
0.0
  0
SPLINE
  5
3A0
100
AcDbEntity
  8
0
100
AcDbSpline
 62
7
  6
CONTINUOUS
 70
0
 71
3
 72
12
 73
8
 74
0
 42
0.0000001
 43
0.0000001
 44
0.0000000001
 40
0.0
 40
0.0
 40
0.0
 40
0.0
 40
0.2676958969
 40
0.523908234
 40
0.6473812161
 40
0.767755886
 40
1.0
 40
1.0
 40
1.0
 40
1.0
 10
10.5608449727
 20
7.0218704008
 30
0.0
 10
10.5615144101
 20
7.0245346369
 30
0.0
 10
10.5631924611
 20
7.0296645717
 30
0.0
 10
10.5661519778
 20
7.0356395025
 30
0.0
 10
10.5689284274
 20
7.0399601945
 30
0.0
 10
10.5718606743
 20
7.0438717656
 30
0.0
 10
10.5743255568
 20
7.0465400942
 30
0.0
 10
10.5760542237
 20
7.0481807047
 30
0.0
  0
SPLINE
  5
3A1
100
AcDbEntity
  8
0
100
AcDbSpline
 62
7
  6
CONTINUOUS
 70
0
 71
3
 72
13
 73
9
 74
0
 42
0.0000001
 43
0.0000001
 44
0.0000000001
 40
0.0
 40
0.0
 40
0.0
 40
0.0
 40
0.2680348027
 40
0.3978392548
 40
0.5244739189
 40
0.6478680608
 40
0.768114686
 40
1.0
 40
1.0
 40
1.0
 40
1.0
 10
11.5337917042
 20
7.0218703998
 30
0.0
 10
11.5331089487
 20
7.0245876393
 30
0.0
 10
11.53180396
 20
7.0285568388
 30
0.0
 10
11.5295231725
 20
7.0335458923
 30
0.0
 10
11.5276071999
 20
7.0370277697
 30
0.0
 10
11.5254912545
 20
7.0402730649
 30
0.0
 10
11.5224765551
 20
7.0442288804
 30
0.0
 10
11.519943557
 20
7.046919756
 30
0.0
 10
11.5181681084
 20
7.0485698446
 30
0.0
  0
SPLINE
  5
3A2
100
AcDbEntity
  8
0
100
AcDbSpline
 62
7
  6
CONTINUOUS
 70
0
 71
3
 72
14
 73
10
 74
0
 42
0.0000001
 43
0.0000001
 44
0.0000000001
 40
0.0
 40
0.0
 40
0.0
 40
0.0
 40
0.2726443704
 40
0.4038188864
 40
0.5310856512
 40
0.6542548354
 40
0.7733250354
 40
0.8884840123
 40
1.0
 40
1.0
 40
1.0
 40
1.0
 10
10.5674907911
 20
7.0212587828
 30
0.0
 10
10.5680151474
 20
7.0238167831
 30
0.0
 10
10.5690131708
 20
7.0275661534
 30
0.0
 10
10.5707707042
 20
7.0323416329
 30
0.0
 10
10.5722452435
 20
7.0356886357
 30
0.0
 10
10.573878066
 20
7.0388310174
 30
0.0
 10
10.5756507878
 20
7.0417619484
 30
0.0
 10
10.5775439834
 20
7.0444812241
 30
0.0
 10
10.5788942929
 20
7.0461832045
 30
0.0
 10
10.579584061
 20
7.0469986095
 30
0.0
  0
LINE
  5
3A3
100
AcDbEntity
  8
0
100
AcDbLine
 62
7
  6
CONTINUOUS
 10
10.5808729938
 20
7.0484642685
 11
10.5809698785
 21
7.0485699435
  0
SPLINE
  5
3A4
100
AcDbEntity
  8
0
100
AcDbSpline
 62
7
  6
CONTINUOUS
 70
0
 71
3
 72
14
 73
10
 74
0
 42
0.0000001
 43
0.0000001
 44
0.0000000001
 40
0.0
 40
0.0
 40
0.0
 40
0.0
 40
0.2726443546
 40
0.4038188638
 40
0.5310856297
 40
0.6542548182
 40
0.7733250212
 40
0.8884840014
 40
1.0
 40
1.0
 40
1.0
 40
1.0
 10
11.5271458855
 20
7.0212587828
 30
0.0
 10
11.5266215293
 20
7.0238167825
 30
0.0
 10
11.5256235062
 20
7.0275661519
 30
0.0
 10
11.5238659733
 20
7.0323416304
 30
0.0
 10
11.5223914345
 20
7.0356886326
 30
0.0
 10
11.5207586125
 20
7.0388310139
 30
0.0
 10
11.5189858912
 20
7.0417619446
 30
0.0
 10
11.517092696
 20
7.0444812201
 30
0.0
 10
11.5157423872
 20
7.0461832007
 30
0.0
 10
11.5150526196
 20
7.0469986059
 30
0.0
  0
LINE
  5
3A5
100
AcDbEntity
  8
0
100
AcDbLine
 62
7
  6
CONTINUOUS
 10
11.5137636839
 20
7.0484642695
 11
11.5136667836
 21
7.0485699615
  0
SPLINE
  5
3A6
100
AcDbEntity
  8
0
100
AcDbSpline
 62
7
  6
CONTINUOUS
 70
0
 71
3
 72
13
 73
9
 74
0
 42
0.0000001
 43
0.0000001
 44
0.0000000001
 40
0.0
 40
0.0
 40
0.0
 40
0.0
 40
0.2781513391
 40
0.4108062985
 40
0.5385692333
 40
0.6612320845
 40
0.7788417201
 40
1.0
 40
1.0
 40
1.0
 40
1.0
 10
10.5742551174
 20
7.0212587828
 30
0.0
 10
10.5747646508
 20
7.0239972972
 30
0.0
 10
10.5757480078
 20
7.0280053667
 30
0.0
 10
10.57751156
 20
7.0331049841
 30
0.0
 10
10.578992028
 20
7.0366470988
 30
0.0
 10
10.5806333804
 20
7.0399503328
 30
0.0
 10
10.5829602744
 20
7.0439451734
 30
0.0
 10
10.5849491876
 20
7.0467090907
 30
0.0
 10
10.5863612841
 20
7.0484153028
 30
0.0
  0
SPLINE
  5
3A7
100
AcDbEntity
  8
0
100
AcDbSpline
 62
7
  6
CONTINUOUS
 70
0
 71
3
 72
13
 73
9
 74
0
 42
0.0000001
 43
0.0000001
 44
0.0000000001
 40
0.0
 40
0.0
 40
0.0
 40
0.0
 40
0.2781514055
 40
0.4108069309
 40
0.5385695379
 40
0.6612312615
 40
0.7788402505
 40
1.0
 40
1.0
 40
1.0
 40
1.0
 10
11.5203815591
 20
7.0212587828
 30
0.0
 10
11.519872022
 20
7.0239973177
 30
0.0
 10
11.5188886557
 20
7.0280054226
 30
0.0
 10
11.5171250792
 20
7.0331050763
 30
0.0
 10
11.515644602
 20
7.0366472073
 30
0.0
 10
11.5140032508
 20
7.0399504489
 30
0.0
 10
11.511676303
 20
7.0439452929
 30
0.0
 10
11.5096873794
 20
7.0467092438
 30
0.0
 10
11.5082752454
 20
7.0484154648
 30
0.0
  0
SPLINE
  5
3A8
100
AcDbEntity
  8
0
100
AcDbSpline
 62
7
  6
CONTINUOUS
 70
0
 71
3
 72
13
 73
9
 74
0
 42
0.0000001
 43
0.0000001
 44
0.0000000001
 40
0.0
 40
0.0
 40
0.0
 40
0.0
 40
0.2815978115
 40
0.4152357784
 40
0.5434023342
 40
0.6658367057
 40
0.7825598025
 40
1.0
 40
1.0
 40
1.0
 40
1.0
 10
10.5832250829
 20
7.0212587828
 30
0.0
 10
10.5836783398
 20
7.0239848188
 30
0.0
 10
10.5845515835
 20
7.0279757883
 30
0.0
 10
10.5861245519
 20
7.0330733841
 30
0.0
 10
10.5874426231
 20
7.0366086498
 30
0.0
 10
10.5889039752
 20
7.0399065894
 30
0.0
 10
10.5909699943
 20
7.0438846758
 30
0.0
 10
10.5927448459
 20
7.0466554242
 30
0.0
 10
10.5940118135
 20
7.0483724295
 30
0.0
  0
SPLINE
  5
3A9
100
AcDbEntity
  8
0
100
AcDbSpline
 62
7
  6
CONTINUOUS
 70
0
 71
3
 72
13
 73
9
 74
0
 42
0.0000001
 43
0.0000001
 44
0.0000000001
 40
0.0
 40
0.0
 40
0.0
 40
0.0
 40
0.2815978198
 40
0.4152357926
 40
0.5434023601
 40
0.6658367452
 40
0.7825598489
 40
1.0
 40
1.0
 40
1.0
 40
1.0
 10
11.5114115936
 20
7.0212587828
 30
0.0
 10
11.5109583368
 20
7.0239848185
 30
0.0
 10
11.5100850932
 20
7.0279757878
 30
0.0
 10
11.508512125
 20
7.0330733833
 30
0.0
 10
11.5071940538
 20
7.0366086488
 30
0.0
 10
11.505732702
 20
7.0399065885
 30
0.0
 10
11.5036666825
 20
7.0438846737
 30
0.0
 10
11.501891834
 20
7.0466554236
 30
0.0
 10
11.5006248629
 20
7.0483724254
 30
0.0
  0
SPLINE
  5
3AA
100
AcDbEntity
  8
0
100
AcDbSpline
 62
7
  6
CONTINUOUS
 70
0
 71
3
 72
14
 73
10
 74
0
 42
0.0000001
 43
0.0000001
 44
0.0000000001
 40
0.0
 40
0.0
 40
0.0
 40
0.0
 40
0.2882288424
 40
0.4237844757
 40
0.5527636214
 40
0.6747893175
 40
0.7898098766
 40
0.8981038017
 40
1.0
 40
1.0
 40
1.0
 40
1.0
 10
11.4870321225
 20
7.0212587828
 30
0.0
 10
11.4866952547
 20
7.0239655255
 30
0.0
 10
11.4860482165
 20
7.0279295168
 30
0.0
 10
11.484873153
 20
7.0330281233
 30
0.0
 10
11.4838917713
 20
7.0365536504
 30
0.0
 10
11.4828038104
 20
7.0398436494
 30
0.0
 10
11.4816225276
 20
7.0428923311
 30
0.0
 10
11.4803633886
 20
7.0457020162
 30
0.0
 10
11.4794538282
 20
7.0474723078
 30
0.0
 10
11.4789886778
 20
7.0483169849
 30
0.0
  0
SPLINE
  5
3AB
100
AcDbEntity
  8
0
100
AcDbSpline
 62
7
  6
CONTINUOUS
 70
0
 71
3
 72
14
 73
10
 74
0
 42
0.0000001
 43
0.0000001
 44
0.0000000001
 40
0.0
 40
0.0
 40
0.0
 40
0.0
 40
0.2849674437
 40
0.4195721193
 40
0.548139836
 40
0.6703526828
 40
0.7861976374
 40
0.8959690255
 40
1.0
 40
1.0
 40
1.0
 40
1.0
 10
10.5943588654
 20
7.0212587828
 30
0.0
 10
10.5947544795
 20
7.0239740106
 30
0.0
 10
10.5955154417
 20
7.0279499658
 30
0.0
 10
10.596891925
 20
7.0330469456
 30
0.0
 10
10.5980433842
 20
7.0365765228
 30
0.0
 10
10.5993198984
 20
7.0398697383
 30
0.0
 10
10.6007057995
 20
7.042920757
 30
0.0
 10
10.6021829217
 20
7.0457321079
 30
0.0
 10
10.603246022
 20
7.0474967058
 30
0.0
 10
10.6037892226
 20
7.0483383262
 30
0.0
  0
SPLINE
  5
3AC
100
AcDbEntity
  8
0
100
AcDbSpline
 62
7
  6
CONTINUOUS
 70
0
 71
3
 72
14
 73
10
 74
0
 42
0.0000001
 43
0.0000001
 44
0.0000000001
 40
0.0
 40
0.0
 40
0.0
 40
0.0
 40
0.284967293
 40
0.4195719049
 40
0.5481395791
 40
0.6703523879
 40
0.7861972861
 40
0.8959687545
 40
1.0
 40
1.0
 40
1.0
 40
1.0
 10
11.5002778112
 20
7.0212587828
 30
0.0
 10
11.4998821974
 20
7.0239740083
 30
0.0
 10
11.4991212361
 20
7.0279499602
 30
0.0
 10
11.4977447543
 20
7.0330469361
 30
0.0
 10
11.4965932964
 20
7.0365765111
 30
0.0
 10
11.4953167843
 20
7.0398697248
 30
0.0
 10
11.4939308827
 20
7.042920742
 30
0.0
 10
11.4924537629
 20
7.045732096
 30
0.0
 10
11.4913906678
 20
7.0474967002
 30
0.0
 10
11.4908474697
 20
7.0483383249
 30
0.0
  0
SPLINE
  5
3AD
100
AcDbEntity
  8
0
100
AcDbSpline
 62
7
  6
CONTINUOUS
 70
0
 71
3
 72
14
 73
10
 74
0
 42
0.0000001
 43
0.0000001
 44
0.0000000001
 40
0.0
 40
0.0
 40
0.0
 40
0.0
 40
0.2882285548
 40
0.4237840646
 40
0.5527631117
 40
0.6747887144
 40
0.7898091651
 40
0.8981032066
 40
1.0
 40
1.0
 40
1.0
 40
1.0
 10
10.607604554
 20
7.0212587828
 30
0.0
 10
10.6079414214
 20
7.0239655215
 30
0.0
 10
10.6085884584
 20
7.027929507
 30
0.0
 10
10.6097635195
 20
7.0330281066
 30
0.0
 10
10.6107448988
 20
7.0365536294
 30
0.0
 10
10.6118328569
 20
7.0398436245
 30
0.0
 10
10.6130141395
 20
7.0428923037
 30
0.0
 10
10.6142732763
 20
7.0457019943
 30
0.0
 10
10.6151828291
 20
7.047472296
 30
0.0
 10
10.6156479742
 20
7.0483169819
 30
0.0
  0
SPLINE
  5
3AE
100
AcDbEntity
  8
0
100
AcDbSpline
 62
7
  6
CONTINUOUS
 70
0
 71
3
 72
13
 73
9
 74
0
 42
0.0000001
 43
0.0000001
 44
0.0000000001
 40
0.0
 40
0.0
 40
0.0
 40
0.0
 40
0.291270031
 40
0.4277224793
 40
0.5571011665
 40
0.7931850649
 40
0.9001065526
 40
1.0
 40
1.0
 40
1.0
 40
1.0
 10
10.6229003913
 20
7.0212587828
 30
0.0
 10
10.6231776066
 20
7.023959953
 30
0.0
 10
10.6237094318
 20
7.0279158769
 30
0.0
 10
10.6246788729
 20
7.0330191941
 30
0.0
 10
10.6257253535
 20
7.037580525
 30
0.0
 10
10.6269631821
 20
7.0418135581
 30
0.0
 10
10.6283939857
 20
7.045687863
 30
0.0
 10
10.6291460183
 20
7.0474641704
 30
0.0
 10
10.6295309803
 20
7.048312132
 30
0.0
  0
SPLINE
  5
3AF
100
AcDbEntity
  8
0
100
AcDbSpline
 62
7
  6
CONTINUOUS
 70
0
 71
3
 72
14
 73
10
 74
0
 42
0.0000001
 43
0.0000001
 44
0.0000000001
 40
0.0
 40
0.0
 40
0.0
 40
0.0
 40
0.2912547538
 40
0.427700459
 40
0.5570718275
 40
0.6789340129
 40
0.7931947845
 40
0.9001115057
 40
1.0
 40
1.0
 40
1.0
 40
1.0
 10
11.4717362853
 20
7.0212587828
 30
0.0
 10
11.4714590654
 20
7.0239599971
 30
0.0
 10
11.4709272134
 20
7.027916046
 30
0.0
 10
11.4699577875
 20
7.033019301
 30
0.0
 10
11.4691493116
 20
7.0365431018
 30
0.0
 10
11.4682530546
 20
7.0398316842
 30
0.0
 10
11.4672798871
 20
7.0428793279
 30
0.0
 10
11.4662425634
 20
7.0456882138
 30
0.0
 10
11.4654905188
 20
7.0474645318
 30
0.0
 10
11.4651055384
 20
7.0483125046
 30
0.0
  0
SPLINE
  5
3B0
100
AcDbEntity
  8
0
100
AcDbSpline
 62
7
  6
CONTINUOUS
 70
0
 71
3
 72
11
 73
7
 74
0
 42
0.0000001
 43
0.0000001
 44
0.0000000001
 40
0.0
 40
0.0
 40
0.0
 40
0.0
 40
0.2979037692
 40
0.5665675128
 40
0.8006880367
 40
1.0
 40
1.0
 40
1.0
 40
1.0
 10
11.4143067998
 20
7.0212587828
 30
0.0
 10
11.4142128727
 20
7.0239661577
 30
0.0
 10
11.4139789172
 20
7.0291134835
 30
0.0
 10
11.4134711531
 20
7.0363777149
 30
0.0
 10
11.412842174
 20
7.0427321432
 30
0.0
 10
11.4123236301
 20
7.0466403803
 30
0.0
 10
11.4120469524
 20
7.0484315917
 30
0.0
  0
LINE
  5
3B1
100
AcDbEntity
  8
0
100
AcDbLine
 62
7
  6
CONTINUOUS
 10
11.4120469524
 20
7.0484315917
 11
11.4120257117
 21
7.0485685962
  0
SPLINE
  5
3B2
100
AcDbEntity
  8
0
100
AcDbSpline
 62
7
  6
CONTINUOUS
 70
0
 71
3
 72
13
 73
9
 74
0
 42
0.0000001
 43
0.0000001
 44
0.0000000001
 40
0.0
 40
0.0
 40
0.0
 40
0.0
 40
0.2939537423
 40
0.43120016
 40
0.5609310748
 40
0.7962159498
 40
0.9019092896
 40
1.0
 40
1.0
 40
1.0
 40
1.0
 10
11.4544616156
 20
7.0212587828
 30
0.0
 10
11.4542448059
 20
7.023958033
 30
0.0
 10
11.4538291925
 20
7.0279110506
 30
0.0
 10
11.4530691097
 20
7.0330228773
 30
0.0
 10
11.4522510629
 20
7.0375773505
 30
0.0
 10
11.4512834893
 20
7.0418085757
 30
0.0
 10
11.4501598674
 20
7.0456949375
 30
0.0
 10
11.4495690147
 20
7.0474774697
 30
0.0
 10
11.4492662356
 20
7.0483288591
 30
0.0
  0
SPLINE
  5
3B3
100
AcDbEntity
  8
0
100
AcDbSpline
 62
7
  6
CONTINUOUS
 70
0
 71
3
 72
13
 73
9
 74
0
 42
0.0000001
 43
0.0000001
 44
0.0000000001
 40
0.0
 40
0.0
 40
0.0
 40
0.0
 40
0.2939532483
 40
0.4311994594
 40
0.5609302169
 40
0.7962147856
 40
0.9019083516
 40
1.0
 40
1.0
 40
1.0
 40
1.0
 10
10.640175061
 20
7.0212587828
 30
0.0
 10
10.6403918701
 20
7.0239580265
 30
0.0
 10
10.6408074821
 20
7.0279110348
 30
0.0
 10
10.6415675627
 20
7.0330228499
 30
0.0
 10
10.6423856057
 20
7.0375773141
 30
0.0
 10
10.6433531792
 20
7.0418085337
 30
0.0
 10
10.6444767969
 20
7.0456949018
 30
0.0
 10
10.6450676422
 20
7.0474774462
 30
0.0
 10
10.6453704167
 20
7.0483288456
 30
0.0
  0
SPLINE
  5
3B4
100
AcDbEntity
  8
0
100
AcDbSpline
 62
7
  6
CONTINUOUS
 70
0
 71
3
 72
13
 73
9
 74
0
 42
0.0000001
 43
0.0000001
 44
0.0000000001
 40
0.0
 40
0.0
 40
0.0
 40
0.0
 40
0.2962007525
 40
0.4341133263
 40
0.5641419734
 40
0.7987661297
 40
0.9034292769
 40
1.0
 40
1.0
 40
1.0
 40
1.0
 10
10.6593480205
 20
7.0212587828
 30
0.0
 10
10.659503731
 20
7.0239601211
 30
0.0
 10
10.6598021107
 20
7.0279158704
 30
0.0
 10
10.6603493532
 20
7.0330405734
 30
0.0
 10
10.6609369356
 20
7.0375940265
 30
0.0
 10
10.661631783
 20
7.0418268893
 30
0.0
 10
10.6624418971
 20
7.0457256428
 30
0.0
 10
10.6628680805
 20
7.0475142044
 30
0.0
 10
10.6630866883
 20
7.0483688722
 30
0.0
  0
SPLINE
  5
3B5
100
AcDbEntity
  8
0
100
AcDbSpline
 62
7
  6
CONTINUOUS
 70
0
 71
3
 72
11
 73
7
 74
0
 42
0.0000001
 43
0.0000001
 44
0.0000000001
 40
0.0
 40
0.0
 40
0.0
 40
0.0
 40
0.2979064669
 40
0.5665702952
 40
0.8006902417
 40
1.0
 40
1.0
 40
1.0
 40
1.0
 10
10.6803298768
 20
7.0212587828
 30
0.0
 10
10.6804238086
 20
7.0239662937
 30
0.0
 10
10.6806577771
 20
7.0291138566
 30
0.0
 10
10.6811655788
 20
7.0363784061
 30
0.0
 10
10.6817946063
 20
7.0427330694
 30
0.0
 10
10.6823131907
 20
7.0466414389
 30
0.0
 10
10.6825898735
 20
7.0484327047
 30
0.0
  0
LINE
  5
3B6
100
AcDbEntity
  8
0
100
AcDbLine
 62
7
  6
CONTINUOUS
 10
10.6825898735
 20
7.0484327047
 11
10.6826111435
 21
7.0485698989
  0
SPLINE
  5
3B7
100
AcDbEntity
  8
0
100
AcDbSpline
 62
7
  6
CONTINUOUS
 70
0
 71
3
 72
11
 73
7
 74
0
 42
0.0000001
 43
0.0000001
 44
0.0000000001
 40
0.0
 40
0.0
 40
0.0
 40
0.0
 40
0.299147729
 40
0.5683192226
 40
0.8020395514
 40
1.0
 40
1.0
 40
1.0
 40
1.0
 10
10.7030228027
 20
7.0212587828
 30
0.0
 10
10.7030543548
 20
7.0239829392
 30
0.0
 10
10.7031329849
 20
7.0291580863
 30
0.0
 10
10.7033039595
 20
7.0364603595
 30
0.0
 10
10.7035157928
 20
7.0428396133
 30
0.0
 10
10.7036907703
 20
7.0467671583
 30
0.0
 10
10.7037843034
 20
7.0485675566
 30
0.0
  0
SPLINE
  5
3B8
100
AcDbEntity
  8
0
100
AcDbSpline
 62
7
  6
CONTINUOUS
 70
0
 71
3
 72
13
 73
9
 74
0
 42
0.0000001
 43
0.0000001
 44
0.0000000001
 40
0.0
 40
0.0
 40
0.0
 40
0.0
 40
0.2962002993
 40
0.4341126892
 40
0.5641412206
 40
0.7987651041
 40
0.9034286857
 40
1.0
 40
1.0
 40
1.0
 40
1.0
 10
11.435288656
 20
7.0212587828
 30
0.0
 10
11.4351329459
 20
7.0239601138
 30
0.0
 10
11.4348345675
 20
7.0279158527
 30
0.0
 10
11.4342873267
 20
7.033040543
 30
0.0
 10
11.4336997476
 20
7.037593986
 30
0.0
 10
11.4330048985
 20
7.0418268438
 30
0.0
 10
11.4321947908
 20
7.0457256008
 30
0.0
 10
11.4317686137
 20
7.0475141713
 30
0.0
 10
11.4315500057
 20
7.0483688436
 30
0.0
  0
SPLINE
  5
3B9
100
AcDbEntity
  8
0
100
AcDbSpline
 62
7
  6
CONTINUOUS
 70
0
 71
3
 72
11
 73
7
 74
0
 42
0.0000001
 43
0.0000001
 44
0.0000000001
 40
0.0
 40
0.0
 40
0.0
 40
0.0
 40
0.2991489657
 40
0.5683204248
 40
0.8020390483
 40
1.0
 40
1.0
 40
1.0
 40
1.0
 10
11.3916138739
 20
7.0212587828
 30
0.0
 10
11.3915823208
 20
7.0239830188
 30
0.0
 10
11.3915036878
 20
7.029158307
 30
0.0
 10
11.3913327073
 20
7.0364607589
 30
0.0
 10
11.3911208613
 20
7.0428401615
 30
0.0
 10
11.3909458792
 20
7.0467677941
 30
0.0
 10
11.3908523437
 20
7.0485682422
 30
0.0
  0
LINE
  5
3BA
100
AcDbEntity
  8
0
100
AcDbLine
 62
7
  6
CONTINUOUS
 10
11.3908523437
 20
7.0485682422
 11
11.3908112415
 21
7.0493712034
  0
LINE
  5
3BB
100
AcDbEntity
  8
0
100
AcDbLine
 62
7
  6
CONTINUOUS
 10
10.7038254351
 20
7.0493710592
 11
10.7037843034
 21
7.0485675566
  0
SPLINE
  5
3BC
100
AcDbEntity
  8
0
100
AcDbSpline
 62
7
  6
CONTINUOUS
 70
0
 71
3
 72
15
 73
11
 74
0
 42
0.0000001
 43
0.0000001
 44
0.0000000001
 40
0.0
 40
0.0
 40
0.0
 40
0.0
 40
0.1321961516
 40
0.262559492
 40
0.3908456357
 40
0.5169295844
 40
0.6407674564
 40
0.7624344114
 40
0.8821283437
 40
1.0
 40
1.0
 40
1.0
 40
1.0
 10
10.5629636422
 20
7.0212587828
 30
0.0
 10
10.5633444036
 20
7.0226673635
 30
0.0
 10
10.5642158633
 20
7.0254353315
 30
0.0
 10
10.565845046
 20
7.0294347884
 30
0.0
 10
10.5677624765
 20
7.0332290834
 30
0.0
 10
10.5699425753
 20
7.0367944284
 30
0.0
 10
10.5723580763
 20
7.040114463
 30
0.0
 10
10.5749774336
 20
7.0431834119
 30
0.0
 10
10.5777663314
 20
7.0460063508
 30
0.0
 10
10.5797348078
 20
7.0477421454
 30
0.0
 10
10.5807384995
 20
7.0485699588
 30
0.0
  0
SPLINE
  5
3BD
100
AcDbEntity
  8
0
100
AcDbSpline
 62
7
  6
CONTINUOUS
 70
0
 71
3
 72
15
 73
11
 74
0
 42
0.0000001
 43
0.0000001
 44
0.0000000001
 40
0.0
 40
0.0
 40
0.0
 40
0.0
 40
0.1321961528
 40
0.2625594997
 40
0.390845645
 40
0.51692959
 40
0.6407674564
 40
0.7624344073
 40
0.8821283407
 40
1.0
 40
1.0
 40
1.0
 40
1.0
 10
11.5316730343
 20
7.0212587828
 30
0.0
 10
11.5312922729
 20
7.0226673636
 30
0.0
 10
11.5304208131
 20
7.0254353321
 30
0.0
 10
11.52879163
 20
7.0294347895
 30
0.0
 10
11.5268741992
 20
7.0332290849
 30
0.0
 10
11.5246941002
 20
7.0367944301
 30
0.0
 10
11.5222785988
 20
7.0401144649
 30
0.0
 10
11.5196592411
 20
7.0431834138
 30
0.0
 10
11.516870343
 20
7.046006353
 30
0.0
 10
11.5149018663
 20
7.0477421479
 30
0.0
 10
11.5138981745
 20
7.0485699614
 30
0.0
  0
SPLINE
  5
3BE
100
AcDbEntity
  8
0
100
AcDbSpline
 62
7
  6
CONTINUOUS
 70
0
 71
3
 72
13
 73
9
 74
0
 42
0.0000001
 43
0.0000001
 44
0.0000000001
 40
0.0
 40
0.0
 40
0.0
 40
0.0
 40
0.2496609579
 40
0.499453051
 40
0.6245174774
 40
0.7496266832
 40
0.8747939713
 40
1.0
 40
1.0
 40
1.0
 40
1.0
 10
11.4119026449
 20
6.966018496
 30
0.0
 10
11.4144948239
 20
6.9676852524
 30
0.0
 10
11.4194747107
 20
6.9713546808
 30
0.0
 10
11.4249936525
 20
6.9767824592
 30
0.0
 10
11.4288429893
 20
6.9816146385
 30
0.0
 10
11.4314079188
 20
6.9854809374
 30
0.0
 10
11.4336003364
 20
6.9895723279
 30
0.0
 10
11.4347793695
 20
6.9924365986
 30
0.0
 10
11.435288656
 20
6.9938958115
 30
0.0
  0
SPLINE
  5
3BF
100
AcDbEntity
  8
0
100
AcDbSpline
 62
7
  6
CONTINUOUS
 70
0
 71
3
 72
13
 73
9
 74
0
 42
0.0000001
 43
0.0000001
 44
0.0000000001
 40
0.0
 40
0.0
 40
0.0
 40
0.0
 40
0.2499247445
 40
0.4998166937
 40
0.6248621496
 40
0.749903992
 40
0.8749555397
 40
1.0
 40
1.0
 40
1.0
 40
1.0
 10
11.3908112415
 20
6.966018496
 30
0.0
 10
11.3934148124
 20
6.967684772
 30
0.0
 10
11.398416419
 20
6.971352713
 30
0.0
 10
11.4039622737
 20
6.9767809422
 30
0.0
 10
11.4078304076
 20
6.981613912
 30
0.0
 10
11.4104074196
 20
6.9854801664
 30
0.0
 10
11.4126102053
 20
6.9895715534
 30
0.0
 10
11.4137950428
 20
6.9924363567
 30
0.0
 10
11.4143067998
 20
6.9938958115
 30
0.0
  0
SPLINE
  5
3C0
100
AcDbEntity
  8
0
100
AcDbSpline
 62
7
  6
CONTINUOUS
 70
0
 71
3
 72
14
 73
10
 74
0
 42
0.0000001
 43
0.0000001
 44
0.0000000001
 40
0.0
 40
0.0
 40
0.0
 40
0.0
 40
0.1337072242
 40
0.2651726891
 40
0.3941414208
 40
0.5204601369
 40
0.6440808974
 40
0.7650923932
 40
1.0
 40
1.0
 40
1.0
 40
1.0
 10
10.5608638782
 20
7.0219039849
 30
0.0
 10
10.5612325103
 20
7.0232769229
 30
0.0
 10
10.5620680277
 20
7.0259730223
 30
0.0
 10
10.5636135342
 20
7.0298722862
 30
0.0
 10
10.5654185028
 20
7.0335714631
 30
0.0
 10
10.5674605021
 20
7.0370486439
 30
0.0
 10
10.5697149983
 20
7.040289625
 30
0.0
 10
10.5729330817
 20
7.0442483244
 30
0.0
 10
10.5756258926
 20
7.0469285967
 30
0.0
 10
10.5775083359
 20
7.0485699425
 30
0.0
  0
SPLINE
  5
3C1
100
AcDbEntity
  8
0
100
AcDbSpline
 62
7
  6
CONTINUOUS
 70
0
 71
3
 72
14
 73
10
 74
0
 42
0.0000001
 43
0.0000001
 44
0.0000000001
 40
0.0
 40
0.0
 40
0.0
 40
0.0
 40
0.1337072276
 40
0.2651727002
 40
0.3941414328
 40
0.5204601447
 40
0.6440808985
 40
0.765092389
 40
1.0
 40
1.0
 40
1.0
 40
1.0
 10
11.5337727981
 20
7.0219039859
 30
0.0
 10
11.5334041658
 20
7.0232769243
 30
0.0
 10
11.5325686481
 20
7.0259730246
 30
0.0
 10
11.5310231409
 20
7.0298722896
 30
0.0
 10
11.5292181715
 20
7.0335714673
 30
0.0
 10
11.5271761714
 20
7.0370486488
 30
0.0
 10
11.5249216743
 20
7.0402896303
 30
0.0
 10
11.5217035894
 20
7.0442483303
 30
0.0
 10
11.5190107776
 20
7.046928603
 30
0.0
 10
11.5171283338
 20
7.0485699494
 30
0.0
  0
SPLINE
  5
3C2
100
AcDbEntity
  8
0
100
AcDbSpline
 62
7
  6
CONTINUOUS
 70
0
 71
3
 72
15
 73
11
 74
0
 42
0.0000001
 43
0.0000001
 44
0.0000000001
 40
0.0
 40
0.0
 40
0.0
 40
0.0
 40
0.1307637676
 40
0.2600516487
 40
0.3876676334
 40
0.5135195322
 40
0.6375775415
 40
0.7599069586
 40
0.8806760171
 40
1.0
 40
1.0
 40
1.0
 40
1.0
 10
10.5674907911
 20
7.0212587828
 30
0.0
 10
10.5678908087
 20
7.0226689129
 30
0.0
 10
10.5688068897
 20
7.0254406572
 30
0.0
 10
10.5705173751
 20
7.0294406445
 30
0.0
 10
10.5725303541
 20
7.0332352198
 30
0.0
 10
10.5748188766
 20
7.0368005119
 30
0.0
 10
10.5773541795
 20
7.0401201192
 30
0.0
 10
10.5801030789
 20
7.0431883669
 30
0.0
 10
10.5830297277
 20
7.046010579
 30
0.0
 10
10.5850921433
 20
7.0477431971
 30
0.0
 10
10.5861437643
 20
7.048569696
 30
0.0
  0
SPLINE
  5
3C3
100
AcDbEntity
  8
0
100
AcDbSpline
 62
7
  6
CONTINUOUS
 70
0
 71
3
 72
15
 73
11
 74
0
 42
0.0000001
 43
0.0000001
 44
0.0000000001
 40
0.0
 40
0.0
 40
0.0
 40
0.0
 40
0.1307637521
 40
0.2600516301
 40
0.3876676165
 40
0.5135195175
 40
0.6375775381
 40
0.7599069785
 40
0.8806760346
 40
1.0
 40
1.0
 40
1.0
 40
1.0
 10
11.5271458855
 20
7.0212587828
 30
0.0
 10
11.5267458695
 20
7.0226689071
 30
0.0
 10
11.5258297928
 20
7.0254406404
 30
0.0
 10
11.5241193162
 20
7.0294406123
 30
0.0
 10
11.5221063487
 20
7.0332351742
 30
0.0
 10
11.5198178394
 20
7.036800455
 30
0.0
 10
11.5172825509
 20
7.0401200528
 30
0.0
 10
11.5145336694
 20
7.0431882949
 30
0.0
 10
11.5116070343
 20
7.0460104983
 30
0.0
 10
11.5095446261
 20
7.0477431081
 30
0.0
 10
11.5084930092
 20
7.0485696034
 30
0.0
  0
SPLINE
  5
3C4
100
AcDbEntity
  8
0
100
AcDbSpline
 62
7
  6
CONTINUOUS
 70
0
 71
3
 72
13
 73
9
 74
0
 42
0.0000001
 43
0.0000001
 44
0.0000000001
 40
0.0
 40
0.0
 40
0.0
 40
0.0
 40
0.2499247588
 40
0.4998166956
 40
0.6248621543
 40
0.7499039838
 40
0.8749555217
 40
1.0
 40
1.0
 40
1.0
 40
1.0
 10
11.3681183156
 20
6.966018496
 30
0.0
 10
11.3707218866
 20
6.9676847721
 30
0.0
 10
11.3757234932
 20
6.9713527132
 30
0.0
 10
11.381269348
 20
6.9767809423
 30
0.0
 10
11.3851374816
 20
6.981613912
 30
0.0
 10
11.3877144936
 20
6.9854801661
 30
0.0
 10
11.3899172791
 20
6.9895715531
 30
0.0
 10
11.3911021168
 20
6.9924363565
 30
0.0
 10
11.3916138739
 20
6.9938958115
 30
0.0
  0
SPLINE
  5
3C5
100
AcDbEntity
  8
0
100
AcDbSpline
 62
7
  6
CONTINUOUS
 70
0
 71
3
 72
11
 73
7
 74
0
 42
0.0000001
 43
0.0000001
 44
0.0000000001
 40
0.0
 40
0.0
 40
0.0
 40
0.0
 40
0.3004357132
 40
0.5690329047
 40
0.8024819813
 40
1.0
 40
1.0
 40
1.0
 40
1.0
 10
11.3673156832
 20
6.9938958115
 30
0.0
 10
11.3673491382
 20
6.9911029061
 30
0.0
 10
11.3674336053
 20
6.9858132939
 30
0.0
 10
11.3676169322
 20
6.9783548912
 30
0.0
 10
11.3678387087
 20
6.9718548304
 30
0.0
 10
11.3680204392
 20
6.9678521811
 30
0.0
 10
11.3681183156
 20
6.966018496
 30
0.0
  0
SPLINE
  5
3C6
100
AcDbEntity
  8
0
100
AcDbSpline
 62
7
  6
CONTINUOUS
 70
0
 71
3
 72
23
 73
19
 74
0
 42
0.0000001
 43
0.0000001
 44
0.0000000001
 40
0.0
 40
0.0
 40
0.0
 40
0.0
 40
0.0624962935
 40
0.1250052815
 40
0.1875213471
 40
0.2500366582
 40
0.3125441077
 40
0.3750395881
 40
0.4375233731
 40
0.5000000004
 40
0.5624766277
 40
0.6249604126
 40
0.6874558929
 40
0.7499633423
 40
0.8124786533
 40
0.874994719
 40
0.9375037068
 40
1.0
 40
1.0
 40
1.0
 40
1.0
 10
11.0473183383
 20
8.0318434589
 30
0.0
 10
11.0366346507
 20
8.0313969105
 30
0.0
 10
11.0152744619
 20
8.0302757787
 30
0.0
 10
10.9832601852
 20
8.0281467507
 30
0.0
 10
10.9512576296
 20
8.0258081977
 30
0.0
 10
10.9192535996
 20
8.0234933181
 30
0.0
 10
10.8872359158
 20
8.0214212789
 30
0.0
 10
10.855197607
 20
8.0197850521
 30
0.0
 10
10.8231391467
 20
8.0187373196
 30
0.0
 10
10.7910683381
 20
8.0183766764
 30
0.0
 10
10.7589975295
 20
8.018737319
 30
0.0
 10
10.7269390692
 20
8.0197850517
 30
0.0
 10
10.6949007605
 20
8.0214212787
 30
0.0
 10
10.6628830767
 20
8.0234933181
 30
0.0
 10
10.6308790467
 20
8.0258081978
 30
0.0
 10
10.5988764912
 20
8.0281467507
 30
0.0
 10
10.5668622145
 20
8.0302757788
 30
0.0
 10
10.5455020258
 20
8.0313969105
 30
0.0
 10
10.5348183383
 20
8.0318434589
 30
0.0
  0
SPLINE
  5
3C7
100
AcDbEntity
  8
0
100
AcDbSpline
 62
7
  6
CONTINUOUS
 70
0
 71
3
 72
23
 73
19
 74
0
 42
0.0000001
 43
0.0000001
 44
0.0000000001
 40
0.0
 40
0.0
 40
0.0
 40
0.0
 40
0.0624962987
 40
0.1250052889
 40
0.1875213547
 40
0.250036666
 40
0.3125441157
 40
0.3750395948
 40
0.4375233769
 40
0.5000000001
 40
0.5624766234
 40
0.6249604055
 40
0.6874558846
 40
0.7499633343
 40
0.8124786456
 40
0.8749947114
 40
0.9375037015
 40
1.0
 40
1.0
 40
1.0
 40
1.0
 10
11.5598183383
 20
8.0318434589
 30
0.0
 10
11.5491346498
 20
8.0313969104
 30
0.0
 10
11.5277744598
 20
8.0302757786
 30
0.0
 10
11.4957601817
 20
8.0281467503
 30
0.0
 10
11.4637576258
 20
8.0258081969
 30
0.0
 10
11.4317535956
 20
8.0234933175
 30
0.0
 10
11.3997359119
 20
8.0214212791
 30
0.0
 10
11.3676976038
 20
8.0197850532
 30
0.0
 10
11.3356391449
 20
8.0187373202
 30
0.0
 10
11.3035683382
 20
8.018376676
 30
0.0
 10
11.2714975315
 20
8.01873732
 30
0.0
 10
11.2394390726
 20
8.019785053
 30
0.0
 10
11.2074007645
 20
8.0214212791
 30
0.0
 10
11.1753830808
 20
8.0234933175
 30
0.0
 10
11.1433790506
 20
8.0258081969
 30
0.0
 10
11.1113764947
 20
8.0281467503
 30
0.0
 10
11.0793622167
 20
8.0302757787
 30
0.0
 10
11.0580020267
 20
8.0313969104
 30
0.0
 10
11.0473183383
 20
8.0318434589
 30
0.0
  0
SPLINE
  5
3C8
100
AcDbEntity
  8
0
100
AcDbSpline
 62
7
  6
CONTINUOUS
 70
0
 71
3
 72
13
 73
9
 74
0
 42
0.0000001
 43
0.0000001
 44
0.0000000001
 40
0.0
 40
0.0
 40
0.0
 40
0.0
 40
0.2496609579
 40
0.499453051
 40
0.6245174774
 40
0.7496266832
 40
0.8747939713
 40
1.0
 40
1.0
 40
1.0
 40
1.0
 10
11.3439296721
 20
6.966018496
 30
0.0
 10
11.3465218511
 20
6.9676852524
 30
0.0
 10
11.3515017379
 20
6.9713546808
 30
0.0
 10
11.3570206797
 20
6.9767824592
 30
0.0
 10
11.3608700165
 20
6.9816146385
 30
0.0
 10
11.363434946
 20
6.9854809374
 30
0.0
 10
11.3656273636
 20
6.9895723279
 30
0.0
 10
11.3668063967
 20
6.9924365986
 30
0.0
 10
11.3673156832
 20
6.9938958115
 30
0.0
  0
SPLINE
  5
3C9
100
AcDbEntity
  8
0
100
AcDbSpline
 62
7
  6
CONTINUOUS
 70
0
 71
3
 72
13
 73
9
 74
0
 42
0.0000001
 43
0.0000001
 44
0.0000000001
 40
0.0
 40
0.0
 40
0.0
 40
0.0
 40
0.2996133443
 40
0.5678586373
 40
0.6891043112
 40
0.8015448157
 40
0.9051725043
 40
1.0
 40
1.0
 40
1.0
 40
1.0
 10
11.3415255173
 20
6.9938958115
 30
0.0
 10
11.3416257729
 20
6.9911016009
 30
0.0
 10
11.3418791088
 20
6.9858077397
 30
0.0
 10
11.3423513208
 20
6.9793934884
 30
0.0
 10
11.3427984651
 20
6.9747306671
 30
0.0
 10
11.3431475678
 20
6.9716021087
 30
0.0
 10
11.3435183648
 20
6.9687244612
 30
0.0
 10
11.3437899614
 20
6.9668923334
 30
0.0
 10
11.3439296721
 20
6.966018496
 30
0.0
  0
SPLINE
  5
3CA
100
AcDbEntity
  8
0
100
AcDbSpline
 62
7
  6
CONTINUOUS
 70
0
 71
3
 72
13
 73
9
 74
0
 42
0.0000001
 43
0.0000001
 44
0.0000000001
 40
0.0
 40
0.0
 40
0.0
 40
0.0
 40
0.2491317444
 40
0.4987240532
 40
0.6238267517
 40
0.7490711805
 40
0.8744704611
 40
1.0
 40
1.0
 40
1.0
 40
1.0
 10
11.3183580897
 20
6.966018496
 30
0.0
 10
11.3209275351
 20
6.9676862227
 30
0.0
 10
11.3258640632
 20
6.9713586448
 30
0.0
 10
11.3313293041
 20
6.9767855018
 30
0.0
 10
11.3351411462
 20
6.9816160921
 30
0.0
 10
11.3376819664
 20
6.9854824768
 30
0.0
 10
11.3398536974
 20
6.9895738708
 30
0.0
 10
11.3410211574
 20
6.9924370799
 30
0.0
 10
11.3415255173
 20
6.9938958115
 30
0.0
  0
SPLINE
  5
3CB
100
AcDbEntity
  8
0
100
AcDbSpline
 62
7
  6
CONTINUOUS
 70
0
 71
3
 72
14
 73
10
 74
0
 42
0.0000001
 43
0.0000001
 44
0.0000000001
 40
0.0
 40
0.0
 40
0.0
 40
0.0
 40
0.2980161446
 40
0.435877225
 40
0.5655974402
 40
0.6869188904
 40
0.7997424972
 40
0.9040882212
 40
1.0
 40
1.0
 40
1.0
 40
1.0
 10
11.3143636216
 20
6.9938958115
 30
0.0
 10
11.3145303485
 20
6.9910990252
 30
0.0
 10
11.3148551995
 20
6.9870124541
 30
0.0
 10
11.3154505156
 20
6.9817282007
 30
0.0
 10
11.3159408761
 20
6.9781046817
 30
0.0
 10
11.3164793955
 20
6.9747261802
 30
0.0
 10
11.3170596642
 20
6.9715968793
 30
0.0
 10
11.3176760941
 20
6.9687183812
 30
0.0
 10
11.3181265898
 20
6.9668899715
 30
0.0
 10
11.3183580897
 20
6.966018496
 30
0.0
  0
SPLINE
  5
3CC
100
AcDbEntity
  8
0
100
AcDbSpline
 62
7
  6
CONTINUOUS
 70
0
 71
3
 72
13
 73
9
 74
0
 42
0.0000001
 43
0.0000001
 44
0.0000000001
 40
0.0
 40
0.0
 40
0.0
 40
0.0
 40
0.24833399
 40
0.497626432
 40
0.6227873771
 40
0.7482357908
 40
0.8739842414
 40
1.0
 40
1.0
 40
1.0
 40
1.0
 10
11.2915227948
 20
6.966018496
 30
0.0
 10
11.2940582659
 20
6.9676877028
 30
0.0
 10
11.2989299561
 20
6.9713646627
 30
0.0
 10
11.3043149586
 20
6.9767900871
 30
0.0
 10
11.3080708062
 20
6.9816182736
 30
0.0
 10
11.3105756016
 20
6.985484778
 30
0.0
 10
11.312716426
 20
6.9895761685
 30
0.0
 10
11.3138666155
 20
6.9924377945
 30
0.0
 10
11.3143636216
 20
6.9938958115
 30
0.0
  0
SPLINE
  5
3CD
100
AcDbEntity
  8
0
100
AcDbSpline
 62
7
  6
CONTINUOUS
 70
0
 71
3
 72
15
 73
11
 74
0
 42
0.0000001
 43
0.0000001
 44
0.0000000001
 40
0.0
 40
0.0
 40
0.0
 40
0.0
 40
0.1294847642
 40
0.2578163229
 40
0.3848404879
 40
0.5104922189
 40
0.634751643
 40
0.7576726025
 40
0.8793947005
 40
1.0
 40
1.0
 40
1.0
 40
1.0
 10
10.5742551174
 20
7.0212587828
 30
0.0
 10
10.5746725316
 20
7.0226703476
 30
0.0
 10
10.57562897
 20
7.0254455527
 30
0.0
 10
10.5774127529
 20
7.0294459568
 30
0.0
 10
10.5795118409
 20
7.033240706
 30
0.0
 10
10.5818980406
 20
7.0368058652
 30
0.0
 10
10.5845412371
 20
7.0401250126
 30
0.0
 10
10.5874067804
 20
7.0431925796
 30
0.0
 10
10.5904574671
 20
7.0460141089
 30
0.0
 10
10.5926043917
 20
7.0477439998
 30
0.0
 10
10.5936991553
 20
7.0485693847
 30
0.0
  0
SPLINE
  5
3CE
100
AcDbEntity
  8
0
100
AcDbSpline
 62
7
  6
CONTINUOUS
 70
0
 71
3
 72
15
 73
11
 74
0
 42
0.0000001
 43
0.0000001
 44
0.0000000001
 40
0.0
 40
0.0
 40
0.0
 40
0.0
 40
0.1294853139
 40
0.257816687
 40
0.3848404393
 40
0.5104926278
 40
0.6347532918
 40
0.7576745773
 40
0.8793956228
 40
1.0
 40
1.0
 40
1.0
 40
1.0
 10
11.5203815591
 20
7.0212587828
 30
0.0
 10
11.5199641373
 20
7.0226703734
 30
0.0
 10
11.5190076803
 20
7.0254456203
 30
0.0
 10
11.5172238654
 20
7.0294460767
 30
0.0
 10
11.5151247411
 20
7.0332408738
 30
0.0
 10
11.512738475
 20
7.0368060798
 30
0.0
 10
11.5100951968
 20
7.0401252662
 30
0.0
 10
11.5072296181
 20
7.0431928895
 30
0.0
 10
11.5041788557
 20
7.0460143967
 30
0.0
 10
11.5020319092
 20
7.0477442843
 30
0.0
 10
11.5009371385
 20
7.0485696744
 30
0.0
  0
SPLINE
  5
3CF
100
AcDbEntity
  8
0
100
AcDbSpline
 62
7
  6
CONTINUOUS
 70
0
 71
3
 72
15
 73
11
 74
0
 42
0.0000001
 43
0.0000001
 44
0.0000000001
 40
0.0
 40
0.0
 40
0.0
 40
0.0
 40
0.128363712
 40
0.255860172
 40
0.382370707
 40
0.5078523712
 40
0.6322919384
 40
0.7557312264
 40
0.8782832799
 40
1.0
 40
1.0
 40
1.0
 40
1.0
 10
10.5832250829
 20
7.0212587828
 30
0.0
 10
10.5836579524
 20
7.022671692
 30
0.0
 10
10.5846502829
 20
7.0254500882
 30
0.0
 10
10.5864990733
 20
7.0294509291
 30
0.0
 10
10.5886745118
 20
7.0332458733
 30
0.0
 10
10.591147294
 20
7.0368109368
 30
0.0
 10
10.5938861053
 20
7.0401296933
 30
0.0
 10
10.5968550102
 20
7.0431966728
 30
0.0
 10
10.6000155951
 20
7.0460176336
 30
0.0
 10
10.6022373321
 20
7.0477452619
 30
0.0
 10
10.6033703038
 20
7.0485697405
 30
0.0
  0
SPLINE
  5
3D0
100
AcDbEntity
  8
0
100
AcDbSpline
 62
7
  6
CONTINUOUS
 70
0
 71
3
 72
15
 73
11
 74
0
 42
0.0000001
 43
0.0000001
 44
0.0000000001
 40
0.0
 40
0.0
 40
0.0
 40
0.0
 40
0.1283637345
 40
0.2558602143
 40
0.3823707543
 40
0.5078524106
 40
0.6322919583
 40
0.7557312206
 40
0.8782832652
 40
1.0
 40
1.0
 40
1.0
 40
1.0
 10
11.5114115936
 20
7.0212587828
 30
0.0
 10
11.5109787206
 20
7.0226717037
 30
0.0
 10
11.5099863808
 20
7.0254501225
 30
0.0
 10
11.5081375707
 20
7.0294509944
 30
0.0
 10
11.5059621075
 20
7.0332459656
 30
0.0
 10
11.5034892968
 20
7.0368110519
 30
0.0
 10
11.5007504536
 20
7.0401298266
 30
0.0
 10
11.4977815127
 20
7.0431968186
 30
0.0
 10
11.4946208944
 20
7.046017793
 30
0.0
 10
11.4923991381
 20
7.0477454333
 30
0.0
 10
11.4912661572
 20
7.048569919
 30
0.0
  0
SPLINE
  5
3D1
100
AcDbEntity
  8
0
100
AcDbSpline
 62
7
  6
CONTINUOUS
 70
0
 71
3
 72
11
 73
7
 74
0
 42
0.0000001
 43
0.0000001
 44
0.0000000001
 40
0.0
 40
0.0
 40
0.0
 40
0.0
 40
0.2983724172
 40
0.5671973614
 40
0.8011388642
 40
1.0
 40
1.0
 40
1.0
 40
1.0
 10
11.3415255173
 20
7.0212587828
 30
0.0
 10
11.3416200712
 20
7.0239842246
 30
0.0
 10
11.3418558399
 20
7.0291635033
 30
0.0
 10
11.3423683528
 20
7.03646872
 30
0.0
 10
11.34300346
 20
7.0428509262
 30
0.0
 10
11.3435271759
 20
7.046772942
 30
0.0
 10
11.3438066454
 20
7.0485688903
 30
0.0
  0
SPLINE
  5
3D2
100
AcDbEntity
  8
0
100
AcDbSpline
 62
7
  6
CONTINUOUS
 70
0
 71
3
 72
15
 73
11
 74
0
 42
0.0000001
 43
0.0000001
 44
0.0000000001
 40
0.0
 40
0.0
 40
0.0
 40
0.0
 40
0.1254854716
 40
0.2508515918
 40
0.3760656096
 40
0.5011336034
 40
0.6260507692
 40
0.7508198847
 40
0.8754794264
 40
1.0
 40
1.0
 40
1.0
 40
1.0
 10
11.3415255173
 20
7.0212587828
 30
0.0
 10
11.3410520318
 20
7.022675062
 30
0.0
 10
11.339965258
 20
7.0254614351
 30
0.0
 10
11.3379463481
 20
7.0294624567
 30
0.0
 10
11.3355712697
 20
7.0332569988
 30
0.0
 10
11.3328722247
 20
7.0368210008
 30
0.0
 10
11.3298836496
 20
7.0401380852
 30
0.0
 10
11.3266448341
 20
7.0432031337
 30
0.0
 10
11.3231970841
 20
7.0460222175
 30
0.0
 10
11.3207799354
 20
7.0477440482
 30
0.0
 10
11.3195470783
 20
7.0485662011
 30
0.0
  0
SPLINE
  5
3D3
100
AcDbEntity
  8
0
100
AcDbSpline
 62
7
  6
CONTINUOUS
 70
0
 71
3
 72
15
 73
11
 74
0
 42
0.0000001
 43
0.0000001
 44
0.0000000001
 40
0.0
 40
0.0
 40
0.0
 40
0.0
 40
0.1266033147
 40
0.2527938567
 40
0.3785069559
 40
0.5037321353
 40
0.6284626671
 40
0.7527160854
 40
0.8765605002
 40
1.0
 40
1.0
 40
1.0
 40
1.0
 10
11.4870321225
 20
7.0212587828
 30
0.0
 10
11.4865745541
 20
7.0226738535
 30
0.0
 10
11.4855248051
 20
7.0254573262
 30
0.0
 10
11.4835724105
 20
7.0294586532
 30
0.0
 10
11.4812753524
 20
7.0332536952
 30
0.0
 10
11.4786646795
 20
7.0368184131
 30
0.0
 10
11.4757736296
 20
7.0401363935
 30
0.0
 10
11.472640237
 20
7.0432023819
 30
0.0
 10
11.4693046801
 20
7.0460223138
 30
0.0
 10
11.4669639181
 20
7.0477464617
 30
0.0
 10
11.4657701274
 20
7.0485695615
 30
0.0
  0
SPLINE
  5
3D4
100
AcDbEntity
  8
0
100
AcDbSpline
 62
7
  6
CONTINUOUS
 70
0
 71
3
 72
14
 73
10
 74
0
 42
0.0000001
 43
0.0000001
 44
0.0000000001
 40
0.0
 40
0.0
 40
0.0
 40
0.0
 40
0.295744006
 40
0.4329500287
 40
0.5623832035
 40
0.6838196015
 40
0.7971931947
 40
0.9025592041
 40
1.0
 40
1.0
 40
1.0
 40
1.0
 10
11.2859566376
 20
6.9938958115
 30
0.0
 10
11.2861892797
 20
6.9910952473
 30
0.0
 10
11.2866429526
 20
6.9870032145
 30
0.0
 10
11.2874720006
 20
6.9817234657
 30
0.0
 10
11.2881556104
 20
6.9780991657
 30
0.0
 10
11.2889064061
 20
6.9747198444
 30
0.0
 10
11.2897154904
 20
6.9715896046
 30
0.0
 10
11.2905750956
 20
6.968710073
 30
0.0
 10
11.2912013756
 20
6.9668868157
 30
0.0
 10
11.2915227948
 20
6.966018496
 30
0.0
  0
SPLINE
  5
3D5
100
AcDbEntity
  8
0
100
AcDbSpline
 62
7
  6
CONTINUOUS
 70
0
 71
3
 72
13
 73
9
 74
0
 42
0.0000001
 43
0.0000001
 44
0.0000000001
 40
0.0
 40
0.0
 40
0.0
 40
0.0
 40
0.2472632526
 40
0.4961556647
 40
0.6213958271
 40
0.7471182909
 40
0.8733343645
 40
1.0
 40
1.0
 40
1.0
 40
1.0
 10
11.263548906
 20
6.966018496
 30
0.0
 10
11.2660393109
 20
6.9676897227
 30
0.0
 10
11.270824919
 20
6.9713728204
 30
0.0
 10
11.276103523
 20
6.9767962384
 30
0.0
 10
11.2797851739
 20
6.981621183
 30
0.0
 10
11.2822421956
 20
6.9854878306
 30
0.0
 10
11.2843420413
 20
6.9895791999
 30
0.0
 10
11.2854693695
 20
6.9924387336
 30
0.0
 10
11.2859566376
 20
6.9938958115
 30
0.0
  0
SPLINE
  5
3D6
100
AcDbEntity
  8
0
100
AcDbSpline
 62
7
  6
CONTINUOUS
 70
0
 71
3
 72
14
 73
10
 74
0
 42
0.0000001
 43
0.0000001
 44
0.0000000001
 40
0.0
 40
0.0
 40
0.0
 40
0.0
 40
0.2929199171
 40
0.4293186098
 40
0.5584046007
 40
0.6799933968
 40
0.7940557505
 40
0.9006843361
 40
1.0
 40
1.0
 40
1.0
 40
1.0
 10
11.2564370117
 20
6.9938958115
 30
0.0
 10
11.2567347773
 20
6.9910903653
 30
0.0
 10
11.2573160713
 20
6.9869914118
 30
0.0
 10
11.2583745079
 20
6.9817174849
 30
0.0
 10
11.2592484345
 20
6.9780922847
 30
0.0
 10
11.2602083088
 20
6.9747120625
 30
0.0
 10
11.2612428019
 20
6.9715808405
 30
0.0
 10
11.2623420041
 20
6.9687002905
 30
0.0
 10
11.2631399375
 20
6.9668832008
 30
0.0
 10
11.263548906
 20
6.966018496
 30
0.0
  0
SPLINE
  5
3D7
100
AcDbEntity
  8
0
100
AcDbSpline
 62
7
  6
CONTINUOUS
 70
0
 71
3
 72
15
 73
11
 74
0
 42
0.0000001
 43
0.0000001
 44
0.0000000001
 40
0.0
 40
0.0
 40
0.0
 40
0.0
 40
0.1274027468
 40
0.2541857318
 40
0.3802598389
 40
0.5055997461
 40
0.6301964107
 40
0.7540798978
 40
0.8773393283
 40
1.0
 40
1.0
 40
1.0
 40
1.0
 10
10.5943588654
 20
7.0212587828
 30
0.0
 10
10.5948051391
 20
7.0226728476
 30
0.0
 10
10.5958286213
 20
7.0254539765
 30
0.0
 10
10.5977336803
 20
7.0294550777
 30
0.0
 10
10.5999751809
 20
7.0332500746
 30
0.0
 10
10.6025228566
 20
7.0368149497
 30
0.0
 10
10.605344356
 20
7.0401332829
 30
0.0
 10
10.6084026363
 20
7.0431997008
 30
0.0
 10
10.6116582655
 20
7.0460201256
 30
0.0
 10
10.6139446811
 20
7.0477458417
 30
0.0
 10
10.6151107006
 20
7.0485695559
 30
0.0
  0
SPLINE
  5
3D8
100
AcDbEntity
  8
0
100
AcDbSpline
 62
7
  6
CONTINUOUS
 70
0
 71
3
 72
15
 73
11
 74
0
 42
0.0000001
 43
0.0000001
 44
0.0000000001
 40
0.0
 40
0.0
 40
0.0
 40
0.0
 40
0.127402726
 40
0.254185704
 40
0.3802598125
 40
0.5055997208
 40
0.6301964
 40
0.7540799163
 40
0.8773393445
 40
1.0
 40
1.0
 40
1.0
 40
1.0
 10
11.5002778112
 20
7.0212587828
 30
0.0
 10
11.4998315431
 20
7.0226728296
 30
0.0
 10
11.4988080757
 20
7.0254539238
 30
0.0
 10
11.4969030477
 20
7.0294549774
 30
0.0
 10
11.4946615863
 20
7.0332499329
 30
0.0
 10
11.492113956
 20
7.0368147728
 30
0.0
 10
11.4892925068
 20
7.0401330772
 30
0.0
 10
11.4862342857
 20
7.0431994779
 30
0.0
 10
11.4829787058
 20
7.0460198778
 30
0.0
 10
11.4806923176
 20
7.0477455703
 30
0.0
 10
11.4795263126
 20
7.0485692735
 30
0.0
  0
SPLINE
  5
3D9
100
AcDbEntity
  8
0
100
AcDbSpline
 62
7
  6
CONTINUOUS
 70
0
 71
3
 72
13
 73
9
 74
0
 42
0.0000001
 43
0.0000001
 44
0.0000000001
 40
0.0
 40
0.0
 40
0.0
 40
0.0
 40
0.2459141085
 40
0.4943064765
 40
0.6196481319
 40
0.7457163117
 40
0.8725199123
 40
1.0
 40
1.0
 40
1.0
 40
1.0
 10
11.2345668505
 20
6.966018496
 30
0.0
 10
11.2370012925
 20
6.9676923236
 30
0.0
 10
11.2416798794
 20
6.9713832311
 30
0.0
 10
11.2468264304
 20
6.9768039834
 30
0.0
 10
11.2504160798
 20
6.9816248185
 30
0.0
 10
11.252813801
 20
6.9854916187
 30
0.0
 10
11.2548627925
 20
6.9895829361
 30
0.0
 10
11.2559618091
 20
6.9924398849
 30
0.0
 10
11.2564370117
 20
6.9938958115
 30
0.0
  0
SPLINE
  5
3DA
100
AcDbEntity
  8
0
100
AcDbSpline
 62
7
  6
CONTINUOUS
 70
0
 71
3
 72
14
 73
10
 74
0
 42
0.0000001
 43
0.0000001
 44
0.0000000001
 40
0.0
 40
0.0
 40
0.0
 40
0.0
 40
0.2896829193
 40
0.4251656299
 40
0.553866631
 40
0.6756427332
 40
0.7905010544
 40
0.8985689678
 40
1.0
 40
1.0
 40
1.0
 40
1.0
 10
11.225942378
 20
6.9938958115
 30
0.0
 10
11.2263042278
 20
6.9910845034
 30
0.0
 10
11.2270114927
 20
6.9869774406
 30
0.0
 10
11.228293807
 20
6.9817105017
 30
0.0
 10
11.2293542403
 20
6.9780843699
 30
0.0
 10
11.2305190143
 20
6.9747032754
 30
0.0
 10
11.2317744248
 20
6.9715711637
 30
0.0
 10
11.2331084557
 20
6.9686897692
 30
0.0
 10
11.2340730651
 20
6.9668794283
 30
0.0
 10
11.2345668505
 20
6.966018496
 30
0.0
  0
SPLINE
  5
3DB
100
AcDbEntity
  8
0
100
AcDbSpline
 62
7
  6
CONTINUOUS
 70
0
 71
3
 72
15
 73
11
 74
0
 42
0.0000001
 43
0.0000001
 44
0.0000000001
 40
0.0
 40
0.0
 40
0.0
 40
0.0
 40
0.1266027908
 40
0.2527935288
 40
0.3785070493
 40
0.5037317547
 40
0.6284610241
 40
0.7527141475
 40
0.8765595777
 40
1.0
 40
1.0
 40
1.0
 40
1.0
 10
10.607604554
 20
7.0212587828
 30
0.0
 10
10.6080621055
 20
7.0226738012
 30
0.0
 10
10.6091118121
 20
7.025457181
 30
0.0
 10
10.611064125
 20
7.0294583863
 30
0.0
 10
10.6133610845
 20
7.0332533191
 30
0.0
 10
10.6159716167
 20
7.0368179398
 30
0.0
 10
10.6188625024
 20
7.0401358414
 30
0.0
 10
10.6219957714
 20
7.0432017403
 30
0.0
 10
10.6253311645
 20
7.0460216724
 30
0.0
 10
10.6276718519
 20
7.0477458019
 30
0.0
 10
10.6288656127
 20
7.0485688804
 30
0.0
  0
SPLINE
  5
3DC
100
AcDbEntity
  8
0
100
AcDbSpline
 62
7
  6
CONTINUOUS
 70
0
 71
3
 72
12
 73
8
 74
0
 42
0.0000001
 43
0.0000001
 44
0.0000000001
 40
0.0
 40
0.0
 40
0.0
 40
0.0
 40
0.2443351336
 40
0.4921833451
 40
0.74397081
 40
0.8715116831
 40
1.0
 40
1.0
 40
1.0
 40
1.0
 10
11.204711756
 20
6.966018496
 30
0.0
 10
11.207079576
 20
6.9676955585
 30
0.0
 10
11.2116311776
 20
6.971397003
 30
0.0
 10
11.2176380433
 20
6.9779175232
 30
0.0
 10
11.2217769325
 20
6.9841570957
 30
0.0
 10
11.2244159596
 20
6.9895871913
 30
0.0
 10
11.2254814988
 20
6.9924412334
 30
0.0
 10
11.225942378
 20
6.9938958115
 30
0.0
  0
SPLINE
  5
3DD
100
AcDbEntity
  8
0
100
AcDbSpline
 62
7
  6
CONTINUOUS
 70
0
 71
3
 72
15
 73
11
 74
0
 42
0.0000001
 43
0.0000001
 44
0.0000000001
 40
0.0
 40
0.0
 40
0.0
 40
0.0
 40
0.12596393
 40
0.2516827898
 40
0.3771100871
 40
0.5022445859
 40
0.627080878
 40
0.7516290264
 40
0.8759406155
 40
1.0
 40
1.0
 40
1.0
 40
1.0
 10
10.6229003913
 20
7.0212587828
 30
0.0
 10
10.6233670775
 20
7.0226746845
 30
0.0
 10
10.6244380454
 20
7.0254600921
 30
0.0
 10
10.6264286253
 20
7.0294616402
 30
0.0
 10
10.6287705026
 20
7.0332567421
 30
0.0
 10
10.6314319411
 20
7.0368213419
 30
0.0
 10
10.6343790172
 20
7.0401390461
 30
0.0
 10
10.6375730248
 20
7.0432046306
 30
0.0
 10
10.640972979
 20
7.0460242862
 30
0.0
 10
10.6433575526
 20
7.0477472849
 30
0.0
 10
10.6445737448
 20
7.0485699322
 30
0.0
  0
SPLINE
  5
3DE
100
AcDbEntity
  8
0
100
AcDbSpline
 62
7
  6
CONTINUOUS
 70
0
 71
3
 72
15
 73
11
 74
0
 42
0.0000001
 43
0.0000001
 44
0.0000000001
 40
0.0
 40
0.0
 40
0.0
 40
0.0
 40
0.1259639134
 40
0.2516827679
 40
0.377110066
 40
0.5022445613
 40
0.6270808618
 40
0.7516290308
 40
0.8759406202
 40
1.0
 40
1.0
 40
1.0
 40
1.0
 10
11.4717362853
 20
7.0212587828
 30
0.0
 10
11.4712696101
 20
7.022674651
 30
0.0
 10
11.4701986709
 20
7.0254599939
 30
0.0
 10
11.4682081511
 20
7.0294614539
 30
0.0
 10
11.4658663497
 20
7.033256479
 30
0.0
 10
11.4632049991
 20
7.0368210138
 30
0.0
 10
11.4602580207
 20
7.0401386651
 30
0.0
 10
11.4570641248
 20
7.0432042161
 30
0.0
 10
11.4536642696
 20
7.0460238298
 30
0.0
 10
11.4512797528
 20
7.0477467895
 30
0.0
 10
11.4500635886
 20
7.0485694164
 30
0.0
  0
SPLINE
  5
3DF
100
AcDbEntity
  8
0
100
AcDbSpline
 62
7
  6
CONTINUOUS
 70
0
 71
3
 72
15
 73
11
 74
0
 42
0.0000001
 43
0.0000001
 44
0.0000000001
 40
0.0
 40
0.0
 40
0.0
 40
0.0
 40
0.1250084393
 40
0.2500228416
 40
0.3750244014
 40
0.5000274169
 40
0.625027088
 40
0.7500168422
 40
0.8750218515
 40
1.0
 40
1.0
 40
1.0
 40
1.0
 10
11.4143067998
 20
7.0212587828
 30
0.0
 10
11.4138263251
 20
7.0226758967
 30
0.0
 10
11.4127232591
 20
7.0254641079
 30
0.0
 10
11.4106750731
 20
7.0294657599
 30
0.0
 10
11.4082656219
 20
7.0332607516
 30
0.0
 10
11.4055275953
 20
7.036825012
 30
0.0
 10
11.402495988
 20
7.0401421714
 30
0.0
 10
11.3992106979
 20
7.0432071704
 30
0.0
 10
11.3957135696
 20
7.0460261664
 30
0.0
 10
11.3932629324
 20
7.0477473124
 30
0.0
 10
11.3920129658
 20
7.0485692407
 30
0.0
  0
SPLINE
  5
3E0
100
AcDbEntity
  8
0
100
AcDbSpline
 62
7
  6
CONTINUOUS
 70
0
 71
3
 72
15
 73
11
 74
0
 42
0.0000001
 43
0.0000001
 44
0.0000000001
 40
0.0
 40
0.0
 40
0.0
 40
0.0
 40
0.1254855074
 40
0.2508516537
 40
0.376065672
 40
0.5011336753
 40
0.6260508149
 40
0.7508198754
 40
0.8754794268
 40
1.0
 40
1.0
 40
1.0
 40
1.0
 10
11.4544616156
 20
7.0212587828
 30
0.0
 10
11.4539880865
 20
7.0226751925
 30
0.0
 10
11.4529011993
 20
7.0254618181
 30
0.0
 10
11.4508820517
 20
7.0294631829
 30
0.0
 10
11.4485066733
 20
7.0332580242
 30
0.0
 10
11.4458072816
 20
7.0368222791
 30
0.0
 10
11.4428183205
 20
7.0401395688
 30
0.0
 10
11.439579065
 20
7.0432047471
 30
0.0
 10
11.4361309242
 20
7.0460239937
 30
0.0
 10
11.4337135503
 20
7.047745976
 30
0.0
 10
11.4324805825
 20
7.0485682084
 30
0.0
  0
SPLINE
  5
3E1
100
AcDbEntity
  8
0
100
AcDbSpline
 62
7
  6
CONTINUOUS
 70
0
 71
3
 72
15
 73
11
 74
0
 42
0.0000001
 43
0.0000001
 44
0.0000000001
 40
0.0
 40
0.0
 40
0.0
 40
0.0
 40
0.125167055
 40
0.2502987305
 40
0.375371256
 40
0.5003955004
 40
0.6253667436
 40
0.7502827623
 40
0.8751734541
 40
1.0
 40
1.0
 40
1.0
 40
1.0
 10
11.3673156832
 20
7.0212587828
 30
0.0
 10
11.3668375228
 20
7.0226756773
 30
0.0
 10
11.3657398456
 20
7.0254633959
 30
0.0
 10
11.3637013177
 20
7.0294650068
 30
0.0
 10
11.3613031918
 20
7.0332599938
 30
0.0
 10
11.3585780246
 20
7.0368242883
 30
0.0
 10
11.3555606159
 20
7.0401415208
 30
0.0
 10
11.3522906041
 20
7.043206567
 30
0.0
 10
11.3488097932
 20
7.0460257176
 30
0.0
 10
11.3463702276
 20
7.0477471947
 30
0.0
 10
11.3451259135
 20
7.0485692407
 30
0.0
  0
SPLINE
  5
3E2
100
AcDbEntity
  8
0
100
AcDbSpline
 62
7
  6
CONTINUOUS
 70
0
 71
3
 72
11
 73
7
 74
0
 42
0.0000001
 43
0.0000001
 44
0.0000000001
 40
0.0
 40
0.0
 40
0.0
 40
0.0
 40
0.2991478663
 40
0.5683191801
 40
0.8020388074
 40
1.0
 40
1.0
 40
1.0
 40
1.0
 10
11.3673156832
 20
7.0212587828
 30
0.0
 10
11.3673472356
 20
7.0239829611
 30
0.0
 10
11.3674258666
 20
7.0291581472
 30
0.0
 10
11.3675968424
 20
7.0364604692
 30
0.0
 10
11.3678086807
 20
7.0428397701
 30
0.0
 10
11.3679836575
 20
7.0467673454
 30
0.0
 10
11.3680771916
 20
7.0485677641
 30
0.0
  0
SPLINE
  5
3E3
100
AcDbEntity
  8
0
100
AcDbSpline
 62
7
  6
CONTINUOUS
 70
0
 71
3
 72
15
 73
11
 74
0
 42
0.0000001
 43
0.0000001
 44
0.0000000001
 40
0.0
 40
0.0
 40
0.0
 40
0.0
 40
0.1283641405
 40
0.2558603499
 40
0.3823704889
 40
0.5078526566
 40
0.6322936144
 40
0.7557334691
 40
0.8782843842
 40
1.0
 40
1.0
 40
1.0
 40
1.0
 10
11.225942378
 20
7.0212587828
 30
0.0
 10
11.2255095228
 20
7.0226716451
 30
0.0
 10
11.224517231
 20
7.0254499426
 30
0.0
 10
11.2226685285
 20
7.0294506435
 30
0.0
 10
11.2204932074
 20
7.0332454685
 30
0.0
 10
11.2180205329
 20
7.0368104362
 30
0.0
 10
11.215281832
 20
7.0401291132
 30
0.0
 10
11.2123131365
 20
7.0431960931
 30
0.0
 10
11.2091526446
 20
7.0460169039
 30
0.0
 10
11.2069309716
 20
7.0477444025
 30
0.0
 10
11.205798049
 20
7.04856884
 30
0.0
  0
SPLINE
  5
3E4
100
AcDbEntity
  8
0
100
AcDbSpline
 62
7
  6
CONTINUOUS
 70
0
 71
3
 72
14
 73
10
 74
0
 42
0.0000001
 43
0.0000001
 44
0.0000000001
 40
0.0
 40
0.0
 40
0.0
 40
0.0
 40
0.2888659288
 40
0.4245842376
 40
0.5536032734
 40
0.6755508195
 40
0.7903936308
 40
0.8984318834
 40
1.0
 40
1.0
 40
1.0
 40
1.0
 10
11.225942378
 20
7.0212587828
 30
0.0
 10
11.2262834137
 20
7.023999015
 30
0.0
 10
11.2269401231
 20
7.0280106172
 30
0.0
 10
11.2281360194
 20
7.0331671422
 30
0.0
 10
11.2291350829
 20
7.0367275379
 30
0.0
 10
11.2302428077
 20
7.0400458658
 30
0.0
 10
11.2314454
 20
7.0431166213
 30
0.0
 10
11.2327266481
 20
7.0459426426
 30
0.0
 10
11.2336522624
 20
7.0477211133
 30
0.0
 10
11.2341255152
 20
7.048568892
 30
0.0
  0
SPLINE
  5
3E5
100
AcDbEntity
  8
0
100
AcDbSpline
 62
7
  6
CONTINUOUS
 70
0
 71
3
 72
13
 73
9
 74
0
 42
0.0000001
 43
0.0000001
 44
0.0000000001
 40
0.0
 40
0.0
 40
0.0
 40
0.0
 40
0.2968527356
 40
0.434937613
 40
0.5650159612
 40
0.7993903735
 40
0.903783822
 40
1.0
 40
1.0
 40
1.0
 40
1.0
 10
10.7802730549
 20
7.0212587828
 30
0.0
 10
10.7801158265
 20
7.0239864549
 30
0.0
 10
10.7798139553
 20
7.0279795394
 30
0.0
 10
10.779259022
 20
7.0331505529
 30
0.0
 10
10.7786633393
 20
7.0377375688
 30
0.0
 10
10.7779586459
 20
7.0419972266
 30
0.0
 10
10.7771368506
 20
7.0459159705
 30
0.0
 10
10.7767046469
 20
7.0477114309
 30
0.0
 10
10.7764829766
 20
7.0485688015
 30
0.0
  0
SPLINE
  5
3E6
100
AcDbEntity
  8
0
100
AcDbSpline
 62
7
  6
CONTINUOUS
 70
0
 71
3
 72
15
 73
11
 74
0
 42
0.0000001
 43
0.0000001
 44
0.0000000001
 40
0.0
 40
0.0
 40
0.0
 40
0.0
 40
0.125963892
 40
0.2516827266
 40
0.3771100194
 40
0.5022445197
 40
0.6270808366
 40
0.7516290273
 40
0.8759406299
 40
1.0
 40
1.0
 40
1.0
 40
1.0
 10
10.7802730549
 20
7.0212587828
 30
0.0
 10
10.7807397177
 20
7.0226746136
 30
0.0
 10
10.781810625
 20
7.0254598841
 30
0.0
 10
10.7838010775
 20
7.0294612458
 30
0.0
 10
10.7861427943
 20
7.033256185
 30
0.0
 10
10.7888040468
 20
7.0368206474
 30
0.0
 10
10.7917509156
 20
7.0401382406
 30
0.0
 10
10.7949446904
 20
7.0432037511
 30
0.0
 10
10.7983444293
 20
7.0460233246
 30
0.0
 10
10.8007288775
 20
7.0477462485
 30
0.0
 10
10.8019450103
 20
7.0485688529
 30
0.0
  0
SPLINE
  5
3E7
100
AcDbEntity
  8
0
100
AcDbSpline
 62
7
  6
CONTINUOUS
 70
0
 71
3
 72
15
 73
11
 74
0
 42
0.0000001
 43
0.0000001
 44
0.0000000001
 40
0.0
 40
0.0
 40
0.0
 40
0.0
 40
0.1254859978
 40
0.2508519181
 40
0.3760655296
 40
0.5011340355
 40
0.6260524723
 40
0.750821873
 40
0.875480377
 40
1.0
 40
1.0
 40
1.0
 40
1.0
 10
10.640175061
 20
7.0212587828
 30
0.0
 10
10.6406486044
 20
7.0226752353
 30
0.0
 10
10.6417355272
 20
7.0254619355
 30
0.0
 10
10.6437547422
 20
7.0294633967
 30
0.0
 10
10.6461302001
 20
7.0332583261
 30
0.0
 10
10.6488297129
 20
7.0368226597
 30
0.0
 10
10.6518188182
 20
7.0401400098
 30
0.0
 10
10.6550581563
 20
7.0432052833
 30
0.0
 10
10.658506459
 20
7.0460244904
 30
0.0
 10
10.6609239134
 20
7.0477464494
 30
0.0
 10
10.6621569048
 20
7.0485686963
 30
0.0
  0
SPLINE
  5
3E8
100
AcDbEntity
  8
0
100
AcDbSpline
 62
7
  6
CONTINUOUS
 70
0
 71
3
 72
13
 73
9
 74
0
 42
0.0000001
 43
0.0000001
 44
0.0000000001
 40
0.0
 40
0.0
 40
0.0
 40
0.0
 40
0.274885521
 40
0.4066145852
 40
0.533998863
 40
0.656880168
 40
0.7753316289
 40
1.0
 40
1.0
 40
1.0
 40
1.0
 10
10.9975251658
 20
7.0212587828
 30
0.0
 10
10.996958085
 20
7.0240252087
 30
0.0
 10
10.9958604875
 20
7.0280720433
 30
0.0
 10
10.9938989522
 20
7.0331984163
 30
0.0
 10
10.9922489562
 20
7.036762597
 30
0.0
 10
10.9904196769
 20
7.0400833363
 30
0.0
 10
10.9878200419
 20
7.0441064151
 30
0.0
 10
10.9856090808
 20
7.0468697028
 30
0.0
 10
10.9840469043
 20
7.0485687449
 30
0.0
  0
SPLINE
  5
3E9
100
AcDbEntity
  8
0
100
AcDbSpline
 62
7
  6
CONTINUOUS
 70
0
 71
3
 72
13
 73
9
 74
0
 42
0.0000001
 43
0.0000001
 44
0.0000000001
 40
0.0
 40
0.0
 40
0.0
 40
0.0
 40
0.2652148699
 40
0.3942926103
 40
0.520685438
 40
0.6443303488
 40
0.7653096131
 40
1.0
 40
1.0
 40
1.0
 40
1.0
 10
10.9975251658
 20
7.0212587828
 30
0.0
 10
10.9982381084
 20
7.0240470187
 30
0.0
 10
10.9996225305
 20
7.0281200168
 30
0.0
 10
11.0020605556
 20
7.0332214678
 30
0.0
 10
11.0041218919
 20
7.0367869116
 30
0.0
 10
11.0064062455
 20
7.0401072965
 30
0.0
 10
11.0096748787
 20
7.0441576363
 30
0.0
 10
11.0124182434
 20
7.0468953186
 30
0.0
 10
11.0143377639
 20
7.048568988
 30
0.0
  0
SPLINE
  5
3EA
100
AcDbEntity
  8
0
100
AcDbSpline
 62
7
  6
CONTINUOUS
 70
0
 71
3
 72
15
 73
11
 74
0
 42
0.0000001
 43
0.0000001
 44
0.0000000001
 40
0.0
 40
0.0
 40
0.0
 40
0.0
 40
0.125167058
 40
0.2502987309
 40
0.3753712541
 40
0.5003955065
 40
0.6253667518
 40
0.7502827649
 40
0.875173462
 40
1.0
 40
1.0
 40
1.0
 40
1.0
 10
10.6593480205
 20
7.0212587828
 30
0.0
 10
10.6598261917
 20
7.0226757091
 30
0.0
 10
10.6609238968
 20
7.0254634892
 30
0.0
 10
10.6629624831
 20
7.0294651837
 30
0.0
 10
10.6653606827
 20
7.0332602436
 30
0.0
 10
10.6680859354
 20
7.0368245996
 30
0.0
 10
10.6711034389
 20
7.0401418824
 30
0.0
 10
10.6743735595
 20
7.0432069596
 30
0.0
 10
10.6778544653
 20
7.0460261511
 30
0.0
 10
10.6802940854
 20
7.0477476667
 30
0.0
 10
10.6815384266
 20
7.0485697321
 30
0.0
  0
SPLINE
  5
3EB
100
AcDbEntity
  8
0
100
AcDbSpline
 62
7
  6
CONTINUOUS
 70
0
 71
3
 72
15
 73
11
 74
0
 42
0.0000001
 43
0.0000001
 44
0.0000000001
 40
0.0
 40
0.0
 40
0.0
 40
0.0
 40
0.1250079631
 40
0.2500225863
 40
0.3750245769
 40
0.5000270985
 40
0.6250254708
 40
0.7500149096
 40
0.8750209111
 40
1.0
 40
1.0
 40
1.0
 40
1.0
 10
10.6803298768
 20
7.0212587828
 30
0.0
 10
10.6808103065
 20
7.0226757638
 30
0.0
 10
10.6819132569
 20
7.0254637263
 30
0.0
 10
10.6839612085
 20
7.0294650456
 30
0.0
 10
10.6863703697
 20
7.0332597434
 30
0.0
 10
10.6891080313
 20
7.0368237517
 30
0.0
 10
10.6921392244
 20
7.0401407087
 30
0.0
 10
10.6954241212
 20
7.0432055247
 30
0.0
 10
10.6989208143
 20
7.0460244469
 30
0.0
 10
10.7013712138
 20
7.0477455088
 30
0.0
 10
10.7026210786
 20
7.0485673674
 30
0.0
  0
SPLINE
  5
3EC
100
AcDbEntity
  8
0
100
AcDbSpline
 62
7
  6
CONTINUOUS
 70
0
 71
3
 72
15
 73
11
 74
0
 42
0.0000001
 43
0.0000001
 44
0.0000000001
 40
0.0
 40
0.0
 40
0.0
 40
0.0
 40
0.1307636882
 40
0.2600515269
 40
0.3876675053
 40
0.5135194219
 40
0.6375774905
 40
0.7599070065
 40
0.8806760816
 40
1.0
 40
1.0
 40
1.0
 40
1.0
 10
11.1626006904
 20
7.0212587828
 30
0.0
 10
11.1622006802
 20
7.0226688868
 30
0.0
 10
11.1612846184
 20
7.0254405808
 30
0.0
 10
11.1595741734
 20
7.029440499
 30
0.0
 10
11.1575612457
 20
7.0332350138
 30
0.0
 10
11.1552727825
 20
7.0368002548
 30
0.0
 10
11.1527375454
 20
7.0401198204
 30
0.0
 10
11.1499887234
 20
7.043188041
 30
0.0
 10
11.1470621408
 20
7.0460102187
 30
0.0
 10
11.1449997621
 20
7.0477428052
 30
0.0
 10
11.1439481598
 20
7.0485692882
 30
0.0
  0
SPLINE
  5
3ED
100
AcDbEntity
  8
0
100
AcDbSpline
 62
7
  6
CONTINUOUS
 70
0
 71
3
 72
13
 73
9
 74
0
 42
0.0000001
 43
0.0000001
 44
0.0000000001
 40
0.0
 40
0.0
 40
0.0
 40
0.0
 40
0.2819823933
 40
0.415715855
 40
0.5439024867
 40
0.6662864344
 40
0.7829024179
 40
1.0
 40
1.0
 40
1.0
 40
1.0
 10
11.1626006904
 20
7.0212587828
 30
0.0
 10
11.1630583038
 20
7.0240110204
 30
0.0
 10
11.1639417411
 20
7.0280392948
 30
0.0
 10
11.1655362244
 20
7.0331814533
 30
0.0
 10
11.1668726737
 20
7.036743761
 30
0.0
 10
11.1683545726
 20
7.040063644
 30
0.0
 10
11.1704488879
 20
7.0440630567
 30
0.0
 10
11.172247998
 20
7.046845398
 30
0.0
 10
11.1735321658
 20
7.0485673014
 30
0.0
  0
SPLINE
  5
3EE
100
AcDbEntity
  8
0
100
AcDbSpline
 62
7
  6
CONTINUOUS
 70
0
 71
3
 72
11
 73
7
 74
0
 42
0.0000001
 43
0.0000001
 44
0.0000000001
 40
0.0
 40
0.0
 40
0.0
 40
0.0
 40
0.2349167468
 40
0.479469261
 40
0.7345555198
 40
1.0
 40
1.0
 40
1.0
 40
1.0
 10
11.5162226598
 20
6.966018496
 30
0.0
 10
11.5182233541
 20
6.9677163447
 30
0.0
 10
11.5220675178
 20
6.9714749388
 30
0.0
 10
11.527072709
 20
6.9780122552
 30
0.0
 10
11.5312135283
 20
6.9855248753
 30
0.0
 10
11.5331838772
 20
6.9910293328
 30
0.0
 10
11.533941898
 20
6.9938958115
 30
0.0
  0
SPLINE
  5
3EF
100
AcDbEntity
  8
0
100
AcDbSpline
 62
7
  6
CONTINUOUS
 70
0
 71
3
 72
15
 73
11
 74
0
 42
0.0000001
 43
0.0000001
 44
0.0000000001
 40
0.0
 40
0.0
 40
0.0
 40
0.0
 40
0.1250079679
 40
0.2500225986
 40
0.3750245889
 40
0.500027126
 40
0.6250254992
 40
0.7500149285
 40
0.8750209314
 40
1.0
 40
1.0
 40
1.0
 40
1.0
 10
10.7030228027
 20
7.0212587828
 30
0.0
 10
10.7035032752
 20
7.02267589
 30
0.0
 10
10.7046063368
 20
7.0254640969
 30
0.0
 10
10.7066545216
 20
7.0294657478
 30
0.0
 10
10.7090639765
 20
7.0332607348
 30
0.0
 10
10.7118019785
 20
7.0368249873
 30
0.0
 10
10.7148335508
 20
7.0401421417
 30
0.0
 10
10.7181188726
 20
7.0432070885
 30
0.0
 10
10.7216159589
 20
7.0460261562
 30
0.0
 10
10.7240665882
 20
7.0477473516
 30
0.0
 10
10.7253165619
 20
7.0485692867
 30
0.0
  0
SPLINE
  5
3F0
100
AcDbEntity
  8
0
100
AcDbSpline
 62
7
  6
CONTINUOUS
 70
0
 71
3
 72
11
 73
7
 74
0
 42
0.0000001
 43
0.0000001
 44
0.0000000001
 40
0.0
 40
0.0
 40
0.0
 40
0.0
 40
0.2991519877
 40
0.5683238795
 40
0.8020398432
 40
1.0
 40
1.0
 40
1.0
 40
1.0
 10
10.7273209933
 20
7.0212587828
 30
0.0
 10
10.7272894385
 20
7.0239831747
 30
0.0
 10
10.7272108001
 20
7.0291587379
 30
0.0
 10
10.7270398066
 20
7.036461541
 30
0.0
 10
10.7268279401
 20
7.0428412161
 30
0.0
 10
10.7266529435
 20
7.0467690018
 30
0.0
 10
10.7265594044
 20
7.0485695275
 30
0.0
  0
SPLINE
  5
3F1
100
AcDbEntity
  8
0
100
AcDbSpline
 62
7
  6
CONTINUOUS
 70
0
 71
3
 72
15
 73
11
 74
0
 42
0.0000001
 43
0.0000001
 44
0.0000000001
 40
0.0
 40
0.0
 40
0.0
 40
0.0
 40
0.1251670369
 40
0.250298691
 40
0.3753712127
 40
0.5003954478
 40
0.6253667022
 40
0.7502827435
 40
0.8751734444
 40
1.0
 40
1.0
 40
1.0
 40
1.0
 10
10.7273209933
 20
7.0212587828
 30
0.0
 10
10.7277991053
 20
7.0226755334
 30
0.0
 10
10.7288966563
 20
7.0254629734
 30
0.0
 10
10.7309349194
 20
7.0294642062
 30
0.0
 10
10.733332712
 20
7.0332588633
 30
0.0
 10
10.736057493
 20
7.0368228794
 30
0.0
 10
10.739074471
 20
7.0401398874
 30
0.0
 10
10.7423440024
 20
7.0432047822
 30
0.0
 10
10.7458243631
 20
7.0460237711
 30
0.0
 10
10.7482636648
 20
7.0477451008
 30
0.0
 10
10.7495078552
 20
7.0485670598
 30
0.0
  0
SPLINE
  5
3F2
100
AcDbEntity
  8
0
100
AcDbSpline
 62
7
  6
CONTINUOUS
 70
0
 71
3
 72
15
 73
11
 74
0
 42
0.0000001
 43
0.0000001
 44
0.0000000001
 40
0.0
 40
0.0
 40
0.0
 40
0.0
 40
0.1251670498
 40
0.2502987204
 40
0.3753712465
 40
0.5003954851
 40
0.6253667317
 40
0.750282761
 40
0.8751734475
 40
1.0
 40
1.0
 40
1.0
 40
1.0
 10
11.435288656
 20
7.0212587828
 30
0.0
 10
11.4348105108
 20
7.0226756322
 30
0.0
 10
11.4337128732
 20
7.0254632636
 30
0.0
 10
11.4316744281
 20
7.029464756
 30
0.0
 10
11.4292764068
 20
7.0332596397
 30
0.0
 10
11.4265513604
 20
7.0368238468
 30
0.0
 10
11.4235340863
 20
7.0401410085
 30
0.0
 10
11.4202642277
 20
7.0432060101
 30
0.0
 10
11.4167835529
 20
7.0460251044
 30
0.0
 10
11.4143440659
 20
7.0477465292
 30
0.0
 10
11.4130997904
 20
7.0485685477
 30
0.0
  0
SPLINE
  5
3F3
100
AcDbEntity
  8
0
100
AcDbSpline
 62
7
  6
CONTINUOUS
 70
0
 71
3
 72
13
 73
9
 74
0
 42
0.0000001
 43
0.0000001
 44
0.0000000001
 40
0.0
 40
0.0
 40
0.0
 40
0.0
 40
0.2862004065
 40
0.4207142653
 40
0.5490261024
 40
0.671032477
 40
0.7867730886
 40
1.0
 40
1.0
 40
1.0
 40
1.0
 10
11.1946149165
 20
6.9938958115
 30
0.0
 10
11.1950395499
 20
6.9910778093
 30
0.0
 10
11.1958706199
 20
6.9869617613
 30
0.0
 10
11.1973701953
 20
6.981702775
 30
0.0
 10
11.1986124069
 20
6.9780758331
 30
0.0
 10
11.1999770072
 20
6.9746937193
 30
0.0
 10
11.2018858991
 20
6.9706277777
 30
0.0
 10
11.2035281762
 20
6.9677811838
 30
0.0
 10
11.204711756
 20
6.966018496
 30
0.0
  0
SPLINE
  5
3F4
100
AcDbEntity
  8
0
100
AcDbSpline
 62
7
  6
CONTINUOUS
 70
0
 71
3
 72
12
 73
8
 74
0
 42
0.0000001
 43
0.0000001
 44
0.0000000001
 40
0.0
 40
0.0
 40
0.0
 40
0.0
 40
0.2424098817
 40
0.4895590312
 40
0.7419962686
 40
0.8703676669
 40
1.0
 40
1.0
 40
1.0
 40
1.0
 10
11.1741228207
 20
6.966018496
 30
0.0
 10
11.1764136361
 20
6.9676994933
 30
0.0
 10
11.1808174391
 20
6.9714123065
 30
0.0
 10
11.1866140139
 20
6.9779366515
 30
0.0
 10
11.1906005521
 20
6.984169266
 30
0.0
 10
11.1931436588
 20
6.9895922098
 30
0.0
 10
11.1941705362
 20
6.9924427598
 30
0.0
 10
11.1946149165
 20
6.9938958115
 30
0.0
  0
SPLINE
  5
3F5
100
AcDbEntity
  8
0
100
AcDbSpline
 62
7
  6
CONTINUOUS
 70
0
 71
3
 72
13
 73
9
 74
0
 42
0.0000001
 43
0.0000001
 44
0.0000000001
 40
0.0
 40
0.0
 40
0.0
 40
0.0
 40
0.2819852005
 40
0.4157190989
 40
0.5439054811
 40
0.6662884153
 40
0.7829027044
 40
1.0
 40
1.0
 40
1.0
 40
1.0
 10
10.9320359861
 20
7.0212587828
 30
0.0
 10
10.931578329
 20
7.0240112834
 30
0.0
 10
10.9306947898
 20
7.028039932
 30
0.0
 10
10.9291000889
 20
7.0331825368
 30
0.0
 10
10.927763456
 20
7.0367451151
 30
0.0
 10
10.9262813537
 20
7.0400652167
 30
0.0
 10
10.9241867154
 20
7.0440648644
 30
0.0
 10
10.9223873889
 20
7.0468473717
 30
0.0
 10
10.9211031181
 20
7.048569424
 30
0.0
  0
SPLINE
  5
3F6
100
AcDbEntity
  8
0
100
AcDbSpline
 62
7
  6
CONTINUOUS
 70
0
 71
3
 72
15
 73
11
 74
0
 42
0.0000001
 43
0.0000001
 44
0.0000000001
 40
0.0
 40
0.0
 40
0.0
 40
0.0
 40
0.1307631943
 40
0.2600507158
 40
0.3876666056
 40
0.5135186269
 40
0.6375770226
 40
0.7599070405
 40
0.8806763525
 40
1.0
 40
1.0
 40
1.0
 40
1.0
 10
10.9320359861
 20
7.0212587828
 30
0.0
 10
10.9324359541
 20
7.0226687379
 30
0.0
 10
10.9333519069
 20
7.0254401446
 30
0.0
 10
10.9350621204
 20
7.029439668
 30
0.0
 10
10.9370747561
 20
7.0332338378
 30
0.0
 10
10.9393628806
 20
7.0367987875
 30
0.0
 10
10.9418977402
 20
7.0401181177
 30
0.0
 10
10.9446461347
 20
7.0431861742
 30
0.0
 10
10.9475723182
 20
7.04600818
 30
0.0
 10
10.949634468
 20
7.0477406153
 30
0.0
 10
10.9506859636
 20
7.0485670088
 30
0.0
  0
SPLINE
  5
3F7
100
AcDbEntity
  8
0
100
AcDbSpline
 62
7
  6
CONTINUOUS
 70
0
 71
3
 72
15
 73
11
 74
0
 42
0.0000001
 43
0.0000001
 44
0.0000000001
 40
0.0
 40
0.0
 40
0.0
 40
0.0
 40
0.1250079651
 40
0.2500225957
 40
0.3750245902
 40
0.5000271077
 40
0.6250254782
 40
0.7500149213
 40
0.8750209056
 40
1.0
 40
1.0
 40
1.0
 40
1.0
 10
11.3916138739
 20
7.0212587828
 30
0.0
 10
11.3911334334
 20
7.0226757956
 30
0.0
 10
11.390030455
 20
7.0254638197
 30
0.0
 10
11.3879824445
 20
7.0294652224
 30
0.0
 10
11.3855732098
 20
7.0332599932
 30
0.0
 10
11.3828354621
 20
7.0368240627
 30
0.0
 10
11.3798041727
 20
7.0401410681
 30
0.0
 10
11.3765191751
 20
7.0432059236
 30
0.0
 10
11.3730223717
 20
7.0460248695
 30
0.0
 10
11.3705719048
 20
7.0477459506
 30
0.0
 10
11.3693220121
 20
7.048567828
 30
0.0
  0
SPLINE
  5
3F8
100
AcDbEntity
  8
0
100
AcDbSpline
 62
7
  6
CONTINUOUS
 70
0
 71
3
 72
12
 73
8
 74
0
 42
0.0000001
 43
0.0000001
 44
0.0000000001
 40
0.0
 40
0.0
 40
0.0
 40
0.0
 40
0.2376732073
 40
0.4831410192
 40
0.7371961774
 40
0.8675940821
 40
1.0
 40
1.0
 40
1.0
 40
1.0
 10
11.5129407329
 20
6.966018496
 30
0.0
 10
11.5150476463
 20
6.9677097889
 30
0.0
 10
11.5190972773
 20
6.9714512519
 30
0.0
 10
11.5243916732
 20
6.9779835067
 30
0.0
 10
11.528016714
 20
6.9841980003
 30
0.0
 10
11.5303324948
 20
6.9896038498
 30
0.0
 10
11.5312677935
 20
6.9924462563
 30
0.0
 10
11.5316730343
 20
6.9938958115
 30
0.0
  0
SPLINE
  5
3F9
100
AcDbEntity
  8
0
100
AcDbSpline
 62
7
  6
CONTINUOUS
 70
0
 71
3
 72
11
 73
7
 74
0
 42
0.0000001
 43
0.0000001
 44
0.0000000001
 40
0.0
 40
0.0
 40
0.0
 40
0.0
 40
0.2826107998
 40
0.5439757102
 40
0.7828251542
 40
1.0
 40
1.0
 40
1.0
 40
1.0
 10
11.1626006904
 20
6.9938958115
 30
0.0
 10
11.1630865345
 20
6.9910704318
 30
0.0
 10
11.1643307762
 20
6.9856794348
 30
0.0
 10
11.1669966782
 20
6.978181045
 30
0.0
 10
11.1702270399
 20
6.9716415027
 30
0.0
 10
11.1727828734
 20
6.9677672079
 30
0.0
 10
11.1741228207
 20
6.966018496
 30
0.0
  0
SPLINE
  5
3FA
100
AcDbEntity
  8
0
100
AcDbSpline
 62
7
  6
CONTINUOUS
 70
0
 71
3
 72
12
 73
8
 74
0
 42
0.0000001
 43
0.0000001
 44
0.0000000001
 40
0.0
 40
0.0
 40
0.0
 40
0.0
 40
0.2682859193
 40
0.5247369178
 40
0.6481553221
 40
0.768364057
 40
1.0
 40
1.0
 40
1.0
 40
1.0
 10
11.063941898
 20
7.0212587828
 30
0.0
 10
11.0632748305
 20
7.024039557
 30
0.0
 10
11.0615713917
 20
7.029391941
 30
0.0
 10
11.0585086514
 20
7.0356151827
 30
0.0
 10
11.0556162425
 20
7.0400982872
 30
0.0
 10
11.0525573098
 20
7.044140544
 30
0.0
 10
11.0499795121
 20
7.0468859299
 30
0.0
 10
11.0481709676
 20
7.0485667595
 30
0.0
  0
SPLINE
  5
3FB
100
AcDbEntity
  8
0
100
AcDbSpline
 62
7
  6
CONTINUOUS
 70
0
 71
3
 72
12
 73
8
 74
0
 42
0.0000001
 43
0.0000001
 44
0.0000000001
 40
0.0
 40
0.0
 40
0.0
 40
0.0
 40
0.2401898476
 40
0.4865441421
 40
0.7397363553
 40
0.8690605435
 40
1.0
 40
1.0
 40
1.0
 40
1.0
 10
11.1429426644
 20
6.966018496
 30
0.0
 10
11.1451464001
 20
6.9677042062
 30
0.0
 10
11.1493827145
 20
6.9714303294
 30
0.0
 10
11.1549414585
 20
6.977958653
 30
0.0
 10
11.1587563719
 20
6.9841829443
 30
0.0
 10
11.1611915141
 20
6.9895977867
 30
0.0
 10
11.162174891
 20
6.9924444427
 30
0.0
 10
11.1626006904
 20
6.9938958115
 30
0.0
  0
SPLINE
  5
3FC
100
AcDbEntity
  8
0
100
AcDbSpline
 62
7
  6
CONTINUOUS
 70
0
 71
3
 72
13
 73
9
 74
0
 42
0.0000001
 43
0.0000001
 44
0.0000000001
 40
0.0
 40
0.0
 40
0.0
 40
0.0
 40
0.2714758977
 40
0.4022598329
 40
0.5292806451
 40
0.6524186518
 40
0.7717570571
 40
1.0
 40
1.0
 40
1.0
 40
1.0
 10
11.063941898
 20
7.0212587828
 30
0.0
 10
11.0645603467
 20
7.0240326433
 30
0.0
 10
11.0657588033
 20
7.0280887412
 30
0.0
 10
11.0678898927
 20
7.0332069508
 30
0.0
 10
11.0696856738
 20
7.0367718426
 30
0.0
 10
11.0716763146
 20
7.0400927226
 30
0.0
 10
11.0745124855
 20
7.0441260822
 30
0.0
 10
11.0769129834
 20
7.0468804275
 30
0.0
 10
11.0786025608
 20
7.0485699437
 30
0.0
  0
SPLINE
  5
3FD
100
AcDbEntity
  8
0
100
AcDbSpline
 62
7
  6
CONTINUOUS
 70
0
 71
3
 72
11
 73
7
 74
0
 42
0.0000001
 43
0.0000001
 44
0.0000000001
 40
0.0
 40
0.0
 40
0.0
 40
0.0
 40
0.278933787
 40
0.5388970042
 40
0.7789313197
 40
1.0
 40
1.0
 40
1.0
 40
1.0
 10
11.1300489648
 20
6.9938958115
 30
0.0
 10
11.1305941594
 20
6.9910625497
 30
0.0
 10
11.1319947651
 20
6.9856485287
 30
0.0
 10
11.1349850936
 20
6.9781448059
 30
0.0
 10
11.1386076898
 20
6.9716027173
 30
0.0
 10
11.1414541857
 20
6.9677544107
 30
0.0
 10
11.1429426644
 20
6.966018496
 30
0.0
  0
SPLINE
  5
3FE
100
AcDbEntity
  8
0
100
AcDbSpline
 62
7
  6
CONTINUOUS
 70
0
 71
3
 72
8
 73
4
 74
0
 42
0.0000001
 43
0.0000001
 44
0.0000000001
 40
0.0
 40
0.0
 40
0.0
 40
0.0
 40
1.0
 40
1.0
 40
1.0
 40
1.0
 10
11.5170626726
 20
7.0486272621
 30
0.0
 10
11.5170845597
 20
7.0486081578
 30
0.0
 10
11.5171064468
 20
7.0485890536
 30
0.0
 10
11.5171283338
 20
7.0485699494
 30
0.0
  0
LINE
  5
3FF
100
AcDbEntity
  8
0
100
AcDbLine
 62
7
  6
CONTINUOUS
 10
11.5137608966
 20
7.0486834238
 11
11.5138981745
 21
7.0485699614
  0
SPLINE
  5
400
100
AcDbEntity
  8
0
100
AcDbSpline
 62
7
  6
CONTINUOUS
 70
0
 71
3
 72
12
 73
8
 74
0
 42
0.0000001
 43
0.0000001
 44
0.0000000001
 40
0.0
 40
0.0
 40
0.0
 40
0.0
 40
0.2376732073
 40
0.4831410192
 40
0.7371961774
 40
0.8675940821
 40
1.0
 40
1.0
 40
1.0
 40
1.0
 10
11.1113166634
 20
6.966018496
 30
0.0
 10
11.1134235767
 20
6.9677097889
 30
0.0
 10
11.1174732077
 20
6.9714512519
 30
0.0
 10
11.1227676036
 20
6.9779835067
 30
0.0
 10
11.1263926444
 20
6.9841980003
 30
0.0
 10
11.1287084252
 20
6.9896038498
 30
0.0
 10
11.1296437239
 20
6.9924462563
 30
0.0
 10
11.1300489648
 20
6.9938958115
 30
0.0
  0
SPLINE
  5
401
100
AcDbEntity
  8
0
100
AcDbSpline
 62
7
  6
CONTINUOUS
 70
0
 71
3
 72
11
 73
7
 74
0
 42
0.0000001
 43
0.0000001
 44
0.0000000001
 40
0.0
 40
0.0
 40
0.0
 40
0.0
 40
0.2753141642
 40
0.5339277721
 40
0.7751490931
 40
1.0
 40
1.0
 40
1.0
 40
1.0
 10
11.0971115108
 20
6.9938958115
 30
0.0
 10
11.0977139009
 20
6.9910543314
 30
0.0
 10
11.0992662724
 20
6.9856169524
 30
0.0
 10
11.1025680737
 20
6.9781091265
 30
0.0
 10
11.1065663517
 20
6.9715662352
 30
0.0
 10
11.1096876228
 20
6.9677429408
 30
0.0
 10
11.1113166634
 20
6.966018496
 30
0.0
  0
SPLINE
  5
402
100
AcDbEntity
  8
0
100
AcDbSpline
 62
7
  6
CONTINUOUS
 70
0
 71
3
 72
11
 73
7
 74
0
 42
0.0000001
 43
0.0000001
 44
0.0000000001
 40
0.0
 40
0.0
 40
0.0
 40
0.0
 40
0.2349167468
 40
0.479469261
 40
0.7345555198
 40
1.0
 40
1.0
 40
1.0
 40
1.0
 10
11.0793922726
 20
6.966018496
 30
0.0
 10
11.0813929668
 20
6.9677163447
 30
0.0
 10
11.0852371305
 20
6.9714749388
 30
0.0
 10
11.0902423218
 20
6.9780122552
 30
0.0
 10
11.0943831411
 20
6.9855248753
 30
0.0
 10
11.09635349
 20
6.9910293328
 30
0.0
 10
11.0971115108
 20
6.9938958115
 30
0.0
  0
SPLINE
  5
403
100
AcDbEntity
  8
0
100
AcDbSpline
 62
7
  6
CONTINUOUS
 70
0
 71
3
 72
11
 73
7
 74
0
 42
0.0000001
 43
0.0000001
 44
0.0000000001
 40
0.0
 40
0.0
 40
0.0
 40
0.0
 40
0.2718250454
 40
0.529166114
 40
0.7715498927
 40
1.0
 40
1.0
 40
1.0
 40
1.0
 10
11.063941898
 20
6.9938958115
 30
0.0
 10
11.0645990268
 20
6.9910459473
 30
0.0
 10
11.0662976065
 20
6.9855854118
 30
0.0
 10
11.0698961056
 20
6.9780747802
 30
0.0
 10
11.0742513184
 20
6.971532621
 30
0.0
 10
11.077630832
 20
6.9677328175
 30
0.0
 10
11.0793922726
 20
6.966018496
 30
0.0
  0
SPLINE
  5
404
100
AcDbEntity
  8
0
100
AcDbSpline
 62
7
  6
CONTINUOUS
 70
0
 71
3
 72
11
 73
7
 74
0
 42
0.0000001
 43
0.0000001
 44
0.0000000001
 40
0.0
 40
0.0
 40
0.0
 40
0.0
 40
0.2318162727
 40
0.4753161479
 40
0.7314782069
 40
1.0
 40
1.0
 40
1.0
 40
1.0
 10
11.0473183383
 20
6.966018496
 30
0.0
 10
11.049203764
 20
6.9677239841
 30
0.0
 10
11.0528244201
 20
6.9715021603
 30
0.0
 10
11.0575158519
 20
6.9780423514
 30
0.0
 10
11.0613945534
 20
6.9855545374
 30
0.0
 10
11.0632327915
 20
6.9910375624
 30
0.0
 10
11.063941898
 20
6.9938958115
 30
0.0
  0
SPLINE
  5
405
100
AcDbEntity
  8
0
100
AcDbSpline
 62
7
  6
CONTINUOUS
 70
0
 71
3
 72
11
 73
7
 74
0
 42
0.0000001
 43
0.0000001
 44
0.0000000001
 40
0.0
 40
0.0
 40
0.0
 40
0.0
 40
0.2685217895
 40
0.5246838481
 40
0.7681837304
 40
1.0
 40
1.0
 40
1.0
 40
1.0
 10
11.0306947785
 20
6.9938958115
 30
0.0
 10
11.031403885
 20
6.9910375624
 30
0.0
 10
11.0332421231
 20
6.9855545375
 30
0.0
 10
11.0371208246
 20
6.9780423514
 30
0.0
 10
11.0418122565
 20
6.9715021603
 30
0.0
 10
11.0454329126
 20
6.967723984
 30
0.0
 10
11.0473183383
 20
6.966018496
 30
0.0
  0
SPLINE
  5
406
100
AcDbEntity
  8
0
100
AcDbSpline
 62
7
  6
CONTINUOUS
 70
0
 71
3
 72
11
 73
7
 74
0
 42
0.0000001
 43
0.0000001
 44
0.0000000001
 40
0.0
 40
0.0
 40
0.0
 40
0.0
 40
0.2284501104
 40
0.470833882
 40
0.7281749509
 40
1.0
 40
1.0
 40
1.0
 40
1.0
 10
11.015244404
 20
6.966018496
 30
0.0
 10
11.0170058446
 20
6.9677328176
 30
0.0
 10
11.0203853582
 20
6.971532621
 30
0.0
 10
11.024740571
 20
6.9780747801
 30
0.0
 10
11.02833907
 20
6.9855854117
 30
0.0
 10
11.0300376497
 20
6.9910459473
 30
0.0
 10
11.0306947785
 20
6.9938958115
 30
0.0
  0
SPLINE
  5
407
100
AcDbEntity
  8
0
100
AcDbSpline
 62
7
  6
CONTINUOUS
 70
0
 71
3
 72
11
 73
7
 74
0
 42
0.0000001
 43
0.0000001
 44
0.0000000001
 40
0.0
 40
0.0
 40
0.0
 40
0.0
 40
0.2654444766
 40
0.520530735
 40
0.7650832564
 40
1.0
 40
1.0
 40
1.0
 40
1.0
 10
10.9975251658
 20
6.9938958115
 30
0.0
 10
10.9982831865
 20
6.9910293329
 30
0.0
 10
11.0002535355
 20
6.9855248754
 30
0.0
 10
11.0043943547
 20
6.9780122552
 30
0.0
 10
11.009399546
 20
6.9714749388
 30
0.0
 10
11.0132437098
 20
6.9677163446
 30
0.0
 10
11.015244404
 20
6.966018496
 30
0.0
  0
SPLINE
  5
408
100
AcDbEntity
  8
0
100
AcDbSpline
 62
7
  6
CONTINUOUS
 70
0
 71
3
 72
11
 73
7
 74
0
 42
0.0000001
 43
0.0000001
 44
0.0000000001
 40
0.0
 40
0.0
 40
0.0
 40
0.0
 40
0.2248508966
 40
0.4660722222
 40
0.7246858412
 40
1.0
 40
1.0
 40
1.0
 40
1.0
 10
10.9833200132
 20
6.966018496
 30
0.0
 10
10.9849490537
 20
6.9677429407
 30
0.0
 10
10.9880703248
 20
6.971566235
 30
0.0
 10
10.9920686029
 20
6.9781091264
 30
0.0
 10
10.9953704041
 20
6.9856169524
 30
0.0
 10
10.9969227756
 20
6.9910543315
 30
0.0
 10
10.9975251658
 20
6.9938958115
 30
0.0
  0
SPLINE
  5
409
100
AcDbEntity
  8
0
100
AcDbSpline
 62
7
  6
CONTINUOUS
 70
0
 71
3
 72
12
 73
8
 74
0
 42
0.0000001
 43
0.0000001
 44
0.0000000001
 40
0.0
 40
0.0
 40
0.0
 40
0.0
 40
0.1324059091
 40
0.2628038191
 40
0.5168589768
 40
0.7623267959
 40
1.0
 40
1.0
 40
1.0
 40
1.0
 10
10.9645877118
 20
6.9938958115
 30
0.0
 10
10.9649929526
 20
6.9924462564
 30
0.0
 10
10.9659282513
 20
6.98960385
 30
0.0
 10
10.9682440321
 20
6.9841980005
 30
0.0
 10
10.9718690729
 20
6.9779835068
 30
0.0
 10
10.9771634689
 20
6.9714512519
 30
0.0
 10
10.9812130999
 20
6.9677097889
 30
0.0
 10
10.9833200132
 20
6.966018496
 30
0.0
  0
LINE
  5
40A
100
AcDbEntity
  8
0
100
AcDbLine
 62
7
  6
CONTINUOUS
 10
11.3680771916
 20
7.0485677641
 11
11.3681183156
 21
7.0493711077
  0
LINE
  5
40B
100
AcDbEntity
  8
0
100
AcDbLine
 62
7
  6
CONTINUOUS
 10
10.726518361
 20
7.0493713449
 11
10.7265594044
 21
7.0485695275
  0
SPLINE
  5
40C
100
AcDbEntity
  8
0
100
AcDbSpline
 62
7
  6
CONTINUOUS
 70
0
 71
3
 72
11
 73
7
 74
0
 42
0.0000001
 43
0.0000001
 44
0.0000000001
 40
0.0
 40
0.0
 40
0.0
 40
0.0
 40
0.2210686833
 40
0.4611029918
 40
0.7210662092
 40
1.0
 40
1.0
 40
1.0
 40
1.0
 10
10.9516940121
 20
6.966018496
 30
0.0
 10
10.9531824909
 20
6.9677544108
 30
0.0
 10
10.9560289867
 20
6.9716027173
 30
0.0
 10
10.959651583
 20
6.9781448059
 30
0.0
 10
10.9626419114
 20
6.9856485286
 30
0.0
 10
10.9640425171
 20
6.9910625497
 30
0.0
 10
10.9645877118
 20
6.9938958115
 30
0.0
  0
SPLINE
  5
40D
100
AcDbEntity
  8
0
100
AcDbSpline
 62
7
  6
CONTINUOUS
 70
0
 71
3
 72
12
 73
8
 74
0
 42
0.0000001
 43
0.0000001
 44
0.0000000001
 40
0.0
 40
0.0
 40
0.0
 40
0.0
 40
0.1309394479
 40
0.2602636412
 40
0.513455854
 40
0.7598101556
 40
1.0
 40
1.0
 40
1.0
 40
1.0
 10
10.9320359861
 20
6.9938958115
 30
0.0
 10
10.9324617855
 20
6.9924444428
 30
0.0
 10
10.9334451624
 20
6.9895977869
 30
0.0
 10
10.9358803047
 20
6.9841829445
 30
0.0
 10
10.939695218
 20
6.977958653
 30
0.0
 10
10.9452539621
 20
6.9714303294
 30
0.0
 10
10.9494902764
 20
6.9677042061
 30
0.0
 10
10.9516940121
 20
6.966018496
 30
0.0
  0
SPLINE
  5
40E
100
AcDbEntity
  8
0
100
AcDbSpline
 62
7
  6
CONTINUOUS
 70
0
 71
3
 72
11
 73
7
 74
0
 42
0.0000001
 43
0.0000001
 44
0.0000000001
 40
0.0
 40
0.0
 40
0.0
 40
0.0
 40
0.2171748488
 40
0.4560242857
 40
0.7173891963
 40
1.0
 40
1.0
 40
1.0
 40
1.0
 10
10.9205138558
 20
6.966018496
 30
0.0
 10
10.9218538032
 20
6.9677672079
 30
0.0
 10
10.9244096366
 20
6.9716415027
 30
0.0
 10
10.9276399983
 20
6.9781810449
 30
0.0
 10
10.9303059004
 20
6.9856794347
 30
0.0
 10
10.931550142
 20
6.9910704318
 30
0.0
 10
10.9320359861
 20
6.9938958115
 30
0.0
  0
SPLINE
  5
40F
100
AcDbEntity
  8
0
100
AcDbSpline
 62
7
  6
CONTINUOUS
 70
0
 71
3
 72
12
 73
8
 74
0
 42
0.0000001
 43
0.0000001
 44
0.0000000001
 40
0.0
 40
0.0
 40
0.0
 40
0.0
 40
0.129632325
 40
0.2580037283
 40
0.5104409633
 40
0.7575901201
 40
1.0
 40
1.0
 40
1.0
 40
1.0
 10
10.9000217601
 20
6.9938958115
 30
0.0
 10
10.9004661403
 20
6.9924427599
 30
0.0
 10
10.9014930177
 20
6.9895922099
 30
0.0
 10
10.9040361244
 20
6.9841692662
 30
0.0
 10
10.9080226626
 20
6.9779366515
 30
0.0
 10
10.9138192374
 20
6.9714123065
 30
0.0
 10
10.9182230405
 20
6.9676994932
 30
0.0
 10
10.9205138558
 20
6.966018496
 30
0.0
  0
SPLINE
  5
410
100
AcDbEntity
  8
0
100
AcDbSpline
 62
7
  6
CONTINUOUS
 70
0
 71
3
 72
12
 73
8
 74
0
 42
0.0000001
 43
0.0000001
 44
0.0000000001
 40
0.0
 40
0.0
 40
0.0
 40
0.0
 40
0.2401898476
 40
0.4865441421
 40
0.7397363553
 40
0.8690605435
 40
1.0
 40
1.0
 40
1.0
 40
1.0
 10
11.5074878595
 20
6.966018496
 30
0.0
 10
11.5096915952
 20
6.9677042062
 30
0.0
 10
11.5139279096
 20
6.9714303294
 30
0.0
 10
11.5194866536
 20
6.977958653
 30
0.0
 10
11.5233015669
 20
6.9841829443
 30
0.0
 10
11.5257367092
 20
6.9895977867
 30
0.0
 10
11.5267200861
 20
6.9924444427
 30
0.0
 10
11.5271458855
 20
6.9938958115
 30
0.0
  0
SPLINE
  5
411
100
AcDbEntity
  8
0
100
AcDbSpline
 62
7
  6
CONTINUOUS
 70
0
 71
3
 72
13
 73
9
 74
0
 42
0.0000001
 43
0.0000001
 44
0.0000000001
 40
0.0
 40
0.0
 40
0.0
 40
0.0
 40
0.2132268715
 40
0.3289671735
 40
0.4509733599
 40
0.5792851319
 40
0.7137992302
 40
1.0
 40
1.0
 40
1.0
 40
1.0
 10
10.8899249206
 20
6.966018496
 30
0.0
 10
10.8911085002
 20
6.9677811835
 30
0.0
 10
10.8927507755
 20
6.9706277743
 30
0.0
 10
10.8946596655
 20
6.9746937109
 30
0.0
 10
10.8960242642
 20
6.9780758193
 30
0.0
 10
10.8972664772
 20
6.9817027605
 30
0.0
 10
10.8987660542
 20
6.986961752
 30
0.0
 10
10.8995971261
 20
6.9910778057
 30
0.0
 10
10.9000217601
 20
6.9938958115
 30
0.0
  0
SPLINE
  5
412
100
AcDbEntity
  8
0
100
AcDbSpline
 62
7
  6
CONTINUOUS
 70
0
 71
3
 72
12
 73
8
 74
0
 42
0.0000001
 43
0.0000001
 44
0.0000000001
 40
0.0
 40
0.0
 40
0.0
 40
0.0
 40
0.1284883268
 40
0.256029195
 40
0.5078166492
 40
0.7556648555
 40
1.0
 40
1.0
 40
1.0
 40
1.0
 10
10.8686942986
 20
6.9938958115
 30
0.0
 10
10.8691551778
 20
6.9924412332
 30
0.0
 10
10.8702207171
 20
6.9895871911
 30
0.0
 10
10.872859744
 20
6.9841570956
 30
0.0
 10
10.8769986332
 20
6.9779175233
 30
0.0
 10
10.8830054988
 20
6.9713970031
 30
0.0
 10
10.8875571005
 20
6.9676955586
 30
0.0
 10
10.8899249206
 20
6.966018496
 30
0.0
  0
SPLINE
  5
413
100
AcDbEntity
  8
0
100
AcDbSpline
 62
7
  6
CONTINUOUS
 70
0
 71
3
 72
14
 73
10
 74
0
 42
0.0000001
 43
0.0000001
 44
0.0000000001
 40
0.0
 40
0.0
 40
0.0
 40
0.0
 40
0.1014310263
 40
0.2094989358
 40
0.324357261
 40
0.4461333634
 40
0.5748343644
 40
0.7103170864
 40
1.0
 40
1.0
 40
1.0
 40
1.0
 10
10.8600698261
 20
6.966018496
 30
0.0
 10
10.8605636114
 20
6.9668794282
 30
0.0
 10
10.8615282208
 20
6.9686897691
 30
0.0
 10
10.8628622516
 20
6.9715711635
 30
0.0
 10
10.8641176622
 20
6.9747032752
 30
0.0
 10
10.8652824362
 20
6.9780843697
 30
0.0
 10
10.8663428695
 20
6.9817105017
 30
0.0
 10
10.8676251838
 20
6.9869774406
 30
0.0
 10
10.8683324488
 20
6.9910845034
 30
0.0
 10
10.8686942986
 20
6.9938958115
 30
0.0
  0
SPLINE
  5
414
100
AcDbEntity
  8
0
100
AcDbSpline
 62
7
  6
CONTINUOUS
 70
0
 71
3
 72
13
 73
9
 74
0
 42
0.0000001
 43
0.0000001
 44
0.0000000001
 40
0.0
 40
0.0
 40
0.0
 40
0.0
 40
0.1274800792
 40
0.2542836849
 40
0.3803518675
 40
0.5056935196
 40
0.7540858947
 40
1.0
 40
1.0
 40
1.0
 40
1.0
 10
10.8381996649
 20
6.9938958115
 30
0.0
 10
10.8386748675
 20
6.992439885
 30
0.0
 10
10.839773884
 20
6.9895829362
 30
0.0
 10
10.8418228756
 20
6.9854916189
 30
0.0
 10
10.8442205967
 20
6.9816248186
 30
0.0
 10
10.8478102461
 20
6.9768039835
 30
0.0
 10
10.8529567971
 20
6.9713832311
 30
0.0
 10
10.8576353841
 20
6.9676923236
 30
0.0
 10
10.8600698261
 20
6.966018496
 30
0.0
  0
SPLINE
  5
415
100
AcDbEntity
  8
0
100
AcDbSpline
 62
7
  6
CONTINUOUS
 70
0
 71
3
 72
15
 73
11
 74
0
 42
0.0000001
 43
0.0000001
 44
0.0000000001
 40
0.0
 40
0.0
 40
0.0
 40
0.0
 40
0.1266026685
 40
0.2527933353
 40
0.3785068517
 40
0.5037315701
 40
0.6284609343
 40
0.7527142243
 40
0.8765596539
 40
1.0
 40
1.0
 40
1.0
 40
1.0
 10
11.2859566376
 20
7.0212587828
 30
0.0
 10
11.2854991341
 20
7.0226736528
 30
0.0
 10
11.284449552
 20
7.0254567456
 30
0.0
 10
11.2824975008
 20
7.02945756
 30
0.0
 10
11.280200872
 20
7.033252152
 30
0.0
 10
11.2775907217
 20
7.0368164842
 30
0.0
 10
11.2747002607
 20
7.040134151
 30
0.0
 10
11.2715674813
 20
7.0431999038
 30
0.0
 10
11.268232514
 20
7.0460196437
 30
0.0
 10
11.2658920692
 20
7.047743594
 30
0.0
 10
11.2646984299
 20
7.0485665819
 30
0.0
  0
SPLINE
  5
416
100
AcDbEntity
  8
0
100
AcDbSpline
 62
7
  6
CONTINUOUS
 70
0
 71
3
 72
12
 73
8
 74
0
 42
0.0000001
 43
0.0000001
 44
0.0000000001
 40
0.0
 40
0.0
 40
0.0
 40
0.0
 40
0.2424098677
 40
0.4895590295
 40
0.741996277
 40
0.8703676854
 40
1.0
 40
1.0
 40
1.0
 40
1.0
 10
11.4998894633
 20
6.966018496
 30
0.0
 10
11.5021802786
 20
6.9676994932
 30
0.0
 10
11.5065840816
 20
6.9714123063
 30
0.0
 10
11.5123806565
 20
6.9779366514
 30
0.0
 10
11.5163671948
 20
6.9841692663
 30
0.0
 10
11.5189103016
 20
6.98959221
 30
0.0
 10
11.5199371789
 20
6.99244276
 30
0.0
 10
11.5203815591
 20
6.9938958115
 30
0.0
  0
SPLINE
  5
417
100
AcDbEntity
  8
0
100
AcDbSpline
 62
7
  6
CONTINUOUS
 70
0
 71
3
 72
13
 73
9
 74
0
 42
0.0000001
 43
0.0000001
 44
0.0000000001
 40
0.0
 40
0.0
 40
0.0
 40
0.0
 40
0.29468893
 40
0.4321278509
 40
0.5619119643
 40
0.796909039
 40
0.902302035
 40
1.0
 40
1.0
 40
1.0
 40
1.0
 10
11.2859566376
 20
7.0212587828
 30
0.0
 10
11.2861760025
 20
7.0239898447
 30
0.0
 10
11.2865975038
 20
7.0279880026
 30
0.0
 10
11.2873704884
 20
7.0331555393
 30
0.0
 10
11.2882021766
 20
7.0377507143
 30
0.0
 10
11.2891863967
 20
7.0420143896
 30
0.0
 10
11.2903295153
 20
7.0459246295
 30
0.0
 10
11.2909304143
 20
7.0477153748
 30
0.0
 10
11.2912382944
 20
7.0485699484
 30
0.0
  0
SPLINE
  5
418
100
AcDbEntity
  8
0
100
AcDbSpline
 62
7
  6
CONTINUOUS
 70
0
 71
3
 72
14
 73
10
 74
0
 42
0.0000001
 43
0.0000001
 44
0.0000000001
 40
0.0
 40
0.0
 40
0.0
 40
0.0
 40
0.2888679687
 40
0.4245861243
 40
0.5536053786
 40
0.6755534417
 40
0.7903957738
 40
0.8984322921
 40
1.0
 40
1.0
 40
1.0
 40
1.0
 10
10.8686942986
 20
7.0212587828
 30
0.0
 10
10.8683532467
 20
7.0239991447
 30
0.0
 10
10.8676964999
 20
7.0280109256
 30
0.0
 10
10.8665005264
 20
7.0331676724
 30
0.0
 10
10.865501389
 20
7.0367282082
 30
0.0
 10
10.8643935758
 20
7.0400466576
 30
0.0
 10
10.8631909089
 20
7.0431175095
 30
0.0
 10
10.8619095684
 20
7.0459435985
 30
0.0
 10
10.8609839214
 20
7.0477221193
 30
0.0
 10
10.8605106525
 20
7.0485699294
 30
0.0
  0
SPLINE
  5
419
100
AcDbEntity
  8
0
100
AcDbSpline
 62
7
  6
CONTINUOUS
 70
0
 71
3
 72
15
 73
11
 74
0
 42
0.0000001
 43
0.0000001
 44
0.0000000001
 40
0.0
 40
0.0
 40
0.0
 40
0.0
 40
0.1283632782
 40
0.2558594667
 40
0.3823699382
 40
0.5078516898
 40
0.6322915523
 40
0.7557313003
 40
0.8782835337
 40
1.0
 40
1.0
 40
1.0
 40
1.0
 10
10.8686942986
 20
7.0212587828
 30
0.0
 10
10.8691270965
 20
7.0226714583
 30
0.0
 10
10.8701192416
 20
7.0254494028
 30
0.0
 10
10.8719676405
 20
7.0294496264
 30
0.0
 10
10.8741425853
 20
7.0332440312
 30
0.0
 10
10.8766147951
 20
7.0368086395
 30
0.0
 10
10.8793529687
 20
7.0401270276
 30
0.0
 10
10.8823211526
 20
7.0431937574
 30
0.0
 10
10.885481072
 20
7.0460144455
 30
0.0
 10
10.887702425
 20
7.0477418282
 30
0.0
 10
10.8888352151
 20
7.0485661656
 30
0.0
  0
SPLINE
  5
41A
100
AcDbEntity
  8
0
100
AcDbSpline
 62
7
  6
CONTINUOUS
 70
0
 71
3
 72
14
 73
10
 74
0
 42
0.0000001
 43
0.0000001
 44
0.0000000001
 40
0.0
 40
0.0
 40
0.0
 40
0.0
 40
0.2919690031
 40
0.4286000442
 40
0.5580205487
 40
0.6797996902
 40
0.7938638897
 40
0.9004904867
 40
1.0
 40
1.0
 40
1.0
 40
1.0
 10
10.8381996649
 20
7.0212587828
 30
0.0
 10
10.8379189906
 20
7.0239936564
 30
0.0
 10
10.8373791521
 20
7.0279975139
 30
0.0
 10
10.8363923711
 20
7.0331593816
 30
0.0
 10
10.8355692063
 20
7.0367183358
 30
0.0
 10
10.8346565281
 20
7.0400354882
 30
0.0
 10
10.8336656755
 20
7.0431053998
 30
0.0
 10
10.8326099811
 20
7.0459306903
 30
0.0
 10
10.8318444421
 20
7.0477153788
 30
0.0
 10
10.8314526338
 20
7.0485665297
 30
0.0
  0
SPLINE
  5
41B
100
AcDbEntity
  8
0
100
AcDbSpline
 62
7
  6
CONTINUOUS
 70
0
 71
3
 72
15
 73
11
 74
0
 42
0.0000001
 43
0.0000001
 44
0.0000000001
 40
0.0
 40
0.0
 40
0.0
 40
0.0
 40
0.1274027807
 40
0.254185787
 40
0.3802598988
 40
0.5055997999
 40
0.6301964415
 40
0.7540798923
 40
0.8773393093
 40
1.0
 40
1.0
 40
1.0
 40
1.0
 10
10.8381996649
 20
7.0212587828
 30
0.0
 10
10.8386459467
 20
7.0226728734
 30
0.0
 10
10.83966945
 20
7.0254540521
 30
0.0
 10
10.8415745534
 20
7.0294552212
 30
0.0
 10
10.84381611
 20
7.0332502774
 30
0.0
 10
10.8463638505
 20
7.0368152026
 30
0.0
 10
10.8491854223
 20
7.0401335763
 30
0.0
 10
10.8522437841
 20
7.0432000215
 30
0.0
 10
10.8554994886
 20
7.0460204762
 30
0.0
 10
10.8577859478
 20
7.0477462194
 30
0.0
 10
10.8589519879
 20
7.0485699492
 30
0.0
  0
SPLINE
  5
41C
100
AcDbEntity
  8
0
100
AcDbSpline
 62
7
  6
CONTINUOUS
 70
0
 71
3
 72
14
 73
10
 74
0
 42
0.0000001
 43
0.0000001
 44
0.0000000001
 40
0.0
 40
0.0
 40
0.0
 40
0.0
 40
0.2854812848
 40
0.4202155459
 40
0.5488128672
 40
0.6709608866
 40
0.7866634745
 40
0.896231138
 40
1.0
 40
1.0
 40
1.0
 40
1.0
 10
10.9000217601
 20
7.0212587828
 30
0.0
 10
10.899621708
 20
7.0240044698
 30
0.0
 10
10.8988504058
 20
7.0280237631
 30
0.0
 10
10.8974518705
 20
7.033173002
 30
0.0
 10
10.8962816336
 20
7.036734164
 30
0.0
 10
10.8949841339
 20
7.0400530296
 30
0.0
 10
10.8935756392
 20
7.0431240125
 30
0.0
 10
10.8920750392
 20
7.0459500781
 30
0.0
 10
10.8909949814
 20
7.0477217916
 30
0.0
 10
10.8904432326
 20
7.0485660474
 30
0.0
  0
SPLINE
  5
41D
100
AcDbEntity
  8
0
100
AcDbSpline
 62
7
  6
CONTINUOUS
 70
0
 71
3
 72
15
 73
11
 74
0
 42
0.0000001
 43
0.0000001
 44
0.0000000001
 40
0.0
 40
0.0
 40
0.0
 40
0.0
 40
0.1294847226
 40
0.2578162535
 40
0.3848404114
 40
0.5104921521
 40
0.6347516052
 40
0.7576726098
 40
0.8793947258
 40
1.0
 40
1.0
 40
1.0
 40
1.0
 10
10.9000217601
 20
7.0212587828
 30
0.0
 10
10.9004391693
 20
7.0226703309
 30
0.0
 10
10.9013955949
 20
7.0254455038
 30
0.0
 10
10.9031793508
 20
7.0294458636
 30
0.0
 10
10.9052784047
 20
7.0332405742
 30
0.0
 10
10.9076645648
 20
7.0368057009
 30
0.0
 10
10.9103077173
 20
7.0401248219
 30
0.0
 10
10.9131732107
 20
7.0431923708
 30
0.0
 10
10.9162238513
 20
7.0460138807
 30
0.0
 10
10.9183707494
 20
7.047743754
 30
0.0
 10
10.9194655005
 20
7.0485691289
 30
0.0
  0
SPLINE
  5
41E
100
AcDbEntity
  8
0
100
AcDbSpline
 62
7
  6
CONTINUOUS
 70
0
 71
3
 72
14
 73
10
 74
0
 42
0.0000001
 43
0.0000001
 44
0.0000000001
 40
0.0
 40
0.0
 40
0.0
 40
0.0
 40
0.0993156644
 40
0.2059442525
 40
0.320006606
 40
0.4415953953
 40
0.5706813899
 40
0.7070800789
 40
1.0
 40
1.0
 40
1.0
 40
1.0
 10
10.8310877705
 20
6.966018496
 30
0.0
 10
10.8314967391
 20
6.9668832008
 30
0.0
 10
10.8322946725
 20
6.9687002906
 30
0.0
 10
10.8333938746
 20
6.9715808406
 30
0.0
 10
10.8344283678
 20
6.9747120626
 30
0.0
 10
10.8353882421
 20
6.9780922847
 30
0.0
 10
10.8362621686
 20
6.9817174848
 30
0.0
 10
10.8373206053
 20
6.9869914117
 30
0.0
 10
10.8379018992
 20
6.9910903653
 30
0.0
 10
10.8381996649
 20
6.9938958115
 30
0.0
  0
SPLINE
  5
41F
100
AcDbEntity
  8
0
100
AcDbSpline
 62
7
  6
CONTINUOUS
 70
0
 71
3
 72
13
 73
9
 74
0
 42
0.0000001
 43
0.0000001
 44
0.0000000001
 40
0.0
 40
0.0
 40
0.0
 40
0.0
 40
0.1266656271
 40
0.2528817057
 40
0.3786041723
 40
0.5038443314
 40
0.7527367507
 40
1.0
 40
1.0
 40
1.0
 40
1.0
 10
10.8086800389
 20
6.9938958115
 30
0.0
 10
10.8091673071
 20
6.9924387336
 30
0.0
 10
10.8102946352
 20
6.9895792
 30
0.0
 10
10.8123944809
 20
6.9854878308
 30
0.0
 10
10.8148515026
 20
6.981621183
 30
0.0
 10
10.8185331536
 20
6.9767962384
 30
0.0
 10
10.8238117575
 20
6.9713728204
 30
0.0
 10
10.8285973657
 20
6.9676897227
 30
0.0
 10
10.8310877705
 20
6.966018496
 30
0.0
  0
SPLINE
  5
420
100
AcDbEntity
  8
0
100
AcDbSpline
 62
7
  6
CONTINUOUS
 70
0
 71
3
 72
13
 73
9
 74
0
 42
0.0000001
 43
0.0000001
 44
0.0000000001
 40
0.0
 40
0.0
 40
0.0
 40
0.0
 40
0.2714750988
 40
0.4022589487
 40
0.5292798749
 40
0.6524182417
 40
0.7717572322
 40
1.0
 40
1.0
 40
1.0
 40
1.0
 10
11.0306947785
 20
7.0212587828
 30
0.0
 10
11.0300763598
 20
7.0240325091
 30
0.0
 10
11.0288779737
 20
7.0280884158
 30
0.0
 10
11.0267470302
 20
7.033206404
 30
0.0
 10
11.0249513732
 20
7.0367711596
 30
0.0
 10
11.0229608694
 20
7.0400919287
 30
0.0
 10
11.0201249201
 20
7.0441251797
 30
0.0
 10
11.0177245497
 20
7.046879428
 30
0.0
 10
11.0160350472
 20
7.048568863
 30
0.0
  0
SPLINE
  5
421
100
AcDbEntity
  8
0
100
AcDbSpline
 62
7
  6
CONTINUOUS
 70
0
 71
3
 72
14
 73
10
 74
0
 42
0.0000001
 43
0.0000001
 44
0.0000000001
 40
0.0
 40
0.0
 40
0.0
 40
0.0
 40
0.0974407964
 40
0.2028068083
 40
0.3161804014
 40
0.4376167924
 40
0.567049971
 40
0.7042559899
 40
1.0
 40
1.0
 40
1.0
 40
1.0
 10
10.8031138818
 20
6.966018496
 30
0.0
 10
10.803435301
 20
6.9668868157
 30
0.0
 10
10.804061581
 20
6.968710073
 30
0.0
 10
10.8049211862
 20
6.9715896047
 30
0.0
 10
10.8057302705
 20
6.9747198444
 30
0.0
 10
10.8064810661
 20
6.9780991657
 30
0.0
 10
10.8071646759
 20
6.9817234657
 30
0.0
 10
10.8079937239
 20
6.9870032144
 30
0.0
 10
10.8084473968
 20
6.9910952472
 30
0.0
 10
10.8086800389
 20
6.9938958115
 30
0.0
  0
SPLINE
  5
422
100
AcDbEntity
  8
0
100
AcDbSpline
 62
7
  6
CONTINUOUS
 70
0
 71
3
 72
12
 73
8
 74
0
 42
0.0000001
 43
0.0000001
 44
0.0000000001
 40
0.0
 40
0.0
 40
0.0
 40
0.0
 40
0.2682854496
 40
0.5247363695
 40
0.6481548694
 40
0.7683637426
 40
1.0
 40
1.0
 40
1.0
 40
1.0
 10
11.0306947785
 20
7.0212587828
 30
0.0
 10
11.0313618293
 20
7.0240394875
 30
0.0
 10
11.0330652166
 20
7.0293917436
 30
0.0
 10
11.0361278483
 20
7.0356148516
 30
0.0
 10
11.0390201501
 20
7.0400978799
 30
0.0
 10
11.0420789798
 20
7.0441400723
 30
0.0
 10
11.0446566678
 20
7.0468854508
 30
0.0
 10
11.046465173
 20
7.0485662432
 30
0.0
  0
SPLINE
  5
423
100
AcDbEntity
  8
0
100
AcDbSpline
 62
7
  6
CONTINUOUS
 70
0
 71
3
 72
13
 73
9
 74
0
 42
0.0000001
 43
0.0000001
 44
0.0000000001
 40
0.0
 40
0.0
 40
0.0
 40
0.0
 40
0.1260157502
 40
0.2517642059
 40
0.3772126223
 40
0.5023735642
 40
0.7516660132
 40
1.0
 40
1.0
 40
1.0
 40
1.0
 10
10.7802730549
 20
6.9938958115
 30
0.0
 10
10.780770061
 20
6.9924377946
 30
0.0
 10
10.7819202505
 20
6.9895761686
 30
0.0
 10
10.784061075
 20
6.9854847782
 30
0.0
 10
10.7865658703
 20
6.9816182737
 30
0.0
 10
10.790321718
 20
6.9767900871
 30
0.0
 10
10.7957067205
 20
6.9713646627
 30
0.0
 10
10.8005784107
 20
6.9676877028
 30
0.0
 10
10.8031138818
 20
6.966018496
 30
0.0
  0
SPLINE
  5
424
100
AcDbEntity
  8
0
100
AcDbSpline
 62
7
  6
CONTINUOUS
 70
0
 71
3
 72
15
 73
11
 74
0
 42
0.0000001
 43
0.0000001
 44
0.0000000001
 40
0.0
 40
0.0
 40
0.0
 40
0.0
 40
0.1294844568
 40
0.2578158336
 40
0.3848399691
 40
0.5104917729
 40
0.6347514327
 40
0.7576727706
 40
0.8793949371
 40
1.0
 40
1.0
 40
1.0
 40
1.0
 10
11.1946149165
 20
7.0212587828
 30
0.0
 10
11.1941975406
 20
7.0226702183
 30
0.0
 10
11.1932412011
 20
7.0254451737
 30
0.0
 10
11.1914576273
 20
7.0294452354
 30
0.0
 10
11.1893588039
 20
7.0332396858
 30
0.0
 10
11.18697291
 20
7.0368045923
 30
0.0
 10
11.1843300533
 20
7.040123534
 30
0.0
 10
11.1814649049
 20
7.0431909679
 30
0.0
 10
11.1784145624
 20
7.046012331
 30
0.0
 10
11.1762678317
 20
7.0477420693
 30
0.0
 10
11.1751731651
 20
7.0485673752
 30
0.0
  0
SPLINE
  5
425
100
AcDbEntity
  8
0
100
AcDbSpline
 62
7
  6
CONTINUOUS
 70
0
 71
3
 72
14
 73
10
 74
0
 42
0.0000001
 43
0.0000001
 44
0.0000000001
 40
0.0
 40
0.0
 40
0.0
 40
0.0
 40
0.2854830237
 40
0.4202175793
 40
0.5488150108
 40
0.6709625435
 40
0.7866638655
 40
0.8962306922
 40
1.0
 40
1.0
 40
1.0
 40
1.0
 10
11.1946149165
 20
7.0212587828
 30
0.0
 10
11.1950149906
 20
7.0240046213
 30
0.0
 10
11.1957863441
 20
7.0280241304
 30
0.0
 10
11.1971849907
 20
7.0331736323
 30
0.0
 10
11.198355323
 20
7.0367349559
 30
0.0
 10
11.1996529306
 20
7.0400539503
 30
0.0
 10
11.2010615459
 20
7.0431250328
 30
0.0
 10
11.2025622601
 20
7.0459511967
 30
0.0
 10
11.2036423759
 20
7.0477229889
 30
0.0
 10
11.2041941526
 20
7.0485672907
 30
0.0
  0
SPLINE
  5
426
100
AcDbEntity
  8
0
100
AcDbSpline
 62
7
  6
CONTINUOUS
 70
0
 71
3
 72
12
 73
8
 74
0
 42
0.0000001
 43
0.0000001
 44
0.0000000001
 40
0.0
 40
0.0
 40
0.0
 40
0.0
 40
0.2443351477
 40
0.4921833469
 40
0.7439708015
 40
0.8715116647
 40
1.0
 40
1.0
 40
1.0
 40
1.0
 10
11.4901809717
 20
6.966018496
 30
0.0
 10
11.4925487918
 20
6.9676955586
 30
0.0
 10
11.4971003934
 20
6.9713970031
 30
0.0
 10
11.503107259
 20
6.9779175232
 30
0.0
 10
11.5072461481
 20
6.9841570955
 30
0.0
 10
11.5098851751
 20
6.989587191
 30
0.0
 10
11.5109507144
 20
6.9924412332
 30
0.0
 10
11.5114115936
 20
6.9938958115
 30
0.0
  0
SPLINE
  5
427
100
AcDbEntity
  8
0
100
AcDbSpline
 62
7
  6
CONTINUOUS
 70
0
 71
3
 72
13
 73
9
 74
0
 42
0.0000001
 43
0.0000001
 44
0.0000000001
 40
0.0
 40
0.0
 40
0.0
 40
0.0
 40
0.2652153531
 40
0.3942931504
 40
0.5206859097
 40
0.6443306128
 40
0.7653095566
 40
1.0
 40
1.0
 40
1.0
 40
1.0
 10
11.0971115108
 20
7.0212587828
 30
0.0
 10
11.0963985388
 20
7.0240471335
 30
0.0
 10
11.0950140471
 20
7.0281202948
 30
0.0
 10
11.0925758815
 20
7.0332219311
 30
0.0
 10
11.0905144248
 20
7.03678749
 30
0.0
 10
11.0882299374
 20
7.0401079679
 30
0.0
 10
11.0849610973
 20
7.0441583979
 30
0.0
 10
11.0822175992
 20
7.0468961519
 30
0.0
 10
11.0802980051
 20
7.0485698902
 30
0.0
  0
SPLINE
  5
428
100
AcDbEntity
  8
0
100
AcDbSpline
 62
7
  6
CONTINUOUS
 70
0
 71
3
 72
13
 73
9
 74
0
 42
0.0000001
 43
0.0000001
 44
0.0000000001
 40
0.0
 40
0.0
 40
0.0
 40
0.0
 40
0.2748819102
 40
0.4066107719
 40
0.533994803
 40
0.6568757921
 40
0.7753281544
 40
1.0
 40
1.0
 40
1.0
 40
1.0
 10
11.0971115108
 20
7.0212587828
 30
0.0
 10
11.097678514
 20
7.02402483
 30
0.0
 10
11.0987759282
 20
7.0280711313
 30
0.0
 10
11.100737091
 20
7.033196874
 30
0.0
 10
11.1023867525
 20
7.0367606632
 30
0.0
 10
11.1042156475
 20
7.0400810835
 30
0.0
 10
11.1068148007
 20
7.044103811
 30
0.0
 10
11.1090252848
 20
7.0468669906
 30
0.0
 10
11.1105872963
 20
7.0485658449
 30
0.0
  0
SPLINE
  5
429
100
AcDbEntity
  8
0
100
AcDbSpline
 62
7
  6
CONTINUOUS
 70
0
 71
3
 72
14
 73
10
 74
0
 42
0.0000001
 43
0.0000001
 44
0.0000000001
 40
0.0
 40
0.0
 40
0.0
 40
0.0
 40
0.0959117731
 40
0.2002574932
 40
0.3130811038
 40
0.4344025541
 40
0.5641227692
 40
0.7019838613
 40
1.0
 40
1.0
 40
1.0
 40
1.0
 10
10.7762785869
 20
6.966018496
 30
0.0
 10
10.7765100868
 20
6.9668899715
 30
0.0
 10
10.7769605824
 20
6.968718381
 30
0.0
 10
10.7775770123
 20
6.9715968791
 30
0.0
 10
10.778157281
 20
6.97472618
 30
0.0
 10
10.7786958005
 20
6.9781046816
 30
0.0
 10
10.779186161
 20
6.9817282007
 30
0.0
 10
10.7797814771
 20
6.9870124541
 30
0.0
 10
10.7801063281
 20
6.9910990252
 30
0.0
 10
10.7802730549
 20
6.9938958115
 30
0.0
  0
SPLINE
  5
42A
100
AcDbEntity
  8
0
100
AcDbSpline
 62
7
  6
CONTINUOUS
 70
0
 71
3
 72
15
 73
11
 74
0
 42
0.0000001
 43
0.0000001
 44
0.0000000001
 40
0.0
 40
0.0
 40
0.0
 40
0.0
 40
0.1259639298
 40
0.2516827952
 40
0.3771100941
 40
0.5022445892
 40
0.6270808773
 40
0.7516290239
 40
0.8759406134
 40
1.0
 40
1.0
 40
1.0
 40
1.0
 10
11.3143636216
 20
7.0212587828
 30
0.0
 10
11.313896936
 20
7.0226746829
 30
0.0
 10
11.3128259695
 20
7.0254600874
 30
0.0
 10
11.3108353924
 20
7.0294616313
 30
0.0
 10
11.3084935187
 20
7.0332567295
 30
0.0
 10
11.3058320846
 20
7.0368213262
 30
0.0
 10
11.3028850132
 20
7.0401390277
 30
0.0
 10
11.2996910111
 20
7.0432046105
 30
0.0
 10
11.2962910617
 20
7.046024264
 30
0.0
 10
11.2939064907
 20
7.0477472607
 30
0.0
 10
11.2926902999
 20
7.048569907
 30
0.0
  0
SPLINE
  5
42B
100
AcDbEntity
  8
0
100
AcDbSpline
 62
7
  6
CONTINUOUS
 70
0
 71
3
 72
13
 73
9
 74
0
 42
0.0000001
 43
0.0000001
 44
0.0000000001
 40
0.0
 40
0.0
 40
0.0
 40
0.0
 40
0.2968447404
 40
0.4349283473
 40
0.5650063565
 40
0.7993838286
 40
0.9037823943
 40
1.0
 40
1.0
 40
1.0
 40
1.0
 10
11.3143636216
 20
7.0212587828
 30
0.0
 10
11.3145208285
 20
7.0239860797
 30
0.0
 10
11.3148226494
 20
7.0279786379
 30
0.0
 10
11.3153774757
 20
7.0331489952
 30
0.0
 10
11.3159730361
 20
7.0377355245
 30
0.0
 10
11.3166775974
 20
7.0419947921
 30
0.0
 10
11.3174992067
 20
7.0459132126
 30
0.0
 10
11.3179313394
 20
7.0477085425
 30
0.0
 10
11.3181529895
 20
7.0485658307
 30
0.0
  0
SPLINE
  5
42C
100
AcDbEntity
  8
0
100
AcDbSpline
 62
7
  6
CONTINUOUS
 70
0
 71
3
 72
13
 73
9
 74
0
 42
0.0000001
 43
0.0000001
 44
0.0000000001
 40
0.0
 40
0.0
 40
0.0
 40
0.0
 40
0.2459141085
 40
0.4943064765
 40
0.6196481319
 40
0.7457163117
 40
0.8725199123
 40
1.0
 40
1.0
 40
1.0
 40
1.0
 10
11.47840765
 20
6.966018496
 30
0.0
 10
11.4808420919
 20
6.9676923236
 30
0.0
 10
11.4855206789
 20
6.9713832311
 30
0.0
 10
11.4906672299
 20
6.9768039834
 30
0.0
 10
11.4942568793
 20
6.9816248185
 30
0.0
 10
11.4966546005
 20
6.9854916187
 30
0.0
 10
11.498703592
 20
6.9895829361
 30
0.0
 10
11.4998026086
 20
6.9924398849
 30
0.0
 10
11.5002778112
 20
6.9938958115
 30
0.0
  0
SPLINE
  5
42D
100
AcDbEntity
  8
0
100
AcDbSpline
 62
7
  6
CONTINUOUS
 70
0
 71
3
 72
15
 73
11
 74
0
 42
0.0000001
 43
0.0000001
 44
0.0000000001
 40
0.0
 40
0.0
 40
0.0
 40
0.0
 40
0.1274026844
 40
0.2541856366
 40
0.3802597414
 40
0.5055996578
 40
0.6301963688
 40
0.7540799367
 40
0.8773393727
 40
1.0
 40
1.0
 40
1.0
 40
1.0
 10
11.2564370117
 20
7.0212587828
 30
0.0
 10
11.255990754
 20
7.0226727967
 30
0.0
 10
11.2549673135
 20
7.0254538273
 30
0.0
 10
11.2530623422
 20
7.0294547941
 30
0.0
 10
11.2508209524
 20
7.0332496739
 30
0.0
 10
11.2482734048
 20
7.0368144499
 30
0.0
 10
11.2454520477
 20
7.0401327023
 30
0.0
 10
11.2423939322
 20
7.0431990696
 30
0.0
 10
11.2391384458
 20
7.0460194282
 30
0.0
 10
11.2368521112
 20
7.0477450827
 30
0.0
 10
11.2356861324
 20
7.0485687659
 30
0.0
  0
SPLINE
  5
42E
100
AcDbEntity
  8
0
100
AcDbSpline
 62
7
  6
CONTINUOUS
 70
0
 71
3
 72
13
 73
9
 74
0
 42
0.0000001
 43
0.0000001
 44
0.0000000001
 40
0.0
 40
0.0
 40
0.0
 40
0.0
 40
0.1255295305
 40
0.2509288162
 40
0.3761732478
 40
0.5012759429
 40
0.7508682589
 40
1.0
 40
1.0
 40
1.0
 40
1.0
 10
10.7531111593
 20
6.9938958115
 30
0.0
 10
10.7536155191
 20
6.99243708
 30
0.0
 10
10.7547829791
 20
6.9895738709
 30
0.0
 10
10.7569547101
 20
6.9854824769
 30
0.0
 10
10.7594955303
 20
6.9816160922
 30
0.0
 10
10.7633073725
 20
6.9767855019
 30
0.0
 10
10.7687726133
 20
6.9713586447
 30
0.0
 10
10.7737091415
 20
6.9676862227
 30
0.0
 10
10.7762785869
 20
6.966018496
 30
0.0
  0
SPLINE
  5
42F
100
AcDbEntity
  8
0
100
AcDbSpline
 62
7
  6
CONTINUOUS
 70
0
 71
3
 72
14
 73
10
 74
0
 42
0.0000001
 43
0.0000001
 44
0.0000000001
 40
0.0
 40
0.0
 40
0.0
 40
0.0
 40
0.2919677057
 40
0.4285984218
 40
0.5580188796
 40
0.6797982092
 40
0.7938627575
 40
0.9004901584
 40
1.0
 40
1.0
 40
1.0
 40
1.0
 10
11.2564370117
 20
7.0212587828
 30
0.0
 10
11.2567176794
 20
7.0239935923
 30
0.0
 10
11.2572575026
 20
7.0279973588
 30
0.0
 10
11.2582442506
 20
7.0331591151
 30
0.0
 10
11.2590673873
 20
7.0367180027
 30
0.0
 10
11.2599800333
 20
7.040035101
 30
0.0
 10
11.2609708558
 20
7.0431049711
 30
0.0
 10
11.2620265084
 20
7.0459302307
 30
0.0
 10
11.2627920205
 20
7.0477149025
 30
0.0
 10
11.2631838227
 20
7.04856604
 30
0.0
  0
SPLINE
  5
430
100
AcDbEntity
  8
0
100
AcDbSpline
 62
7
  6
CONTINUOUS
 70
0
 71
3
 72
13
 73
9
 74
0
 42
0.0000001
 43
0.0000001
 44
0.0000000001
 40
0.0
 40
0.0
 40
0.0
 40
0.0
 40
0.0948274962
 40
0.1984551873
 40
0.3108956917
 40
0.4321413586
 40
0.7003866516
 40
1.0
 40
1.0
 40
1.0
 40
1.0
 10
10.7507070044
 20
6.966018496
 30
0.0
 10
10.7508467152
 20
6.9668923334
 30
0.0
 10
10.7511183117
 20
6.9687244612
 30
0.0
 10
10.7514891088
 20
6.9716021087
 30
0.0
 10
10.7518382114
 20
6.9747306672
 30
0.0
 10
10.7522853557
 20
6.9793934884
 30
0.0
 10
10.7527575678
 20
6.9858077396
 30
0.0
 10
10.7530109036
 20
6.9911016008
 30
0.0
 10
10.7531111593
 20
6.9938958115
 30
0.0
  0
SPLINE
  5
431
100
AcDbEntity
  8
0
100
AcDbSpline
 62
7
  6
CONTINUOUS
 70
0
 71
3
 72
11
 73
7
 74
0
 42
0.0000001
 43
0.0000001
 44
0.0000000001
 40
0.0
 40
0.0
 40
0.0
 40
0.0
 40
0.2983688987
 40
0.5671936168
 40
0.8011390045
 40
1.0
 40
1.0
 40
1.0
 40
1.0
 10
10.7531111593
 20
7.0212587828
 30
0.0
 10
10.7530166126
 20
7.0239840185
 30
0.0
 10
10.7527808658
 20
7.0291629324
 30
0.0
 10
10.752268402
 20
7.0364676848
 30
0.0
 10
10.7516333841
 20
7.0428495203
 30
0.0
 10
10.7511097148
 20
7.0467713224
 30
0.0
 10
10.7508302616
 20
7.0485671545
 30
0.0
  0
SPLINE
  5
432
100
AcDbEntity
  8
0
100
AcDbSpline
 62
7
  6
CONTINUOUS
 70
0
 71
3
 72
13
 73
9
 74
0
 42
0.0000001
 43
0.0000001
 44
0.0000000001
 40
0.0
 40
0.0
 40
0.0
 40
0.0
 40
0.1252060203
 40
0.2503733135
 40
0.375482522
 40
0.5005469451
 40
0.7503390453
 40
1.0
 40
1.0
 40
1.0
 40
1.0
 10
10.7273209933
 20
6.9938958115
 30
0.0
 10
10.7278302798
 20
6.9924365987
 30
0.0
 10
10.7290093129
 20
6.989572328
 30
0.0
 10
10.7312017305
 20
6.9854809375
 30
0.0
 10
10.73376666
 20
6.9816146386
 30
0.0
 10
10.7376159969
 20
6.9767824593
 30
0.0
 10
10.7431349386
 20
6.9713546807
 30
0.0
 10
10.7481148255
 20
6.9676852524
 30
0.0
 10
10.7507070044
 20
6.966018496
 30
0.0
  0
SPLINE
  5
433
100
AcDbEntity
  8
0
100
AcDbSpline
 62
7
  6
CONTINUOUS
 70
0
 71
3
 72
15
 73
11
 74
0
 42
0.0000001
 43
0.0000001
 44
0.0000000001
 40
0.0
 40
0.0
 40
0.0
 40
0.0
 40
0.1254854878
 40
0.2508516147
 40
0.3760656264
 40
0.501133633
 40
0.6260507844
 40
0.7508198588
 40
0.8754794334
 40
1.0
 40
1.0
 40
1.0
 40
1.0
 10
10.7531111593
 20
7.0212587828
 30
0.0
 10
10.7535846677
 20
7.0226751304
 30
0.0
 10
10.7546715009
 20
7.0254616358
 30
0.0
 10
10.7566905351
 20
7.0294628373
 30
0.0
 10
10.7590657712
 20
7.033257536
 30
0.0
 10
10.7617649975
 20
7.0368216708
 30
0.0
 10
10.7647537737
 20
7.0401388644
 30
0.0
 10
10.7679928277
 20
7.0432039727
 30
0.0
 10
10.7714407682
 20
7.0460231582
 30
0.0
 10
10.7738580229
 20
7.0477450866
 30
0.0
 10
10.7750909375
 20
7.0485672818
 30
0.0
  0
SPLINE
  5
434
100
AcDbEntity
  8
0
100
AcDbSpline
 62
7
  6
CONTINUOUS
 70
0
 71
3
 72
13
 73
9
 74
0
 42
0.0000001
 43
0.0000001
 44
0.0000000001
 40
0.0
 40
0.0
 40
0.0
 40
0.0
 40
0.2946866143
 40
0.4321251674
 40
0.5619094708
 40
0.7969089629
 40
0.9023026843
 40
1.0
 40
1.0
 40
1.0
 40
1.0
 10
10.8086800389
 20
7.0212587828
 30
0.0
 10
10.8084606859
 20
7.023989698
 30
0.0
 10
10.8080392113
 20
7.027987648
 30
0.0
 10
10.8072662875
 20
7.033154928
 30
0.0
 10
10.8064346592
 20
7.0377499173
 30
0.0
 10
10.8054505287
 20
7.0420134388
 30
0.0
 10
10.8043074959
 20
7.0459235338
 30
0.0
 10
10.8037066265
 20
7.0477141986
 30
0.0
 10
10.8033987614
 20
7.048568727
 30
0.0
  0
SPLINE
  5
435
100
AcDbEntity
  8
0
100
AcDbSpline
 62
7
  6
CONTINUOUS
 70
0
 71
3
 72
11
 73
7
 74
0
 42
0.0000001
 43
0.0000001
 44
0.0000000001
 40
0.0
 40
0.0
 40
0.0
 40
0.0
 40
0.1975180216
 40
0.4309670912
 40
0.6995642826
 40
1.0
 40
1.0
 40
1.0
 40
1.0
 10
10.726518361
 20
6.966018496
 30
0.0
 10
10.7266162374
 20
6.9678521811
 30
0.0
 10
10.7267979679
 20
6.9718548304
 30
0.0
 10
10.7270197444
 20
6.9783548912
 30
0.0
 10
10.7272030713
 20
6.9858132939
 30
0.0
 10
10.7272875384
 20
6.9911029061
 30
0.0
 10
10.7273209933
 20
6.9938958115
 30
0.0
  0
SPLINE
  5
436
100
AcDbEntity
  8
0
100
AcDbSpline
 62
7
  6
CONTINUOUS
 70
0
 71
3
 72
15
 73
11
 74
0
 42
0.0000001
 43
0.0000001
 44
0.0000000001
 40
0.0
 40
0.0
 40
0.0
 40
0.0
 40
0.1266026237
 40
0.2527932548
 40
0.3785067538
 40
0.5037314817
 40
0.6284608632
 40
0.7527141678
 40
0.876559662
 40
1.0
 40
1.0
 40
1.0
 40
1.0
 10
10.8086800389
 20
7.0212587828
 30
0.0
 10
10.8091375289
 20
7.0226736109
 30
0.0
 10
10.8101870759
 20
7.0254566227
 30
0.0
 10
10.8121390529
 20
7.0294573268
 30
0.0
 10
10.8144355892
 20
7.0332518222
 30
0.0
 10
10.8170456309
 20
7.0368160735
 30
0.0
 10
10.8199359701
 20
7.0401336764
 30
0.0
 10
10.8230686241
 20
7.0431993753
 30
0.0
 10
10.8264034488
 20
7.0460190867
 30
0.0
 10
10.828743806
 20
7.0477430156
 30
0.0
 10
10.8299374105
 20
7.048565979
 30
0.0
  0
SPLINE
  5
437
100
AcDbEntity
  8
0
100
AcDbSpline
 62
7
  6
CONTINUOUS
 70
0
 71
3
 72
13
 73
9
 74
0
 42
0.0000001
 43
0.0000001
 44
0.0000000001
 40
0.0
 40
0.0
 40
0.0
 40
0.0
 40
0.1250444699
 40
0.2500960129
 40
0.3751378451
 40
0.5001833006
 40
0.7500752444
 40
1.0
 40
1.0
 40
1.0
 40
1.0
 10
10.7030228027
 20
6.9938958115
 30
0.0
 10
10.7035345597
 20
6.9924363566
 30
0.0
 10
10.7047193973
 20
6.9895715532
 30
0.0
 10
10.7069221829
 20
6.9854801663
 30
0.0
 10
10.7094991948
 20
6.9816139121
 30
0.0
 10
10.7133673286
 20
6.9767809424
 30
0.0
 10
10.7189131833
 20
6.9713527131
 30
0.0
 10
10.72391479
 20
6.9676847721
 30
0.0
 10
10.726518361
 20
6.966018496
 30
0.0
  0
SPLINE
  5
438
100
AcDbEntity
  8
0
100
AcDbSpline
 62
7
  6
CONTINUOUS
 70
0
 71
3
 72
15
 73
11
 74
0
 42
0.0000001
 43
0.0000001
 44
0.0000000001
 40
0.0
 40
0.0
 40
0.0
 40
0.0
 40
0.1321951889
 40
0.26255794
 40
0.3908439519
 40
0.5169281331
 40
0.6407667151
 40
0.7624347958
 40
0.882129038
 40
1.0
 40
1.0
 40
1.0
 40
1.0
 10
11.1300489648
 20
7.0212587828
 30
0.0
 10
11.1296682684
 20
7.0226671232
 30
0.0
 10
11.1287969762
 20
7.0254346281
 30
0.0
 10
11.1271681493
 20
7.0294334469
 30
0.0
 10
11.1252511693
 20
7.0332271839
 30
0.0
 10
11.1230715915
 20
7.0367920573
 30
0.0
 10
11.1206566695
 20
7.0401117089
 30
0.0
 10
11.1180379884
 20
7.0431804
 30
0.0
 10
11.1152496851
 20
7.0460030337
 30
0.0
 10
11.1132815405
 20
7.0477385542
 30
0.0
 10
11.1122780134
 20
7.0485662212
 30
0.0
  0
SPLINE
  5
439
100
AcDbEntity
  8
0
100
AcDbSpline
 62
7
  6
CONTINUOUS
 70
0
 71
3
 72
13
 73
9
 74
0
 42
0.0000001
 43
0.0000001
 44
0.0000000001
 40
0.0
 40
0.0
 40
0.0
 40
0.0
 40
0.1250444699
 40
0.2500960129
 40
0.3751378451
 40
0.5001833006
 40
0.7500752444
 40
1.0
 40
1.0
 40
1.0
 40
1.0
 10
10.6803298768
 20
6.9938958115
 30
0.0
 10
10.6808416338
 20
6.9924363566
 30
0.0
 10
10.6820264714
 20
6.9895715532
 30
0.0
 10
10.684229257
 20
6.9854801663
 30
0.0
 10
10.6868062689
 20
6.9816139121
 30
0.0
 10
10.6906744027
 20
6.9767809424
 30
0.0
 10
10.6962202574
 20
6.9713527131
 30
0.0
 10
10.7012218641
 20
6.9676847721
 30
0.0
 10
10.7038254351
 20
6.966018496
 30
0.0
  0
SPLINE
  5
43A
100
AcDbEntity
  8
0
100
AcDbSpline
 62
7
  6
CONTINUOUS
 70
0
 71
3
 72
13
 73
9
 74
0
 42
0.0000001
 43
0.0000001
 44
0.0000000001
 40
0.0
 40
0.0
 40
0.0
 40
0.0
 40
0.2784120183
 40
0.4111311073
 40
0.538905582
 40
0.6615314957
 40
0.7790673579
 40
1.0
 40
1.0
 40
1.0
 40
1.0
 10
11.1300489648
 20
7.0212587828
 30
0.0
 10
11.1305623633
 20
7.0240180706
 30
0.0
 10
11.1315548035
 20
7.0280557352
 30
0.0
 10
11.1333373244
 20
7.0331903505
 30
0.0
 10
11.1348340367
 20
7.0367537825
 30
0.0
 10
11.1364935312
 20
7.0400742873
 30
0.0
 10
11.1388456202
 20
7.0440860766
 30
0.0
 10
11.1408558537
 20
7.0468589982
 30
0.0
 10
11.1422829058
 20
7.0485689515
 30
0.0
  0
SPLINE
  5
43B
100
AcDbEntity
  8
0
100
AcDbSpline
 62
7
  6
CONTINUOUS
 70
0
 71
3
 72
13
 73
9
 74
0
 42
0.0000001
 43
0.0000001
 44
0.0000000001
 40
0.0
 40
0.0
 40
0.0
 40
0.0
 40
0.2784101474
 40
0.4111290262
 40
0.5389037622
 40
0.6615305255
 40
0.7790677974
 40
1.0
 40
1.0
 40
1.0
 40
1.0
 10
10.9645877118
 20
7.0212587828
 30
0.0
 10
10.9640743553
 20
7.0240178452
 30
0.0
 10
10.963082013
 20
7.0280551887
 30
0.0
 10
10.9612996999
 20
7.0331894248
 30
0.0
 10
10.9598031629
 20
7.0367526258
 30
0.0
 10
10.9581438608
 20
7.0400729426
 30
0.0
 10
10.9557920955
 20
7.0440845386
 30
0.0
 10
10.9537820344
 20
7.0468572887
 30
0.0
 10
10.9523550864
 20
7.0485671056
 30
0.0
  0
SPLINE
  5
43C
100
AcDbEntity
  8
0
100
AcDbSpline
 62
7
  6
CONTINUOUS
 70
0
 71
3
 72
15
 73
11
 74
0
 42
0.0000001
 43
0.0000001
 44
0.0000000001
 40
0.0
 40
0.0
 40
0.0
 40
0.0
 40
0.1321953938
 40
0.2625582562
 40
0.3908442661
 40
0.5169283751
 40
0.640766753
 40
0.7624344983
 40
0.8821287768
 40
1.0
 40
1.0
 40
1.0
 40
1.0
 10
10.9645877118
 20
7.0212587828
 30
0.0
 10
10.964968424
 20
7.0226671819
 30
0.0
 10
10.9658397572
 20
7.0254347997
 30
0.0
 10
10.9674686706
 20
7.0294337742
 30
0.0
 10
10.9693857611
 20
7.0332276472
 30
0.0
 10
10.9715654655
 20
7.0367926359
 30
0.0
 10
10.9739805273
 20
7.0401123822
 30
0.0
 10
10.9765993822
 20
7.0431811299
 30
0.0
 10
10.9793878174
 20
7.0460038534
 30
0.0
 10
10.9813560312
 20
7.047739459
 30
0.0
 10
10.9823595991
 20
7.0485671632
 30
0.0
  0
SPLINE
  5
43D
100
AcDbEntity
  8
0
100
AcDbSpline
 62
7
  6
CONTINUOUS
 70
0
 71
3
 72
13
 73
9
 74
0
 42
0.0000001
 43
0.0000001
 44
0.0000000001
 40
0.0
 40
0.0
 40
0.0
 40
0.0
 40
0.1252060203
 40
0.2503733135
 40
0.375482522
 40
0.5005469451
 40
0.7503390453
 40
1.0
 40
1.0
 40
1.0
 40
1.0
 10
10.6593480205
 20
6.9938958115
 30
0.0
 10
10.659857307
 20
6.9924365987
 30
0.0
 10
10.6610363401
 20
6.989572328
 30
0.0
 10
10.6632287577
 20
6.9854809375
 30
0.0
 10
10.6657936872
 20
6.9816146386
 30
0.0
 10
10.6696430241
 20
6.9767824593
 30
0.0
 10
10.6751619658
 20
6.9713546807
 30
0.0
 10
10.6801418527
 20
6.9676852524
 30
0.0
 10
10.6827340317
 20
6.966018496
 30
0.0
  0
SPLINE
  5
43E
100
AcDbEntity
  8
0
100
AcDbSpline
 62
7
  6
CONTINUOUS
 70
0
 71
3
 72
13
 73
9
 74
0
 42
0.0000001
 43
0.0000001
 44
0.0000000001
 40
0.0
 40
0.0
 40
0.0
 40
0.0
 40
0.2472632384
 40
0.4961556629
 40
0.6213958224
 40
0.7471182993
 40
0.8733343827
 40
1.0
 40
1.0
 40
1.0
 40
1.0
 10
11.4646243909
 20
6.966018496
 30
0.0
 10
11.4671147957
 20
6.9676897226
 30
0.0
 10
11.4719004038
 20
6.9713728202
 30
0.0
 10
11.4771790077
 20
6.9767962382
 30
0.0
 10
11.4808606588
 20
6.981621183
 30
0.0
 10
11.4833176806
 20
6.9854878309
 30
0.0
 10
11.4854175264
 20
6.9895792002
 30
0.0
 10
11.4865448545
 20
6.9924387338
 30
0.0
 10
11.4870321225
 20
6.9938958115
 30
0.0
  0
SPLINE
  5
43F
100
AcDbEntity
  8
0
100
AcDbSpline
 62
7
  6
CONTINUOUS
 70
0
 71
3
 72
13
 73
9
 74
0
 42
0.0000001
 43
0.0000001
 44
0.0000000001
 40
0.0
 40
0.0
 40
0.0
 40
0.0
 40
0.1255295186
 40
0.2509288106
 40
0.3761732486
 40
0.5012759409
 40
0.7508682656
 40
1.0
 40
1.0
 40
1.0
 40
1.0
 10
10.640175061
 20
6.9938958115
 30
0.0
 10
10.6406794208
 20
6.9924370801
 30
0.0
 10
10.6418468806
 20
6.9895738711
 30
0.0
 10
10.6440186117
 20
6.9854824771
 30
0.0
 10
10.6465594319
 20
6.9816160922
 30
0.0
 10
10.6503712742
 20
6.9767855019
 30
0.0
 10
10.655836515
 20
6.9713586447
 30
0.0
 10
10.6607730432
 20
6.9676862226
 30
0.0
 10
10.6633424886
 20
6.966018496
 30
0.0
  0
SPLINE
  5
440
100
AcDbEntity
  8
0
100
AcDbSpline
 62
7
  6
CONTINUOUS
 70
0
 71
3
 72
13
 73
9
 74
0
 42
0.0000001
 43
0.0000001
 44
0.0000000001
 40
0.0
 40
0.0
 40
0.0
 40
0.0
 40
0.1260157502
 40
0.2517642059
 40
0.3772126223
 40
0.5023735642
 40
0.7516660132
 40
1.0
 40
1.0
 40
1.0
 40
1.0
 10
10.6229003913
 20
6.9938958115
 30
0.0
 10
10.6233973974
 20
6.9924377946
 30
0.0
 10
10.6245475868
 20
6.9895761686
 30
0.0
 10
10.6266884113
 20
6.9854847782
 30
0.0
 10
10.6291932067
 20
6.9816182737
 30
0.0
 10
10.6329490544
 20
6.9767900871
 30
0.0
 10
10.6383340569
 20
6.9713646627
 30
0.0
 10
10.6432057471
 20
6.9676877028
 30
0.0
 10
10.6457412181
 20
6.966018496
 30
0.0
  0
SPLINE
  5
441
100
AcDbEntity
  8
0
100
AcDbSpline
 62
7
  6
CONTINUOUS
 70
0
 71
3
 72
13
 73
9
 74
0
 42
0.0000001
 43
0.0000001
 44
0.0000000001
 40
0.0
 40
0.0
 40
0.0
 40
0.0
 40
0.1266656271
 40
0.2528817057
 40
0.3786041723
 40
0.5038443314
 40
0.7527367507
 40
1.0
 40
1.0
 40
1.0
 40
1.0
 10
10.607604554
 20
6.9938958115
 30
0.0
 10
10.6080918221
 20
6.9924387336
 30
0.0
 10
10.6092191503
 20
6.9895792
 30
0.0
 10
10.611318996
 20
6.9854878308
 30
0.0
 10
10.6137760177
 20
6.981621183
 30
0.0
 10
10.6174576687
 20
6.9767962384
 30
0.0
 10
10.6227362726
 20
6.9713728204
 30
0.0
 10
10.6275218808
 20
6.9676897227
 30
0.0
 10
10.6300122856
 20
6.966018496
 30
0.0
  0
SPLINE
  5
442
100
AcDbEntity
  8
0
100
AcDbSpline
 62
7
  6
CONTINUOUS
 70
0
 71
3
 72
13
 73
9
 74
0
 42
0.0000001
 43
0.0000001
 44
0.0000000001
 40
0.0
 40
0.0
 40
0.0
 40
0.0
 40
0.1274800792
 40
0.2542836849
 40
0.3803518675
 40
0.5056935196
 40
0.7540858947
 40
1.0
 40
1.0
 40
1.0
 40
1.0
 10
10.5943588654
 20
6.9938958115
 30
0.0
 10
10.594834068
 20
6.992439885
 30
0.0
 10
10.5959330845
 20
6.9895829362
 30
0.0
 10
10.5979820761
 20
6.9854916189
 30
0.0
 10
10.6003797972
 20
6.9816248186
 30
0.0
 10
10.6039694467
 20
6.9768039835
 30
0.0
 10
10.6091159976
 20
6.9713832311
 30
0.0
 10
10.6137945846
 20
6.9676923236
 30
0.0
 10
10.6162290266
 20
6.966018496
 30
0.0
  0
SPLINE
  5
443
100
AcDbEntity
  8
0
100
AcDbSpline
 62
7
  6
CONTINUOUS
 70
0
 71
3
 72
12
 73
8
 74
0
 42
0.0000001
 43
0.0000001
 44
0.0000000001
 40
0.0
 40
0.0
 40
0.0
 40
0.0
 40
0.1284883268
 40
0.256029195
 40
0.5078166492
 40
0.7556648555
 40
1.0
 40
1.0
 40
1.0
 40
1.0
 10
10.5832250829
 20
6.9938958115
 30
0.0
 10
10.5836859622
 20
6.9924412332
 30
0.0
 10
10.5847515014
 20
6.9895871911
 30
0.0
 10
10.5873905284
 20
6.9841570956
 30
0.0
 10
10.5915294175
 20
6.9779175233
 30
0.0
 10
10.5975362831
 20
6.9713970031
 30
0.0
 10
10.6020878848
 20
6.9676955586
 30
0.0
 10
10.6044557049
 20
6.966018496
 30
0.0
  0
SPLINE
  5
444
100
AcDbEntity
  8
0
100
AcDbSpline
 62
7
  6
CONTINUOUS
 70
0
 71
3
 72
13
 73
9
 74
0
 42
0.0000001
 43
0.0000001
 44
0.0000000001
 40
0.0
 40
0.0
 40
0.0
 40
0.0
 40
0.24833399
 40
0.497626432
 40
0.6227873771
 40
0.7482357908
 40
0.8739842414
 40
1.0
 40
1.0
 40
1.0
 40
1.0
 10
11.4488954584
 20
6.966018496
 30
0.0
 10
11.4514309295
 20
6.9676877028
 30
0.0
 10
11.4563026197
 20
6.9713646627
 30
0.0
 10
11.4616876222
 20
6.9767900871
 30
0.0
 10
11.4654434698
 20
6.9816182736
 30
0.0
 10
11.4679482652
 20
6.985484778
 30
0.0
 10
11.4700890896
 20
6.9895761685
 30
0.0
 10
11.4712392791
 20
6.9924377945
 30
0.0
 10
11.4717362853
 20
6.9938958115
 30
0.0
  0
SPLINE
  5
445
100
AcDbEntity
  8
0
100
AcDbSpline
 62
7
  6
CONTINUOUS
 70
0
 71
3
 72
12
 73
8
 74
0
 42
0.0000001
 43
0.0000001
 44
0.0000000001
 40
0.0
 40
0.0
 40
0.0
 40
0.0
 40
0.1296323245
 40
0.258003728
 40
0.5104409648
 40
0.7575901215
 40
1.0
 40
1.0
 40
1.0
 40
1.0
 10
10.5742551174
 20
6.9938958115
 30
0.0
 10
10.5746994977
 20
6.9924427599
 30
0.0
 10
10.5757263751
 20
6.9895922099
 30
0.0
 10
10.5782694818
 20
6.9841692662
 30
0.0
 10
10.58225602
 20
6.9779366515
 30
0.0
 10
10.5880525949
 20
6.9714123064
 30
0.0
 10
10.5924563979
 20
6.9676994932
 30
0.0
 10
10.5947472132
 20
6.966018496
 30
0.0
  0
SPLINE
  5
446
100
AcDbEntity
  8
0
100
AcDbSpline
 62
7
  6
CONTINUOUS
 70
0
 71
3
 72
12
 73
8
 74
0
 42
0.0000001
 43
0.0000001
 44
0.0000000001
 40
0.0
 40
0.0
 40
0.0
 40
0.0
 40
0.1309394479
 40
0.2602636412
 40
0.513455854
 40
0.7598101556
 40
1.0
 40
1.0
 40
1.0
 40
1.0
 10
10.5674907911
 20
6.9938958115
 30
0.0
 10
10.5679165904
 20
6.9924444428
 30
0.0
 10
10.5688999673
 20
6.9895977869
 30
0.0
 10
10.5713351096
 20
6.9841829445
 30
0.0
 10
10.5751500229
 20
6.977958653
 30
0.0
 10
10.580708767
 20
6.9714303294
 30
0.0
 10
10.5849450814
 20
6.9677042061
 30
0.0
 10
10.5871488171
 20
6.966018496
 30
0.0
  0
SPLINE
  5
447
100
AcDbEntity
  8
0
100
AcDbSpline
 62
7
  6
CONTINUOUS
 70
0
 71
3
 72
12
 73
8
 74
0
 42
0.0000001
 43
0.0000001
 44
0.0000000001
 40
0.0
 40
0.0
 40
0.0
 40
0.0
 40
0.1324059091
 40
0.2628038191
 40
0.5168589768
 40
0.7623267959
 40
1.0
 40
1.0
 40
1.0
 40
1.0
 10
10.5629636422
 20
6.9938958115
 30
0.0
 10
10.5633688831
 20
6.9924462564
 30
0.0
 10
10.5643041817
 20
6.98960385
 30
0.0
 10
10.5666199625
 20
6.9841980005
 30
0.0
 10
10.5702450033
 20
6.9779835068
 30
0.0
 10
10.5755393993
 20
6.9714512519
 30
0.0
 10
10.5795890303
 20
6.9677097889
 30
0.0
 10
10.5816959436
 20
6.966018496
 30
0.0
  0
SPLINE
  5
448
100
AcDbEntity
  8
0
100
AcDbSpline
 62
7
  6
CONTINUOUS
 70
0
 71
3
 72
11
 73
7
 74
0
 42
0.0000001
 43
0.0000001
 44
0.0000000001
 40
0.0
 40
0.0
 40
0.0
 40
0.0
 40
0.2654444766
 40
0.520530735
 40
0.7650832564
 40
1.0
 40
1.0
 40
1.0
 40
1.0
 10
10.5606947785
 20
6.9938958115
 30
0.0
 10
10.5614527993
 20
6.9910293329
 30
0.0
 10
10.5634231482
 20
6.9855248754
 30
0.0
 10
10.5675639675
 20
6.9780122552
 30
0.0
 10
10.5725691588
 20
6.9714749388
 30
0.0
 10
10.5764133225
 20
6.9677163446
 30
0.0
 10
10.5784140168
 20
6.966018496
 30
0.0
  0
SPLINE
  5
449
100
AcDbEntity
  8
0
100
AcDbSpline
 62
7
  6
CONTINUOUS
 70
0
 71
3
 72
13
 73
9
 74
0
 42
0.0000001
 43
0.0000001
 44
0.0000000001
 40
0.0
 40
0.0
 40
0.0
 40
0.0
 40
0.2491317444
 40
0.4987240532
 40
0.6238267517
 40
0.7490711805
 40
0.8744704611
 40
1.0
 40
1.0
 40
1.0
 40
1.0
 10
11.431294188
 20
6.966018496
 30
0.0
 10
11.4338636335
 20
6.9676862227
 30
0.0
 10
11.4388001616
 20
6.9713586448
 30
0.0
 10
11.4442654024
 20
6.9767855018
 30
0.0
 10
11.4480772445
 20
6.9816160921
 30
0.0
 10
11.4506180647
 20
6.9854824768
 30
0.0
 10
11.4527897957
 20
6.9895738708
 30
0.0
 10
11.4539572557
 20
6.9924370799
 30
0.0
 10
11.4544616156
 20
6.9938958115
 30
0.0
  0
ENDSEC
  0
SECTION
  2
OBJECTS
  0
DICTIONARY
  5
C
100
AcDbDictionary
280
0
281
1
  3
ACAD_GROUP
350
D
  3
ACAD_MLINESTYLE
350
17
  3
ACAD_LAYOUT
350
1A
  3
ACAD_PLOTSETTINGS
350
19
  3
ACAD_PLOTSTYLENAME
350
E
  0
DICTIONARY
  5
D
102
{ACAD_REACTORS
330
C
102
}
100
AcDbDictionary
280
0
281
1
  0
ACDBDICTIONARYWDFLT
  5
E
102
{ACAD_REACTORS
330
C
102
}
100
AcDbDictionary
281
1
  3
Normal
350
F
100
AcDbDictionaryWithDefault
340
F
  0
DICTIONARY
  5
17
102
{ACAD_REACTORS
330
C
102
}
100
AcDbDictionary
280
0
281
1
  3
Standard
350
18
  0
DICTIONARY
  5
19
102
{ACAD_REACTORS
330
C
102
}
100
AcDbDictionary
281
1
  0
DICTIONARY
  5
1A
102
{ACAD_REACTORS
330
C
102
}
100
AcDbDictionary
281
1
  3
Model
350
44A
  3
Layout1
350
44B
  0
ACDBPLACEHOLDER
  5
F
102
{ACAD_REACTORS
330
E
102
}
  0
MLINESTYLE
  5
18
102
{ACAD_REACTORS
330
17
102
}
100
AcDbMlineStyle
  2
STANDARD
 70
0
  3

 62
256
 51
90.0
 52
90.0
 71
2
 49
0.5
 62
256
  6
BYLAYER
 49
-0.5
 62
256
  6
BYLAYER
  0
LAYOUT
  5
44A
102
{ACAD_REACTORS
330
1A
102
}
100
AcDbPlotSettings
  1

  2
none_device
  4
ANSI_C_(22.00_x_17.00_Inches)
  6

 40
0.0
 41
0.0
 42
0.0
 43
0.0
 44
558.8
 45
431.8
 46
0.0
 47
0.0
 48
0.0
 49
0.0
140
0.0
141
0.0
142
1.0
143
1.0
 70
1024
 72
0
 73
0
 74
0
  7

 75
0
147
1.0
148
0.0
149
0.0
100
AcDbLayout
  1
Model
 70
0
 71
0
 10
0.0
 20
0.0
 11
22.0
 21
17.0
 12
0.0
 22
0.0
 32
0.0
 14
0.0
 24
0.0
 34
0.0
 15
0.0
 25
0.0
 35
0.0
146
0.0
 13
0.0
 23
0.0
 33
0.0
 16
1.0
 26
0.0
 36
0.0
 17
0.0
 27
1.0
 37
0.0
 76
0
330
205
345
0
346
0
  0
LAYOUT
  5
44B
102
{ACAD_REACTORS
330
1A
102
}
100
AcDbPlotSettings
  1

  2
none_device
  4
ANSI_C_(22.00_x_17.00_Inches)
  6

 40
0.0
 41
0.0
 42
0.0
 43
0.0
 44
558.8
 45
431.8
 46
0.0
 47
0.0
 48
0.0
 49
0.0
140
0.0
141
0.0
142
1.0
143
1.0
 70
0
 72
0
 73
0
 74
0
  7

 75
0
147
1.0
148
0.0
149
0.0
100
AcDbLayout
  1
Layout1
 70
0
 71
1
 10
0.0
 20
0.0
 11
22.0
 21
17.0
 12
0.0
 22
0.0
 32
0.0
 14
0.0
 24
0.0
 34
0.0
 15
0.0
 25
0.0
 35
0.0
146
0.0
 13
0.0
 23
0.0
 33
0.0
 16
1.0
 26
0.0
 36
0.0
 17
0.0
 27
1.0
 37
0.0
 76
0
330
206
345
0
346
0
  0
ENDSEC
  0
EOF
