  0
SECTION
  2
HEADER
  9
$ACADVER
  1
AC1015
  9
$DWGCODEPAGE
  3
ANSI_1252
  9
$EXTMAX
 10
11.6929133858
 20
8.2677165354
 30
0.0
  9
$EXTMIN
 10
0.0
 20
0.0
 30
0.0
  9
$LIMMIN
 10
0.0
 20
0.0
  9
$LIMMAX
 10
11.6929133858
 20
8.2677165354
  9
$VIEWCTR
 10
5.8464566929
 20
4.1338582677
  9
$VIEWSIZE
 40
8.2677165354
  9
$CLAYER
  8
0
  9
$LTSCALE
 40
0.6431102362
  9
$CELTYPE
  6
BYLAYER
  9
$DIMSCALE
 40
1.0
  9
$DIMASZ
 40
0.1
  9
$DIMEXO
 40
0.0730807087
  9
$DIMDLI
 40
0.4443307087
  9
$DIMEXE
 40
0.2104724409
  9
$DIMCEN
 40
0.1052362205
  9
$DIMLFAC
 40
1.0
  9
$DIMBLK
  1
_FILLED
  9
$DIMTXT
 40
0.08
  9
$DIMTOL
 70
1
  9
$DIMLIM
 70
0
  9
$DIMTFAC
 40
1.0
  9
$DIMTP
 40
0.01
  9
$DIMTM
 40
0.01
  9
$PDMODE
 70
3
  9
$PDSIZE
 40
0.06
  9
$HANDSEED
  5
26B
  9
$TILEMODE
 70
1
  9
$MEASUREMENT
 70
0
  9
$INSUNITS
 70
1
  0
ENDSEC
  0
SECTION
  2
CLASSES
  0
CLASS
  1
ACDBDICTIONARYWDFLT
  2
AcDbDictionaryWithDefault
  3
AutoCAD 2000
 90
0
280
0
281
0
  0
CLASS
  1
ACDBPLACEHOLDER
  2
AcDbPlaceHolder
  3
AutoCAD 2000
 90
0
280
0
281
0
  0
CLASS
  1
LAYOUT
  2
AcDbLayout
  3
AutoCAD 2000
 90
0
280
0
281
0
  0
ENDSEC
  0
SECTION
  2
TABLES
  0
TABLE
  2
VPORT
  5
8
100
AcDbSymbolTable
 70
2
  0
VPORT
  5
1F4
100
AcDbSymbolTableRecord
100
AcDbViewportTableRecord
  2
*ACTIVE
 70
0
 10
0.0
 20
0.0
 11
1.0
 21
1.0
 12
5.8464566929
 22
4.1338582677
 13
0.0
 23
0.0
 14
1.0
 24
1.0
 15
0.0
 25
0.0
 16
0.0
 26
0.0
 36
1.0
 17
0.0
 27
0.0
 37
0.0
 40
8.2677165354
 41
1.4142857143
 42
50.0
 43
0.0
 44
0.0
 50
0.0
 51
0.0
 71
0
 72
100
 73
1
 74
1
 75
0
 76
0
 77
0
 78
0
  0
ENDTAB
  0
TABLE
  2
LTYPE
  5
5
100
AcDbSymbolTable
 70
6
  0
LTYPE
  5
14
100
AcDbSymbolTableRecord
100
AcDbLinetypeTableRecord
  2
BYBLOCK
 70
0
  3

 72
65
 73
0
 40
0.0
  0
LTYPE
  5
15
100
AcDbSymbolTableRecord
100
AcDbLinetypeTableRecord
  2
BYLAYER
 70
0
  3

 72
65
 73
0
 40
0.0
  0
LTYPE
  5
16
100
AcDbSymbolTableRecord
100
AcDbLinetypeTableRecord
  2
CONTINUOUS
 70
64
  3
Solid line
 72
65
 73
0
 40
0.0
  0
LTYPE
  5
1F5
100
AcDbSymbolTableRecord
100
AcDbLinetypeTableRecord
  2
CENTER
 70
64
  3
____ _ ____ _ ____ _ ____ _ ____ _ ____ _ ____
 72
65
 73
4
 40
0.6
 49
0.375
 74
0
 49
-0.075
 74
0
 49
0.075
 74
0
 49
-0.075
 74
0
  0
LTYPE
  5
1F6
100
AcDbSymbolTableRecord
100
AcDbLinetypeTableRecord
  2
HIDDEN
 70
64
  3
- - - - - - - - - - - - - - - - - - - -
 72
65
 73
2
 40
0.2
 49
0.1
 74
0
 49
-0.1
 74
0
  0
LTYPE
  5
1F7
100
AcDbSymbolTableRecord
100
AcDbLinetypeTableRecord
  2
PHANTOM
 70
64
  3
_____ _ _ _____ _ _ _____ _ _ _____
 72
65
 73
6
 40
0.8
 49
0.45
 74
0
 49
-0.05
 74
0
 49
0.1
 74
0
 49
-0.05
 74
0
 49
0.1
 74
0
 49
-0.05
 74
0
  0
LTYPE
  5
1F8
100
AcDbSymbolTableRecord
100
AcDbLinetypeTableRecord
  2
DOT
 70
64
  3
. . . . . . . . . . . . . . . . . . . .
 72
65
 73
2
 40
0.2
 49
0.1
 74
0
 49
-0.1
 74
0
  0
LTYPE
  5
1F9
100
AcDbSymbolTableRecord
100
AcDbLinetypeTableRecord
  2
DASHED
 70
64
  3
- - - - - - - - - - - - - - - - - - - -
 72
65
 73
2
 40
0.2
 49
0.1
 74
0
 49
-0.1
 74
0
  0
ENDTAB
  0
TABLE
  2
LAYER
  5
2
100
AcDbSymbolTable
 70
36
  0
LAYER
  5
10
100
AcDbSymbolTableRecord
100
AcDbLayerTableRecord
  2
0
 70
0
 62
7
  6
CONTINUOUS
370
-3
390
F
  0
LAYER
  5
1FA
100
AcDbSymbolTableRecord
100
AcDbLayerTableRecord
  2
DEFAULT_1
 70
0
 62
7
  6
CENTER
370
-3
390
F
  0
LAYER
  5
1FB
100
AcDbSymbolTableRecord
100
AcDbLayerTableRecord
  2
DEFAULT_2
 70
0
 62
8
  6
HIDDEN
370
-3
390
F
  0
LAYER
  5
1FC
100
AcDbSymbolTableRecord
100
AcDbLayerTableRecord
  2
DEFAULT_3
 70
0
 62
7
  6
PHANTOM
370
-3
390
F
  0
LAYER
  5
1FD
100
AcDbSymbolTableRecord
100
AcDbLayerTableRecord
  2
BASKET_500_NONE
 70
0
 62
7
  6
CONTINUOUS
370
-3
390
F
  0
LAYER
  5
1FE
100
AcDbSymbolTableRecord
100
AcDbLayerTableRecord
  2
DEFAULT_COORDINATE_SYSTEM
 70
0
 62
7
  6
CONTINUOUS
370
-3
390
F
  0
LAYER
  5
1FF
100
AcDbSymbolTableRecord
100
AcDbLayerTableRecord
  2
DEFAULT_DATUM_AXES
 70
0
 62
7
  6
CONTINUOUS
370
-3
390
F
  0
LAYER
  5
200
100
AcDbSymbolTableRecord
100
AcDbLayerTableRecord
  2
DEFAULT_DATUM_CURVES
 70
0
 62
7
  6
CONTINUOUS
370
-3
390
F
  0
LAYER
  5
201
100
AcDbSymbolTableRecord
100
AcDbLayerTableRecord
  2
DEFAULT_DATUM_PLANES
 70
0
 62
7
  6
CONTINUOUS
370
-3
390
F
  0
LAYER
  5
202
100
AcDbSymbolTableRecord
100
AcDbLayerTableRecord
  2
POSTA_NONE
 70
0
 62
7
  6
CONTINUOUS
370
-3
390
F
  0
LAYER
  5
203
100
AcDbSymbolTableRecord
100
AcDbLayerTableRecord
  2
POSTA_NONE_1
 70
0
 62
7
  6
CONTINUOUS
370
-3
390
F
  0
LAYER
  5
204
100
AcDbSymbolTableRecord
100
AcDbLayerTableRecord
  2
SCREW_COVER_NONE
 70
0
 62
7
  6
CONTINUOUS
370
-3
390
F
  0
LAYER
  5
205
100
AcDbSymbolTableRecord
100
AcDbLayerTableRecord
  2
SCREW_COVER_NONE_1
 70
0
 62
7
  6
CONTINUOUS
370
-3
390
F
  0
ENDTAB
  0
TABLE
  2
STYLE
  5
3
100
AcDbSymbolTable
 70
1
  0
STYLE
  5
11
100
AcDbSymbolTableRecord
100
AcDbTextStyleTableRecord
  2
STANDARD
 70
0
 40
0.0
 41
0.8
 50
0.0
 71
0
 42
0.2
  3
txt
  4

  0
STYLE
  5
206
100
AcDbSymbolTableRecord
100
AcDbTextStyleTableRecord
  2
TEXTSTYLE_1
 70
0
 40
0.0
 41
0.8
 50
0.0
 71
0
 42
0.2
  3
gdt
  4

  0
ENDTAB
  0
TABLE
  2
VIEW
  5
6
100
AcDbSymbolTable
 70
0
  0
ENDTAB
  0
TABLE
  2
UCS
  5
7
100
AcDbSymbolTable
 70
0
  0
ENDTAB
  0
TABLE
  2
APPID
  5
9
100
AcDbSymbolTable
 70
1
  0
APPID
  5
207
100
AcDbSymbolTableRecord
100
AcDbRegAppTableRecord
  2
ACAD
 70
0
  0
ENDTAB
  0
TABLE
  2
BLOCK_RECORD
  5
1
100
AcDbSymbolTable
 70
0
  0
BLOCK_RECORD
  5
208
100
AcDbSymbolTableRecord
100
AcDbBlockTableRecord
  2
*Model_Space
  0
BLOCK_RECORD
  5
209
100
AcDbSymbolTableRecord
100
AcDbBlockTableRecord
  2
*Paper_Space
  0
ENDTAB
  0
TABLE
  2
DIMSTYLE
  5
A
100
AcDbSymbolTable
 70
1
100
AcDbDimStyleTable
 71
0
  0
DIMSTYLE
105
20A
100
AcDbSymbolTableRecord
100
AcDbDimStyleTableRecord
  2
STANDARD
 70
0
  3

  4

 40
1.0
 41
0.1
 42
0.0625
 43
0.38
 44
0.18
 45
0.0
 46
0.0
 47
0.01
 48
0.01
140
0.08
141
0.09
142
0.0
143
25.4
144
1.0
145
0.0
146
1.0
147
0.09
 71
1.0
 72
0.0
 73
1
 74
1
 75
0
 76
0
 77
0
 78
4
170
0
171
2
172
0
173
0
174
0
175
0
176
0
177
0
178
0
270
2
271
2
272
2
273
2
274
2
275
0
280
0
281
0
282
0
283
1
284
4
285
0
286
0
287
3
288
0
340
11
  0
ENDTAB
  0
ENDSEC
  0
SECTION
  2
BLOCKS
  0
BLOCK
  5
20
100
AcDbEntity
  8
0
100
AcDbBlockBegin
  2
*Model_Space
 70
0
 10
0.0
 20
0.0
 30
0.0
  3
*Model_Space
  1

  0
ENDBLK
  5
21
100
AcDbEntity
  8
0
100
AcDbBlockEnd
  0
BLOCK
  5
1C
100
AcDbEntity
  8
0
100
AcDbBlockBegin
  2
*Paper_Space
 70
0
 10
0.0
 20
0.0
 30
0.0
  3
*Paper_Space
  1

  0
ENDBLK
  5
1D
100
AcDbEntity
  8
0
100
AcDbBlockEnd
  0
ENDSEC
  0
SECTION
  2
ENTITIES
  0
LINE
  5
20B
100
AcDbEntity
  8
0
100
AcDbLine
 62
7
  6
CONTINUOUS
 10
3.2606093875
 20
4.468975802
 11
3.2606093875
 21
3.4101214077
  0
LINE
  5
20C
100
AcDbEntity
  8
0
100
AcDbLine
 62
7
  6
CONTINUOUS
 10
3.3786093875
 20
3.1679189993
 11
3.3786093875
 21
4.7111782104
  0
LINE
  5
20D
100
AcDbEntity
  8
0
100
AcDbLine
 62
7
  6
CONTINUOUS
 10
3.8512093875
 20
2.6828911386
 11
3.8512093875
 21
5.195668965
  0
LINE
  5
20E
100
AcDbEntity
  8
0
100
AcDbLine
 62
7
  6
CONTINUOUS
 10
3.9692093875
 20
2.6105806456
 11
3.9692093875
 21
5.2685165641
  0
LINE
  5
20F
100
AcDbEntity
  8
0
100
AcDbLine
 62
9
  6
CONTINUOUS
 10
7.2969022803
 20
2.2035486049
 11
4.6625022803
 21
2.2035486049
  0
LINE
  5
210
100
AcDbEntity
  8
0
100
AcDbLine
 62
6
  6
CONTINUOUS
 10
4.6625022803
 20
2.4395486049
 11
7.2969022803
 21
2.4395486049
  0
LINE
  5
211
100
AcDbEntity
  8
0
100
AcDbLine
 62
7
  6
CONTINUOUS
 10
4.4418093875
 20
2.4569175122
 11
4.4418093875
 21
5.4221796975
  0
LINE
  5
212
100
AcDbEntity
  8
0
100
AcDbLine
 62
7
  6
CONTINUOUS
 10
4.4837022803
 20
6.1475486049
 11
4.4837022803
 21
6.1085486049
  0
LINE
  5
213
100
AcDbEntity
  8
0
100
AcDbLine
 62
9
  6
CONTINUOUS
 10
5.0340022803
 20
2.6570328761
 11
5.1520022803
 21
2.6570328761
  0
LINE
  5
214
100
AcDbEntity
  8
0
100
AcDbLine
 62
9
  6
CONTINUOUS
 10
5.6250022803
 20
2.6570328761
 11
5.7430022803
 21
2.6570328761
  0
LINE
  5
215
100
AcDbEntity
  8
0
100
AcDbLine
 62
9
  6
CONTINUOUS
 10
6.2160022803
 20
2.6570328761
 11
6.3340022803
 21
2.6570328761
  0
LINE
  5
216
100
AcDbEntity
  8
0
100
AcDbLine
 62
9
  6
CONTINUOUS
 10
6.8070022803
 20
2.6570328761
 11
6.9250022803
 21
2.6570328761
  0
LINE
  5
217
100
AcDbEntity
  8
0
100
AcDbLine
 62
9
  6
CONTINUOUS
 10
4.4418093875
 20
2.6646230336
 11
4.5598093875
 21
2.6646230336
  0
LINE
  5
218
100
AcDbEntity
  8
0
100
AcDbLine
 62
9
  6
CONTINUOUS
 10
7.3975951731
 20
2.6646230336
 11
7.5155951731
 21
2.6646230336
  0
LINE
  5
219
100
AcDbEntity
  8
0
100
AcDbLine
 62
7
  6
CONTINUOUS
 10
4.5598093875
 20
2.4476307108
 11
4.5598093875
 21
5.4314664989
  0
LINE
  5
21A
100
AcDbEntity
  8
0
100
AcDbLine
 62
7
  6
CONTINUOUS
 10
4.6112022803
 20
5.9905486049
 11
4.6112022803
 21
5.6755486049
  0
LINE
  5
21B
100
AcDbEntity
  8
0
100
AcDbLine
 62
7
  6
CONTINUOUS
 10
4.6412022803
 20
5.4395486049
 11
4.6412022803
 21
5.434538425
  0
LINE
  5
21C
100
AcDbEntity
  8
0
100
AcDbLine
 62
9
  6
CONTINUOUS
 10
4.6625022803
 20
5.6755486049
 11
4.6625022803
 21
5.4395486049
  0
LINE
  5
21D
100
AcDbEntity
  8
0
100
AcDbLine
 62
9
  6
CONTINUOUS
 10
4.6625022803
 20
2.4395486049
 11
4.6625022803
 21
2.2035486049
  0
LINE
  5
21E
100
AcDbEntity
  8
0
100
AcDbLine
 62
9
  6
CONTINUOUS
 10
3.8512093875
 20
2.8410268663
 11
3.9692093875
 21
2.8410268663
  0
LINE
  5
21F
100
AcDbEntity
  8
0
100
AcDbLine
 62
9
  6
CONTINUOUS
 10
7.9881951731
 20
2.8410268663
 11
8.1061951731
 21
2.8410268663
  0
LINE
  5
220
100
AcDbEntity
  8
0
100
AcDbLine
 62
7
  6
CONTINUOUS
 10
4.9562022803
 20
5.4395486049
 11
4.9562022803
 21
5.434538425
  0
LINE
  5
221
100
AcDbEntity
  8
0
100
AcDbLine
 62
7
  6
CONTINUOUS
 10
4.9862022803
 20
5.9905486049
 11
4.9862022803
 21
5.6755486049
  0
LINE
  5
222
100
AcDbEntity
  8
0
100
AcDbLine
 62
7
  6
CONTINUOUS
 10
5.0340022803
 20
5.4395486049
 11
5.0340022803
 21
2.4395486049
  0
LINE
  5
223
100
AcDbEntity
  8
0
100
AcDbLine
 62
7
  6
CONTINUOUS
 10
5.1137022803
 20
6.1475486049
 11
5.1137022803
 21
6.1085486049
  0
LINE
  5
224
100
AcDbEntity
  8
0
100
AcDbLine
 62
7
  6
CONTINUOUS
 10
5.1520022803
 20
5.4395486049
 11
5.1520022803
 21
2.4395486049
  0
LINE
  5
225
100
AcDbEntity
  8
0
100
AcDbLine
 62
9
  6
CONTINUOUS
 10
3.2802277981
 20
3.3690486049
 11
3.3786093875
 21
3.3690486049
  0
LINE
  5
226
100
AcDbEntity
  8
0
100
AcDbLine
 62
9
  6
CONTINUOUS
 10
8.5787951731
 20
3.3690486049
 11
8.6796426106
 21
3.3690486049
  0
LINE
  5
227
100
AcDbEntity
  8
0
100
AcDbLine
 62
7
  6
CONTINUOUS
 10
5.6250022803
 20
5.4395486049
 11
5.6250022803
 21
2.4395486049
  0
LINE
  5
228
100
AcDbEntity
  8
0
100
AcDbLine
 62
7
  6
CONTINUOUS
 10
5.7430022803
 20
5.4395486049
 11
5.7430022803
 21
2.4395486049
  0
LINE
  5
229
100
AcDbEntity
  8
0
100
AcDbLine
 62
7
  6
CONTINUOUS
 10
6.2160022803
 20
5.4395486049
 11
6.2160022803
 21
2.4395486049
  0
LINE
  5
22A
100
AcDbEntity
  8
0
100
AcDbLine
 62
7
  6
CONTINUOUS
 10
6.3340022803
 20
5.4395486049
 11
6.3340022803
 21
2.4395486049
  0
LINE
  5
22B
100
AcDbEntity
  8
0
100
AcDbLine
 62
9
  6
CONTINUOUS
 10
8.6791767625
 20
4.5100486049
 11
8.5787951731
 21
4.5100486049
  0
LINE
  5
22C
100
AcDbEntity
  8
0
100
AcDbLine
 62
9
  6
CONTINUOUS
 10
3.27976195
 20
4.5100486049
 11
3.3786093875
 21
4.5100486049
  0
LINE
  5
22D
100
AcDbEntity
  8
0
100
AcDbLine
 62
7
  6
CONTINUOUS
 10
6.8070022803
 20
5.4395486049
 11
6.8070022803
 21
2.4395486049
  0
LINE
  5
22E
100
AcDbEntity
  8
0
100
AcDbLine
 62
7
  6
CONTINUOUS
 10
6.8457022803
 20
6.1475486049
 11
6.8457022803
 21
6.1085486049
  0
LINE
  5
22F
100
AcDbEntity
  8
0
100
AcDbLine
 62
7
  6
CONTINUOUS
 10
6.9250022803
 20
5.4395486049
 11
6.9250022803
 21
2.4395486049
  0
LINE
  5
230
100
AcDbEntity
  8
0
100
AcDbLine
 62
7
  6
CONTINUOUS
 10
6.9732022803
 20
5.9905486049
 11
6.9732022803
 21
5.6755486049
  0
LINE
  5
231
100
AcDbEntity
  8
0
100
AcDbLine
 62
9
  6
CONTINUOUS
 10
8.1061951731
 20
5.0380703435
 11
7.9881951731
 21
5.0380703435
  0
LINE
  5
232
100
AcDbEntity
  8
0
100
AcDbLine
 62
9
  6
CONTINUOUS
 10
3.8512093875
 20
5.0380703435
 11
3.9692093875
 21
5.0380703435
  0
LINE
  5
233
100
AcDbEntity
  8
0
100
AcDbLine
 62
7
  6
CONTINUOUS
 10
7.0032022803
 20
5.4395486049
 11
7.0032022803
 21
5.434538425
  0
LINE
  5
234
100
AcDbEntity
  8
0
100
AcDbLine
 62
9
  6
CONTINUOUS
 10
7.5155951731
 20
5.2146486577
 11
7.3975951731
 21
5.2146486577
  0
LINE
  5
235
100
AcDbEntity
  8
0
100
AcDbLine
 62
9
  6
CONTINUOUS
 10
4.4418093875
 20
5.2146486577
 11
4.5598093875
 21
5.2146486577
  0
LINE
  5
236
100
AcDbEntity
  8
0
100
AcDbLine
 62
9
  6
CONTINUOUS
 10
6.9250022803
 20
5.2225486049
 11
6.8070022803
 21
5.2225486049
  0
LINE
  5
237
100
AcDbEntity
  8
0
100
AcDbLine
 62
9
  6
CONTINUOUS
 10
6.3340022803
 20
5.2225486049
 11
6.2160022803
 21
5.2225486049
  0
LINE
  5
238
100
AcDbEntity
  8
0
100
AcDbLine
 62
9
  6
CONTINUOUS
 10
5.7430022803
 20
5.2225486049
 11
5.6250022803
 21
5.2225486049
  0
LINE
  5
239
100
AcDbEntity
  8
0
100
AcDbLine
 62
9
  6
CONTINUOUS
 10
5.1520022803
 20
5.2225486049
 11
5.0340022803
 21
5.2225486049
  0
LINE
  5
23A
100
AcDbEntity
  8
0
100
AcDbLine
 62
9
  6
CONTINUOUS
 10
7.2969022803
 20
2.2035486049
 11
7.2969022803
 21
2.4395486049
  0
LINE
  5
23B
100
AcDbEntity
  8
0
100
AcDbLine
 62
9
  6
CONTINUOUS
 10
7.2969022803
 20
5.4395486049
 11
7.2969022803
 21
5.6755486049
  0
LINE
  5
23C
100
AcDbEntity
  8
0
100
AcDbLine
 62
7
  6
CONTINUOUS
 10
7.3182022803
 20
5.4395486049
 11
7.3182022803
 21
5.434538425
  0
LINE
  5
23D
100
AcDbEntity
  8
0
100
AcDbLine
 62
7
  6
CONTINUOUS
 10
7.3482022803
 20
5.9905486049
 11
7.3482022803
 21
5.6755486049
  0
LINE
  5
23E
100
AcDbEntity
  8
0
100
AcDbLine
 62
7
  6
CONTINUOUS
 10
7.3975951731
 20
5.4316239023
 11
7.3975951731
 21
2.4474733074
  0
LINE
  5
23F
100
AcDbEntity
  8
0
100
AcDbLine
 62
7
  6
CONTINUOUS
 10
4.6412022803
 20
5.434538425
 11
4.9562022803
 21
5.434538425
  0
LINE
  5
240
100
AcDbEntity
  8
0
100
AcDbLine
 62
7
  6
CONTINUOUS
 10
7.0032022803
 20
5.434538425
 11
7.3182022803
 21
5.434538425
  0
LINE
  5
241
100
AcDbEntity
  8
0
100
AcDbLine
 62
6
  6
CONTINUOUS
 10
5.9077535895
 20
5.4395486049
 11
4.6625022803
 21
5.4395486049
  0
LINE
  5
242
100
AcDbEntity
  8
0
100
AcDbLine
 62
6
  6
CONTINUOUS
 10
6.0516804546
 20
5.4395486049
 11
7.2969022803
 21
5.4395486049
  0
LINE
  5
243
100
AcDbEntity
  8
0
100
AcDbLine
 62
7
  6
CONTINUOUS
 10
7.4757022803
 20
6.1475486049
 11
7.4757022803
 21
6.1085486049
  0
LINE
  5
244
100
AcDbEntity
  8
0
100
AcDbLine
 62
7
  6
CONTINUOUS
 10
7.5155951731
 20
5.4223371009
 11
7.5155951731
 21
2.4567601088
  0
LINE
  5
245
100
AcDbEntity
  8
0
100
AcDbLine
 62
7
  6
CONTINUOUS
 10
4.6112022803
 20
5.6755486049
 11
4.6625022803
 21
5.6755486049
  0
LINE
  5
246
100
AcDbEntity
  8
0
100
AcDbLine
 62
9
  6
CONTINUOUS
 10
4.6625022803
 20
5.6755486049
 11
4.7206234236
 21
5.6755486049
  0
LINE
  5
247
100
AcDbEntity
  8
0
100
AcDbLine
 62
7
  6
CONTINUOUS
 10
4.7206234236
 20
5.6755486049
 11
4.8768861163
 21
5.6755486049
  0
LINE
  5
248
100
AcDbEntity
  8
0
100
AcDbLine
 62
9
  6
CONTINUOUS
 10
4.8768861163
 20
5.6755486049
 11
5.8901653985
 21
5.6755486049
  0
LINE
  5
249
100
AcDbEntity
  8
0
100
AcDbLine
 62
6
  6
CONTINUOUS
 10
5.8901653985
 20
5.6755486049
 11
5.907759677
 21
5.6755486049
  0
LINE
  5
24A
100
AcDbEntity
  8
0
100
AcDbLine
 62
6
  6
CONTINUOUS
 10
6.0516804878
 20
5.6755486049
 11
6.069239162
 21
5.6755486049
  0
LINE
  5
24B
100
AcDbEntity
  8
0
100
AcDbLine
 62
9
  6
CONTINUOUS
 10
6.069239162
 20
5.6755486049
 11
7.0826234236
 21
5.6755486049
  0
LINE
  5
24C
100
AcDbEntity
  8
0
100
AcDbLine
 62
9
  6
CONTINUOUS
 10
7.2388861163
 20
5.6755486049
 11
7.2969022803
 21
5.6755486049
  0
LINE
  5
24D
100
AcDbEntity
  8
0
100
AcDbLine
 62
7
  6
CONTINUOUS
 10
7.0826234236
 20
5.6755486049
 11
7.2388861163
 21
5.6755486049
  0
LINE
  5
24E
100
AcDbEntity
  8
0
100
AcDbLine
 62
7
  6
CONTINUOUS
 10
7.2969022803
 20
5.6755486049
 11
7.3482022803
 21
5.6755486049
  0
LINE
  5
24F
100
AcDbEntity
  8
0
100
AcDbLine
 62
7
  6
CONTINUOUS
 10
4.6017326659
 20
5.9905486049
 11
4.9957022803
 21
5.9905486049
  0
LINE
  5
250
100
AcDbEntity
  8
0
100
AcDbLine
 62
7
  6
CONTINUOUS
 10
6.9637326659
 20
5.9905486049
 11
7.3577022803
 21
5.9905486049
  0
LINE
  5
251
100
AcDbEntity
  8
0
100
AcDbLine
 62
9
  6
CONTINUOUS
 10
4.4837022803
 20
6.1085486049
 11
5.1137022803
 21
6.1085486049
  0
LINE
  5
252
100
AcDbEntity
  8
0
100
AcDbLine
 62
9
  6
CONTINUOUS
 10
6.8457022803
 20
6.1085486049
 11
7.4757022803
 21
6.1085486049
  0
LINE
  5
253
100
AcDbEntity
  8
0
100
AcDbLine
 62
7
  6
CONTINUOUS
 10
7.9881951731
 20
5.2697421657
 11
7.9881951731
 21
2.6093550441
  0
LINE
  5
254
100
AcDbEntity
  8
0
100
AcDbLine
 62
7
  6
CONTINUOUS
 10
8.1061951731
 20
5.1974316727
 11
8.1061951731
 21
2.6820278297
  0
LINE
  5
255
100
AcDbEntity
  8
0
100
AcDbLine
 62
7
  6
CONTINUOUS
 10
4.4837022803
 20
6.1475486049
 11
5.1137022803
 21
6.1475486049
  0
LINE
  5
256
100
AcDbEntity
  8
0
100
AcDbLine
 62
7
  6
CONTINUOUS
 10
6.8457022803
 20
6.1475486049
 11
7.4757022803
 21
6.1475486049
  0
LINE
  5
257
100
AcDbEntity
  8
0
100
AcDbLine
 62
7
  6
CONTINUOUS
 10
8.5787951731
 20
4.7140345064
 11
8.5787951731
 21
3.1650627033
  0
LINE
  5
258
100
AcDbEntity
  8
0
100
AcDbLine
 62
7
  6
CONTINUOUS
 10
8.6967951731
 20
4.4732648159
 11
8.6967951731
 21
3.4058323939
  0
ARC
  5
259
100
AcDbEntity
  8
0
100
AcDbCircle
 62
9
  6
CONTINUOUS
 10
4.6625022803
 20
3.9395486049
 40
1.736
100
AcDbArc
 50
90.0
 51
270.0
  0
ARC
  5
25A
100
AcDbEntity
  8
0
100
AcDbCircle
 62
9
  6
CONTINUOUS
 10
4.6625022803
 20
3.9395486049
 40
1.5
100
AcDbArc
 50
90.0
 51
270.0
  0
ARC
  5
25B
100
AcDbEntity
  8
0
100
AcDbCircle
 62
7
  6
CONTINUOUS
 10
4.7987022803
 20
5.9625486049
 40
0.551
100
AcDbArc
 50
253.3906996543
 51
286.6093003457
  0
ARC
  5
25C
100
AcDbEntity
  8
0
100
AcDbCircle
 62
6
  6
CONTINUOUS
 10
5.6157022803
 20
5.5575486049
 40
0.315
100
AcDbArc
 50
337.8475785823
 51
22.1496551589
  0
ARC
  5
25D
100
AcDbEntity
  8
0
100
AcDbCircle
 62
7
  6
CONTINUOUS
 10
4.6017022803
 20
6.1085486049
 40
0.118
100
AcDbArc
 50
180.0
 51
270.0
  0
ARC
  5
25E
100
AcDbEntity
  8
0
100
AcDbCircle
 62
7
  6
CONTINUOUS
 10
4.9957022803
 20
6.1085486049
 40
0.118
100
AcDbArc
 50
270.0
 51
360.0
  0
ARC
  5
25F
100
AcDbEntity
  8
0
100
AcDbCircle
 62
9
  6
CONTINUOUS
 10
7.2969022803
 20
3.9395486049
 40
1.736
100
AcDbArc
 50
270.0
 51
90.0
  0
ARC
  5
260
100
AcDbEntity
  8
0
100
AcDbCircle
 62
9
  6
CONTINUOUS
 10
7.2969022803
 20
3.9395486049
 40
1.5
100
AcDbArc
 50
270.0
 51
90.0
  0
ARC
  5
261
100
AcDbEntity
  8
0
100
AcDbCircle
 62
7
  6
CONTINUOUS
 10
7.1607022803
 20
5.9625486049
 40
0.551
100
AcDbArc
 50
253.3906996543
 51
286.6093003457
  0
ARC
  5
262
100
AcDbEntity
  8
0
100
AcDbCircle
 62
6
  6
CONTINUOUS
 10
6.3437022803
 20
5.5575486049
 40
0.315
100
AcDbArc
 50
157.8469482267
 51
202.1530499808
  0
ARC
  5
263
100
AcDbEntity
  8
0
100
AcDbCircle
 62
7
  6
CONTINUOUS
 10
6.9637022803
 20
6.1085486049
 40
0.118
100
AcDbArc
 50
180.0
 51
270.0
  0
ARC
  5
264
100
AcDbEntity
  8
0
100
AcDbCircle
 62
7
  6
CONTINUOUS
 10
7.3577022803
 20
6.1085486049
 40
0.118
100
AcDbArc
 50
270.0
 51
360.0
  0
SPLINE
  5
265
100
AcDbEntity
  8
0
100
AcDbSpline
 62
6
  6
CONTINUOUS
 70
0
 71
3
 72
28
 73
24
 74
22
 42
0.0000001
 43
0.0000001
 44
0.0000000001
 12
-0.1239786308
 22
0.0
 32
0.0
 13
-0.0
 23
0.1239786308
 33
0.0
 40
0.0
 40
0.0
 40
0.0
 40
0.0
 40
0.0116769827
 40
0.0233216704
 40
0.0353543668
 40
0.0481577254
 40
0.0620513469
 40
0.0772868111
 40
0.0940470193
 40
0.1124424453
 40
0.1325441611
 40
0.154398388
 40
0.2034523459
 40
0.2596399752
 40
0.3226977399
 40
0.3922156946
 40
0.4675912373
 40
0.5481195962
 40
0.6330551559
 40
0.7216031415
 40
0.8129429605
 40
0.9061022242
 40
1.0
 40
1.0
 40
1.0
 40
1.0
 10
5.8901653985
 20
5.4395486049
 30
0.0
 10
5.8896828331
 20
5.4395486049
 30
0.0
 10
5.8887161487
 20
5.4396381029
 30
0.0
 10
5.887307196
 20
5.4400572326
 30
0.0
 10
5.8859621284
 20
5.4407566606
 30
0.0
 10
5.8846840678
 20
5.4417313922
 30
0.0
 10
5.8834723679
 20
5.4429776198
 30
0.0
 10
5.8823259696
 20
5.4444933089
 30
0.0
 10
5.881244545
 20
5.4462764659
 30
0.0
 10
5.8802290043
 20
5.4483243293
 30
0.0
 10
5.8792817001
 20
5.4506334365
 30
0.0
 10
5.8780660821
 20
5.4541946574
 30
0.0
 10
5.8767723987
 20
5.4592937025
 30
0.0
 10
5.8755727885
 20
5.4661486219
 30
0.0
 10
5.8746317898
 20
5.4738951949
 30
0.0
 10
5.8739201049
 20
5.4824609444
 30
0.0
 10
5.8734047043
 20
5.491763364
 30
0.0
 10
5.8730552018
 20
5.5017106853
 30
0.0
 10
5.8728367032
 20
5.5122059826
 30
0.0
 10
5.8727034217
 20
5.5231493685
 30
0.0
 10
5.8726034882
 20
5.5344329328
 30
0.0
 10
5.8725295144
 20
5.5459377989
 30
0.0
 10
5.8725102814
 20
5.5536681656
 30
0.0
 10
5.8725102814
 20
5.5575486049
 30
0.0
 11
5.8901653985
 21
5.4395486049
 31
0.0
 11
5.8887241514
 21
5.4396851021
 31
0.0
 11
5.8873397349
 21
5.4400945391
 31
0.0
 11
5.8860131104
 21
5.4407768341
 31
0.0
 11
5.8847452396
 21
5.4417319053
 31
0.0
 11
5.883537084
 21
5.4429596709
 31
0.0
 11
5.8823896057
 21
5.4444600478
 31
0.0
 11
5.8813042659
 21
5.4462319783
 31
0.0
 11
5.8802839371
 21
5.4482716466
 31
0.0
 11
5.8793317401
 21
5.4505747528
 31
0.0
 11
5.8784507954
 21
5.4531369968
 31
0.0
 11
5.8769147697
 21
5.4590214679
 31
0.0
 11
5.8756784879
 21
5.4658769529
 31
0.0
 11
5.8747108639
 21
5.4736346549
 31
0.0
 11
5.873978041
 21
5.4822221844
 31
0.0
 11
5.873446922
 21
5.4915520358
 31
0.0
 11
5.8730847596
 21
5.5015292606
 31
0.0
 11
5.872854652
 21
5.5120569405
 31
0.0
 11
5.8727108109
 21
5.5230340561
 31
0.0
 11
5.8726086887
 21
5.5343577813
 31
0.0
 11
5.8725372682
 21
5.5459073185
 31
0.0
 11
5.8725102814
 21
5.5575486049
 31
0.0
  0
SPLINE
  5
266
100
AcDbEntity
  8
0
100
AcDbSpline
 62
6
  6
CONTINUOUS
 70
0
 71
3
 72
31
 73
27
 74
25
 42
0.0000001
 43
0.0000001
 44
0.0000000001
 12
0.1239676675
 22
0.0
 32
0.0
 13
-0.0
 23
-0.1239676675
 33
0.0
 40
0.0
 40
0.0
 40
0.0
 40
0.0
 40
0.0116674153
 40
0.023288164
 40
0.0352921935
 40
0.0480701297
 40
0.061946761
 40
0.0771761624
 40
0.0939409081
 40
0.1123460497
 40
0.1324578748
 40
0.1543196769
 40
0.2033759689
 40
0.2305920469
 40
0.259567079
 40
0.322629313
 40
0.3921582538
 40
0.4675386506
 40
0.507203332
 40
0.5480639597
 40
0.6329949046
 40
0.7215493778
 40
0.766934608
 40
0.8129098633
 40
0.9060895698
 40
1.0
 40
1.0
 40
1.0
 40
1.0
 10
6.0692391621
 20
5.6755486049
 30
0.0
 10
6.0697212895
 20
5.6755486049
 30
0.0
 10
6.0706865348
 20
5.6754592235
 30
0.0
 10
6.0720926256
 20
5.6750397043
 30
0.0
 10
6.0734336041
 20
5.6743396124
 30
0.0
 10
6.0747072795
 20
5.6733642348
 30
0.0
 10
6.0759153536
 20
5.6721175706
 30
0.0
 10
6.0770599534
 20
5.6706017981
 30
0.0
 10
6.0781421969
 20
5.6688190309
 30
0.0
 10
6.0791602219
 20
5.6667715238
 30
0.0
 10
6.0801105798
 20
5.6644626685
 30
0.0
 10
6.0813295264
 20
5.6609020948
 30
0.0
 10
6.0823281094
 20
5.6569646178
 30
0.0
 10
6.0831594811
 20
5.6526955122
 30
0.0
 10
6.0839470883
 20
5.6478301379
 30
0.0
 10
6.0847487384
 20
5.6411997584
 30
0.0
 10
6.0854813596
 20
5.6326360223
 30
0.0
 10
6.0859255589
 20
5.6250210532
 30
0.0
 10
6.0861957048
 20
5.6185842217
 30
0.0
 10
6.0864120261
 20
5.6117504514
 30
0.0
 10
6.0865775746
 20
5.6028943823
 30
0.0
 10
6.0866675755
 20
5.5938505297
 30
0.0
 10
6.0867319039
 20
5.586416262
 30
0.0
 10
6.0867978681
 20
5.578790875
 30
0.0
 10
6.0868687308
 20
5.5691602703
 30
0.0
 10
6.0868942792
 20
5.5614292239
 30
0.0
 10
6.0868942792
 20
5.5575486049
 30
0.0
 11
6.0692391621
 21
5.6755486049
 31
0.0
 11
6.0706790785
 21
5.675411995
 31
0.0
 11
6.0720601834
 21
5.6750022765
 31
0.0
 11
6.0733824735
 21
5.6743196162
 31
0.0
 11
6.0746459452
 21
5.673364181
 31
0.0
 11
6.0758505952
 21
5.6721361375
 31
0.0
 11
6.0769964199
 21
5.670635653
 31
0.0
 11
6.078082533
 21
5.6688637521
 31
0.0
 11
6.0791052643
 21
5.6668241656
 31
0.0
 11
6.0800603957
 21
5.6645211566
 31
0.0
 11
6.0809437092
 21
5.6619589884
 31
0.0
 11
6.082478522
 21
5.6560744575
 31
0.0
 11
6.0831285196
 21
5.6527637481
 31
0.0
 11
6.0837069749
 21
5.6492186645
 31
0.0
 11
6.0846734906
 21
5.6414609627
 31
0.0
 11
6.0854235135
 21
5.6328743162
 31
0.0
 11
6.08597823
 21
5.6235460631
 31
0.0
 11
6.0861853225
 21
5.618633288
 31
0.0
 11
6.0863473056
 21
5.613570482
 31
0.0
 11
6.0865597605
 21
5.6030439346
 31
0.0
 11
6.0866821854
 21
5.5920667257
 31
0.0
 11
6.0867316907
 21
5.5864406424
 31
0.0
 11
6.0867801836
 21
5.5807414035
 31
0.0
 11
6.0868607358
 21
5.5691904135
 31
0.0
 11
6.0868942792
 21
5.5575486049
 31
0.0
  0
SPLINE
  5
267
100
AcDbEntity
  8
0
100
AcDbSpline
 62
6
  6
CONTINUOUS
 70
0
 71
3
 72
28
 73
24
 74
22
 42
0.0000001
 43
0.0000001
 44
0.0000000001
 12
-0.0
 22
-0.1239785819
 32
0.0
 13
-0.1239785819
 23
0.0
 33
0.0
 40
0.0
 40
0.0
 40
0.0
 40
0.0
 40
0.0938979548
 40
0.1870576272
 40
0.2783979887
 40
0.3669463078
 40
0.4518820135
 40
0.5324103505
 40
0.6077857073
 40
0.6773034839
 40
0.7403609455
 40
0.7965482332
 40
0.8456020346
 40
0.867456259
 40
0.8875580422
 40
0.9059535956
 40
0.9227139429
 40
0.9379494707
 40
0.9518430368
 40
0.9646462237
 40
0.9766786732
 40
0.9883231237
 40
1.0
 40
1.0
 40
1.0
 40
1.0
 10
6.0868942792
 20
5.5575486049
 30
0.0
 10
6.0868942792
 20
5.5536681598
 30
0.0
 10
6.0868751593
 20
5.5459377718
 30
0.0
 10
6.0868013913
 20
5.534432862
 30
0.0
 10
6.0867012917
 20
5.5231492502
 30
0.0
 10
6.0865675089
 20
5.512205832
 30
0.0
 10
6.0863485612
 20
5.5017105302
 30
0.0
 10
6.0859990193
 20
5.4917632191
 30
0.0
 10
6.0854838725
 20
5.4824608068
 30
0.0
 10
6.0847725318
 20
5.4738950601
 30
0.0
 10
6.083831811
 20
5.4661484897
 30
0.0
 10
6.0826323878
 20
5.4592935729
 30
0.0
 10
6.0813387383
 20
5.4541945362
 30
0.0
 10
6.0801230201
 20
5.4506333537
 30
0.0
 10
6.0791756222
 20
5.448324277
 30
0.0
 10
6.0781599873
 20
5.4462764459
 30
0.0
 10
6.0770784915
 20
5.4444933182
 30
0.0
 10
6.0759320678
 20
5.4429776436
 30
0.0
 10
6.0747203782
 20
5.4417314179
 30
0.0
 10
6.0734423488
 20
5.4407566801
 30
0.0
 10
6.0720973178
 20
5.4400572416
 30
0.0
 10
6.0706883931
 20
5.4396381032
 30
0.0
 10
6.0697217229
 20
5.4395486049
 30
0.0
 10
6.0692391621
 20
5.4395486049
 30
0.0
 11
6.0868942792
 21
5.5575486049
 31
0.0
 11
6.0868674123
 21
5.5459073006
 31
0.0
 11
6.0867961288
 21
5.5343577165
 31
0.0
 11
6.0866938412
 21
5.52303393
 31
0.0
 11
6.0865495588
 21
5.5120567831
 31
0.0
 11
6.0863190653
 21
5.5015290977
 31
0.0
 11
6.0859568539
 21
5.4915518814
 31
0.0
 11
6.0854259636
 21
5.4822220438
 31
0.0
 11
6.084693461
 21
5.4736345124
 31
0.0
 11
6.0837261092
 21
5.4658768175
 31
0.0
 11
6.082490001
 21
5.459021347
 31
0.0
 11
6.0809539877
 21
5.4531368952
 31
0.0
 11
6.0800729747
 21
5.4505746761
 31
0.0
 11
6.0791206867
 21
5.4482715996
 31
0.0
 11
6.0781002669
 21
5.4462319602
 31
0.0
 11
6.0770148585
 21
5.4444600524
 31
0.0
 11
6.0758673526
 21
5.4429596876
 31
0.0
 11
6.0746592051
 21
5.4417319247
 31
0.0
 11
6.0733913644
 21
5.4407768499
 31
0.0
 11
6.0720647785
 21
5.4400945482
 31
0.0
 11
6.070680395
 21
5.4396851049
 31
0.0
 11
6.0692391621
 21
5.4395486049
 31
0.0
  0
SPLINE
  5
268
100
AcDbEntity
  8
0
100
AcDbSpline
 62
6
  6
CONTINUOUS
 70
0
 71
3
 72
28
 73
24
 74
22
 42
0.0000001
 43
0.0000001
 44
0.0000000001
 12
-0.0
 22
0.1239785819
 32
0.0
 13
0.1239785819
 23
-0.0
 33
0.0
 40
0.0
 40
0.0
 40
0.0
 40
0.0
 40
0.0938979548
 40
0.1870576272
 40
0.2783979887
 40
0.3669463078
 40
0.4518820135
 40
0.5324103505
 40
0.6077857073
 40
0.6773034839
 40
0.7403609455
 40
0.7965482332
 40
0.8456020346
 40
0.867456259
 40
0.8875580422
 40
0.9059535956
 40
0.9227139429
 40
0.9379494707
 40
0.9518430368
 40
0.9646462237
 40
0.9766786732
 40
0.9883231237
 40
1.0
 40
1.0
 40
1.0
 40
1.0
 10
5.8725102814
 20
5.5575486049
 30
0.0
 10
5.8725102814
 20
5.56142905
 30
0.0
 10
5.8725294013
 20
5.5691594379
 30
0.0
 10
5.8726031693
 20
5.5806643478
 30
0.0
 10
5.8727032689
 20
5.5919479596
 30
0.0
 10
5.8728370516
 20
5.6028913778
 30
0.0
 10
5.8730559994
 20
5.6133866795
 30
0.0
 10
5.8734055413
 20
5.6233339906
 30
0.0
 10
5.8739206881
 20
5.6326364029
 30
0.0
 10
5.8746320288
 20
5.6412021496
 30
0.0
 10
5.8755727496
 20
5.6489487201
 30
0.0
 10
5.8767721728
 20
5.6558036368
 30
0.0
 10
5.8780658223
 20
5.6609026736
 30
0.0
 10
5.8792815405
 20
5.6644638561
 30
0.0
 10
5.8802289384
 20
5.6667729328
 30
0.0
 10
5.8812445733
 20
5.6688207638
 30
0.0
 10
5.8823260691
 20
5.6706038915
 30
0.0
 10
5.8834724928
 20
5.6721195662
 30
0.0
 10
5.8846841823
 20
5.6733657918
 30
0.0
 10
5.8859622118
 20
5.6743405296
 30
0.0
 10
5.8873072428
 20
5.6750399682
 30
0.0
 10
5.8887161675
 20
5.6754591066
 30
0.0
 10
5.8896828377
 20
5.6755486049
 30
0.0
 10
5.8901653985
 20
5.6755486049
 30
0.0
 11
5.8725102814
 21
5.5575486049
 31
0.0
 11
5.8725371483
 21
5.5691899091
 31
0.0
 11
5.8726084318
 21
5.5807394932
 31
0.0
 11
5.8727107194
 21
5.5920632798
 31
0.0
 11
5.8728550018
 21
5.6030404266
 31
0.0
 11
5.8730854953
 21
5.613568112
 31
0.0
 11
5.8734477067
 21
5.6235453284
 31
0.0
 11
5.873978597
 21
5.632875166
 31
0.0
 11
5.8747110996
 21
5.6414626973
 31
0.0
 11
5.8756784514
 21
5.6492203923
 31
0.0
 11
5.8769145596
 21
5.6560758627
 31
0.0
 11
5.8784505729
 21
5.6619603146
 31
0.0
 11
5.8793315859
 21
5.6645225336
 31
0.0
 11
5.8802838739
 21
5.6668256102
 31
0.0
 11
5.8813042937
 21
5.6688652496
 31
0.0
 11
5.8823897021
 21
5.6706371573
 31
0.0
 11
5.883537208
 21
5.6721375222
 31
0.0
 11
5.8847453555
 21
5.6733652851
 31
0.0
 11
5.8860131961
 21
5.6743203599
 31
0.0
 11
5.8873397821
 21
5.6750026615
 31
0.0
 11
5.8887241655
 21
5.6754121048
 31
0.0
 11
5.8901653985
 21
5.6755486049
 31
0.0
  0
ENDSEC
  0
SECTION
  2
OBJECTS
  0
DICTIONARY
  5
C
100
AcDbDictionary
280
0
281
1
  3
ACAD_GROUP
350
D
  3
ACAD_MLINESTYLE
350
17
  3
ACAD_LAYOUT
350
1A
  3
ACAD_PLOTSETTINGS
350
19
  3
ACAD_PLOTSTYLENAME
350
E
  0
DICTIONARY
  5
D
102
{ACAD_REACTORS
330
C
102
}
100
AcDbDictionary
280
0
281
1
  0
ACDBDICTIONARYWDFLT
  5
E
102
{ACAD_REACTORS
330
C
102
}
100
AcDbDictionary
281
1
  3
Normal
350
F
100
AcDbDictionaryWithDefault
340
F
  0
DICTIONARY
  5
17
102
{ACAD_REACTORS
330
C
102
}
100
AcDbDictionary
280
0
281
1
  3
Standard
350
18
  0
DICTIONARY
  5
19
102
{ACAD_REACTORS
330
C
102
}
100
AcDbDictionary
281
1
  0
DICTIONARY
  5
1A
102
{ACAD_REACTORS
330
C
102
}
100
AcDbDictionary
281
1
  3
Model
350
269
  3
Layout1
350
26A
  0
ACDBPLACEHOLDER
  5
F
102
{ACAD_REACTORS
330
E
102
}
  0
MLINESTYLE
  5
18
102
{ACAD_REACTORS
330
17
102
}
100
AcDbMlineStyle
  2
STANDARD
 70
0
  3

 62
256
 51
90.0
 52
90.0
 71
2
 49
0.5
 62
256
  6
BYLAYER
 49
-0.5
 62
256
  6
BYLAYER
  0
LAYOUT
  5
269
102
{ACAD_REACTORS
330
1A
102
}
100
AcDbPlotSettings
  1

  2
none_device
  4
ISO_A4_(297.00_x_210.00_MM)
  6

 40
0.0
 41
0.0
 42
0.0
 43
0.0
 44
297.0
 45
210.0
 46
0.0
 47
0.0
 48
0.0
 49
0.0
140
0.0
141
0.0
142
1.0
143
1.0
 70
1024
 72
0
 73
0
 74
0
  7

 75
0
147
1.0
148
0.0
149
0.0
100
AcDbLayout
  1
Model
 70
0
 71
0
 10
0.0
 20
0.0
 11
11.6929133858
 21
8.2677165354
 12
0.0
 22
0.0
 32
0.0
 14
0.0
 24
0.0
 34
0.0
 15
0.0
 25
0.0
 35
0.0
146
0.0
 13
0.0
 23
0.0
 33
0.0
 16
1.0
 26
0.0
 36
0.0
 17
0.0
 27
1.0
 37
0.0
 76
0
330
208
345
0
346
0
  0
LAYOUT
  5
26A
102
{ACAD_REACTORS
330
1A
102
}
100
AcDbPlotSettings
  1

  2
none_device
  4
ISO_A4_(297.00_x_210.00_MM)
  6

 40
0.0
 41
0.0
 42
0.0
 43
0.0
 44
297.0
 45
210.0
 46
0.0
 47
0.0
 48
0.0
 49
0.0
140
0.0
141
0.0
142
1.0
143
1.0
 70
0
 72
0
 73
0
 74
0
  7

 75
0
147
1.0
148
0.0
149
0.0
100
AcDbLayout
  1
Layout1
 70
0
 71
1
 10
0.0
 20
0.0
 11
11.6929133858
 21
8.2677165354
 12
0.0
 22
0.0
 32
0.0
 14
0.0
 24
0.0
 34
0.0
 15
0.0
 25
0.0
 35
0.0
146
0.0
 13
0.0
 23
0.0
 33
0.0
 16
1.0
 26
0.0
 36
0.0
 17
0.0
 27
1.0
 37
0.0
 76
0
330
209
345
0
346
0
  0
ENDSEC
  0
EOF
