  0
SECTION
  2
HEADER
  9
$ACADVER
  1
AC1015
  9
$DWGCODEPAGE
  3
ANSI_1252
  9
$EXTMAX
 10
11.6929133858
 20
8.2677165354
 30
0.0
  9
$EXTMIN
 10
0.0
 20
0.0
 30
0.0
  9
$LIMMIN
 10
0.0
 20
0.0
  9
$LIMMAX
 10
11.6929133858
 20
8.2677165354
  9
$VIEWCTR
 10
5.8464566929
 20
4.1338582677
  9
$VIEWSIZE
 40
8.2677165354
  9
$CLAYER
  8
0
  9
$LTSCALE
 40
0.6431102362
  9
$CELTYPE
  6
BYLAYER
  9
$DIMSCALE
 40
1.0
  9
$DIMASZ
 40
0.1
  9
$DIMEXO
 40
0.0730807087
  9
$DIMDLI
 40
0.4443307087
  9
$DIMEXE
 40
0.2104724409
  9
$DIMCEN
 40
0.1052362205
  9
$DIMLFAC
 40
1.0
  9
$DIMBLK
  1
_FILLED
  9
$DIMTXT
 40
0.08
  9
$DIMTOL
 70
1
  9
$DIMLIM
 70
0
  9
$DIMTFAC
 40
1.0
  9
$DIMTP
 40
0.01
  9
$DIMTM
 40
0.01
  9
$PDMODE
 70
3
  9
$PDSIZE
 40
0.06
  9
$HANDSEED
  5
28E
  9
$TILEMODE
 70
1
  9
$MEASUREMENT
 70
0
  9
$INSUNITS
 70
1
  0
ENDSEC
  0
SECTION
  2
CLASSES
  0
CLASS
  1
ACDBDICTIONARYWDFLT
  2
AcDbDictionaryWithDefault
  3
AutoCAD 2000
 90
0
280
0
281
0
  0
CLASS
  1
ACDBPLACEHOLDER
  2
AcDbPlaceHolder
  3
AutoCAD 2000
 90
0
280
0
281
0
  0
CLASS
  1
LAYOUT
  2
AcDbLayout
  3
AutoCAD 2000
 90
0
280
0
281
0
  0
ENDSEC
  0
SECTION
  2
TABLES
  0
TABLE
  2
VPORT
  5
8
100
AcDbSymbolTable
 70
2
  0
VPORT
  5
1F4
100
AcDbSymbolTableRecord
100
AcDbViewportTableRecord
  2
*ACTIVE
 70
0
 10
0.0
 20
0.0
 11
1.0
 21
1.0
 12
5.8464566929
 22
4.1338582677
 13
0.0
 23
0.0
 14
1.0
 24
1.0
 15
0.0
 25
0.0
 16
0.0
 26
0.0
 36
1.0
 17
0.0
 27
0.0
 37
0.0
 40
8.2677165354
 41
1.4142857143
 42
50.0
 43
0.0
 44
0.0
 50
0.0
 51
0.0
 71
0
 72
100
 73
1
 74
1
 75
0
 76
0
 77
0
 78
0
  0
ENDTAB
  0
TABLE
  2
LTYPE
  5
5
100
AcDbSymbolTable
 70
6
  0
LTYPE
  5
14
100
AcDbSymbolTableRecord
100
AcDbLinetypeTableRecord
  2
BYBLOCK
 70
0
  3

 72
65
 73
0
 40
0.0
  0
LTYPE
  5
15
100
AcDbSymbolTableRecord
100
AcDbLinetypeTableRecord
  2
BYLAYER
 70
0
  3

 72
65
 73
0
 40
0.0
  0
LTYPE
  5
16
100
AcDbSymbolTableRecord
100
AcDbLinetypeTableRecord
  2
CONTINUOUS
 70
64
  3
Solid line
 72
65
 73
0
 40
0.0
  0
LTYPE
  5
1F5
100
AcDbSymbolTableRecord
100
AcDbLinetypeTableRecord
  2
CENTER
 70
64
  3
____ _ ____ _ ____ _ ____ _ ____ _ ____ _ ____
 72
65
 73
4
 40
0.6
 49
0.375
 74
0
 49
-0.075
 74
0
 49
0.075
 74
0
 49
-0.075
 74
0
  0
LTYPE
  5
1F6
100
AcDbSymbolTableRecord
100
AcDbLinetypeTableRecord
  2
HIDDEN
 70
64
  3
- - - - - - - - - - - - - - - - - - - -
 72
65
 73
2
 40
0.2
 49
0.1
 74
0
 49
-0.1
 74
0
  0
LTYPE
  5
1F7
100
AcDbSymbolTableRecord
100
AcDbLinetypeTableRecord
  2
PHANTOM
 70
64
  3
_____ _ _ _____ _ _ _____ _ _ _____
 72
65
 73
6
 40
0.8
 49
0.45
 74
0
 49
-0.05
 74
0
 49
0.1
 74
0
 49
-0.05
 74
0
 49
0.1
 74
0
 49
-0.05
 74
0
  0
LTYPE
  5
1F8
100
AcDbSymbolTableRecord
100
AcDbLinetypeTableRecord
  2
DOT
 70
64
  3
. . . . . . . . . . . . . . . . . . . .
 72
65
 73
2
 40
0.2
 49
0.1
 74
0
 49
-0.1
 74
0
  0
LTYPE
  5
1F9
100
AcDbSymbolTableRecord
100
AcDbLinetypeTableRecord
  2
DASHED
 70
64
  3
- - - - - - - - - - - - - - - - - - - -
 72
65
 73
2
 40
0.2
 49
0.1
 74
0
 49
-0.1
 74
0
  0
ENDTAB
  0
TABLE
  2
LAYER
  5
2
100
AcDbSymbolTable
 70
36
  0
LAYER
  5
10
100
AcDbSymbolTableRecord
100
AcDbLayerTableRecord
  2
0
 70
0
 62
7
  6
CONTINUOUS
370
-3
390
F
  0
LAYER
  5
1FA
100
AcDbSymbolTableRecord
100
AcDbLayerTableRecord
  2
DEFAULT_1
 70
0
 62
7
  6
CENTER
370
-3
390
F
  0
LAYER
  5
1FB
100
AcDbSymbolTableRecord
100
AcDbLayerTableRecord
  2
DEFAULT_2
 70
0
 62
8
  6
HIDDEN
370
-3
390
F
  0
LAYER
  5
1FC
100
AcDbSymbolTableRecord
100
AcDbLayerTableRecord
  2
DEFAULT_3
 70
0
 62
7
  6
PHANTOM
370
-3
390
F
  0
LAYER
  5
1FD
100
AcDbSymbolTableRecord
100
AcDbLayerTableRecord
  2
BASKET_500_NONE
 70
0
 62
7
  6
CONTINUOUS
370
-3
390
F
  0
LAYER
  5
1FE
100
AcDbSymbolTableRecord
100
AcDbLayerTableRecord
  2
BASKET_501_NONE
 70
0
 62
7
  6
CONTINUOUS
370
-3
390
F
  0
LAYER
  5
1FF
100
AcDbSymbolTableRecord
100
AcDbLayerTableRecord
  2
BASKET_502_NONE
 70
0
 62
7
  6
CONTINUOUS
370
-3
390
F
  0
LAYER
  5
200
100
AcDbSymbolTableRecord
100
AcDbLayerTableRecord
  2
DEFAULT_COORDINATE_SYSTEM
 70
0
 62
7
  6
CONTINUOUS
370
-3
390
F
  0
LAYER
  5
201
100
AcDbSymbolTableRecord
100
AcDbLayerTableRecord
  2
DEFAULT_DATUM_AXES
 70
0
 62
7
  6
CONTINUOUS
370
-3
390
F
  0
LAYER
  5
202
100
AcDbSymbolTableRecord
100
AcDbLayerTableRecord
  2
DEFAULT_DATUM_CURVES
 70
0
 62
7
  6
CONTINUOUS
370
-3
390
F
  0
LAYER
  5
203
100
AcDbSymbolTableRecord
100
AcDbLayerTableRecord
  2
DEFAULT_DATUM_PLANES
 70
0
 62
7
  6
CONTINUOUS
370
-3
390
F
  0
LAYER
  5
204
100
AcDbSymbolTableRecord
100
AcDbLayerTableRecord
  2
POSTA_NONE
 70
0
 62
7
  6
CONTINUOUS
370
-3
390
F
  0
LAYER
  5
205
100
AcDbSymbolTableRecord
100
AcDbLayerTableRecord
  2
POSTA_NONE_1
 70
0
 62
7
  6
CONTINUOUS
370
-3
390
F
  0
LAYER
  5
206
100
AcDbSymbolTableRecord
100
AcDbLayerTableRecord
  2
PRT0001
 70
0
 62
7
  6
CONTINUOUS
370
-3
390
F
  0
LAYER
  5
207
100
AcDbSymbolTableRecord
100
AcDbLayerTableRecord
  2
PRT0001_1
 70
0
 62
7
  6
CONTINUOUS
370
-3
390
F
  0
LAYER
  5
208
100
AcDbSymbolTableRecord
100
AcDbLayerTableRecord
  2
PRT0002
 70
0
 62
7
  6
CONTINUOUS
370
-3
390
F
  0
LAYER
  5
209
100
AcDbSymbolTableRecord
100
AcDbLayerTableRecord
  2
PRT0002_1
 70
0
 62
7
  6
CONTINUOUS
370
-3
390
F
  0
LAYER
  5
20A
100
AcDbSymbolTableRecord
100
AcDbLayerTableRecord
  2
SCREW_COVER_NONE
 70
0
 62
7
  6
CONTINUOUS
370
-3
390
F
  0
LAYER
  5
20B
100
AcDbSymbolTableRecord
100
AcDbLayerTableRecord
  2
SCREW_COVER_NONE_1
 70
0
 62
7
  6
CONTINUOUS
370
-3
390
F
  0
ENDTAB
  0
TABLE
  2
STYLE
  5
3
100
AcDbSymbolTable
 70
1
  0
STYLE
  5
11
100
AcDbSymbolTableRecord
100
AcDbTextStyleTableRecord
  2
STANDARD
 70
0
 40
0.0
 41
0.8
 50
0.0
 71
0
 42
0.2
  3
txt
  4

  0
STYLE
  5
20C
100
AcDbSymbolTableRecord
100
AcDbTextStyleTableRecord
  2
TEXTSTYLE_1
 70
0
 40
0.0
 41
0.8
 50
0.0
 71
0
 42
0.2
  3
gdt
  4

  0
ENDTAB
  0
TABLE
  2
VIEW
  5
6
100
AcDbSymbolTable
 70
0
  0
ENDTAB
  0
TABLE
  2
UCS
  5
7
100
AcDbSymbolTable
 70
0
  0
ENDTAB
  0
TABLE
  2
APPID
  5
9
100
AcDbSymbolTable
 70
1
  0
APPID
  5
20D
100
AcDbSymbolTableRecord
100
AcDbRegAppTableRecord
  2
ACAD
 70
0
  0
ENDTAB
  0
TABLE
  2
BLOCK_RECORD
  5
1
100
AcDbSymbolTable
 70
0
  0
BLOCK_RECORD
  5
20E
100
AcDbSymbolTableRecord
100
AcDbBlockTableRecord
  2
*Model_Space
  0
BLOCK_RECORD
  5
20F
100
AcDbSymbolTableRecord
100
AcDbBlockTableRecord
  2
*Paper_Space
  0
ENDTAB
  0
TABLE
  2
DIMSTYLE
  5
A
100
AcDbSymbolTable
 70
1
100
AcDbDimStyleTable
 71
0
  0
DIMSTYLE
105
210
100
AcDbSymbolTableRecord
100
AcDbDimStyleTableRecord
  2
STANDARD
 70
0
  3

  4

 40
1.0
 41
0.1
 42
0.0625
 43
0.38
 44
0.18
 45
0.0
 46
0.0
 47
0.01
 48
0.01
140
0.08
141
0.09
142
0.0
143
25.4
144
1.0
145
0.0
146
1.0
147
0.09
 71
1.0
 72
0.0
 73
1
 74
1
 75
0
 76
0
 77
0
 78
4
170
0
171
2
172
0
173
0
174
0
175
0
176
0
177
0
178
0
270
2
271
2
272
2
273
2
274
2
275
0
280
0
281
0
282
0
283
1
284
4
285
0
286
0
287
3
288
0
340
11
  0
ENDTAB
  0
ENDSEC
  0
SECTION
  2
BLOCKS
  0
BLOCK
  5
20
100
AcDbEntity
  8
0
100
AcDbBlockBegin
  2
*Model_Space
 70
0
 10
0.0
 20
0.0
 30
0.0
  3
*Model_Space
  1

  0
ENDBLK
  5
21
100
AcDbEntity
  8
0
100
AcDbBlockEnd
  0
BLOCK
  5
1C
100
AcDbEntity
  8
0
100
AcDbBlockBegin
  2
*Paper_Space
 70
0
 10
0.0
 20
0.0
 30
0.0
  3
*Paper_Space
  1

  0
ENDBLK
  5
1D
100
AcDbEntity
  8
0
100
AcDbBlockEnd
  0
ENDSEC
  0
SECTION
  2
ENTITIES
  0
LINE
  5
211
100
AcDbEntity
  8
0
100
AcDbLine
 62
6
  6
CONTINUOUS
 10
0.7033689608
 20
4.0035476719
 11
0.7033689608
 21
2.9361152499
  0
LINE
  5
212
100
AcDbEntity
  8
0
100
AcDbLine
 62
6
  6
CONTINUOUS
 10
0.8213689608
 20
4.2443173625
 11
0.8213689608
 21
2.6953455593
  0
LINE
  5
213
100
AcDbEntity
  8
0
100
AcDbLine
 62
6
  6
CONTINUOUS
 10
1.2939689608
 20
4.7273522361
 11
1.2939689608
 21
2.2123106857
  0
LINE
  5
214
100
AcDbEntity
  8
0
100
AcDbLine
 62
6
  6
CONTINUOUS
 10
1.4119689608
 20
4.7962451403
 11
1.4119689608
 21
2.1434177816
  0
LINE
  5
215
100
AcDbEntity
  8
0
100
AcDbLine
 62
6
  6
CONTINUOUS
 10
1.8845689608
 20
4.950698312
 11
1.8845689608
 21
1.9889646098
  0
LINE
  5
216
100
AcDbEntity
  8
0
100
AcDbLine
 62
6
  6
CONTINUOUS
 10
2.0025689608
 20
4.9610219743
 11
2.0025689608
 21
1.9786409475
  0
LINE
  5
217
100
AcDbEntity
  8
0
100
AcDbLine
 62
9
  6
CONTINUOUS
 10
2.1032618536
 20
5.2058314609
 11
2.1032618536
 21
4.9698314609
  0
LINE
  5
218
100
AcDbEntity
  8
0
100
AcDbLine
 62
9
  6
CONTINUOUS
 10
2.1032618536
 20
1.9698314609
 11
2.1032618536
 21
1.7338314609
  0
LINE
  5
219
100
AcDbEntity
  8
0
100
AcDbLine
 62
6
  6
CONTINUOUS
 10
2.4751618536
 20
4.9698314609
 11
2.4751618536
 21
1.9698314609
  0
LINE
  5
21A
100
AcDbEntity
  8
0
100
AcDbLine
 62
6
  6
CONTINUOUS
 10
2.5144618536
 20
5.6778314609
 11
2.5144618536
 21
5.6388314609
  0
LINE
  5
21B
100
AcDbEntity
  8
0
100
AcDbLine
 62
6
  6
CONTINUOUS
 10
2.5931618536
 20
4.9698314609
 11
2.5931618536
 21
1.9698314609
  0
LINE
  5
21C
100
AcDbEntity
  8
0
100
AcDbLine
 62
6
  6
CONTINUOUS
 10
2.6419618536
 20
5.5208314609
 11
2.6419618536
 21
5.2058314609
  0
LINE
  5
21D
100
AcDbEntity
  8
0
100
AcDbLine
 62
6
  6
CONTINUOUS
 10
2.6719618536
 20
4.9698314609
 11
2.6719618536
 21
4.9648212811
  0
LINE
  5
21E
100
AcDbEntity
  8
0
100
AcDbLine
 62
6
  6
CONTINUOUS
 10
2.9869618536
 20
4.9698314609
 11
2.9869618536
 21
4.9648212811
  0
LINE
  5
21F
100
AcDbEntity
  8
0
100
AcDbLine
 62
6
  6
CONTINUOUS
 10
3.0169618536
 20
5.5208314609
 11
3.0169618536
 21
5.2058314609
  0
LINE
  5
220
100
AcDbEntity
  8
0
100
AcDbLine
 62
6
  6
CONTINUOUS
 10
3.0657618536
 20
4.9698314609
 11
3.0657618536
 21
1.9698314609
  0
LINE
  5
221
100
AcDbEntity
  8
0
100
AcDbLine
 62
6
  6
CONTINUOUS
 10
3.1444618536
 20
5.6778314609
 11
3.1444618536
 21
5.6388314609
  0
LINE
  5
222
100
AcDbEntity
  8
0
100
AcDbLine
 62
6
  6
CONTINUOUS
 10
3.1837618536
 20
4.9698314609
 11
3.1837618536
 21
1.9698314609
  0
LINE
  5
223
100
AcDbEntity
  8
0
100
AcDbLine
 62
6
  6
CONTINUOUS
 10
3.6563618536
 20
4.9698314609
 11
3.6563618536
 21
1.9698314609
  0
LINE
  5
224
100
AcDbEntity
  8
0
100
AcDbLine
 62
6
  6
CONTINUOUS
 10
3.7743618536
 20
4.9698314609
 11
3.7743618536
 21
1.9698314609
  0
LINE
  5
225
100
AcDbEntity
  8
0
100
AcDbLine
 62
9
  6
CONTINUOUS
 10
9.4616618536
 20
1.7338314609
 11
2.1032618536
 21
1.7338314609
  0
LINE
  5
226
100
AcDbEntity
  8
0
100
AcDbLine
 62
6
  6
CONTINUOUS
 10
4.2469618536
 20
4.9698314609
 11
4.2469618536
 21
1.9698314609
  0
LINE
  5
227
100
AcDbEntity
  8
0
100
AcDbLine
 62
9
  6
CONTINUOUS
 10
2.1032618536
 20
1.9698314609
 11
9.4616618536
 21
1.9698314609
  0
LINE
  5
228
100
AcDbEntity
  8
0
100
AcDbLine
 62
9
  6
CONTINUOUS
 10
2.4751618536
 20
2.1873157321
 11
2.5931618536
 21
2.1873157321
  0
LINE
  5
229
100
AcDbEntity
  8
0
100
AcDbLine
 62
9
  6
CONTINUOUS
 10
3.0657618536
 20
2.1873157321
 11
3.1837618536
 21
2.1873157321
  0
LINE
  5
22A
100
AcDbEntity
  8
0
100
AcDbLine
 62
9
  6
CONTINUOUS
 10
3.6563618536
 20
2.1873157321
 11
3.7743618536
 21
2.1873157321
  0
LINE
  5
22B
100
AcDbEntity
  8
0
100
AcDbLine
 62
9
  6
CONTINUOUS
 10
4.2469618536
 20
2.1873157321
 11
4.3649618536
 21
2.1873157321
  0
LINE
  5
22C
100
AcDbEntity
  8
0
100
AcDbLine
 62
9
  6
CONTINUOUS
 10
4.8375618536
 20
2.1873157321
 11
4.9555618536
 21
2.1873157321
  0
LINE
  5
22D
100
AcDbEntity
  8
0
100
AcDbLine
 62
9
  6
CONTINUOUS
 10
5.4281618536
 20
2.1873157321
 11
5.5461618536
 21
2.1873157321
  0
LINE
  5
22E
100
AcDbEntity
  8
0
100
AcDbLine
 62
9
  6
CONTINUOUS
 10
6.0187618536
 20
2.1873157321
 11
6.1367618536
 21
2.1873157321
  0
LINE
  5
22F
100
AcDbEntity
  8
0
100
AcDbLine
 62
9
  6
CONTINUOUS
 10
6.6093618536
 20
2.1873157321
 11
6.7273618536
 21
2.1873157321
  0
LINE
  5
230
100
AcDbEntity
  8
0
100
AcDbLine
 62
9
  6
CONTINUOUS
 10
7.1999618536
 20
2.1873157321
 11
7.3179618536
 21
2.1873157321
  0
LINE
  5
231
100
AcDbEntity
  8
0
100
AcDbLine
 62
9
  6
CONTINUOUS
 10
7.7905618536
 20
2.1873157321
 11
7.9085618536
 21
2.1873157321
  0
LINE
  5
232
100
AcDbEntity
  8
0
100
AcDbLine
 62
9
  6
CONTINUOUS
 10
8.3811618536
 20
2.1873157321
 11
8.4991618536
 21
2.1873157321
  0
LINE
  5
233
100
AcDbEntity
  8
0
100
AcDbLine
 62
9
  6
CONTINUOUS
 10
8.9717618536
 20
2.1873157321
 11
9.0897618536
 21
2.1873157321
  0
LINE
  5
234
100
AcDbEntity
  8
0
100
AcDbLine
 62
9
  6
CONTINUOUS
 10
1.8845689608
 20
2.1949058896
 11
2.0025689608
 21
2.1949058896
  0
LINE
  5
235
100
AcDbEntity
  8
0
100
AcDbLine
 62
9
  6
CONTINUOUS
 10
9.5623547464
 20
2.1949058896
 11
9.6803547464
 21
2.1949058896
  0
LINE
  5
236
100
AcDbEntity
  8
0
100
AcDbLine
 62
6
  6
CONTINUOUS
 10
4.3649618536
 20
4.9698314609
 11
4.3649618536
 21
1.9698314609
  0
LINE
  5
237
100
AcDbEntity
  8
0
100
AcDbLine
 62
9
  6
CONTINUOUS
 10
1.2939689608
 20
2.3713097223
 11
1.4119689608
 21
2.3713097223
  0
LINE
  5
238
100
AcDbEntity
  8
0
100
AcDbLine
 62
9
  6
CONTINUOUS
 10
10.1529547464
 20
2.3713097223
 11
10.2709547464
 21
2.3713097223
  0
LINE
  5
239
100
AcDbEntity
  8
0
100
AcDbLine
 62
6
  6
CONTINUOUS
 10
4.8375618536
 20
4.9698314609
 11
4.8375618536
 21
1.9698314609
  0
LINE
  5
23A
100
AcDbEntity
  8
0
100
AcDbLine
 62
6
  6
CONTINUOUS
 10
4.9555618536
 20
4.9698314609
 11
4.9555618536
 21
1.9698314609
  0
LINE
  5
23B
100
AcDbEntity
  8
0
100
AcDbLine
 62
9
  6
CONTINUOUS
 10
0.720541797
 20
2.8992879837
 11
0.8213689608
 21
2.8992879837
  0
LINE
  5
23C
100
AcDbEntity
  8
0
100
AcDbLine
 62
9
  6
CONTINUOUS
 10
10.7435547464
 20
2.8992879837
 11
10.8443819102
 21
2.8992879837
  0
LINE
  5
23D
100
AcDbEntity
  8
0
100
AcDbLine
 62
6
  6
CONTINUOUS
 10
5.4281618536
 20
4.9698314609
 11
5.4281618536
 21
1.9698314609
  0
LINE
  5
23E
100
AcDbEntity
  8
0
100
AcDbLine
 62
6
  6
CONTINUOUS
 10
5.5461618536
 20
4.9698314609
 11
5.5461618536
 21
1.9698314609
  0
LINE
  5
23F
100
AcDbEntity
  8
0
100
AcDbLine
 62
6
  6
CONTINUOUS
 10
6.0187618536
 20
4.9698314609
 11
6.0187618536
 21
1.9698314609
  0
LINE
  5
240
100
AcDbEntity
  8
0
100
AcDbLine
 62
6
  6
CONTINUOUS
 10
6.1367618536
 20
4.9698314609
 11
6.1367618536
 21
1.9698314609
  0
LINE
  5
241
100
AcDbEntity
  8
0
100
AcDbLine
 62
9
  6
CONTINUOUS
 10
10.8444021839
 20
4.0403314609
 11
10.7435547464
 21
4.0403314609
  0
LINE
  5
242
100
AcDbEntity
  8
0
100
AcDbLine
 62
9
  6
CONTINUOUS
 10
0.8213689608
 20
4.0403314609
 11
0.7205215233
 21
4.0403314609
  0
LINE
  5
243
100
AcDbEntity
  8
0
100
AcDbLine
 62
6
  6
CONTINUOUS
 10
6.6093618536
 20
1.9698314609
 11
6.6093618536
 21
4.9698314609
  0
LINE
  5
244
100
AcDbEntity
  8
0
100
AcDbLine
 62
6
  6
CONTINUOUS
 10
6.7273618536
 20
1.9698314609
 11
6.7273618536
 21
4.9698314609
  0
LINE
  5
245
100
AcDbEntity
  8
0
100
AcDbLine
 62
9
  6
CONTINUOUS
 10
10.2709547464
 20
4.5683531995
 11
10.1529547464
 21
4.5683531995
  0
LINE
  5
246
100
AcDbEntity
  8
0
100
AcDbLine
 62
9
  6
CONTINUOUS
 10
1.4119689608
 20
4.5683531995
 11
1.2939689608
 21
4.5683531995
  0
LINE
  5
247
100
AcDbEntity
  8
0
100
AcDbLine
 62
9
  6
CONTINUOUS
 10
9.6803547464
 20
4.7449315137
 11
9.5623547464
 21
4.7449315137
  0
LINE
  5
248
100
AcDbEntity
  8
0
100
AcDbLine
 62
9
  6
CONTINUOUS
 10
2.0025689608
 20
4.7449315137
 11
1.8845689608
 21
4.7449315137
  0
LINE
  5
249
100
AcDbEntity
  8
0
100
AcDbLine
 62
9
  6
CONTINUOUS
 10
9.0897618536
 20
4.7528314609
 11
8.9717618536
 21
4.7528314609
  0
LINE
  5
24A
100
AcDbEntity
  8
0
100
AcDbLine
 62
9
  6
CONTINUOUS
 10
8.4991618536
 20
4.7528314609
 11
8.3811618536
 21
4.7528314609
  0
LINE
  5
24B
100
AcDbEntity
  8
0
100
AcDbLine
 62
9
  6
CONTINUOUS
 10
7.9085618536
 20
4.7528314609
 11
7.7905618536
 21
4.7528314609
  0
LINE
  5
24C
100
AcDbEntity
  8
0
100
AcDbLine
 62
9
  6
CONTINUOUS
 10
6.7273618536
 20
4.7528314609
 11
6.6093618536
 21
4.7528314609
  0
LINE
  5
24D
100
AcDbEntity
  8
0
100
AcDbLine
 62
9
  6
CONTINUOUS
 10
6.1367618536
 20
4.7528314609
 11
6.0187618536
 21
4.7528314609
  0
LINE
  5
24E
100
AcDbEntity
  8
0
100
AcDbLine
 62
9
  6
CONTINUOUS
 10
5.5461618536
 20
4.7528314609
 11
5.4281618536
 21
4.7528314609
  0
LINE
  5
24F
100
AcDbEntity
  8
0
100
AcDbLine
 62
9
  6
CONTINUOUS
 10
4.9555618536
 20
4.7528314609
 11
4.8375618536
 21
4.7528314609
  0
LINE
  5
250
100
AcDbEntity
  8
0
100
AcDbLine
 62
9
  6
CONTINUOUS
 10
4.3649618536
 20
4.7528314609
 11
4.2469618536
 21
4.7528314609
  0
LINE
  5
251
100
AcDbEntity
  8
0
100
AcDbLine
 62
9
  6
CONTINUOUS
 10
3.7743618536
 20
4.7528314609
 11
3.6563618536
 21
4.7528314609
  0
LINE
  5
252
100
AcDbEntity
  8
0
100
AcDbLine
 62
9
  6
CONTINUOUS
 10
3.1837618536
 20
4.7528314609
 11
3.0657618536
 21
4.7528314609
  0
LINE
  5
253
100
AcDbEntity
  8
0
100
AcDbLine
 62
9
  6
CONTINUOUS
 10
2.5931618536
 20
4.7528314609
 11
2.4751618536
 21
4.7528314609
  0
LINE
  5
254
100
AcDbEntity
  8
0
100
AcDbLine
 62
9
  6
CONTINUOUS
 10
7.1999618536
 20
4.7528314609
 11
7.3179618536
 21
4.7528314609
  0
LINE
  5
255
100
AcDbEntity
  8
0
100
AcDbLine
 62
6
  6
CONTINUOUS
 10
7.1999618536
 20
1.9698314609
 11
7.1999618536
 21
4.9698314609
  0
LINE
  5
256
100
AcDbEntity
  8
0
100
AcDbLine
 62
6
  6
CONTINUOUS
 10
7.3179618536
 20
1.9698314609
 11
7.3179618536
 21
4.9698314609
  0
LINE
  5
257
100
AcDbEntity
  8
0
100
AcDbLine
 62
6
  6
CONTINUOUS
 10
2.6719618536
 20
4.9648212811
 11
2.9869618536
 21
4.9648212811
  0
LINE
  5
258
100
AcDbEntity
  8
0
100
AcDbLine
 62
6
  6
CONTINUOUS
 10
8.5779618536
 20
4.9648212811
 11
8.8929618536
 21
4.9648212811
  0
LINE
  5
259
100
AcDbEntity
  8
0
100
AcDbLine
 62
6
  6
CONTINUOUS
 10
9.4616618536
 20
4.9698314609
 11
5.8544106623
 21
4.9698314609
  0
LINE
  5
25A
100
AcDbEntity
  8
0
100
AcDbLine
 62
6
  6
CONTINUOUS
 10
5.7105131863
 20
4.9698314609
 11
5.6929249719
 21
4.9698314609
  0
LINE
  5
25B
100
AcDbEntity
  8
0
100
AcDbLine
 62
9
  6
CONTINUOUS
 10
5.6929249719
 20
4.9698314609
 11
2.1032618536
 21
4.9698314609
  0
LINE
  5
25C
100
AcDbEntity
  8
0
100
AcDbLine
 62
9
  6
CONTINUOUS
 10
2.1032618536
 20
5.2058314609
 11
2.7705360528
 21
5.2058314609
  0
LINE
  5
25D
100
AcDbEntity
  8
0
100
AcDbLine
 62
6
  6
CONTINUOUS
 10
2.7705360528
 20
5.2058314609
 11
2.8883876544
 21
5.2058314609
  0
LINE
  5
25E
100
AcDbEntity
  8
0
100
AcDbLine
 62
9
  6
CONTINUOUS
 10
2.8883876544
 20
5.2058314609
 11
5.6929249718
 21
5.2058314609
  0
LINE
  5
25F
100
AcDbEntity
  8
0
100
AcDbLine
 62
6
  6
CONTINUOUS
 10
5.6929249718
 20
5.2058314609
 11
5.7104832305
 21
5.2058314609
  0
LINE
  5
260
100
AcDbEntity
  8
0
100
AcDbLine
 62
6
  6
CONTINUOUS
 10
5.8544105209
 20
5.2058314609
 11
5.8719987354
 21
5.2058314609
  0
LINE
  5
261
100
AcDbEntity
  8
0
100
AcDbLine
 62
9
  6
CONTINUOUS
 10
5.8719987354
 20
5.2058314609
 11
8.6765360528
 21
5.2058314609
  0
LINE
  5
262
100
AcDbEntity
  8
0
100
AcDbLine
 62
6
  6
CONTINUOUS
 10
8.6765360528
 20
5.2058314609
 11
8.7943876544
 21
5.2058314609
  0
LINE
  5
263
100
AcDbEntity
  8
0
100
AcDbLine
 62
9
  6
CONTINUOUS
 10
8.7943876544
 20
5.2058314609
 11
9.4616618536
 21
5.2058314609
  0
LINE
  5
264
100
AcDbEntity
  8
0
100
AcDbLine
 62
6
  6
CONTINUOUS
 10
2.6324618536
 20
5.5208314609
 11
3.0264618536
 21
5.5208314609
  0
LINE
  5
265
100
AcDbEntity
  8
0
100
AcDbLine
 62
9
  6
CONTINUOUS
 10
8.5384618536
 20
5.5208314609
 11
8.9324618536
 21
5.5208314609
  0
LINE
  5
266
100
AcDbEntity
  8
0
100
AcDbLine
 62
9
  6
CONTINUOUS
 10
2.5144618536
 20
5.6388314609
 11
3.1444618536
 21
5.6388314609
  0
LINE
  5
267
100
AcDbEntity
  8
0
100
AcDbLine
 62
9
  6
CONTINUOUS
 10
8.4204618536
 20
5.6388314609
 11
9.0504618536
 21
5.6388314609
  0
LINE
  5
268
100
AcDbEntity
  8
0
100
AcDbLine
 62
6
  6
CONTINUOUS
 10
2.514462289
 20
5.6778314609
 11
3.1444614182
 21
5.6778314609
  0
LINE
  5
269
100
AcDbEntity
  8
0
100
AcDbLine
 62
6
  6
CONTINUOUS
 10
8.420462289
 20
5.6778314609
 11
9.0504614182
 21
5.6778314609
  0
LINE
  5
26A
100
AcDbEntity
  8
0
100
AcDbLine
 62
6
  6
CONTINUOUS
 10
7.7905618536
 20
1.9698314609
 11
7.7905618536
 21
4.9698314609
  0
LINE
  5
26B
100
AcDbEntity
  8
0
100
AcDbLine
 62
6
  6
CONTINUOUS
 10
7.9085618536
 20
1.9698314609
 11
7.9085618536
 21
4.9698314609
  0
LINE
  5
26C
100
AcDbEntity
  8
0
100
AcDbLine
 62
6
  6
CONTINUOUS
 10
8.3811618536
 20
1.9698314609
 11
8.3811618536
 21
4.9698314609
  0
LINE
  5
26D
100
AcDbEntity
  8
0
100
AcDbLine
 62
6
  6
CONTINUOUS
 10
8.4204618536
 20
5.6778314609
 11
8.4204618536
 21
5.6388314609
  0
LINE
  5
26E
100
AcDbEntity
  8
0
100
AcDbLine
 62
6
  6
CONTINUOUS
 10
8.4991618536
 20
1.9698314609
 11
8.4991618536
 21
4.9698314609
  0
LINE
  5
26F
100
AcDbEntity
  8
0
100
AcDbLine
 62
6
  6
CONTINUOUS
 10
8.5479618536
 20
5.5208314609
 11
8.5479618536
 21
5.2058314609
  0
LINE
  5
270
100
AcDbEntity
  8
0
100
AcDbLine
 62
6
  6
CONTINUOUS
 10
8.5779618536
 20
4.9698314609
 11
8.5779618536
 21
4.9648212811
  0
LINE
  5
271
100
AcDbEntity
  8
0
100
AcDbLine
 62
6
  6
CONTINUOUS
 10
8.8929618536
 20
4.9698314609
 11
8.8929618536
 21
4.9648212811
  0
LINE
  5
272
100
AcDbEntity
  8
0
100
AcDbLine
 62
6
  6
CONTINUOUS
 10
8.9229618536
 20
5.5208314609
 11
8.9229618536
 21
5.2058314609
  0
LINE
  5
273
100
AcDbEntity
  8
0
100
AcDbLine
 62
6
  6
CONTINUOUS
 10
8.9717618536
 20
1.9698314609
 11
8.9717618536
 21
4.9698314609
  0
LINE
  5
274
100
AcDbEntity
  8
0
100
AcDbLine
 62
6
  6
CONTINUOUS
 10
9.0504618536
 20
5.6778314609
 11
9.0504618536
 21
5.6388314609
  0
LINE
  5
275
100
AcDbEntity
  8
0
100
AcDbLine
 62
6
  6
CONTINUOUS
 10
9.0897618536
 20
1.9698314609
 11
9.0897618536
 21
4.9698314609
  0
LINE
  5
276
100
AcDbEntity
  8
0
100
AcDbLine
 62
9
  6
CONTINUOUS
 10
9.4616618536
 20
1.7338314609
 11
9.4616618536
 21
1.9698314609
  0
LINE
  5
277
100
AcDbEntity
  8
0
100
AcDbLine
 62
9
  6
CONTINUOUS
 10
9.4616618536
 20
4.9698314609
 11
9.4616618536
 21
5.2058314609
  0
LINE
  5
278
100
AcDbEntity
  8
0
100
AcDbLine
 62
6
  6
CONTINUOUS
 10
9.5623547464
 20
1.9786409475
 11
9.5623547464
 21
4.9610219743
  0
LINE
  5
279
100
AcDbEntity
  8
0
100
AcDbLine
 62
6
  6
CONTINUOUS
 10
9.6803547464
 20
1.9889646098
 11
9.6803547464
 21
4.950698312
  0
LINE
  5
27A
100
AcDbEntity
  8
0
100
AcDbLine
 62
6
  6
CONTINUOUS
 10
10.1529547464
 20
2.1434177816
 11
10.1529547464
 21
4.7962451403
  0
LINE
  5
27B
100
AcDbEntity
  8
0
100
AcDbLine
 62
6
  6
CONTINUOUS
 10
10.2709547464
 20
2.2123106857
 11
10.2709547464
 21
4.7273522361
  0
LINE
  5
27C
100
AcDbEntity
  8
0
100
AcDbLine
 62
6
  6
CONTINUOUS
 10
10.7435547464
 20
2.6953455593
 11
10.7435547464
 21
4.2443173625
  0
LINE
  5
27D
100
AcDbEntity
  8
0
100
AcDbLine
 62
6
  6
CONTINUOUS
 10
10.8615547464
 20
4.0035476719
 11
10.8615547464
 21
2.9361152499
  0
ARC
  5
27E
100
AcDbEntity
  8
0
100
AcDbCircle
 62
9
  6
CONTINUOUS
 10
9.4616618536
 20
3.4698314609
 40
1.736
100
AcDbArc
 50
270.0
 51
90.0
  0
ARC
  5
27F
100
AcDbEntity
  8
0
100
AcDbCircle
 62
9
  6
CONTINUOUS
 10
2.1032618536
 20
3.4698314609
 40
1.736
100
AcDbArc
 50
90.0
 51
270.0
  0
ARC
  5
280
100
AcDbEntity
  8
0
100
AcDbCircle
 62
9
  6
CONTINUOUS
 10
2.1032618536
 20
3.4698314609
 40
1.5
100
AcDbArc
 50
90.0
 51
270.0
  0
ARC
  5
281
100
AcDbEntity
  8
0
100
AcDbCircle
 62
9
  6
CONTINUOUS
 10
9.4616618536
 20
3.4698314609
 40
1.5
100
AcDbArc
 50
270.0
 51
90.0
  0
ARC
  5
282
100
AcDbEntity
  8
0
100
AcDbCircle
 62
6
  6
CONTINUOUS
 10
2.8294618536
 20
5.4928314609
 40
0.551
100
AcDbArc
 50
253.3906996543
 51
286.6093003457
  0
ARC
  5
283
100
AcDbEntity
  8
0
100
AcDbCircle
 62
6
  6
CONTINUOUS
 10
8.7354618536
 20
5.4928314609
 40
0.551
100
AcDbArc
 50
253.3906996543
 51
286.6093003457
  0
ARC
  5
284
100
AcDbEntity
  8
0
100
AcDbCircle
 62
6
  6
CONTINUOUS
 10
5.4184618536
 20
5.0878314609
 40
0.315
100
AcDbArc
 50
337.8476370542
 51
22.1530359491
  0
ARC
  5
285
100
AcDbEntity
  8
0
100
AcDbCircle
 62
6
  6
CONTINUOUS
 10
6.1464618536
 20
5.0878314609
 40
0.315
100
AcDbArc
 50
157.8476370542
 51
202.1523180166
  0
ARC
  5
286
100
AcDbEntity
  8
0
100
AcDbCircle
 62
6
  6
CONTINUOUS
 10
2.6324618536
 20
5.6388314609
 40
0.118
100
AcDbArc
 50
180.0
 51
270.0
  0
ARC
  5
287
100
AcDbEntity
  8
0
100
AcDbCircle
 62
6
  6
CONTINUOUS
 10
3.0264618536
 20
5.6388314609
 40
0.118
100
AcDbArc
 50
270.0
 51
360.0
  0
ARC
  5
288
100
AcDbEntity
  8
0
100
AcDbCircle
 62
6
  6
CONTINUOUS
 10
8.9324618536
 20
5.6388314609
 40
0.118
100
AcDbArc
 50
270.0
 51
360.0
  0
ARC
  5
289
100
AcDbEntity
  8
0
100
AcDbCircle
 62
6
  6
CONTINUOUS
 10
8.5384618536
 20
5.6388314609
 40
0.118
100
AcDbArc
 50
180.0
 51
270.0
  0
SPLINE
  5
28A
100
AcDbEntity
  8
0
100
AcDbSpline
 62
6
  6
CONTINUOUS
 70
0
 71
3
 72
43
 73
39
 74
37
 42
0.0000001
 43
0.0000001
 44
0.0000000001
 12
-0.248000217
 22
0.0
 32
0.0
 13
0.248000217
 23
-0.0
 33
0.0
 40
0.0
 40
0.0
 40
0.0
 40
0.0
 40
0.005848134
 40
0.0117058543
 40
0.0177672848
 40
0.0242096601
 40
0.0311827298
 40
0.0388065177
 40
0.0563374971
 40
0.0772769218
 40
0.1017809153
 40
0.12986249
 40
0.1614025777
 40
0.1961547303
 40
0.23383268
 40
0.274103673
 40
0.3165732365
 40
0.3608332126
 40
0.4064602118
 40
0.5000015953
 40
0.5935428152
 40
0.6391697259
 40
0.6834296121
 40
0.7258990069
 40
0.7661698751
 40
0.8038477222
 40
0.8385995955
 40
0.8701394497
 40
0.8982208569
 40
0.9227243044
 40
0.9436631331
 40
0.9611937514
 40
0.9688174113
 40
0.9757903856
 40
0.9822327063
 40
0.9882941221
 40
0.9941518541
 40
1.0
 40
1.0
 40
1.0
 40
1.0
 10
5.6929249719
 20
4.9698314609
 30
0.0
 10
5.6924415257
 20
4.9698314609
 30
0.0
 10
5.6914710481
 20
4.9699215615
 30
0.0
 10
5.6900540748
 20
4.9703399824
 30
0.0
 10
5.6886967026
 20
4.971037677
 30
0.0
 10
5.6874050695
 20
4.9720102964
 30
0.0
 10
5.6861818655
 20
4.9732543642
 30
0.0
 10
5.6845700399
 20
4.9753726539
 30
0.0
 10
5.6827828653
 20
4.9787643929
 30
0.0
 10
5.6810265642
 20
4.9836750533
 30
0.0
 10
5.6795462831
 20
4.9895778598
 30
0.0
 10
5.6783412491
 20
4.9964312123
 30
0.0
 10
5.6773946028
 20
5.0041777236
 30
0.0
 10
5.6766717931
 20
5.0127435607
 30
0.0
 10
5.6761442601
 20
5.0220461035
 30
0.0
 10
5.6757798827
 20
5.0319944957
 30
0.0
 10
5.6755432703
 20
5.0424907769
 30
0.0
 10
5.6753988258
 20
5.0534313971
 30
0.0
 10
5.6752847194
 20
5.0685944533
 30
0.0
 10
5.6752598603
 20
5.087831869
 30
0.0
 10
5.6752847284
 20
5.1070692771
 30
0.0
 10
5.6753988121
 20
5.1222323053
 30
0.0
 10
5.6755433026
 20
5.1331728962
 30
0.0
 10
5.6757799049
 20
5.1436691458
 30
0.0
 10
5.6761442757
 20
5.1536175056
 30
0.0
 10
5.6766718371
 20
5.1629200051
 30
0.0
 10
5.6773947129
 20
5.1714857861
 30
0.0
 10
5.6783413943
 20
5.1792322346
 30
0.0
 10
5.6795463399
 20
5.1860855228
 30
0.0
 10
5.6810266245
 20
5.1919882209
 30
0.0
 10
5.682782949
 20
5.1968987371
 30
0.0
 10
5.6845700504
 20
5.200290411
 30
0.0
 10
5.6861818479
 20
5.2024086629
 30
0.0
 10
5.6874050488
 20
5.2036527022
 30
0.0
 10
5.6886966867
 20
5.2046252932
 30
0.0
 10
5.6900540665
 20
5.205322962
 30
0.0
 10
5.6914710454
 20
5.2057413646
 30
0.0
 10
5.6924415247
 20
5.2058314609
 30
0.0
 10
5.6929249719
 20
5.2058314609
 30
0.0
 11
5.6929249719
 21
4.9698314609
 31
0.0
 11
5.6914810563
 21
4.969967805
 31
0.0
 11
5.6900870959
 21
4.9703767767
 31
0.0
 11
5.6887472208
 21
4.9710582848
 31
0.0
 11
5.687465561
 21
4.9720122383
 31
0.0
 11
5.6862462469
 21
4.9732385459
 31
0.0
 11
5.6850934085
 21
4.9747371166
 31
0.0
 11
5.683001962
 21
4.9785487083
 31
0.0
 11
5.6812008114
 21
4.983419326
 31
0.0
 11
5.6796846383
 21
4.9893041451
 31
0.0
 11
5.6784475755
 21
4.9961576309
 31
0.0
 11
5.6774730216
 21
5.0039186311
 31
0.0
 11
5.6767300051
 21
5.0125050845
 31
0.0
 11
5.676186537
 21
5.0218334064
 31
0.0
 11
5.6758093277
 21
5.0318134954
 31
0.0
 11
5.6755626557
 21
5.0423430674
 31
0.0
 11
5.6754105443
 21
5.0533184971
 31
0.0
 11
5.6753222335
 21
5.0646336582
 31
0.0
 11
5.6752698546
 21
5.0878318825
 31
0.0
 11
5.6753222341
 21
5.1110300661
 31
0.0
 11
5.6754105414
 21
5.1223452053
 31
0.0
 11
5.6755626791
 21
5.1333206123
 31
0.0
 11
5.6758093501
 21
5.1438501425
 31
0.0
 11
5.6761865589
 21
5.1538302006
 31
0.0
 11
5.6767300586
 21
5.1631584951
 31
0.0
 11
5.6774731289
 21
5.1717448743
 31
0.0
 11
5.6784476986
 21
5.1795058142
 31
0.0
 11
5.6796847169
 21
5.1863592658
 31
0.0
 11
5.6812008805
 21
5.1922439476
 31
0.0
 11
5.6830020193
 21
5.1971144121
 31
0.0
 11
5.685093409
 21
5.2009259328
 31
0.0
 11
5.6862462294
 21
5.2024244772
 31
0.0
 11
5.6874655385
 21
5.2036507566
 31
0.0
 11
5.6887472016
 21
5.2046046826
 31
0.0
 11
5.6900870846
 21
5.2052861674
 31
0.0
 11
5.6914810528
 21
5.2056951229
 31
0.0
 11
5.6929249719
 21
5.2058314609
 31
0.0
  0
SPLINE
  5
28B
100
AcDbEntity
  8
0
100
AcDbSpline
 62
6
  6
CONTINUOUS
 70
0
 71
3
 72
43
 73
39
 74
37
 42
0.0000001
 43
0.0000001
 44
0.0000000001
 12
0.2480001549
 22
0.0
 32
0.0
 13
-0.2480001549
 23
-0.0
 33
0.0
 40
0.0
 40
0.0
 40
0.0
 40
0.0
 40
0.0058481165
 40
0.0117057953
 40
0.0177671787
 40
0.0242095147
 40
0.03118256
 40
0.0388063401
 40
0.0563373471
 40
0.0772768279
 40
0.1017808578
 40
0.1298624198
 40
0.1614024674
 40
0.1961545887
 40
0.2338325417
 40
0.274103572
 40
0.3165731917
 40
0.3608332299
 40
0.4064602895
 40
0.5000017471
 40
0.5935429375
 40
0.6391698219
 40
0.6834296912
 40
0.725899075
 40
0.766169934
 40
0.8038477684
 40
0.8385996226
 40
0.8701394568
 40
0.8982208612
 40
0.9227243455
 40
0.9436632261
 40
0.9611938729
 40
0.9688175313
 40
0.9757904911
 40
0.982232785
 40
0.9882941665
 40
0.9941518674
 40
1.0
 40
1.0
 40
1.0
 40
1.0
 10
5.8719987354
 20
5.2058314609
 30
0.0
 10
5.87248218
 20
5.2058314609
 30
0.0
 10
5.8734526526
 20
5.2057413599
 30
0.0
 10
5.8748696154
 20
5.2053229346
 30
0.0
 10
5.8762269723
 20
5.204625234
 30
0.0
 10
5.8775185888
 20
5.2036526087
 30
0.0
 10
5.878741779
 20
5.2024085366
 30
0.0
 10
5.880353596
 20
5.2002902423
 30
0.0
 10
5.8821407881
 20
5.1968985086
 30
0.0
 10
5.8838971264
 20
5.1919878521
 30
0.0
 10
5.8853774487
 20
5.1860850505
 30
0.0
 10
5.8865825083
 20
5.179231705
 30
0.0
 10
5.8875291526
 20
5.171485202
 30
0.0
 10
5.8882519473
 20
5.1629193714
 30
0.0
 10
5.8887794634
 20
5.1536168293
 30
0.0
 10
5.8891438311
 20
5.1436684313
 30
0.0
 10
5.8893804379
 20
5.1331721397
 30
0.0
 10
5.8895248781
 20
5.1222315075
 30
0.0
 10
5.8896389826
 20
5.1070684388
 30
0.0
 10
5.8896638369
 20
5.0878310193
 30
0.0
 10
5.8896389757
 20
5.0685936144
 30
0.0
 10
5.8895249
 20
5.0534305959
 30
0.0
 10
5.8893804085
 20
5.0424900123
 30
0.0
 10
5.8891438062
 20
5.0319937684
 30
0.0
 10
5.8887794395
 20
5.0220454138
 30
0.0
 10
5.8882518925
 20
5.0127429192
 30
0.0
 10
5.8875290334
 20
5.0041771433
 30
0.0
 10
5.8865823589
 20
4.9964306991
 30
0.0
 10
5.8853773946
 20
4.9895774143
 30
0.0
 10
5.8838970779
 20
4.9836747183
 30
0.0
 10
5.8821407231
 20
4.9787642036
 30
0.0
 10
5.8803536042
 20
4.9753725342
 30
0.0
 10
5.8787418118
 20
4.9732542786
 30
0.0
 10
5.877518621
 20
4.9720102352
 30
0.0
 10
5.8762269957
 20
4.9710376389
 30
0.0
 10
5.8748696275
 20
4.9703399644
 30
0.0
 10
5.8734526568
 20
4.9699215578
 30
0.0
 10
5.8724821813
 20
4.9698314609
 30
0.0
 10
5.8719987354
 20
4.9698314609
 30
0.0
 11
5.8719987354
 21
5.2058314609
 31
0.0
 11
5.873442646
 21
5.2056951153
 31
0.0
 11
5.8748365943
 21
5.20528614
 31
0.0
 11
5.8761764535
 21
5.2046046271
 31
0.0
 11
5.8774580968
 21
5.2036506687
 31
0.0
 11
5.8786773978
 21
5.2024243571
 31
0.0
 11
5.8798302296
 21
5.2009257844
 31
0.0
 11
5.8819216908
 21
5.1971141942
 31
0.0
 11
5.8837228776
 21
5.1922435764
 31
0.0
 11
5.8852390897
 21
5.1863587596
 31
0.0
 11
5.8864761771
 21
5.1795052832
 31
0.0
 11
5.8874507319
 21
5.1717442951
 31
0.0
 11
5.8881937354
 21
5.1631578506
 31
0.0
 11
5.888737188
 21
5.1538295293
 31
0.0
 11
5.8891143869
 21
5.1438494331
 31
0.0
 11
5.8893610528
 21
5.1333198497
 31
0.0
 11
5.8895131601
 21
5.1223444073
 31
0.0
 11
5.8896014689
 21
5.1110292341
 31
0.0
 11
5.8896538449
 21
5.0878309972
 31
0.0
 11
5.8896014723
 21
5.0646328266
 31
0.0
 11
5.8895131696
 21
5.0533176968
 31
0.0
 11
5.8893610322
 21
5.0423422967
 31
0.0
 11
5.8891143617
 21
5.0318127719
 31
0.0
 11
5.8887371583
 21
5.0218327184
 31
0.0
 11
5.888193672
 21
5.0125044286
 31
0.0
 11
5.8874506163
 21
5.003918055
 31
0.0
 11
5.8864760502
 21
4.9961571217
 31
0.0
 11
5.8852390145
 21
4.9893036757
 31
0.0
 11
5.8837228204
 21
4.9834189939
 31
0.0
 11
5.8819216517
 21
4.9785485281
 31
0.0
 11
5.8798302471
 21
4.9747370088
 31
0.0
 11
5.8786774305
 21
4.9732384625
 31
0.0
 11
5.8774581309
 21
4.9720121794
 31
0.0
 11
5.87617648
 21
4.9710582487
 31
0.0
 11
5.8748366094
 21
4.9703767593
 31
0.0
 11
5.8734426506
 21
4.9699678003
 31
0.0
 11
5.8719987354
 21
4.9698314609
 31
0.0
  0
ENDSEC
  0
SECTION
  2
OBJECTS
  0
DICTIONARY
  5
C
100
AcDbDictionary
280
0
281
1
  3
ACAD_GROUP
350
D
  3
ACAD_MLINESTYLE
350
17
  3
ACAD_LAYOUT
350
1A
  3
ACAD_PLOTSETTINGS
350
19
  3
ACAD_PLOTSTYLENAME
350
E
  0
DICTIONARY
  5
D
102
{ACAD_REACTORS
330
C
102
}
100
AcDbDictionary
280
0
281
1
  0
ACDBDICTIONARYWDFLT
  5
E
102
{ACAD_REACTORS
330
C
102
}
100
AcDbDictionary
281
1
  3
Normal
350
F
100
AcDbDictionaryWithDefault
340
F
  0
DICTIONARY
  5
17
102
{ACAD_REACTORS
330
C
102
}
100
AcDbDictionary
280
0
281
1
  3
Standard
350
18
  0
DICTIONARY
  5
19
102
{ACAD_REACTORS
330
C
102
}
100
AcDbDictionary
281
1
  0
DICTIONARY
  5
1A
102
{ACAD_REACTORS
330
C
102
}
100
AcDbDictionary
281
1
  3
Model
350
28C
  3
Layout1
350
28D
  0
ACDBPLACEHOLDER
  5
F
102
{ACAD_REACTORS
330
E
102
}
  0
MLINESTYLE
  5
18
102
{ACAD_REACTORS
330
17
102
}
100
AcDbMlineStyle
  2
STANDARD
 70
0
  3

 62
256
 51
90.0
 52
90.0
 71
2
 49
0.5
 62
256
  6
BYLAYER
 49
-0.5
 62
256
  6
BYLAYER
  0
LAYOUT
  5
28C
102
{ACAD_REACTORS
330
1A
102
}
100
AcDbPlotSettings
  1

  2
none_device
  4
ISO_A4_(297.00_x_210.00_MM)
  6

 40
0.0
 41
0.0
 42
0.0
 43
0.0
 44
297.0
 45
210.0
 46
0.0
 47
0.0
 48
0.0
 49
0.0
140
0.0
141
0.0
142
1.0
143
1.0
 70
1024
 72
0
 73
0
 74
0
  7

 75
0
147
1.0
148
0.0
149
0.0
100
AcDbLayout
  1
Model
 70
0
 71
0
 10
0.0
 20
0.0
 11
11.6929133858
 21
8.2677165354
 12
0.0
 22
0.0
 32
0.0
 14
0.0
 24
0.0
 34
0.0
 15
0.0
 25
0.0
 35
0.0
146
0.0
 13
0.0
 23
0.0
 33
0.0
 16
1.0
 26
0.0
 36
0.0
 17
0.0
 27
1.0
 37
0.0
 76
0
330
20E
345
0
346
0
  0
LAYOUT
  5
28D
102
{ACAD_REACTORS
330
1A
102
}
100
AcDbPlotSettings
  1

  2
none_device
  4
ISO_A4_(297.00_x_210.00_MM)
  6

 40
0.0
 41
0.0
 42
0.0
 43
0.0
 44
297.0
 45
210.0
 46
0.0
 47
0.0
 48
0.0
 49
0.0
140
0.0
141
0.0
142
1.0
143
1.0
 70
0
 72
0
 73
0
 74
0
  7

 75
0
147
1.0
148
0.0
149
0.0
100
AcDbLayout
  1
Layout1
 70
0
 71
1
 10
0.0
 20
0.0
 11
11.6929133858
 21
8.2677165354
 12
0.0
 22
0.0
 32
0.0
 14
0.0
 24
0.0
 34
0.0
 15
0.0
 25
0.0
 35
0.0
146
0.0
 13
0.0
 23
0.0
 33
0.0
 16
1.0
 26
0.0
 36
0.0
 17
0.0
 27
1.0
 37
0.0
 76
0
330
20F
345
0
346
0
  0
ENDSEC
  0
EOF
