  0
SECTION
  2
HEADER
  9
$ACADVER
  1
AC1015
  9
$DWGCODEPAGE
  3
ANSI_1252
  9
$EXTMAX
 10
16.5354330709
 20
11.6929133858
 30
0.0
  9
$EXTMIN
 10
0.0
 20
0.0
 30
0.0
  9
$LIMMIN
 10
0.0
 20
0.0
  9
$LIMMAX
 10
16.5354330709
 20
11.6929133858
  9
$VIEWCTR
 10
8.2677165354
 20
5.8464566929
  9
$VIEWSIZE
 40
11.6929133858
  9
$CLAYER
  8
0
  9
$LTSCALE
 40
0.9094488189
  9
$CELTYPE
  6
BYLAYER
  9
$DIMSCALE
 40
1.0
  9
$DIMASZ
 40
0.1
  9
$DIMEXO
 40
0.1033464567
  9
$DIMDLI
 40
0.6283464567
  9
$DIMEXE
 40
0.2976377953
  9
$DIMCEN
 40
0.1488188976
  9
$DIMLFAC
 40
1.0
  9
$DIMBLK
  1
_FILLED
  9
$DIMTXT
 40
0.08
  9
$DIMTOL
 70
1
  9
$DIMLIM
 70
0
  9
$DIMTFAC
 40
1.0
  9
$DIMTP
 40
0.01
  9
$DIMTM
 40
0.01
  9
$PDMODE
 70
3
  9
$PDSIZE
 40
0.06
  9
$HANDSEED
  5
48C
  9
$TILEMODE
 70
1
  9
$MEASUREMENT
 70
0
  9
$INSUNITS
 70
1
  0
ENDSEC
  0
SECTION
  2
CLASSES
  0
CLASS
  1
ACDBDICTIONARYWDFLT
  2
AcDbDictionaryWithDefault
  3
AutoCAD 2000
 90
0
280
0
281
0
  0
CLASS
  1
ACDBPLACEHOLDER
  2
AcDbPlaceHolder
  3
AutoCAD 2000
 90
0
280
0
281
0
  0
CLASS
  1
LAYOUT
  2
AcDbLayout
  3
AutoCAD 2000
 90
0
280
0
281
0
  0
ENDSEC
  0
SECTION
  2
TABLES
  0
TABLE
  2
VPORT
  5
8
100
AcDbSymbolTable
 70
2
  0
VPORT
  5
1F4
100
AcDbSymbolTableRecord
100
AcDbViewportTableRecord
  2
*ACTIVE
 70
0
 10
0.0
 20
0.0
 11
1.0
 21
1.0
 12
8.2677165354
 22
5.8464566929
 13
0.0
 23
0.0
 14
1.0
 24
1.0
 15
0.0
 25
0.0
 16
0.0
 26
0.0
 36
1.0
 17
0.0
 27
0.0
 37
0.0
 40
11.6929133858
 41
1.4141414141
 42
50.0
 43
0.0
 44
0.0
 50
0.0
 51
0.0
 71
0
 72
100
 73
1
 74
1
 75
0
 76
0
 77
0
 78
0
  0
ENDTAB
  0
TABLE
  2
LTYPE
  5
5
100
AcDbSymbolTable
 70
6
  0
LTYPE
  5
14
100
AcDbSymbolTableRecord
100
AcDbLinetypeTableRecord
  2
BYBLOCK
 70
0
  3

 72
65
 73
0
 40
0.0
  0
LTYPE
  5
15
100
AcDbSymbolTableRecord
100
AcDbLinetypeTableRecord
  2
BYLAYER
 70
0
  3

 72
65
 73
0
 40
0.0
  0
LTYPE
  5
16
100
AcDbSymbolTableRecord
100
AcDbLinetypeTableRecord
  2
CONTINUOUS
 70
64
  3
Solid line
 72
65
 73
0
 40
0.0
  0
LTYPE
  5
1F5
100
AcDbSymbolTableRecord
100
AcDbLinetypeTableRecord
  2
CENTER
 70
64
  3
____ _ ____ _ ____ _ ____ _ ____ _ ____ _ ____
 72
65
 73
4
 40
0.6
 49
0.375
 74
0
 49
-0.075
 74
0
 49
0.075
 74
0
 49
-0.075
 74
0
  0
LTYPE
  5
1F6
100
AcDbSymbolTableRecord
100
AcDbLinetypeTableRecord
  2
HIDDEN
 70
64
  3
- - - - - - - - - - - - - - - - - - - -
 72
65
 73
2
 40
0.2
 49
0.1
 74
0
 49
-0.1
 74
0
  0
LTYPE
  5
1F7
100
AcDbSymbolTableRecord
100
AcDbLinetypeTableRecord
  2
PHANTOM
 70
64
  3
_____ _ _ _____ _ _ _____ _ _ _____
 72
65
 73
6
 40
0.8
 49
0.45
 74
0
 49
-0.05
 74
0
 49
0.1
 74
0
 49
-0.05
 74
0
 49
0.1
 74
0
 49
-0.05
 74
0
  0
LTYPE
  5
1F8
100
AcDbSymbolTableRecord
100
AcDbLinetypeTableRecord
  2
DOT
 70
64
  3
. . . . . . . . . . . . . . . . . . . .
 72
65
 73
2
 40
0.2
 49
0.1
 74
0
 49
-0.1
 74
0
  0
LTYPE
  5
1F9
100
AcDbSymbolTableRecord
100
AcDbLinetypeTableRecord
  2
DASHED
 70
64
  3
- - - - - - - - - - - - - - - - - - - -
 72
65
 73
2
 40
0.2
 49
0.1
 74
0
 49
-0.1
 74
0
  0
ENDTAB
  0
TABLE
  2
LAYER
  5
2
100
AcDbSymbolTable
 70
36
  0
LAYER
  5
10
100
AcDbSymbolTableRecord
100
AcDbLayerTableRecord
  2
0
 70
0
 62
7
  6
CONTINUOUS
370
-3
390
F
  0
LAYER
  5
1FA
100
AcDbSymbolTableRecord
100
AcDbLayerTableRecord
  2
DEFAULT_1
 70
0
 62
7
  6
CENTER
370
-3
390
F
  0
LAYER
  5
1FB
100
AcDbSymbolTableRecord
100
AcDbLayerTableRecord
  2
DEFAULT_2
 70
0
 62
8
  6
HIDDEN
370
-3
390
F
  0
LAYER
  5
1FC
100
AcDbSymbolTableRecord
100
AcDbLayerTableRecord
  2
DEFAULT_3
 70
0
 62
7
  6
PHANTOM
370
-3
390
F
  0
LAYER
  5
1FD
100
AcDbSymbolTableRecord
100
AcDbLayerTableRecord
  2
DEFAULT_COORDINATE_SYSTEM
 70
0
 62
7
  6
CONTINUOUS
370
-3
390
F
  0
LAYER
  5
1FE
100
AcDbSymbolTableRecord
100
AcDbLayerTableRecord
  2
DEFAULT_DATUM_AXES
 70
0
 62
7
  6
CONTINUOUS
370
-3
390
F
  0
LAYER
  5
1FF
100
AcDbSymbolTableRecord
100
AcDbLayerTableRecord
  2
DEFAULT_DATUM_CURVES
 70
0
 62
7
  6
CONTINUOUS
370
-3
390
F
  0
LAYER
  5
200
100
AcDbSymbolTableRecord
100
AcDbLayerTableRecord
  2
DEFAULT_DATUM_PLANES
 70
0
 62
7
  6
CONTINUOUS
370
-3
390
F
  0
ENDTAB
  0
TABLE
  2
STYLE
  5
3
100
AcDbSymbolTable
 70
1
  0
STYLE
  5
11
100
AcDbSymbolTableRecord
100
AcDbTextStyleTableRecord
  2
STANDARD
 70
0
 40
0.0
 41
0.8
 50
0.0
 71
0
 42
0.2
  3
txt
  4

  0
STYLE
  5
201
100
AcDbSymbolTableRecord
100
AcDbTextStyleTableRecord
  2
TEXTSTYLE_1
 70
0
 40
0.0
 41
0.8
 50
0.0
 71
0
 42
0.2
  3
gdt
  4

  0
ENDTAB
  0
TABLE
  2
VIEW
  5
6
100
AcDbSymbolTable
 70
0
  0
ENDTAB
  0
TABLE
  2
UCS
  5
7
100
AcDbSymbolTable
 70
0
  0
ENDTAB
  0
TABLE
  2
APPID
  5
9
100
AcDbSymbolTable
 70
1
  0
APPID
  5
202
100
AcDbSymbolTableRecord
100
AcDbRegAppTableRecord
  2
ACAD
 70
0
  0
ENDTAB
  0
TABLE
  2
BLOCK_RECORD
  5
1
100
AcDbSymbolTable
 70
0
  0
BLOCK_RECORD
  5
203
100
AcDbSymbolTableRecord
100
AcDbBlockTableRecord
  2
*Model_Space
  0
BLOCK_RECORD
  5
204
100
AcDbSymbolTableRecord
100
AcDbBlockTableRecord
  2
*Paper_Space
  0
ENDTAB
  0
TABLE
  2
DIMSTYLE
  5
A
100
AcDbSymbolTable
 70
1
100
AcDbDimStyleTable
 71
0
  0
DIMSTYLE
105
205
100
AcDbSymbolTableRecord
100
AcDbDimStyleTableRecord
  2
STANDARD
 70
0
  3

  4

 40
1.0
 41
0.1
 42
0.0625
 43
0.38
 44
0.18
 45
0.0
 46
0.0
 47
0.01
 48
0.01
140
0.08
141
0.09
142
0.0
143
25.4
144
1.0
145
0.0
146
1.0
147
0.09
 71
1.0
 72
0.0
 73
1
 74
1
 75
0
 76
0
 77
0
 78
4
170
0
171
2
172
0
173
0
174
0
175
0
176
0
177
0
178
0
270
2
271
2
272
2
273
2
274
2
275
0
280
0
281
0
282
0
283
1
284
4
285
0
286
0
287
3
288
0
340
11
  0
ENDTAB
  0
ENDSEC
  0
SECTION
  2
BLOCKS
  0
BLOCK
  5
20
100
AcDbEntity
  8
0
100
AcDbBlockBegin
  2
*Model_Space
 70
0
 10
0.0
 20
0.0
 30
0.0
  3
*Model_Space
  1

  0
ENDBLK
  5
21
100
AcDbEntity
  8
0
100
AcDbBlockEnd
  0
BLOCK
  5
1C
100
AcDbEntity
  8
0
100
AcDbBlockBegin
  2
*Paper_Space
 70
0
 10
0.0
 20
0.0
 30
0.0
  3
*Paper_Space
  1

  0
ENDBLK
  5
1D
100
AcDbEntity
  8
0
100
AcDbBlockEnd
  0
ENDSEC
  0
SECTION
  2
ENTITIES
  0
LINE
  5
206
100
AcDbEntity
  8
0
100
AcDbLine
 62
6
  6
CONTINUOUS
 10
6.3734064556
 20
5.7720167727
 11
6.3734064556
 21
6.1120167727
  0
LINE
  5
207
100
AcDbEntity
  8
0
100
AcDbLine
 62
6
  6
CONTINUOUS
 10
6.3834064556
 20
5.7620167727
 11
6.3834064556
 21
6.1220167727
  0
LINE
  5
208
100
AcDbEntity
  8
0
100
AcDbLine
 62
6
  6
CONTINUOUS
 10
6.4394064556
 20
5.6700167727
 11
6.4394064556
 21
6.2140167727
  0
LINE
  5
209
100
AcDbEntity
  8
0
100
AcDbLine
 62
6
  6
CONTINUOUS
 10
6.4634064556
 20
5.6585167727
 11
6.4634064556
 21
6.2255167727
  0
LINE
  5
20A
100
AcDbEntity
  8
0
100
AcDbLine
 62
9
  6
CONTINUOUS
 10
6.5104064556
 20
5.6115167727
 11
6.5104064556
 21
6.2725167727
  0
LINE
  5
20B
100
AcDbEntity
  8
0
100
AcDbLine
 62
6
  6
CONTINUOUS
 10
6.5814064556
 20
5.6115167727
 11
6.5814064556
 21
6.2725167727
  0
LINE
  5
20C
100
AcDbEntity
  8
0
100
AcDbLine
 62
6
  6
CONTINUOUS
 10
6.3734064556
 20
6.1120167727
 11
6.3834064556
 21
6.1220167727
  0
LINE
  5
20D
100
AcDbEntity
  8
0
100
AcDbLine
 62
6
  6
CONTINUOUS
 10
6.3734064556
 20
5.7720167727
 11
6.3834064556
 21
5.7620167727
  0
LINE
  5
20E
100
AcDbEntity
  8
0
100
AcDbLine
 62
9
  6
CONTINUOUS
 10
7.0901146747
 20
5.5655594998
 11
7.0901146747
 21
6.3184740457
  0
LINE
  5
20F
100
AcDbEntity
  8
0
100
AcDbLine
 62
6
  6
CONTINUOUS
 10
7.2783064556
 20
6.0826417772
 11
7.2783064556
 21
6.0808317205
  0
LINE
  5
210
100
AcDbEntity
  8
0
100
AcDbLine
 62
6
  6
CONTINUOUS
 10
7.2783064556
 20
5.8013917828
 11
7.2783064556
 21
5.8032018232
  0
LINE
  5
211
100
AcDbEntity
  8
0
100
AcDbLine
 62
6
  6
CONTINUOUS
 10
7.2934064556
 20
6.1045167727
 11
7.2934064556
 21
6.0545167727
  0
LINE
  5
212
100
AcDbEntity
  8
0
100
AcDbLine
 62
6
  6
CONTINUOUS
 10
7.2934064556
 20
5.8295167727
 11
7.2934064556
 21
5.7795167727
  0
LINE
  5
213
100
AcDbEntity
  8
0
100
AcDbLine
 62
6
  6
CONTINUOUS
 10
7.2934064556
 20
5.8362383424
 11
7.2934064556
 21
5.8390865214
  0
LINE
  5
214
100
AcDbEntity
  8
0
100
AcDbLine
 62
6
  6
CONTINUOUS
 10
7.3434064556
 20
6.1295167727
 11
7.3434064556
 21
6.0920167727
  0
LINE
  5
215
100
AcDbEntity
  8
0
100
AcDbLine
 62
7
  6
CONTINUOUS
 10
7.3434064556
 20
5.7508231977
 11
7.3434064556
 21
5.7496921792
  0
LINE
  5
216
100
AcDbEntity
  8
0
100
AcDbLine
 62
6
  6
CONTINUOUS
 10
7.3434064556
 20
5.7545167727
 11
7.3434064556
 21
5.7920167727
  0
LINE
  5
217
100
AcDbEntity
  8
0
100
AcDbLine
 62
7
  6
CONTINUOUS
 10
7.3434064556
 20
5.8582103478
 11
7.3434064556
 21
5.8616762881
  0
LINE
  5
218
100
AcDbEntity
  8
0
100
AcDbLine
 62
7
  6
CONTINUOUS
 10
7.3434064556
 20
6.1332103478
 11
7.3434064556
 21
6.1351137781
  0
LINE
  5
219
100
AcDbEntity
  8
0
100
AcDbLine
 62
6
  6
CONTINUOUS
 10
7.3934064556
 20
5.7795167727
 11
7.3934064556
 21
5.8275650481
  0
LINE
  5
21A
100
AcDbEntity
  8
0
100
AcDbLine
 62
6
  6
CONTINUOUS
 10
7.3934064556
 20
6.0545167727
 11
7.3934064556
 21
6.1045167727
  0
LINE
  5
21B
100
AcDbEntity
  8
0
100
AcDbLine
 62
6
  6
CONTINUOUS
 10
7.4085064556
 20
6.0904542808
 11
7.4085064556
 21
6.0886442256
  0
LINE
  5
21C
100
AcDbEntity
  8
0
100
AcDbLine
 62
6
  6
CONTINUOUS
 10
7.4085064556
 20
5.7935792767
 11
7.4085064556
 21
5.7953893297
  0
LINE
  5
21D
100
AcDbEntity
  8
0
100
AcDbLine
 62
6
  6
CONTINUOUS
 10
7.4934064556
 20
5.5895167727
 11
7.4934064556
 21
6.2945167727
  0
LINE
  5
21E
100
AcDbEntity
  8
0
100
AcDbLine
 62
6
  6
CONTINUOUS
 10
7.5434064556
 20
5.5895167727
 11
7.5434064556
 21
6.2945167727
  0
LINE
  5
21F
100
AcDbEntity
  8
0
100
AcDbLine
 62
6
  6
CONTINUOUS
 10
7.7242806907
 20
6.5514304809
 11
7.5434064556
 21
6.1773574665
  0
LINE
  5
220
100
AcDbEntity
  8
0
100
AcDbLine
 62
6
  6
CONTINUOUS
 10
7.8368157891
 20
5.2620167727
 11
7.9084064556
 21
5.2620167727
  0
LINE
  5
221
100
AcDbEntity
  8
0
100
AcDbLine
 62
6
  6
CONTINUOUS
 10
7.5434064556
 20
5.706676079
 11
7.7242806907
 21
5.3326030646
  0
LINE
  5
222
100
AcDbEntity
  8
0
100
AcDbLine
 62
6
  6
CONTINUOUS
 10
7.3434064556
 20
6.1295167727
 11
7.2934064556
 21
6.1045167727
  0
LINE
  5
223
100
AcDbEntity
  8
0
100
AcDbLine
 62
6
  6
CONTINUOUS
 10
7.3434064556
 20
6.0920167727
 11
7.2934064556
 21
6.0670167727
  0
LINE
  5
224
100
AcDbEntity
  8
0
100
AcDbLine
 62
6
  6
CONTINUOUS
 10
7.2934064556
 20
5.7795167727
 11
7.3434064556
 21
5.7545167727
  0
LINE
  5
225
100
AcDbEntity
  8
0
100
AcDbLine
 62
6
  6
CONTINUOUS
 10
7.2934064556
 20
5.8170167727
 11
7.3434064556
 21
5.7920167727
  0
LINE
  5
226
100
AcDbEntity
  8
0
100
AcDbLine
 62
9
  6
CONTINUOUS
 10
7.7242806907
 20
5.3326030646
 11
7.7242806907
 21
6.5514304809
  0
LINE
  5
227
100
AcDbEntity
  8
0
100
AcDbLine
 62
6
  6
CONTINUOUS
 10
7.3451857653
 20
6.0304064276
 11
7.3934064556
 21
6.0545167727
  0
LINE
  5
228
100
AcDbEntity
  8
0
100
AcDbLine
 62
6
  6
CONTINUOUS
 10
8.8584064556
 20
5.5355167727
 11
8.2084064556
 21
5.5355167727
  0
LINE
  5
229
100
AcDbEntity
  8
0
100
AcDbLine
 62
6
  6
CONTINUOUS
 10
7.3883565103
 20
5.8320417454
 11
7.3434064556
 21
5.8545167727
  0
LINE
  5
22A
100
AcDbEntity
  8
0
100
AcDbLine
 62
9
  6
CONTINUOUS
 10
7.8368157891
 20
5.2620167727
 11
7.8368157891
 21
5.6741082062
  0
LINE
  5
22B
100
AcDbEntity
  8
0
100
AcDbLine
 62
9
  6
CONTINUOUS
 10
7.8368157891
 20
6.2099253392
 11
7.8368157891
 21
6.6220167727
  0
LINE
  5
22C
100
AcDbEntity
  8
0
100
AcDbLine
 62
6
  6
CONTINUOUS
 10
7.9084064556
 20
5.2620224064
 11
7.9084064556
 21
6.622011139
  0
LINE
  5
22D
100
AcDbEntity
  8
0
100
AcDbLine
 62
6
  6
CONTINUOUS
 10
7.3434064556
 20
5.8545167727
 11
7.2934064556
 21
5.8295167727
  0
LINE
  5
22E
100
AcDbEntity
  8
0
100
AcDbLine
 62
6
  6
CONTINUOUS
 10
7.5434064556
 20
5.5895167727
 11
7.4934064556
 21
5.5895167727
  0
LINE
  5
22F
100
AcDbEntity
  8
0
100
AcDbLine
 62
6
  6
CONTINUOUS
 10
6.5814064556
 20
5.6115167727
 11
6.5104064556
 21
5.6115167727
  0
LINE
  5
230
100
AcDbEntity
  8
0
100
AcDbLine
 62
6
  6
CONTINUOUS
 10
8.5959064556
 20
5.6295167727
 11
8.9084064556
 21
5.6295167727
  0
LINE
  5
231
100
AcDbEntity
  8
0
100
AcDbLine
 62
6
  6
CONTINUOUS
 10
7.9084064556
 20
5.6395167727
 11
8.2084064556
 21
5.6395167727
  0
LINE
  5
232
100
AcDbEntity
  8
0
100
AcDbLine
 62
6
  6
CONTINUOUS
 10
6.4634064556
 20
5.6700167727
 11
6.4394064556
 21
5.6700167727
  0
LINE
  5
233
100
AcDbEntity
  8
0
100
AcDbLine
 62
6
  6
CONTINUOUS
 10
7.9084064556
 20
5.6704730378
 11
8.2084064556
 21
5.6704730378
  0
LINE
  5
234
100
AcDbEntity
  8
0
100
AcDbLine
 62
6
  6
CONTINUOUS
 10
7.8368157891
 20
5.6741082062
 11
7.9084064556
 21
5.6741082062
  0
LINE
  5
235
100
AcDbEntity
  8
0
100
AcDbLine
 62
6
  6
CONTINUOUS
 10
8.7133778636
 20
5.6920167727
 11
8.7081663984
 21
5.6920167727
  0
LINE
  5
236
100
AcDbEntity
  8
0
100
AcDbLine
 62
6
  6
CONTINUOUS
 10
8.6717079002
 20
5.6920167727
 11
8.6664963704
 21
5.6920167727
  0
LINE
  5
237
100
AcDbEntity
  8
0
100
AcDbLine
 62
6
  6
CONTINUOUS
 10
8.6300378702
 20
5.6920167727
 11
8.6248263404
 21
5.6920167727
  0
LINE
  5
238
100
AcDbEntity
  8
0
100
AcDbLine
 62
6
  6
CONTINUOUS
 10
8.5883678399
 20
5.6920167727
 11
8.5831563728
 21
5.6920167727
  0
LINE
  5
239
100
AcDbEntity
  8
0
100
AcDbLine
 62
6
  6
CONTINUOUS
 10
8.5466978757
 20
5.6920167727
 11
8.5414863967
 21
5.6920167727
  0
LINE
  5
23A
100
AcDbEntity
  8
0
100
AcDbLine
 62
6
  6
CONTINUOUS
 10
8.5050278982
 20
5.6920167727
 11
8.4998163642
 21
5.6920167727
  0
LINE
  5
23B
100
AcDbEntity
  8
0
100
AcDbLine
 62
6
  6
CONTINUOUS
 10
8.4633578638
 20
5.6920167727
 11
8.4581463398
 21
5.6920167727
  0
LINE
  5
23C
100
AcDbEntity
  8
0
100
AcDbLine
 62
6
  6
CONTINUOUS
 10
8.4216878395
 20
5.6920167727
 11
8.4164763829
 21
5.6920167727
  0
LINE
  5
23D
100
AcDbEntity
  8
0
100
AcDbLine
 62
6
  6
CONTINUOUS
 10
7.2934064556
 20
6.0545167727
 11
7.3419242665
 21
6.0302578673
  0
LINE
  5
23E
100
AcDbEntity
  8
0
100
AcDbLine
 62
6
  6
CONTINUOUS
 10
7.3434064556
 20
5.7920167727
 11
7.3934064556
 21
5.8170167727
  0
LINE
  5
23F
100
AcDbEntity
  8
0
100
AcDbLine
 62
6
  6
CONTINUOUS
 10
7.3434064556
 20
5.7545167727
 11
7.3934064556
 21
5.7795167727
  0
LINE
  5
240
100
AcDbEntity
  8
0
100
AcDbLine
 62
6
  6
CONTINUOUS
 10
9.9709064556
 20
5.7060167727
 11
8.7909064556
 21
5.7060167727
  0
LINE
  5
241
100
AcDbEntity
  8
0
100
AcDbLine
 62
6
  6
CONTINUOUS
 10
8.3930371343
 20
5.7145667728
 11
8.4034571343
 21
5.7145667728
  0
LINE
  5
242
100
AcDbEntity
  8
0
100
AcDbLine
 62
6
  6
CONTINUOUS
 10
8.4347070896
 20
5.7145667752
 11
8.4451270896
 21
5.7145667752
  0
LINE
  5
243
100
AcDbEntity
  8
0
100
AcDbLine
 62
6
  6
CONTINUOUS
 10
8.476377114
 20
5.7145667753
 11
8.486797114
 21
5.7145667753
  0
LINE
  5
244
100
AcDbEntity
  8
0
100
AcDbLine
 62
6
  6
CONTINUOUS
 10
8.5180471475
 20
5.7145667738
 11
8.5284671475
 21
5.7145667738
  0
LINE
  5
245
100
AcDbEntity
  8
0
100
AcDbLine
 62
6
  6
CONTINUOUS
 10
8.5597171243
 20
5.7145667727
 11
8.5701371243
 21
5.7145667727
  0
LINE
  5
246
100
AcDbEntity
  8
0
100
AcDbLine
 62
6
  6
CONTINUOUS
 10
8.6013870902
 20
5.7145667754
 11
8.6118070902
 21
5.7145667754
  0
LINE
  5
247
100
AcDbEntity
  8
0
100
AcDbLine
 62
6
  6
CONTINUOUS
 10
8.6430571203
 20
5.7145667751
 11
8.6534771203
 21
5.7145667751
  0
LINE
  5
248
100
AcDbEntity
  8
0
100
AcDbLine
 62
6
  6
CONTINUOUS
 10
8.6847271493
 20
5.7145667736
 11
8.6951471493
 21
5.7145667736
  0
LINE
  5
249
100
AcDbEntity
  8
0
100
AcDbLine
 62
6
  6
CONTINUOUS
 10
8.7263971124
 20
5.7145667732
 11
8.7368171124
 21
5.7145667732
  0
LINE
  5
24A
100
AcDbEntity
  8
0
100
AcDbLine
 62
6
  6
CONTINUOUS
 10
8.7680670923
 20
5.7145667756
 11
8.7709564584
 21
5.7145667756
  0
LINE
  5
24B
100
AcDbEntity
  8
0
100
AcDbLine
 62
6
  6
CONTINUOUS
 10
7.3934064556
 20
6.0670167727
 11
7.3434064556
 21
6.0920167727
  0
LINE
  5
24C
100
AcDbEntity
  8
0
100
AcDbLine
 62
6
  6
CONTINUOUS
 10
7.3934064556
 20
6.1045167727
 11
7.3434064556
 21
6.1295167727
  0
LINE
  5
24D
100
AcDbEntity
  8
0
100
AcDbLine
 62
6
  6
CONTINUOUS
 10
8.4242921014
 20
6.1694667715
 11
8.4239574567
 21
6.1691772737
  0
LINE
  5
24E
100
AcDbEntity
  8
0
100
AcDbLine
 62
7
  6
CONTINUOUS
 10
8.7909064556
 20
5.9420167727
 11
8.7884064556
 21
5.9420167727
  0
LINE
  5
24F
100
AcDbEntity
  8
0
100
AcDbLine
 62
6
  6
CONTINUOUS
 10
8.7493128984
 20
5.6929232156
 11
8.7491193733
 21
5.6929939325
  0
LINE
  5
250
100
AcDbEntity
  8
0
100
AcDbLine
 62
6
  6
CONTINUOUS
 10
8.4161718665
 20
5.6922802655
 11
8.4164763829
 21
5.6920167727
  0
LINE
  5
251
100
AcDbEntity
  8
0
100
AcDbLine
 62
6
  6
CONTINUOUS
 10
8.4034571343
 20
5.7145667728
 11
8.4031224897
 21
5.7148562706
  0
LINE
  5
252
100
AcDbEntity
  8
0
100
AcDbLine
 62
6
  6
CONTINUOUS
 10
8.4578418227
 20
5.6922802662
 11
8.4581463398
 21
5.6920167727
  0
LINE
  5
253
100
AcDbEntity
  8
0
100
AcDbLine
 62
6
  6
CONTINUOUS
 10
8.4451270896
 20
5.7145667752
 11
8.4447924442
 21
5.7148562737
  0
LINE
  5
254
100
AcDbEntity
  8
0
100
AcDbLine
 62
6
  6
CONTINUOUS
 10
8.2084064556
 20
5.5355167727
 11
8.2084064556
 21
5.6395167727
  0
LINE
  5
255
100
AcDbEntity
  8
0
100
AcDbLine
 62
6
  6
CONTINUOUS
 10
8.2084064556
 20
5.6704730378
 11
8.2084064556
 21
6.2135605077
  0
LINE
  5
256
100
AcDbEntity
  8
0
100
AcDbLine
 62
6
  6
CONTINUOUS
 10
8.2084064556
 20
6.2445167727
 11
8.2084064556
 21
6.3485167727
  0
LINE
  5
257
100
AcDbEntity
  8
0
100
AcDbLine
 62
6
  6
CONTINUOUS
 10
8.4370068343
 20
6.1917532798
 11
8.4239574567
 21
6.1691772737
  0
LINE
  5
258
100
AcDbEntity
  8
0
100
AcDbLine
 62
6
  6
CONTINUOUS
 10
8.4786768294
 20
6.1917532789
 11
8.4656274507
 21
6.169177271
  0
LINE
  5
259
100
AcDbEntity
  8
0
100
AcDbLine
 62
6
  6
CONTINUOUS
 10
8.4659620966
 20
6.1694667699
 11
8.4656274507
 21
6.169177271
  0
LINE
  5
25A
100
AcDbEntity
  8
0
100
AcDbLine
 62
6
  6
CONTINUOUS
 10
8.5076321337
 20
6.1694667708
 11
8.5072974877
 21
6.1691772718
  0
LINE
  5
25B
100
AcDbEntity
  8
0
100
AcDbLine
 62
6
  6
CONTINUOUS
 10
8.5493021471
 20
6.1694667724
 11
8.548967502
 21
6.1691772741
  0
LINE
  5
25C
100
AcDbEntity
  8
0
100
AcDbLine
 62
6
  6
CONTINUOUS
 10
8.5909720952
 20
6.169466771
 11
8.5906374503
 21
6.1691772729
  0
LINE
  5
25D
100
AcDbEntity
  8
0
100
AcDbLine
 62
6
  6
CONTINUOUS
 10
8.6326421012
 20
6.1694667699
 11
8.6323074553
 21
6.1691772709
  0
LINE
  5
25E
100
AcDbEntity
  8
0
100
AcDbLine
 62
6
  6
CONTINUOUS
 10
8.4995118465
 20
5.6922802667
 11
8.4998163642
 21
5.6920167727
  0
LINE
  5
25F
100
AcDbEntity
  8
0
100
AcDbLine
 62
6
  6
CONTINUOUS
 10
8.486797114
 20
5.7145667753
 11
8.4864624679
 21
5.7148562744
  0
LINE
  5
260
100
AcDbEntity
  8
0
100
AcDbLine
 62
6
  6
CONTINUOUS
 10
8.5411818794
 20
5.6922802664
 11
8.5414863967
 21
5.6920167727
  0
LINE
  5
261
100
AcDbEntity
  8
0
100
AcDbLine
 62
6
  6
CONTINUOUS
 10
8.5284671475
 20
5.7145667738
 11
8.5281325018
 21
5.7148562725
  0
LINE
  5
262
100
AcDbEntity
  8
0
100
AcDbLine
 62
6
  6
CONTINUOUS
 10
8.5828518568
 20
5.6922802653
 11
8.5831563728
 21
5.6920167727
  0
LINE
  5
263
100
AcDbEntity
  8
0
100
AcDbLine
 62
6
  6
CONTINUOUS
 10
8.5701371243
 20
5.7145667727
 11
8.56980248
 21
5.7148562703
  0
LINE
  5
264
100
AcDbEntity
  8
0
100
AcDbLine
 62
6
  6
CONTINUOUS
 10
8.6245218232
 20
5.6922802663
 11
8.6248263404
 21
5.6920167727
  0
LINE
  5
265
100
AcDbEntity
  8
0
100
AcDbLine
 62
6
  6
CONTINUOUS
 10
8.6118070902
 20
5.7145667754
 11
8.6114724446
 21
5.7148562741
  0
LINE
  5
266
100
AcDbEntity
  8
0
100
AcDbLine
 62
6
  6
CONTINUOUS
 10
8.6661918527
 20
5.6922802667
 11
8.6664963704
 21
5.6920167727
  0
LINE
  5
267
100
AcDbEntity
  8
0
100
AcDbLine
 62
6
  6
CONTINUOUS
 10
8.6534771203
 20
5.7145667751
 11
8.6531424742
 21
5.7148562742
  0
LINE
  5
268
100
AcDbEntity
  8
0
100
AcDbLine
 62
6
  6
CONTINUOUS
 10
8.4031224897
 20
5.7148562706
 11
8.4138352229
 21
5.6963231157
  0
LINE
  5
269
100
AcDbEntity
  8
0
100
AcDbLine
 62
6
  6
CONTINUOUS
 10
8.4447924442
 20
5.7148562737
 11
8.4555051775
 21
5.696323119
  0
LINE
  5
26A
100
AcDbEntity
  8
0
100
AcDbLine
 62
6
  6
CONTINUOUS
 10
8.5203468659
 20
6.1917532788
 11
8.5072974877
 21
6.1691772718
  0
LINE
  5
26B
100
AcDbEntity
  8
0
100
AcDbLine
 62
6
  6
CONTINUOUS
 10
8.5620168791
 20
6.1917532795
 11
8.548967502
 21
6.1691772741
  0
LINE
  5
26C
100
AcDbEntity
  8
0
100
AcDbLine
 62
6
  6
CONTINUOUS
 10
8.6036868283
 20
6.1917532796
 11
8.5906374503
 21
6.1691772729
  0
LINE
  5
26D
100
AcDbEntity
  8
0
100
AcDbLine
 62
6
  6
CONTINUOUS
 10
8.674312139
 20
6.1694667711
 11
8.6739774931
 21
6.1691772721
  0
LINE
  5
26E
100
AcDbEntity
  8
0
100
AcDbLine
 62
6
  6
CONTINUOUS
 10
8.7159821428
 20
6.1694667725
 11
8.7156474979
 21
6.1691772745
  0
LINE
  5
26F
100
AcDbEntity
  8
0
100
AcDbLine
 62
6
  6
CONTINUOUS
 10
8.7909064556
 20
6.1270167727
 11
8.7884064556
 21
6.1270167727
  0
LINE
  5
270
100
AcDbEntity
  8
0
100
AcDbLine
 62
6
  6
CONTINUOUS
 10
8.7576520914
 20
6.1694667706
 11
8.7472320914
 21
6.1694667706
  0
LINE
  5
271
100
AcDbEntity
  8
0
100
AcDbLine
 62
6
  6
CONTINUOUS
 10
8.7159821428
 20
6.1694667725
 11
8.7055621428
 21
6.1694667725
  0
LINE
  5
272
100
AcDbEntity
  8
0
100
AcDbLine
 62
6
  6
CONTINUOUS
 10
8.674312139
 20
6.1694667711
 11
8.663892139
 21
6.1694667711
  0
LINE
  5
273
100
AcDbEntity
  8
0
100
AcDbLine
 62
6
  6
CONTINUOUS
 10
8.6326421012
 20
6.1694667699
 11
8.6222221012
 21
6.1694667699
  0
LINE
  5
274
100
AcDbEntity
  8
0
100
AcDbLine
 62
6
  6
CONTINUOUS
 10
8.5909720952
 20
6.169466771
 11
8.5805520952
 21
6.169466771
  0
LINE
  5
275
100
AcDbEntity
  8
0
100
AcDbLine
 62
6
  6
CONTINUOUS
 10
8.5493021471
 20
6.1694667724
 11
8.5388821471
 21
6.1694667724
  0
LINE
  5
276
100
AcDbEntity
  8
0
100
AcDbLine
 62
6
  6
CONTINUOUS
 10
8.5076321337
 20
6.1694667708
 11
8.4972121337
 21
6.1694667708
  0
LINE
  5
277
100
AcDbEntity
  8
0
100
AcDbLine
 62
6
  6
CONTINUOUS
 10
8.4659620966
 20
6.1694667699
 11
8.4555420966
 21
6.1694667699
  0
LINE
  5
278
100
AcDbEntity
  8
0
100
AcDbLine
 62
6
  6
CONTINUOUS
 10
8.4242921014
 20
6.1694667715
 11
8.4138721014
 21
6.1694667715
  0
LINE
  5
279
100
AcDbEntity
  8
0
100
AcDbLine
 62
6
  6
CONTINUOUS
 10
9.9709064556
 20
6.1780167727
 11
8.7909064556
 21
6.1780167727
  0
LINE
  5
27A
100
AcDbEntity
  8
0
100
AcDbLine
 62
6
  6
CONTINUOUS
 10
8.6925428941
 20
6.1920167727
 11
8.6873313886
 21
6.1920167727
  0
LINE
  5
27B
100
AcDbEntity
  8
0
100
AcDbLine
 62
6
  6
CONTINUOUS
 10
8.6508728894
 20
6.1920167727
 11
8.6456613516
 21
6.1920167727
  0
LINE
  5
27C
100
AcDbEntity
  8
0
100
AcDbLine
 62
6
  6
CONTINUOUS
 10
8.6092028509
 20
6.1920167727
 11
8.6039913449
 21
6.1920167727
  0
LINE
  5
27D
100
AcDbEntity
  8
0
100
AcDbLine
 62
6
  6
CONTINUOUS
 10
8.5675328456
 20
6.1920167727
 11
8.5623213959
 21
6.1920167727
  0
LINE
  5
27E
100
AcDbEntity
  8
0
100
AcDbLine
 62
6
  6
CONTINUOUS
 10
8.5258628983
 20
6.1920167727
 11
8.5206513835
 21
6.1920167727
  0
LINE
  5
27F
100
AcDbEntity
  8
0
100
AcDbLine
 62
6
  6
CONTINUOUS
 10
8.4841928839
 20
6.1920167727
 11
8.478981347
 21
6.1920167727
  0
LINE
  5
280
100
AcDbEntity
  8
0
100
AcDbLine
 62
6
  6
CONTINUOUS
 10
8.4425228462
 20
6.1920167727
 11
8.4373113508
 21
6.1920167727
  0
LINE
  5
281
100
AcDbEntity
  8
0
100
AcDbLine
 62
6
  6
CONTINUOUS
 10
8.7290013915
 20
6.1920167727
 11
8.7342128415
 21
6.1920167727
  0
LINE
  5
282
100
AcDbEntity
  8
0
100
AcDbLine
 62
6
  6
CONTINUOUS
 10
7.8368157891
 20
6.2099253392
 11
7.9084064556
 21
6.2099253392
  0
LINE
  5
283
100
AcDbEntity
  8
0
100
AcDbLine
 62
6
  6
CONTINUOUS
 10
7.9084064556
 20
6.2135605077
 11
8.2084064556
 21
6.2135605077
  0
LINE
  5
284
100
AcDbEntity
  8
0
100
AcDbLine
 62
6
  6
CONTINUOUS
 10
6.4634064556
 20
6.2140167727
 11
6.4394064556
 21
6.2140167727
  0
LINE
  5
285
100
AcDbEntity
  8
0
100
AcDbLine
 62
6
  6
CONTINUOUS
 10
8.7078618811
 20
5.6922802663
 11
8.7081663984
 21
5.6920167727
  0
LINE
  5
286
100
AcDbEntity
  8
0
100
AcDbLine
 62
6
  6
CONTINUOUS
 10
8.6951471493
 20
5.7145667736
 11
8.6948125037
 21
5.7148562722
  0
LINE
  5
287
100
AcDbEntity
  8
0
100
AcDbLine
 62
6
  6
CONTINUOUS
 10
8.7368171124
 20
5.7145667732
 11
8.7364824681
 21
5.7148562707
  0
LINE
  5
288
100
AcDbEntity
  8
0
100
AcDbLine
 62
6
  6
CONTINUOUS
 10
8.4864624679
 20
5.7148562744
 11
8.4971752012
 21
5.6963231197
  0
LINE
  5
289
100
AcDbEntity
  8
0
100
AcDbLine
 62
6
  6
CONTINUOUS
 10
8.5281325018
 20
5.7148562725
 11
8.5388452351
 21
5.6963231177
  0
LINE
  5
28A
100
AcDbEntity
  8
0
100
AcDbLine
 62
6
  6
CONTINUOUS
 10
8.56980248
 20
5.7148562703
 11
8.5805152132
 21
5.6963231154
  0
LINE
  5
28B
100
AcDbEntity
  8
0
100
AcDbLine
 62
6
  6
CONTINUOUS
 10
8.6114724446
 20
5.7148562741
 11
8.6221851778
 21
5.6963231194
  0
LINE
  5
28C
100
AcDbEntity
  8
0
100
AcDbLine
 62
6
  6
CONTINUOUS
 10
8.645356834
 20
6.1917532789
 11
8.6323074553
 21
6.1691772709
  0
LINE
  5
28D
100
AcDbEntity
  8
0
100
AcDbLine
 62
6
  6
CONTINUOUS
 10
8.3892407715
 20
5.7077096186
 11
8.3933717822
 21
5.7148562764
  0
LINE
  5
28E
100
AcDbEntity
  8
0
100
AcDbLine
 62
6
  6
CONTINUOUS
 10
8.6870268711
 20
6.1917532789
 11
8.6739774931
 21
6.1691772721
  0
LINE
  5
28F
100
AcDbEntity
  8
0
100
AcDbLine
 62
6
  6
CONTINUOUS
 10
8.421992358
 20
5.6922802686
 11
8.4350417384
 21
5.7148562796
  0
LINE
  5
290
100
AcDbEntity
  8
0
100
AcDbLine
 62
6
  6
CONTINUOUS
 10
8.7286968749
 20
6.1917532797
 11
8.7156474979
 21
6.1691772745
  0
LINE
  5
291
100
AcDbEntity
  8
0
100
AcDbLine
 62
6
  6
CONTINUOUS
 10
8.4636623829
 20
5.6922802692
 11
8.4767117635
 21
5.7148562803
  0
LINE
  5
292
100
AcDbEntity
  8
0
100
AcDbLine
 62
6
  6
CONTINUOUS
 10
8.7623174155
 20
6.1778268524
 11
8.7573174463
 21
6.1691772723
  0
LINE
  5
293
100
AcDbEntity
  8
0
100
AcDbLine
 62
6
  6
CONTINUOUS
 10
8.3933717822
 20
5.7148562764
 11
8.3930371343
 21
5.7145667728
  0
LINE
  5
294
100
AcDbEntity
  8
0
100
AcDbLine
 62
6
  6
CONTINUOUS
 10
8.4350417384
 20
5.7148562796
 11
8.4347070896
 21
5.7145667752
  0
LINE
  5
295
100
AcDbEntity
  8
0
100
AcDbLine
 62
6
  6
CONTINUOUS
 10
8.4767117635
 20
5.7148562803
 11
8.476377114
 21
5.7145667753
  0
LINE
  5
296
100
AcDbEntity
  8
0
100
AcDbLine
 62
6
  6
CONTINUOUS
 10
8.5183817966
 20
5.7148562784
 11
8.5180471475
 21
5.7145667738
  0
LINE
  5
297
100
AcDbEntity
  8
0
100
AcDbLine
 62
6
  6
CONTINUOUS
 10
7.9084064556
 20
6.2445167727
 11
8.2084064556
 21
6.2445167727
  0
LINE
  5
298
100
AcDbEntity
  8
0
100
AcDbLine
 62
6
  6
CONTINUOUS
 10
8.5959064556
 20
6.2545167727
 11
8.9084064556
 21
6.2545167727
  0
LINE
  5
299
100
AcDbEntity
  8
0
100
AcDbLine
 62
6
  6
CONTINUOUS
 10
6.5814064556
 20
6.2725167727
 11
6.5104064556
 21
6.2725167727
  0
LINE
  5
29A
100
AcDbEntity
  8
0
100
AcDbLine
 62
6
  6
CONTINUOUS
 10
7.5434064556
 20
6.2945167727
 11
7.4934064556
 21
6.2945167727
  0
LINE
  5
29B
100
AcDbEntity
  8
0
100
AcDbLine
 62
6
  6
CONTINUOUS
 10
8.4142067495
 20
6.1691772677
 11
8.4138721014
 21
6.1694667715
  0
LINE
  5
29C
100
AcDbEntity
  8
0
100
AcDbLine
 62
6
  6
CONTINUOUS
 10
8.4558767459
 20
6.1691772651
 11
8.4555420966
 21
6.1694667699
  0
LINE
  5
29D
100
AcDbEntity
  8
0
100
AcDbLine
 62
6
  6
CONTINUOUS
 10
8.4428273651
 20
6.1917532765
 11
8.4425228462
 21
6.1920167727
  0
LINE
  5
29E
100
AcDbEntity
  8
0
100
AcDbLine
 62
6
  6
CONTINUOUS
 10
8.4975467832
 20
6.1691772659
 11
8.4972121337
 21
6.1694667708
  0
LINE
  5
29F
100
AcDbEntity
  8
0
100
AcDbLine
 62
6
  6
CONTINUOUS
 10
8.484497403
 20
6.1917532763
 11
8.4841928839
 21
6.1920167727
  0
LINE
  5
2A0
100
AcDbEntity
  8
0
100
AcDbLine
 62
6
  6
CONTINUOUS
 10
8.6531424742
 20
5.7148562742
 11
8.6638552075
 21
5.6963231195
  0
LINE
  5
2A1
100
AcDbEntity
  8
0
100
AcDbLine
 62
6
  6
CONTINUOUS
 10
8.6948125037
 20
5.7148562722
 11
8.705525237
 21
5.6963231173
  0
LINE
  5
2A2
100
AcDbEntity
  8
0
100
AcDbLine
 62
6
  6
CONTINUOUS
 10
8.7364824681
 20
5.7148562707
 11
8.7491193733
 21
5.6929939325
  0
LINE
  5
2A3
100
AcDbEntity
  8
0
100
AcDbLine
 62
6
  6
CONTINUOUS
 10
8.4142067495
 20
6.1691772677
 11
8.4034899611
 21
6.1877174591
  0
LINE
  5
2A4
100
AcDbEntity
  8
0
100
AcDbLine
 62
6
  6
CONTINUOUS
 10
8.4558767459
 20
6.1691772651
 11
8.4428273651
 21
6.1917532765
  0
LINE
  5
2A5
100
AcDbEntity
  8
0
100
AcDbLine
 62
6
  6
CONTINUOUS
 10
8.4975467832
 20
6.1691772659
 11
8.484497403
 21
6.1917532763
  0
LINE
  5
2A6
100
AcDbEntity
  8
0
100
AcDbLine
 62
6
  6
CONTINUOUS
 10
8.505332417
 20
5.6922802689
 11
8.5183817966
 21
5.7148562784
  0
LINE
  5
2A7
100
AcDbEntity
  8
0
100
AcDbLine
 62
6
  6
CONTINUOUS
 10
8.5470023932
 20
5.6922802677
 11
8.5600517719
 21
5.7148562761
  0
LINE
  5
2A8
100
AcDbEntity
  8
0
100
AcDbLine
 62
6
  6
CONTINUOUS
 10
8.5886723585
 20
5.6922802688
 11
8.6017217392
 21
5.71485628
  0
LINE
  5
2A9
100
AcDbEntity
  8
0
100
AcDbLine
 62
6
  6
CONTINUOUS
 10
8.6303423893
 20
5.6922802692
 11
8.6433917698
 21
5.7148562801
  0
LINE
  5
2AA
100
AcDbEntity
  8
0
100
AcDbLine
 62
6
  6
CONTINUOUS
 10
8.5600517719
 20
5.7148562761
 11
8.5597171243
 21
5.7145667727
  0
LINE
  5
2AB
100
AcDbEntity
  8
0
100
AcDbLine
 62
6
  6
CONTINUOUS
 10
8.6017217392
 20
5.71485628
 11
8.6013870902
 21
5.7145667754
  0
LINE
  5
2AC
100
AcDbEntity
  8
0
100
AcDbLine
 62
6
  6
CONTINUOUS
 10
8.6433917698
 20
5.7148562801
 11
8.6430571203
 21
5.7145667751
  0
LINE
  5
2AD
100
AcDbEntity
  8
0
100
AcDbLine
 62
6
  6
CONTINUOUS
 10
8.8584064556
 20
6.3485167727
 11
8.2084064556
 21
6.3485167727
  0
LINE
  5
2AE
100
AcDbEntity
  8
0
100
AcDbLine
 62
6
  6
CONTINUOUS
 10
8.5392167956
 20
6.1691772682
 11
8.5388821471
 21
6.1694667724
  0
LINE
  5
2AF
100
AcDbEntity
  8
0
100
AcDbLine
 62
6
  6
CONTINUOUS
 10
8.5261674165
 20
6.1917532771
 11
8.5258628983
 21
6.1920167727
  0
LINE
  5
2B0
100
AcDbEntity
  8
0
100
AcDbLine
 62
6
  6
CONTINUOUS
 10
8.5808867436
 20
6.169177267
 11
8.5805520952
 21
6.169466771
  0
LINE
  5
2B1
100
AcDbEntity
  8
0
100
AcDbLine
 62
6
  6
CONTINUOUS
 10
8.5678373636
 20
6.1917532772
 11
8.5675328456
 21
6.1920167727
  0
LINE
  5
2B2
100
AcDbEntity
  8
0
100
AcDbLine
 62
6
  6
CONTINUOUS
 10
8.6225567506
 20
6.169177265
 11
8.6222221012
 21
6.1694667699
  0
LINE
  5
2B3
100
AcDbEntity
  8
0
100
AcDbLine
 62
6
  6
CONTINUOUS
 10
8.6095073699
 20
6.1917532764
 11
8.6092028509
 21
6.1920167727
  0
LINE
  5
2B4
100
AcDbEntity
  8
0
100
AcDbLine
 62
6
  6
CONTINUOUS
 10
8.6642267884
 20
6.1691772662
 11
8.663892139
 21
6.1694667711
  0
LINE
  5
2B5
100
AcDbEntity
  8
0
100
AcDbLine
 62
6
  6
CONTINUOUS
 10
8.6511774084
 20
6.1917532764
 11
8.6508728894
 21
6.1920167727
  0
LINE
  5
2B6
100
AcDbEntity
  8
0
100
AcDbLine
 62
6
  6
CONTINUOUS
 10
8.7058967911
 20
6.1691772686
 11
8.7055621428
 21
6.1694667725
  0
LINE
  5
2B7
100
AcDbEntity
  8
0
100
AcDbLine
 62
6
  6
CONTINUOUS
 10
8.6928474121
 20
6.1917532773
 11
8.6925428941
 21
6.1920167727
  0
LINE
  5
2B8
100
AcDbEntity
  8
0
100
AcDbLine
 62
6
  6
CONTINUOUS
 10
8.5392167956
 20
6.1691772682
 11
8.5261674165
 21
6.1917532771
  0
LINE
  5
2B9
100
AcDbEntity
  8
0
100
AcDbLine
 62
6
  6
CONTINUOUS
 10
8.5808867436
 20
6.169177267
 11
8.5678373636
 21
6.1917532772
  0
LINE
  5
2BA
100
AcDbEntity
  8
0
100
AcDbLine
 62
6
  6
CONTINUOUS
 10
8.6225567506
 20
6.169177265
 11
8.6095073699
 21
6.1917532764
  0
LINE
  5
2BB
100
AcDbEntity
  8
0
100
AcDbLine
 62
6
  6
CONTINUOUS
 10
8.7484064556
 20
5.6978051378
 11
8.7484064556
 21
5.80723943
  0
LINE
  5
2BC
100
AcDbEntity
  8
0
100
AcDbLine
 62
6
  6
CONTINUOUS
 10
8.7709564583
 20
5.8461062025
 11
8.7709564584
 21
5.7148562802
  0
LINE
  5
2BD
100
AcDbEntity
  8
0
100
AcDbLine
 62
7
  6
CONTINUOUS
 10
8.7884064556
 20
5.7320167727
 11
8.7884064556
 21
6.1520167727
  0
LINE
  5
2BE
100
AcDbEntity
  8
0
100
AcDbLine
 62
6
  6
CONTINUOUS
 10
8.7909064556
 20
5.7060167727
 11
8.7909064556
 21
6.1780167727
  0
LINE
  5
2BF
100
AcDbEntity
  8
0
100
AcDbLine
 62
6
  6
CONTINUOUS
 10
8.6720124188
 20
5.6922802687
 11
8.6850617982
 21
5.7148562781
  0
LINE
  5
2C0
100
AcDbEntity
  8
0
100
AcDbLine
 62
6
  6
CONTINUOUS
 10
8.7136823811
 20
5.6922802678
 11
8.7267317602
 21
5.7148562767
  0
LINE
  5
2C1
100
AcDbEntity
  8
0
100
AcDbLine
 62
6
  6
CONTINUOUS
 10
8.7648914202
 20
5.7087837639
 11
8.7684017414
 21
5.7148562802
  0
LINE
  5
2C2
100
AcDbEntity
  8
0
100
AcDbLine
 62
6
  6
CONTINUOUS
 10
8.7641191844
 20
5.707729502
 11
8.7648914202
 21
5.7087837639
  0
LINE
  5
2C3
100
AcDbEntity
  8
0
100
AcDbLine
 62
6
  6
CONTINUOUS
 10
8.7493129795
 20
5.6929232966
 11
8.7641201446
 21
5.7077304617
  0
LINE
  5
2C4
100
AcDbEntity
  8
0
100
AcDbLine
 62
6
  6
CONTINUOUS
 10
8.7709564584
 20
5.7145667756
 11
8.7884064556
 21
5.7320167727
  0
LINE
  5
2C5
100
AcDbEntity
  8
0
100
AcDbLine
 62
6
  6
CONTINUOUS
 10
8.7267317602
 20
5.7148562767
 11
8.7263971124
 21
5.7145667732
  0
LINE
  5
2C6
100
AcDbEntity
  8
0
100
AcDbLine
 62
6
  6
CONTINUOUS
 10
8.7684017414
 20
5.7148562802
 11
8.7680670923
 21
5.7145667756
  0
LINE
  5
2C7
100
AcDbEntity
  8
0
100
AcDbLine
 62
6
  6
CONTINUOUS
 10
8.74756674
 20
6.1691772664
 11
8.7472320914
 21
6.1694667706
  0
LINE
  5
2C8
100
AcDbEntity
  8
0
100
AcDbLine
 62
6
  6
CONTINUOUS
 10
8.7342128483
 20
6.1920167727
 11
8.7345173598
 21
6.191753277
  0
LINE
  5
2C9
100
AcDbEntity
  8
0
100
AcDbLine
 62
6
  6
CONTINUOUS
 10
8.7625218275
 20
6.1779014008
 11
8.7884064556
 21
6.1520167727
  0
LINE
  5
2CA
100
AcDbEntity
  8
0
100
AcDbLine
 62
6
  6
CONTINUOUS
 10
8.6642267884
 20
6.1691772662
 11
8.6511774084
 21
6.1917532764
  0
LINE
  5
2CB
100
AcDbEntity
  8
0
100
AcDbLine
 62
6
  6
CONTINUOUS
 10
8.7058967911
 20
6.1691772686
 11
8.6928474121
 21
6.1917532773
  0
LINE
  5
2CC
100
AcDbEntity
  8
0
100
AcDbLine
 62
6
  6
CONTINUOUS
 10
8.74756674
 20
6.1691772664
 11
8.7345173598
 21
6.191753277
  0
LINE
  5
2CD
100
AcDbEntity
  8
0
100
AcDbLine
 62
6
  6
CONTINUOUS
 10
8.7491193733
 20
5.6929939325
 11
8.7484064556
 21
5.6978051378
  0
LINE
  5
2CE
100
AcDbEntity
  8
0
100
AcDbLine
 62
9
  6
CONTINUOUS
 10
8.8584064556
 20
5.5355167727
 11
8.8584064556
 21
5.6295167727
  0
LINE
  5
2CF
100
AcDbEntity
  8
0
100
AcDbLine
 62
9
  6
CONTINUOUS
 10
8.8584064556
 20
6.2545167727
 11
8.8584064556
 21
6.3485167727
  0
LINE
  5
2D0
100
AcDbEntity
  8
0
100
AcDbLine
 62
9
  6
CONTINUOUS
 10
8.9084064556
 20
6.2985127787
 11
8.9084064556
 21
6.2545167727
  0
LINE
  5
2D1
100
AcDbEntity
  8
0
100
AcDbLine
 62
9
  6
CONTINUOUS
 10
8.9084064556
 20
5.6295167727
 11
8.9084064556
 21
5.5855207667
  0
LINE
  5
2D2
100
AcDbEntity
  8
0
100
AcDbLine
 62
6
  6
CONTINUOUS
 10
7.8368157891
 20
6.6220167727
 11
7.9084064556
 21
6.6220167727
  0
LINE
  5
2D3
100
AcDbEntity
  8
0
100
AcDbLine
 62
9
  6
CONTINUOUS
 10
9.0650932128
 20
5.7060167727
 11
9.0650932128
 21
6.1780167727
  0
LINE
  5
2D4
100
AcDbEntity
  8
0
100
AcDbLine
 62
9
  6
CONTINUOUS
 10
9.629358972
 20
5.7060167727
 11
9.629358972
 21
6.1780167727
  0
LINE
  5
2D5
100
AcDbEntity
  8
0
100
AcDbLine
 62
6
  6
CONTINUOUS
 10
9.8809064556
 20
6.1780167727
 11
9.8809064556
 21
5.7060167727
  0
LINE
  5
2D6
100
AcDbEntity
  8
0
100
AcDbLine
 62
6
  6
CONTINUOUS
 10
9.9709064556
 20
5.7060167727
 11
9.9709064556
 21
6.1780167727
  0
ARC
  5
2D7
100
AcDbEntity
  8
0
100
AcDbCircle
 62
6
  6
CONTINUOUS
 10
7.3092790597
 20
5.2826354205
 40
0.3578813522
100
AcDbArc
 50
59.0364377797
 51
127.7628051894
  0
ARC
  5
2D8
100
AcDbEntity
  8
0
100
AcDbCircle
 62
6
  6
CONTINUOUS
 10
7.8368157891
 20
5.3870167727
 40
0.125
100
AcDbArc
 50
205.805
 51
270.0
  0
ARC
  5
2D9
100
AcDbEntity
  8
0
100
AcDbCircle
 62
6
  6
CONTINUOUS
 10
6.3834064556
 20
5.7060167727
 40
0.056
100
AcDbArc
 50
0.0
 51
90.0
  0
ARC
  5
2DA
100
AcDbEntity
  8
0
100
AcDbCircle
 62
6
  6
CONTINUOUS
 10
6.5104064556
 20
5.6585167727
 40
0.047
100
AcDbArc
 50
180.0
 51
270.0
  0
ARC
  5
2DB
100
AcDbEntity
  8
0
100
AcDbCircle
 62
6
  6
CONTINUOUS
 10
6.8604669329
 20
5.8620167727
 40
0.375
100
AcDbArc
 50
221.9128908834
 51
307.7628051894
  0
ARC
  5
2DC
100
AcDbEntity
  8
0
100
AcDbCircle
 62
6
  6
CONTINUOUS
 10
7.1979548161
 20
5.7924944531
 40
0.2213453698
100
AcDbArc
 50
4.9320408516
 51
5.2093785697
  0
ARC
  5
2DD
100
AcDbEntity
  8
0
100
AcDbCircle
 62
6
  6
CONTINUOUS
 10
7.2038648556
 20
5.7930009404
 40
0.2154136682
100
AcDbArc
 50
4.4457641087
 51
4.9329713183
  0
ARC
  5
2DE
100
AcDbEntity
  8
0
100
AcDbCircle
 62
6
  6
CONTINUOUS
 10
7.3945840551
 20
5.775275499
 40
0.1261306705
100
AcDbArc
 50
155.7066688562
 51
163.2312806278
  0
ARC
  5
2DF
100
AcDbEntity
  8
0
100
AcDbCircle
 62
6
  6
CONTINUOUS
 10
7.3935127237
 20
5.7756069351
 40
0.1250092731
100
AcDbArc
 50
163.2350635061
 51
164.3179361909
  0
ARC
  5
2E0
100
AcDbEntity
  8
0
100
AcDbCircle
 62
6
  6
CONTINUOUS
 10
7.3925622216
 20
5.775869793
 40
0.124023102
100
AcDbArc
 50
164.3161592683
 51
166.1394390311
  0
ARC
  5
2E1
100
AcDbEntity
  8
0
100
AcDbCircle
 62
6
  6
CONTINUOUS
 10
7.3915168198
 20
5.7766859373
 40
0.1227547717
100
AcDbArc
 50
151.7471499138
 51
155.7177119844
  0
ARC
  5
2E2
100
AcDbEntity
  8
0
100
AcDbCircle
 62
6
  6
CONTINUOUS
 10
7.3893126113
 20
5.7766143431
 40
0.1206897636
100
AcDbArc
 50
166.1130408281
 51
171.346378353
  0
ARC
  5
2E3
100
AcDbEntity
  8
0
100
AcDbCircle
 62
6
  6
CONTINUOUS
 10
7.385512486
 20
5.7798588729
 40
0.1159638087
100
AcDbArc
 50
148.2788956061
 51
151.7237810304
  0
ARC
  5
2E4
100
AcDbEntity
  8
0
100
AcDbCircle
 62
6
  6
CONTINUOUS
 10
7.3842445372
 20
5.7773116475
 40
0.1155744908
100
AcDbArc
 50
171.310099868
 51
180.0852466241
  0
ARC
  5
2E5
100
AcDbEntity
  8
0
100
AcDbCircle
 62
6
  6
CONTINUOUS
 10
7.3833810566
 20
5.7774061808
 40
0.1147111918
100
AcDbArc
 50
180.1331056178
 51
189.0856607147
  0
ARC
  5
2E6
100
AcDbEntity
  8
0
100
AcDbCircle
 62
6
  6
CONTINUOUS
 10
7.3281199176
 20
5.7712327087
 40
0.0993229001
100
AcDbArc
 50
31.4002960016
 51
38.5415161482
  0
ARC
  5
2E7
100
AcDbEntity
  8
0
100
AcDbCircle
 62
6
  6
CONTINUOUS
 10
7.3317166408
 20
5.7734469397
 40
0.0950992797
100
AcDbArc
 50
24.3065962715
 51
31.3906505811
  0
ARC
  5
2E8
100
AcDbEntity
  8
0
100
AcDbCircle
 62
6
  6
CONTINUOUS
 10
7.3462554665
 20
5.7728947999
 40
0.094638959
100
AcDbArc
 50
91.6671756657
 51
93.9676930742
  0
ARC
  5
2E9
100
AcDbEntity
  8
0
100
AcDbCircle
 62
6
  6
CONTINUOUS
 10
7.34628034
 20
5.773239057
 40
0.0942955778
100
AcDbArc
 50
83.0865502171
 51
91.6883685779
  0
ARC
  5
2EA
100
AcDbEntity
  8
0
100
AcDbCircle
 62
6
  6
CONTINUOUS
 10
7.3404995374
 20
5.8049452914
 40
0.082001721
100
AcDbArc
 50
228.98039177
 51
232.4317722878
  0
ARC
  5
2EB
100
AcDbEntity
  8
0
100
AcDbCircle
 62
6
  6
CONTINUOUS
 10
7.3382677151
 20
5.8025294268
 40
0.0787142653
100
AcDbArc
 50
219.8563772572
 51
229.0519459495
  0
ARC
  5
2EC
100
AcDbEntity
  8
0
100
AcDbCircle
 62
6
  6
CONTINUOUS
 10
7.3308527818
 20
5.8057411041
 40
0.0771803732
100
AcDbArc
 50
236.6670126683
 51
238.4795121904
  0
ARC
  5
2ED
100
AcDbEntity
  8
0
100
AcDbCircle
 62
6
  6
CONTINUOUS
 10
7.3463048692
 20
5.7861797382
 40
0.0755522957
100
AcDbArc
 50
94.3967420857
 51
103.2636893638
  0
ARC
  5
2EE
100
AcDbEntity
  8
0
100
AcDbCircle
 62
6
  6
CONTINUOUS
 10
7.3462666514
 20
5.7867270151
 40
0.0750038282
100
AcDbArc
 50
87.8090873751
 51
94.4007988995
  0
ARC
  5
2EF
100
AcDbEntity
  8
0
100
AcDbCircle
 62
6
  6
CONTINUOUS
 10
7.3400500841
 20
5.7934888741
 40
0.0738445337
100
AcDbArc
 50
102.5432573681
 51
109.4012278229
  0
ARC
  5
2F0
100
AcDbEntity
  8
0
100
AcDbCircle
 62
6
  6
CONTINUOUS
 10
7.3459146702
 20
5.7878567087
 40
0.0738305349
100
AcDbArc
 50
103.267540178
 51
114.6111056709
  0
ARC
  5
2F1
100
AcDbEntity
  8
0
100
AcDbCircle
 62
6
  6
CONTINUOUS
 10
7.3398253966
 20
5.794427978
 40
0.0728790488
100
AcDbArc
 50
90.0930642668
 51
102.5311712584
  0
ARC
  5
2F2
100
AcDbEntity
  8
0
100
AcDbCircle
 62
6
  6
CONTINUOUS
 10
7.3434110162
 20
5.7867960028
 40
0.0714143451
100
AcDbArc
 50
82.1981070855
 51
90.0010088854
  0
ARC
  5
2F3
100
AcDbEntity
  8
0
100
AcDbCircle
 62
7
  6
CONTINUOUS
 10
7.3433975339
 20
5.7868232118
 40
0.0713867959
100
AcDbArc
 50
90.0010088854
 51
97.8013895708
  0
ARC
  5
2F4
100
AcDbEntity
  8
0
100
AcDbCircle
 62
6
  6
CONTINUOUS
 10
7.3445297589
 20
5.7910065316
 40
0.0703901201
100
AcDbArc
 50
114.6539746846
 51
124.9980308951
  0
ARC
  5
2F5
100
AcDbEntity
  8
0
100
AcDbCircle
 62
7
  6
CONTINUOUS
 10
7.3431807767
 20
5.7882525242
 40
0.069941293
100
AcDbArc
 50
97.784402061
 51
105.706152149
  0
ARC
  5
2F6
100
AcDbEntity
  8
0
100
AcDbCircle
 62
6
  6
CONTINUOUS
 10
7.338008249
 20
5.7813890945
 40
0.0694550093
100
AcDbArc
 50
58.0905869529
 51
67.8468987092
  0
ARC
  5
2F7
100
AcDbEntity
  8
0
100
AcDbCircle
 62
6
  6
CONTINUOUS
 10
7.3428824884
 20
5.7935175912
 40
0.067388403
100
AcDbArc
 50
125.075245916
 51
126.3286879248
  0
ARC
  5
2F8
100
AcDbEntity
  8
0
100
AcDbCircle
 62
6
  6
CONTINUOUS
 10
7.3645689183
 20
5.7837119702
 40
0.0610762302
100
AcDbArc
 50
18.4850894107
 51
28.2192124071
  0
ARC
  5
2F9
100
AcDbEntity
  8
0
100
AcDbCircle
 62
6
  6
CONTINUOUS
 10
7.3384361309
 20
5.8064284877
 40
0.0609379698
100
AcDbArc
 50
214.7989507777
 51
220.6263493965
  0
ARC
  5
2FA
100
AcDbEntity
  8
0
100
AcDbCircle
 62
6
  6
CONTINUOUS
 10
7.3379873759
 20
5.8042696654
 40
0.0603704086
100
AcDbArc
 50
213.2017218339
 51
220.8479610391
  0
ARC
  5
2FB
100
AcDbEntity
  8
0
100
AcDbCircle
 62
7
  6
CONTINUOUS
 10
7.3389950624
 20
5.7969132066
 40
0.0602606734
100
AcDbArc
 50
122.1099406441
 51
130.8674342211
  0
ARC
  5
2FC
100
AcDbEntity
  8
0
100
AcDbCircle
 62
6
  6
CONTINUOUS
 10
7.3364397896
 20
5.8032518108
 40
0.0585181039
100
AcDbArc
 50
209.7206990789
 51
213.1975630759
  0
ARC
  5
2FD
100
AcDbEntity
  8
0
100
AcDbCircle
 62
6
  6
CONTINUOUS
 10
7.3356147152
 20
5.8027795628
 40
0.0575674384
100
AcDbArc
 50
207.7056900007
 51
209.7196284038
  0
ARC
  5
2FE
100
AcDbEntity
  8
0
100
AcDbCircle
 62
7
  6
CONTINUOUS
 10
7.3368540281
 20
5.8096426171
 40
0.0569860546
100
AcDbArc
 50
220.0738106311
 51
229.1304582786
  0
ARC
  5
2FF
100
AcDbEntity
  8
0
100
AcDbCircle
 62
7
  6
CONTINUOUS
 10
7.3363971758
 20
5.7998414795
 40
0.0563464337
100
AcDbArc
 50
130.8180289651
 51
139.9777021252
  0
ARC
  5
300
100
AcDbEntity
  8
0
100
AcDbCircle
 62
6
  6
CONTINUOUS
 10
7.3550636326
 20
5.7887612698
 40
0.05482989
100
AcDbArc
 50
41.8932646659
 51
45.2924962924
  0
ARC
  5
301
100
AcDbEntity
  8
0
100
AcDbCircle
 62
6
  6
CONTINUOUS
 10
7.332053411
 20
5.8013454971
 40
0.0537481154
100
AcDbArc
 50
165.982072162
 51
178.0525321485
  0
ARC
  5
302
100
AcDbEntity
  8
0
100
AcDbCircle
 62
6
  6
CONTINUOUS
 10
7.3318140931
 20
5.8014036314
 40
0.0535076382
100
AcDbArc
 50
180.0136854136
 51
194.131402483
  0
ARC
  5
303
100
AcDbEntity
  8
0
100
AcDbCircle
 62
6
  6
CONTINUOUS
 10
7.3314174842
 20
5.8013906204
 40
0.0531110277
100
AcDbArc
 50
178.077869117
 51
179.9997514196
  0
ARC
  5
304
100
AcDbEntity
  8
0
100
AcDbCircle
 62
7
  6
CONTINUOUS
 10
7.3336069472
 20
5.8021281412
 40
0.0527391911
100
AcDbArc
 50
139.9307222251
 51
149.5027211263
  0
ARC
  5
305
100
AcDbEntity
  8
0
100
AcDbCircle
 62
7
  6
CONTINUOUS
 10
7.3310281307
 20
5.8036091342
 40
0.0497655559
100
AcDbArc
 50
149.4651418808
 51
159.4119664456
  0
ARC
  5
306
100
AcDbEntity
  8
0
100
AcDbCircle
 62
6
  6
CONTINUOUS
 10
7.3557847806
 20
5.8054244112
 40
0.0497655559
100
AcDbArc
 50
329.4651418808
 51
339.4119664456
  0
ARC
  5
307
100
AcDbEntity
  8
0
100
AcDbCircle
 62
6
  6
CONTINUOUS
 10
7.3569619203
 20
5.8049624246
 40
0.0485011443
100
AcDbArc
 50
339.4338733426
 51
341.1970926025
  0
ARC
  5
308
100
AcDbEntity
  8
0
100
AcDbCircle
 62
7
  6
CONTINUOUS
 10
7.3290680535
 20
5.8043263591
 40
0.0476784569
100
AcDbArc
 50
159.390533091
 51
169.6206902301
  0
ARC
  5
309
100
AcDbEntity
  8
0
100
AcDbCircle
 62
6
  6
CONTINUOUS
 10
7.3578634685
 20
5.8046814289
 40
0.0475571466
100
AcDbArc
 50
341.1674772709
 51
349.6254690758
  0
ARC
  5
30A
100
AcDbEntity
  8
0
100
AcDbCircle
 62
6
  6
CONTINUOUS
 10
7.3613612821
 20
5.7942255403
 40
0.0472353535
100
AcDbArc
 50
335.4329512124
 51
342.7532972336
  0
ARC
  5
30B
100
AcDbEntity
  8
0
100
AcDbCircle
 62
7
  6
CONTINUOUS
 10
7.3281445416
 20
5.8045038073
 40
0.0467380878
100
AcDbArc
 50
169.6306946349
 51
179.9841057621
  0
ARC
  5
30C
100
AcDbEntity
  8
0
100
AcDbCircle
 62
6
  6
CONTINUOUS
 10
7.3587611164
 20
5.8045099272
 40
0.0466453398
100
AcDbArc
 50
349.6306946349
 51
7.1075796458
  0
ARC
  5
30D
100
AcDbEntity
  8
0
100
AcDbCircle
 62
6
  6
CONTINUOUS
 10
7.3636376059
 20
5.7935681354
 40
0.0448687318
100
AcDbArc
 50
342.7328271698
 51
12.8071222574
  0
ARC
  5
30E
100
AcDbEntity
  8
0
100
AcDbCircle
 62
7
  6
CONTINUOUS
 10
7.338449471
 20
5.8343000601
 40
0.0884308141
100
AcDbArc
 50
265.3375017333
 51
272.4409590866
  0
ARC
  5
30F
100
AcDbEntity
  8
0
100
AcDbCircle
 62
7
  6
CONTINUOUS
 10
7.3386045974
 20
5.8297820691
 40
0.0839103241
100
AcDbArc
 50
272.4665206207
 51
279.7173280234
  0
ARC
  5
310
100
AcDbEntity
  8
0
100
AcDbCircle
 62
7
  6
CONTINUOUS
 10
7.3395233067
 20
5.8241143931
 40
0.0781689153
100
AcDbArc
 50
279.7547863996
 51
287.2462137617
  0
ARC
  5
311
100
AcDbEntity
  8
0
100
AcDbCircle
 62
6
  6
CONTINUOUS
 10
7.3463089072
 20
5.8184410478
 40
0.0755796443
100
AcDbArc
 50
256.6867883846
 51
266.9954492016
  0
ARC
  5
312
100
AcDbEntity
  8
0
100
AcDbCircle
 62
6
  6
CONTINUOUS
 10
7.3462954809
 20
5.8165371845
 40
0.0754852528
100
AcDbArc
 50
256.6682561962
 51
266.9319679917
  0
ARC
  5
313
100
AcDbEntity
  8
0
100
AcDbCircle
 62
7
  6
CONTINUOUS
 10
7.3434067208
 20
5.8247767047
 40
0.0750845254
100
AcDbArc
 50
269.9997976532
 51
276.0596812177
  0
ARC
  5
314
100
AcDbEntity
  8
0
100
AcDbCircle
 62
6
  6
CONTINUOUS
 10
7.3462644921
 20
5.8177264889
 40
0.0748637399
100
AcDbArc
 50
267.0007301988
 51
267.8121153132
  0
ARC
  5
315
100
AcDbEntity
  8
0
100
AcDbCircle
 62
6
  6
CONTINUOUS
 10
7.3462637842
 20
5.8158302344
 40
0.0747775687
100
AcDbArc
 50
266.9303667319
 51
278.669816659
  0
ARC
  5
316
100
AcDbEntity
  8
0
100
AcDbCircle
 62
6
  6
CONTINUOUS
 10
7.3462825423
 20
5.8173142839
 40
0.0744525321
100
AcDbArc
 50
267.7861244473
 51
278.6015075638
  0
ARC
  5
317
100
AcDbEntity
  8
0
100
AcDbCircle
 62
7
  6
CONTINUOUS
 10
7.3434880748
 20
5.8239933008
 40
0.0742969108
100
AcDbArc
 50
276.0610693712
 51
282.2128813814
  0
ARC
  5
318
100
AcDbEntity
  8
0
100
AcDbCircle
 62
6
  6
CONTINUOUS
 10
7.3460203693
 20
5.8171357704
 40
0.074243005
100
AcDbArc
 50
250.1132017581
 51
256.6715173222
  0
ARC
  5
319
100
AcDbEntity
  8
0
100
AcDbCircle
 62
6
  6
CONTINUOUS
 10
7.3457420298
 20
5.814423246
 40
0.0733006803
100
AcDbArc
 50
245.0971643753
 51
256.7081875232
  0
ARC
  5
31A
100
AcDbEntity
  8
0
100
AcDbCircle
 62
7
  6
CONTINUOUS
 10
7.3437992964
 20
5.8225084731
 40
0.0727798507
100
AcDbArc
 50
282.2206980255
 51
288.458636906
  0
ARC
  5
31B
100
AcDbEntity
  8
0
100
AcDbCircle
 62
6
  6
CONTINUOUS
 10
7.3455270556
 20
5.81574292
 40
0.0727654087
100
AcDbArc
 50
245.1783442987
 51
250.1054062168
  0
ARC
  5
31C
100
AcDbEntity
  8
0
100
AcDbCircle
 62
7
  6
CONTINUOUS
 10
7.343401895
 20
5.8222375426
 40
0.0714143451
100
AcDbArc
 50
262.1981070855
 51
270.00365896
  0
ARC
  5
31D
100
AcDbEntity
  8
0
100
AcDbCircle
 62
6
  6
CONTINUOUS
 10
7.3434508668
 20
5.8216528597
 40
0.0708296759
100
AcDbArc
 50
269.9640747253
 51
285.6563949807
  0
ARC
  5
31E
100
AcDbEntity
  8
0
100
AcDbCircle
 62
7
  6
CONTINUOUS
 10
7.3444940169
 20
5.8203713306
 40
0.0705326986
100
AcDbArc
 50
288.4730013887
 51
294.7930776848
  0
ARC
  5
31F
100
AcDbEntity
  8
0
100
AcDbCircle
 62
7
  6
CONTINUOUS
 10
7.343243423
 20
5.8210823293
 40
0.0702483128
100
AcDbArc
 50
254.3111862755
 51
262.1982595146
  0
ARC
  5
320
100
AcDbEntity
  8
0
100
AcDbCircle
 62
7
  6
CONTINUOUS
 10
7.3426425877
 20
5.8188718346
 40
0.0679577004
100
AcDbArc
 50
246.2372841376
 51
254.2949189332
  0
ARC
  5
321
100
AcDbEntity
  8
0
100
AcDbCircle
 62
6
  6
CONTINUOUS
 10
7.3351379382
 20
5.8494126062
 40
0.05703248
100
AcDbArc
 50
205.0429724234
 51
208.1834623623
  0
ARC
  5
322
100
AcDbEntity
  8
0
100
AcDbCircle
 62
6
  6
CONTINUOUS
 10
7.3143289692
 20
5.8166553001
 40
0.0567518923
100
AcDbArc
 50
52.1099156467
 51
55.3395972328
  0
ARC
  5
323
100
AcDbEntity
  8
0
100
AcDbCircle
 62
6
  6
CONTINUOUS
 10
7.3336217384
 20
5.8331303108
 40
0.0553783935
100
AcDbArc
 50
196.9978858338
 51
200.969400254
  0
ARC
  5
324
100
AcDbEntity
  8
0
100
AcDbCircle
 62
6
  6
CONTINUOUS
 10
7.3328866081
 20
5.8172654753
 40
0.0546054365
100
AcDbArc
 50
192.9967066853
 51
199.8140524296
  0
ARC
  5
325
100
AcDbEntity
  8
0
100
AcDbCircle
 62
6
  6
CONTINUOUS
 10
7.3321428134
 20
5.8170864086
 40
0.0538404248
100
AcDbArc
 50
188.7823007305
 51
192.9890405707
  0
ARC
  5
326
100
AcDbEntity
  8
0
100
AcDbCircle
 62
6
  6
CONTINUOUS
 10
7.3180120919
 20
5.8220166494
 40
0.0502473534
100
AcDbArc
 50
55.3173006828
 51
59.5487795566
  0
ARC
  5
327
100
AcDbEntity
  8
0
100
AcDbCircle
 62
6
  6
CONTINUOUS
 10
7.3217085536
 20
5.8283386369
 40
0.0429240345
100
AcDbArc
 50
59.5255040298
 51
65.2089815858
  0
ARC
  5
328
100
AcDbEntity
  8
0
100
AcDbCircle
 62
6
  6
CONTINUOUS
 10
10.2082957371
 20
5.8504710661
 40
1.8633914139
100
AcDbArc
 50
182.6993786239
 51
183.0150579895
  0
ARC
  5
329
100
AcDbEntity
  8
0
100
AcDbCircle
 62
6
  6
CONTINUOUS
 10
10.2305239481
 20
5.8229822588
 40
1.8617446476
100
AcDbArc
 50
182.688768927
 51
182.8839014586
  0
ARC
  5
32A
100
AcDbEntity
  8
0
100
AcDbCircle
 62
6
  6
CONTINUOUS
 10
10.1628254134
 20
5.8194409338
 40
1.7887487819
100
AcDbArc
 50
182.6782113001
 51
182.8908843945
  0
ARC
  5
32B
100
AcDbEntity
  8
0
100
AcDbCircle
 62
6
  6
CONTINUOUS
 10
9.848591048
 20
5.8038654156
 40
1.4793336452
100
AcDbArc
 50
182.8886769675
 51
183.0693933495
  0
ARC
  5
32C
100
AcDbEntity
  8
0
100
AcDbCircle
 62
6
  6
CONTINUOUS
 10
9.5833228511
 20
5.7896264927
 40
1.2084801603
100
AcDbArc
 50
182.8648156784
 51
183.3565896151
  0
ARC
  5
32D
100
AcDbEntity
  8
0
100
AcDbCircle
 62
6
  6
CONTINUOUS
 10
9.3318947228
 20
5.7544985689
 40
0.6278378555
100
AcDbArc
 50
183.6649536309
 51
184.1287895187
  0
ARC
  5
32E
100
AcDbEntity
  8
0
100
AcDbCircle
 62
6
  6
CONTINUOUS
 10
9.0294615168
 20
5.7537912829
 40
0.6170714179
100
AcDbArc
 50
183.6646030011
 51
184.1803185382
  0
ARC
  5
32F
100
AcDbEntity
  8
0
100
AcDbCircle
 62
6
  6
CONTINUOUS
 10
9.1539981655
 20
5.7537601369
 40
0.6165970344
100
AcDbArc
 50
183.6645868867
 51
184.1826192959
  0
ARC
  5
330
100
AcDbEntity
  8
0
100
AcDbCircle
 62
6
  6
CONTINUOUS
 10
9.195557084
 20
5.7537527484
 40
0.6164857259
100
AcDbArc
 50
183.6645759276
 51
184.183153929
  0
ARC
  5
331
100
AcDbEntity
  8
0
100
AcDbCircle
 62
6
  6
CONTINUOUS
 10
9.070337236
 20
5.7537389469
 40
0.616275462
100
AcDbArc
 50
183.6645675199
 51
184.1841818468
  0
ARC
  5
332
100
AcDbEntity
  8
0
100
AcDbCircle
 62
6
  6
CONTINUOUS
 10
9.2368732049
 20
5.7537294791
 40
0.6161311205
100
AcDbArc
 50
183.6645629614
 51
184.1848803216
  0
ARC
  5
333
100
AcDbEntity
  8
0
100
AcDbCircle
 62
6
  6
CONTINUOUS
 10
9.1118064158
 20
5.7537257413
 40
0.6160741868
100
AcDbArc
 50
183.6645605518
 51
184.1851625991
  0
ARC
  5
334
100
AcDbEntity
  8
0
100
AcDbCircle
 62
6
  6
CONTINUOUS
 10
9.2425022858
 20
5.7513474433
 40
0.5800116243
100
AcDbArc
 50
183.6565247308
 51
184.3758568929
  0
ARC
  5
335
100
AcDbEntity
  8
0
100
AcDbCircle
 62
6
  6
CONTINUOUS
 10
8.8584064556
 20
5.5855167727
 40
0.05
100
AcDbArc
 50
270.0
 51
360.0
  0
ARC
  5
336
100
AcDbEntity
  8
0
100
AcDbCircle
 62
6
  6
CONTINUOUS
 10
4.9337617644
 20
5.9627823269
 40
3.4048612457
100
AcDbArc
 50
2.3712400762
 51
2.549637814
  0
ARC
  5
337
100
AcDbEntity
  8
0
100
AcDbCircle
 62
6
  6
CONTINUOUS
 10
5.5959336825
 20
6.0197474525
 40
2.7650100576
100
AcDbArc
 50
2.3131410994
 51
2.5929865686
  0
ARC
  5
338
100
AcDbEntity
  8
0
100
AcDbCircle
 62
6
  6
CONTINUOUS
 10
6.8604669329
 20
6.0220167727
 40
0.375
100
AcDbArc
 50
52.2371948106
 51
138.0871091166
  0
ARC
  5
339
100
AcDbEntity
  8
0
100
AcDbCircle
 62
6
  6
CONTINUOUS
 10
6.3834064556
 20
6.1780167727
 40
0.056
100
AcDbArc
 50
270.0
 51
360.0
  0
ARC
  5
33A
100
AcDbEntity
  8
0
100
AcDbCircle
 62
6
  6
CONTINUOUS
 10
6.5104064556
 20
6.2255167727
 40
0.047
100
AcDbArc
 50
90.0
 51
180.0
  0
ARC
  5
33B
100
AcDbEntity
  8
0
100
AcDbCircle
 62
6
  6
CONTINUOUS
 10
7.3255821902
 20
6.0506885743
 40
0.0473781743
100
AcDbArc
 50
155.8288370371
 51
159.7060939688
  0
ARC
  5
33C
100
AcDbEntity
  8
0
100
AcDbCircle
 62
6
  6
CONTINUOUS
 10
7.4400704426
 20
6.0838665043
 40
0.1715355061
100
AcDbArc
 50
186.4700143438
 51
187.7680263385
  0
ARC
  5
33D
100
AcDbEntity
  8
0
100
AcDbCircle
 62
6
  6
CONTINUOUS
 10
7.4316416212
 20
6.0828861467
 40
0.1630499001
100
AcDbArc
 50
185.8219629129
 51
186.4614658335
  0
ARC
  5
33E
100
AcDbEntity
  8
0
100
AcDbCircle
 62
6
  6
CONTINUOUS
 10
7.3405338279
 20
6.0598707858
 40
0.0949163922
100
AcDbArc
 50
82.7629591811
 51
85.9445939319
  0
ARC
  5
33F
100
AcDbEntity
  8
0
100
AcDbCircle
 62
6
  6
CONTINUOUS
 10
7.345706039
 20
6.1005594452
 40
0.0854433406
100
AcDbArc
 50
222.3283330058
 51
229.7530558315
  0
ARC
  5
340
100
AcDbEntity
  8
0
100
AcDbCircle
 62
6
  6
CONTINUOUS
 10
7.340502297
 20
6.1057105883
 40
0.0755968625
100
AcDbArc
 50
273.5555210301
 51
282.9523186902
  0
ARC
  5
341
100
AcDbEntity
  8
0
100
AcDbCircle
 62
6
  6
CONTINUOUS
 10
7.3405162785
 20
6.0596712569
 40
0.0754978617
100
AcDbArc
 50
76.8392842366
 51
87.8060911658
  0
ARC
  5
342
100
AcDbEntity
  8
0
100
AcDbCircle
 62
6
  6
CONTINUOUS
 10
7.3330303767
 20
6.0970854237
 40
0.074971324
100
AcDbArc
 50
227.4035689355
 51
235.4409774686
  0
ARC
  5
343
100
AcDbEntity
  8
0
100
AcDbCircle
 62
6
  6
CONTINUOUS
 10
7.340550475
 20
6.1049439119
 40
0.0748286581
100
AcDbArc
 50
271.0492729627
 51
273.5530910493
  0
ARC
  5
344
100
AcDbEntity
  8
0
100
AcDbCircle
 62
6
  6
CONTINUOUS
 10
7.3405499164
 20
6.0604124782
 40
0.0747558962
100
AcDbArc
 50
87.8101058605
 51
98.9884687671
  0
ARC
  5
345
100
AcDbEntity
  8
0
100
AcDbCircle
 62
6
  6
CONTINUOUS
 10
7.3405189765
 20
6.1044291888
 40
0.0743146093
100
AcDbArc
 50
260.9778887319
 51
271.0808210743
  0
ARC
  5
346
100
AcDbEntity
  8
0
100
AcDbCircle
 62
6
  6
CONTINUOUS
 10
7.3408684732
 20
6.1040865033
 40
0.0739320247
100
AcDbArc
 50
282.9578698895
 51
294.0540229637
  0
ARC
  5
347
100
AcDbEntity
  8
0
100
AcDbCircle
 62
6
  6
CONTINUOUS
 10
7.3413470202
 20
6.0763260625
 40
0.0725350393
100
AcDbArc
 50
60.5595134258
 51
71.6366379462
  0
ARC
  5
348
100
AcDbEntity
  8
0
100
AcDbCircle
 62
6
  6
CONTINUOUS
 10
7.343406139
 20
6.0618099902
 40
0.0714003575
100
AcDbArc
 50
88.8997677031
 51
89.9997459686
  0
ARC
  5
349
100
AcDbEntity
  8
0
100
AcDbCircle
 62
7
  6
CONTINUOUS
 10
7.3433620444
 20
6.0623806858
 40
0.0708296759
100
AcDbArc
 50
89.9640747253
 51
105.6563949807
  0
ARC
  5
34A
100
AcDbEntity
  8
0
100
AcDbCircle
 62
6
  6
CONTINUOUS
 10
7.3434661459
 20
6.0624640556
 40
0.0707452765
100
AcDbArc
 50
74.3372986788
 51
88.9381861508
  0
ARC
  5
34B
100
AcDbEntity
  8
0
100
AcDbCircle
 62
6
  6
CONTINUOUS
 10
7.345622807
 20
6.0828521692
 40
0.0647040734
100
AcDbArc
 50
45.8324303434
 51
48.9131063666
  0
ARC
  5
34C
100
AcDbEntity
  8
0
100
AcDbCircle
 62
6
  6
CONTINUOUS
 10
7.3243840705
 20
6.0935959244
 40
0.0634755885
100
AcDbArc
 50
209.1160014119
 51
211.2343527944
  0
ARC
  5
34D
100
AcDbEntity
  8
0
100
AcDbCircle
 62
6
  6
CONTINUOUS
 10
7.3471100307
 20
6.084358545
 40
0.0625873078
100
AcDbArc
 50
36.8339942793
 51
45.8481870541
  0
ARC
  5
34E
100
AcDbEntity
  8
0
100
AcDbCircle
 62
6
  6
CONTINUOUS
 10
7.3223773401
 20
6.0997928143
 40
0.0617079961
100
AcDbArc
 50
47.3335911976
 51
54.3120302864
  0
ARC
  5
34F
100
AcDbEntity
  8
0
100
AcDbCircle
 62
6
  6
CONTINUOUS
 10
7.3493659157
 20
6.0861401456
 40
0.0597137303
100
AcDbArc
 50
32.6396424296
 51
36.7634222669
  0
ARC
  5
350
100
AcDbEntity
  8
0
100
AcDbCircle
 62
6
  6
CONTINUOUS
 10
7.3495183924
 20
6.088071326
 40
0.0595196398
100
AcDbArc
 50
30.5218367382
 51
38.6379004534
  0
ARC
  5
351
100
AcDbEntity
  8
0
100
AcDbCircle
 62
6
  6
CONTINUOUS
 10
7.3514427709
 20
6.089198655
 40
0.057289379
100
AcDbArc
 50
25.3306638786
 51
30.5280438511
  0
ARC
  5
352
100
AcDbEntity
  8
0
100
AcDbCircle
 62
6
  6
CONTINUOUS
 10
7.3321866981
 20
6.0878866788
 40
0.055440953
100
AcDbArc
 50
224.0235668518
 51
225.4444208204
  0
ARC
  5
353
100
AcDbEntity
  8
0
100
AcDbCircle
 62
6
  6
CONTINUOUS
 10
7.331680382
 20
6.0873970892
 40
0.054736642
100
AcDbArc
 50
222.3550147426
 51
224.0233838665
  0
ARC
  5
354
100
AcDbEntity
  8
0
100
AcDbCircle
 62
6
  6
CONTINUOUS
 10
7.3546160669
 20
6.0905208298
 40
0.053892267
100
AcDbArc
 50
343.8835002999
 51
358.0194828179
  0
ARC
  5
355
100
AcDbEntity
  8
0
100
AcDbCircle
 62
6
  6
CONTINUOUS
 10
7.3307963622
 20
6.0768890319
 40
0.053536869
100
AcDbArc
 50
135.137698559
 51
143.4287642242
  0
ARC
  5
356
100
AcDbEntity
  8
0
100
AcDbCircle
 62
6
  6
CONTINUOUS
 10
7.3553620347
 20
6.0904489618
 40
0.053144281
100
AcDbArc
 50
358.0691243988
 51
11.4611171612
  0
ARC
  5
357
100
AcDbEntity
  8
0
100
AcDbCircle
 62
7
  6
CONTINUOUS
 10
7.3336069472
 20
6.0771281412
 40
0.0527391911
100
AcDbArc
 50
139.9307222251
 51
149.5027211263
  0
ARC
  5
358
100
AcDbEntity
  8
0
100
AcDbCircle
 62
6
  6
CONTINUOUS
 10
7.3546323407
 20
6.0779950135
 40
0.0510702187
100
AcDbArc
 50
28.8806768674
 51
30.4714068137
  0
ARC
  5
359
100
AcDbEntity
  8
0
100
AcDbCircle
 62
6
  6
CONTINUOUS
 10
7.328482394
 20
6.0785901427
 40
0.0506649252
100
AcDbArc
 50
143.4146031584
 51
149.3421860609
  0
ARC
  5
35A
100
AcDbEntity
  8
0
100
AcDbCircle
 62
7
  6
CONTINUOUS
 10
7.331425652
 20
6.0806145427
 40
0.0502045622
100
AcDbArc
 50
200.6316309377
 51
210.4912607359
  0
ARC
  5
35B
100
AcDbEntity
  8
0
100
AcDbCircle
 62
7
  6
CONTINUOUS
 10
7.3310281307
 20
6.0786091342
 40
0.0497655559
100
AcDbArc
 50
149.4651418808
 51
159.4119664456
  0
ARC
  5
35C
100
AcDbEntity
  8
0
100
AcDbCircle
 62
7
  6
CONTINUOUS
 10
7.3293366917
 20
6.079781658
 40
0.0479561228
100
AcDbArc
 50
190.4090043162
 51
200.5797723627
  0
ARC
  5
35D
100
AcDbEntity
  8
0
100
AcDbCircle
 62
7
  6
CONTINUOUS
 10
7.3290680535
 20
6.0793263591
 40
0.0476784569
100
AcDbArc
 50
159.390533091
 51
169.6206902301
  0
ARC
  5
35E
100
AcDbEntity
  8
0
100
AcDbCircle
 62
7
  6
CONTINUOUS
 10
7.3281445416
 20
6.0795038073
 40
0.0467380878
100
AcDbArc
 50
169.6306946349
 51
190.3693053651
  0
ARC
  5
35F
100
AcDbEntity
  8
0
100
AcDbCircle
 62
6
  6
CONTINUOUS
 10
7.3586683697
 20
6.0795297382
 40
0.0467380878
100
AcDbArc
 50
349.6306946349
 51
10.3693053651
  0
ARC
  5
360
100
AcDbEntity
  8
0
100
AcDbCircle
 62
6
  6
CONTINUOUS
 10
7.3239608391
 20
6.0824761228
 40
0.0456688907
100
AcDbArc
 50
164.6769493258
 51
165.8817121563
  0
ARC
  5
361
100
AcDbEntity
  8
0
100
AcDbCircle
 62
6
  6
CONTINUOUS
 10
7.3237980258
 20
6.0668941545
 40
0.0455004984
100
AcDbArc
 50
164.5064064691
 51
170.8191069163
  0
ARC
  5
362
100
AcDbEntity
  8
0
100
AcDbCircle
 62
6
  6
CONTINUOUS
 10
7.3233950106
 20
6.0826056124
 40
0.0450885695
100
AcDbArc
 50
165.865902688
 51
179.9540444797
  0
ARC
  5
363
100
AcDbEntity
  8
0
100
AcDbCircle
 62
6
  6
CONTINUOUS
 10
7.3233502017
 20
6.0826734387
 40
0.0450445677
100
AcDbArc
 50
182.309806189
 51
195.3719602292
  0
ARC
  5
364
100
AcDbEntity
  8
0
100
AcDbCircle
 62
6
  6
CONTINUOUS
 10
7.3227792578
 20
6.0826419162
 40
0.0444728022
100
AcDbArc
 50
180.0001795667
 51
182.296775034
  0
ARC
  5
365
100
AcDbEntity
  8
0
100
AcDbCircle
 62
6
  6
CONTINUOUS
 10
7.2397552772
 20
6.1176352336
 40
0.1797053377
100
AcDbArc
 50
349.2653509313
 51
349.7113370983
  0
ARC
  5
366
100
AcDbEntity
  8
0
100
AcDbCircle
 62
6
  6
CONTINUOUS
 10
7.2510957277
 20
6.1157198768
 40
0.168205199
100
AcDbArc
 50
349.6633316388
 51
353.6232294634
  0
ARC
  5
367
100
AcDbEntity
  8
0
100
AcDbCircle
 62
6
  6
CONTINUOUS
 10
7.2615191418
 20
6.1145201568
 40
0.1577130299
100
AcDbArc
 50
353.6358030703
 51
354.8300653886
  0
ARC
  5
368
100
AcDbEntity
  8
0
100
AcDbCircle
 62
6
  6
CONTINUOUS
 10
7.2712189648
 20
6.1138199099
 40
0.1479896738
100
AcDbArc
 50
354.7616723849
 51
3.8221811414
  0
ARC
  5
369
100
AcDbEntity
  8
0
100
AcDbCircle
 62
6
  6
CONTINUOUS
 10
7.2715794631
 20
6.1137572328
 40
0.1476341807
100
AcDbArc
 50
3.8557778026
 51
6.0698650525
  0
ARC
  5
36A
100
AcDbEntity
  8
0
100
AcDbCircle
 62
6
  6
CONTINUOUS
 10
7.3417468345
 20
6.164755419
 40
0.1395651434
100
AcDbArc
 50
270.6840877083
 51
273.2274150297
  0
ARC
  5
36B
100
AcDbEntity
  8
0
100
AcDbCircle
 62
6
  6
CONTINUOUS
 10
7.3417612024
 20
6.1605350095
 40
0.135344868
100
AcDbArc
 50
265.1846749649
 51
270.6993368818
  0
ARC
  5
36C
100
AcDbEntity
  8
0
100
AcDbCircle
 62
6
  6
CONTINUOUS
 10
7.7753925379
 20
6.1294215057
 40
0.6295735529
100
AcDbArc
 50
3.6652947187
 51
4.1201470397
  0
ARC
  5
36D
100
AcDbEntity
  8
0
100
AcDbCircle
 62
6
  6
CONTINUOUS
 10
7.8716823224
 20
6.1302734602
 40
0.6165958278
100
AcDbArc
 50
3.6645905303
 51
4.1826219013
  0
ARC
  5
36E
100
AcDbEntity
  8
0
100
AcDbCircle
 62
6
  6
CONTINUOUS
 10
7.9134614247
 20
6.130280732
 40
0.6164864939
100
AcDbArc
 50
3.6645778497
 51
4.1831539859
  0
ARC
  5
36F
100
AcDbEntity
  8
0
100
AcDbCircle
 62
6
  6
CONTINUOUS
 10
7.8305339383
 20
6.1303078677
 40
0.6160730408
100
AcDbArc
 50
3.6645626054
 51
4.1851636881
  0
ARC
  5
370
100
AcDbEntity
  8
0
100
AcDbCircle
 62
6
  6
CONTINUOUS
 10
8.5959064556
 20
5.9420167727
 40
0.3125
100
AcDbArc
 50
90.0
 51
270.0
  0
ARC
  5
371
100
AcDbEntity
  8
0
100
AcDbCircle
 62
6
  6
CONTINUOUS
 10
8.0375109127
 20
6.1302173378
 40
0.6174490889
100
AcDbArc
 50
3.6646271895
 51
4.1784917214
  0
ARC
  5
372
100
AcDbEntity
  8
0
100
AcDbCircle
 62
6
  6
CONTINUOUS
 10
7.9554838911
 20
6.1303039853
 40
0.6161332086
100
AcDbArc
 50
3.664558893
 51
4.1848728854
  0
ARC
  5
373
100
AcDbEntity
  8
0
100
AcDbCircle
 62
6
  6
CONTINUOUS
 10
8.0327308723
 20
6.1326550682
 40
0.5804787181
100
AcDbArc
 50
3.6565903302
 51
4.3733353148
  0
ARC
  5
374
100
AcDbEntity
  8
0
100
AcDbCircle
 62
6
  6
CONTINUOUS
 10
7.3092790597
 20
6.601398125
 40
0.3578813522
100
AcDbArc
 50
232.2371948106
 51
300.9635622203
  0
ARC
  5
375
100
AcDbEntity
  8
0
100
AcDbCircle
 62
6
  6
CONTINUOUS
 10
7.8368157891
 20
6.4970167727
 40
0.125
100
AcDbArc
 50
90.0
 51
154.195
  0
ARC
  5
376
100
AcDbEntity
  8
0
100
AcDbCircle
 62
6
  6
CONTINUOUS
 10
8.8584064556
 20
6.2985167727
 40
0.05
100
AcDbArc
 50
0.0
 51
90.0
  0
ARC
  5
377
100
AcDbEntity
  8
0
100
AcDbCircle
 62
6
  6
CONTINUOUS
 10
19.7018681244
 20
6.2121206433
 40
11.3951621328
100
AcDbArc
 50
181.800850256
 51
181.9615757051
  0
ARC
  5
378
100
AcDbEntity
  8
0
100
AcDbCircle
 62
6
  6
CONTINUOUS
 10
19.1763860762
 20
6.1496074303
 40
10.8552910355
100
AcDbArc
 50
181.7274820814
 51
181.8850103724
  0
SPLINE
  5
379
100
AcDbEntity
  8
0
100
AcDbSpline
 62
6
  6
CONTINUOUS
 70
0
 71
3
 72
9
 73
5
 74
3
 42
0.0000001
 43
0.0000001
 44
0.0000000001
 12
-0.0027225001
 22
-0.0143617942
 32
0.0
 13
-0.0037684631
 23
-0.0141234495
 33
0.0
 40
0.0
 40
0.0
 40
0.0
 40
0.0
 40
0.2472929453
 40
1.0
 40
1.0
 40
1.0
 40
1.0
 10
7.416315832
 20
6.0841631724
 30
0.0
 10
7.4160914136
 20
6.0829793156
 30
0.0
 10
7.4151362205
 20
6.0782011543
 30
0.0
 10
7.4139980594
 20
6.0734600619
 30
0.0
 10
7.4130525431
 20
6.0699164552
 30
0.0
 11
7.416315832
 21
6.0841631724
 31
0.0
 11
7.4156077994
 21
6.0806183713
 31
0.0
 11
7.4130525431
 21
6.0699164552
 31
0.0
  0
SPLINE
  5
37A
100
AcDbEntity
  8
0
100
AcDbSpline
 62
6
  6
CONTINUOUS
 70
0
 71
3
 72
9
 73
5
 74
3
 42
0.0000001
 43
0.0000001
 44
0.0000000001
 12
-0.0042649327
 22
-0.0159841187
 32
0.0
 13
-0.005320842
 23
-0.0156643015
 33
0.0
 40
0.0
 40
0.0
 40
0.0
 40
0.0
 40
0.2479187204
 40
1.0
 40
1.0
 40
1.0
 40
1.0
 10
7.4130525431
 20
6.0699164552
 30
0.0
 10
7.4127000909
 20
6.0685955344
 30
0.0
 10
7.4112283295
 20
6.0632809085
 30
0.0
 10
7.4095684017
 20
6.0580190803
 30
0.0
 10
7.4082344998
 20
6.0540921376
 30
0.0
 11
7.4130525431
 21
6.0699164552
 31
0.0
 11
7.4119587711
 21
6.065963589
 31
0.0
 11
7.4082344998
 21
6.0540921376
 31
0.0
  0
SPLINE
  5
37B
100
AcDbEntity
  8
0
100
AcDbSpline
 62
6
  6
CONTINUOUS
 70
0
 71
3
 72
9
 73
5
 74
3
 42
0.0000001
 43
0.0000001
 44
0.0000000001
 12
0.020112949
 22
-0.0051351126
 32
0.0
 13
0.0168598839
 23
-0.0121096828
 33
0.0
 40
0.0
 40
0.0
 40
0.0
 40
0.0
 40
0.5168918418
 40
1.0
 40
1.0
 40
1.0
 40
1.0
 10
7.3397072126
 20
6.158783563
 30
0.0
 10
7.3431726191
 20
6.1578987971
 30
0.0
 10
7.3497038615
 20
6.1554493356
 30
0.0
 10
7.355660927
 20
6.1518625166
 30
0.0
 10
7.3583759761
 20
6.149912421
 30
0.0
 11
7.3397072126
 21
6.158783563
 31
0.0
 11
7.3497711039
 21
6.1550627078
 31
0.0
 11
7.3583759761
 21
6.149912421
 31
0.0
  0
SPLINE
  5
37C
100
AcDbEntity
  8
0
100
AcDbSpline
 62
6
  6
CONTINUOUS
 70
0
 71
3
 72
9
 73
5
 74
3
 42
0.0000001
 43
0.0000001
 44
0.0000000001
 12
-0.0011585748
 22
0.0113657142
 32
0.0
 13
-0.0002663349
 23
0.0114215069
 33
0.0
 40
0.0
 40
0.0
 40
0.0
 40
0.0
 40
0.2522136846
 40
1.0
 40
1.0
 40
1.0
 40
1.0
 10
7.2694327491
 20
6.0663467476
 30
0.0
 10
7.2693353463
 20
6.0673022772
 30
0.0
 10
7.2689831434
 20
6.0710941774
 30
0.0
 10
7.2687720791
 20
6.0748996529
 30
0.0
 10
7.2687056919
 20
6.0777466018
 30
0.0
 11
7.2694327491
 21
6.0663467476
 31
0.0
 11
7.2691666636
 21
6.069215879
 31
0.0
 11
7.2687056919
 21
6.0777466018
 31
0.0
  0
SPLINE
  5
37D
100
AcDbEntity
  8
0
100
AcDbSpline
 62
6
  6
CONTINUOUS
 70
0
 71
3
 72
9
 73
5
 74
3
 42
0.0000001
 43
0.0000001
 44
0.0000000001
 12
-0.0003678386
 22
0.0157743902
 32
0.0
 13
0.0017200306
 23
0.0156846481
 33
0.0
 40
0.0
 40
0.0
 40
0.0
 40
0.0
 40
0.2536184896
 40
1.0
 40
1.0
 40
1.0
 40
1.0
 10
7.2687056919
 20
6.0777466018
 30
0.0
 10
7.2686745951
 20
6.0790801608
 30
0.0
 10
7.2686311607
 20
6.0843395804
 30
0.0
 10
7.2689171884
 20
6.089603757
 30
0.0
 10
7.2693451215
 20
6.0935060008
 30
0.0
 11
7.2687056919
 21
6.0777466018
 31
0.0
 11
7.2686737553
 21
6.0817482389
 31
0.0
 11
7.2693451215
 21
6.0935060008
 31
0.0
  0
SPLINE
  5
37E
100
AcDbEntity
  8
0
100
AcDbSpline
 62
6
  6
CONTINUOUS
 70
0
 71
3
 72
9
 73
5
 74
3
 42
0.0000001
 43
0.0000001
 44
0.0000000001
 12
0.001558085
 22
0.0142078953
 32
0.0
 13
0.0035874892
 23
0.0138355281
 33
0.0
 40
0.0
 40
0.0
 40
0.0
 40
0.0
 40
0.2533125164
 40
1.0
 40
1.0
 40
1.0
 40
1.0
 10
7.2693451215
 20
6.0935060008
 30
0.0
 10
7.2694766823
 20
6.09470568
 30
0.0
 10
7.2700761042
 20
6.0994323352
 30
0.0
 10
7.2710046441
 20
6.1041187331
 30
0.0
 10
7.2718975552
 20
6.1075623383
 30
0.0
 11
7.2693451215
 21
6.0935060008
 31
0.0
 11
7.269801483
 21
6.0970977387
 31
0.0
 11
7.2718975552
 21
6.1075623383
 31
0.0
  0
SPLINE
  5
37F
100
AcDbEntity
  8
0
100
AcDbSpline
 62
6
  6
CONTINUOUS
 70
0
 71
3
 72
11
 73
7
 74
5
 42
0.0000001
 43
0.0000001
 44
0.0000000001
 12
0.0115943817
 22
0.0447149483
 32
0.0
 13
0.0346987841
 23
0.0304934529
 33
0.0
 40
0.0
 40
0.0
 40
0.0
 40
0.0
 40
0.252278803
 40
0.5004298457
 40
0.7479841955
 40
1.0
 40
1.0
 40
1.0
 40
1.0
 10
7.2718975552
 20
6.1075623383
 30
0.0
 10
7.2728725607
 20
6.1113225495
 30
0.0
 10
7.2752843928
 20
6.1186689495
 30
0.0
 10
7.2803671899
 20
6.1290465511
 30
0.0
 10
7.2869110263
 20
6.1385694137
 30
0.0
 10
7.2922455027
 20
6.1441721199
 30
0.0
 10
7.2951603834
 20
6.1467337306
 30
0.0
 11
7.2718975552
 21
6.1075623383
 31
0.0
 11
7.2755555694
 21
6.1186270276
 31
0.0
 11
7.2806142756
 21
6.1289134313
 31
0.0
 11
7.2871082991
 21
6.1383260349
 31
0.0
 11
7.2951603834
 21
6.1467337306
 31
0.0
  0
SPLINE
  5
380
100
AcDbEntity
  8
0
100
AcDbSpline
 62
6
  6
CONTINUOUS
 70
0
 71
3
 72
9
 73
5
 74
3
 42
0.0000001
 43
0.0000001
 44
0.0000000001
 12
-0.0145678449
 22
0.0159825844
 32
0.0
 13
-0.0100996435
 23
0.0191222988
 33
0.0
 40
0.0
 40
0.0
 40
0.0
 40
0.0
 40
0.252654133
 40
1.0
 40
1.0
 40
1.0
 40
1.0
 10
7.2825379313
 20
6.0430237639
 30
0.0
 10
7.2813110559
 20
6.0443697859
 30
0.0
 10
7.2766247513
 20
6.0498492897
 30
0.0
 10
7.2726250211
 20
6.0559176505
 30
0.0
 10
7.2701090455
 20
6.0606813075
 30
0.0
 11
7.2825379313
 21
6.0430237639
 31
0.0
 11
7.2789868543
 21
6.0471762136
 31
0.0
 11
7.2701090455
 21
6.0606813075
 31
0.0
  0
SPLINE
  5
381
100
AcDbEntity
  8
0
100
AcDbSpline
 62
6
  6
CONTINUOUS
 70
0
 71
3
 72
9
 73
5
 74
3
 42
0.0000001
 43
0.0000001
 44
0.0000000001
 12
-0.0189699867
 22
-0.0258806727
 32
0.0
 13
-0.0263250054
 23
-0.0183483979
 33
0.0
 40
0.0
 40
0.0
 40
0.0
 40
0.0
 40
0.4991695822
 40
1.0
 40
1.0
 40
1.0
 40
1.0
 10
7.4082344998
 20
6.0540921376
 30
0.0
 10
7.4050780863
 20
6.0497858561
 30
0.0
 10
7.3980536052
 20
6.0416522548
 30
0.0
 10
7.3897989876
 20
6.0347602368
 30
0.0
 10
7.3854041998
 20
6.0316970916
 30
0.0
 11
7.4082344998
 21
6.0540921376
 31
0.0
 11
7.3977587583
 21
6.041975129
 31
0.0
 11
7.3854041998
 21
6.0316970916
 31
0.0
  0
SPLINE
  5
382
100
AcDbEntity
  8
0
100
AcDbSpline
 62
6
  6
CONTINUOUS
 70
0
 71
3
 72
9
 73
5
 74
3
 42
0.0000001
 43
0.0000001
 44
0.0000000001
 12
0.017205023
 22
-0.0133753124
 32
0.0
 13
0.0129703946
 23
-0.0175123003
 33
0.0
 40
0.0
 40
0.0
 40
0.0
 40
0.0
 40
0.5013069187
 40
1.0
 40
1.0
 40
1.0
 40
1.0
 10
7.3491830662
 20
5.8614433477
 30
0.0
 10
7.3520580652
 20
5.8592083021
 30
0.0
 10
7.3573993382
 20
5.8542354559
 30
0.0
 10
7.3620424565
 20
5.8486279915
 30
0.0
 10
7.3641985385
 20
5.8457169038
 30
0.0
 11
7.3491830662
 21
5.8614433477
 31
0.0
 11
7.3572378471
 21
5.8540629727
 31
0.0
 11
7.3641985385
 21
5.8457169038
 31
0.0
  0
SPLINE
  5
383
100
AcDbEntity
  8
0
100
AcDbSpline
 62
6
  6
CONTINUOUS
 70
0
 71
3
 72
9
 73
5
 74
3
 42
0.0000001
 43
0.0000001
 44
0.0000000001
 12
0.0186479364
 22
0.0136346556
 32
0.0
 13
0.0217932026
 23
0.0076619636
 33
0.0
 40
0.0
 40
0.0
 40
0.0
 40
0.0
 40
0.4992235566
 40
1.0
 40
1.0
 40
1.0
 40
1.0
 10
7.2951605969
 20
5.852357258
 30
0.0
 10
7.2982637599
 20
5.8546261718
 30
0.0
 10
7.3048056373
 20
5.8587426482
 30
0.0
 10
7.3118824668
 20
5.8618612088
 30
0.0
 10
7.3155203076
 20
5.8631401858
 30
0.0
 11
7.2951605969
 21
5.852357258
 31
0.0
 11
7.3049288015
 21
5.858487551
 31
0.0
 11
7.3155203076
 21
5.8631401858
 31
0.0
  0
SPLINE
  5
384
100
AcDbEntity
  8
0
100
AcDbSpline
 62
6
  6
CONTINUOUS
 70
0
 71
3
 72
9
 73
5
 74
3
 42
0.0000001
 43
0.0000001
 44
0.0000000001
 12
0.0074728991
 22
0.0120793045
 32
0.0
 13
0.0091442503
 23
0.0108690619
 33
0.0
 40
0.0
 40
0.0
 40
0.0
 40
0.0
 40
0.2489985851
 40
1.0
 40
1.0
 40
1.0
 40
1.0
 10
7.286871641
 20
5.8408309046
 30
0.0
 10
7.2874918881
 20
5.8418334812
 30
0.0
 10
7.2900456567
 20
5.8458202829
 30
0.0
 10
7.2928714819
 20
5.8496363644
 30
0.0
 10
7.2951605969
 20
5.852357258
 30
0.0
 11
7.286871641
 21
5.8408309046
 31
0.0
 11
7.2887805253
 21
5.8438083124
 31
0.0
 11
7.2951605969
 21
5.852357258
 31
0.0
  0
SPLINE
  5
385
100
AcDbEntity
  8
0
100
AcDbSpline
 62
6
  6
CONTINUOUS
 70
0
 71
3
 72
9
 73
5
 74
3
 42
0.0000001
 43
0.0000001
 44
0.0000000001
 12
0.0009743713
 22
-0.0125361645
 32
0.0
 13
0.000131321
 23
-0.0125732881
 33
0.0
 40
0.0
 40
0.0
 40
0.0
 40
0.0
 40
0.2527609988
 40
1.0
 40
1.0
 40
1.0
 40
1.0
 10
7.4186303777
 20
5.8096988136
 30
0.0
 10
7.4187124721
 20
5.8086425958
 30
0.0
 10
7.4190058765
 20
5.804461555
 30
0.0
 10
7.4191677684
 20
5.800270804
 30
0.0
 10
7.4192004778
 20
5.7971390536
 30
0.0
 11
7.4186303777
 21
5.8096988136
 31
0.0
 11
7.4188523924
 21
5.8065283673
 31
0.0
 11
7.4192004778
 21
5.7971390536
 31
0.0
  0
SPLINE
  5
386
100
AcDbEntity
  8
0
100
AcDbSpline
 62
6
  6
CONTINUOUS
 70
0
 71
3
 72
9
 73
5
 74
3
 42
0.0000001
 43
0.0000001
 44
0.0000000001
 12
0.0001562365
 22
-0.0149588152
 32
0.0
 13
-0.0013392058
 23
-0.0148995667
 33
0.0
 40
0.0
 40
0.0
 40
0.0
 40
0.0
 40
0.2541769709
 40
1.0
 40
1.0
 40
1.0
 40
1.0
 10
7.4192004778
 20
5.7971390536
 30
0.0
 10
7.419213715
 20
5.7958716582
 30
0.0
 10
7.4192087449
 20
5.7908850912
 30
0.0
 10
7.4189680046
 20
5.7858976791
 30
0.0
 10
7.4186350678
 20
5.7821935325
 30
0.0
 11
7.4192004778
 21
5.7971390536
 31
0.0
 11
7.4191959563
 21
5.7933366626
 31
0.0
 11
7.4186350678
 21
5.7821935325
 31
0.0
  0
SPLINE
  5
387
100
AcDbEntity
  8
0
100
AcDbSpline
 62
6
  6
CONTINUOUS
 70
0
 71
3
 72
11
 73
7
 74
5
 42
0.0000001
 43
0.0000001
 44
0.0000000001
 12
-0.0036743141
 22
-0.0408792183
 32
0.0
 13
-0.0171491128
 23
-0.0372896635
 33
0.0
 40
0.0
 40
0.0
 40
0.0
 40
0.0
 40
0.2633874988
 40
0.5173305416
 40
0.7625325662
 40
1.0
 40
1.0
 40
1.0
 40
1.0
 10
7.4186350678
 20
5.7821935325
 30
0.0
 10
7.4183124783
 20
5.7786045074
 30
0.0
 10
7.4173957957
 20
5.7715763474
 30
0.0
 10
7.4151479707
 20
5.7613753497
 30
0.0
 10
7.4121129456
 20
5.751752158
 30
0.0
 10
7.4095918859
 20
5.7456393699
 30
0.0
 10
7.408234434
 20
5.7426876763
 30
0.0
 11
7.4186350678
 21
5.7821935325
 31
0.0
 11
7.4172213757
 21
5.7714758855
 31
0.0
 11
7.4149707347
 21
5.7612989388
 31
0.0
 11
7.4119436921
 21
5.7517008856
 31
0.0
 11
7.408234434
 21
5.7426876763
 31
0.0
  0
SPLINE
  5
388
100
AcDbEntity
  8
0
100
AcDbSpline
 62
6
  6
CONTINUOUS
 70
0
 71
3
 72
9
 73
5
 74
3
 42
0.0000001
 43
0.0000001
 44
0.0000000001
 12
0.0118874903
 22
-0.0067303698
 32
0.0
 13
0.0102958336
 23
-0.0089780908
 33
0.0
 40
0.0
 40
0.0
 40
0.0
 40
0.0
 40
0.2521956519
 40
1.0
 40
1.0
 40
1.0
 40
1.0
 10
7.3769993885
 20
6.1394944135
 30
0.0
 10
7.377998713
 20
6.1389286235
 30
0.0
 10
7.3819052015
 20
6.1365879421
 30
0.0
 10
7.3855800855
 20
6.1338584705
 30
0.0
 10
7.3881465085
 20
6.1316205187
 30
0.0
 11
7.3769993885
 21
6.1394944135
 31
0.0
 11
7.3799543811
 21
6.1377232761
 31
0.0
 11
7.3881465085
 21
6.1316205187
 31
0.0
  0
SPLINE
  5
389
100
AcDbEntity
  8
0
100
AcDbSpline
 62
6
  6
CONTINUOUS
 70
0
 71
3
 72
9
 73
5
 74
3
 42
0.0000001
 43
0.0000001
 44
0.0000000001
 12
0.0129112675
 22
0.0057788575
 32
0.0
 13
0.0114862155
 23
0.008256081
 33
0.0
 40
0.0
 40
0.0
 40
0.0
 40
0.0
 40
0.2518553817
 40
1.0
 40
1.0
 40
1.0
 40
1.0
 10
7.3710030057
 20
6.0365746211
 30
0.0
 10
7.3720869297
 20
6.0370597666
 30
0.0
 10
7.3763421989
 20
6.0390922484
 30
0.0
 10
7.3803961335
 20
6.0415489986
 30
0.0
 10
7.3832605836
 20
6.0436079128
 30
0.0
 11
7.3710030057
 21
6.0365746211
 31
0.0
 11
7.3742175837
 21
6.0381104614
 31
0.0
 11
7.3832605836
 21
6.0436079128
 31
0.0
  0
SPLINE
  5
38A
100
AcDbEntity
  8
0
100
AcDbSpline
 62
6
  6
CONTINUOUS
 70
0
 71
3
 72
9
 73
5
 74
3
 42
0.0000001
 43
0.0000001
 44
0.0000000001
 12
0.0110831335
 22
0.007966353
 32
0.0
 13
0.0091786299
 23
0.0101020484
 33
0.0
 40
0.0
 40
0.0
 40
0.0
 40
0.0
 40
0.2523811475
 40
1.0
 40
1.0
 40
1.0
 40
1.0
 10
7.3832605836
 20
6.0436079128
 30
0.0
 10
7.3841929749
 20
6.0442780986
 30
0.0
 10
7.3878187802
 20
6.0470273777
 30
0.0
 10
7.3911620544
 20
6.0501515694
 30
0.0
 10
7.3934494267
 20
6.0526690633
 30
0.0
 11
7.3832605836
 21
6.0436079128
 31
0.0
 11
7.3860051485
 21
6.0456897116
 31
0.0
 11
7.3934494267
 21
6.0526690633
 31
0.0
  0
SPLINE
  5
38B
100
AcDbEntity
  8
0
100
AcDbSpline
 62
6
  6
CONTINUOUS
 70
0
 71
3
 72
9
 73
5
 74
3
 42
0.0000001
 43
0.0000001
 44
0.0000000001
 12
0.0090407699
 22
0.0099503189
 32
0.0
 13
0.0066078963
 23
0.0117081199
 33
0.0
 40
0.0
 40
0.0
 40
0.0
 40
0.0
 40
0.2524655131
 40
1.0
 40
1.0
 40
1.0
 40
1.0
 10
7.3934494267
 20
6.0526690633
 30
0.0
 10
7.3942102542
 20
6.0535064341
 30
0.0
 10
7.3971330489
 20
6.05690433
 30
0.0
 10
7.3996829564
 20
6.0606249481
 30
0.0
 10
7.4013294999
 20
6.0635423559
 30
0.0
 11
7.3934494267
 21
6.0526690633
 31
0.0
 11
7.3956622965
 21
6.0552427071
 31
0.0
 11
7.4013294999
 21
6.0635423559
 31
0.0
  0
SPLINE
  5
38C
100
AcDbEntity
  8
0
100
AcDbSpline
 62
6
  6
CONTINUOUS
 70
0
 71
3
 72
9
 73
5
 74
3
 42
0.0000001
 43
0.0000001
 44
0.0000000001
 12
0.0064176272
 22
0.0113709939
 32
0.0
 13
0.0036212679
 23
0.0125447941
 33
0.0
 40
0.0
 40
0.0
 40
0.0
 40
0.0
 40
0.2520039558
 40
1.0
 40
1.0
 40
1.0
 40
1.0
 10
7.4013294999
 20
6.0635423559
 30
0.0
 10
7.401868589
 20
6.0644975343
 30
0.0
 10
7.4038995228
 20
6.0683478085
 30
0.0
 10
7.4054874296
 20
6.0724329854
 30
0.0
 10
7.4063903276
 20
6.0755608042
 30
0.0
 11
7.4013294999
 21
6.0635423559
 31
0.0
 11
7.4028640608
 21
6.0664530207
 31
0.0
 11
7.4063903276
 21
6.0755608042
 31
0.0
  0
SPLINE
  5
38D
100
AcDbEntity
  8
0
100
AcDbSpline
 62
6
  6
CONTINUOUS
 70
0
 71
3
 72
9
 73
5
 74
3
 42
0.0000001
 43
0.0000001
 44
0.0000000001
 12
-0.013216867
 22
0.0061177705
 32
0.0
 13
-0.0116558287
 23
0.0087323735
 33
0.0
 40
0.0
 40
0.0
 40
0.0
 40
0.0
 40
0.251973928
 40
1.0
 40
1.0
 40
1.0
 40
1.0
 10
7.3149804893
 20
5.7496996615
 30
0.0
 10
7.3138703873
 20
5.750213501
 30
0.0
 10
7.3095178336
 20
5.7523651021
 30
0.0
 10
7.3053856355
 20
5.7549655739
 30
0.0
 10
7.3024793476
 20
5.7571429216
 30
0.0
 11
7.3149804893
 21
5.7496996615
 31
0.0
 11
7.3116909178
 21
5.751326295
 31
0.0
 11
7.3024793476
 21
5.7571429216
 31
0.0
  0
SPLINE
  5
38E
100
AcDbEntity
  8
0
100
AcDbSpline
 62
6
  6
CONTINUOUS
 70
0
 71
3
 72
9
 73
5
 74
3
 42
0.0000001
 43
0.0000001
 44
0.0000000001
 12
-0.0112812683
 22
0.0084517584
 32
0.0
 13
-0.0091770124
 23
0.0106996112
 33
0.0
 40
0.0
 40
0.0
 40
0.0
 40
0.0
 40
0.2525029778
 40
1.0
 40
1.0
 40
1.0
 40
1.0
 10
7.3024793476
 20
5.7571429216
 30
0.0
 10
7.3015298296
 20
5.7578542864
 30
0.0
 10
7.2978451212
 20
5.7607708753
 30
0.0
 10
7.2944725179
 20
5.7640843783
 30
0.0
 10
7.2921859214
 20
5.7667503542
 30
0.0
 11
7.3024793476
 21
5.7571429216
 31
0.0
 11
7.2996889291
 21
5.7593524875
 31
0.0
 11
7.2921859214
 21
5.7667503542
 31
0.0
  0
SPLINE
  5
38F
100
AcDbEntity
  8
0
100
AcDbSpline
 62
6
  6
CONTINUOUS
 70
0
 71
3
 72
9
 73
5
 74
3
 42
0.0000001
 43
0.0000001
 44
0.0000000001
 12
-0.0111715047
 22
-0.0082152287
 32
0.0
 13
-0.0091676847
 23
-0.0104041365
 33
0.0
 40
0.0
 40
0.0
 40
0.0
 40
0.0
 40
0.2524363118
 40
1.0
 40
1.0
 40
1.0
 40
1.0
 10
7.3029604776
 20
5.847807829
 30
0.0
 10
7.3020204465
 20
5.847116555
 30
0.0
 10
7.2983687454
 20
5.8442817
 30
0.0
 10
7.2950143126
 20
5.8410614603
 30
0.0
 10
7.2927298366
 20
5.8384688755
 30
0.0
 11
7.3029604776
 21
5.847807829
 31
0.0
 11
7.3001957457
 21
5.845660756
 31
0.0
 11
7.2927298366
 21
5.8384688755
 31
0.0
  0
SPLINE
  5
390
100
AcDbEntity
  8
0
100
AcDbSpline
 62
6
  6
CONTINUOUS
 70
0
 71
3
 72
9
 73
5
 74
3
 42
0.0000001
 43
0.0000001
 44
0.0000000001
 12
-0.0091759304
 22
-0.0104134942
 32
0.0
 13
-0.0065293786
 23
-0.0122476845
 33
0.0
 40
0.0
 40
0.0
 40
0.0
 40
0.0
 40
0.2525323195
 40
1.0
 40
1.0
 40
1.0
 40
1.0
 10
7.2927298366
 20
5.8384688755
 30
0.0
 10
7.2919574302
 20
5.8375922942
 30
0.0
 10
7.2889974689
 20
5.8340356876
 30
0.0
 10
7.2864430965
 20
5.8301393283
 30
0.0
 10
7.2848162633
 20
5.8270877455
 30
0.0
 11
7.2927298366
 21
5.8384688755
 31
0.0
 11
7.2904883239
 21
5.835774311
 31
0.0
 11
7.2848162633
 21
5.8270877455
 31
0.0
  0
SPLINE
  5
391
100
AcDbEntity
  8
0
100
AcDbSpline
 62
6
  6
CONTINUOUS
 70
0
 71
3
 72
9
 73
5
 74
3
 42
0.0000001
 43
0.0000001
 44
0.0000000001
 12
-0.0064246942
 22
-0.0120513195
 32
0.0
 13
-0.0033062916
 23
-0.013250639
 33
0.0
 40
0.0
 40
0.0
 40
0.0
 40
0.0
 40
0.2520131906
 40
1.0
 40
1.0
 40
1.0
 40
1.0
 10
7.2848162633
 20
5.8270877455
 30
0.0
 10
7.2842765608
 20
5.8260753817
 30
0.0
 10
7.2822559002
 20
5.8219951484
 30
0.0
 10
7.2807302696
 20
5.8176684283
 30
0.0
 10
7.2799059155
 20
5.8143646606
 30
0.0
 11
7.2848162633
 21
5.8270877455
 31
0.0
 11
7.2832895342
 21
5.8240031819
 31
0.0
 11
7.2799059155
 21
5.8143646606
 31
0.0
  0
SPLINE
  5
392
100
AcDbEntity
  8
0
100
AcDbSpline
 62
6
  6
CONTINUOUS
 70
0
 71
3
 72
9
 73
5
 74
3
 42
0.0000001
 43
0.0000001
 44
0.0000000001
 12
-0.0100201969
 22
0.0215690768
 32
0.0
 13
-0.0163248354
 23
0.0172953511
 33
0.0
 40
0.0
 40
0.0
 40
0.0
 40
0.0
 40
0.4957722232
 40
1.0
 40
1.0
 40
1.0
 40
1.0
 10
7.4191659092
 20
6.1237441816
 30
0.0
 10
7.4175099974
 20
6.1273086313
 30
0.0
 10
7.4135570687
 20
6.134227112
 30
0.0
 10
7.4085498559
 20
6.1404203661
 30
0.0
 10
7.4058060441
 20
6.1433272982
 30
0.0
 11
7.4191659092
 21
6.1237441816
 31
0.0
 11
7.4133313603
 21
6.1339903589
 31
0.0
 11
7.4058060441
 21
6.1433272982
 31
0.0
  0
SPLINE
  5
393
100
AcDbEntity
  8
0
100
AcDbSpline
 62
7
  6
CONTINUOUS
 70
0
 71
3
 72
11
 73
7
 74
5
 42
0.0000001
 43
0.0000001
 44
0.0000000001
 12
0.0238706006
 22
0.0284533376
 32
0.0
 13
0.0357515986
 23
0.0100608743
 33
0.0
 40
0.0
 40
0.0
 40
0.0
 40
0.0
 40
0.2422793557
 40
0.4900349924
 40
0.7428888666
 40
1.0
 40
1.0
 40
1.0
 40
1.0
 10
7.293247402
 20
6.1110770643
 30
0.0
 10
7.2951751865
 20
6.1133749497
 30
0.0
 10
7.2994639418
 20
6.1177085915
 30
0.0
 10
7.3068948215
 20
6.1231849891
 30
0.0
 10
7.3152152692
 20
6.1275865941
 30
0.0
 10
7.3211833573
 20
6.1297201429
 30
0.0
 10
7.324247402
 20
6.1305823972
 30
0.0
 11
7.293247402
 21
6.1110770643
 31
0.0
 11
7.2995658352
 21
6.1174838637
 31
0.0
 11
7.30696377
 21
6.1229557874
 31
0.0
 11
7.3152590446
 21
6.1273580984
 31
0.0
 11
7.324247402
 21
6.1305823972
 31
0.0
  0
SPLINE
  5
394
100
AcDbEntity
  8
0
100
AcDbSpline
 62
7
  6
CONTINUOUS
 70
0
 71
3
 72
9
 73
5
 74
3
 42
0.0000001
 43
0.0000001
 44
0.0000000001
 12
-0.0170103723
 22
0.0075058646
 32
0.0
 13
-0.0140548184
 23
0.0121718055
 33
0.0
 40
0.0
 40
0.0
 40
0.0
 40
0.0
 40
0.5050920301
 40
1.0
 40
1.0
 40
1.0
 40
1.0
 10
7.3152590446
 20
5.7566754471
 30
0.0
 10
7.3123951101
 20
5.7579391645
 30
0.0
 10
7.3068947761
 20
5.7608477988
 30
0.0
 10
7.3018844491
 20
5.7645417072
 30
0.0
 10
7.2995658352
 20
5.7665496817
 30
0.0
 11
7.3152590446
 21
5.7566754471
 31
0.0
 11
7.30696377
 21
5.761077758
 31
0.0
 11
7.2995658352
 21
5.7665496817
 31
0.0
  0
SPLINE
  5
395
100
AcDbEntity
  8
0
100
AcDbSpline
 62
7
  6
CONTINUOUS
 70
0
 71
3
 72
9
 73
5
 74
3
 42
0.0000001
 43
0.0000001
 44
0.0000000001
 12
-0.0112020212
 22
0.013352613
 32
0.0
 13
-0.0061224516
 23
0.0163184907
 33
0.0
 40
0.0
 40
0.0
 40
0.0
 40
0.0
 40
0.5049291767
 40
1.0
 40
1.0
 40
1.0
 40
1.0
 10
7.293247402
 20
5.7729564812
 30
0.0
 10
7.2913619928
 20
5.7752038558
 30
0.0
 10
7.2879796837
 20
5.7799641852
 30
0.0
 10
7.2854513006
 20
5.7852316093
 30
0.0
 10
7.2844409516
 20
5.7879245456
 30
0.0
 11
7.293247402
 21
5.7729564812
 31
0.0
 11
7.2881640511
 21
5.7801403998
 31
0.0
 11
7.2844409516
 21
5.7879245456
 31
0.0
  0
SPLINE
  5
396
100
AcDbEntity
  8
0
100
AcDbSpline
 62
7
  6
CONTINUOUS
 70
0
 71
3
 72
9
 73
5
 74
3
 42
0.0000001
 43
0.0000001
 44
0.0000000001
 12
-0.0059491339
 22
0.0158565381
 32
0.0
 13
0.0
 23
0.0169358199
 33
0.0
 40
0.0
 40
0.0
 40
0.0
 40
0.0
 40
0.5019940789
 40
1.0
 40
1.0
 40
1.0
 40
1.0
 10
7.2844409516
 20
5.7879245456
 30
0.0
 10
7.2834454749
 20
5.7905778416
 30
0.0
 10
7.2819217156
 20
5.7960484968
 30
0.0
 10
7.2814064556
 20
5.8017053932
 30
0.0
 10
7.2814064556
 20
5.8045167727
 30
0.0
 11
7.2844409516
 21
5.7879245456
 31
0.0
 11
7.2821697785
 21
5.796117247
 31
0.0
 11
7.2814064556
 21
5.8045167727
 31
0.0
  0
SPLINE
  5
397
100
AcDbEntity
  8
0
100
AcDbSpline
 62
7
  6
CONTINUOUS
 70
0
 71
3
 72
9
 73
5
 74
3
 42
0.0000001
 43
0.0000001
 44
0.0000000001
 12
0.0160308858
 22
0.0100867679
 32
0.0
 13
0.0182320643
 23
0.0051306938
 33
0.0
 40
0.0
 40
0.0
 40
0.0
 40
0.0
 40
0.4958259301
 40
1.0
 40
1.0
 40
1.0
 40
1.0
 10
7.30696377
 20
5.8479557874
 30
0.0
 10
7.3096132796
 20
5.8496228811
 30
0.0
 10
7.3152163468
 20
5.8525872664
 30
0.0
 10
7.3211833573
 20
5.8547201429
 30
0.0
 10
7.324247402
 20
5.8555823972
 30
0.0
 11
7.30696377
 21
5.8479557874
 31
0.0
 11
7.3152590446
 21
5.8523580984
 31
0.0
 11
7.324247402
 21
5.8555823972
 31
0.0
  0
SPLINE
  5
398
100
AcDbEntity
  8
0
100
AcDbSpline
 62
7
  6
CONTINUOUS
 70
0
 71
3
 72
9
 73
5
 74
3
 42
0.0000001
 43
0.0000001
 44
0.0000000001
 12
0.0182007367
 22
0.0056778702
 32
0.0
 13
0.015883824
 23
0.0105455755
 33
0.0
 40
0.0
 40
0.0
 40
0.0
 40
0.0
 40
0.5080038686
 40
1.0
 40
1.0
 40
1.0
 40
1.0
 10
7.3626987067
 20
5.7494599883
 30
0.0
 10
7.3657807215
 20
5.7504214483
 30
0.0
 10
7.371732293
 20
5.7527112949
 30
0.0
 10
7.3773064003
 20
5.7558183329
 30
0.0
 10
7.379911327
 20
5.7575477937
 30
0.0
 11
7.3626987067
 21
5.7494599883
 31
0.0
 11
7.3717301528
 21
5.752958841
 31
0.0
 11
7.379911327
 21
5.7575477937
 31
0.0
  0
SPLINE
  5
399
100
AcDbEntity
  8
0
100
AcDbSpline
 62
7
  6
CONTINUOUS
 70
0
 71
3
 72
9
 73
5
 74
3
 42
0.0000001
 43
0.0000001
 44
0.0000000001
 12
0.0142779818
 22
0.0094794261
 32
0.0
 13
0.010546109
 23
0.0135092512
 33
0.0
 40
0.0
 40
0.0
 40
0.0
 40
0.0
 40
0.509258497
 40
1.0
 40
1.0
 40
1.0
 40
1.0
 10
7.379911327
 20
5.7575477937
 30
0.0
 10
7.3823350548
 20
5.7591569531
 30
0.0
 10
7.3868735123
 20
5.7626668507
 30
0.0
 10
7.3907969261
 20
5.7668617369
 30
0.0
 10
7.3925220639
 20
5.769071587
 30
0.0
 11
7.379911327
 21
5.7575477937
 31
0.0
 11
7.3867980429
 21
5.7629094913
 31
0.0
 11
7.3925220639
 21
5.769071587
 31
0.0
  0
SPLINE
  5
39A
100
AcDbEntity
  8
0
100
AcDbSpline
 62
7
  6
CONTINUOUS
 70
0
 71
3
 72
9
 73
5
 74
3
 42
0.0000001
 43
0.0000001
 44
0.0000000001
 12
0.0204239795
 22
0.0094471436
 32
0.0
 13
0.0159451077
 23
0.0158789483
 33
0.0
 40
0.0
 40
0.0
 40
0.0
 40
0.0
 40
0.5061097402
 40
1.0
 40
1.0
 40
1.0
 40
1.0
 10
7.3740713684
 20
5.7563397613
 30
0.0
 10
7.37751696
 20
5.7579335251
 30
0.0
 10
7.3840781591
 20
5.7616514801
 30
0.0
 10
7.3898970194
 20
5.7664574344
 30
0.0
 10
7.3925220639
 20
5.769071587
 30
0.0
 11
7.3740713684
 21
5.7563397613
 31
0.0
 11
7.3839681857
 21
5.7619755994
 31
0.0
 11
7.3925220639
 21
5.769071587
 31
0.0
  0
SPLINE
  5
39B
100
AcDbEntity
  8
0
100
AcDbSpline
 62
6
  6
CONTINUOUS
 70
0
 71
3
 72
9
 73
5
 74
3
 42
0.0000001
 43
0.0000001
 44
0.0000000001
 12
-0.0066166616
 22
-0.0102840218
 32
0.0
 13
-0.008786232
 23
-0.0085054948
 33
0.0
 40
0.0
 40
0.0
 40
0.0
 40
0.0
 40
0.246790394
 40
1.0
 40
1.0
 40
1.0
 40
1.0
 10
7.4009417894
 20
5.7702226066
 30
0.0
 10
7.4003974799
 20
5.7693766073
 30
0.0
 10
7.3980897909
 20
5.7660150656
 30
0.0
 10
7.3953857422
 20
5.7629283581
 30
0.0
 10
7.3931797841
 20
5.7607928846
 30
0.0
 11
7.4009417894
 21
5.7702226066
 31
0.0
 11
7.3992343085
 21
5.7677341538
 31
0.0
 11
7.3931797841
 21
5.7607928846
 31
0.0
  0
SPLINE
  5
39C
100
AcDbEntity
  8
0
100
AcDbSpline
 62
6
  6
CONTINUOUS
 70
0
 71
3
 72
9
 73
5
 74
3
 42
0.0000001
 43
0.0000001
 44
0.0000000001
 12
-0.0091343837
 22
-0.0088425224
 32
0.0
 13
-0.0108090012
 23
-0.0066927319
 33
0.0
 40
0.0
 40
0.0
 40
0.0
 40
0.0
 40
0.2466113614
 40
1.0
 40
1.0
 40
1.0
 40
1.0
 10
7.3931797841
 20
5.7607928846
 30
0.0
 10
7.3924289032
 20
5.7600659958
 30
0.0
 10
7.3893020765
 20
5.757204068
 30
0.0
 10
7.3858608821
 20
5.7546885508
 30
0.0
 10
7.3831464226
 20
5.753007808
 30
0.0
 11
7.3931797841
 21
5.7607928846
 31
0.0
 11
7.3908675623
 21
5.7586754957
 31
0.0
 11
7.3831464226
 21
5.753007808
 31
0.0
  0
SPLINE
  5
39D
100
AcDbEntity
  8
0
100
AcDbSpline
 62
6
  6
CONTINUOUS
 70
0
 71
3
 72
9
 73
5
 74
3
 42
0.0000001
 43
0.0000001
 44
0.0000000001
 12
-0.0114836115
 22
-0.0071104381
 32
0.0
 13
-0.0126958062
 23
-0.0046095735
 33
0.0
 40
0.0
 40
0.0
 40
0.0
 40
0.0
 40
0.2469444951
 40
1.0
 40
1.0
 40
1.0
 40
1.0
 10
7.3831464226
 20
5.753007808
 30
0.0
 10
7.382201151
 20
5.7524225135
 30
0.0
 10
7.3783103227
 20
5.750155188
 30
0.0
 10
7.3741817948
 20
5.7482990885
 30
0.0
 10
7.3709949126
 20
5.7471420003
 30
0.0
 11
7.3831464226
 21
5.753007808
 31
0.0
 11
7.3802650185
 21
5.7513277836
 31
0.0
 11
7.3709949126
 21
5.7471420003
 31
0.0
  0
SPLINE
  5
39E
100
AcDbEntity
  8
0
100
AcDbSpline
 62
6
  6
CONTINUOUS
 70
0
 71
3
 72
9
 73
5
 74
3
 42
0.0000001
 43
0.0000001
 44
0.0000000001
 12
-0.0131780126
 22
-0.0047846522
 32
0.0
 13
-0.013861242
 23
-0.0021021139
 33
0.0
 40
0.0
 40
0.0
 40
0.0
 40
0.0
 40
0.2477068786
 40
1.0
 40
1.0
 40
1.0
 40
1.0
 10
7.3709949126
 20
5.7471420003
 30
0.0
 10
7.3699068178
 20
5.7467469365
 30
0.0
 10
7.3654742322
 20
5.7452638071
 30
0.0
 10
7.3608936699
 20
5.7442262959
 30
0.0
 10
7.3574177642
 20
5.7436991606
 30
0.0
 11
7.3709949126
 21
5.7471420003
 31
0.0
 11
7.3677017742
 21
5.7460395164
 31
0.0
 11
7.3574177642
 21
5.7436991606
 31
0.0
  0
SPLINE
  5
39F
100
AcDbEntity
  8
0
100
AcDbSpline
 62
6
  6
CONTINUOUS
 70
0
 71
3
 72
9
 73
5
 74
3
 42
0.0000001
 43
0.0000001
 44
0.0000000001
 12
-0.0027163279
 22
0.0119758278
 32
0.0
 13
-0.0057212869
 23
0.0108658071
 33
0.0
 40
0.0
 40
0.0
 40
0.0
 40
0.0
 40
0.2480346181
 40
1.0
 40
1.0
 40
1.0
 40
1.0
 10
7.4073900847
 20
5.8035141743
 30
0.0
 10
7.4071655036
 20
5.8045043143
 30
0.0
 10
7.4061265869
 20
5.8084650893
 30
0.0
 10
7.4045579489
 20
5.8122846125
 30
0.0
 10
7.403123879
 20
5.8150081828
 30
0.0
 11
7.4073900847
 21
5.8035141743
 31
0.0
 11
7.4066175399
 21
5.8064604429
 31
0.0
 11
7.403123879
 21
5.8150081828
 31
0.0
  0
SPLINE
  5
3A0
100
AcDbEntity
  8
0
100
AcDbSpline
 62
6
  6
CONTINUOUS
 70
0
 71
3
 72
9
 73
5
 74
3
 42
0.0000001
 43
0.0000001
 44
0.0000000001
 12
-0.0059005887
 22
0.0112063352
 32
0.0
 13
-0.0084561493
 23
0.0094282785
 33
0.0
 40
0.0
 40
0.0
 40
0.0
 40
0.0
 40
0.2468795434
 40
1.0
 40
1.0
 40
1.0
 40
1.0
 10
7.403123879
 20
5.8150081828
 30
0.0
 10
7.4026383008
 20
5.8159303878
 30
0.0
 10
7.4005520971
 20
5.8196021536
 30
0.0
 10
7.39800129
 20
5.8230067812
 30
0.0
 10
7.395878457
 20
5.8253736577
 30
0.0
 11
7.403123879
 21
5.8150081828
 31
0.0
 11
7.4015799014
 21
5.8177270736
 31
0.0
 11
7.395878457
 21
5.8253736577
 31
0.0
  0
SPLINE
  5
3A1
100
AcDbEntity
  8
0
100
AcDbSpline
 62
6
  6
CONTINUOUS
 70
0
 71
3
 72
9
 73
5
 74
3
 42
0.0000001
 43
0.0000001
 44
0.0000000001
 12
-0.0068374486
 22
0.0067711659
 32
0.0
 13
-0.0078596753
 23
0.0055520173
 33
0.0
 40
0.0
 40
0.0
 40
0.0
 40
0.0
 40
0.2473281913
 40
1.0
 40
1.0
 40
1.0
 40
1.0
 10
7.3936357905
 20
5.8277292755
 30
0.0
 10
7.3930720926
 20
5.8282875089
 30
0.0
 10
7.3907450992
 20
5.8304958496
 30
0.0
 10
7.3882320544
 20
5.8325071996
 30
0.0
 10
7.3862601357
 20
5.8339001486
 30
0.0
 11
7.3936357905
 21
5.8277292755
 31
0.0
 11
7.3919096494
 21
5.8293678286
 31
0.0
 11
7.3862601357
 21
5.8339001486
 31
0.0
  0
SPLINE
  5
3A2
100
AcDbEntity
  8
0
100
AcDbSpline
 62
6
  6
CONTINUOUS
 70
0
 71
3
 72
9
 73
5
 74
3
 42
0.0000001
 43
0.0000001
 44
0.0000000001
 12
-0.0108078054
 22
0.0076345549
 32
0.0
 13
-0.0121491672
 23
0.0052433597
 33
0.0
 40
0.0
 40
0.0
 40
0.0
 40
0.0
 40
0.2469729238
 40
1.0
 40
1.0
 40
1.0
 40
1.0
 10
7.3862601357
 20
5.8339001486
 30
0.0
 10
7.3853703906
 20
5.834528658
 30
0.0
 10
7.3816994442
 20
5.8369757123
 30
0.0
 10
7.3777701759
 20
5.8390322697
 30
0.0
 10
7.3747206253
 20
5.8403484003
 30
0.0
 11
7.3862601357
 21
5.8339001486
 31
0.0
 11
7.3835413854
 21
5.8357135517
 31
0.0
 11
7.3747206253
 21
5.8403484003
 31
0.0
  0
SPLINE
  5
3A3
100
AcDbEntity
  8
0
100
AcDbSpline
 62
6
  6
CONTINUOUS
 70
0
 71
3
 72
9
 73
5
 74
3
 42
0.0000001
 43
0.0000001
 44
0.0000000001
 12
0.0092968724
 22
0.0093618488
 32
0.0
 13
0.0111479047
 23
0.0070569306
 33
0.0
 40
0.0
 40
0.0
 40
0.0
 40
0.0
 40
0.2464840851
 40
1.0
 40
1.0
 40
1.0
 40
1.0
 10
7.2928492088
 20
6.114654226
 30
0.0
 10
7.2936130525
 20
6.1154234083
 30
0.0
 10
7.2968030004
 20
6.1184527463
 30
0.0
 10
7.3003412321
 20
6.1211118904
 30
0.0
 10
7.3031412733
 20
6.1228843936
 30
0.0
 11
7.2928492088
 21
6.114654226
 31
0.0
 11
7.2952067551
 21
6.1168942846
 31
0.0
 11
7.3031412733
 21
6.1228843936
 31
0.0
  0
SPLINE
  5
3A4
100
AcDbEntity
  8
0
100
AcDbSpline
 62
6
  6
CONTINUOUS
 70
0
 71
3
 72
9
 73
5
 74
3
 42
0.0000001
 43
0.0000001
 44
0.0000000001
 12
0.02345703
 22
0.0148489458
 32
0.0
 13
0.027427513
 23
0.0042959259
 33
0.0
 40
0.0
 40
0.0
 40
0.0
 40
0.0
 40
0.4924213211
 40
1.0
 40
1.0
 40
1.0
 40
1.0
 10
7.3031412733
 20
6.1228843936
 30
0.0
 10
7.3069915205
 20
6.125321706
 30
0.0
 10
7.3153743355
 20
6.1294206029
 30
0.0
 10
7.3244025759
 20
6.1317407486
 30
0.0
 10
7.3290431161
 20
6.1324675887
 30
0.0
 11
7.3031412733
 21
6.1228843936
 31
0.0
 11
7.3154037761
 21
6.1289271651
 31
0.0
 11
7.3290431161
 21
6.1324675887
 31
0.0
  0
SPLINE
  5
3A5
100
AcDbEntity
  8
0
100
AcDbSpline
 62
6
  6
CONTINUOUS
 70
0
 71
3
 72
9
 73
5
 74
3
 42
0.0000001
 43
0.0000001
 44
0.0000000001
 12
0.003265288
 22
-0.0119108166
 32
0.0
 13
0.0062150577
 23
-0.0106725215
 33
0.0
 40
0.0
 40
0.0
 40
0.0
 40
0.0
 40
0.2477924486
 40
1.0
 40
1.0
 40
1.0
 40
1.0
 10
7.2799170923
 20
6.0707328324
 30
0.0
 10
7.2801867968
 20
6.0697490289
 30
0.0
 10
7.2814074562
 20
6.0658158872
 30
0.0
 10
7.2831510859
 20
6.0620475587
 30
0.0
 10
7.2847094236
 20
6.059371575
 30
0.0
 11
7.2799170923
 21
6.0707328324
 31
0.0
 11
7.2808238481
 21
6.067809943
 31
0.0
 11
7.2847094236
 21
6.059371575
 31
0.0
  0
SPLINE
  5
3A6
100
AcDbEntity
  8
0
100
AcDbSpline
 62
6
  6
CONTINUOUS
 70
0
 71
3
 72
9
 73
5
 74
3
 42
0.0000001
 43
0.0000001
 44
0.0000000001
 12
0.005538743
 22
-0.0095111512
 32
0.0
 13
0.007414992
 23
-0.0081337301
 33
0.0
 40
0.0
 40
0.0
 40
0.0
 40
0.0
 40
0.2471860241
 40
1.0
 40
1.0
 40
1.0
 40
1.0
 10
7.2847094236
 20
6.059371575
 30
0.0
 10
7.2851657903
 20
6.0585879004
 30
0.0
 10
7.2870987992
 20
6.0554686161
 30
0.0
 10
7.2893701468
 20
6.05256085
 30
0.0
 10
7.29123085
 20
6.0505197881
 30
0.0
 11
7.2847094236
 21
6.059371575
 31
0.0
 11
7.2861420887
 21
6.0570587374
 31
0.0
 11
7.29123085
 21
6.0505197881
 31
0.0
  0
SPLINE
  5
3A7
100
AcDbEntity
  8
0
100
AcDbSpline
 62
6
  6
CONTINUOUS
 70
0
 71
3
 72
9
 73
5
 74
3
 42
0.0000001
 43
0.0000001
 44
0.0000000001
 12
0.0083518686
 22
-0.0082237762
 32
0.0
 13
0.0098161172
 23
-0.006405314
 33
0.0
 40
0.0
 40
0.0
 40
0.0
 40
0.0
 40
0.246845341
 40
1.0
 40
1.0
 40
1.0
 40
1.0
 10
7.2932892803
 20
6.0483811076
 30
0.0
 10
7.2939764869
 20
6.0477044407
 30
0.0
 10
7.2968310325
 20
6.0450355514
 30
0.0
 10
7.2999574968
 20
6.0426595918
 30
0.0
 10
7.3024218483
 20
6.0410515278
 30
0.0
 11
7.2932892803
 21
6.0483811076
 31
0.0
 11
7.2954023182
 21
6.0464046839
 31
0.0
 11
7.3024218483
 21
6.0410515278
 31
0.0
  0
SPLINE
  5
3A8
100
AcDbEntity
  8
0
100
AcDbSpline
 62
6
  6
CONTINUOUS
 70
0
 71
3
 72
9
 73
5
 74
3
 42
0.0000001
 43
0.0000001
 44
0.0000000001
 12
0.0238120207
 22
-0.0155380653
 32
0.0
 13
0.0280797191
 23
-0.0044691362
 33
0.0
 40
0.0
 40
0.0
 40
0.0
 40
0.0
 40
0.4921283348
 40
1.0
 40
1.0
 40
1.0
 40
1.0
 10
7.3024218483
 20
6.0410515278
 30
0.0
 10
7.3063280383
 20
6.0385026204
 30
0.0
 10
7.3148732421
 20
6.0342127948
 30
0.0
 10
7.324111654
 20
6.03179059
 30
0.0
 10
7.3288652852
 20
6.0310340075
 30
0.0
 11
7.3024218483
 21
6.0410515278
 31
0.0
 11
7.3149066004
 21
6.0347326506
 31
0.0
 11
7.3288652852
 21
6.0310340075
 31
0.0
  0
SPLINE
  5
3A9
100
AcDbEntity
  8
0
100
AcDbSpline
 62
6
  6
CONTINUOUS
 70
0
 71
3
 72
17
 73
13
 74
11
 42
0.0000001
 43
0.0000001
 44
0.0000000001
 12
-0.0192878341
 22
0.4113105655
 32
0.0
 13
-0.0191395011
 23
0.4113174946
 33
0.0
 40
0.0
 40
0.0
 40
0.0
 40
0.0
 40
0.0451015158
 40
0.0968458877
 40
0.2171605614
 40
0.3539603829
 40
0.499299898
 40
0.6447336826
 40
0.7818106544
 40
0.9025693733
 40
0.9545903995
 40
1.0
 40
1.0
 40
1.0
 40
1.0
 10
8.3760304522
 20
5.7358588119
 30
0.0
 10
8.375740482
 20
5.7420423886
 30
0.0
 10
8.375174767
 20
5.7553229706
 30
0.0
 10
8.3740648235
 20
5.7851085673
 30
0.0
 10
8.3727258305
 20
5.8274798498
 30
0.0
 10
8.3711739262
 20
5.88269655
 30
0.0
 10
8.3696176022
 20
5.9413621214
 30
0.0
 10
8.3680612138
 20
6.0000657435
 30
0.0
 10
8.3665091375
 20
6.0553944087
 30
0.0
 10
8.3651703216
 20
6.0979027168
 30
0.0
 10
8.3640608736
 20
6.1278296327
 30
0.0
 10
8.3634954693
 20
6.1411905544
 30
0.0
 10
8.3632057636
 20
6.1474164755
 30
0.0
 11
8.3760304522
 21
5.7358588119
 31
0.0
 11
8.3752289082
 21
5.7544126216
 31
0.0
 11
8.3744273713
 21
5.7757039344
 31
0.0
 11
8.3728242768
 21
5.8252190679
 31
0.0
 11
8.3712211968
 21
5.8815252961
 31
0.0
 11
8.3696181057
 21
5.9413491911
 31
0.0
 11
8.3680150143
 21
6.0012119168
 31
0.0
 11
8.3664119335
 21
6.0576323113
 31
0.0
 11
8.3648088377
 21
6.1073303813
 31
0.0
 11
8.3640073032
 21
6.1287356903
 31
0.0
 11
8.3632057636
 21
6.1474164755
 31
0.0
  0
LINE
  5
3AA
100
AcDbEntity
  8
0
100
AcDbLine
 62
6
  6
CONTINUOUS
 10
8.3632057636
 20
6.1474164755
 11
8.3630544595
 21
6.150614315
  0
SPLINE
  5
3AB
100
AcDbEntity
  8
0
100
AcDbSpline
 62
6
  6
CONTINUOUS
 70
0
 71
3
 72
12
 73
8
 74
6
 42
0.0000001
 43
0.0000001
 44
0.0000000001
 12
-0.0671341743
 22
0.0047580294
 32
0.0
 13
-0.051278709
 23
-0.043590483
 33
0.0
 40
0.0
 40
0.0
 40
0.0
 40
0.0
 40
0.2577145187
 40
0.5117793317
 40
0.6367798385
 40
0.7599875754
 40
1.0
 40
1.0
 40
1.0
 40
1.0
 10
7.3472464199
 20
6.1545495196
 30
0.0
 10
7.3414792694
 20
6.1549582573
 30
0.0
 10
7.329926108
 20
6.1547246977
 30
0.0
 10
7.3158536315
 20
6.1518014715
 30
0.0
 10
7.3052474841
 20
6.1479460496
 30
0.0
 10
7.2953561821
 20
6.1432157726
 30
0.0
 10
7.2885482144
 20
6.1385999017
 30
0.0
 10
7.2844457053
 20
6.1351124825
 30
0.0
 11
7.3472464199
 21
6.1545495196
 31
0.0
 11
7.3299053692
 21
6.1541865021
 31
0.0
 11
7.3131687964
 21
6.1506836037
 31
0.0
 11
7.3052635391
 21
6.1478055754
 31
0.0
 11
7.2977860143
 21
6.1442212813
 31
0.0
 11
7.2844457053
 21
6.1351124825
 31
0.0
  0
SPLINE
  5
3AC
100
AcDbEntity
  8
0
100
AcDbSpline
 62
6
  6
CONTINUOUS
 70
0
 71
3
 72
15
 73
11
 74
9
 42
0.0000001
 43
0.0000001
 44
0.0000000001
 12
0.0012274495
 22
0.0166833397
 32
0.0
 13
0.0083565382
 23
0.0144916778
 33
0.0
 40
0.0
 40
0.0
 40
0.0
 40
0.0
 40
0.3903353729
 40
0.550813573
 40
0.6878520983
 40
0.801245683
 40
0.8909106168
 40
0.956973792
 40
0.9812981982
 40
1.0
 40
1.0
 40
1.0
 40
1.0
 10
8.6432152389
 20
6.1752037433
 30
0.0
 10
8.6433749446
 20
6.1773744425
 30
0.0
 10
8.6436192112
 20
6.1804363968
 30
0.0
 10
8.6439972969
 20
6.1842534294
 30
0.0
 10
8.6442611258
 20
6.186529555
 30
0.0
 10
8.6445228928
 20
6.188408275
 30
0.0
 10
8.6447830698
 20
6.1898861814
 30
0.0
 10
8.6450113518
 20
6.1908657457
 30
0.0
 10
8.6452059642
 20
6.1914423727
 30
0.0
 10
8.6453047403
 20
6.1916620802
 30
0.0
 10
8.6453568344
 20
6.1917524203
 30
0.0
 11
8.6432152389
 21
6.1752037433
 31
0.0
 11
8.64375052
 21
6.1817114651
 31
0.0
 11
8.6440181789
 21
6.1843826372
 31
0.0
 11
8.6442858776
 21
6.1866593931
 31
0.0
 11
8.6445536359
 21
6.1885372971
 31
0.0
 11
8.644821432
 21
6.1900131516
 31
0.0
 11
8.6450891911
 21
6.1910853573
 31
0.0
 11
8.6452230321
 21
6.191469625
 31
0.0
 11
8.6453568344
 21
6.1917524203
 31
0.0
  0
SPLINE
  5
3AD
100
AcDbEntity
  8
0
100
AcDbSpline
 62
6
  6
CONTINUOUS
 70
0
 71
3
 72
9
 73
5
 74
3
 42
0.0000001
 43
0.0000001
 44
0.0000000001
 12
-0.0136737287
 22
-0.0232408288
 32
0.0
 13
-0.0228229356
 23
-0.0143603826
 33
0.0
 40
0.0
 40
0.0
 40
0.0
 40
0.0
 40
0.4915804239
 40
1.0
 40
1.0
 40
1.0
 40
1.0
 10
7.3986488601
 20
5.7801403998
 30
0.0
 10
7.396408281
 20
5.7763321543
 30
0.0
 10
7.3908269625
 20
5.769153368
 30
0.0
 10
7.383717017
 20
5.7635114579
 30
0.0
 10
7.3798491413
 20
5.761077758
 30
0.0
 11
7.3986488601
 21
5.7801403998
 31
0.0
 11
7.3905515525
 21
5.7696456408
 31
0.0
 11
7.3798491413
 21
5.761077758
 31
0.0
  0
SPLINE
  5
3AE
100
AcDbEntity
  8
0
100
AcDbSpline
 62
6
  6
CONTINUOUS
 70
0
 71
3
 72
9
 73
5
 74
3
 42
0.0000001
 43
0.0000001
 44
0.0000000001
 12
-0.0160308858
 22
-0.0100867679
 32
0.0
 13
-0.0182320643
 23
-0.0051306938
 33
0.0
 40
0.0
 40
0.0
 40
0.0
 40
0.0
 40
0.4958259301
 40
1.0
 40
1.0
 40
1.0
 40
1.0
 10
7.3798491413
 20
5.761077758
 30
0.0
 10
7.3771996316
 20
5.7594106643
 30
0.0
 10
7.3715965645
 20
5.756446279
 30
0.0
 10
7.3656295539
 20
5.7543134026
 30
0.0
 10
7.3625655093
 20
5.7534511483
 30
0.0
 11
7.3798491413
 21
5.761077758
 31
0.0
 11
7.3715538666
 21
5.7566754471
 31
0.0
 11
7.3625655093
 21
5.7534511483
 31
0.0
  0
LINE
  5
3AF
100
AcDbEntity
  8
0
100
AcDbLine
 62
6
  6
CONTINUOUS
 10
8.332825247
 20
5.7738023433
 11
8.3324003293
 21
5.7859884334
  0
LINE
  5
3B0
100
AcDbEntity
  8
0
100
AcDbLine
 62
6
  6
CONTINUOUS
 10
8.3324003293
 20
5.7859884334
 11
8.3322310119
 21
5.7910255465
  0
SPLINE
  5
3B1
100
AcDbEntity
  8
0
100
AcDbSpline
 62
6
  6
CONTINUOUS
 70
0
 71
3
 72
11
 73
7
 74
5
 42
0.0000001
 43
0.0000001
 44
0.0000000001
 12
-0.0095277858
 22
0.2862529441
 32
0.0
 13
-0.0090310083
 23
0.2862690476
 33
0.0
 40
0.0
 40
0.0
 40
0.0
 40
0.0
 40
0.233425376
 40
0.4939749547
 40
0.7576117945
 40
1.0
 40
1.0
 40
1.0
 40
1.0
 10
8.3322310119
 20
5.7910255465
 30
0.0
 10
8.3314896695
 20
5.8132984468
 30
0.0
 10
8.3301027853
 20
5.8604383375
 30
0.0
 10
8.3281728241
 20
5.9327421149
 30
0.0
 10
8.3262414082
 20
6.0059018541
 30
0.0
 10
8.3248672763
 20
6.0541929306
 30
0.0
 10
8.3241376063
 20
6.0773223442
 30
0.0
 11
8.3322310119
 21
5.7910255465
 31
0.0
 11
8.3302076373
 21
5.8578506246
 31
0.0
 11
8.3281843002
 21
5.9324475759
 31
0.0
 11
8.32616095
 21
6.0079290751
 31
0.0
 11
8.3241376063
 21
6.0773223442
 31
0.0
  0
LINE
  5
3B2
100
AcDbEntity
  8
0
100
AcDbLine
 62
6
  6
CONTINUOUS
 10
8.3241376063
 20
6.0773223442
 11
8.3237873802
 21
6.0882302762
  0
LINE
  5
3B3
100
AcDbEntity
  8
0
100
AcDbLine
 62
6
  6
CONTINUOUS
 10
8.3237873802
 20
6.0882302762
 11
8.3236624769
 21
6.0920232901
  0
LINE
  5
3B4
100
AcDbEntity
  8
0
100
AcDbLine
 62
6
  6
CONTINUOUS
 10
8.3236624769
 20
6.0920232901
 11
8.3235823043
 21
6.0944299184
  0
LINE
  5
3B5
100
AcDbEntity
  8
0
100
AcDbLine
 62
6
  6
CONTINUOUS
 10
8.2874905503
 20
5.8959086222
 11
8.2854426343
 21
5.9727632956
  0
SPLINE
  5
3B6
100
AcDbEntity
  8
0
100
AcDbSpline
 62
6
  6
CONTINUOUS
 70
0
 71
3
 72
9
 73
5
 74
3
 42
0.0000001
 43
0.0000001
 44
0.0000000001
 12
0.0149533466
 22
-0.0115164514
 32
0.0
 13
0.009729363
 23
-0.0161731483
 33
0.0
 40
0.0
 40
0.0
 40
0.0
 40
0.0
 40
0.5020127757
 40
1.0
 40
1.0
 40
1.0
 40
1.0
 10
7.4058060441
 20
6.1433272982
 30
0.0
 10
7.4083083011
 20
6.141400163
 30
0.0
 10
7.4129818247
 20
6.1371326796
 30
0.0
 10
7.416770929
 20
6.1320529043
 30
0.0
 10
7.4183859618
 20
6.1293682306
 30
0.0
 11
7.4058060441
 21
6.1433272982
 31
0.0
 11
7.4127777497
 21
6.1369107894
 31
0.0
 11
7.4183859618
 21
6.1293682306
 31
0.0
  0
SPLINE
  5
3B7
100
AcDbEntity
  8
0
100
AcDbSpline
 62
6
  6
CONTINUOUS
 70
0
 71
3
 72
9
 73
5
 74
3
 42
0.0000001
 43
0.0000001
 44
0.0000000001
 12
0.031020584
 22
0.0022341529
 32
0.0
 13
0.0310995578
 23
-0.000292539
 33
0.0
 40
0.0
 40
0.0
 40
0.0
 40
0.0
 40
0.2545733653
 40
1.0
 40
1.0
 40
1.0
 40
1.0
 10
7.3747206759
 20
6.1425400643
 30
0.0
 10
7.377353014
 20
6.1427296496
 30
0.0
 10
7.3877045662
 20
6.1433205709
 30
0.0
 10
7.3980785646
 20
6.143399987
 30
0.0
 10
7.4058060441
 20
6.1433272982
 30
0.0
 11
7.3747206759
 21
6.1425400643
 31
0.0
 11
7.3826249276
 21
6.1429973658
 31
0.0
 11
7.4058060441
 21
6.1433272982
 31
0.0
  0
SPLINE
  5
3B8
100
AcDbEntity
  8
0
100
AcDbSpline
 62
6
  6
CONTINUOUS
 70
0
 71
3
 72
9
 73
5
 74
3
 42
0.0000001
 43
0.0000001
 44
0.0000000001
 12
0.010682418
 22
-0.0019002928
 32
0.0
 13
0.0103075645
 23
-0.0033881088
 33
0.0
 40
0.0
 40
0.0
 40
0.0
 40
0.0
 40
0.2548279229
 40
1.0
 40
1.0
 40
1.0
 40
1.0
 10
7.3641986194
 20
6.1451674479
 30
0.0
 10
7.3651060122
 20
6.145006032
 30
0.0
 10
7.3686559463
 20
6.144313812
 30
0.0
 10
7.3721603728
 20
6.143381639
 30
0.0
 10
7.3747206759
 20
6.1425400643
 30
0.0
 11
7.3641986194
 21
6.1451674479
 31
0.0
 11
7.3669123017
 21
6.1446376561
 31
0.0
 11
7.3747206759
 21
6.1425400643
 31
0.0
  0
SPLINE
  5
3B9
100
AcDbEntity
  8
0
100
AcDbSpline
 62
6
  6
CONTINUOUS
 70
0
 71
3
 72
11
 73
7
 74
5
 42
0.0000001
 43
0.0000001
 44
0.0000000001
 12
0.041087326
 22
0.0216448035
 32
0.0
 13
0.04630272
 23
0.0035670715
 33
0.0
 40
0.0
 40
0.0
 40
0.0
 40
0.0
 40
0.2383751758
 40
0.4863629031
 40
0.7415728835
 40
1.0
 40
1.0
 40
1.0
 40
1.0
 10
7.2951603834
 20
6.1467337306
 30
0.0
 10
7.2984251162
 20
6.1484535919
 30
0.0
 10
7.3053177413
 20
6.1515347013
 30
0.0
 10
7.3162685638
 20
6.1550424178
 30
0.0
 10
7.3278132835
 20
6.1575172988
 30
0.0
 10
7.3357185865
 20
6.158476287
 30
0.0
 10
7.3397072126
 20
6.158783563
 30
0.0
 11
7.2951603834
 21
6.1467337306
 31
0.0
 11
7.3052510583
 21
6.1512863025
 31
0.0
 11
7.3162096975
 21
6.154827302
 31
0.0
 11
7.327794041
 21
6.1573315459
 31
0.0
 11
7.3397072126
 21
6.158783563
 31
0.0
  0
SPLINE
  5
3BA
100
AcDbEntity
  8
0
100
AcDbSpline
 62
6
  6
CONTINUOUS
 70
0
 71
3
 72
9
 73
5
 74
3
 42
0.0000001
 43
0.0000001
 44
0.0000000001
 12
-0.035001632
 22
-0.0100071488
 32
0.0
 13
-0.0363464748
 23
-0.0020472039
 33
0.0
 40
0.0
 40
0.0
 40
0.0
 40
0.0
 40
0.4994994906
 40
1.0
 40
1.0
 40
1.0
 40
1.0
 10
7.3854041998
 20
6.0316970916
 30
0.0
 10
7.379576434
 20
6.030030903
 30
0.0
 10
7.3677489439
 20
6.0272210805
 30
0.0
 10
7.355668055
 20
6.0257531764
 30
0.0
 10
7.3496042453
 20
6.0254116343
 30
0.0
 11
7.3854041998
 21
6.0316970916
 31
0.0
 11
7.3676975605
 21
6.0275587015
 31
0.0
 11
7.3496042453
 21
6.0254116343
 31
0.0
  0
SPLINE
  5
3BB
100
AcDbEntity
  8
0
100
AcDbSpline
 62
6
  6
CONTINUOUS
 70
0
 71
3
 72
9
 73
5
 74
3
 42
0.0000001
 43
0.0000001
 44
0.0000000001
 12
-0.0410260491
 22
0.0034722681
 32
0.0
 13
-0.0381160533
 23
0.0155679104
 33
0.0
 40
0.0
 40
0.0
 40
0.0
 40
0.0
 40
0.4998371106
 40
1.0
 40
1.0
 40
1.0
 40
1.0
 10
7.3303997621
 20
6.0256678491
 30
0.0
 10
7.3235643148
 20
6.0262463719
 30
0.0
 10
7.3099585176
 20
6.0284725634
 30
0.0
 10
7.296857271
 20
6.032747872
 30
0.0
 10
7.2905025259
 20
6.035343369
 30
0.0
 11
7.3303997621
 21
6.0256678491
 31
0.0
 11
7.3100890056
 21
6.0289837837
 31
0.0
 11
7.2905025259
 21
6.035343369
 31
0.0
  0
SPLINE
  5
3BC
100
AcDbEntity
  8
0
100
AcDbSpline
 62
6
  6
CONTINUOUS
 70
0
 71
3
 72
9
 73
5
 74
3
 42
0.0000001
 43
0.0000001
 44
0.0000000001
 12
0.0032187206
 22
-0.0128183282
 32
0.0
 13
0.0061441474
 23
-0.0117012457
 33
0.0
 40
0.0
 40
0.0
 40
0.0
 40
0.0
 40
0.2486509023
 40
1.0
 40
1.0
 40
1.0
 40
1.0
 10
7.2799256844
 20
5.7883399267
 30
0.0
 10
7.2801924637
 20
5.7872774971
 30
0.0
 10
7.2813945933
 20
5.7830380148
 30
0.0
 10
7.28310873
 20
5.7789453088
 30
0.0
 10
7.2846475299
 20
5.7760147353
 30
0.0
 11
7.2799256844
 21
5.7883399267
 31
0.0
 11
7.2808219409
 21
5.7851782697
 31
0.0
 11
7.2846475299
 21
5.7760147353
 31
0.0
  0
SPLINE
  5
3BD
100
AcDbEntity
  8
0
100
AcDbSpline
 62
6
  6
CONTINUOUS
 70
0
 71
3
 72
9
 73
5
 74
3
 42
0.0000001
 43
0.0000001
 44
0.0000000001
 12
0.0090581323
 22
-0.0104901668
 32
0.0
 13
0.0110883026
 23
-0.0083152213
 33
0.0
 40
0.0
 40
0.0
 40
0.0
 40
0.0
 40
0.247877219
 40
1.0
 40
1.0
 40
1.0
 40
1.0
 10
7.2923203115
 20
5.7647841559
 30
0.0
 10
7.2930687464
 20
5.7639173981
 30
0.0
 10
7.2961848277
 20
5.7605050797
 30
0.0
 10
7.299674524
 20
5.7574362326
 30
0.0
 10
7.3024544457
 20
5.7553515435
 30
0.0
 11
7.2923203115
 21
5.7647841559
 31
0.0
 11
7.2946365136
 21
5.76224683
 31
0.0
 11
7.3024544457
 21
5.7553515435
 31
0.0
  0
SPLINE
  5
3BE
100
AcDbEntity
  8
0
100
AcDbSpline
 62
6
  6
CONTINUOUS
 70
0
 71
3
 72
9
 73
5
 74
3
 42
0.0000001
 43
0.0000001
 44
0.0000000001
 12
0.0115853048
 22
-0.0086879279
 32
0.0
 13
0.0131317761
 23
-0.0061037559
 33
0.0
 40
0.0
 40
0.0
 40
0.0
 40
0.0
 40
0.2482431275
 40
1.0
 40
1.0
 40
1.0
 40
1.0
 10
7.3024544457
 20
5.7553515435
 30
0.0
 10
7.3034131031
 20
5.7546326373
 30
0.0
 10
7.3073521293
 20
5.7518408458
 30
0.0
 10
7.3115858934
 20
5.7494673437
 30
0.0
 10
7.3148765277
 20
5.7479378302
 30
0.0
 11
7.3024544457
 21
5.7553515435
 31
0.0
 11
7.3053869386
 21
5.7532723282
 31
0.0
 11
7.3148765277
 21
5.7479378302
 31
0.0
  0
LINE
  5
3BF
100
AcDbEntity
  8
0
100
AcDbLine
 62
6
  6
CONTINUOUS
 10
8.3186334015
 20
6.0864647648
 11
8.3189307963
 21
6.0771724418
  0
LINE
  5
3C0
100
AcDbEntity
  8
0
100
AcDbLine
 62
6
  6
CONTINUOUS
 10
8.3189307963
 20
6.0771724418
 11
8.3260286008
 21
5.822367275
  0
LINE
  5
3C1
100
AcDbEntity
  8
0
100
AcDbLine
 62
6
  6
CONTINUOUS
 10
8.3269693192
 20
5.7925367139
 11
8.3271981283
 21
5.785713662
  0
LINE
  5
3C2
100
AcDbEntity
  8
0
100
AcDbLine
 62
6
  6
CONTINUOUS
 10
8.3271981283
 20
5.785713662
 11
8.3272870108
 21
5.7831129605
  0
LINE
  5
3C3
100
AcDbEntity
  8
0
100
AcDbLine
 62
6
  6
CONTINUOUS
 10
8.3586907115
 20
6.1313459188
 11
8.358900227
 21
6.1260947494
  0
SPLINE
  5
3C4
100
AcDbEntity
  8
0
100
AcDbSpline
 62
6
  6
CONTINUOUS
 70
0
 71
3
 72
16
 73
12
 74
10
 42
0.0000001
 43
0.0000001
 44
0.0000000001
 12
0.015303127
 22
-0.3903341353
 32
0.0
 13
0.0183382302
 23
-0.3902033216
 33
0.0
 40
0.0
 40
0.0
 40
0.0
 40
0.0
 40
0.1084707001
 40
0.235195505
 40
0.3738024386
 40
0.5173198049
 40
0.6585295395
 40
0.7903295369
 40
0.9060925259
 40
0.9561019171
 40
1.0
 40
1.0
 40
1.0
 40
1.0
 10
8.358900227
 20
6.1260947494
 30
0.0
 10
8.3594535406
 20
6.1119814771
 30
0.0
 10
8.3605024188
 20
6.081374017
 30
0.0
 10
8.3619474654
 20
6.0327221339
 30
0.0
 10
8.3633987233
 20
5.9795050925
 30
0.0
 10
8.3648528351
 20
5.9244013967
 30
0.0
 10
8.3663054352
 20
5.8701842835
 30
0.0
 10
8.3677537948
 20
5.819582375
 30
0.0
 10
8.3690031417
 20
5.7808549876
 30
0.0
 10
8.3700354974
 20
5.7535729757
 30
0.0
 10
8.370560577
 20
5.7413563365
 30
0.0
 10
8.3708289147
 20
5.7356466106
 30
0.0
 11
8.358900227
 21
6.1260947494
 31
0.0
 11
8.3603913074
 21
6.0837486494
 31
0.0
 11
8.3618823943
 21
6.0342680936
 31
0.0
 11
8.3633734815
 21
5.9801440479
 31
0.0
 11
8.3648645598
 21
5.9241011172
 31
0.0
 11
8.3663556381
 21
5.8689599501
 31
0.0
 11
8.3678467299
 21
5.8174959863
 31
0.0
 11
8.3693378345
 21
5.772299617
 31
0.0
 11
8.3700833712
 21
5.7527784798
 31
0.0
 11
8.3708289147
 21
5.7356466106
 31
0.0
  0
LINE
  5
3C5
100
AcDbEntity
  8
0
100
AcDbLine
 62
6
  6
CONTINUOUS
 10
8.3025476535
 20
5.8344175486
 11
8.301914129
 21
5.8540209329
  0
LINE
  5
3C6
100
AcDbEntity
  8
0
100
AcDbLine
 62
6
  6
CONTINUOUS
 10
8.301914129
 20
5.8540209329
 11
8.301723312
 21
5.8600911966
  0
LINE
  5
3C7
100
AcDbEntity
  8
0
100
AcDbLine
 62
6
  6
CONTINUOUS
 10
8.301723312
 20
5.8600911966
 11
8.3016086707
 21
5.8637711379
  0
LINE
  5
3C8
100
AcDbEntity
  8
0
100
AcDbLine
 62
6
  6
CONTINUOUS
 10
8.3016086707
 20
5.8637711379
 11
8.297536359
 21
6.0011164604
  0
LINE
  5
3C9
100
AcDbEntity
  8
0
100
AcDbLine
 62
6
  6
CONTINUOUS
 10
8.297536359
 20
6.0011164604
 11
8.2966524924
 21
6.0297776498
  0
LINE
  5
3CA
100
AcDbEntity
  8
0
100
AcDbLine
 62
6
  6
CONTINUOUS
 10
8.3973385982
 20
6.1838750817
 11
8.3981241028
 21
6.1747028572
  0
SPLINE
  5
3CB
100
AcDbEntity
  8
0
100
AcDbSpline
 62
6
  6
CONTINUOUS
 70
0
 71
3
 72
21
 73
17
 74
15
 42
0.0000001
 43
0.0000001
 44
0.0000000001
 12
0.0332841263
 22
-0.4588434091
 32
0.0
 13
0.0291188466
 23
-0.4591265619
 33
0.0
 40
0.0
 40
0.0
 40
0.0
 40
0.0
 40
0.0343533993
 40
0.0787211006
 40
0.1321658184
 40
0.1935564584
 40
0.2615909473
 40
0.3348221162
 40
0.4905736396
 40
0.6476387866
 40
0.7224848903
 40
0.792731885
 40
0.8568876313
 40
0.9135885034
 40
0.9616317726
 40
1.0
 40
1.0
 40
1.0
 40
1.0
 10
8.3981241028
 20
6.1747028572
 30
0.0
 10
8.3985052437
 20
6.1694485802
 30
0.0
 10
8.3992095378
 20
6.1573963906
 30
0.0
 10
8.4001483721
 20
6.1371504992
 30
0.0
 10
8.4010941866
 20
6.1127548664
 30
0.0
 10
8.4020457543
 20
6.0847279426
 30
0.0
 10
8.403000138
 20
6.0536652798
 30
0.0
 10
8.4043018162
 20
6.008136376
 30
0.0
 10
8.4058771653
 20
5.9489570055
 30
0.0
 10
8.4074471726
 20
5.8895297735
 30
0.0
 10
8.4087435395
 20
5.8432120282
 30
0.0
 10
8.4096987755
 20
5.8111379772
 30
0.0
 10
8.4106516008
 20
5.7818477557
 30
0.0
 10
8.4115999648
 20
5.7559642295
 30
0.0
 10
8.4125423068
 20
5.7340381464
 30
0.0
 10
8.4132422612
 20
5.7208048842
 30
0.0
 10
8.4136146741
 20
5.7149329268
 30
0.0
 11
8.3981241028
 21
6.1747028572
 31
0.0
 11
8.3990923097
 21
6.1589282945
 31
0.0
 11
8.4000604978
 21
6.138539952
 31
0.0
 11
8.4010286386
 21
6.1139718297
 31
0.0
 11
8.4019967933
 21
6.0857457245
 31
0.0
 11
8.4029649548
 21
6.0544615015
 31
0.0
 11
8.4039331026
 21
6.0207854872
 31
0.0
 11
8.4058694179
 21
5.9491583181
 31
0.0
 11
8.4078057293
 21
5.8769265987
 31
0.0
 11
8.4087738778
 21
5.8425073349
 31
0.0
 11
8.4097420337
 21
5.8102047786
 31
0.0
 11
8.410710193
 21
5.7807058733
 31
0.0
 11
8.41167834
 21
5.7546386647
 31
0.0
 11
8.4126464973
 21
5.73255762
 31
0.0
 11
8.4136146741
 21
5.7149329268
 31
0.0
  0
LINE
  5
3CC
100
AcDbEntity
  8
0
100
AcDbLine
 62
6
  6
CONTINUOUS
 10
8.4136146741
 20
5.7149329268
 11
8.4136518276
 21
5.714350676
  0
LINE
  5
3CD
100
AcDbEntity
  8
0
100
AcDbLine
 62
6
  6
CONTINUOUS
 10
8.4140317704
 20
5.7088094861
 11
8.4152546892
 21
5.6962465749
  0
SPLINE
  5
3CE
100
AcDbEntity
  8
0
100
AcDbSpline
 62
6
  6
CONTINUOUS
 70
0
 71
3
 72
11
 73
7
 74
5
 42
0.0000001
 43
0.0000001
 44
0.0000000001
 12
0.000585463
 22
-0.0040410232
 32
0.0
 13
0.0020396538
 23
-0.0035372938
 33
0.0
 40
0.0
 40
0.0
 40
0.0
 40
0.0
 40
0.3559984969
 40
0.6407862024
 40
0.8548973814
 40
1.0
 40
1.0
 40
1.0
 40
1.0
 10
8.4152546892
 20
5.6962465749
 30
0.0
 10
8.4153241638
 20
5.6957670421
 30
0.0
 10
8.4154592241
 20
5.6949054715
 30
0.0
 10
8.415681735
 20
5.6937622284
 30
0.0
 10
8.415901786
 20
5.6929146379
 30
0.0
 10
8.4160732139
 20
5.6924522311
 30
0.0
 10
8.4161718669
 20
5.6922811409
 30
0.0
 11
8.4152546892
 21
5.6962465749
 31
0.0
 11
8.4154840246
 21
5.6948111618
 31
0.0
 11
8.4157133659
 21
5.6936711528
 31
0.0
 11
8.4159426634
 21
5.6928274963
 31
0.0
 11
8.4161718669
 21
5.6922811409
 31
0.0
  0
SPLINE
  5
3CF
100
AcDbEntity
  8
0
100
AcDbSpline
 62
6
  6
CONTINUOUS
 70
0
 71
3
 72
45
 73
41
 74
39
 42
0.0000001
 43
0.0000001
 44
0.0000000001
 12
-0.6182733714
 22
0.0
 32
0.0
 13
0.6182733714
 23
0.0
 33
0.0
 40
0.0
 40
0.0
 40
0.0
 40
0.0
 40
0.0156370593
 40
0.0234771716
 40
0.0313080106
 40
0.0469571625
 40
0.0625958174
 40
0.0782387895
 40
0.0938713582
 40
0.1095061316
 40
0.1251344278
 40
0.1407632372
 40
0.1563897168
 40
0.1876321471
 40
0.2188727122
 40
0.2501131307
 40
0.281352705
 40
0.3125907684
 40
0.375059075
 40
0.4375288743
 40
0.499999168
 40
0.5624694624
 40
0.6249393221
 40
0.6874078371
 40
0.7186460593
 40
0.7498858478
 40
0.7811266648
 40
0.8123674572
 40
0.8436100544
 40
0.8592365828
 40
0.8748653925
 40
0.8904937136
 40
0.9061285031
 40
0.9217611052
 40
0.9374041331
 40
0.9530428326
 40
0.9686920484
 40
0.9765228832
 40
0.984362967
 40
1.0
 40
1.0
 40
1.0
 40
1.0
 10
7.8368157891
 20
5.6741082062
 30
0.0
 10
7.83359313
 20
5.6741082062
 30
0.0
 10
7.8287396983
 20
5.6745978496
 30
0.0
 10
7.82246702
 20
5.6761349865
 30
0.0
 10
7.8163569898
 20
5.6782423268
 30
0.0
 10
7.8090983317
 20
5.6818346001
 30
0.0
 10
7.8011217554
 20
5.6873537297
 30
0.0
 10
7.7938912988
 20
5.6938032302
 30
0.0
 10
7.7873588845
 20
5.7009492641
 30
0.0
 10
7.7814769657
 20
5.7086308714
 30
0.0
 10
7.7761681773
 20
5.7167147704
 30
0.0
 10
7.7713834224
 20
5.7251156312
 30
0.0
 10
7.7656199955
 20
5.7366400213
 30
0.0
 10
7.7594533314
 20
5.751532861
 30
0.0
 10
7.7533939111
 20
5.7698868735
 30
0.0
 10
7.7484390486
 20
5.7885653431
 30
0.0
 10
7.7444045316
 20
5.8074602305
 30
0.0
 10
7.7400602354
 20
5.8328470722
 30
0.0
 10
7.7362862453
 20
5.8648340041
 30
0.0
 10
7.7337861187
 20
5.903389429
 30
0.0
 10
7.7329882735
 20
5.9420162669
 30
0.0
 10
7.7337860166
 20
5.9806431201
 30
0.0
 10
7.7362860605
 20
6.0191986048
 30
0.0
 10
7.7400599842
 20
6.051185637
 30
0.0
 10
7.7444044097
 20
6.0765725791
 30
0.0
 10
7.7484389353
 20
6.0954676232
 30
0.0
 10
7.7533936634
 20
6.114146311
 30
0.0
 10
7.7594532724
 20
6.1325004354
 30
0.0
 10
7.7656199281
 20
6.1473933732
 30
0.0
 10
7.7713833557
 20
6.158917814
 30
0.0
 10
7.7761681282
 20
6.1673186822
 30
0.0
 10
7.7814769085
 20
6.175402596
 30
0.0
 10
7.7873588249
 20
6.1830842255
 30
0.0
 10
7.793891262
 20
6.1902302673
 30
0.0
 10
7.8011217203
 20
6.1966798072
 30
0.0
 10
7.8090983342
 20
6.2021989456
 30
0.0
 10
7.8163570175
 20
6.205791213
 30
0.0
 10
7.8224670481
 20
6.2078985706
 30
0.0
 10
7.8287397131
 20
6.2094357144
 30
0.0
 10
7.8335931354
 20
6.2099253392
 30
0.0
 10
7.8368157891
 20
6.2099253392
 30
0.0
 11
7.8368157891
 21
5.6741082062
 31
0.0
 11
7.8271942441
 21
5.6750545983
 31
0.0
 11
7.8224858348
 21
5.6762067769
 31
0.0
 11
7.8179070974
 21
5.6777803865
 31
0.0
 11
7.8092184118
 21
5.6820372811
 31
0.0
 11
7.8012463603
 21
5.6875085933
 31
0.0
 11
7.7940060209
 21
5.693920923
 31
0.0
 11
7.7874672639
 21
5.7010385607
 31
0.0
 11
7.7815716416
 21
5.7086991153
 31
0.0
 11
7.7762554188
 21
5.7167677478
 31
0.0
 11
7.7714600676
 21
5.7251567759
 31
0.0
 11
7.7671292028
 21
5.7337931501
 31
0.0
 11
7.7596765248
 21
5.7516139094
 31
0.0
 11
7.7535779665
 21
5.7699410724
 31
0.0
 11
7.7485923801
 21
5.7886016658
 31
0.0
 11
7.7445338032
 21
5.8074850343
 31
0.0
 11
7.7412565224
 21
5.8265186099
 31
0.0
 11
7.7366243692
 21
5.8648623178
 31
0.0
 11
7.7340698407
 21
5.9034011612
 31
0.0
 11
7.7332542056
 21
5.9420162672
 31
0.0
 11
7.7340697409
 21
5.9806313758
 31
0.0
 11
7.7366241814
 21
6.0191702625
 31
0.0
 11
7.7412563151
 21
6.0575141024
 31
0.0
 11
7.7445336622
 21
6.0765477663
 31
0.0
 11
7.7485922338
 21
6.0954312715
 31
0.0
 11
7.7535777834
 21
6.1140921297
 31
0.0
 11
7.75967644
 21
6.1324194081
 31
0.0
 11
7.7671291429
 21
6.1502402688
 31
0.0
 11
7.7714600098
 21
6.1588766757
 31
0.0
 11
7.7762553634
 21
6.1672657027
 31
0.0
 11
7.7815715857
 21
6.1753343538
 31
0.0
 11
7.7874672055
 21
6.182994923
 31
0.0
 11
7.7940059766
 21
6.1901125758
 31
0.0
 11
7.8012463321
 21
6.1965249393
 31
0.0
 11
7.8092184109
 21
6.2019962606
 31
0.0
 11
7.817907136
 21
6.2062531641
 31
0.0
 11
7.8224858682
 21
6.2078267811
 31
0.0
 11
7.8271942591
 21
6.2089789608
 31
0.0
 11
7.8368157891
 21
6.2099253392
 31
0.0
  0
SPLINE
  5
3D0
100
AcDbEntity
  8
0
100
AcDbSpline
 62
6
  6
CONTINUOUS
 70
0
 71
3
 72
15
 73
11
 74
9
 42
0.0000001
 43
0.0000001
 44
0.0000000001
 12
0.0045768397
 22
0.0
 32
0.0
 13
0.0006506184
 23
-0.0045303595
 33
0.0
 40
0.0
 40
0.0
 40
0.0
 40
0.0
 40
0.0367265149
 40
0.0616940183
 40
0.0925108281
 40
0.1735412942
 40
0.2819852873
 40
0.4185988731
 40
0.5837183229
 40
1.0
 40
1.0
 40
1.0
 40
1.0
 10
8.4373113508
 20
6.1920167727
 30
0.0
 10
8.4373673812
 20
6.1920167727
 30
0.0
 10
8.4374586598
 20
6.1919659969
 30
0.0
 10
8.4375497916
 20
6.1918595967
 30
0.0
 10
8.4376624971
 20
6.1916825272
 30
0.0
 10
8.4377944761
 20
6.1913721675
 30
0.0
 10
8.4379448042
 20
6.1908976427
 30
0.0
 10
8.4380957864
 20
6.1902900106
 30
0.0
 10
8.4383158935
 20
6.1892167796
 30
0.0
 10
8.4384536564
 20
6.1883400675
 30
0.0
 10
8.4385439366
 20
6.1877114323
 30
0.0
 11
8.4373113508
 21
6.1920167727
 31
0.0
 11
8.4374652475
 21
6.1919491672
 31
0.0
 11
8.4375422268
 21
6.1918647141
 31
0.0
 11
8.4376192243
 21
6.1917465418
 31
0.0
 11
8.4377732665
 21
6.1914091834
 31
0.0
 11
8.437927359
 21
6.1909373786
 31
0.0
 11
8.4380814871
 21
6.1903314144
 31
0.0
 11
8.438235636
 21
6.1895915774
 31
0.0
 11
8.4385439366
 21
6.1877114323
 31
0.0
  0
SPLINE
  5
3D1
100
AcDbEntity
  8
0
100
AcDbSpline
 62
6
  6
CONTINUOUS
 70
0
 71
3
 72
10
 73
6
 74
4
 42
0.0000001
 43
0.0000001
 44
0.0000000001
 12
0.0018648195
 22
-0.0129850344
 32
0.0
 13
0.0009478437
 23
-0.0130839697
 33
0.0
 40
0.0
 40
0.0
 40
0.0
 40
0.0
 40
0.1888072253
 40
0.418730866
 40
1.0
 40
1.0
 40
1.0
 40
1.0
 10
8.4385439366
 20
6.1877114323
 30
0.0
 10
8.4386613004
 20
6.1868942095
 30
0.0
 10
8.4388875713
 20
6.1850769386
 30
0.0
 10
8.439334505
 20
6.180726939
 30
0.0
 10
8.4396138567
 20
6.1771903173
 30
0.0
 10
8.4397975075
 20
6.1746552147
 30
0.0
 11
8.4385439366
 21
6.1877114323
 31
0.0
 11
8.4388573983
 21
6.1852545262
 31
0.0
 11
8.439170793
 21
6.1822546544
 31
0.0
 11
8.4397975075
 21
6.1746552147
 31
0.0
  0
SPLINE
  5
3D2
100
AcDbEntity
  8
0
100
AcDbSpline
 62
6
  6
CONTINUOUS
 70
0
 71
3
 72
21
 73
17
 74
15
 42
0.0000001
 43
0.0000001
 44
0.0000000001
 12
0.033236824
 22
-0.4587988555
 32
0.0
 13
0.0291158418
 23
-0.4590787994
 33
0.0
 40
0.0
 40
0.0
 40
0.0
 40
0.0
 40
0.0343858209
 40
0.0787802636
 40
0.1322448819
 40
0.1936485577
 40
0.2616901952
 40
0.3349229339
 40
0.4906637373
 40
0.6477062857
 40
0.7225390377
 40
0.7927717842
 40
0.8569138359
 40
0.9136032215
 40
0.9616375353
 40
1.0
 40
1.0
 40
1.0
 40
1.0
 10
8.4397975075
 20
6.1746552147
 30
0.0
 10
8.440178466
 20
6.1693964896
 30
0.0
 10
8.4408825724
 20
6.157336464
 30
0.0
 10
8.4418212493
 20
6.1370805393
 30
0.0
 10
8.4427668931
 20
6.1126782849
 30
0.0
 10
8.4437182612
 20
6.0846481233
 30
0.0
 10
8.4446724409
 20
6.0535853515
 30
0.0
 10
8.4459737961
 20
6.0080614856
 30
0.0
 10
8.4475487864
 20
5.948893136
 30
0.0
 10
8.4491184868
 20
5.8894792408
 30
0.0
 10
8.4504145882
 20
5.8431740103
 30
0.0
 10
8.45136961
 20
5.811109627
 30
0.0
 10
8.4523222221
 20
5.7818284978
 30
0.0
 10
8.4532703741
 20
5.7559528978
 30
0.0
 10
8.454212512
 20
5.7340331127
 30
0.0
 10
8.4549123035
 20
5.7208034826
 30
0.0
 10
8.455284622
 20
5.7149330179
 30
0.0
 11
8.4397975075
 21
6.1746552147
 31
0.0
 11
8.4407655097
 21
6.1588673447
 31
0.0
 11
8.441733499
 21
6.1384688035
 31
0.0
 11
8.4427014302
 21
6.1138940713
 31
0.0
 11
8.4436693628
 21
6.0856648981
 31
0.0
 11
8.4446373051
 21
6.0543806359
 31
0.0
 11
8.445605234
 21
6.0207073989
 31
0.0
 11
8.4475411108
 21
5.9490926075
 31
0.0
 11
8.4494769924
 21
5.8768787951
 31
0.0
 11
8.4504449295
 21
5.8424692529
 31
0.0
 11
8.4514128632
 21
5.8101766104
 31
0.0
 11
8.4523807968
 21
5.7806870726
 31
0.0
 11
8.4533487247
 21
5.7546278587
 31
0.0
 11
8.4543166636
 21
5.7325532294
 31
0.0
 11
8.455284622
 21
5.7149330179
 31
0.0
  0
LINE
  5
3D3
100
AcDbEntity
  8
0
100
AcDbLine
 62
6
  6
CONTINUOUS
 10
8.455284622
 20
5.7149330179
 11
8.4553218508
 21
5.714349595
  0
SPLINE
  5
3D4
100
AcDbEntity
  8
0
100
AcDbSpline
 62
6
  6
CONTINUOUS
 70
0
 71
3
 72
15
 73
11
 74
9
 42
0.0000001
 43
0.0000001
 44
0.0000000001
 12
0.0012252945
 22
-0.0166271085
 32
0.0
 13
0.0083281729
 23
-0.0144431167
 33
0.0
 40
0.0
 40
0.0
 40
0.0
 40
0.0
 40
0.3902671686
 40
0.5507285109
 40
0.687760608
 40
0.8011578366
 40
0.8908391467
 40
0.9569317801
 40
0.9812757001
 40
1.0
 40
1.0
 40
1.0
 40
1.0
 10
8.4557043584
 20
5.7087737286
 30
0.0
 10
8.4558637558
 20
5.7066107237
 30
0.0
 10
8.4561075527
 20
5.7035595646
 30
0.0
 10
8.4564848973
 20
5.6997559274
 30
0.0
 10
8.4567482184
 20
5.697487607
 30
0.0
 10
8.4570094947
 20
5.6956151808
 30
0.0
 10
8.457269183
 20
5.6941420299
 30
0.0
 10
8.4574970402
 20
5.6931654661
 30
0.0
 10
8.4576912656
 20
5.6925904474
 30
0.0
 10
8.4577898433
 20
5.6923712848
 30
0.0
 10
8.457841823
 20
5.6922811391
 30
0.0
 11
8.4557043584
 21
5.7087737286
 31
0.0
 11
8.4562385919
 21
5.7022890873
 31
0.0
 11
8.4565057316
 21
5.6996272157
 31
0.0
 11
8.4567729143
 21
5.6973582669
 31
0.0
 11
8.4570401597
 21
5.6954866699
 31
0.0
 11
8.4573074441
 21
5.69401557
 31
0.0
 11
8.4575746916
 21
5.6929465598
 31
0.0
 11
8.4577082767
 21
5.692563307
 31
0.0
 11
8.457841823
 21
5.6922811391
 31
0.0
  0
SPLINE
  5
3D5
100
AcDbEntity
  8
0
100
AcDbSpline
 62
6
  6
CONTINUOUS
 70
0
 71
3
 72
9
 73
5
 74
3
 42
0.0000001
 43
0.0000001
 44
0.0000000001
 12
-0.0215996058
 22
0.0142106566
 32
0.0
 13
-0.0140858332
 23
0.0216812139
 33
0.0
 40
0.0
 40
0.0
 40
0.0
 40
0.0
 40
0.5089818071
 40
1.0
 40
1.0
 40
1.0
 40
1.0
 10
7.2884418632
 20
5.7412575869
 30
0.0
 10
7.2847772611
 20
5.7436685755
 30
0.0
 10
7.2779685461
 20
5.7490474535
 30
0.0
 10
7.2724145719
 20
5.7557434047
 30
0.0
 10
7.2701091051
 20
5.7592920281
 30
0.0
 11
7.2884418632
 21
5.7412575869
 31
0.0
 11
7.2781712933
 21
5.7494852818
 31
0.0
 11
7.2701091051
 21
5.7592920281
 31
0.0
  0
SPLINE
  5
3D6
100
AcDbEntity
  8
0
100
AcDbSpline
 62
6
  6
CONTINUOUS
 70
0
 71
3
 72
9
 73
5
 74
3
 42
0.0000001
 43
0.0000001
 44
0.0000000001
 12
-0.0543304457
 22
-0.00113529
 32
0.0
 13
-0.0539902525
 23
0.0061756663
 33
0.0
 40
0.0
 40
0.0
 40
0.0
 40
0.0
 40
0.4936319624
 40
1.0
 40
1.0
 40
1.0
 40
1.0
 10
7.3854041063
 20
5.7301488696
 30
0.0
 10
7.3764643582
 20
5.7299620645
 30
0.0
 10
7.3583404772
 20
5.7300072471
 30
0.0
 10
7.3402501912
 20
5.7312967906
 30
0.0
 10
7.3311372118
 20
5.7323391773
 30
0.0
 11
7.3854041063
 21
5.7301488696
 31
0.0
 11
7.3585794905
 21
5.7303098882
 31
0.0
 11
7.3311372118
 21
5.7323391773
 31
0.0
  0
SPLINE
  5
3D7
100
AcDbEntity
  8
0
100
AcDbSpline
 62
6
  6
CONTINUOUS
 70
0
 71
3
 72
9
 73
5
 74
3
 42
0.0000001
 43
0.0000001
 44
0.0000000001
 12
-0.0411020275
 22
0.0047014487
 32
0.0
 13
-0.0399266297
 23
0.0108325677
 33
0.0
 40
0.0
 40
0.0
 40
0.0
 40
0.0
 40
0.5056021492
 40
1.0
 40
1.0
 40
1.0
 40
1.0
 10
7.3311372118
 20
5.7323391773
 30
0.0
 10
7.3242101207
 20
5.7331315315
 30
0.0
 10
7.3105558553
 20
5.7351436151
 30
0.0
 10
7.2970824989
 20
5.7381632428
 30
0.0
 10
7.2905026189
 20
5.7399484422
 30
0.0
 11
7.3311372118
 21
5.7323391773
 31
0.0
 11
7.3104491152
 21
5.7354237212
 31
0.0
 11
7.2905026189
 21
5.7399484422
 31
0.0
  0
SPLINE
  5
3D8
100
AcDbEntity
  8
0
100
AcDbSpline
 62
6
  6
CONTINUOUS
 70
0
 71
3
 72
15
 73
11
 74
9
 42
0.0000001
 43
0.0000001
 44
0.0000000001
 12
0.0044891259
 22
0.0
 32
0.0
 13
0.000644507
 23
-0.0044426188
 33
0.0
 40
0.0
 40
0.0
 40
0.0
 40
0.0
 40
0.0370033593
 40
0.0620606005
 40
0.0929388847
 40
0.1740267393
 40
0.2824633154
 40
0.4190185008
 40
0.5840360969
 40
1.0
 40
1.0
 40
1.0
 40
1.0
 10
8.478981347
 20
6.1920167727
 30
0.0
 10
8.4790367179
 20
6.1920167727
 30
0.0
 10
8.4791269287
 20
6.191967243
 30
0.0
 10
8.4792173238
 20
6.191862848
 30
0.0
 10
8.4793288385
 20
6.1916894338
 30
0.0
 10
8.4794595274
 20
6.1913853364
 30
0.0
 10
8.4796083367
 20
6.1909203521
 30
0.0
 10
8.479757799
 20
6.1903249593
 30
0.0
 10
8.4799756571
 20
6.1892734303
 30
0.0
 10
8.4801120294
 20
6.1884143442
 30
0.0
 10
8.4802013932
 20
6.1877983545
 30
0.0
 11
8.478981347
 21
6.1920167727
 31
0.0
 11
8.4791336819
 21
6.1919505346
 31
0.0
 11
8.4792098797
 21
6.1918677891
 31
0.0
 11
8.4792860951
 21
6.191752006
 31
0.0
 11
8.4794385718
 21
6.1914214659
 31
0.0
 11
8.4795910973
 21
6.1909591932
 31
0.0
 11
8.4797436569
 21
6.1903654668
 31
0.0
 11
8.4798962359
 21
6.1896405656
 31
0.0
 11
8.4802013932
 21
6.1877983545
 31
0.0
  0
LINE
  5
3D9
100
AcDbEntity
  8
0
100
AcDbLine
 62
6
  6
CONTINUOUS
 10
8.4802013932
 20
6.1877983545
 11
8.4814226646
 21
6.1752688459
  0
SPLINE
  5
3DA
100
AcDbEntity
  8
0
100
AcDbSpline
 62
6
  6
CONTINUOUS
 70
0
 71
3
 72
22
 73
18
 74
16
 42
0.0000001
 43
0.0000001
 44
0.0000000001
 12
0.0338610352
 22
-0.4593702766
 32
0.0
 13
0.0291548168
 23
-0.4596929599
 33
0.0
 40
0.0
 40
0.0
 40
0.0
 40
0.0
 40
0.0156733975
 40
0.0339670993
 40
0.078024098
 40
0.1312344463
 40
0.1924663865
 40
0.2604167901
 40
0.3336329757
 40
0.4895130095
 40
0.6468504072
 40
0.7218607445
 40
0.7922717176
 40
0.8565805314
 40
0.9134155907
 40
0.9615637767
 40
1.0
 40
1.0
 40
1.0
 40
1.0
 10
8.4814226646
 20
6.1752688459
 30
0.0
 10
8.4815995705
 20
6.1728688816
 30
0.0
 10
8.4819449286
 20
6.1676649192
 30
0.0
 10
8.4826273269
 20
6.1557045428
 30
0.0
 10
8.4834524579
 20
6.1379802267
 30
0.0
 10
8.4844017364
 20
6.1136628674
 30
0.0
 10
8.4853552056
 20
6.0856746446
 30
0.0
 10
8.4863121747
 20
6.054613316
 30
0.0
 10
8.487617674
 20
6.0090237797
 30
0.0
 10
8.4891973666
 20
5.9497122157
 30
0.0
 10
8.4907710556
 20
5.8901249383
 30
0.0
 10
8.4920706392
 20
5.8436578682
 30
0.0
 10
8.4930283716
 20
5.8114703605
 30
0.0
 10
8.4939836797
 20
5.7820747294
 30
0.0
 10
8.4949344891
 20
5.7560990642
 30
0.0
 10
8.4958792515
 20
5.7340987913
 30
0.0
 10
8.4965811079
 20
5.7208226694
 30
0.0
 10
8.4969546416
 20
5.714933049
 30
0.0
 11
8.4814226646
 21
6.1752688459
 31
0.0
 11
8.4819080068
 21
6.1680657519
 31
0.0
 11
8.4823933824
 21
6.1596533607
 31
0.0
 11
8.4833641312
 21
6.1393832088
 31
0.0
 11
8.4843348514
 21
6.1148928715
 31
0.0
 11
8.4853055894
 21
6.0867051358
 31
0.0
 11
8.4862763787
 21
6.0554211132
 31
0.0
 11
8.4872471874
 21
6.0217105011
 31
0.0
 11
8.4891887438
 21
5.9499358307
 31
0.0
 11
8.4911302288
 21
5.8774896292
 31
0.0
 11
8.4921009843
 21
5.8429522652
 31
0.0
 11
8.4930717162
 21
5.8105343353
 31
0.0
 11
8.494042434
 21
5.78092854
 31
0.0
 11
8.4950131553
 21
5.7547673735
 31
0.0
 11
8.4959838886
 21
5.7326107763
 31
0.0
 11
8.4969546416
 21
5.714933049
 31
0.0
  0
LINE
  5
3DB
100
AcDbEntity
  8
0
100
AcDbLine
 62
6
  6
CONTINUOUS
 10
8.4969546416
 20
5.714933049
 11
8.4969918895
 21
5.7143493288
  0
SPLINE
  5
3DC
100
AcDbEntity
  8
0
100
AcDbSpline
 62
6
  6
CONTINUOUS
 70
0
 71
3
 72
15
 73
11
 74
9
 42
0.0000001
 43
0.0000001
 44
0.0000000001
 12
0.0012249471
 22
-0.0166180486
 32
0.0
 13
0.008323659
 23
-0.0144352601
 33
0.0
 40
0.0
 40
0.0
 40
0.0
 40
0.0
 40
0.3902576053
 40
0.550716117
 40
0.6877469417
 40
0.8011446527
 40
0.8908283336
 40
0.9569253316
 40
0.9812722167
 40
1.0
 40
1.0
 40
1.0
 40
1.0
 10
8.4973750465
 20
5.7087646911
 30
0.0
 10
8.4975343948
 20
5.7066029179
 30
0.0
 10
8.497778117
 20
5.7035534906
 30
0.0
 10
8.498155344
 20
5.6997520055
 30
0.0
 10
8.4984185838
 20
5.6974849452
 30
0.0
 10
8.4986797801
 20
5.6956135364
 30
0.0
 10
8.4989393889
 20
5.694141156
 30
0.0
 10
8.4991671772
 20
5.6931650805
 30
0.0
 10
8.49936134
 20
5.6925903252
 30
0.0
 10
8.4994598856
 20
5.6923712525
 30
0.0
 10
8.4995118469
 20
5.692281139
 30
0.0
 11
8.4973750465
 21
5.7087646911
 31
0.0
 11
8.497909114
 21
5.7022837443
 31
0.0
 11
8.4981761707
 21
5.699623373
 31
0.0
 11
8.4984432704
 21
5.697355686
 31
0.0
 11
8.4987104327
 21
5.695485107
 31
0.0
 11
8.498977634
 21
5.6940147777
 31
0.0
 11
8.4992447983
 21
5.692946289
 31
0.0
 11
8.499378342
 21
5.692563203
 31
0.0
 11
8.4995118469
 21
5.692281139
 31
0.0
  0
SPLINE
  5
3DD
100
AcDbEntity
  8
0
100
AcDbSpline
 62
6
  6
CONTINUOUS
 70
0
 71
3
 72
15
 73
11
 74
9
 42
0.0000001
 43
0.0000001
 44
0.0000000001
 12
-0.016148487
 22
0.3407483223
 32
0.0
 13
-0.014126054
 23
0.3408381542
 33
0.0
 40
0.0
 40
0.0
 40
0.0
 40
0.0
 40
0.0983333116
 40
0.2158446563
 40
0.3472662481
 40
0.4867031227
 40
0.627899432
 40
0.7645201145
 40
0.8904359891
 40
1.0
 40
1.0
 40
1.0
 40
1.0
 10
8.3469719688
 20
5.7627134965
 30
0.0
 10
8.3464426574
 20
5.7738824668
 30
0.0
 10
8.3454439694
 20
5.7984063314
 30
0.0
 10
8.3440791236
 20
5.8378705117
 30
0.0
 10
8.3427071724
 20
5.8820108965
 30
0.0
 10
8.3413310953
 20
5.9288455349
 30
0.0
 10
8.3399543268
 20
5.9762715948
 30
0.0
 10
8.3385797092
 20
6.0221596064
 30
0.0
 10
8.3372100121
 20
6.0644491107
 30
0.0
 10
8.3362234112
 20
6.0912076453
 30
0.0
 10
8.3357075089
 20
6.1036555104
 30
0.0
 11
8.3469719688
 21
5.7627134965
 31
0.0
 11
8.3455639115
 21
5.7962284482
 31
0.0
 11
8.344155854
 21
5.8362904453
 31
0.0
 11
8.3427477966
 21
5.881100275
 31
0.0
 11
8.3413397391
 21
5.9286456362
 31
0.0
 11
8.3399316816
 21
5.9767914546
 31
0.0
 11
8.3385236241
 21
6.0233756961
 31
0.0
 11
8.3371155665
 21
6.0663063889
 31
0.0
 11
8.3357075089
 21
6.1036555104
 31
0.0
  0
SPLINE
  5
3DE
100
AcDbEntity
  8
0
100
AcDbSpline
 62
6
  6
CONTINUOUS
 70
0
 71
3
 72
9
 73
5
 74
3
 42
0.0000001
 43
0.0000001
 44
0.0000000001
 12
-0.0197971649
 22
-0.017117659
 32
0.0
 13
-0.0248222791
 23
-0.0082943625
 33
0.0
 40
0.0
 40
0.0
 40
0.0
 40
0.0
 40
0.4858484295
 40
1.0
 40
1.0
 40
1.0
 40
1.0
 10
7.408234434
 20
5.7426876763
 30
0.0
 10
7.4050282935
 20
5.7399154804
 30
0.0
 10
7.3977394075
 20
5.7349819489
 30
0.0
 10
7.3896582443
 20
5.7315703895
 30
0.0
 10
7.3854041063
 20
5.7301488696
 30
0.0
 11
7.408234434
 21
5.7426876763
 31
0.0
 11
7.3977586899
 21
5.7354808429
 31
0.0
 11
7.3854041063
 21
5.7301488696
 31
0.0
  0
SPLINE
  5
3DF
100
AcDbEntity
  8
0
100
AcDbSpline
 62
6
  6
CONTINUOUS
 70
0
 71
3
 72
15
 73
11
 74
9
 42
0.0000001
 43
0.0000001
 44
0.0000000001
 12
0.0044952013
 22
0.0
 32
0.0
 13
0.000644933
 23
-0.004448696
 33
0.0
 40
0.0
 40
0.0
 40
0.0
 40
0.0
 40
0.0369839634
 40
0.0620349528
 40
0.0929089898
 40
0.1739929908
 40
0.2824302629
 40
0.4189896622
 40
0.5840144014
 40
1.0
 40
1.0
 40
1.0
 40
1.0
 10
8.5206513835
 20
6.1920167727
 30
0.0
 10
8.5207068003
 20
6.1920167727
 30
0.0
 10
8.5207970854
 20
6.1919671566
 30
0.0
 10
8.520887532
 20
6.1918626222
 30
0.0
 10
8.5209991295
 20
6.1916889543
 30
0.0
 10
8.5211299083
 20
6.1913844225
 30
0.0
 10
8.5212788234
 20
6.1909187766
 30
0.0
 10
8.5214283915
 20
6.1903225358
 30
0.0
 10
8.521646406
 20
6.1892695047
 30
0.0
 10
8.5217828751
 20
6.1884091988
 30
0.0
 10
8.5218723027
 20
6.1877923343
 30
0.0
 11
8.5206513835
 21
6.1920167727
 31
0.0
 11
8.5208038272
 21
6.1919504396
 31
0.0
 11
8.5208800794
 21
6.1918675755
 31
0.0
 11
8.5209563493
 21
6.1917516265
 31
0.0
 11
8.5211089351
 21
6.1914206133
 31
0.0
 11
8.5212615697
 21
6.1909576796
 31
0.0
 11
8.5214142386
 21
6.1903631052
 31
0.0
 11
8.5215669268
 21
6.1896371697
 31
0.0
 11
8.5218723027
 21
6.1877923343
 31
0.0
  0
LINE
  5
3E0
100
AcDbEntity
  8
0
100
AcDbLine
 62
6
  6
CONTINUOUS
 10
8.5218723027
 20
6.1877923343
 11
8.5230944359
 21
6.1752453105
  0
SPLINE
  5
3E1
100
AcDbEntity
  8
0
100
AcDbSpline
 62
6
  6
CONTINUOUS
 70
0
 71
3
 72
22
 73
18
 74
16
 42
0.0000001
 43
0.0000001
 44
0.0000000001
 12
0.0338364874
 22
-0.4593485013
 32
0.0
 13
0.0291533328
 23
-0.4596694864
 33
0.0
 40
0.0
 40
0.0
 40
0.0
 40
0.0
 40
0.0156818794
 40
0.0339833199
 40
0.0780534842
 40
0.1312737286
 40
0.1925113898
 40
0.2604630704
 40
0.333678286
 40
0.489551678
 40
0.646879372
 40
0.7218848795
 40
0.7922905089
 40
0.8565933372
 40
0.9134226707
 40
0.9615665668
 40
1.0
 40
1.0
 40
1.0
 40
1.0
 10
8.5230944359
 20
6.1752453105
 30
0.0
 10
8.5232713092
 20
6.1728441613
 30
0.0
 10
8.5236166158
 20
6.1676379668
 30
0.0
 10
8.5242989184
 20
6.1556736789
 30
0.0
 10
8.5251239598
 20
6.1379455324
 30
0.0
 10
8.5260731408
 20
6.1136249905
 30
0.0
 10
8.5270264982
 20
6.0856355996
 30
0.0
 10
8.5279833441
 20
6.0545749289
 30
0.0
 10
8.5292886634
 20
6.0089886903
 30
0.0
 10
8.5308681726
 20
5.9496828116
 30
0.0
 10
8.5324417157
 20
5.8901018273
 30
0.0
 10
8.533741185
 20
5.8436401816
 30
0.0
 10
8.5346988304
 20
5.8114567983
 30
0.0
 10
8.5356540426
 20
5.7820652866
 30
0.0
 10
8.536604753
 20
5.7560934043
 30
0.0
 10
8.5375494138
 20
5.7340962203
 30
0.0
 10
8.5382511929
 20
5.7208218628
 30
0.0
 10
8.5386246804
 20
5.7149329707
 30
0.0
 11
8.5230944359
 21
6.1752453105
 31
0.0
 11
8.5235797254
 21
6.168038667
 31
0.0
 11
8.5240650484
 21
6.1596231334
 31
0.0
 11
8.5250356921
 21
6.1393479429
 31
0.0
 11
8.526006305
 21
6.1148542922
 31
0.0
 11
8.5269769208
 21
6.0866653568
 31
0.0
 11
8.5279475701
 21
6.0553823403
 31
0.0
 11
8.5289182492
 21
6.0216738943
 31
0.0
 11
8.5308595735
 21
5.9499059456
 31
0.0
 11
8.5328008611
 21
5.8774679117
 31
0.0
 11
8.5337715325
 21
5.8429345358
 31
0.0
 11
8.5347421767
 21
5.8105207225
 31
0.0
 11
8.5357127933
 21
5.7809191957
 31
0.0
 11
8.5366834054
 21
5.7547620019
 31
0.0
 11
8.537654033
 21
5.7326085113
 31
0.0
 11
8.5386246804
 21
5.7149329707
 31
0.0
  0
LINE
  5
3E2
100
AcDbEntity
  8
0
100
AcDbLine
 62
6
  6
CONTINUOUS
 10
8.5386246804
 20
5.7149329707
 11
8.5386618787
 21
5.7143500237
  0
SPLINE
  5
3E3
100
AcDbEntity
  8
0
100
AcDbSpline
 62
6
  6
CONTINUOUS
 70
0
 71
3
 72
15
 73
11
 74
9
 42
0.0000001
 43
0.0000001
 44
0.0000000001
 12
0.0012258545
 22
-0.016641642
 32
0.0
 13
0.0083354143
 23
-0.0144557198
 33
0.0
 40
0.0
 40
0.0
 40
0.0
 40
0.0
 40
0.3902823922
 40
0.5507482558
 40
0.6877823938
 40
0.8011788624
 40
0.8908563957
 40
0.9569420679
 40
0.9812812578
 40
1.0
 40
1.0
 40
1.0
 40
1.0
 10
8.5390433459
 20
5.7087882266
 30
0.0
 10
8.5392028224
 20
5.7066232466
 30
0.0
 10
8.5394467395
 20
5.7035693101
 30
0.0
 10
8.5398242734
 20
5.6997622212
 30
0.0
 10
8.5400877254
 20
5.6974918794
 30
0.0
 10
8.5403491305
 20
5.695617821
 30
0.0
 10
8.5406089468
 20
5.6941434338
 30
0.0
 10
8.5408369148
 20
5.6931660864
 30
0.0
 10
8.5410312409
 20
5.6925906448
 30
0.0
 10
8.5411298702
 20
5.6923713379
 30
0.0
 10
8.5411818797
 20
5.6922811403
 30
0.0
 11
8.5390433459
 21
5.7087882266
 31
0.0
 11
8.5395778465
 21
5.7022976605
 31
0.0
 11
8.5398451198
 21
5.6996333825
 31
0.0
 11
8.5401124363
 21
5.6973624096
 31
0.0
 11
8.5403798154
 21
5.6954891795
 31
0.0
 11
8.5406472336
 21
5.694016843
 31
0.0
 11
8.5409146148
 21
5.6929469957
 31
0.0
 11
8.5410482667
 21
5.6925634751
 31
0.0
 11
8.5411818797
 21
5.6922811403
 31
0.0
  0
SPLINE
  5
3E4
100
AcDbEntity
  8
0
100
AcDbSpline
 62
6
  6
CONTINUOUS
 70
0
 71
3
 72
15
 73
11
 74
9
 42
0.0000001
 43
0.0000001
 44
0.0000000001
 12
0.004493908
 22
0.0
 32
0.0
 13
0.0006448416
 23
-0.0044474024
 33
0.0
 40
0.0
 40
0.0
 40
0.0
 40
0.0
 40
0.0369880557
 40
0.062040371
 40
0.0929153146
 40
0.174000156
 40
0.2824373086
 40
0.4189958369
 40
0.5840190689
 40
1.0
 40
1.0
 40
1.0
 40
1.0
 10
8.5623213959
 20
6.1920167727
 30
0.0
 10
8.5623768028
 20
6.1920167727
 30
0.0
 10
8.5624670721
 20
6.1919671749
 30
0.0
 10
8.5625575075
 20
6.1918626702
 30
0.0
 10
8.5626690873
 20
6.1916890561
 30
0.0
 10
8.5627998468
 20
6.1913846166
 30
0.0
 10
8.5629487392
 20
6.1909191114
 30
0.0
 10
8.5630982846
 20
6.1903230509
 30
0.0
 10
8.5633162655
 20
6.1892703396
 30
0.0
 10
8.5634527138
 20
6.1884102934
 30
0.0
 10
8.5635421278
 20
6.1877936152
 30
0.0
 11
8.5623213959
 21
6.1920167727
 31
0.0
 11
8.5624738163
 21
6.1919504597
 31
0.0
 11
8.5625500568
 21
6.1918676209
 31
0.0
 11
8.562626315
 21
6.1917517071
 31
0.0
 11
8.5627788774
 21
6.1914207944
 31
0.0
 11
8.5629314886
 21
6.1909580012
 31
0.0
 11
8.563084134
 21
6.1903636071
 31
0.0
 11
8.5632367988
 21
6.1896378917
 31
0.0
 11
8.5635421278
 21
6.1877936152
 31
0.0
  0
LINE
  5
3E5
100
AcDbEntity
  8
0
100
AcDbLine
 62
6
  6
CONTINUOUS
 10
8.5635421278
 20
6.1877936152
 11
8.564764076
 21
6.1752503179
  0
SPLINE
  5
3E6
100
AcDbEntity
  8
0
100
AcDbSpline
 62
6
  6
CONTINUOUS
 70
0
 71
3
 72
22
 73
18
 74
16
 42
0.0000001
 43
0.0000001
 44
0.0000000001
 12
0.0338416421
 22
-0.4593531489
 32
0.0
 13
0.0291536051
 23
-0.4596744929
 33
0.0
 40
0.0
 40
0.0
 40
0.0
 40
0.0
 40
0.0156800897
 40
0.0339798846
 40
0.0780471649
 40
0.1312655793
 40
0.1925014782
 40
0.2604504114
 40
0.333663419
 40
0.489535877
 40
0.6468672467
 40
0.7218758566
 40
0.7922852269
 40
0.8565909191
 40
0.9134211322
 40
0.9615659416
 40
1.0
 40
1.0
 40
1.0
 40
1.0
 10
8.564764076
 20
6.1752503179
 30
0.0
 10
8.564940956
 20
6.1728494183
 30
0.0
 10
8.565286273
 20
6.1676436962
 30
0.0
 10
8.5659685944
 20
6.1556802504
 30
0.0
 10
8.5667936565
 20
6.1379528888
 30
0.0
 10
8.5677428514
 20
6.1136330774
 30
0.0
 10
8.5686962203
 20
6.0856443557
 30
0.0
 10
8.5696530657
 20
6.0545843784
 30
0.0
 10
8.5709583954
 20
6.0089985481
 30
0.0
 10
8.5725379295
 20
5.9496919421
 30
0.0
 10
8.5741115056
 20
5.8901094121
 30
0.0
 10
8.575411017
 20
5.8436456458
 30
0.0
 10
8.5763687093
 20
5.8114604222
 30
0.0
 10
8.5773239534
 20
5.7820674415
 30
0.0
 10
8.5782746928
 20
5.7560945617
 30
0.0
 10
8.5792193712
 20
5.734096767
 30
0.0
 10
8.5799211648
 20
5.7208220288
 30
0.0
 10
8.5802946619
 20
5.7149329768
 30
0.0
 11
8.564764076
 21
6.1752503179
 31
0.0
 11
8.5652493761
 21
6.1680444224
 31
0.0
 11
8.5657347097
 21
6.1596295568
 31
0.0
 11
8.5667053732
 21
6.1393554759
 31
0.0
 11
8.5676760111
 21
6.1148624027
 31
0.0
 11
8.5686466441
 21
6.0866739729
 31
0.0
 11
8.5696172877
 21
6.0553918814
 31
0.0
 11
8.5705879643
 21
6.0216840855
 31
0.0
 11
8.5725293088
 21
5.9499157859
 31
0.0
 11
8.5744706522
 21
5.8774752708
 31
0.0
 11
8.5754413629
 21
5.8429400903
 31
0.0
 11
8.5764120591
 21
5.8105242015
 31
0.0
 11
8.5773827166
 21
5.7809210337
 31
0.0
 11
8.5783533454
 21
5.7547631499
 31
0.0
 11
8.5793239935
 21
5.7326089977
 31
0.0
 11
8.5802946619
 21
5.7149329768
 31
0.0
  0
LINE
  5
3E7
100
AcDbEntity
  8
0
100
AcDbLine
 62
6
  6
CONTINUOUS
 10
8.5802946619
 20
5.7149329768
 11
8.5803318706
 21
5.7143498672
  0
SPLINE
  5
3E8
100
AcDbEntity
  8
0
100
AcDbSpline
 62
6
  6
CONTINUOUS
 70
0
 71
3
 72
15
 73
11
 74
9
 42
0.0000001
 43
0.0000001
 44
0.0000000001
 12
0.0012256596
 22
-0.0166366232
 32
0.0
 13
0.0083329168
 23
-0.0144513657
 33
0.0
 40
0.0
 40
0.0
 40
0.0
 40
0.0
 40
0.3902770589
 40
0.550741427
 40
0.687774937
 40
0.801171713
 40
0.8908505456
 40
0.9569385797
 40
0.9812793726
 40
1.0
 40
1.0
 40
1.0
 40
1.0
 10
8.580713696
 20
5.7087832192
 30
0.0
 10
8.580873145
 20
5.7066189218
 30
0.0
 10
8.5811170202
 20
5.7035659444
 30
0.0
 10
8.5814944881
 20
5.6997600471
 30
0.0
 10
8.5817578944
 20
5.6974904023
 30
0.0
 10
8.5820192546
 20
5.6956169068
 30
0.0
 10
8.5822790263
 20
5.6941429464
 30
0.0
 10
8.5825069556
 20
5.69316587
 30
0.0
 10
8.5827012467
 20
5.6925905749
 30
0.0
 10
8.582799858
 20
5.6923713182
 30
0.0
 10
8.5828518571
 20
5.6922811387
 30
0.0
 11
8.580713696
 21
5.7087832192
 31
0.0
 11
8.5812481035
 21
5.7022947005
 31
0.0
 11
8.5815153302
 21
5.6996312523
 31
0.0
 11
8.5817826001
 21
5.6973609771
 31
0.0
 11
8.5820499327
 21
5.6954883101
 31
0.0
 11
8.5823173042
 21
5.6940164007
 31
0.0
 11
8.5825846387
 21
5.692946843
 31
0.0
 11
8.5827182674
 21
5.6925634153
 31
0.0
 11
8.5828518571
 21
5.6922811387
 31
0.0
  0
SPLINE
  5
3E9
100
AcDbEntity
  8
0
100
AcDbSpline
 62
6
  6
CONTINUOUS
 70
0
 71
3
 72
9
 73
5
 74
3
 42
0.0000001
 43
0.0000001
 44
0.0000000001
 12
0.0070655114
 22
-0.0131608487
 32
0.0
 13
0.0095670719
 23
-0.0114717272
 33
0.0
 40
0.0
 40
0.0
 40
0.0
 40
0.0
 40
0.2480681725
 40
1.0
 40
1.0
 40
1.0
 40
1.0
 10
7.2694777052
 20
5.7644425836
 30
0.0
 10
7.270061948
 20
5.7633543211
 30
0.0
 10
7.2725305273
 20
5.7590290116
 30
0.0
 10
7.2754445207
 20
5.7549595
 30
0.0
 10
7.2778424493
 20
5.7520841811
 30
0.0
 11
7.2694777052
 21
5.7644425836
 31
0.0
 11
7.2713141097
 21
5.7612241191
 31
0.0
 11
7.2778424493
 21
5.7520841811
 31
0.0
  0
SPLINE
  5
3EA
100
AcDbEntity
  8
0
100
AcDbSpline
 62
6
  6
CONTINUOUS
 70
0
 71
3
 72
9
 73
5
 74
3
 42
0.0000001
 43
0.0000001
 44
0.0000000001
 12
0.031707637
 22
-0.0038936061
 32
0.0
 13
0.030363418
 23
-0.0099296153
 33
0.0
 40
0.0
 40
0.0
 40
0.0
 40
0.0
 40
0.2503295364
 40
1.0
 40
1.0
 40
1.0
 40
1.0
 10
7.3747206253
 20
5.8403484003
 30
0.0
 10
7.3773664113
 20
5.8400235054
 30
0.0
 10
7.3878951797
 20
5.8383920987
 30
0.0
 10
7.3982184882
 20
5.8356002879
 30
0.0
 10
7.4058060074
 20
5.8331189748
 30
0.0
 11
7.3747206253
 21
5.8403484003
 31
0.0
 11
7.3826248596
 21
5.8391340103
 31
0.0
 11
7.4058060074
 21
5.8331189748
 31
0.0
  0
SPLINE
  5
3EB
100
AcDbEntity
  8
0
100
AcDbSpline
 62
6
  6
CONTINUOUS
 70
0
 71
3
 72
15
 73
11
 74
9
 42
0.0000001
 43
0.0000001
 44
0.0000000001
 12
0.004489799
 22
0.0
 32
0.0
 13
0.0006445536
 23
-0.0044432922
 33
0.0
 40
0.0
 40
0.0
 40
0.0
 40
0.0
 40
0.0370011741
 40
0.0620577191
 40
0.0929355373
 40
0.1740229903
 40
0.2824596773
 40
0.4190153589
 40
0.5840337595
 40
1.0
 40
1.0
 40
1.0
 40
1.0
 10
8.6039913449
 20
6.1920167727
 30
0.0
 10
8.6040467209
 20
6.1920167727
 30
0.0
 10
8.6041369398
 20
6.1919672334
 30
0.0
 10
8.6042273405
 20
6.1918628229
 30
0.0
 10
8.6043388642
 20
6.1916893803
 30
0.0
 10
8.6044695629
 20
6.1913852347
 30
0.0
 10
8.6046183837
 20
6.1909201769
 30
0.0
 10
8.6047678576
 20
6.19032469
 30
0.0
 10
8.6049857327
 20
6.1892729946
 30
0.0
 10
8.6051221155
 20
6.1884137734
 30
0.0
 10
8.6052114864
 20
6.1877976869
 30
0.0
 11
8.6039913449
 21
6.1920167727
 31
0.0
 11
8.6041436918
 21
6.191950524
 31
0.0
 11
8.6042198954
 21
6.1918677653
 31
0.0
 11
8.6042961168
 21
6.1917519637
 31
0.0
 11
8.6044486054
 21
6.191421371
 31
0.0
 11
8.6046011428
 21
6.1909590248
 31
0.0
 11
8.6047537143
 21
6.1903652043
 31
0.0
 11
8.6049063052
 21
6.1896401885
 31
0.0
 11
8.6052114864
 21
6.1877976869
 31
0.0
  0
LINE
  5
3EC
100
AcDbEntity
  8
0
100
AcDbLine
 62
6
  6
CONTINUOUS
 10
8.6052114864
 20
6.1877976869
 11
8.6064328518
 21
6.1752662357
  0
SPLINE
  5
3ED
100
AcDbEntity
  8
0
100
AcDbSpline
 62
6
  6
CONTINUOUS
 70
0
 71
3
 72
22
 73
18
 74
16
 42
0.0000001
 43
0.0000001
 44
0.0000000001
 12
0.0338582466
 22
-0.4593678707
 32
0.0
 13
0.0291546462
 23
-0.4596903611
 33
0.0
 40
0.0
 40
0.0
 40
0.0
 40
0.0
 40
0.0156743553
 40
0.0339689158
 40
0.078027275
 40
0.1312390024
 40
0.1924702899
 40
0.2604161854
 40
0.3336273712
 40
0.4895018736
 40
0.6468414543
 40
0.7218555622
 40
0.7922708963
 40
0.8565820784
 40
0.9134163287
 40
0.9615640476
 40
1.0
 40
1.0
 40
1.0
 40
1.0
 10
8.6064328518
 20
6.1752662357
 30
0.0
 10
8.6066097538
 20
6.1728661373
 30
0.0
 10
8.6069551057
 20
6.1676619246
 30
0.0
 10
8.6076374918
 20
6.1557011268
 30
0.0
 10
8.6084626151
 20
6.1379763578
 30
0.0
 10
8.6094118709
 20
6.1136588147
 30
0.0
 10
8.6103653026
 20
6.08567133
 30
0.0
 10
8.6113222082
 20
6.054611736
 30
0.0
 10
8.612627635
 20
6.0090247657
 30
0.0
 10
8.6142072826
 20
5.9497148183
 30
0.0
 10
8.6157809631
 20
5.890127813
 30
0.0
 10
8.617080574
 20
5.8436594223
 30
0.0
 10
8.6180383529
 20
5.8114704852
 30
0.0
 10
8.6189936788
 20
5.7820741116
 30
0.0
 10
8.6199444957
 20
5.756098426
 30
0.0
 10
8.620889245
 20
5.7340985148
 30
0.0
 10
8.6215910917
 20
5.7208225812
 30
0.0
 10
8.6219646206
 20
5.7149330356
 30
0.0
 11
8.6064328518
 21
6.1752662357
 31
0.0
 11
8.6069181876
 21
6.1680627401
 31
0.0
 11
8.6074035568
 21
6.1596500001
 31
0.0
 11
8.6083742914
 21
6.139379335
 31
0.0
 11
8.6093450021
 21
6.1148885002
 31
0.0
 11
8.6103157075
 21
6.0867012238
 31
0.0
 11
8.6112864174
 21
6.0554194533
 31
0.0
 11
8.612257153
 21
6.0217113338
 31
0.0
 11
8.6141986286
 21
5.9499396161
 31
0.0
 11
8.6161401246
 21
5.8774928188
 31
0.0
 11
8.6171109186
 21
5.8429539139
 31
0.0
 11
8.6180817057
 21
5.8105341595
 31
0.0
 11
8.6190524521
 21
5.7809274413
 31
0.0
 11
8.6200231586
 21
5.7547667952
 31
0.0
 11
8.6209938795
 21
5.7326105384
 31
0.0
 11
8.6219646206
 21
5.7149330356
 31
0.0
  0
LINE
  5
3EE
100
AcDbEntity
  8
0
100
AcDbLine
 62
6
  6
CONTINUOUS
 10
8.6219646206
 20
5.7149330356
 11
8.622001863
 21
5.7143494018
  0
SPLINE
  5
3EF
100
AcDbEntity
  8
0
100
AcDbSpline
 62
6
  6
CONTINUOUS
 70
0
 71
3
 72
15
 73
11
 74
9
 42
0.0000001
 43
0.0000001
 44
0.0000000001
 12
0.0012250476
 22
-0.0166206655
 32
0.0
 13
0.0083249664
 23
-0.0144375274
 33
0.0
 40
0.0
 40
0.0
 40
0.0
 40
0.0
 40
0.3902602156
 40
0.5507195983
 40
0.6877508674
 40
0.8011484929
 40
0.8908315009
 40
0.9569272221
 40
0.9812732372
 40
1.0
 40
1.0
 40
1.0
 40
1.0
 10
8.6223848322
 20
5.7087673013
 30
0.0
 10
8.6225441946
 20
5.7066051731
 30
0.0
 10
8.6227879383
 20
5.7035552462
 30
0.0
 10
8.6231651991
 20
5.6997531396
 30
0.0
 10
8.6234284622
 20
5.6974857142
 30
0.0
 10
8.6236896815
 20
5.6956140107
 30
0.0
 10
8.6239493132
 20
5.6941414075
 30
0.0
 10
8.6241771213
 20
5.693165191
 30
0.0
 10
8.6243713021
 20
5.6925903598
 30
0.0
 10
8.624469857
 20
5.6923712613
 30
0.0
 10
8.6245218235
 20
5.6922811386
 30
0.0
 11
8.6223848322
 21
5.7087673013
 31
0.0
 11
8.6229189473
 21
5.7022852898
 31
0.0
 11
8.6231860279
 21
5.6996244843
 31
0.0
 11
8.6234531515
 21
5.6973564316
 31
0.0
 11
8.6237203378
 21
5.6954855575
 31
0.0
 11
8.6239875629
 21
5.6940150054
 31
0.0
 11
8.6242547512
 21
5.6929463663
 31
0.0
 11
8.6243883068
 21
5.6925632324
 31
0.0
 11
8.6245218235
 21
5.6922811386
 31
0.0
  0
SPLINE
  5
3F0
100
AcDbEntity
  8
0
100
AcDbSpline
 62
6
  6
CONTINUOUS
 70
0
 71
3
 72
17
 73
13
 74
11
 42
0.0000001
 43
0.0000001
 44
0.0000000001
 12
-0.0134058834
 22
0.0000248513
 32
0.0
 13
-0.0011656779
 23
0.0133551309
 33
0.0
 40
0.0
 40
0.0
 40
0.0
 40
0.0
 40
0.0260964002
 40
0.0480086082
 40
0.0768757314
 40
0.1129761346
 40
0.1564444783
 40
0.2073527469
 40
0.2657384776
 40
0.4049230212
 40
0.5738570659
 40
1.0
 40
1.0
 40
1.0
 40
1.0
 10
8.393037133
 20
5.7145670709
 30
0.0
 10
8.3929205179
 20
5.7145672871
 30
0.0
 10
8.3927457685
 20
5.7147591268
 30
0.0
 10
8.392597246
 20
5.7150542362
 30
0.0
 10
8.3924560477
 20
5.7154215634
 30
0.0
 10
8.3923186782
 20
5.7158847147
 30
0.0
 10
8.3921789179
 20
5.7164515509
 30
0.0
 10
8.3920392968
 20
5.7171196616
 30
0.0
 10
8.3918406923
 20
5.7182122961
 30
0.0
 10
8.3915986073
 20
5.7198323804
 30
0.0
 10
8.3911958676
 20
5.7230889116
 30
0.0
 10
8.3909437837
 20
5.7257366317
 30
0.0
 10
8.3907782019
 20
5.7276336966
 30
0.0
 11
8.393037133
 21
5.7145670709
 31
0.0
 11
8.3927547666
 21
5.7147736172
 31
0.0
 11
8.3926135834
 21
5.715031218
 31
0.0
 11
8.3924724003
 21
5.7153915353
 31
0.0
 11
8.3923312171
 21
5.7158544427
 31
0.0
 11
8.3921900339
 21
5.7164198138
 31
0.0
 11
8.3920488507
 21
5.7170875223
 31
0.0
 11
8.3919076675
 21
5.7178573976
 31
0.0
 11
8.3916253011
 21
5.7197018035
 31
0.0
 11
8.3913429347
 21
5.7219488457
 31
0.0
 11
8.3907782019
 21
5.7276336966
 31
0.0
  0
LINE
  5
3F1
100
AcDbEntity
  8
0
100
AcDbLine
 62
6
  6
CONTINUOUS
 10
8.3907782019
 20
5.7276336966
 11
8.3895265953
 21
5.7456948957
  0
SPLINE
  5
3F2
100
AcDbEntity
  8
0
100
AcDbSpline
 62
6
  6
CONTINUOUS
 70
0
 71
3
 72
21
 73
17
 74
15
 42
0.0000001
 43
0.0000001
 44
0.0000000001
 12
-0.023662238
 22
0.4097812923
 32
0.0
 13
-0.0350083653
 23
0.4089682426
 33
0.0
 40
0.0
 40
0.0
 40
0.0
 40
0.0
 40
0.0443162301
 40
0.0973033521
 40
0.1579053857
 40
0.2249145657
 40
0.3727008257
 40
0.5289088272
 40
0.6811152133
 40
0.7518963425
 40
0.8172174901
 40
0.8757727251
 40
0.9263952742
 40
0.9680792597
 40
0.9853028704
 40
1.0
 40
1.0
 40
1.0
 40
1.0
 10
8.3895265953
 20
5.7456948957
 30
0.0
 10
8.3891770549
 20
5.7517482164
 30
0.0
 10
8.3885065533
 20
5.7650448066
 30
0.0
 10
8.3875873433
 20
5.7866301483
 30
0.0
 10
8.3866639993
 20
5.8113226788
 30
0.0
 10
8.3853873053
 20
5.848981327
 30
0.0
 10
8.3838449245
 20
5.8997191651
 30
0.0
 10
8.3820399801
 20
5.9621109947
 30
0.0
 10
8.3805052393
 20
6.0139703606
 30
0.0
 10
8.379238073
 20
6.0533968008
 30
0.0
 10
8.3783125377
 20
6.0800140429
 30
0.0
 10
8.3773904877
 20
6.1038715145
 30
0.0
 10
8.3764725681
 20
6.124492292
 30
0.0
 10
8.3756741402
 20
6.1394575359
 30
0.0
 10
8.3750132882
 20
6.1495066369
 30
0.0
 10
8.3746788228
 20
6.1538614148
 30
0.0
 10
8.3745073153
 20
6.1558649679
 30
0.0
 11
8.3895265953
 21
5.7456948957
 31
0.0
 11
8.3885878907
 21
5.7638608711
 31
0.0
 11
8.387649186
 21
5.7855899048
 31
0.0
 11
8.3867104813
 21
5.8104471333
 31
0.0
 11
8.3857717765
 21
5.8379359592
 31
0.0
 11
8.3838943668
 21
5.898567824
 31
0.0
 11
8.3820169568
 21
5.9626580769
 31
0.0
 11
8.3801395467
 21
6.0251050881
 31
0.0
 11
8.3792008416
 21
6.0541430173
 31
0.0
 11
8.3782621365
 21
6.0809385526
 31
0.0
 11
8.3773234312
 21
6.1049550244
 31
0.0
 11
8.376384726
 21
6.1257125386
 31
0.0
 11
8.3754460207
 21
6.1427965398
 31
0.0
 11
8.374976668
 21
6.1498506129
 31
0.0
 11
8.3745073153
 21
6.1558649679
 31
0.0
  0
LINE
  5
3F3
100
AcDbEntity
  8
0
100
AcDbLine
 62
6
  6
CONTINUOUS
 10
8.3745073153
 20
6.1558649679
 11
8.3738809763
 21
6.1622173331
  0
SPLINE
  5
3F4
100
AcDbEntity
  8
0
100
AcDbSpline
 62
6
  6
CONTINUOUS
 70
0
 71
3
 72
15
 73
11
 74
9
 42
0.0000001
 43
0.0000001
 44
0.0000000001
 12
0.0045050828
 22
0.0
 32
0.0
 13
0.0006456252
 23
-0.0044585804
 33
0.0
 40
0.0
 40
0.0
 40
0.0
 40
0.0
 40
0.0369524943
 40
0.0619933533
 40
0.0928605173
 40
0.173938307
 40
0.2823767456
 40
0.418943004
 40
0.583979329
 40
1.0
 40
1.0
 40
1.0
 40
1.0
 10
8.6873313886
 20
6.1920167727
 30
0.0
 10
8.68738688
 20
6.1920167727
 30
0.0
 10
8.687477286
 20
6.1919670159
 30
0.0
 10
8.6875678159
 20
6.1918622548
 30
0.0
 10
8.6876795481
 20
6.1916881741
 30
0.0
 10
8.6878104729
 20
6.1913829355
 30
0.0
 10
8.6879595598
 20
6.1909162136
 30
0.0
 10
8.6881092999
 20
6.1903185932
 30
0.0
 10
8.6883275685
 20
6.1892631189
 30
0.0
 10
8.6884641948
 20
6.1884008293
 30
0.0
 10
8.688553726
 20
6.1877825421
 30
0.0
 11
8.6873313886
 21
6.1920167727
 31
0.0
 11
8.687484009
 21
6.191950285
 31
0.0
 11
8.6875603496
 21
6.191867228
 31
0.0
 11
8.6876367081
 21
6.1917510091
 31
0.0
 11
8.687789471
 21
6.1914192261
 31
0.0
 11
8.687942283
 21
6.1909552171
 31
0.0
 11
8.6880951293
 21
6.1903592632
 31
0.0
 11
8.6882479951
 21
6.1896316453
 31
0.0
 11
8.688553726
 21
6.1877825421
 31
0.0
  0
LINE
  5
3F5
100
AcDbEntity
  8
0
100
AcDbLine
 62
6
  6
CONTINUOUS
 10
8.688553726
 20
6.1877825421
 11
8.6897772593
 21
6.1752070308
  0
SPLINE
  5
3F6
100
AcDbEntity
  8
0
100
AcDbSpline
 62
6
  6
CONTINUOUS
 70
0
 71
3
 72
22
 73
18
 74
16
 42
0.0000001
 43
0.0000001
 44
0.0000000001
 12
0.0337967021
 22
-0.4593138826
 32
0.0
 13
0.02915065
 23
-0.4596321349
 33
0.0
 40
0.0
 40
0.0
 40
0.0
 40
0.0
 40
0.0156958393
 40
0.0340100682
 40
0.0781021041
 40
0.1313397053
 40
0.1925900979
 40
0.2605483038
 40
0.3337615566
 40
0.4896229397
 40
0.6469314352
 40
0.7219231049
 40
0.7923172265
 40
0.8566113644
 40
0.9134325454
 40
0.9615696934
 40
1.0
 40
1.0
 40
1.0
 40
1.0
 10
8.6897772593
 20
6.1752070308
 30
0.0
 10
8.6899540818
 20
6.1728039252
 30
0.0
 10
8.6902993085
 20
6.1675940358
 30
0.0
 10
8.6909814629
 20
6.1556232393
 30
0.0
 10
8.6918063715
 20
6.137888538
 30
0.0
 10
8.6927554203
 20
6.1135619885
 30
0.0
 10
8.6937086376
 20
6.0855692471
 30
0.0
 10
8.694665309
 20
6.0545084425
 30
0.0
 10
8.6959703426
 20
6.0089270487
 30
0.0
 10
8.6975495285
 20
5.9496310805
 30
0.0
 10
8.6991228014
 20
5.8900618541
 30
0.0
 10
8.7004220321
 20
5.8436108229
 30
0.0
 10
8.7013795048
 20
5.8114352808
 30
0.0
 10
8.7023345609
 20
5.7820505107
 30
0.0
 10
8.7032851264
 20
5.7560843617
 30
0.0
 10
8.7042296242
 20
5.7340917322
 30
0.0
 10
8.7049313194
 20
5.7208199709
 30
0.0
 10
8.7053047422
 20
5.7149320363
 30
0.0
 11
8.6897772593
 21
6.1752070308
 31
0.0
 11
8.6902624686
 21
6.1679945265
 31
0.0
 11
8.6907477115
 21
6.1595737753
 31
0.0
 11
8.6917181936
 21
6.1392901446
 31
0.0
 11
8.6926886515
 21
6.1147904822
 31
0.0
 11
8.6936591169
 21
6.0865979691
 31
0.0
 11
8.6946295935
 21
6.0553144863
 31
0.0
 11
8.6956000514
 21
6.0216096811
 31
0.0
 11
8.6975409798
 21
5.9498530935
 31
0.0
 11
8.6994819113
 21
5.8774297887
 31
0.0
 11
8.7004523697
 21
5.8429055922
 31
0.0
 11
8.7014228352
 21
5.8104997134
 31
0.0
 11
8.7023933057
 21
5.7809045956
 31
0.0
 11
8.7033637587
 21
5.7547532827
 31
0.0
 11
8.7043342169
 21
5.7326047002
 31
0.0
 11
8.7053047422
 21
5.7149320363
 31
0.0
  0
LINE
  5
3F7
100
AcDbEntity
  8
0
100
AcDbLine
 62
6
  6
CONTINUOUS
 10
8.7053047422
 20
5.7149320363
 11
8.7053408558
 21
5.7143659824
  0
SPLINE
  5
3F8
100
AcDbEntity
  8
0
100
AcDbSpline
 62
6
  6
CONTINUOUS
 70
0
 71
3
 72
15
 73
11
 74
9
 42
0.0000001
 43
0.0000001
 44
0.0000000001
 12
0.0012452661
 22
-0.017149775
 32
0.0
 13
0.0085890333
 23
-0.0148961061
 33
0.0
 40
0.0
 40
0.0
 40
0.0
 40
0.0
 40
0.390810016
 40
0.5514308932
 40
0.6885348789
 40
0.8019058923
 40
0.8914527401
 40
0.9572972483
 40
0.9814729447
 40
1.0
 40
1.0
 40
1.0
 40
1.0
 10
8.7056862751
 20
5.7092951089
 30
0.0
 10
8.7058484959
 20
5.7070610076
 30
0.0
 10
8.706096588
 20
5.7039098875
 30
0.0
 10
8.7064806946
 20
5.6999820366
 30
0.0
 10
8.7067486867
 20
5.6976410038
 30
0.0
 10
8.70701455
 20
5.6957098858
 30
0.0
 10
8.707278797
 20
5.6941923132
 30
0.0
 10
8.7075106042
 20
5.6931876286
 30
0.0
 10
8.7077084209
 20
5.6925974632
 30
0.0
 10
8.7078088384
 20
5.6923731441
 30
0.0
 10
8.7078618815
 20
5.6922811504
 30
0.0
 11
8.7056862751
 21
5.7092951089
 31
0.0
 11
8.7062300523
 21
5.702597197
 31
0.0
 11
8.7065019624
 21
5.6998487506
 31
0.0
 11
8.7067739146
 21
5.697506996
 31
0.0
 11
8.7070459285
 21
5.6955766611
 31
0.0
 11
8.7073179805
 21
5.6940611341
 31
0.0
 11
8.7075899922
 21
5.692962104
 31
0.0
 11
8.7077259573
 21
5.6925692689
 31
0.0
 11
8.7078618815
 21
5.6922811504
 31
0.0
  0
SPLINE
  5
3F9
100
AcDbEntity
  8
0
100
AcDbSpline
 62
6
  6
CONTINUOUS
 70
0
 71
3
 72
18
 73
14
 74
12
 42
0.0000001
 43
0.0000001
 44
0.0000000001
 12
0.0120623516
 22
-0.0120623516
 32
0.0
 13
0.0008185065
 23
-0.0170390933
 33
0.0
 40
0.0
 40
0.0
 40
0.0
 40
0.0
 40
0.0107431536
 40
0.0279960987
 40
0.0521079645
 40
0.0831873634
 40
0.1212749754
 40
0.1663854625
 40
0.2776770276
 40
0.4169832875
 40
0.5840267878
 40
0.7784782642
 40
1.0
 40
1.0
 40
1.0
 40
1.0
 10
8.7625218275
 20
6.1779014008
 30
0.0
 10
8.7625650234
 20
6.1778582049
 30
0.0
 10
8.7626377553
 20
6.1777113757
 30
0.0
 10
8.762727993
 20
6.1774309464
 30
0.0
 10
8.762820107
 20
6.177028138
 30
0.0
 10
8.762913596
 20
6.17650632
 30
0.0
 10
8.7630078007
 20
6.1758631521
 30
0.0
 10
8.7631437238
 20
6.1747656232
 30
0.0
 10
8.7633080782
 20
6.1730919447
 30
0.0
 10
8.7634962087
 20
6.1707245567
 30
0.0
 10
8.7636853726
 20
6.1678830953
 30
0.0
 10
8.7638754637
 20
6.1645733464
 30
0.0
 10
8.7639948732
 20
6.1622110177
 30
0.0
 10
8.7640553122
 20
6.1609528412
 30
0.0
 11
8.7625218275
 21
6.1779014008
 31
0.0
 11
8.7626172724
 21
6.1777449521
 31
0.0
 11
8.7627128033
 21
6.1774665741
 31
0.0
 11
8.7628084113
 21
6.177066522
 31
0.0
 11
8.7629040876
 21
6.176545051
 31
0.0
 11
8.7629998235
 21
6.1759024162
 31
0.0
 11
8.7630956103
 21
6.1751388729
 31
0.0
 11
8.7632873012
 21
6.1732500812
 31
0.0
 11
8.7634791065
 21
6.170881445
 31
0.0
 11
8.7636710313
 21
6.1680383638
 31
0.0
 11
8.7638630937
 21
6.1647268313
 31
0.0
 11
8.7640553122
 21
6.1609528412
 31
0.0
  0
SPLINE
  5
3FA
100
AcDbEntity
  8
0
100
AcDbSpline
 62
6
  6
CONTINUOUS
 70
0
 71
3
 72
16
 73
12
 74
10
 42
0.0000001
 43
0.0000001
 44
0.0000000001
 12
0.0151107213
 22
-0.3145643724
 32
0.0
 13
0.0064745841
 23
-0.3148605375
 33
0.0
 40
0.0
 40
0.0
 40
0.0
 40
0.0
 40
0.0316010509
 40
0.0699326163
 40
0.1652122934
 40
0.2820068655
 40
0.4155465181
 40
0.5602947974
 40
0.7101920905
 40
0.8588786026
 40
1.0
 40
1.0
 40
1.0
 40
1.0
 10
8.7640553122
 20
6.1609528412
 30
0.0
 10
8.7642144837
 20
6.1576393196
 30
0.0
 10
8.7645205864
 20
6.1503043482
 30
0.0
 10
8.7651229004
 20
6.1329714719
 30
0.0
 10
8.765843638
 20
6.1066945539
 30
0.0
 10
8.7666748728
 20
6.0704230018
 30
0.0
 10
8.7675134987
 20
6.0289573749
 30
0.0
 10
8.7683586358
 20
5.9840162772
 30
0.0
 10
8.769207747
 20
5.9374849262
 30
0.0
 10
8.770059631
 20
5.8913344275
 30
0.0
 10
8.7706518908
 20
5.8609173888
 30
0.0
 10
8.7709564583
 20
5.8461062025
 30
0.0
 11
8.7640553122
 21
6.1609528412
 31
0.0
 11
8.7644806818
 21
6.1510099086
 31
0.0
 11
8.7649068456
 21
6.1389457847
 31
0.0
 11
8.7657614567
 21
6.1089518049
 31
0.0
 11
8.766619209
 21
6.0721800318
 31
0.0
 11
8.7674801653
 21
6.0301335899
 31
0.0
 11
8.768344315
 21
5.9845566256
 31
0.0
 11
8.7692117294
 21
5.9373578758
 31
0.0
 11
8.7700823913
 21
5.8905405589
 31
0.0
 11
8.7709564583
 21
5.8461062025
 31
0.0
  0
SPLINE
  5
3FB
100
AcDbEntity
  8
0
100
AcDbSpline
 62
6
  6
CONTINUOUS
 70
0
 71
3
 72
12
 73
8
 74
6
 42
0.0000001
 43
0.0000001
 44
0.0000000001
 12
-0.0025847114
 22
-0.0044744983
 32
0.0
 13
-0.0006943723
 23
-0.005120519
 33
0.0
 40
0.0
 40
0.0
 40
0.0
 40
0.0
 40
0.0617295862
 40
0.1409837139
 40
0.3537303616
 40
0.6399529854
 40
1.0
 40
1.0
 40
1.0
 40
1.0
 10
8.7573174455
 20
6.1691771775
 30
0.0
 10
8.7572642611
 20
6.1690851078
 30
0.0
 10
8.7571628447
 20
6.168863474
 30
0.0
 10
8.7569629639
 20
6.1682875744
 30
0.0
 10
8.7567276352
 20
6.1673179795
 30
0.0
 10
8.7564595483
 20
6.1658628428
 30
0.0
 10
8.7562981843
 20
6.1647611017
 30
0.0
 10
8.7562148488
 20
6.1641465591
 30
0.0
 11
8.7573174455
 21
6.1691771775
 31
0.0
 11
8.7571796209
 21
6.1688895093
 31
0.0
 11
8.7570417963
 21
6.168503861
 31
0.0
 11
8.7567661471
 21
6.1674396362
 31
0.0
 11
8.7564904979
 21
6.1659865275
 31
0.0
 11
8.7562148488
 21
6.1641465591
 31
0.0
  0
SPLINE
  5
3FC
100
AcDbEntity
  8
0
100
AcDbSpline
 62
6
  6
CONTINUOUS
 70
0
 71
3
 72
12
 73
8
 74
6
 42
0.0000001
 43
0.0000001
 44
0.0000000001
 12
-0.0027697751
 22
0.0047953012
 32
0.0
 13
-0.0007205358
 23
0.0054906644
 33
0.0
 40
0.0
 40
0.0
 40
0.0
 40
0.0
 40
0.0605413798
 40
0.1389582646
 40
0.3510800434
 40
0.6380079289
 40
1.0
 40
1.0
 40
1.0
 40
1.0
 10
8.7364824673
 20
5.7148563503
 30
0.0
 10
8.736426572
 20
5.7149531217
 30
0.0
 10
8.7363204212
 20
5.7151877422
 30
0.0
 10
8.7361113256
 20
5.7158014768
 30
0.0
 10
8.7358658304
 20
5.7168407492
 30
0.0
 10
8.7355860429
 20
5.7184053019
 30
0.0
 10
8.7354178447
 20
5.7195916315
 30
0.0
 10
8.7353309019
 20
5.7202541572
 30
0.0
 11
8.7364824673
 21
5.7148563503
 31
0.0
 11
8.7363385162
 21
5.7151591357
 31
0.0
 11
8.7361945649
 21
5.7155688345
 31
0.0
 11
8.7359066652
 21
5.7167076829
 31
0.0
 11
8.7356187751
 21
5.7182703168
 31
0.0
 11
8.7353309019
 21
5.7202541572
 31
0.0
  0
SPLINE
  5
3FD
100
AcDbEntity
  8
0
100
AcDbSpline
 62
6
  6
CONTINUOUS
 70
0
 71
3
 72
11
 73
7
 74
5
 42
0.0000001
 43
0.0000001
 44
0.0000000001
 12
-0.0043511363
 22
0.0331567556
 32
0.0
 13
-0.0017383823
 23
0.033395821
 33
0.0
 40
0.0
 40
0.0
 40
0.0
 40
0.0
 40
0.1691875971
 40
0.3935753828
 40
0.6714577694
 40
1.0
 40
1.0
 40
1.0
 40
1.0
 10
8.7353309019
 20
5.7202541572
 30
0.0
 10
8.7350855158
 20
5.7221240611
 30
0.0
 10
8.734634883
 20
5.7264892805
 30
0.0
 10
8.7340383294
 20
5.7339502869
 30
0.0
 10
8.7334375936
 20
5.7431921933
 30
0.0
 10
8.7330643443
 20
5.749941751
 30
0.0
 10
8.732873967
 20
5.7535990635
 30
0.0
 11
8.7353309019
 21
5.7202541572
 31
0.0
 11
8.7347167427
 21
5.7258785331
 31
0.0
 11
8.7341024344
 21
5.7333571049
 31
0.0
 11
8.7334879227
 21
5.7426294389
 31
0.0
 11
8.732873967
 21
5.7535990635
 31
0.0
  0
LINE
  5
3FE
100
AcDbEntity
  8
0
100
AcDbLine
 62
6
  6
CONTINUOUS
 10
8.7274285815
 20
5.7173121812
 11
8.7267317618
 21
5.7148568734
  0
SPLINE
  5
3FF
100
AcDbEntity
  8
0
100
AcDbSpline
 62
6
  6
CONTINUOUS
 70
0
 71
3
 72
12
 73
8
 74
6
 42
0.0000001
 43
0.0000001
 44
0.0000000001
 12
-0.0020782484
 22
0.000003614
 32
0.0
 13
-0.0004666437
 23
0.0020251847
 33
0.0
 40
0.0
 40
0.0
 40
0.0
 40
0.0
 40
0.1152860883
 40
0.2006962379
 40
0.3094501777
 40
0.6023495711
 40
1.0
 40
1.0
 40
1.0
 40
1.0
 10
8.7680670933
 20
5.7145676555
 30
0.0
 10
8.7679872289
 20
5.7145677944
 30
0.0
 10
8.7678588672
 20
5.7146621051
 30
0.0
 10
8.7677401044
 20
5.7148362014
 30
0.0
 10
8.7675847594
 20
5.7151385474
 30
0.0
 10
8.7674060613
 20
5.7156634149
 30
0.0
 10
8.7672873513
 20
5.716127243
 30
0.0
 10
8.7672254976
 20
5.7163956816
 30
0.0
 11
8.7680670933
 21
5.7145676555
 31
0.0
 11
8.7678566989
 21
5.714682282
 31
0.0
 11
8.7677514997
 21
5.7148252531
 31
0.0
 11
8.7676462996
 21
5.7150252958
 31
0.0
 11
8.7674358982
 21
5.715596496
 31
0.0
 11
8.7672254976
 21
5.7163956816
 31
0.0
  0
SPLINE
  5
400
100
AcDbEntity
  8
0
100
AcDbSpline
 62
6
  6
CONTINUOUS
 70
0
 71
3
 72
10
 73
6
 74
4
 42
0.0000001
 43
0.0000001
 44
0.0000000001
 12
-0.002112667
 22
0.0091687537
 32
0.0
 13
-0.000883163
 23
0.0093674666
 33
0.0
 40
0.0
 40
0.0
 40
0.0
 40
0.0
 40
0.1729414395
 40
0.3974601167
 40
1.0
 40
1.0
 40
1.0
 40
1.0
 10
8.7672254976
 20
5.7163956816
 30
0.0
 10
8.7671037084
 20
5.716924234
 30
0.0
 10
8.7668756535
 20
5.7181506725
 30
0.0
 10
8.7664258777
 20
5.721254793
 30
0.0
 10
8.7661592243
 20
5.7238360739
 30
0.0
 10
8.765981844
 20
5.725717498
 30
0.0
 11
8.7672254976
 21
5.7163956816
 31
0.0
 11
8.7669145788
 21
5.7179929081
 31
0.0
 11
8.7666036652
 21
5.7200824007
 31
0.0
 11
8.765981844
 21
5.725717498
 31
0.0
  0
SPLINE
  5
401
100
AcDbEntity
  8
0
100
AcDbSpline
 62
6
  6
CONTINUOUS
 70
0
 71
3
 72
27
 73
23
 74
21
 42
0.0000001
 43
0.0000001
 44
0.0000000001
 12
-0.0412558505
 22
0.437589419
 32
0.0
 13
-0.0632627519
 23
0.4349532953
 33
0.0
 40
0.0
 40
0.0
 40
0.0
 40
0.0
 40
0.0148238635
 40
0.0328468791
 40
0.0780073036
 40
0.1342826066
 40
0.2001678383
 40
0.2738975058
 40
0.35349425
 40
0.4368224621
 40
0.5216457911
 40
0.6056873203
 40
0.6866912329
 40
0.7624838526
 40
0.8310321664
 40
0.8904987595
 40
0.9163188751
 40
0.9392923259
 40
0.9592674467
 40
0.9761130296
 40
0.9897168575
 40
1.0
 40
1.0
 40
1.0
 40
1.0
 10
8.765981844
 20
5.725717498
 30
0.0
 10
8.7657779869
 20
5.7278797532
 30
0.0
 10
8.7653859182
 20
5.7326764889
 30
0.0
 10
8.7646138809
 20
5.7440794007
 30
0.0
 10
8.763691556
 20
5.7615577465
 30
0.0
 10
8.7626333468
 20
5.7860491579
 30
0.0
 10
8.7615692169
 20
5.8147294498
 30
0.0
 10
8.7604998433
 20
5.846828362
 30
0.0
 10
8.7594281041
 20
5.8814840798
 30
0.0
 10
8.7583549149
 20
5.9177658081
 30
0.0
 10
8.7572812369
 20
5.9546990042
 30
0.0
 10
8.756207828
 20
5.9912915328
 30
0.0
 10
8.7551354592
 20
6.026560421
 30
0.0
 10
8.7540654022
 20
6.0595583868
 30
0.0
 10
8.7529986473
 20
6.0893992157
 30
0.0
 10
8.7520776449
 20
6.1119189713
 30
0.0
 10
8.7513226498
 20
6.1277622441
 30
0.0
 10
8.7507846155
 20
6.1378232553
 30
0.0
 10
8.7502483308
 20
6.1465673414
 30
0.0
 10
8.7497156987
 20
6.1539361425
 30
0.0
 10
8.7491868119
 20
6.1598804687
 30
0.0
 10
8.7487875398
 20
6.1633584816
 30
0.0
 10
8.7485706932
 20
6.1648493772
 30
0.0
 11
8.765981844
 21
5.725717498
 31
0.0
 11
8.7654377469
 21
5.7322102715
 31
0.0
 11
8.7648936471
 21
5.7401132181
 31
0.0
 11
8.7638054492
 21
5.7599327241
 31
0.0
 11
8.7627172524
 21
5.7846434541
 31
0.0
 11
8.7616290551
 21
5.813581531
 31
0.0
 11
8.760540858
 21
5.8459696496
 31
0.0
 11
8.759452661
 21
5.8809378717
 31
0.0
 11
8.758364464
 21
5.9175469439
 31
0.0
 11
8.757276267
 21
5.9548134498
 31
0.0
 11
8.7561880701
 21
5.9917361835
 31
0.0
 11
8.7550998732
 21
6.0273231924
 31
0.0
 11
8.7540116764
 21
6.0606185379
 31
0.0
 11
8.7529234797
 21
6.0907279142
 31
0.0
 11
8.751835283
 21
6.116842598
 31
0.0
 11
8.7512911846
 21
6.1281782607
 31
0.0
 11
8.7507470863
 21
6.1382611097
 31
0.0
 11
8.750202988
 21
6.147023897
 31
0.0
 11
8.7496588897
 21
6.1544080158
 31
0.0
 11
8.7491147914
 21
6.1603624979
 31
0.0
 11
8.7485706932
 21
6.1648493772
 31
0.0
  0
LINE
  5
402
100
AcDbEntity
  8
0
100
AcDbLine
 62
6
  6
CONTINUOUS
 10
8.7485706932
 20
6.1648493772
 11
8.7480646363
 21
6.1676762459
  0
LINE
  5
403
100
AcDbEntity
  8
0
100
AcDbLine
 62
6
  6
CONTINUOUS
 10
8.7480179102
 20
6.1678712554
 11
8.7475667412
 21
6.1691769809
  0
SPLINE
  5
404
100
AcDbEntity
  8
0
100
AcDbSpline
 62
6
  6
CONTINUOUS
 70
0
 71
3
 72
9
 73
5
 74
3
 42
0.0000001
 43
0.0000001
 44
0.0000000001
 12
-0.002648796
 22
0.013080846
 32
0.0
 13
-0.0057085457
 23
0.0120638783
 33
0.0
 40
0.0
 40
0.0
 40
0.0
 40
0.0
 40
0.2488056366
 40
1.0
 40
1.0
 40
1.0
 40
1.0
 10
7.4074403982
 20
6.1010660508
 30
0.0
 10
7.4072207198
 20
6.1021509135
 30
0.0
 10
7.406203605
 20
6.1064831362
 30
0.0
 10
7.4046533974
 20
6.1106886652
 30
0.0
 10
7.4032239883
 20
6.1137094377
 30
0.0
 11
7.4074403982
 21
6.1010660508
 31
0.0
 11
7.4066815913
 21
6.1042988335
 31
0.0
 11
7.4032239883
 21
6.1137094377
 31
0.0
  0
SPLINE
  5
405
100
AcDbEntity
  8
0
100
AcDbSpline
 62
6
  6
CONTINUOUS
 70
0
 71
3
 72
9
 73
5
 74
3
 42
0.0000001
 43
0.0000001
 44
0.0000000001
 12
-0.008491972
 22
0.0106391333
 32
0.0
 13
-0.0105615613
 23
0.0085882575
 33
0.0
 40
0.0
 40
0.0
 40
0.0
 40
0.0
 40
0.2478496183
 40
1.0
 40
1.0
 40
1.0
 40
1.0
 10
7.3960096361
 20
6.1252351764
 30
0.0
 10
7.3953080588
 20
6.1261141448
 30
0.0
 10
7.3923797636
 20
6.1295817405
 30
0.0
 10
7.3890727115
 20
6.1327273337
 30
0.0
 10
7.3864247507
 20
6.1348805541
 30
0.0
 11
7.3960096361
 21
6.1252351764
 31
0.0
 11
7.3938332383
 21
6.1278132489
 31
0.0
 11
7.3864247507
 21
6.1348805541
 31
0.0
  0
SPLINE
  5
406
100
AcDbEntity
  8
0
100
AcDbSpline
 62
6
  6
CONTINUOUS
 70
0
 71
3
 72
9
 73
5
 74
3
 42
0.0000001
 43
0.0000001
 44
0.0000000001
 12
-0.0108631186
 22
0.0088334723
 32
0.0
 13
-0.0124287015
 23
0.006447089
 33
0.0
 40
0.0
 40
0.0
 40
0.0
 40
0.0
 40
0.2483401149
 40
1.0
 40
1.0
 40
1.0
 40
1.0
 10
7.3864247507
 20
6.1348805541
 30
0.0
 10
7.3855255014
 20
6.1356117893
 30
0.0
 10
7.3818272977
 20
6.138460338
 30
0.0
 10
7.377834728
 20
6.140924725
 30
0.0
 10
7.3747206759
 20
6.1425400643
 30
0.0
 11
7.3864247507
 21
6.1348805541
 31
0.0
 11
7.3836705223
 21
6.1370029147
 31
0.0
 11
7.3747206759
 21
6.1425400643
 31
0.0
  0
SPLINE
  5
407
100
AcDbEntity
  8
0
100
AcDbSpline
 62
6
  6
CONTINUOUS
 70
0
 71
3
 72
19
 73
15
 74
13
 42
0.0000001
 43
0.0000001
 44
0.0000000001
 12
-0.039430133
 22
-0.0000590862
 32
0.0
 13
-0.0020497189
 23
0.0393768654
 33
0.0
 40
0.0
 40
0.0
 40
0.0
 40
0.0
 40
0.0074095048
 40
0.0132906788
 40
0.0209316307
 40
0.03041931
 40
0.0417958366
 40
0.0702898338
 40
0.1504223995
 40
0.2613531601
 40
0.4025891683
 40
0.5735031056
 40
0.7730897349
 40
1.0
 40
1.0
 40
1.0
 40
1.0
 10
8.7263971143
 20
5.7145669267
 30
0.0
 10
8.7262997284
 20
5.7145667808
 30
0.0
 10
8.7261471487
 20
5.7147051821
 30
0.0
 10
8.7260135622
 20
5.7149369866
 30
0.0
 10
8.7258904781
 20
5.7152167618
 30
0.0
 10
8.7257701998
 20
5.7155708462
 30
0.0
 10
8.7255940736
 20
5.716195892
 30
0.0
 10
8.7252619004
 20
5.7177385213
 30
0.0
 10
8.7248440363
 20
5.7205960194
 30
0.0
 10
8.7243676451
 20
5.7249374868
 30
0.0
 10
8.7238869466
 20
5.730477898
 30
0.0
 10
8.7234019627
 20
5.7371864168
 30
0.0
 10
8.7229152729
 20
5.7450234462
 30
0.0
 10
8.7226090011
 20
5.7506207252
 30
0.0
 10
8.722453967
 20
5.7535990635
 30
0.0
 11
8.7263971143
 21
5.7145669267
 31
0.0
 11
8.7261506625
 21
5.7147238275
 31
0.0
 11
8.7260274351
 21
5.7149202725
 31
0.0
 11
8.7259042072
 21
5.7151952033
 31
0.0
 11
8.7257809794
 21
5.7155484262
 31
0.0
 11
8.7256577522
 21
5.715979747
 31
0.0
 11
8.7254113019
 21
5.7170759072
 31
0.0
 11
8.7249184337
 21
5.7201968708
 31
0.0
 11
8.724425606
 21
5.7245430378
 31
0.0
 11
8.7239327099
 21
5.7300901432
 31
0.0
 11
8.7234396271
 21
5.7368112472
 31
0.0
 11
8.7229465507
 21
5.7446655214
 31
0.0
 11
8.722453967
 21
5.7535990635
 31
0.0
  0
SPLINE
  5
408
100
AcDbEntity
  8
0
100
AcDbSpline
 62
6
  6
CONTINUOUS
 70
0
 71
3
 72
11
 73
7
 74
5
 42
0.0000001
 43
0.0000001
 44
0.0000000001
 12
0.0017599825
 22
-0.0371628685
 32
0.0
 13
0.0045781595
 23
-0.0369217658
 33
0.0
 40
0.0
 40
0.0
 40
0.0
 40
0.0
 40
0.3315052903
 40
0.6102569412
 40
0.8337150456
 40
1.0
 40
1.0
 40
1.0
 40
1.0
 10
8.7458932156
 20
5.734918829
 30
0.0
 10
8.7460876968
 20
5.7308122665
 30
0.0
 10
8.7464683331
 20
5.7232536993
 30
0.0
 10
8.7470820824
 20
5.7129322539
 30
0.0
 10
8.7476910681
 20
5.7046642886
 30
0.0
 10
8.7481526959
 20
5.6998516492
 30
0.0
 10
8.7484064556
 20
5.6978051378
 30
0.0
 11
8.7458932156
 21
5.734918829
 31
0.0
 11
8.7465214838
 21
5.722601346
 31
0.0
 11
8.7471498355
 21
5.7122495775
 31
0.0
 11
8.7477781873
 21
5.7039597056
 31
0.0
 11
8.7484064556
 21
5.6978051378
 31
0.0
  0
LINE
  5
409
100
AcDbEntity
  8
0
100
AcDbLine
 62
6
  6
CONTINUOUS
 10
8.7345173598
 20
6.191752556
 11
8.7351206434
 21
6.1896783282
  0
SPLINE
  5
40A
100
AcDbEntity
  8
0
100
AcDbSpline
 62
6
  6
CONTINUOUS
 70
0
 71
3
 72
12
 73
8
 74
6
 42
0.0000001
 43
0.0000001
 44
0.0000000001
 12
0.0054420679
 22
-0.0279929381
 32
0.0
 13
0.0015722674
 23
-0.0284736486
 33
0.0
 40
0.0
 40
0.0
 40
0.0
 40
0.0
 40
0.0643407722
 40
0.1463577283
 40
0.3629090695
 40
0.6482398376
 40
1.0
 40
1.0
 40
1.0
 40
1.0
 10
8.7351206434
 20
6.1896783282
 30
0.0
 10
8.735237359
 20
6.1890779658
 30
0.0
 10
8.7354579868
 20
6.1877037184
 30
0.0
 10
8.7358930207
 20
6.1842813493
 30
0.0
 10
8.7364070198
 20
6.1787535949
 30
0.0
 10
8.7369943021
 20
6.1706603974
 30
0.0
 10
8.7373520124
 20
6.1646147709
 30
0.0
 10
8.7375363661
 20
6.1612761391
 30
0.0
 11
8.7351206434
 21
6.1896783282
 31
0.0
 11
8.7354226087
 21
6.1878685395
 31
0.0
 11
8.735724574
 21
6.1855492348
 31
0.0
 11
8.7363285047
 21
6.1794034369
 31
0.0
 11
8.7369324354
 21
6.1712890959
 31
0.0
 11
8.7375363661
 21
6.1612761391
 31
0.0
  0
SPLINE
  5
40B
100
AcDbEntity
  8
0
100
AcDbSpline
 62
6
  6
CONTINUOUS
 70
0
 71
3
 72
16
 73
12
 74
10
 42
0.0000001
 43
0.0000001
 44
0.0000000001
 12
0.0195291005
 22
-0.3536705959
 32
0.0
 13
0.011151024
 23
-0.354033799
 33
0.0
 40
0.0
 40
0.0
 40
0.0
 40
0.0
 40
0.0379699112
 40
0.0820226658
 40
0.1864912171
 40
0.3090477539
 40
0.4445731516
 40
0.5874029779
 40
0.7315709489
 40
0.8710407039
 40
1.0
 40
1.0
 40
1.0
 40
1.0
 10
8.7375363661
 20
6.1612761391
 30
0.0
 10
8.7377835389
 20
6.1567998588
 30
0.0
 10
8.7382653567
 20
6.1471273132
 30
0.0
 10
8.7392135972
 20
6.1251286732
 30
0.0
 10
8.7403579651
 20
6.0931426913
 30
0.0
 10
8.7416794504
 20
6.0503567953
 30
0.0
 10
8.7430062245
 20
6.0030397782
 30
0.0
 10
8.7443363915
 20
5.9531702931
 30
0.0
 10
8.7456669013
 20
5.9028349374
 30
0.0
 10
8.7469957604
 20
5.8541378169
 30
0.0
 10
8.7479271129
 20
5.8224580799
 30
0.0
 10
8.7484064556
 20
5.80723943
 30
0.0
 11
8.7375363661
 21
6.1612761391
 31
0.0
 11
8.7382157467
 21
6.1478440111
 31
0.0
 11
8.7388951272
 21
6.1322549096
 31
0.0
 11
8.7402538882
 21
6.095276125
 31
0.0
 11
8.7416126491
 21
6.0518867216
 31
0.0
 11
8.7429714119
 21
6.0039015898
 31
0.0
 11
8.7443301662
 21
5.9533281769
 31
0.0
 11
8.7456889513
 21
5.902280612
 31
0.0
 11
8.7470476499
 21
5.852897806
 31
0.0
 11
8.7484064556
 21
5.80723943
 31
0.0
  0
LINE
  5
40C
100
AcDbEntity
  8
0
100
AcDbLine
 62
6
  6
CONTINUOUS
 10
8.7648914196
 20
5.708784059
 11
8.765270645
 21
5.7095073329
  0
SPLINE
  5
40D
100
AcDbEntity
  8
0
100
AcDbSpline
 62
6
  6
CONTINUOUS
 70
0
 71
3
 72
11
 73
7
 74
5
 42
0.0000001
 43
0.0000001
 44
0.0000000001
 12
0.0043428382
 22
0.0090557101
 32
0.0
 13
0.0021072421
 23
0.0098196568
 33
0.0
 40
0.0
 40
0.0
 40
0.0
 40
0.0
 40
0.1838099467
 40
0.411390643
 40
0.6833757339
 40
1.0
 40
1.0
 40
1.0
 40
1.0
 10
8.765270645
 20
5.7095073329
 30
0.0
 10
8.7655367306
 20
5.7100621761
 30
0.0
 10
8.76605051
 20
5.7113428124
 30
0.0
 10
8.7667474087
 20
5.7135227448
 30
0.0
 10
8.7674493658
 20
5.716164382
 30
0.0
 10
8.7678870442
 20
5.7180859937
 30
0.0
 10
8.7681094456
 20
5.7191223743
 30
0.0
 11
8.765270645
 21
5.7095073329
 31
0.0
 11
8.7659770305
 21
5.7112128804
 31
0.0
 11
8.7666855636
 21
5.7133859284
 31
0.0
 11
8.7673963376
 21
5.716023439
 31
0.0
 11
8.7681094456
 21
5.7191223743
 31
0.0
  0
SPLINE
  5
40E
100
AcDbEntity
  8
0
100
AcDbSpline
 62
6
  6
CONTINUOUS
 70
0
 71
3
 72
9
 73
5
 74
3
 42
0.0000001
 43
0.0000001
 44
0.0000000001
 12
0.0139979769
 22
0.0021461973
 32
0.0
 13
0.0132927433
 23
0.0048839016
 33
0.0
 40
0.0
 40
0.0
 40
0.0
 40
0.0
 40
0.2525098973
 40
1.0
 40
1.0
 40
1.0
 40
1.0
 10
7.3575357596
 20
5.7419071165
 30
0.0
 10
7.3587139688
 20
5.7420877619
 30
0.0
 10
7.3633615661
 20
5.7429175387
 30
0.0
 10
7.3679285911
 20
5.7442048028
 30
0.0
 10
7.3712406558
 20
5.7454216922
 30
0.0
 11
7.3575357596
 21
5.7419071165
 31
0.0
 11
7.36105596
 21
5.7425359856
 31
0.0
 11
7.3712406558
 21
5.7454216922
 31
0.0
  0
SPLINE
  5
40F
100
AcDbEntity
  8
0
100
AcDbSpline
 62
6
  6
CONTINUOUS
 70
0
 71
3
 72
9
 73
5
 74
3
 42
0.0000001
 43
0.0000001
 44
0.0000000001
 12
0.012843372
 22
0.0047187976
 32
0.0
 13
0.0115824112
 23
0.0072847105
 33
0.0
 40
0.0
 40
0.0
 40
0.0
 40
0.0
 40
0.2533396268
 40
1.0
 40
1.0
 40
1.0
 40
1.0
 10
7.3712406558
 20
5.7454216922
 30
0.0
 10
7.3723252341
 20
5.7458201784
 30
0.0
 10
7.3765655468
 20
5.7475014223
 30
0.0
 10
7.3806356015
 20
5.749616783
 30
0.0
 10
7.3835183107
 20
5.7514298512
 30
0.0
 11
7.3712406558
 21
5.7454216922
 31
0.0
 11
7.3744627853
 21
5.7466998918
 31
0.0
 11
7.3835183107
 21
5.7514298512
 31
0.0
  0
SPLINE
  5
410
100
AcDbEntity
  8
0
100
AcDbSpline
 62
6
  6
CONTINUOUS
 70
0
 71
3
 72
9
 73
5
 74
3
 42
0.0000001
 43
0.0000001
 44
0.0000000001
 12
0.0109471176
 22
0.0068851451
 32
0.0
 13
0.0091853229
 23
0.0091035406
 33
0.0
 40
0.0
 40
0.0
 40
0.0
 40
0.0
 40
0.2538210143
 40
1.0
 40
1.0
 40
1.0
 40
1.0
 10
7.3835183107
 20
5.7514298512
 30
0.0
 10
7.3844445135
 20
5.7520123827
 30
0.0
 10
7.388032063
 20
5.7544033091
 30
0.0
 10
7.3913654534
 20
5.7571791874
 30
0.0
 10
7.3936500851
 20
5.7594434776
 30
0.0
 11
7.3835183107
 21
5.7514298512
 31
0.0
 11
7.3862493302
 21
5.753250918
 31
0.0
 11
7.3936500851
 21
5.7594434776
 31
0.0
  0
SPLINE
  5
411
100
AcDbEntity
  8
0
100
AcDbSpline
 62
6
  6
CONTINUOUS
 70
0
 71
3
 72
9
 73
5
 74
3
 42
0.0000001
 43
0.0000001
 44
0.0000000001
 12
0.0132117843
 22
0.0130941521
 32
0.0
 13
0.0077298708
 23
0.0169191359
 33
0.0
 40
0.0
 40
0.0
 40
0.0
 40
0.0
 40
0.5067512448
 40
1.0
 40
1.0
 40
1.0
 40
1.0
 10
7.3936500851
 20
5.7594434776
 30
0.0
 10
7.3958817811
 20
5.7616553036
 30
0.0
 10
7.3999257064
 20
5.7664024396
 30
0.0
 10
7.4030497562
 20
5.771805292
 30
0.0
 10
7.4043206725
 20
5.774587073
 30
0.0
 11
7.3936500851
 21
5.7594434776
 31
0.0
 11
7.3997440883
 21
5.7666349236
 31
0.0
 11
7.4043206725
 21
5.774587073
 31
0.0
  0
SPLINE
  5
412
100
AcDbEntity
  8
0
100
AcDbSpline
 62
6
  6
CONTINUOUS
 70
0
 71
3
 72
11
 73
7
 74
5
 42
0.0000001
 43
0.0000001
 44
0.0000000001
 12
0.0019922536
 22
0.003454847
 32
0.0
 13
0.0005781092
 23
0.0039459893
 33
0.0
 40
0.0
 40
0.0
 40
0.0
 40
0.0
 40
0.1458304764
 40
0.3601800032
 40
0.6447212282
 40
1.0
 40
1.0
 40
1.0
 40
1.0
 10
8.7136823808
 20
5.69228112
 30
0.0
 10
8.7137792245
 20
5.6924490607
 30
0.0
 10
8.7139481148
 20
5.6929014504
 30
0.0
 10
8.7141649719
 20
5.6937298439
 30
0.0
 10
8.7143842551
 20
5.6948450694
 30
0.0
 10
8.7145173787
 20
5.6956850923
 30
0.0
 10
8.714585842
 20
5.696152401
 30
0.0
 11
8.7136823808
 21
5.69228112
 31
0.0
 11
8.7139081597
 21
5.6928170947
 31
0.0
 11
8.7141340281
 21
5.6936415655
 31
0.0
 11
8.7143599382
 21
5.6947536338
 31
0.0
 11
8.714585842
 21
5.696152401
 31
0.0
  0
SPLINE
  5
413
100
AcDbEntity
  8
0
100
AcDbSpline
 62
6
  6
CONTINUOUS
 70
0
 71
3
 72
16
 73
12
 74
10
 42
0.0000001
 43
0.0000001
 44
0.0000000001
 12
0.0007855839
 22
0.0066753646
 32
0.0
 13
0.0067214196
 23
-0.0000123406
 33
0.0
 40
0.0
 40
0.0
 40
0.0
 40
0.0
 40
0.2253500215
 40
0.4214941723
 40
0.5884104501
 40
0.7261377368
 40
0.8348415531
 40
0.9149974881
 40
0.9447873226
 40
0.968209836
 40
1.0
 40
1.0
 40
1.0
 40
1.0
 10
8.7327049141
 20
6.1855823108
 30
0.0
 10
8.7327639245
 20
6.1860837419
 30
0.0
 10
8.7328804801
 20
6.1870209139
 30
0.0
 10
8.7330668776
 20
6.1883260882
 30
0.0
 10
8.7332527459
 20
6.1894327294
 30
0.0
 10
8.7334369416
 20
6.1903406032
 30
0.0
 10
8.7336206893
 20
6.1910493734
 30
0.0
 10
8.7337808296
 20
6.1915131326
 30
0.0
 10
8.7339199262
 20
6.1917800408
 30
0.0
 10
8.7340266458
 20
6.191934063
 30
0.0
 10
8.7341416244
 20
6.1920165013
 30
0.0
 10
8.7342128494
 20
6.1920163706
 30
0.0
 11
8.7327049141
 21
6.1855823108
 31
0.0
 11
8.732893406
 21
6.1870852113
 31
0.0
 11
8.7330818979
 21
6.1883900364
 31
0.0
 11
8.7332703899
 21
6.1894960051
 31
0.0
 11
8.7334588818
 21
6.1904023365
 31
0.0
 11
8.7336473737
 21
6.1911082495
 31
0.0
 11
8.7338358656
 21
6.1916129632
 31
0.0
 11
8.7339301116
 21
6.1917896264
 31
0.0
 11
8.7340243575
 21
6.1919157327
 31
0.0
 11
8.7342128494
 21
6.1920163706
 31
0.0
  0
SPLINE
  5
414
100
AcDbEntity
  8
0
100
AcDbSpline
 62
6
  6
CONTINUOUS
 70
0
 71
3
 72
12
 73
8
 74
6
 42
0.0000001
 43
0.0000001
 44
0.0000000001
 12
-0.0025611887
 22
-0.0044357064
 32
0.0
 13
-0.0006604757
 23
-0.0050792667
 33
0.0
 40
0.0
 40
0.0
 40
0.0
 40
0.0
 40
0.060230361
 40
0.1383964199
 40
0.3502569004
 40
0.6373354249
 40
1.0
 40
1.0
 40
1.0
 40
1.0
 10
8.728696874
 20
6.1917531264
 30
0.0
 10
8.7286454536
 20
6.1916640717
 30
0.0
 10
8.7285478773
 20
6.1914478334
 30
0.0
 10
8.7283556722
 20
6.1908812539
 30
0.0
 10
8.7281301439
 20
6.1899202656
 30
0.0
 10
8.7278731044
 20
6.188471884
 30
0.0
 10
8.7277186832
 20
6.1873730282
 30
0.0
 10
8.7276388395
 20
6.1867590048
 30
0.0
 11
8.728696874
 21
6.1917531264
 31
0.0
 11
8.7285646197
 21
6.1914744114
 31
0.0
 11
8.7284323654
 21
6.1910965172
 31
0.0
 11
8.7281678568
 21
6.1900440926
 31
0.0
 11
8.7279033482
 21
6.1885976545
 31
0.0
 11
8.7276388395
 21
6.1867590048
 31
0.0
  0
SPLINE
  5
415
100
AcDbEntity
  8
0
100
AcDbSpline
 62
6
  6
CONTINUOUS
 70
0
 71
3
 72
13
 73
9
 74
7
 42
0.0000001
 43
0.0000001
 44
0.0000000001
 12
-0.0044941584
 22
-0.0077657609
 32
0.0
 13
-0.0009292555
 23
-0.0089241799
 33
0.0
 40
0.0
 40
0.0
 40
0.0
 40
0.0
 40
0.0526428267
 40
0.1254669808
 40
0.2190219783
 40
0.3334695454
 40
0.6250823391
 40
1.0
 40
1.0
 40
1.0
 40
1.0
 10
8.7156474992
 20
6.1691768798
 30
0.0
 10
8.7155686375
 20
6.1690406093
 30
0.0
 10
8.7154242991
 20
6.1686917535
 30
0.0
 10
8.7152370791
 20
6.1680640575
 30
0.0
 10
8.7150480514
 20
6.1672450886
 30
0.0
 10
8.7147713912
 20
6.1657765263
 30
0.0
 10
8.7144403089
 20
6.1634633998
 30
0.0
 10
8.7142159985
 20
6.1614825283
 30
0.0
 10
8.7140998671
 20
6.1603672507
 30
0.0
 11
8.7156474992
 21
6.1691768798
 31
0.0
 11
8.7154540452
 21
6.1687459796
 31
0.0
 11
8.7152605912
 21
6.1681218644
 31
0.0
 11
8.7150671372
 21
6.1673050448
 31
0.0
 11
8.7148736832
 21
6.1662965592
 31
0.0
 11
8.7144867751
 21
6.1637088487
 31
0.0
 11
8.7140998671
 21
6.1603672507
 31
0.0
  0
SPLINE
  5
416
100
AcDbEntity
  8
0
100
AcDbSpline
 62
6
  6
CONTINUOUS
 70
0
 71
3
 72
12
 73
8
 74
6
 42
0.0000001
 43
0.0000001
 44
0.0000000001
 12
-0.0028833521
 22
-0.0049902695
 32
0.0
 13
-0.0007358714
 23
-0.0057162052
 33
0.0
 40
0.0
 40
0.0
 40
0.0
 40
0.0
 40
0.0598420354
 40
0.137755628
 40
0.3494775298
 40
0.6368094722
 40
1.0
 40
1.0
 40
1.0
 40
1.0
 10
8.6739774926
 20
6.1691772376
 30
0.0
 10
8.6739199774
 20
6.1690776949
 30
0.0
 10
8.6738110171
 20
6.1688353308
 30
0.0
 10
8.6735964432
 20
6.1681988257
 30
0.0
 10
8.673344923
 20
6.1671172484
 30
0.0
 10
8.6730581803
 20
6.1654858375
 30
0.0
 10
8.6728859345
 20
6.1642476671
 30
0.0
 10
8.6727968473
 20
6.1635556432
 30
0.0
 11
8.6739774926
 21
6.1691772376
 31
0.0
 11
8.6738299119
 21
6.1688655156
 31
0.0
 11
8.6736823313
 21
6.1684414146
 31
0.0
 11
8.6733871699
 21
6.1672574178
 31
0.0
 11
8.6730920086
 21
6.1656279323
 31
0.0
 11
8.6727968473
 21
6.1635556432
 31
0.0
  0
SPLINE
  5
417
100
AcDbEntity
  8
0
100
AcDbSpline
 62
6
  6
CONTINUOUS
 70
0
 71
3
 72
11
 73
7
 74
5
 42
0.0000001
 43
0.0000001
 44
0.0000000001
 12
-0.0016134482
 22
-0.0027931022
 32
0.0
 13
-0.0005382848
 23
-0.0031803906
 33
0.0
 40
0.0
 40
0.0
 40
0.0
 40
0.0
 40
0.155578421
 40
0.3731567737
 40
0.6544108596
 40
1.0
 40
1.0
 40
1.0
 40
1.0
 10
8.6323074543
 20
6.1691766442
 30
0.0
 10
8.6322237817
 20
6.1690317954
 30
0.0
 10
8.6320718935
 20
6.1686576205
 30
0.0
 10
8.6318753187
 20
6.1679821409
 30
0.0
 10
8.6316767895
 20
6.1670954851
 30
0.0
 10
8.631555836
 20
6.1664323976
 30
0.0
 10
8.6314938275
 20
6.1660660281
 30
0.0
 11
8.6323074543
 21
6.1691766442
 31
0.0
 11
8.6321040476
 21
6.1687178783
 31
0.0
 11
8.6319006409
 21
6.1680461755
 31
0.0
 11
8.6316972342
 21
6.167162053
 31
0.0
 11
8.6314938275
 21
6.1660660281
 31
0.0
  0
LINE
  5
418
100
AcDbEntity
  8
0
100
AcDbLine
 62
6
  6
CONTINUOUS
 10
8.5906374513
 20
6.169176635
 11
8.5901908077
 21
6.1678902897
  0
LINE
  5
419
100
AcDbEntity
  8
0
100
AcDbLine
 62
6
  6
CONTINUOUS
 10
8.6948125031
 20
5.714856981
 11
8.6940741605
 21
5.7175371487
  0
SPLINE
  5
41A
100
AcDbEntity
  8
0
100
AcDbSpline
 62
6
  6
CONTINUOUS
 70
0
 71
3
 72
42
 73
38
 74
36
 42
0.0000001
 43
0.0000001
 44
0.0000000001
 12
-0.0806295213
 22
0.4454391103
 32
0.0
 13
-0.4526769355
 23
0.0008442323
 33
0.0
 40
0.0
 40
0.0
 40
0.0
 40
0.0
 40
0.0043590417
 40
0.0097728392
 40
0.0237254685
 40
0.0417587075
 40
0.0637165962
 40
0.0894180629
 40
0.1186371703
 40
0.1511271071
 40
0.1866029475
 40
0.2652709085
 40
0.3519252065
 40
0.4435724645
 40
0.5370460722
 40
0.6291160837
 40
0.6736251147
 40
0.7166012419
 40
0.7576702513
 40
0.7964793493
 40
0.832690107
 40
0.8659924224
 40
0.8960957088
 40
0.9227434539
 40
0.9457036879
 40
0.9647833478
 40
0.9728161427
 40
0.9798200037
 40
0.9857836283
 40
0.9906973738
 40
0.9927581845
 40
0.9945541042
 40
0.996085618
 40
0.9973547856
 40
0.9983656255
 40
0.9991266315
 40
1.0
 40
1.0
 40
1.0
 40
1.0
 10
8.6940741605
 20
5.7175371487
 30
0.0
 10
8.6939570047
 20
5.7181843779
 30
0.0
 10
8.6937328365
 20
5.7196423474
 30
0.0
 10
8.6932905003
 20
5.7231951231
 30
0.0
 10
8.6927637328
 20
5.7288148558
 30
0.0
 10
8.6921619492
 20
5.7369323932
 30
0.0
 10
8.6915562545
 20
5.7468266515
 30
0.0
 10
8.6909472627
 20
5.7584111148
 30
0.0
 10
8.6903363679
 20
5.7715866271
 30
0.0
 10
8.6897242849
 20
5.7862383602
 30
0.0
 10
8.6888775153
 20
5.8083481275
 30
0.0
 10
8.6878403181
 20
5.8386294134
 30
0.0
 10
8.6866293982
 20
5.8773853129
 30
0.0
 10
8.685416326
 20
5.9183762312
 30
0.0
 10
8.6842022973
 20
5.9601846505
 30
0.0
 10
8.683180076
 20
5.99488284
 30
0.0
 10
8.6823512325
 20
6.0219637047
 30
0.0
 10
8.6817368426
 20
6.0413518468
 30
0.0
 10
8.6811226983
 20
6.059879471
 30
0.0
 10
8.6805090292
 20
6.0773856799
 30
0.0
 10
8.6798958369
 20
6.0937192059
 30
0.0
 10
8.6792835354
 20
6.1087381339
 30
0.0
 10
8.6786722174
 20
6.1223128057
 30
0.0
 10
8.6780628329
 20
6.1343252985
 30
0.0
 10
8.6774555606
 20
6.1446720548
 30
0.0
 10
8.6769278293
 20
6.1522095284
 30
0.0
 10
8.6764945562
 20
6.1573392532
 30
0.0
 10
8.6761893067
 20
6.1604934112
 30
0.0
 10
8.6758851682
 20
6.163174512
 30
0.0
 10
8.6756205383
 20
6.1651090422
 30
0.0
 10
8.6754033549
 20
6.1664147199
 30
0.0
 10
8.6752507476
 20
6.1672131243
 30
0.0
 10
8.6750979234
 20
6.1678907316
 30
0.0
 10
8.6749479595
 20
6.1684436535
 30
0.0
 10
8.6747934796
 20
6.1688835127
 30
0.0
 10
8.6746339899
 20
6.1692291128
 30
0.0
 10
8.6744439249
 20
6.1694661902
 30
0.0
 10
8.6743121403
 20
6.169466436
 30
0.0
 11
8.6940741605
 21
5.7175371487
 31
0.0
 11
8.6937653791
 21
5.7194860803
 31
0.0
 11
8.6934565976
 21
5.7219172552
 31
0.0
 11
8.6928390346
 21
5.7282030355
 31
0.0
 11
8.6922214717
 21
5.7363428877
 31
0.0
 11
8.6916039087
 21
5.7462635316
 31
0.0
 11
8.6909863457
 21
5.7578816112
 31
0.0
 11
8.6903687826
 21
5.7710940253
 31
0.0
 11
8.6897512196
 21
5.7857885245
 31
0.0
 11
8.6891336566
 21
5.8018357684
 31
0.0
 11
8.6878985305
 21
5.8374255761
 31
0.0
 11
8.6866634043
 21
5.8766325963
 31
0.0
 11
8.6854282781
 21
5.9181008784
 31
0.0
 11
8.6841931518
 21
5.9603962678
 31
0.0
 11
8.6829580255
 21
6.0020560055
 31
0.0
 11
8.6823404623
 21
6.0221947856
 31
0.0
 11
8.6817228992
 21
6.0416393165
 31
0.0
 11
8.681105336
 21
6.0602200821
 31
0.0
 11
8.6804877728
 21
6.0777772383
 31
0.0
 11
8.6798702096
 21
6.0941574041
 31
0.0
 11
8.6792526464
 21
6.1092199657
 31
0.0
 11
8.6786350831
 21
6.1228330521
 31
0.0
 11
8.6780175199
 21
6.134880074
 31
0.0
 11
8.6773999566
 21
6.1452552971
 31
0.0
 11
8.6767823934
 21
6.1538701272
 31
0.0
 11
8.6764736118
 21
6.1574932603
 31
0.0
 11
8.6761648301
 21
6.1606486799
 31
0.0
 11
8.6758560485
 21
6.1633305624
 31
0.0
 11
8.6755472669
 21
6.1655333689
 31
0.0
 11
8.675392876
 21
6.1664533875
 31
0.0
 11
8.6752384852
 21
6.1672515657
 31
0.0
 11
8.6750840944
 21
6.1679274382
 31
0.0
 11
8.6749297036
 21
6.1684808288
 31
0.0
 11
8.6747753128
 21
6.1689115807
 31
0.0
 11
8.6746209219
 21
6.1692195372
 31
0.0
 11
8.6743121403
 21
6.169466436
 31
0.0
  0
SPLINE
  5
41B
100
AcDbEntity
  8
0
100
AcDbSpline
 62
6
  6
CONTINUOUS
 70
0
 71
3
 72
13
 73
9
 74
7
 42
0.0000001
 43
0.0000001
 44
0.0000000001
 12
-0.0030015337
 22
0.0
 32
0.0
 13
-0.0005293392
 23
0.0029544888
 33
0.0
 40
0.0
 40
0.0
 40
0.0
 40
0.0
 40
0.1002324274
 40
0.1830132345
 40
0.2916455842
 40
0.4272376631
 40
0.5903288603
 40
1.0
 40
1.0
 40
1.0
 40
1.0
 10
8.7133778636
 20
5.6920167727
 30
0.0
 10
8.7132775799
 20
5.6920167727
 30
0.0
 10
8.7131249325
 20
5.6921749445
 30
0.0
 10
8.7129942027
 20
5.6924243477
 30
0.0
 10
8.7128709942
 20
5.6927319176
 30
0.0
 10
8.7127509416
 20
5.6931202275
 30
0.0
 10
8.71257459
 20
5.6938074814
 30
0.0
 10
8.7124643622
 20
5.6943700206
 30
0.0
 10
8.7123920772
 20
5.6947734769
 30
0.0
 11
8.7133778636
 21
5.6920167727
 31
0.0
 11
8.7131315566
 21
5.6921895275
 31
0.0
 11
8.7130083493
 21
5.6924052981
 31
0.0
 11
8.7128851161
 21
5.6927071774
 31
0.0
 11
8.7127618647
 21
5.6930950501
 31
0.0
 11
8.7126386027
 21
5.693568801
 31
0.0
 11
8.7123920772
 21
5.6947734769
 31
0.0
  0
LINE
  5
41C
100
AcDbEntity
  8
0
100
AcDbLine
 62
6
  6
CONTINUOUS
 10
8.7123920772
 20
5.6947734769
 11
8.7114062909
 21
5.702982794
  0
SPLINE
  5
41D
100
AcDbEntity
  8
0
100
AcDbSpline
 62
6
  6
CONTINUOUS
 70
0
 71
3
 72
10
 73
6
 74
4
 42
0.0000001
 43
0.0000001
 44
0.0000000001
 12
-0.0028860609
 22
0.0318682498
 32
0.0
 13
-0.0015137162
 23
0.0319628433
 33
0.0
 40
0.0
 40
0.0
 40
0.0
 40
0.0
 40
0.1911577478
 40
0.422430337
 40
1.0
 40
1.0
 40
1.0
 40
1.0
 10
8.7114062909
 20
5.702982794
 30
0.0
 10
8.7112223933
 20
5.705013415
 30
0.0
 10
8.7108676052
 20
5.7095054375
 30
0.0
 10
8.7101681867
 20
5.720148839
 30
0.0
 10
8.709726144
 20
5.7287652394
 30
0.0
 10
8.7094347184
 20
5.734918829
 30
0.0
 11
8.7114062909
 21
5.702982794
 31
0.0
 11
8.7109134463
 21
5.7090797
 31
0.0
 11
8.7104205046
 21
5.7164636789
 31
0.0
 11
8.7094347184
 21
5.734918829
 31
0.0
  0
SPLINE
  5
41E
100
AcDbEntity
  8
0
100
AcDbSpline
 62
6
  6
CONTINUOUS
 70
0
 71
3
 72
19
 73
15
 74
13
 42
0.0000001
 43
0.0000001
 44
0.0000000001
 12
-0.0209383818
 22
0.4421239236
 32
0.0
 13
-0.0346076922
 23
0.4412644188
 33
0.0
 40
0.0
 40
0.0
 40
0.0
 40
0.0
 40
0.0478667313
 40
0.1036873789
 40
0.2347732684
 40
0.3834173212
 40
0.5384336101
 40
0.6881602474
 40
0.7574816651
 40
0.8213364995
 40
0.8785174624
 40
0.9279469484
 40
0.9686957323
 40
1.0
 40
1.0
 40
1.0
 40
1.0
 10
8.7458932156
 20
5.734918829
 30
0.0
 10
8.7455591316
 20
5.7419731713
 30
0.0
 10
8.7449121191
 20
5.7572576813
 30
0.0
 10
8.7436478553
 20
5.7918730973
 30
0.0
 10
8.7421337898
 20
5.8413573347
 30
0.0
 10
8.7403797821
 20
5.9054757068
 30
0.0
 10
8.7386218213
 20
5.9723452367
 30
0.0
 10
8.7371248576
 20
6.0275143628
 30
0.0
 10
8.7358903757
 20
6.0692355689
 30
0.0
 10
8.7349902324
 20
6.09730646
 30
0.0
 10
8.7340928619
 20
6.1224409083
 30
0.0
 10
8.7332011432
 20
6.1441642138
 30
0.0
 10
8.7323162004
 20
6.1620659231
 30
0.0
 10
8.7316508926
 20
6.172676749
 30
0.0
 10
8.7312897698
 20
6.1772812355
 30
0.0
 11
8.7458932156
 21
5.734918829
 31
0.0
 11
8.7449806449
 21
5.7560859128
 31
0.0
 11
8.7440677133
 21
5.7807763452
 31
0.0
 11
8.7422423555
 21
5.8387687896
 31
0.0
 11
8.7404169266
 21
5.9045362106
 31
0.0
 11
8.7385914946
 21
5.9731251487
 31
0.0
 11
8.7367660637
 21
6.0393719258
 31
0.0
 11
8.7358533482
 21
6.0700413557
 31
0.0
 11
8.7349406326
 21
6.0982900064
 31
0.0
 11
8.7340279169
 21
6.1235829502
 31
0.0
 11
8.7331152013
 21
6.1454423558
 31
0.0
 11
8.7322024856
 21
6.1634554516
 31
0.0
 11
8.7312897698
 21
6.1772812355
 31
0.0
  0
SPLINE
  5
41F
100
AcDbEntity
  8
0
100
AcDbSpline
 62
6
  6
CONTINUOUS
 70
0
 71
3
 72
10
 73
6
 74
4
 42
0.0000001
 43
0.0000001
 44
0.0000000001
 12
-0.0009028446
 22
0.0115116944
 32
0.0
 13
-0.0018789936
 23
0.0113931392
 33
0.0
 40
0.0
 40
0.0
 40
0.0
 40
0.0
 40
0.5875685539
 40
0.8158854459
 40
1.0
 40
1.0
 40
1.0
 40
1.0
 10
8.7312897698
 20
6.1772812355
 30
0.0
 10
8.7311129421
 20
6.1795358721
 30
0.0
 10
8.730844693
 20
6.1826653609
 30
0.0
 10
8.7304088812
 20
6.1864897934
 30
0.0
 10
8.730188124
 20
6.1880622294
 30
0.0
 10
8.7300728073
 20
6.1887614437
 30
0.0
 11
8.7312897698
 21
6.1772812355
 31
0.0
 11
8.7306812886
 21
6.184038575
 31
0.0
 11
8.730377048
 21
6.1866573467
 31
0.0
 11
8.7300728073
 21
6.1887614437
 31
0.0
  0
LINE
  5
420
100
AcDbEntity
  8
0
100
AcDbLine
 62
6
  6
CONTINUOUS
 10
8.7300728073
 20
6.1887614437
 11
8.7296189258
 21
6.1909331132
  0
LINE
  5
421
100
AcDbEntity
  8
0
100
AcDbLine
 62
6
  6
CONTINUOUS
 10
8.7296189258
 20
6.1909331132
 11
8.7295106865
 21
6.1912792397
  0
SPLINE
  5
422
100
AcDbEntity
  8
0
100
AcDbSpline
 62
6
  6
CONTINUOUS
 70
0
 71
3
 72
10
 73
6
 74
4
 42
0.0000001
 43
0.0000001
 44
0.0000000001
 12
-0.0003021091
 22
0.0008735858
 32
0.0
 13
-0.0009243484
 23
0.0000014619
 33
0.0
 40
0.0
 40
0.0
 40
0.0
 40
0.0
 40
0.3748755615
 40
0.6596672643
 40
1.0
 40
1.0
 40
1.0
 40
1.0
 10
8.7295106865
 20
6.1912792397
 30
0.0
 10
8.7294729354
 20
6.1913884017
 30
0.0
 10
8.7293979261
 20
6.1915811577
 30
0.0
 10
8.7292639435
 20
6.1918453641
 30
0.0
 10
8.7291062571
 20
6.1920164751
 30
0.0
 10
8.729001395
 20
6.192016641
 30
0.0
 11
8.7295106865
 21
6.1912792397
 31
0.0
 11
8.7293833637
 21
6.1916015164
 31
0.0
 11
8.7292560408
 21
6.1918319246
 31
0.0
 11
8.729001395
 21
6.192016641
 31
0.0
  0
SPLINE
  5
423
100
AcDbEntity
  8
0
100
AcDbSpline
 62
6
  6
CONTINUOUS
 70
0
 71
3
 72
13
 73
9
 74
7
 42
0.0000001
 43
0.0000001
 44
0.0000000001
 12
-0.0048648334
 22
0.0084072569
 32
0.0
 13
-0.0009687377
 23
0.0096648911
 33
0.0
 40
0.0
 40
0.0
 40
0.0
 40
0.0
 40
0.0514548387
 40
0.1234349918
 40
0.2165087787
 40
0.330827806
 40
0.6231662989
 40
1.0
 40
1.0
 40
1.0
 40
1.0
 10
8.6531424754
 20
5.7148568014
 30
0.0
 10
8.6530590357
 20
5.7150009994
 30
0.0
 10
8.6529074971
 20
5.7153736221
 30
0.0
 10
8.6527114648
 20
5.7160465347
 30
0.0
 10
8.652513485
 20
5.7169298443
 30
0.0
 10
8.6522231361
 20
5.7185217219
 30
0.0
 10
8.6518761047
 20
5.7210356479
 30
0.0
 10
8.6516412184
 20
5.7231895619
 30
0.0
 10
8.6515195341
 20
5.7244035808
 30
0.0
 11
8.6531424754
 21
5.7148568014
 31
0.0
 11
8.6529396077
 21
5.7153135749
 31
0.0
 11
8.6527367401
 21
5.7159826624
 31
0.0
 11
8.6525338724
 21
5.7168636624
 31
0.0
 11
8.6523310047
 21
5.7179553908
 31
0.0
 11
8.6519252694
 21
5.7207658316
 31
0.0
 11
8.6515195341
 21
5.7244035808
 31
0.0
  0
SPLINE
  5
424
100
AcDbEntity
  8
0
100
AcDbSpline
 62
6
  6
CONTINUOUS
 70
0
 71
3
 72
39
 73
35
 74
33
 42
0.0000001
 43
0.0000001
 44
0.0000000001
 12
-0.044456446
 22
0.4435325491
 32
0.0
 13
-0.4457546413
 23
-0.0005454593
 33
0.0
 40
0.0
 40
0.0
 40
0.0
 40
0.0
 40
0.0151755773
 40
0.0340772876
 40
0.0565657917
 40
0.0824608512
 40
0.1436415088
 40
0.2156966869
 40
0.2963568844
 40
0.3830795373
 40
0.4731300408
 40
0.563668459
 40
0.6518394256
 40
0.694163579
 40
0.7348625307
 40
0.7736178578
 40
0.8101203877
 40
0.8440853497
 40
0.8752418708
 40
0.9033471402
 40
0.9281783352
 40
0.9495420379
 40
0.9672723551
 40
0.9747305316
 40
0.9812336178
 40
0.986769978
 40
0.9913293271
 40
0.9932412426
 40
0.9949083107
 40
0.9963314301
 40
0.9975124485
 40
0.9984551304
 40
0.9991676829
 40
1.0
 40
1.0
 40
1.0
 40
1.0
 10
8.6515195341
 20
5.7244035808
 30
0.0
 10
8.65129465
 20
5.7266472016
 30
0.0
 10
8.6508670906
 20
5.7316929975
 30
0.0
 10
8.6502893922
 20
5.7400780734
 30
0.0
 10
8.6497087807
 20
5.7500589443
 30
0.0
 10
8.6488849143
 20
5.7663177741
 30
0.0
 10
8.6478869344
 20
5.7899415074
 30
0.0
 10
8.6467349402
 20
5.8217024256
 30
0.0
 10
8.6455784253
 20
5.8572605837
 30
0.0
 10
8.6444186267
 20
5.8954937391
 30
0.0
 10
8.6432575304
 20
5.9351952556
 30
0.0
 10
8.642096169
 20
5.9751120483
 30
0.0
 10
8.6411163606
 20
6.0079397069
 30
0.0
 10
8.6403225647
 20
6.0333641926
 30
0.0
 10
8.6397354852
 20
6.0514491194
 30
0.0
 10
8.6391487853
 20
6.0686685783
 30
0.0
 10
8.6385623957
 20
6.0848868675
 30
0.0
 10
8.6379766328
 20
6.099975327
 30
0.0
 10
8.6373915579
 20
6.1138150984
 30
0.0
 10
8.636807589
 20
6.1262964501
 30
0.0
 10
8.6362253301
 20
6.1373210787
 30
0.0
 10
8.6356451709
 20
6.1468017797
 30
0.0
 10
8.635140953
 20
6.1537006692
 30
0.0
 10
8.6347268134
 20
6.1583914068
 30
0.0
 10
8.6344352563
 20
6.1612738622
 30
0.0
 10
8.6341447983
 20
6.1637231782
 30
0.0
 10
8.6338919585
 20
6.1654896131
 30
0.0
 10
8.6336844337
 20
6.1666811061
 30
0.0
 10
8.6335386138
 20
6.167409757
 30
0.0
 10
8.633392624
 20
6.1680282841
 30
0.0
 10
8.6332492805
 20
6.168533522
 30
0.0
 10
8.6331017137
 20
6.1689349354
 30
0.0
 10
8.6329481956
 20
6.169253813
 30
0.0
 10
8.6327657703
 20
6.1694668518
 30
0.0
 10
8.6326421006
 20
6.1694667005
 30
0.0
 11
8.6515195341
 21
5.7244035808
 31
0.0
 11
8.6509296142
 21
5.7311423982
 31
0.0
 11
8.6503396944
 21
5.7395472524
 31
0.0
 11
8.6497497746
 21
5.7495542419
 31
0.0
 11
8.6491598547
 21
5.7610820092
 31
0.0
 11
8.6479800151
 21
5.7883280583
 31
0.0
 11
8.6468001754
 21
5.8204253353
 31
0.0
 11
8.6456203358
 21
5.8563606564
 31
0.0
 11
8.6444404961
 21
5.8949997014
 31
0.0
 11
8.6432606565
 21
5.9351228182
 31
0.0
 11
8.6420808169
 21
5.9754635189
 31
0.0
 11
8.6409009773
 21
6.0147484529
 31
0.0
 11
8.6403110575
 21
6.0336054297
 31
0.0
 11
8.6397211377
 21
6.051737596
 31
0.0
 11
8.6391312179
 21
6.0690029007
 31
0.0
 11
8.6385412981
 21
6.0852633875
 31
0.0
 11
8.6379513783
 21
6.1003919411
 31
0.0
 11
8.6373614586
 21
6.1142675809
 31
0.0
 11
8.6367715388
 21
6.1267817478
 31
0.0
 11
8.636181619
 21
6.137834645
 31
0.0
 11
8.6355916993
 21
6.1473393323
 31
0.0
 11
8.6350017795
 21
6.1552206624
 31
0.0
 11
8.6347068196
 21
6.158532071
 31
0.0
 11
8.6344118598
 21
6.1614158085
 31
0.0
 11
8.6341168999
 21
6.1638659783
 31
0.0
 11
8.63382194
 21
6.1658768129
 31
0.0
 11
8.6336744601
 21
6.1667162011
 31
0.0
 11
8.6335269802
 21
6.1674445232
 31
0.0
 11
8.6333795002
 21
6.1680615042
 31
0.0
 11
8.6332320203
 21
6.1685668692
 31
0.0
 11
8.6330845404
 21
6.1689603435
 31
0.0
 11
8.6329370604
 21
6.1692416522
 31
0.0
 11
8.6326421006
 21
6.1694667005
 31
0.0
  0
SPLINE
  5
425
100
AcDbEntity
  8
0
100
AcDbSpline
 62
6
  6
CONTINUOUS
 70
0
 71
3
 72
12
 73
8
 74
6
 42
0.0000001
 43
0.0000001
 44
0.0000000001
 12
-0.0031867397
 22
0.0055122159
 32
0.0
 13
-0.0007757381
 23
0.006319657
 33
0.0
 40
0.0
 40
0.0
 40
0.0
 40
0.0
 40
0.0581505486
 40
0.1348689069
 40
0.3456900589
 40
0.6340207081
 40
1.0
 40
1.0
 40
1.0
 40
1.0
 10
8.6114724446
 20
5.7148562742
 30
0.0
 10
8.6114106744
 20
5.7149631203
 30
0.0
 10
8.611294433
 20
5.7152261069
 30
0.0
 10
8.6110656614
 20
5.7159235137
 30
0.0
 10
8.6107986066
 20
5.7171184928
 30
0.0
 10
8.6104938741
 20
5.7189290142
 30
0.0
 10
8.610311149
 20
5.7203060246
 30
0.0
 10
8.6102165143
 20
5.7210769792
 30
0.0
 11
8.6114724446
 21
5.7148562742
 31
0.0
 11
8.6113154533
 21
5.7151915929
 31
0.0
 11
8.611158462
 21
5.7156541502
 31
0.0
 11
8.6108444794
 21
5.716959229
 31
0.0
 11
8.6105304968
 21
5.7187680066
 31
0.0
 11
8.6102165143
 21
5.7210769792
 31
0.0
  0
SPLINE
  5
426
100
AcDbEntity
  8
0
100
AcDbSpline
 62
6
  6
CONTINUOUS
 70
0
 71
3
 72
40
 73
36
 74
34
 42
0.0000001
 43
0.0000001
 44
0.0000000001
 12
-0.0547164539
 22
0.4457550996
 32
0.0
 13
-0.4491004801
 23
-0.0005078944
 33
0.0
 40
0.0
 40
0.0
 40
0.0
 40
0.0
 40
0.0129863373
 40
0.0298898618
 40
0.0505844862
 40
0.0748982604
 40
0.1026385241
 40
0.1335745924
 40
0.2040047126
 40
0.2838844247
 40
0.3705975069
 40
0.461302719
 40
0.5530274872
 40
0.6427657145
 40
0.685965966
 40
0.7275766673
 40
0.7672578842
 40
0.8046817585
 40
0.8395444059
 40
0.8715563135
 40
0.9004598506
 40
0.9260137588
 40
0.9480154823
 40
0.9662813947
 40
0.973969233
 40
0.9806730256
 40
0.9863785294
 40
0.9910777095
 40
0.9930489542
 40
0.9947678442
 40
0.9962349177
 40
0.9974516652
 40
0.9984215112
 40
0.9991526348
 40
1.0
 40
1.0
 40
1.0
 40
1.0
 10
8.6102165143
 20
5.7210769792
 30
0.0
 10
8.6099796588
 20
5.7230065545
 30
0.0
 10
8.609539737
 20
5.7274603594
 30
0.0
 10
8.6089542336
 20
5.7350103084
 30
0.0
 10
8.6083648936
 20
5.7442600563
 30
0.0
 10
8.6077718267
 20
5.7551344628
 30
0.0
 10
8.6071771178
 20
5.7675439362
 30
0.0
 10
8.6063459871
 20
5.7868533776
 30
0.0
 10
8.6053318548
 20
5.8139671555
 30
0.0
 10
8.6041541548
 20
5.8494300353
 30
0.0
 10
8.6029732767
 20
5.8879295341
 30
0.0
 10
8.6017904659
 20
5.9282029552
 30
0.0
 10
8.6006072257
 20
5.9689294192
 30
0.0
 10
8.5996097375
 20
6.0025467784
 30
0.0
 10
8.5988013661
 20
6.0286643328
 30
0.0
 10
8.5982029424
 20
6.0472912377
 30
0.0
 10
8.5976048749
 20
6.0650529652
 30
0.0
 10
8.5970071319
 20
6.0818039171
 30
0.0
 10
8.5964100385
 20
6.0974060192
 30
0.0
 10
8.5958135934
 20
6.1117316489
 30
0.0
 10
8.5952183773
 20
6.1246624909
 30
0.0
 10
8.5946247305
 20
6.1360931455
 30
0.0
 10
8.5940334867
 20
6.1459290016
 30
0.0
 10
8.5935193684
 20
6.1530898477
 30
0.0
 10
8.5930973171
 20
6.1579605291
 30
0.0
 10
8.5928001648
 20
6.1609544739
 30
0.0
 10
8.592503994
 20
6.1634985855
 30
0.0
 10
8.5922462014
 20
6.1653335239
 30
0.0
 10
8.5920346849
 20
6.1665716735
 30
0.0
 10
8.5918860511
 20
6.167329105
 30
0.0
 10
8.5917372408
 20
6.1679721403
 30
0.0
 10
8.5915911928
 20
6.1684971774
 30
0.0
 10
8.5914407726
 20
6.1689143426
 30
0.0
 10
8.5912848318
 20
6.1692440385
 30
0.0
 10
8.5910989451
 20
6.1694662472
 30
0.0
 10
8.5909720944
 20
6.1694661037
 30
0.0
 11
8.6102165143
 21
5.7210769792
 31
0.0
 11
8.6096151259
 21
5.7268780641
 31
0.0
 11
8.6090137375
 21
5.7344455914
 31
0.0
 11
8.6084123492
 21
5.7437200856
 31
0.0
 11
8.6078109609
 21
5.7546228468
 31
0.0
 11
8.6072095725
 21
5.7670664967
 31
0.0
 11
8.6066081842
 21
5.7809468869
 31
0.0
 11
8.6054054077
 21
5.8125542311
 31
0.0
 11
8.6042026312
 21
5.8484081022
 31
0.0
 11
8.6029998548
 21
5.8873324353
 31
0.0
 11
8.6017970784
 21
5.928050455
 31
0.0
 11
8.6005943021
 21
5.9692265556
 31
0.0
 11
8.5993915259
 21
6.0095101103
 31
0.0
 11
8.5987901378
 21
6.0289020534
 31
0.0
 11
8.5981887497
 21
6.047579772
 31
0.0
 11
8.5975873617
 21
6.0653904868
 31
0.0
 11
8.5969859736
 21
6.0821868146
 31
0.0
 11
8.5963845856
 21
6.0978321022
 31
0.0
 11
8.5957831976
 21
6.1121960906
 31
0.0
 11
8.5951818097
 21
6.1251627528
 31
0.0
 11
8.5945804217
 21
6.1366232645
 31
0.0
 11
8.5939790338
 21
6.1464859373
 31
0.0
 11
8.5933776458
 21
6.1546670987
 31
0.0
 11
8.5930769519
 21
6.1581065939
 31
0.0
 11
8.5927762579
 21
6.1611022186
 31
0.0
 11
8.592475564
 21
6.1636468602
 31
0.0
 11
8.5921748701
 21
6.1657357341
 31
0.0
 11
8.5920245231
 21
6.1666081616
 31
0.0
 11
8.5918741761
 21
6.1673653339
 31
0.0
 11
8.5917238292
 21
6.1680068145
 31
0.0
 11
8.5915734822
 21
6.1685321667
 31
0.0
 11
8.5914231352
 21
6.168940954
 31
0.0
 11
8.5912727883
 21
6.1692328587
 31
0.0
 11
8.5909720944
 21
6.1694661037
 31
0.0
  0
SPLINE
  5
427
100
AcDbEntity
  8
0
100
AcDbSpline
 62
6
  6
CONTINUOUS
 70
0
 71
3
 72
18
 73
14
 74
12
 42
0.0000001
 43
0.0000001
 44
0.0000000001
 12
-0.0205502309
 22
0.4339279314
 32
0.0
 13
-0.0274942843
 23
0.4335433381
 33
0.0
 40
0.0
 40
0.0
 40
0.0
 40
0.0
 40
0.0466947329
 40
0.1009084244
 40
0.2279246619
 40
0.3722440231
 40
0.5238381875
 40
0.6721751904
 40
0.806955913
 40
0.8662798486
 40
0.9188155804
 40
0.963648933
 40
1.0
 40
1.0
 40
1.0
 40
1.0
 10
8.7094347184
 20
5.734918829
 30
0.0
 10
8.7091148559
 20
5.7416728786
 30
0.0
 10
8.7084939836
 20
5.7562718645
 30
0.0
 10
8.7072790677
 20
5.789254158
 30
0.0
 10
8.7058209911
 20
5.8363729972
 30
0.0
 10
8.7041315989
 20
5.8975919188
 30
0.0
 10
8.7024384952
 20
5.9618992446
 30
0.0
 10
8.7007463364
 20
6.0248248286
 30
0.0
 10
8.6992924523
 20
6.07439087
 30
0.0
 10
8.6980879201
 20
6.1100853125
 30
0.0
 10
8.697226701
 20
6.1327589832
 30
0.0
 10
8.6963703938
 20
6.15210345
 30
0.0
 10
8.6957380442
 20
6.1638427687
 30
0.0
 10
8.6954048953
 20
6.169096023
 30
0.0
 11
8.7094347184
 21
5.734918829
 31
0.0
 11
8.7085580186
 21
5.7551847334
 31
0.0
 11
8.7076809397
 21
5.7787195973
 31
0.0
 11
8.7059272855
 21
5.8338693896
 31
0.0
 11
8.7041735634
 21
5.8965392474
 31
0.0
 11
8.7024198408
 21
5.9623705612
 31
0.0
 11
8.7006661289
 21
6.0267864048
 31
0.0
 11
8.6989123698
 21
6.0853108036
 31
0.0
 11
8.698035499
 21
6.1110670458
 31
0.0
 11
8.697158643
 21
6.1338724666
 31
0.0
 11
8.6962817765
 21
6.1533289656
 31
0.0
 11
8.6954048953
 21
6.169096023
 31
0.0
  0
LINE
  5
428
100
AcDbEntity
  8
0
100
AcDbLine
 62
6
  6
CONTINUOUS
 10
8.6954048953
 20
6.169096023
 11
8.6953668087
 21
6.1696928498
  0
SPLINE
  5
429
100
AcDbEntity
  8
0
100
AcDbSpline
 62
6
  6
CONTINUOUS
 70
0
 71
3
 72
16
 73
12
 74
10
 42
0.0000001
 43
0.0000001
 44
0.0000000001
 12
-0.0014260535
 22
0.0222063308
 32
0.0
 13
-0.0111162555
 23
0.0192765044
 33
0.0
 40
0.0
 40
0.0
 40
0.0
 40
0.0
 40
0.2092271797
 40
0.3949529299
 40
0.5567989756
 40
0.6944689471
 40
0.8076873451
 40
0.8962437317
 40
0.9601733814
 40
0.9830305198
 40
1.0
 40
1.0
 40
1.0
 40
1.0
 10
8.6953668087
 20
6.1696928498
 30
0.0
 10
8.6952673523
 20
6.1712415725
 30
0.0
 10
8.6950705203
 20
6.1741644941
 30
0.0
 10
8.6947584621
 20
6.1782827112
 30
0.0
 10
8.6944473316
 20
6.1818685852
 30
0.0
 10
8.6941372807
 20
6.1849142799
 30
0.0
 10
8.6938301917
 20
6.1874138437
 30
0.0
 10
8.6935249212
 20
6.1893606536
 30
0.0
 10
8.6932576751
 20
6.1906359775
 30
0.0
 10
8.6930273306
 20
6.1913705121
 30
0.0
 10
8.6929102908
 20
6.1916433984
 30
0.0
 10
8.6928474118
 20
6.1917524358
 30
0.0
 11
8.6953668087
 21
6.1696928498
 31
0.0
 11
8.6950519268
 21
6.1743379279
 31
0.0
 11
8.6947370662
 21
6.1784586994
 31
0.0
 11
8.694422208
 21
6.1820463196
 31
0.0
 11
8.6941073188
 21
6.1850935353
 31
0.0
 11
8.6937923649
 21
6.1875931149
 31
0.0
 11
8.6934773299
 21
6.1895383327
 31
0.0
 11
8.6931623025
 21
6.1909255801
 31
0.0
 11
8.693004832
 21
6.1914092081
 31
0.0
 11
8.6928474118
 21
6.1917524358
 31
0.0
  0
SPLINE
  5
42A
100
AcDbEntity
  8
0
100
AcDbSpline
 62
6
  6
CONTINUOUS
 70
0
 71
3
 72
13
 73
9
 74
7
 42
0.0000001
 43
0.0000001
 44
0.0000000001
 12
0.0040512598
 22
0.0
 32
0.0
 13
0.0006120967
 23
-0.0040047526
 33
0.0
 40
0.0
 40
0.0
 40
0.0
 40
0.0
 40
0.0924658967
 40
0.1741024981
 40
0.2828209118
 40
0.4194714773
 40
0.5844436789
 40
1.0
 40
1.0
 40
1.0
 40
1.0
 10
8.6456613516
 20
6.1920167727
 30
0.0
 10
8.6457862194
 20
6.1920167727
 30
0.0
 10
8.6459636914
 20
6.191785147
 30
0.0
 10
8.6461122066
 20
6.1914539299
 30
0.0
 10
8.6462569794
 20
6.1910288459
 30
0.0
 10
8.6463975056
 20
6.1904952243
 30
0.0
 10
8.6466047584
 20
6.1895477311
 30
0.0
 10
8.6467338947
 20
6.1887745635
 30
0.0
 10
8.6468186816
 20
6.1882198301
 30
0.0
 11
8.6456613516
 21
6.1920167727
 31
0.0
 11
8.6459504592
 21
6.1917785617
 31
0.0
 11
8.6460951005
 21
6.1914811362
 31
0.0
 11
8.6462397835
 21
6.1910651314
 31
0.0
 11
8.6463844957
 21
6.1905307729
 31
0.0
 11
8.6465292244
 21
6.1898782861
 31
0.0
 11
8.6468186816
 21
6.1882198301
 31
0.0
  0
LINE
  5
42B
100
AcDbEntity
  8
0
100
AcDbLine
 62
6
  6
CONTINUOUS
 10
8.6468186816
 20
6.1882198301
 11
8.6479779393
 21
6.1769194757
  0
SPLINE
  5
42C
100
AcDbEntity
  8
0
100
AcDbSpline
 62
6
  6
CONTINUOUS
 70
0
 71
3
 72
22
 73
18
 74
16
 42
0.0000001
 43
0.0000001
 44
0.0000000001
 12
0.0357660479
 22
-0.4614649645
 32
0.0
 13
0.0296538873
 23
-0.4618980088
 33
0.0
 40
0.0
 40
0.0
 40
0.0
 40
0.0
 40
0.0150825382
 40
0.0328492926
 40
0.0760473715
 40
0.128658134
 40
0.1895380138
 40
0.2573607962
 40
0.3306478136
 40
0.487138784
 40
0.6454250534
 40
0.7209221214
 40
0.7917706714
 40
0.8564264981
 40
0.91347803
 40
0.9616847961
 40
1.0
 40
1.0
 40
1.0
 40
1.0
 10
8.6479779393
 20
6.1769194757
 30
0.0
 10
8.6481577535
 20
6.1745994547
 30
0.0
 10
8.6485077965
 20
6.1695433021
 30
0.0
 10
8.6491989568
 20
6.1578307524
 30
0.0
 10
8.6500325682
 20
6.1403273506
 30
0.0
 10
8.6509906667
 20
6.1161718588
 30
0.0
 10
8.6519532562
 20
6.0882147453
 30
0.0
 10
8.6529196646
 20
6.0570661352
 30
0.0
 10
8.6542395164
 20
6.0111703485
 30
0.0
 10
8.6558353102
 20
5.9513198867
 30
0.0
 10
8.6574238077
 20
5.8911281571
 30
0.0
 10
8.6587363936
 20
5.8441469616
 30
0.0
 10
8.6597038371
 20
5.8116073787
 30
0.0
 10
8.6606687743
 20
5.7819149174
 30
0.0
 10
8.6616290023
 20
5.7557174921
 30
0.0
 10
8.6625829563
 20
5.7335870114
 30
0.0
 10
8.6632926611
 20
5.7202563916
 30
0.0
 10
8.6636713927
 20
5.7143571528
 30
0.0
 11
8.6479779393
 21
6.1769194757
 31
0.0
 11
8.6484683385
 21
6.1699557854
 31
0.0
 11
8.648958768
 21
6.1617470996
 31
0.0
 11
8.6499396216
 21
6.1417769887
 31
0.0
 11
8.6509204543
 21
6.1174459157
 31
0.0
 11
8.651901291
 21
6.0892848048
 31
0.0
 11
8.6528821292
 21
6.0579084302
 31
0.0
 11
8.653862964
 21
6.0240017968
 31
0.0
 11
8.6558246615
 21
5.9515966896
 31
0.0
 11
8.6577863426
 21
5.8783603284
 31
0.0
 11
8.6587671821
 21
5.8434303603
 31
0.0
 11
8.6597480185
 21
5.8106528573
 31
0.0
 11
8.6607288653
 21
5.7807430561
 31
0.0
 11
8.6617096959
 21
5.7543550384
 31
0.0
 11
8.6626905321
 21
5.7320641575
 31
0.0
 11
8.6636713927
 21
5.7143571528
 31
0.0
  0
SPLINE
  5
42D
100
AcDbEntity
  8
0
100
AcDbSpline
 62
6
  6
CONTINUOUS
 70
0
 71
3
 72
15
 73
11
 74
9
 42
0.0000001
 43
0.0000001
 44
0.0000000001
 12
0.0011588787
 22
-0.014942226
 32
0.0
 13
0.0074884848
 23
-0.0129821305
 33
0.0
 40
0.0
 40
0.0
 40
0.0
 40
0.0
 40
0.3883373242
 40
0.5482361141
 40
0.6850204412
 40
0.7985204267
 40
0.8886799684
 40
0.9556463555
 40
0.9805819084
 40
1.0
 40
1.0
 40
1.0
 40
1.0
 10
8.6641814004
 20
5.7070932022
 30
0.0
 10
8.6643314123
 20
5.7051589941
 30
0.0
 10
8.6645609333
 20
5.7024295425
 30
0.0
 10
8.6649157787
 20
5.6990256918
 30
0.0
 10
8.6651635539
 20
5.6969914981
 30
0.0
 10
8.6654095213
 20
5.6953082224
 30
0.0
 10
8.6656540089
 20
5.6939785242
 30
0.0
 10
8.6658686628
 20
5.6930930264
 30
0.0
 10
8.6660509336
 20
5.6925673201
 30
0.0
 10
8.6661433823
 20
5.6923650541
 30
0.0
 10
8.666191853
 20
5.6922810247
 30
0.0
 11
8.6641814004
 21
5.7070932022
 31
0.0
 11
8.6646838995
 21
5.7012948858
 31
0.0
 11
8.664935168
 21
5.6989116762
 31
0.0
 11
8.6651864723
 21
5.6968771378
 31
0.0
 11
8.6654378288
 21
5.6951947759
 31
0.0
 11
8.66568922
 21
5.6938671371
 31
0.0
 11
8.6659405833
 21
5.6928954924
 31
0.0
 11
8.666066234
 21
5.6925435375
 31
0.0
 11
8.666191853
 21
5.6922810247
 31
0.0
  0
LINE
  5
42E
100
AcDbEntity
  8
0
100
AcDbLine
 62
6
  6
CONTINUOUS
 10
8.6854664781
 20
5.7159793769
 11
8.6850617992
 21
5.7148564221
  0
SPLINE
  5
42F
100
AcDbEntity
  8
0
100
AcDbSpline
 62
6
  6
CONTINUOUS
 70
0
 71
3
 72
15
 73
11
 74
9
 42
0.0000001
 43
0.0000001
 44
0.0000000001
 12
-0.0045709849
 22
0.0
 32
0.0
 13
-0.0006502144
 23
0.0045245027
 33
0.0
 40
0.0
 40
0.0
 40
0.0
 40
0.0
 40
0.0367448432
 40
0.0617183725
 40
0.092539387
 40
0.1735740103
 40
0.2820178769
 40
0.4186278413
 40
0.5837405514
 40
1.0
 40
1.0
 40
1.0
 40
1.0
 10
8.6717079002
 20
5.6920167727
 30
0.0
 10
8.6716519135
 20
5.6920167727
 30
0.0
 10
8.6715607056
 20
5.6920674658
 30
0.0
 10
8.6714696227
 20
5.692173733
 30
0.0
 10
8.6713569961
 20
5.6923505596
 30
0.0
 10
8.6712251026
 20
5.6926605028
 30
0.0
 10
8.6710748751
 20
5.6931343922
 30
0.0
 10
8.6709239937
 20
5.6937412081
 30
0.0
 10
8.670704036
 20
5.6948129885
 30
0.0
 10
8.6705663654
 20
5.6956885219
 30
0.0
 10
8.6704761461
 20
5.6963163109
 30
0.0
 11
8.6717079002
 21
5.6920167727
 31
0.0
 11
8.671554107
 21
5.6920842876
 31
0.0
 11
8.6714771794
 21
5.6921686274
 31
0.0
 11
8.6714002337
 21
5.692286641
 31
0.0
 11
8.6712462953
 21
5.6926235461
 31
0.0
 11
8.6710923065
 21
5.6930947162
 31
0.0
 11
8.6709382824
 21
5.6936998645
 31
0.0
 11
8.6707842376
 21
5.6944387043
 31
0.0
 11
8.6704761461
 21
5.6963163109
 31
0.0
  0
SPLINE
  5
430
100
AcDbEntity
  8
0
100
AcDbSpline
 62
6
  6
CONTINUOUS
 70
0
 71
3
 72
10
 73
6
 74
4
 42
0.0000001
 43
0.0000001
 44
0.0000000001
 12
-0.0018550134
 22
0.0129080703
 32
0.0
 13
-0.0009444134
 23
0.0130064383
 33
0.0
 40
0.0
 40
0.0
 40
0.0
 40
0.0
 40
0.1889465585
 40
0.4189139541
 40
1.0
 40
1.0
 40
1.0
 40
1.0
 10
8.6704761461
 20
5.6963163109
 30
0.0
 10
8.6703593133
 20
5.6971292894
 30
0.0
 10
8.6701340147
 20
5.698936569
 30
0.0
 10
8.6696889853
 20
5.7032607686
 30
0.0
 10
8.6694107053
 20
5.7067758223
 30
0.0
 10
8.6692277768
 20
5.7092951089
 30
0.0
 11
8.6704761461
 21
5.6963163109
 31
0.0
 11
8.6701639838
 21
5.6987604488
 31
0.0
 11
8.6698518891
 21
5.7017430963
 31
0.0
 11
8.6692277768
 21
5.7092951089
 31
0.0
  0
SPLINE
  5
431
100
AcDbEntity
  8
0
100
AcDbSpline
 62
6
  6
CONTINUOUS
 70
0
 71
3
 72
21
 73
17
 74
15
 42
0.0000001
 43
0.0000001
 44
0.0000000001
 12
-0.0333195944
 22
0.4588766326
 32
0.0
 13
-0.0291211555
 23
0.459162191
 33
0.0
 40
0.0
 40
0.0
 40
0.0
 40
0.0
 40
0.0343291938
 40
0.078677179
 40
0.1321071733
 40
0.1934880101
 40
0.2615171249
 40
0.3347470632
 40
0.4905064492
 40
0.6475883976
 40
0.7224447051
 40
0.7927023626
 40
0.8568681649
 40
0.9135775685
 40
0.9616274833
 40
1.0
 40
1.0
 40
1.0
 40
1.0
 10
8.6692277768
 20
5.7092951089
 30
0.0
 10
8.6688464985
 20
5.7145460639
 30
0.0
 10
8.6681420613
 20
5.7265924393
 30
0.0
 10
8.6672031079
 20
5.7468308958
 30
0.0
 10
8.6662571621
 20
5.7712216301
 30
0.0
 10
8.6653054462
 20
5.7992461383
 30
0.0
 10
8.6643509101
 20
5.830308692
 30
0.0
 10
8.6630489906
 20
5.8758413182
 30
0.0
 10
8.6614733727
 20
5.9350288728
 30
0.0
 10
8.6599031341
 20
5.9944660631
 30
0.0
 10
8.6586065654
 20
6.0407931793
 30
0.0
 10
8.6576511677
 20
6.0728744614
 30
0.0
 10
8.6566981816
 20
6.1021714414
 30
0.0
 10
8.6557496589
 20
6.1280608457
 30
0.0
 10
8.6548071627
 20
6.1499916152
 30
0.0
 10
8.654107086
 20
6.1632275803
 30
0.0
 10
8.653734602
 20
6.1691006499
 30
0.0
 11
8.6692277768
 21
5.7092951089
 31
0.0
 11
8.6682594156
 21
5.7250597334
 31
0.0
 11
8.6672910736
 21
5.7454405731
 31
0.0
 11
8.6663227731
 21
5.7700038195
 31
0.0
 11
8.6653544538
 21
5.7982275993
 31
0.0
 11
8.6643861287
 21
5.8295117738
 31
0.0
 11
8.6634178172
 21
5.8631898326
 31
0.0
 11
8.661481174
 21
5.9348261746
 31
0.0
 11
8.6595445396
 21
6.007071228
 31
0.0
 11
8.6585762284
 21
6.041497857
 31
0.0
 11
8.6576079046
 21
6.0738078254
 31
0.0
 11
8.656639577
 21
6.1033136462
 31
0.0
 11
8.6556712651
 21
6.1293868024
 31
0.0
 11
8.6547029433
 21
6.1514726173
 31
0.0
 11
8.653734602
 21
6.1691006499
 31
0.0
  0
LINE
  5
432
100
AcDbEntity
  8
0
100
AcDbLine
 62
6
  6
CONTINUOUS
 10
8.653734602
 20
6.1691006499
 11
8.6536974841
 21
6.169682344
  0
SPLINE
  5
433
100
AcDbEntity
  8
0
100
AcDbSpline
 62
6
  6
CONTINUOUS
 70
0
 71
3
 72
15
 73
11
 74
9
 42
0.0000001
 43
0.0000001
 44
0.0000000001
 12
-0.00122733
 22
0.0166800207
 32
0.0
 13
-0.008354503
 23
0.0144890203
 33
0.0
 40
0.0
 40
0.0
 40
0.0
 40
0.0
 40
0.3903225425
 40
0.5508002327
 40
0.6878396574
 40
0.8012340776
 40
0.8909016807
 40
0.9569690815
 40
0.9812958538
 40
1.0
 40
1.0
 40
1.0
 40
1.0
 10
8.6533187602
 20
6.1752070308
 30
0.0
 10
8.6531590753
 20
6.1773772269
 30
0.0
 10
8.6529148414
 20
6.1804384978
 30
0.0
 10
8.6525368084
 20
6.1842547012
 30
0.0
 10
8.6522730116
 20
6.1865303799
 30
0.0
 10
8.6520112669
 20
6.1884087478
 30
0.0
 10
8.6517511133
 20
6.1898863999
 30
0.0
 10
8.6515228529
 20
6.1908658171
 30
0.0
 10
8.6513282613
 20
6.1914423764
 30
0.0
 10
8.651229496
 20
6.1916620648
 30
0.0
 10
8.6511774081
 20
6.1917523997
 30
0.0
 11
8.6533187602
 21
6.1752070308
 31
0.0
 11
8.6527835554
 21
6.1817132437
 31
0.0
 11
8.65251593
 21
6.1843838754
 31
0.0
 11
8.6522482613
 21
6.186660192
 31
0.0
 11
8.6519805295
 21
6.1885377338
 31
0.0
 11
8.6517127586
 21
6.1900133359
 31
0.0
 11
8.651445025
 21
6.1910853947
 31
0.0
 11
8.651311197
 21
6.1914696233
 31
0.0
 11
8.6511774081
 21
6.1917523997
 31
0.0
  0
SPLINE
  5
434
100
AcDbEntity
  8
0
100
AcDbSpline
 62
6
  6
CONTINUOUS
 70
0
 71
3
 72
12
 73
8
 74
6
 42
0.0000001
 43
0.0000001
 44
0.0000000001
 12
-0.0008845798
 22
-0.0081209648
 32
0.0
 13
-0.0040916271
 23
-0.0070704412
 33
0.0
 40
0.0
 40
0.0
 40
0.0
 40
0.0
 40
0.3725924881
 40
0.6633426529
 40
0.8720518227
 40
0.9459075832
 40
1.0
 40
1.0
 40
1.0
 40
1.0
 10
8.6448543541
 20
5.722867529
 30
0.0
 10
8.6447444915
 20
5.7218589256
 30
0.0
 10
8.6445330738
 20
5.7200645369
 30
0.0
 10
8.6441789594
 20
5.7177168939
 30
0.0
 10
8.6438696555
 20
5.7161836661
 30
0.0
 10
8.6436017948
 20
5.7153067916
 30
0.0
 10
8.6434655439
 20
5.7149840035
 30
0.0
 10
8.6433917686
 20
5.7148565178
 30
0.0
 11
8.6448543541
 21
5.722867529
 31
0.0
 11
8.6444887077
 21
5.719845864
 31
0.0
 11
8.6441230613
 21
5.71749904
 31
0.0
 11
8.643757415
 21
5.7158337651
 31
0.0
 11
8.6435745918
 21
5.7152588043
 31
0.0
 11
8.6433917686
 21
5.7148565178
 31
0.0
  0
LINE
  5
435
100
AcDbEntity
  8
0
100
AcDbLine
 62
6
  6
CONTINUOUS
 10
8.6022997276
 20
5.716716979
 11
8.6017217389
 21
5.7148570283
  0
SPLINE
  5
436
100
AcDbEntity
  8
0
100
AcDbSpline
 62
6
  6
CONTINUOUS
 70
0
 71
3
 72
13
 73
9
 74
7
 42
0.0000001
 43
0.0000001
 44
0.0000000001
 12
-0.0040480885
 22
0.0
 32
0.0
 13
-0.0006118645
 23
0.00400158
 33
0.0
 40
0.0
 40
0.0
 40
0.0
 40
0.0
 40
0.0924845116
 40
0.1741238666
 40
0.2828421648
 40
0.4194903044
 40
0.5844580612
 40
1.0
 40
1.0
 40
1.0
 40
1.0
 10
8.6300378702
 20
5.6920167727
 30
0.0
 10
8.629913075
 20
5.6920167727
 30
0.0
 10
8.6297356679
 20
5.6922481729
 30
0.0
 10
8.6295872036
 20
5.6925791481
 30
0.0
 10
8.6294424908
 20
5.6930038759
 30
0.0
 10
8.6293020222
 20
5.6935370587
 30
0.0
 10
8.6290948561
 20
5.6944837634
 30
0.0
 10
8.6289657728
 20
5.6952562928
 30
0.0
 10
8.6288810211
 20
5.6958105676
 30
0.0
 11
8.6300378702
 21
5.6920167727
 31
0.0
 11
8.6297488825
 21
5.6922547866
 31
0.0
 11
8.6296043011
 21
5.6925519658
 31
0.0
 11
8.6294596782
 21
5.6929676259
 31
0.0
 11
8.6293150262
 21
5.6935015416
 31
0.0
 11
8.6291703576
 21
5.6941534874
 31
0.0
 11
8.6288810211
 21
5.6958105676
 31
0.0
  0
LINE
  5
437
100
AcDbEntity
  8
0
100
AcDbLine
 62
6
  6
CONTINUOUS
 10
8.6288810211
 20
5.6958105676
 11
8.6277229001
 21
5.7070932022
  0
SPLINE
  5
438
100
AcDbEntity
  8
0
100
AcDbSpline
 62
6
  6
CONTINUOUS
 70
0
 71
3
 72
22
 73
18
 74
16
 42
0.0000001
 43
0.0000001
 44
0.0000000001
 12
-0.0357914083
 22
0.461483406
 32
0.0
 13
-0.029654799
 23
0.4619183389
 33
0.0
 40
0.0
 40
0.0
 40
0.0
 40
0.0
 40
0.0150745473
 40
0.0328340053
 40
0.0760195529
 40
0.1286206645
 40
0.1894942189
 40
0.2573137945
 40
0.3305997702
 40
0.4870943262
 40
0.6453920538
 40
0.720896171
 40
0.7917511325
 40
0.8564129487
 40
0.9134702302
 40
0.9616816875
 40
1.0
 40
1.0
 40
1.0
 40
1.0
 10
8.6277229001
 20
5.7070932022
 30
0.0
 10
8.6275430537
 20
5.7094120866
 30
0.0
 10
8.6271929615
 20
5.7144660952
 30
0.0
 10
8.6265017101
 20
5.7261748568
 30
0.0
 10
8.6256680184
 20
5.7436744733
 30
0.0
 10
8.624709837
 20
5.7678266235
 30
0.0
 10
8.6237471589
 20
5.7957820031
 30
0.0
 10
8.6227806559
 20
5.8269303486
 30
0.0
 10
8.6214606608
 20
5.8728280481
 30
0.0
 10
8.6198647048
 20
5.9326832997
 30
0.0
 10
8.6182760682
 20
5.9928810834
 30
0.0
 10
8.6169633571
 20
6.0398681885
 30
0.0
 10
8.6159958184
 20
6.0724122026
 30
0.0
 10
8.6150307883
 20
6.1021087694
 30
0.0
 10
8.6140704676
 20
6.1283098813
 30
0.0
 10
8.6131164184
 20
6.150443425
 30
0.0
 10
8.6124066399
 20
6.1637758338
 30
0.0
 10
8.6120278659
 20
6.1696758109
 30
0.0
 11
8.6277229001
 21
5.7070932022
 31
0.0
 11
8.6272324512
 21
5.7140534888
 31
0.0
 11
8.6267419718
 21
5.7222591504
 31
0.0
 11
8.6257610213
 21
5.7422243291
 31
0.0
 11
8.6247800933
 21
5.7665519989
 31
0.0
 11
8.6237991555
 21
5.7947114161
 31
0.0
 11
8.6228182123
 21
5.8260876831
 31
0.0
 11
8.6218372795
 21
5.859995323
 31
0.0
 11
8.6198753976
 21
5.9324052707
 31
0.0
 11
8.6179135104
 21
6.0056501537
 31
0.0
 11
8.6169325657
 21
6.0405849198
 31
0.0
 11
8.6159516342
 21
6.073366831
 31
0.0
 11
8.6149706945
 21
6.1032807193
 31
0.0
 11
8.6139897637
 21
6.1296725581
 31
0.0
 11
8.6130088253
 21
6.1519665898
 31
0.0
 11
8.6120278659
 21
6.1696758109
 31
0.0
  0
SPLINE
  5
439
100
AcDbEntity
  8
0
100
AcDbSpline
 62
6
  6
CONTINUOUS
 70
0
 71
3
 72
15
 73
11
 74
9
 42
0.0000001
 43
0.0000001
 44
0.0000000001
 12
-0.0011597256
 22
0.0149631495
 32
0.0
 13
-0.0074989166
 23
0.0130002714
 33
0.0
 40
0.0
 40
0.0
 40
0.0
 40
0.0
 40
0.3883628242
 40
0.5482692706
 40
0.6850571162
 40
0.7985558995
 40
0.8887090311
 40
0.9556636187
 40
0.9805912091
 40
1.0
 40
1.0
 40
1.0
 40
1.0
 10
8.6115194386
 20
6.1769194757
 30
0.0
 10
8.6113693071
 20
6.1788565194
 30
0.0
 10
8.6111396042
 20
6.1815899599
 30
0.0
 10
8.6107844723
 20
6.1849987695
 30
0.0
 10
8.610536499
 20
6.1870358716
 30
0.0
 10
8.6102903369
 20
6.1887214987
 30
0.0
 10
8.6100456561
 20
6.1900529814
 30
0.0
 10
8.6098308339
 20
6.1909396128
 30
0.0
 10
8.6096484111
 20
6.1914659344
 30
0.0
 10
8.6095558845
 20
6.1916684121
 30
0.0
 10
8.6095073696
 20
6.1917525186
 30
0.0
 11
8.6115194386
 21
6.1769194757
 31
0.0
 11
8.6110165354
 21
6.1827262982
 31
0.0
 11
8.6107650646
 21
6.1851129665
 31
0.0
 11
8.6105135581
 21
6.1871504174
 31
0.0
 11
8.6102619994
 21
6.1888351323
 31
0.0
 11
8.6100104061
 21
6.1901645552
 31
0.0
 11
8.6097588409
 21
6.1911374122
 31
0.0
 11
8.6096330894
 21
6.1914897583
 31
0.0
 11
8.6095073696
 21
6.1917525186
 31
0.0
  0
SPLINE
  5
43A
100
AcDbEntity
  8
0
100
AcDbSpline
 62
6
  6
CONTINUOUS
 70
0
 71
3
 72
42
 73
38
 74
36
 42
0.0000001
 43
0.0000001
 44
0.0000000001
 12
-0.4531363674
 22
0.0007672133
 32
0.0
 13
-0.0873565437
 23
0.4446369196
 33
0.0
 40
0.0
 40
0.0
 40
0.0
 40
0.0
 40
0.0008778342
 40
0.0016441581
 40
0.002662355
 40
0.0039408338
 40
0.0054835239
 40
0.0072924384
 40
0.0093683988
 40
0.0143189447
 40
0.0203273889
 40
0.0273833047
 40
0.0354750366
 40
0.0546948652
 40
0.0778200728
 40
0.1046559675
 40
0.1349656137
 40
0.1684895847
 40
0.2049319256
 40
0.2439785677
 40
0.2852855229
 40
0.328495276
 40
0.3732280873
 40
0.4656954582
 40
0.5594651514
 40
0.6512691185
 40
0.7379080679
 40
0.8163634595
 40
0.85165365
 40
0.8839036127
 40
0.9128279454
 40
0.9381804662
 40
0.9597363866
 40
0.9773168787
 40
0.9907692189
 40
0.9959166702
 40
1.0
 40
1.0
 40
1.0
 40
1.0
 10
8.6847271482
 20
5.7145669548
 30
0.0
 10
8.6845945553
 20
5.7145671793
 30
0.0
 10
8.6844037623
 20
5.7148068191
 30
0.0
 10
8.6842437298
 20
5.7151551037
 30
0.0
 10
8.6840885854
 20
5.7155988734
 30
0.0
 10
8.6839379878
 20
5.7161565366
 30
0.0
 10
8.6837845065
 20
5.7168399181
 30
0.0
 10
8.683631226
 20
5.7176450745
 30
0.0
 10
8.6834131025
 20
5.7189619039
 30
0.0
 10
8.6831473486
 20
5.7209130308
 30
0.0
 10
8.6828419162
 20
5.7236170605
 30
0.0
 10
8.6825353548
 20
5.7267979657
 30
0.0
 10
8.6821001911
 20
5.7319708441
 30
0.0
 10
8.681570261
 20
5.7395709755
 30
0.0
 10
8.6809603413
 20
5.7500027475
 30
0.0
 10
8.6803483739
 20
5.7621119446
 30
0.0
 10
8.6797344121
 20
5.7757934612
 30
0.0
 10
8.6791195015
 20
5.7909272586
 30
0.0
 10
8.6785036688
 20
5.8073816941
 30
0.0
 10
8.6778873782
 20
5.8250124607
 30
0.0
 10
8.6772705972
 20
5.8436659842
 30
0.0
 10
8.6766535801
 20
5.8631788168
 30
0.0
 10
8.6758213875
 20
5.8904162504
 30
0.0
 10
8.6747951198
 20
5.9252881591
 30
0.0
 10
8.6735760495
 20
5.9672673535
 30
0.0
 10
8.672358014
 20
6.0083658556
 30
0.0
 10
8.6711422375
 20
6.0471502041
 30
0.0
 10
8.6701003387
 20
6.0773995901
 30
0.0
 10
8.6692493232
 20
6.0994351949
 30
0.0
 10
8.6686347669
 20
6.1139928085
 30
0.0
 10
8.6680214847
 20
6.1270479899
 30
0.0
 10
8.6674102042
 20
6.1384859489
 30
0.0
 10
8.6668025757
 20
6.1482080476
 30
0.0
 10
8.6661990287
 20
6.1561284632
 30
0.0
 10
8.6656706487
 20
6.1615689603
 30
0.0
 10
8.6652249552
 20
6.1649662634
 30
0.0
 10
8.6649989625
 20
6.1663426781
 30
0.0
 10
8.6648800606
 20
6.1669478779
 30
0.0
 11
8.6847271482
 21
5.7145669548
 31
0.0
 11
8.6844170376
 21
5.7148160726
 31
0.0
 11
8.6842619822
 21
5.7151267818
 31
0.0
 11
8.6841069269
 21
5.7155613297
 31
0.0
 11
8.6839518716
 21
5.7161195201
 31
0.0
 11
8.6837968163
 21
5.7168011569
 31
0.0
 11
8.6836417609
 21
5.7176060439
 31
0.0
 11
8.6834867056
 21
5.7185338715
 31
0.0
 11
8.6831765949
 21
5.7207556089
 31
0.0
 11
8.6828664843
 21
5.7234605388
 31
0.0
 11
8.6825563736
 21
5.7266427609
 31
0.0
 11
8.6822462629
 21
5.7302962867
 31
0.0
 11
8.6816260416
 21
5.7389833901
 31
0.0
 11
8.6810058202
 21
5.7494439068
 31
0.0
 11
8.6803855989
 21
5.761588417
 31
0.0
 11
8.6797653775
 21
5.7753088285
 31
0.0
 11
8.6791451561
 21
5.7904871141
 31
0.0
 11
8.6785249346
 21
5.8069888363
 31
0.0
 11
8.6779047132
 21
5.8246714413
 31
0.0
 11
8.6772844918
 21
5.8433788733
 31
0.0
 11
8.6766642703
 21
5.8629489863
 31
0.0
 11
8.6760440488
 21
5.883209588
 31
0.0
 11
8.6748036059
 21
5.9250916112
 31
0.0
 11
8.6735631629
 21
5.96756402
 31
0.0
 11
8.6723227198
 21
6.0091452976
 31
0.0
 11
8.6710822767
 21
6.0483850111
 31
0.0
 11
8.6698418336
 21
6.083914406
 31
0.0
 11
8.669221612
 21
6.0998936654
 31
0.0
 11
8.6686013904
 21
6.1144941499
 31
0.0
 11
8.6679811688
 21
6.1275861527
 31
0.0
 11
8.6673609472
 21
6.139057564
 31
0.0
 11
8.6667407255
 21
6.1488056385
 31
0.0
 11
8.6661205039
 21
6.1567478299
 31
0.0
 11
8.6655002823
 21
6.1628119485
 31
0.0
 11
8.6651901714
 21
6.1651237423
 31
0.0
 11
8.6648800606
 21
6.1669478779
 31
0.0
  0
LINE
  5
43B
100
AcDbEntity
  8
0
100
AcDbLine
 62
6
  6
CONTINUOUS
 10
8.6648800606
 20
6.1669478779
 11
8.6642267886
 21
6.169176512
  0
SPLINE
  5
43C
100
AcDbEntity
  8
0
100
AcDbSpline
 62
6
  6
CONTINUOUS
 70
0
 71
3
 72
15
 73
11
 74
9
 42
0.0000001
 43
0.0000001
 44
0.0000000001
 12
-0.0044897231
 22
0.0
 32
0.0
 13
-0.0006445485
 23
0.0044432163
 33
0.0
 40
0.0
 40
0.0
 40
0.0
 40
0.0
 40
0.0370014357
 40
0.0620580545
 40
0.092935914
 40
0.1740233778
 40
0.2824600144
 40
0.4190156122
 40
0.584033917
 40
1.0
 40
1.0
 40
1.0
 40
1.0
 10
8.5883678399
 20
5.6920167727
 30
0.0
 10
8.5883124645
 20
5.6920167727
 30
0.0
 10
8.5882222464
 20
5.6920663109
 30
0.0
 10
8.5881318462
 20
5.6921707196
 30
0.0
 10
8.5880203235
 20
5.6923441588
 30
0.0
 10
8.5878896258
 20
5.6926482988
 30
0.0
 10
8.5877408062
 20
5.6931133482
 30
0.0
 10
8.5875913335
 20
5.6937088244
 30
0.0
 10
8.5873734602
 20
5.6947605011
 30
0.0
 10
8.5872370784
 20
5.6956197072
 30
0.0
 10
8.5871477083
 20
5.696235783
 30
0.0
 11
8.5883678399
 21
5.6920167727
 31
0.0
 11
8.5882154943
 21
5.6920830202
 31
0.0
 11
8.5881392912
 21
5.6921657773
 31
0.0
 11
8.5880630704
 21
5.6922815768
 31
0.0
 11
8.5879105831
 21
5.6926121633
 31
0.0
 11
8.5877580469
 21
5.693074501
 31
0.0
 11
8.5876054767
 21
5.6936683108
 31
0.0
 11
8.587452887
 21
5.6943933137
 31
0.0
 11
8.5871477083
 21
5.696235783
 31
0.0
  0
LINE
  5
43D
100
AcDbEntity
  8
0
100
AcDbLine
 62
6
  6
CONTINUOUS
 10
8.5871477083
 20
5.696235783
 11
8.5859263317
 21
5.7087673013
  0
SPLINE
  5
43E
100
AcDbEntity
  8
0
100
AcDbSpline
 62
6
  6
CONTINUOUS
 70
0
 71
3
 72
22
 73
18
 74
16
 42
0.0000001
 43
0.0000001
 44
0.0000000001
 12
-0.033858302
 22
0.4593678866
 32
0.0
 13
-0.0291546186
 23
0.4596903828
 33
0.0
 40
0.0
 40
0.0
 40
0.0
 40
0.0
 40
0.015674334
 40
0.0339688917
 40
0.0780273581
 40
0.1312387764
 40
0.1924713454
 40
0.2604219749
 40
0.3336381319
 40
0.4895175465
 40
0.6468538181
 40
0.7218635601
 40
0.7922738637
 40
0.8565819618
 40
0.9134163939
 40
0.9615640956
 40
1.0
 40
1.0
 40
1.0
 40
1.0
 10
8.5859263317
 20
5.7087673013
 30
0.0
 10
8.5857494296
 20
5.7111673965
 30
0.0
 10
8.5854040774
 20
5.7163716057
 30
0.0
 10
8.58472169
 20
5.7283324168
 30
0.0
 10
8.5838965697
 20
5.7460571553
 30
0.0
 10
8.5829473025
 20
5.7703748648
 30
0.0
 10
8.5819938463
 20
5.7983632266
 30
0.0
 10
8.5810368908
 20
5.8294245081
 30
0.0
 10
8.5797314116
 20
5.8750137241
 30
0.0
 10
8.5781517403
 20
5.9343246832
 30
0.0
 10
8.5765780691
 20
5.993911267
 30
0.0
 10
8.5752785003
 20
6.0403777093
 30
0.0
 10
8.5743207795
 20
6.0725647324
 30
0.0
 10
8.5733654836
 20
6.1019598897
 30
0.0
 10
8.5724146867
 20
6.1279351286
 30
0.0
 10
8.5714699369
 20
6.1499350586
 30
0.0
 10
8.5707680899
 20
6.1632109828
 30
0.0
 10
8.5703945619
 20
6.1691005213
 30
0.0
 11
8.5859263317
 21
5.7087673013
 31
0.0
 11
8.5854409957
 21
5.7159707874
 31
0.0
 11
8.5849556262
 21
5.7243835265
 31
0.0
 11
8.5839848895
 21
5.7446542418
 31
0.0
 11
8.5830141822
 21
5.7691449352
 31
0.0
 11
8.5820434586
 21
5.7973328029
 31
0.0
 11
8.5810726844
 21
5.8286167544
 31
0.0
 11
8.58010189
 21
5.8623271644
 31
0.0
 11
8.5781603598
 21
5.9341011472
 31
0.0
 11
8.5762188993
 21
6.0065464237
 31
0.0
 11
8.5752481549
 21
6.0410833197
 31
0.0
 11
8.5742774349
 21
6.0735007595
 31
0.0
 11
8.5733067302
 21
6.103106059
 31
0.0
 11
8.5723360221
 21
6.1292667899
 31
0.0
 11
8.5713653018
 21
6.1514230399
 31
0.0
 11
8.5703945619
 21
6.1691005213
 31
0.0
  0
LINE
  5
43F
100
AcDbEntity
  8
0
100
AcDbLine
 62
6
  6
CONTINUOUS
 10
8.5703945619
 20
6.1691005213
 11
8.5703573197
 21
6.1696841524
  0
SPLINE
  5
440
100
AcDbEntity
  8
0
100
AcDbSpline
 62
6
  6
CONTINUOUS
 70
0
 71
3
 72
15
 73
11
 74
9
 42
0.0000001
 43
0.0000001
 44
0.0000000001
 12
-0.0012250459
 22
0.0166206713
 32
0.0
 13
-0.0083249356
 23
0.0144375517
 33
0.0
 40
0.0
 40
0.0
 40
0.0
 40
0.0
 40
0.3902602808
 40
0.5507195822
 40
0.6877507607
 40
0.8011483364
 40
0.8908313584
 40
0.9569271402
 40
0.9812731955
 40
1.0
 40
1.0
 40
1.0
 40
1.0
 10
8.5699743522
 20
6.1752662357
 30
0.0
 10
8.56981499
 20
6.177428365
 30
0.0
 10
8.5695712466
 20
6.180478293
 30
0.0
 10
8.5691939862
 20
6.1842804003
 30
0.0
 10
8.5689307233
 20
6.1865478252
 30
0.0
 10
8.5686695042
 20
6.1884195287
 30
0.0
 10
8.5684098729
 20
6.1898921326
 30
0.0
 10
8.5681820651
 20
6.1908683502
 30
0.0
 10
8.5679878845
 20
6.1914431825
 30
0.0
 10
8.5678893298
 20
6.1916622816
 30
0.0
 10
8.5678373633
 20
6.1917524047
 30
0.0
 11
8.5699743522
 21
6.1752662357
 31
0.0
 11
8.5694402376
 21
6.1817482505
 31
0.0
 11
8.5691731573
 21
6.1844090557
 31
0.0
 11
8.568906034
 21
6.1866771077
 31
0.0
 11
8.5686388481
 21
6.1885479816
 31
0.0
 11
8.5683716233
 21
6.1900185345
 31
0.0
 11
8.5681044353
 21
6.1910871751
 31
0.0
 11
8.5679708799
 21
6.1914703099
 31
0.0
 11
8.5678373633
 21
6.1917524047
 31
0.0
  0
SPLINE
  5
441
100
AcDbEntity
  8
0
100
AcDbSpline
 62
6
  6
CONTINUOUS
 70
0
 71
3
 72
44
 73
40
 74
38
 42
0.0000001
 43
0.0000001
 44
0.0000000001
 12
-0.4539208748
 22
0.0002775475
 32
0.0
 13
-0.1040386192
 23
0.4418373041
 33
0.0
 40
0.0
 40
0.0
 40
0.0
 40
0.0
 40
0.0008855112
 40
0.0016612762
 40
0.0026933794
 40
0.0039905987
 40
0.0055566436
 40
0.0073926958
 40
0.0094989513
 40
0.0145203254
 40
0.0206153261
 40
0.0277754081
 40
0.0359852571
 40
0.0554780865
 40
0.0789315775
 40
0.1061353035
 40
0.1368541922
 40
0.1708122828
 40
0.2077127658
 40
0.2472250574
 40
0.2890017151
 40
0.3326695779
 40
0.3778430903
 40
0.4710900113
 40
0.5654388951
 40
0.6575469641
 40
0.7441511224
 40
0.7844209309
 40
0.8221841447
 40
0.8571097628
 40
0.8888841504
 40
0.9172307665
 40
0.9418945371
 40
0.9626640809
 40
0.9793538353
 40
0.9861256562
 40
0.9918303108
 40
0.9964560971
 40
1.0
 40
1.0
 40
1.0
 40
1.0
 10
8.6430571198
 20
5.7145675085
 30
0.0
 10
8.6429231358
 20
5.7145675904
 30
0.0
 10
8.6427307046
 20
5.7148113541
 30
0.0
 10
8.6425696366
 20
5.7151645114
 30
0.0
 10
8.6424131767
 20
5.7156156382
 30
0.0
 10
8.6422613932
 20
5.7161827138
 30
0.0
 10
8.6421066801
 20
5.7168778232
 30
0.0
 10
8.6419521512
 20
5.7176966173
 30
0.0
 10
8.6417322176
 20
5.7190351607
 30
0.0
 10
8.6414642085
 20
5.7210180737
 30
0.0
 10
8.6411562035
 20
5.7237663776
 30
0.0
 10
8.6408472031
 20
5.7269995467
 30
0.0
 10
8.6404084994
 20
5.7322563424
 30
0.0
 10
8.6398740342
 20
5.7399784827
 30
0.0
 10
8.6392592962
 20
5.7505749654
 30
0.0
 10
8.6386420888
 20
5.7628723603
 30
0.0
 10
8.6380232163
 20
5.7767608195
 30
0.0
 10
8.6374031001
 20
5.7921177187
 30
0.0
 10
8.6367822942
 20
5.8088060794
 30
0.0
 10
8.6361608314
 20
5.8266781779
 30
0.0
 10
8.6355390362
 20
5.8455747974
 30
0.0
 10
8.6349168791
 20
5.8653284279
 30
0.0
 10
8.6340782728
 20
5.8928668972
 30
0.0
 10
8.6330441574
 20
5.9280713415
 30
0.0
 10
8.6318154156
 20
5.9703746499
 30
0.0
 10
8.6305876125
 20
6.0116724606
 30
0.0
 10
8.6295432302
 20
6.0447895531
 30
0.0
 10
8.6286938189
 20
6.0696858384
 30
0.0
 10
8.6280726881
 20
6.0867659983
 30
0.0
 10
8.6274524102
 20
6.1025598654
 30
0.0
 10
8.626833021
 20
6.1169277882
 30
0.0
 10
8.6262152144
 20
6.1297414936
 30
0.0
 10
8.6255997811
 20
6.1408880951
 30
0.0
 10
8.6249875478
 20
6.1502679131
 30
0.0
 10
8.6244530459
 20
6.1569396014
 30
0.0
 10
8.6240099819
 20
6.1613304905
 30
0.0
 10
8.6237029982
 20
6.1639001958
 30
0.0
 10
8.6233980981
 20
6.165977359
 30
0.0
 10
8.6231684907
 20
6.1671929493
 30
0.0
 10
8.6230455898
 20
6.1677148921
 30
0.0
 11
8.6430571198
 21
5.7145675085
 31
0.0
 11
8.6427444396
 21
5.7148200884
 31
0.0
 11
8.6425880995
 21
5.7151356157
 31
0.0
 11
8.6424317594
 21
5.7155772533
 31
0.0
 11
8.6422754194
 21
5.7161449544
 31
0.0
 11
8.6421190793
 21
5.7168384099
 31
0.0
 11
8.6419627392
 21
5.7176570374
 31
0.0
 11
8.6418063991
 21
5.7186002417
 31
0.0
 11
8.6414937189
 21
5.7208579997
 31
0.0
 11
8.6411810388
 21
5.7236069223
 31
0.0
 11
8.6408683586
 21
5.7268419578
 31
0.0
 11
8.6405556784
 21
5.7305554395
 31
0.0
 11
8.6399303181
 21
5.7393815165
 31
0.0
 11
8.6393049577
 21
5.7500091646
 31
0.0
 11
8.6386795974
 21
5.7623416607
 31
0.0
 11
8.638054237
 21
5.7762715779
 31
0.0
 11
8.6374288767
 21
5.7916731763
 31
0.0
 11
8.6368035164
 21
5.8084114009
 31
0.0
 11
8.636178156
 21
5.8263359526
 31
0.0
 11
8.6355527957
 21
5.845288939
 31
0.0
 11
8.6349274354
 21
5.8651008299
 31
0.0
 11
8.634302075
 21
5.8855964958
 31
0.0
 11
8.6330513544
 21
5.9279047447
 31
0.0
 11
8.6318006338
 21
5.9707134136
 31
0.0
 11
8.6305499131
 21
6.0125044851
 31
0.0
 11
8.6292991925
 21
6.0517960265
 31
0.0
 11
8.6286738322
 21
6.0700646362
 31
0.0
 11
8.6280484719
 21
6.0871947395
 31
0.0
 11
8.6274231117
 21
6.1030358707
 31
0.0
 11
8.6267977514
 21
6.1174453675
 31
0.0
 11
8.6261723911
 21
6.130297285
 31
0.0
 11
8.6255470308
 21
6.1414752079
 31
0.0
 11
8.6249216706
 21
6.1508821756
 31
0.0
 11
8.6242963103
 21
6.15843215
 31
0.0
 11
8.6239836302
 21
6.1614900769
 31
0.0
 11
8.6236709501
 21
6.1640605917
 31
0.0
 11
8.6233582699
 21
6.1661369214
 31
0.0
 11
8.6230455898
 21
6.1677148921
 31
0.0
  0
LINE
  5
442
100
AcDbEntity
  8
0
100
AcDbLine
 62
6
  6
CONTINUOUS
 10
8.6229991021
 20
6.1679067805
 11
8.6225567518
 21
6.1691769904
  0
SPLINE
  5
443
100
AcDbEntity
  8
0
100
AcDbSpline
 62
6
  6
CONTINUOUS
 70
0
 71
3
 72
39
 73
35
 74
33
 42
0.0000001
 43
0.0000001
 44
0.0000000001
 12
-0.447979392
 22
-0.0007863252
 32
0.0
 13
-0.0505539963
 23
0.4451184645
 33
0.0
 40
0.0
 40
0.0
 40
0.0
 40
0.0
 40
0.0008415726
 40
0.0015660479
 40
0.0025261987
 40
0.0037300562
 40
0.0051811649
 40
0.0068811442
 40
0.008830664
 40
0.0134784795
 40
0.0191225456
 40
0.0257534252
 40
0.0333575327
 40
0.0514280156
 40
0.0731975392
 40
0.0984878949
 40
0.1271009658
 40
0.1588011598
 40
0.1933372661
 40
0.2304256928
 40
0.2697702645
 40
0.3110493808
 40
0.353931332
 40
0.443100636
 40
0.5343957665
 40
0.6248653163
 40
0.711584651
 40
0.7917508274
 40
0.862773738
 40
0.9223608314
 40
0.9472487827
 40
0.9685940771
 40
0.9862215453
 40
1.0
 40
1.0
 40
1.0
 40
1.0
 10
8.6013870914
 20
5.7145672482
 30
0.0
 10
8.6012614224
 20
5.7145670276
 30
0.0
 10
8.6010766514
 20
5.7147858435
 30
0.0
 10
8.6009216723
 20
5.7151117104
 30
0.0
 10
8.6007722619
 20
5.7155232762
 30
0.0
 10
8.6006271848
 20
5.716041251
 30
0.0
 10
8.6004793806
 20
5.716675487
 30
0.0
 10
8.6003317533
 20
5.7174225464
 30
0.0
 10
8.6001216673
 20
5.71864382
 30
0.0
 10
8.5998656182
 20
5.7204540508
 30
0.0
 10
8.599571521
 20
5.7229640485
 30
0.0
 10
8.5992763717
 20
5.7259179214
 30
0.0
 10
8.5988571473
 20
5.730723831
 30
0.0
 10
8.5983465598
 20
5.7377904137
 30
0.0
 10
8.5977593044
 20
5.7474984778
 30
0.0
 10
8.5971697115
 20
5.7587831805
 30
0.0
 10
8.5965785397
 20
5.7715524587
 30
0.0
 10
8.5959861472
 20
5.785703644
 30
0.0
 10
8.5953931221
 20
5.8011214051
 30
0.0
 10
8.5947994317
 20
5.8176814305
 30
0.0
 10
8.5942054399
 20
5.8352489616
 30
0.0
 10
8.5936110709
 20
5.8536820759
 30
0.0
 10
8.5928079127
 20
5.8795524677
 30
0.0
 10
8.5918167408
 20
5.9128893236
 30
0.0
 10
8.590641313
 20
5.9533299187
 30
0.0
 10
8.5894663028
 20
5.9934045316
 30
0.0
 10
8.5882928099
 20
6.0318166023
 30
0.0
 10
8.5871231215
 20
6.0673234975
 30
0.0
 10
8.5859584956
 20
6.0987765187
 30
0.0
 10
8.5849479668
 20
6.1219749373
 30
0.0
 10
8.5841109427
 20
6.1377546586
 30
0.0
 10
8.583524542
 20
6.1472729454
 30
0.0
 10
8.5829417173
 20
6.1551286435
 30
0.0
 10
8.5825062063
 20
6.1597988766
 30
0.0
 10
8.582274021
 20
6.1618432248
 30
0.0
 11
8.6013870914
 21
5.7145672482
 31
0.0
 11
8.6010884496
 21
5.7147973523
 31
0.0
 11
8.6009391287
 21
5.7150855125
 31
0.0
 11
8.6007898077
 21
5.7154888904
 31
0.0
 11
8.6006404868
 21
5.7160071107
 31
0.0
 11
8.6004911659
 21
5.7166397965
 31
0.0
 11
8.600341845
 21
5.717386571
 31
0.0
 11
8.6001925241
 21
5.7182470572
 31
0.0
 11
8.5998938822
 21
5.7203076575
 31
0.0
 11
8.5995952404
 21
5.7228183879
 31
0.0
 11
8.5992965986
 21
5.7257738396
 31
0.0
 11
8.5989979568
 21
5.7291672124
 31
0.0
 11
8.5984006731
 21
5.7372403642
 31
0.0
 11
8.5978033895
 21
5.7469743696
 31
0.0
 11
8.5972061059
 21
5.7582881902
 31
0.0
 11
8.5966088223
 21
5.7710923526
 31
0.0
 11
8.5960115387
 21
5.785280842
 31
0.0
 11
8.5954142552
 21
5.8007407962
 31
0.0
 11
8.5948169716
 21
5.8173449334
 31
0.0
 11
8.5942196881
 21
5.8349603948
 31
0.0
 11
8.5936224046
 21
5.8534429683
 31
0.0
 11
8.5930251211
 21
5.8726439408
 31
0.0
 11
8.5918305541
 21
5.9125721474
 31
0.0
 11
8.5906359872
 21
5.9534530982
 31
0.0
 11
8.5894414204
 21
5.993964046
 31
0.0
 11
8.5882468537
 21
6.0327942103
 31
0.0
 11
8.587052287
 21
6.0686871876
 31
0.0
 11
8.5858577204
 21
6.100481604
 31
0.0
 11
8.5846631539
 21
6.1271486928
 31
0.0
 11
8.5840658706
 21
6.1382819891
 31
0.0
 11
8.5834685874
 21
6.1478255837
 31
0.0
 11
8.5828713042
 21
6.1556997178
 31
0.0
 11
8.582274021
 21
6.1618432248
 31
0.0
  0
SPLINE
  5
444
100
AcDbEntity
  8
0
100
AcDbSpline
 62
6
  6
CONTINUOUS
 70
0
 71
3
 72
12
 73
8
 74
6
 42
0.0000001
 43
0.0000001
 44
0.0000000001
 12
-0.0008449948
 22
0.0074400209
 32
0.0
 13
-0.0037499206
 23
0.0064812053
 33
0.0
 40
0.0
 40
0.0
 40
0.0
 40
0.0
 40
0.3703439915
 40
0.6602629505
 40
0.8696874874
 40
0.9445227611
 40
1.0
 40
1.0
 40
1.0
 40
1.0
 10
8.582274021
 20
6.1618432248
 30
0.0
 10
8.5821697081
 20
6.1627616805
 30
0.0
 10
8.5819687341
 20
6.1643978391
 30
0.0
 10
8.581632621
 20
6.1665420622
 30
0.0
 10
8.5813386384
 20
6.1679474646
 30
0.0
 10
8.5810850569
 20
6.1687568593
 30
0.0
 10
8.5809560878
 20
6.1690573009
 30
0.0
 10
8.5808867427
 20
6.1691771541
 30
0.0
 11
8.582274021
 21
6.1618432248
 31
0.0
 11
8.5819272014
 21
6.1645945326
 31
0.0
 11
8.5815803819
 21
6.1667375197
 31
0.0
 11
8.5812335623
 21
6.1682668264
 31
0.0
 11
8.5810601525
 21
6.1687996747
 31
0.0
 11
8.5808867427
 21
6.1691771541
 31
0.0
  0
SPLINE
  5
445
100
AcDbEntity
  8
0
100
AcDbSpline
 62
6
  6
CONTINUOUS
 70
0
 71
3
 72
15
 73
11
 74
9
 42
0.0000001
 43
0.0000001
 44
0.0000000001
 12
-0.0044890496
 22
0.0
 32
0.0
 13
-0.0006445021
 23
0.0044425424
 33
0.0
 40
0.0
 40
0.0
 40
0.0
 40
0.0
 40
0.0370036171
 40
0.0620609484
 40
0.0929392998
 40
0.1740272337
 40
0.2824638285
 40
0.4190189763
 40
0.5840364773
 40
1.0
 40
1.0
 40
1.0
 40
1.0
 10
8.4633578638
 20
5.6920167727
 30
0.0
 10
8.4633024934
 20
5.6920167727
 30
0.0
 10
8.4632122835
 20
5.6920663014
 30
0.0
 10
8.463121889
 20
5.6921706947
 30
0.0
 10
8.4630103754
 20
5.6923441059
 30
0.0
 10
8.4628796876
 20
5.6926481978
 30
0.0
 10
8.4627308795
 20
5.693113174
 30
0.0
 10
8.4625814185
 20
5.6937085562
 30
0.0
 10
8.4623635624
 20
5.6947600661
 30
0.0
 10
8.4622271912
 20
5.6956191367
 30
0.0
 10
8.4621378281
 20
5.6962351152
 30
0.0
 11
8.4633578638
 21
5.6920167727
 31
0.0
 11
8.4632055301
 21
5.6920830098
 31
0.0
 11
8.4631293331
 21
5.6921657537
 31
0.0
 11
8.4630531183
 21
5.6922815349
 31
0.0
 11
8.4629006429
 21
5.6926120691
 31
0.0
 11
8.4627481187
 21
5.6930743336
 31
0.0
 11
8.4625955604
 21
5.6936680494
 31
0.0
 11
8.4624429828
 21
5.6943929376
 31
0.0
 11
8.4621378281
 21
5.6962351152
 31
0.0
  0
LINE
  5
446
100
AcDbEntity
  8
0
100
AcDbLine
 62
6
  6
CONTINUOUS
 10
8.4621378281
 20
5.6962351152
 11
8.460916546
 21
5.7087646911
  0
SPLINE
  5
447
100
AcDbEntity
  8
0
100
AcDbSpline
 62
6
  6
CONTINUOUS
 70
0
 71
3
 72
22
 73
18
 74
16
 42
0.0000001
 43
0.0000001
 44
0.0000000001
 12
-0.0338610344
 22
0.4593702998
 32
0.0
 13
-0.0291548332
 23
0.459692982
 33
0.0
 40
0.0
 40
0.0
 40
0.0
 40
0.0
 40
0.0156734111
 40
0.0339671103
 40
0.0780240065
 40
0.1312346316
 40
0.1924651727
 40
0.2604106152
 40
0.3336215417
 40
0.4894964376
 40
0.6468373071
 40
0.721852277
 40
0.792268546
 40
0.8565806131
 40
0.9134155531
 40
0.9615637438
 40
1.0
 40
1.0
 40
1.0
 40
1.0
 10
8.460916546
 20
5.7087646911
 30
0.0
 10
8.4607396401
 20
5.7111646577
 30
0.0
 10
8.4603942819
 20
5.716368622
 30
0.0
 10
8.4597118842
 20
5.7283289849
 30
0.0
 10
8.4588867496
 20
5.7460533282
 30
0.0
 10
8.4579374823
 20
5.7703705009
 30
0.0
 10
8.4569840388
 20
5.7983577915
 30
0.0
 10
8.4560271217
 20
5.8294173383
 30
0.0
 10
8.454721677
 20
5.8750045194
 30
0.0
 10
8.453142009
 20
5.9343150234
 30
0.0
 10
8.4515683101
 20
5.9939027592
 30
0.0
 10
8.4502686823
 20
6.0403718886
 30
0.0
 10
8.449310889
 20
6.072561421
 30
0.0
 10
8.4483555491
 20
6.1019583475
 30
0.0
 10
8.447404719
 20
6.1279344955
 30
0.0
 10
8.4464599574
 20
6.149934757
 30
0.0
 10
8.4457581016
 20
6.1632108854
 30
0.0
 10
8.4453845674
 20
6.1691005111
 30
0.0
 11
8.460916546
 21
5.7087646911
 31
0.0
 11
8.4604312035
 21
5.7159677917
 31
0.0
 11
8.4599458277
 21
5.7243801821
 31
0.0
 11
8.45897508
 21
5.7446502878
 31
0.0
 11
8.458004356
 21
5.7691407538
 31
0.0
 11
8.4570336373
 21
5.7973278467
 31
0.0
 11
8.4560629147
 21
5.8286095868
 31
0.0
 11
8.4550921678
 21
5.8623177789
 31
0.0
 11
8.4531506679
 21
5.9340900869
 31
0.0
 11
8.4512091459
 21
6.0065378909
 31
0.0
 11
8.4502383379
 21
6.0410773898
 31
0.0
 11
8.4492675358
 21
6.0734977598
 31
0.0
 11
8.4482967743
 21
6.1031050544
 31
0.0
 11
8.4473260541
 21
6.1292661672
 31
0.0
 11
8.4463553208
 21
6.1514227678
 31
0.0
 11
8.4453845674
 21
6.1691005111
 31
0.0
  0
LINE
  5
448
100
AcDbEntity
  8
0
100
AcDbLine
 62
6
  6
CONTINUOUS
 10
8.4453845674
 20
6.1691005111
 11
8.4453473196
 21
6.169684229
  0
SPLINE
  5
449
100
AcDbEntity
  8
0
100
AcDbSpline
 62
6
  6
CONTINUOUS
 70
0
 71
3
 72
15
 73
11
 74
9
 42
0.0000001
 43
0.0000001
 44
0.0000000001
 12
-0.0012249476
 22
0.0166180544
 32
0.0
 13
-0.0083236355
 23
0.0144352804
 33
0.0
 40
0.0
 40
0.0
 40
0.0
 40
0.0
 40
0.3902573055
 40
0.5507158242
 40
0.6877467036
 40
0.8011444758
 40
0.8908282104
 40
0.956925265
 40
0.981272182
 40
1.0
 40
1.0
 40
1.0
 40
1.0
 10
8.4449641639
 20
6.1752688459
 30
0.0
 10
8.4448048156
 20
6.1774306183
 30
0.0
 10
8.4445610935
 20
6.180480045
 30
0.0
 10
8.4441838668
 20
6.1842815301
 30
0.0
 10
8.4439206272
 20
6.1865485919
 30
0.0
 10
8.443659431
 20
6.1884200024
 30
0.0
 10
8.4433998223
 20
6.1898923843
 30
0.0
 10
8.4431720342
 20
6.190868461
 30
0.0
 10
8.4429778715
 20
6.1914432173
 30
0.0
 10
8.4428793259
 20
6.1916622905
 30
0.0
 10
8.4428273648
 20
6.1917524043
 30
0.0
 11
8.4449641639
 21
6.1752688459
 31
0.0
 11
8.4444300967
 21
6.1817497901
 31
0.0
 11
8.4441630402
 21
6.1844101624
 31
0.0
 11
8.4438959406
 21
6.1866778511
 31
0.0
 11
8.4436287784
 21
6.1885484319
 31
0.0
 11
8.4433615773
 21
6.1900187627
 31
0.0
 11
8.4430944131
 21
6.1910872527
 31
0.0
 11
8.4429608695
 21
6.1914703394
 31
0.0
 11
8.4428273648
 21
6.1917524043
 31
0.0
  0
SPLINE
  5
44A
100
AcDbEntity
  8
0
100
AcDbSpline
 62
6
  6
CONTINUOUS
 70
0
 71
3
 72
9
 73
5
 74
3
 42
0.0000001
 43
0.0000001
 44
0.0000000001
 12
-0.013143124
 22
-0.0087587711
 32
0.0
 13
-0.0112333531
 23
-0.0111026824
 33
0.0
 40
0.0
 40
0.0
 40
0.0
 40
0.0
 40
0.2519784502
 40
1.0
 40
1.0
 40
1.0
 40
1.0
 10
7.2951605969
 20
5.852357258
 30
0.0
 10
7.2940566689
 20
5.8516215842
 30
0.0
 10
7.289744777
 20
5.8485998267
 30
0.0
 10
7.2857164066
 20
5.8451712526
 30
0.0
 10
7.2829154766
 20
5.8424029041
 30
0.0
 11
7.2951605969
 21
5.852357258
 31
0.0
 11
7.2919016629
 21
5.8500729186
 31
0.0
 11
7.2829154766
 21
5.8424029041
 31
0.0
  0
SPLINE
  5
44B
100
AcDbEntity
  8
0
100
AcDbSpline
 62
6
  6
CONTINUOUS
 70
0
 71
3
 72
9
 73
5
 74
3
 42
0.0000001
 43
0.0000001
 44
0.0000000001
 12
0.0150850606
 22
0.0072456617
 32
0.0
 13
0.0132432151
 23
0.010231125
 33
0.0
 40
0.0
 40
0.0
 40
0.0
 40
0.0
 40
0.2531019769
 40
1.0
 40
1.0
 40
1.0
 40
1.0
 10
7.3854041063
 20
5.7301488696
 30
0.0
 10
7.3866767926
 20
5.7307601667
 30
0.0
 10
7.3916425034
 20
5.7333030698
 30
0.0
 10
7.3963496209
 20
5.736355765
 30
0.0
 10
7.3996467313
 20
5.7389029673
 30
0.0
 11
7.3854041063
 21
5.7301488696
 31
0.0
 11
7.3891738894
 21
5.7320800519
 31
0.0
 11
7.3996467313
 21
5.7389029673
 31
0.0
  0
SPLINE
  5
44C
100
AcDbEntity
  8
0
100
AcDbSpline
 62
6
  6
CONTINUOUS
 70
0
 71
3
 72
9
 73
5
 74
3
 42
0.0000001
 43
0.0000001
 44
0.0000000001
 12
0.0127678451
 22
0.009863875
 32
0.0
 13
0.0102464305
 23
0.0124629274
 33
0.0
 40
0.0
 40
0.0
 40
0.0
 40
0.0
 40
0.2537919807
 40
1.0
 40
1.0
 40
1.0
 40
1.0
 10
7.3996467313
 20
5.7389029673
 30
0.0
 10
7.4007268568
 20
5.7397374248
 30
0.0
 10
7.4048927799
 20
5.7431397883
 30
0.0
 10
7.4086869099
 20
5.7470012816
 30
0.0
 10
7.4112355661
 20
5.7501012604
 30
0.0
 11
7.3996467313
 21
5.7389029673
 31
0.0
 11
7.4028174652
 21
5.7414939827
 31
0.0
 11
7.4112355661
 21
5.7501012604
 31
0.0
  0
SPLINE
  5
44D
100
AcDbEntity
  8
0
100
AcDbSpline
 62
6
  6
CONTINUOUS
 70
0
 71
3
 72
9
 73
5
 74
3
 42
0.0000001
 43
0.0000001
 44
0.0000000001
 12
0.0036677303
 22
-0.0112364261
 32
0.0
 13
0.0057510157
 23
-0.0103264387
 33
0.0
 40
0.0
 40
0.0
 40
0.0
 40
0.0
 40
0.2483556296
 40
1.0
 40
1.0
 40
1.0
 40
1.0
 10
7.2641915349
 20
6.0735274646
 30
0.0
 10
7.2644951687
 20
6.0725972547
 30
0.0
 10
7.2658100111
 20
6.0688824056
 30
0.0
 10
7.2674885818
 20
6.0652972813
 30
0.0
 10
7.268929488
 20
6.0627100115
 30
0.0
 11
7.2641915349
 21
6.0735274646
 31
0.0
 11
7.2651707007
 21
6.0707600488
 31
0.0
 11
7.268929488
 21
6.0627100115
 31
0.0
  0
SPLINE
  5
44E
100
AcDbEntity
  8
0
100
AcDbSpline
 62
6
  6
CONTINUOUS
 70
0
 71
3
 72
27
 73
23
 74
21
 42
0.0000001
 43
0.0000001
 44
0.0000000001
 12
0.0079900053
 22
-0.1029080268
 32
0.0
 13
0.0730325583
 23
0.0729393419
 33
0.0
 40
0.0
 40
0.0
 40
0.0
 40
0.0
 40
0.2269497278
 40
0.3314897775
 40
0.4294227915
 40
0.5203775812
 40
0.6040058552
 40
0.6799750536
 40
0.7479861186
 40
0.8077522109
 40
0.8590339439
 40
0.9016704992
 40
0.9197129238
 40
0.935563824
 40
0.9492391829
 40
0.9607764502
 40
0.9702495427
 40
0.9778072399
 40
0.9837619735
 40
0.9887601899
 40
0.9938400886
 40
1.0
 40
1.0
 40
1.0
 40
1.0
 10
8.7484064556
 20
5.80723943
 30
0.0
 10
8.7490108988
 20
5.7994544471
 30
0.0
 10
8.7499330823
 20
5.7880863745
 30
0.0
 10
8.7512451785
 20
5.7733699969
 30
0.0
 10
8.7522053484
 20
5.7633200244
 30
0.0
 10
8.7531682944
 20
5.7539933278
 30
0.0
 10
8.7541340207
 20
5.7454269585
 30
0.0
 10
8.755102494
 20
5.7376557622
 30
0.0
 10
8.7560730366
 20
5.7307128845
 30
0.0
 10
8.7570447912
 20
5.7246287278
 30
0.0
 10
8.7580175833
 20
5.7194306845
 30
0.0
 10
8.7588665676
 20
5.7156715161
 30
0.0
 10
8.7595640777
 20
5.7131319977
 30
0.0
 10
8.7600580005
 20
5.7115711332
 30
0.0
 10
8.7605518524
 20
5.7102465548
 30
0.0
 10
8.7610455709
 20
5.7091587375
 30
0.0
 10
8.7615396968
 20
5.7083061419
 30
0.0
 10
8.7620375691
 20
5.7076865862
 30
0.0
 10
8.7625526242
 20
5.7072934749
 30
0.0
 10
8.763111184
 20
5.7071610578
 30
0.0
 10
8.7636656101
 20
5.707330701
 30
0.0
 10
8.7639692231
 20
5.7075806328
 30
0.0
 10
8.7641191812
 20
5.7077303995
 30
0.0
 11
8.7484064556
 21
5.80723943
 31
0.0
 11
8.7503161221
 21
5.7838921611
 31
0.0
 11
8.7512770662
 21
5.7731446472
 31
0.0
 11
8.7522414499
 21
5.7630823308
 31
0.0
 11
8.7532093868
 21
5.7537442143
 31
0.0
 11
8.7541810966
 21
5.7451671606
 31
0.0
 11
8.7551567381
 21
5.7373867241
 31
0.0
 11
8.7561363309
 21
5.7304354598
 31
0.0
 11
8.7571198754
 21
5.7243454493
 31
0.0
 11
8.758107393
 21
5.7191451981
 31
0.0
 11
8.7590989392
 21
5.7148575055
 31
0.0
 11
8.7595962412
 21
5.713062834
 31
0.0
 11
8.7600945724
 21
5.7115044791
 31
0.0
 11
8.7605939406
 21
5.7101842232
 31
0.0
 11
8.7610943539
 21
5.7091036161
 31
0.0
 11
8.7615958204
 21
5.7082642073
 31
0.0
 11
8.7620983481
 21
5.7076675467
 31
0.0
 11
8.762601945
 21
5.7073151757
 31
0.0
 11
8.7631066161
 21
5.7072081028
 31
0.0
 11
8.7636123616
 21
5.7073464841
 31
0.0
 11
8.7641191812
 21
5.7077303995
 31
0.0
  0
SPLINE
  5
44F
100
AcDbEntity
  8
0
100
AcDbSpline
 62
6
  6
CONTINUOUS
 70
0
 71
3
 72
15
 73
11
 74
9
 42
0.0000001
 43
0.0000001
 44
0.0000000001
 12
-0.0044938317
 22
0.0
 32
0.0
 13
-0.0006448353
 23
0.0044473262
 33
0.0
 40
0.0
 40
0.0
 40
0.0
 40
0.0
 40
0.0369882565
 40
0.0620406257
 40
0.0929155969
 40
0.1740004359
 40
0.2824375391
 40
0.4189959959
 40
0.5840191544
 40
1.0
 40
1.0
 40
1.0
 40
1.0
 10
8.5466978757
 20
5.6920167727
 30
0.0
 10
8.5466424694
 20
5.6920167727
 30
0.0
 10
8.5465522012
 20
5.6920663694
 30
0.0
 10
8.5464617665
 20
5.6921708723
 30
0.0
 10
8.5463501878
 20
5.6923444832
 30
0.0
 10
8.5462194297
 20
5.692648917
 30
0.0
 10
8.5460705388
 20
5.6931144138
 30
0.0
 10
8.5459209948
 20
5.6937104636
 30
0.0
 10
8.5457030161
 20
5.6947631564
 30
0.0
 10
8.5455665692
 20
5.6956231876
 30
0.0
 10
8.5454771561
 20
5.6962398551
 30
0.0
 11
8.5466978757
 21
5.6920167727
 31
0.0
 11
8.5465454568
 21
5.6920830845
 31
0.0
 11
8.5464692171
 21
5.6921659218
 31
0.0
 11
8.5463929597
 21
5.6922818334
 31
0.0
 11
8.5462403989
 21
5.69261274
 31
0.0
 11
8.5460877892
 21
5.6930755247
 31
0.0
 11
8.5459351453
 21
5.6936699081
 31
0.0
 11
8.545782482
 21
5.6943956106
 31
0.0
 11
8.5454771561
 21
5.6962398551
 31
0.0
  0
LINE
  5
450
100
AcDbEntity
  8
0
100
AcDbLine
 62
6
  6
CONTINUOUS
 10
8.5454771561
 20
5.6962398551
 11
8.5442551989
 21
5.7087832192
  0
SPLINE
  5
451
100
AcDbEntity
  8
0
100
AcDbSpline
 62
6
  6
CONTINUOUS
 70
0
 71
3
 72
22
 73
18
 74
16
 42
0.0000001
 43
0.0000001
 44
0.0000000001
 12
-0.0338416416
 22
0.4593531634
 32
0.0
 13
-0.0291536239
 23
0.4596745062
 33
0.0
 40
0.0
 40
0.0
 40
0.0
 40
0.0
 40
0.0156800679
 40
0.0339798597
 40
0.0780472476
 40
0.1312653045
 40
0.1925017693
 40
0.2604535164
 40
0.3336692142
 40
0.4895443167
 40
0.6468738865
 40
0.7218801954
 40
0.7922866701
 40
0.8565905897
 40
0.9134211885
 40
0.9615659872
 40
1.0
 40
1.0
 40
1.0
 40
1.0
 10
8.5442551989
 20
5.7087832192
 30
0.0
 10
8.5440783191
 20
5.7111841155
 30
0.0
 10
8.5437330024
 20
5.716389834
 30
0.0
 10
8.5430506807
 20
5.7283532929
 30
0.0
 10
8.5422256228
 20
5.7460806163
 30
0.0
 10
8.5412764224
 20
5.7704004768
 30
0.0
 10
8.5403230425
 20
5.7983896633
 30
0.0
 10
8.539366169
 20
5.8294505731
 30
0.0
 10
8.5380608106
 20
5.8750376556
 30
0.0
 10
8.5364812638
 20
5.934344806
 30
0.0
 10
8.5349076927
 20
5.9939271143
 30
0.0
 10
8.5336082033
 20
6.0403898081
 30
0.0
 10
8.5326505442
 20
6.0725739632
 30
0.0
 10
8.5316953143
 20
6.1019662874
 30
0.0
 10
8.5307445851
 20
6.1279389537
 30
0.0
 10
8.5297999036
 20
6.1499367995
 30
0.0
 10
8.5290981087
 20
6.1632115294
 30
0.0
 10
8.5287246118
 20
6.1691005747
 30
0.0
 11
8.5442551989
 21
5.7087832192
 31
0.0
 11
8.5437698994
 21
5.7159891049
 31
0.0
 11
8.5432845663
 21
5.7244039694
 31
0.0
 11
8.542313902
 21
5.7446781004
 31
0.0
 11
8.5413432694
 21
5.7691710098
 31
0.0
 11
8.5403726295
 21
5.7973597012
 31
0.0
 11
8.5394019475
 21
5.8286430891
 31
0.0
 11
8.5384312394
 21
5.8623521248
 31
0.0
 11
8.5364898659
 21
5.9341216443
 31
0.0
 11
8.5345485415
 21
6.0065613328
 31
0.0
 11
8.5335778562
 21
6.0410954549
 31
0.0
 11
8.5326071986
 21
6.0735100115
 31
0.0
 11
8.5316365642
 21
6.1031123642
 31
0.0
 11
8.5306659294
 21
6.1292704263
 31
0.0
 11
8.5296952806
 21
6.1514245743
 31
0.0
 11
8.5287246118
 21
6.1691005747
 31
0.0
  0
LINE
  5
452
100
AcDbEntity
  8
0
100
AcDbLine
 62
6
  6
CONTINUOUS
 10
8.5287246118
 20
6.1691005747
 11
8.5286874032
 21
6.169683683
  0
SPLINE
  5
453
100
AcDbEntity
  8
0
100
AcDbSpline
 62
6
  6
CONTINUOUS
 70
0
 71
3
 72
15
 73
11
 74
9
 42
0.0000001
 43
0.0000001
 44
0.0000000001
 12
-0.0012256601
 22
0.0166366281
 32
0.0
 13
-0.0083328857
 23
0.0144513894
 33
0.0
 40
0.0
 40
0.0
 40
0.0
 40
0.0
 40
0.3902770361
 40
0.5507412984
 40
0.6877747081
 40
0.8011714401
 40
0.890850309
 40
0.9569384423
 40
0.9812793011
 40
1.0
 40
1.0
 40
1.0
 40
1.0
 10
8.5283055785
 20
6.1752503179
 30
0.0
 10
8.5281461295
 20
6.1774146158
 30
0.0
 10
8.5279022542
 20
6.1804675933
 30
0.0
 10
8.5275247861
 20
6.1842734905
 30
0.0
 10
8.5272613796
 20
6.1865431346
 30
0.0
 10
8.5270000192
 20
6.1884166301
 30
0.0
 10
8.5267402473
 20
6.1898905913
 30
0.0
 10
8.5265123178
 20
6.1908676692
 30
0.0
 10
8.5263180267
 20
6.1914429658
 30
0.0
 10
8.5262194153
 20
6.1916622234
 30
0.0
 10
8.5261674162
 20
6.1917524034
 30
0.0
 11
8.5283055785
 21
6.1752503179
 31
0.0
 11
8.5277711707
 21
6.1817388382
 31
0.0
 11
8.5275039439
 21
6.1844022853
 31
0.0
 11
8.5272366739
 21
6.1866725596
 31
0.0
 11
8.5269693412
 21
6.1885452263
 31
0.0
 11
8.5267019695
 21
6.1900171368
 31
0.0
 11
8.5264346348
 21
6.1910866964
 31
0.0
 11
8.526301006
 21
6.1914701254
 31
0.0
 11
8.5261674162
 21
6.1917524034
 31
0.0
  0
LINE
  5
454
100
AcDbEntity
  8
0
100
AcDbLine
 62
6
  6
CONTINUOUS
 10
8.4656274509
 20
6.169176517
 11
8.4650301416
 21
6.1672247309
  0
SPLINE
  5
455
100
AcDbEntity
  8
0
100
AcDbSpline
 62
6
  6
CONTINUOUS
 70
0
 71
3
 72
13
 73
9
 74
7
 42
0.0000001
 43
0.0000001
 44
0.0000000001
 12
-0.0041819011
 22
-0.0072262048
 32
0.0
 13
-0.0008947862
 23
-0.0083009451
 33
0.0
 40
0.0
 40
0.0
 40
0.0
 40
0.0
 40
0.0537497464
 40
0.1273605809
 40
0.2213634978
 40
0.3359330093
 40
0.6268742964
 40
1.0
 40
1.0
 40
1.0
 40
1.0
 10
8.423957458
 20
6.1691770009
 30
0.0
 10
8.4238825326
 20
6.169047532
 30
0.0
 10
8.4237445028
 20
6.1687188594
 30
0.0
 10
8.4235649758
 20
6.1681295072
 30
0.0
 10
8.4233837686
 20
6.167364825
 30
0.0
 10
8.4231190472
 20
6.1659999566
 30
0.0
 10
8.4228018905
 20
6.1638554318
 30
0.0
 10
8.4225868044
 20
6.1620198119
 30
0.0
 10
8.4224755152
 20
6.1609873799
 30
0.0
 11
8.423957458
 21
6.1691770009
 31
0.0
 11
8.4237722151
 21
6.16876826
 31
0.0
 11
8.4235869722
 21
6.1681822628
 31
0.0
 11
8.4234017294
 21
6.167419604
 31
0.0
 11
8.4232164865
 21
6.1664811678
 31
0.0
 11
8.4228460008
 21
6.1640805095
 31
0.0
 11
8.4224755152
 21
6.1609873799
 31
0.0
  0
SPLINE
  5
456
100
AcDbEntity
  8
0
100
AcDbSpline
 62
6
  6
CONTINUOUS
 70
0
 71
3
 72
11
 73
7
 74
5
 42
0.0000001
 43
0.0000001
 44
0.0000000001
 12
-0.0018456772
 22
0.0031964688
 32
0.0
 13
-0.0005794159
 23
0.0036453003
 33
0.0
 40
0.0
 40
0.0
 40
0.0
 40
0.0
 40
0.1512577689
 40
0.367404251
 40
0.650116607
 40
1.0
 40
1.0
 40
1.0
 40
1.0
 10
8.5698024808
 20
5.7148570913
 30
0.0
 10
8.5697094232
 20
5.7150182549
 30
0.0
 10
8.5695432299
 20
5.7154421989
 30
0.0
 10
8.5693291018
 20
5.7162124977
 30
0.0
 10
8.5691126872
 20
5.7172349616
 30
0.0
 10
8.5689810705
 20
5.7180020791
 30
0.0
 10
8.5689134945
 20
5.7184272225
 30
0.0
 11
8.5698024808
 21
5.7148570913
 31
0.0
 11
8.5695802399
 21
5.7153692532
 31
0.0
 11
8.569357993
 21
5.7161354824
 31
0.0
 11
8.5691357434
 21
5.7171550488
 31
0.0
 11
8.5689134945
 21
5.7184272225
 31
0.0
  0
SPLINE
  5
457
100
AcDbEntity
  8
0
100
AcDbSpline
 62
6
  6
CONTINUOUS
 70
0
 71
3
 72
41
 73
37
 74
35
 42
0.0000001
 43
0.0000001
 44
0.0000000001
 12
-0.0709188165
 22
0.4461741069
 32
0.0
 13
-0.4517747028
 23
0.0006558248
 33
0.0
 40
0.0
 40
0.0
 40
0.0
 40
0.0
 40
0.0048427696
 40
0.0107232132
 40
0.0255512497
 40
0.0443755074
 40
0.0670347748
 40
0.0933443696
 40
0.1230765905
 40
0.1917813938
 40
0.2708162251
 40
0.3574935919
 40
0.4488645769
 40
0.5418198942
 40
0.6331961498
 40
0.6773150229
 40
0.719883897
 40
0.7605385317
 40
0.7989338873
 40
0.8347416946
 40
0.8676581553
 40
0.8974026186
 40
0.9237229502
 40
0.9463964834
 40
0.9652322643
 40
0.9731623253
 40
0.9800761387
 40
0.9859619589
 40
0.9908114879
 40
0.9928457069
 40
0.9946189222
 40
0.9961313103
 40
0.997384525
 40
0.9983827108
 40
0.9991345124
 40
1.0
 40
1.0
 40
1.0
 40
1.0
 10
8.5689134945
 20
5.7184272225
 30
0.0
 10
8.5687990133
 20
5.7191474619
 30
0.0
 10
8.5685779631
 20
5.7207473998
 30
0.0
 10
8.568141297
 20
5.7245705242
 30
0.0
 10
8.5676177955
 20
5.73050156
 30
0.0
 10
8.56701924
 20
5.7389605872
 30
0.0
 10
8.5664171314
 20
5.7491521036
 30
0.0
 10
8.5658121606
 20
5.7609884542
 30
0.0
 10
8.5649618401
 20
5.7797550914
 30
0.0
 10
8.563927548
 20
5.8064610915
 30
0.0
 10
8.5627294689
 20
5.8417420662
 30
0.0
 10
8.5615275467
 20
5.8804380415
 30
0.0
 10
8.5603231745
 20
5.9212311798
 30
0.0
 10
8.5591181163
 20
5.9627322107
 30
0.0
 10
8.5581030683
 20
5.9971199874
 30
0.0
 10
8.5572801695
 20
6.0239223275
 30
0.0
 10
8.5566704292
 20
6.0430893457
 30
0.0
 10
8.5560609613
 20
6.0613940055
 30
0.0
 10
8.5554519294
 20
6.0786799279
 30
0.0
 10
8.5548434225
 20
6.094799797
 30
0.0
 10
8.5542357335
 20
6.1096159516
 30
0.0
 10
8.5536291096
 20
6.1230021031
 30
0.0
 10
8.5530242899
 20
6.1348441103
 30
0.0
 10
8.552421713
 20
6.1450410129
 30
0.0
 10
8.5518978924
 20
6.1524680533
 30
0.0
 10
8.5514679326
 20
6.1575217646
 30
0.0
 10
8.5511650357
 20
6.1606288644
 30
0.0
 10
8.5508631898
 20
6.163269638
 30
0.0
 10
8.5506005525
 20
6.1651748851
 30
0.0
 10
8.5503850224
 20
6.1664608286
 30
0.0
 10
8.5502335845
 20
6.1672473242
 30
0.0
 10
8.5500819503
 20
6.1679148327
 30
0.0
 10
8.5499331134
 20
6.1684595052
 30
0.0
 10
8.5497798034
 20
6.1688925498
 30
0.0
 10
8.5496213132
 20
6.1692334062
 30
0.0
 10
8.5494324833
 20
6.1694659885
 30
0.0
 10
8.5493021482
 20
6.1694661777
 30
0.0
 11
8.5689134945
 21
5.7184272225
 31
0.0
 11
8.568607062
 21
5.7205934996
 31
0.0
 11
8.5683006345
 21
5.7232324066
 31
0.0
 11
8.5676877858
 21
5.7299032535
 31
0.0
 11
8.5670749333
 21
5.738385475
 31
0.0
 11
8.5664620776
 21
5.7486040081
 31
0.0
 11
8.5658492228
 21
5.7604742197
 31
0.0
 11
8.5652363688
 21
5.773892511
 31
0.0
 11
8.5640106601
 21
5.8049074252
 31
0.0
 11
8.5627849513
 21
5.8405923561
 31
0.0
 11
8.5615592424
 21
5.8797318513
 31
0.0
 11
8.5603335333
 21
5.9209927927
 31
0.0
 11
8.5591078242
 21
5.9629698066
 31
0.0
 11
8.557882115
 21
6.0042331303
 31
0.0
 11
8.5572692604
 21
6.0241555179
 31
0.0
 11
8.5566564057
 21
6.0433773112
 31
0.0
 11
8.556043551
 21
6.0617338384
 31
0.0
 11
8.5554306963
 21
6.0790690773
 31
0.0
 11
8.5548178416
 21
6.095234543
 31
0.0
 11
8.5542049869
 21
6.110092749
 31
0.0
 11
8.5535921321
 21
6.1235165769
 31
0.0
 11
8.5529792773
 21
6.1353916456
 31
0.0
 11
8.5523664225
 21
6.1456166353
 31
0.0
 11
8.5517535677
 21
6.154104076
 31
0.0
 11
8.5514471403
 21
6.157673552
 31
0.0
 11
8.5511407128
 21
6.1607819741
 31
0.0
 11
8.5508342854
 21
6.1634233264
 31
0.0
 11
8.550527858
 21
6.1655926883
 31
0.0
 11
8.5503746443
 21
6.1664988364
 31
0.0
 11
8.5502214305
 21
6.1672851431
 31
0.0
 11
8.5500682168
 21
6.1679510026
 31
0.0
 11
8.5499150031
 21
6.168496049
 31
0.0
 11
8.5497617894
 21
6.1689201792
 31
0.0
 11
8.5496085756
 21
6.1692233037
 31
0.0
 11
8.5493021482
 21
6.1694661777
 31
0.0
  0
LINE
  5
458
100
AcDbEntity
  8
0
100
AcDbLine
 62
6
  6
CONTINUOUS
 10
8.5281325024
 20
5.7148569885
 11
8.5276104747
 21
5.716461709
  0
SPLINE
  5
459
100
AcDbEntity
  8
0
100
AcDbSpline
 62
6
  6
CONTINUOUS
 70
0
 71
3
 72
43
 73
39
 74
37
 42
0.0000001
 43
0.0000001
 44
0.0000000001
 12
-0.1001815512
 22
0.4425777464
 32
0.0
 13
-0.4537745229
 23
0.0002953192
 33
0.0
 40
0.0
 40
0.0
 40
0.0
 40
0.0
 40
0.0036547227
 40
0.0083872948
 40
0.0141918184
 40
0.0210596764
 40
0.0379328755
 40
0.058860119
 40
0.0836662537
 40
0.1121284915
 40
0.1440017055
 40
0.1789999473
 40
0.2571194407
 40
0.343731209
 40
0.4357778203
 40
0.5300091209
 40
0.6230975287
 40
0.6681805563
 40
0.7117559773
 40
0.7534357412
 40
0.7928544516
 40
0.829659949
 40
0.8635312504
 40
0.8941647407
 40
0.9212955101
 40
0.9446798078
 40
0.9641192723
 40
0.9723035435
 40
0.9794414144
 40
0.9855201786
 40
0.9905281722
 40
0.9926277188
 40
0.9944572488
 40
0.9960176869
 40
0.9973109062
 40
0.9983406973
 40
0.9991153399
 40
1.0
 40
1.0
 40
1.0
 40
1.0
 10
8.5276104747
 20
5.716461709
 30
0.0
 10
8.5274884294
 20
5.7170008753
 30
0.0
 10
8.527259673
 20
5.7182495995
 30
0.0
 10
8.52695497
 20
5.7203746323
 30
0.0
 10
8.5266481508
 20
5.722989598
 30
0.0
 10
8.5262061535
 20
5.7274368291
 30
0.0
 10
8.52567275
 20
5.7341727476
 30
0.0
 10
8.5250609987
 20
5.7436228478
 30
0.0
 10
8.5244466624
 20
5.7548288711
 30
0.0
 10
8.5238295854
 20
5.7676925022
 30
0.0
 10
8.5232112733
 20
5.7820992921
 30
0.0
 10
8.5223536611
 20
5.8040136251
 30
0.0
 10
8.5213045225
 20
5.8342062493
 30
0.0
 10
8.5200812707
 20
5.873026765
 30
0.0
 10
8.5188555924
 20
5.9142853796
 30
0.0
 10
8.5176287522
 20
5.9565240116
 30
0.0
 10
8.516596251
 20
5.9916616723
 30
0.0
 10
8.515758901
 20
6.0191396239
 30
0.0
 10
8.5151378262
 20
6.0388445676
 30
0.0
 10
8.5145169832
 20
6.0576923031
 30
0.0
 10
8.5138966399
 20
6.0755154675
 30
0.0
 10
8.5132767434
 20
6.0921567956
 30
0.0
 10
8.512657794
 20
6.1074683382
 30
0.0
 10
8.512039769
 20
6.1213152314
 30
0.0
 10
8.5114237964
 20
6.1335742528
 30
0.0
 10
8.5108098143
 20
6.1441377276
 30
0.0
 10
8.5102764759
 20
6.1518349846
 30
0.0
 10
8.5098383919
 20
6.1570747727
 30
0.0
 10
8.5095298207
 20
6.1602972021
 30
0.0
 10
8.5092223898
 20
6.163036783
 30
0.0
 10
8.5089549078
 20
6.1650135733
 30
0.0
 10
8.5087353012
 20
6.1663476487
 30
0.0
 10
8.5085810022
 20
6.1671633142
 30
0.0
 10
8.5084265077
 20
6.167855736
 30
0.0
 10
8.508274938
 20
6.1684208083
 30
0.0
 10
8.5081187593
 20
6.1688706715
 30
0.0
 10
8.5079579286
 20
6.1692230732
 30
0.0
 10
8.5077659461
 20
6.1694666677
 30
0.0
 10
8.5076321341
 20
6.1694667548
 30
0.0
 11
8.5276104747
 21
5.716461709
 31
0.0
 11
8.5272983132
 21
5.7180904856
 31
0.0
 11
8.5269861517
 21
5.7202151979
 31
0.0
 11
8.5266739902
 21
5.7228305801
 31
0.0
 11
8.5263618287
 21
5.7259313664
 31
0.0
 11
8.5257375057
 21
5.7335624997
 31
0.0
 11
8.5251131826
 21
5.7430382067
 31
0.0
 11
8.5244888596
 21
5.754277274
 31
0.0
 11
8.5238645366
 21
5.7671776166
 31
0.0
 11
8.5232402135
 21
5.7816273911
 31
0.0
 11
8.5226158904
 21
5.7974964285
 31
0.0
 11
8.5213672443
 21
5.8329230738
 31
0.0
 11
8.520118598
 21
5.872205456
 31
0.0
 11
8.5188699518
 21
5.913955204
 31
0.0
 11
8.5176213055
 21
5.9566967415
 31
0.0
 11
8.5163726592
 21
5.9989194393
 31
0.0
 11
8.515748336
 21
6.0193674442
 31
0.0
 11
8.5151240128
 21
6.0391310056
 31
0.0
 11
8.5144996896
 21
6.0580339174
 31
0.0
 11
8.5138753664
 21
6.0759102289
 31
0.0
 11
8.5132510432
 21
6.0925999563
 31
0.0
 11
8.51262672
 21
6.107957208
 31
0.0
 11
8.5120023968
 21
6.1218438812
 31
0.0
 11
8.5113780736
 21
6.1341392953
 31
0.0
 11
8.5107537503
 21
6.1447321138
 31
0.0
 11
8.5101294271
 21
6.1535311282
 31
0.0
 11
8.5098172655
 21
6.1572318002
 31
0.0
 11
8.5095051038
 21
6.1604557073
 31
0.0
 11
8.5091929422
 21
6.1631963759
 31
0.0
 11
8.5088807806
 21
6.1654473342
 31
0.0
 11
8.5087246998
 21
6.1663871831
 31
0.0
 11
8.5085686189
 21
6.1672025734
 31
0.0
 11
8.5084125381
 21
6.1678932442
 31
0.0
 11
8.5082564573
 21
6.168458937
 31
0.0
 11
8.5081003765
 21
6.1688993932
 31
0.0
 11
8.5079442957
 21
6.1692143539
 31
0.0
 11
8.5076321341
 21
6.1694667548
 31
0.0
  0
SPLINE
  5
45A
100
AcDbEntity
  8
0
100
AcDbSpline
 62
6
  6
CONTINUOUS
 70
0
 71
3
 72
12
 73
8
 74
6
 42
0.0000001
 43
0.0000001
 44
0.0000000001
 12
-0.0038363946
 22
0.0066301564
 32
0.0
 13
-0.0008551682
 23
0.0076121997
 33
0.0
 40
0.0
 40
0.0
 40
0.0
 40
0.0
 40
0.0551115449
 40
0.1296886772
 40
0.338923925
 40
0.6290616713
 40
1.0
 40
1.0
 40
1.0
 40
1.0
 10
8.4864624689
 20
5.7148564168
 30
0.0
 10
8.4863919923
 20
5.7149782162
 30
0.0
 10
8.4862611501
 20
5.7152843329
 30
0.0
 10
8.4860039064
 20
5.716110827
 30
0.0
 10
8.4857059795
 20
5.7175485543
 30
0.0
 10
8.4853652441
 20
5.7197441754
 30
0.0
 10
8.4851615864
 20
5.7214202977
 30
0.0
 10
8.4850558482
 20
5.7223615165
 30
0.0
 11
8.4864624689
 21
5.7148564168
 31
0.0
 11
8.4862866413
 21
5.7152402175
 31
0.0
 11
8.4861108137
 21
5.7157837529
 31
0.0
 11
8.4857591585
 21
5.7173474592
 31
0.0
 11
8.4854075034
 21
5.719541942
 31
0.0
 11
8.4850558482
 21
5.7223615165
 31
0.0
  0
SPLINE
  5
45B
100
AcDbEntity
  8
0
100
AcDbSpline
 62
6
  6
CONTINUOUS
 70
0
 71
3
 72
39
 73
35
 74
33
 42
0.0000001
 43
0.0000001
 44
0.0000000001
 12
-0.0499930576
 22
0.4450085136
 32
0.0
 13
-0.4478071353
 23
-0.0008077884
 33
0.0
 40
0.0
 40
0.0
 40
0.0
 40
0.0
 40
0.0138942564
 40
0.0316274667
 40
0.0530677288
 40
0.0780394244
 40
0.1377592332
 40
0.2088683435
 40
0.2890760081
 40
0.3757959885
 40
0.4662309676
 40
0.5574633241
 40
0.6465496315
 40
0.6893851764
 40
0.7306159766
 40
0.7699114914
 40
0.8069510752
 40
0.8414396077
 40
0.8730944453
 40
0.9016652035
 40
0.9269172322
 40
0.9486529315
 40
0.9666950096
 40
0.9742869315
 40
0.9809071747
 40
0.9865422989
 40
0.9911826747
 40
0.9931290396
 40
0.9948262662
 40
0.9962750435
 40
0.9974770097
 40
0.9984357273
 40
0.9991592382
 40
1.0
 40
1.0
 40
1.0
 40
1.0
 10
8.4850558482
 20
5.7223615165
 30
0.0
 10
8.4848243094
 20
5.7244225373
 30
0.0
 10
8.4843894509
 20
5.7291242068
 30
0.0
 10
8.4838070289
 20
5.7370242739
 30
0.0
 10
8.4832210885
 20
5.7465814502
 30
0.0
 10
8.482385154
 20
5.7624016968
 30
0.0
 10
8.4813756449
 20
5.7856364377
 30
0.0
 10
8.4802120476
 20
5.8171162856
 30
0.0
 10
8.4790434335
 20
5.8526287166
 30
0.0
 10
8.4778710607
 20
5.8910271703
 30
0.0
 10
8.4766971894
 20
5.9310719568
 30
0.0
 10
8.4755229137
 20
5.9714700949
 30
0.0
 10
8.4745326714
 20
6.0047654526
 30
0.0
 10
8.4737302804
 20
6.0305993724
 30
0.0
 10
8.4731365083
 20
6.0490039394
 30
0.0
 10
8.4725431154
 20
6.0665428914
 30
0.0
 10
8.4719500222
 20
6.0830748351
 30
0.0
 10
8.4713575942
 20
6.0984655054
 30
0.0
 10
8.4707657997
 20
6.1125910608
 30
0.0
 10
8.4701752207
 20
6.1253366195
 30
0.0
 10
8.4695862269
 20
6.1365998943
 30
0.0
 10
8.4689995556
 20
6.1462892106
 30
0.0
 10
8.4684894894
 20
6.1533419636
 30
0.0
 10
8.4680706814
 20
6.1581383723
 30
0.0
 10
8.4677758258
 20
6.1610863627
 30
0.0
 10
8.4674820325
 20
6.1635913572
 30
0.0
 10
8.4672262421
 20
6.16539797
 30
0.0
 10
8.4670163663
 20
6.1666167744
 30
0.0
 10
8.4668688873
 20
6.167362312
 30
0.0
 10
8.4667212312
 20
6.1679952535
 30
0.0
 10
8.4665762975
 20
6.1685121851
 30
0.0
 10
8.4664270338
 20
6.1689229229
 30
0.0
 10
8.4662721916
 20
6.1692482253
 30
0.0
 10
8.466087595
 20
6.1694665579
 30
0.0
 10
8.4659620953
 20
6.1694663315
 30
0.0
 11
8.4850558482
 21
5.7223615165
 31
0.0
 11
8.4844591684
 21
5.7285547972
 31
0.0
 11
8.4838624885
 21
5.7364734197
 31
0.0
 11
8.4832658087
 21
5.7460559789
 31
0.0
 11
8.4826691288
 21
5.7572225702
 31
0.0
 11
8.4814757691
 21
5.7839389312
 31
0.0
 11
8.4802824095
 21
5.8157597809
 31
0.0
 11
8.4790890498
 21
5.8516575737
 31
0.0
 11
8.4778956902
 21
5.8904731227
 31
0.0
 11
8.4767023306
 21
5.930953031
 31
0.0
 11
8.475508971
 21
5.971790165
 31
0.0
 11
8.4743156115
 21
6.0116658612
 31
0.0
 11
8.4737189317
 21
6.0308386726
 31
0.0
 11
8.4731222519
 21
6.0492925053
 31
0.0
 11
8.4725255722
 21
6.0668792267
 31
0.0
 11
8.4719288924
 21
6.0834551078
 31
0.0
 11
8.4713322127
 21
6.0988878133
 31
0.0
 11
8.4707355329
 21
6.113050535
 31
0.0
 11
8.4701388532
 21
6.1258308241
 31
0.0
 11
8.4695421735
 21
6.1371231279
 31
0.0
 11
8.4689454937
 21
6.1468382389
 31
0.0
 11
8.468348814
 21
6.1548955602
 31
0.0
 11
8.4680504742
 21
6.1582821669
 31
0.0
 11
8.4677521343
 21
6.1612317141
 31
0.0
 11
8.4674537945
 21
6.1637374691
 31
0.0
 11
8.4671554546
 21
6.1657939379
 31
0.0
 11
8.4670062847
 21
6.1666526757
 31
0.0
 11
8.4668571148
 21
6.1673979247
 31
0.0
 11
8.4667079449
 21
6.1680293166
 31
0.0
 11
8.4665587749
 21
6.1685464833
 31
0.0
 11
8.466409605
 21
6.1689490564
 31
0.0
 11
8.4662604351
 21
6.1692366678
 31
0.0
 11
8.4659620953
 21
6.1694663315
 31
0.0
  0
SPLINE
  5
45C
100
AcDbEntity
  8
0
100
AcDbSpline
 62
6
  6
CONTINUOUS
 70
0
 71
3
 72
11
 73
7
 74
5
 42
0.0000001
 43
0.0000001
 44
0.0000000001
 12
-0.0023543138
 22
0.0040767454
 32
0.0
 13
-0.000660602
 23
0.0046611427
 33
0.0
 40
0.0
 40
0.0
 40
0.0
 40
0.0
 40
0.1436473729
 40
0.3573308567
 40
0.6426376008
 40
1.0
 40
1.0
 40
1.0
 40
1.0
 10
8.4447924431
 20
5.7148565132
 30
0.0
 10
8.4446797127
 20
5.7150517178
 30
0.0
 10
8.4444854653
 20
5.7155831718
 30
0.0
 10
8.4442363033
 20
5.7165591938
 30
0.0
 10
8.4439844149
 20
5.7178805752
 30
0.0
 10
8.4438315198
 20
5.7188773194
 30
0.0
 10
8.4437528284
 20
5.7194325585
 30
0.0
 11
8.4447924431
 21
5.7148565132
 31
0.0
 11
8.4445325394
 21
5.7154808262
 31
0.0
 11
8.4442726357
 21
5.716452634
 31
0.0
 11
8.4440127321
 21
5.7177703928
 31
0.0
 11
8.4437528284
 21
5.7194325585
 31
0.0
  0
SPLINE
  5
45D
100
AcDbEntity
  8
0
100
AcDbSpline
 62
6
  6
CONTINUOUS
 70
0
 71
3
 72
40
 73
36
 74
34
 42
0.0000001
 43
0.0000001
 44
0.0000000001
 12
-0.0632518429
 22
0.4462987504
 32
0.0
 13
-0.4507586116
 23
0.0002105968
 33
0.0
 40
0.0
 40
0.0
 40
0.0
 40
0.0
 40
0.0116608859
 40
0.0273504078
 40
0.0469519565
 40
0.070299571
 40
0.0972050263
 40
0.1274391815
 40
0.1968648817
 40
0.2762547377
 40
0.3629501919
 40
0.4540466422
 40
0.5464914202
 40
0.6371865162
 40
0.680922963
 40
0.7230927865
 40
0.7633418201
 40
0.8013322226
 40
0.8367459889
 40
0.8692851115
 40
0.8986789093
 40
0.9246792796
 40
0.9470727196
 40
0.9656703465
 40
0.9734995605
 40
0.9803258521
 40
0.98613601
 40
0.9909226978
 40
0.9929307125
 40
0.994681417
 40
0.9961751274
 40
0.9974131443
 40
0.9983992481
 40
0.9991422123
 40
1.0
 40
1.0
 40
1.0
 40
1.0
 10
8.4437528284
 20
5.7194325585
 30
0.0
 10
8.4435069709
 20
5.7211673048
 30
0.0
 10
8.4430600303
 20
5.7252538985
 30
0.0
 10
8.442470483
 20
5.732283908
 30
0.0
 10
8.4418765067
 20
5.741074895
 30
0.0
 10
8.44127771
 20
5.7515537258
 30
0.0
 10
8.4406770223
 20
5.7636323348
 30
0.0
 10
8.4398345835
 20
5.7826305266
 30
0.0
 10
8.4388085715
 20
5.8095139037
 30
0.0
 10
8.4376188118
 20
5.844880149
 30
0.0
 10
8.4364255062
 20
5.8835040549
 30
0.0
 10
8.4352299706
 20
5.9240902942
 30
0.0
 10
8.4340338594
 20
5.9652777279
 30
0.0
 10
8.4330260068
 20
5.9993516561
 30
0.0
 10
8.4322090633
 20
6.0258739466
 30
0.0
 10
8.4316039684
 20
6.0448194901
 30
0.0
 10
8.4309991802
 20
6.0629012263
 30
0.0
 10
8.4303947803
 20
6.079967263
 30
0.0
 10
8.4297909622
 20
6.0958741136
 30
0.0
 10
8.4291878816
 20
6.1104883316
 30
0.0
 10
8.428585952
 20
6.123686893
 30
0.0
 10
8.4279857004
 20
6.135359384
 30
0.0
 10
8.4273878024
 20
6.1454073761
 30
0.0
 10
8.4268679347
 20
6.15272465
 30
0.0
 10
8.426441234
 20
6.1577028661
 30
0.0
 10
8.4261407139
 20
6.1607632803
 30
0.0
 10
8.4258411716
 20
6.1633641147
 30
0.0
 10
8.425580524
 20
6.1652402878
 30
0.0
 10
8.4253666455
 20
6.1665065333
 30
0.0
 10
8.4252163556
 20
6.1672811104
 30
0.0
 10
8.4250658954
 20
6.1679385914
 30
0.0
 10
8.4249182196
 20
6.1684751759
 30
0.0
 10
8.4247660734
 20
6.1689015907
 30
0.0
 10
8.4246086161
 20
6.1692377724
 30
0.0
 10
8.4244209868
 20
6.1694659676
 30
0.0
 10
8.4242921018
 20
6.1694660278
 30
0.0
 11
8.4437528284
 21
5.7194325585
 31
0.0
 11
8.4431446804
 21
5.7246535039
 31
0.0
 11
8.4425365324
 21
5.7316994955
 31
0.0
 11
8.4419283845
 21
5.7405141092
 31
0.0
 11
8.4413202365
 21
5.7510206627
 31
0.0
 11
8.4407120886
 21
5.7631332725
 31
0.0
 11
8.4401039407
 21
5.776748004
 31
0.0
 11
8.4388876449
 21
5.8080185942
 31
0.0
 11
8.4376713492
 21
5.8437835834
 31
0.0
 11
8.4364550536
 21
5.8828433776
 31
0.0
 11
8.435238758
 21
5.9238878738
 31
0.0
 11
8.4340224626
 21
5.9655404034
 31
0.0
 11
8.4328061672
 21
6.006403906
 31
0.0
 11
8.4321980195
 21
6.0261091061
 31
0.0
 11
8.4315898719
 21
6.0451077883
 31
0.0
 11
8.4309817242
 21
6.0632401932
 31
0.0
 11
8.4303735766
 21
6.0803538941
 31
0.0
 11
8.429765429
 21
6.0963053674
 31
0.0
 11
8.4291572815
 21
6.1109600456
 31
0.0
 11
8.4285491339
 21
6.1241955902
 31
0.0
 11
8.4279409864
 21
6.1358996933
 31
0.0
 11
8.4273328389
 21
6.1459753937
 31
0.0
 11
8.4267246915
 21
6.154336347
 31
0.0
 11
8.4264206177
 21
6.1578523088
 31
0.0
 11
8.426116544
 21
6.1609142575
 31
0.0
 11
8.4258124703
 21
6.1635155246
 31
0.0
 11
8.4255083966
 21
6.1656516317
 31
0.0
 11
8.4253563597
 21
6.1665439014
 31
0.0
 11
8.4252043229
 21
6.1673182624
 31
0.0
 11
8.425052286
 21
6.1679741752
 31
0.0
 11
8.4249002492
 21
6.1685111119
 31
0.0
 11
8.4247482123
 21
6.1689287966
 31
0.0
 11
8.4245961755
 21
6.1692271942
 31
0.0
 11
8.4242921018
 21
6.1694660278
 31
0.0
  0
SPLINE
  5
45E
100
AcDbEntity
  8
0
100
AcDbSpline
 62
6
  6
CONTINUOUS
 70
0
 71
3
 72
12
 73
8
 74
6
 42
0.0000001
 43
0.0000001
 44
0.0000000001
 12
-0.0008052858
 22
-0.0067865176
 32
0.0
 13
-0.0034215546
 23
-0.0059159336
 33
0.0
 40
0.0
 40
0.0
 40
0.0
 40
0.0
 40
0.3679119576
 40
0.6569419819
 40
0.8671430356
 40
0.9430299222
 40
1.0
 40
1.0
 40
1.0
 40
1.0
 10
8.519693688
 20
5.7215407627
 30
0.0
 10
8.5195949299
 20
5.7207084824
 30
0.0
 10
8.5194044247
 20
5.7192236837
 30
0.0
 10
8.5190863223
 20
5.7172742753
 30
0.0
 10
8.5188077669
 20
5.7159915931
 30
0.0
 10
8.518568433
 20
5.715247362
 30
0.0
 10
8.5184467716
 20
5.7149686476
 30
0.0
 10
8.5183817962
 20
5.7148563038
 30
0.0
 11
8.519693688
 21
5.7215407627
 31
0.0
 11
8.519365715
 21
5.7190478875
 31
0.0
 11
8.5190377421
 21
5.7171000378
 31
0.0
 11
8.5187097691
 21
5.7157014373
 31
0.0
 11
8.5185457827
 21
5.7152094252
 31
0.0
 11
8.5183817962
 21
5.7148563038
 31
0.0
  0
SPLINE
  5
45F
100
AcDbEntity
  8
0
100
AcDbSpline
 62
6
  6
CONTINUOUS
 70
0
 71
3
 72
22
 73
18
 74
16
 42
0.0000001
 43
0.0000001
 44
0.0000000001
 12
-0.0103159421
 22
0.3208017215
 32
0.0
 13
-0.0600311001
 23
0.315303711
 33
0.0
 40
0.0
 40
0.0
 40
0.0
 40
0.0
 40
0.1555077968
 40
0.3186491135
 40
0.4807510896
 40
0.5586899192
 40
0.6331565879
 40
0.7031515273
 40
0.7677421546
 40
0.8260651817
 40
0.8773396439
 40
0.9208880796
 40
0.9561290156
 40
0.9704880452
 40
0.9826059353
 40
0.9924515457
 40
1.0
 40
1.0
 40
1.0
 40
1.0
 10
8.7709564583
 20
5.8461062025
 30
0.0
 10
8.7704217218
 20
5.8627352588
 30
0.0
 10
8.7693850934
 20
5.896811544
 30
0.0
 10
8.7678900049
 20
5.9482249655
 30
0.0
 10
8.7666289368
 20
5.9913426642
 30
0.0
 10
8.7655992827
 20
6.0249758111
 30
0.0
 10
8.7648376868
 20
6.0487580717
 30
0.0
 10
8.7640768519
 20
6.0711114741
 30
0.0
 10
8.7633172448
 20
6.0917366632
 30
0.0
 10
8.762559356
 20
6.1103575418
 30
0.0
 10
8.7618044801
 20
6.1267252454
 30
0.0
 10
8.7610533937
 20
6.1406204964
 30
0.0
 10
8.760398381
 20
6.1505653815
 30
0.0
 10
8.7598555032
 20
6.1571462978
 30
0.0
 10
8.7594785489
 20
6.1610143738
 30
0.0
 10
8.759104334
 20
6.1641497049
 30
0.0
 10
8.758822831
 20
6.1659902281
 30
0.0
 10
8.7586717837
 20
6.16678358
 30
0.0
 11
8.7709564583
 21
5.8461062025
 31
0.0
 11
8.7694208016
 21
5.8959955287
 31
0.0
 11
8.767885309
 21
5.9483360779
 31
0.0
 11
8.7663497017
 21
6.0003428848
 31
0.0
 11
8.7655819139
 21
6.0253469341
 31
0.0
 11
8.7648141202
 21
6.0492359824
 31
0.0
 11
8.7640463277
 21
6.0716889624
 31
0.0
 11
8.763278536
 21
6.0924062348
 31
0.0
 11
8.7625107438
 21
6.1111102814
 31
0.0
 11
8.7617429517
 21
6.1275497997
 31
0.0
 11
8.7609751597
 21
6.1415063308
 31
0.0
 11
8.7602073676
 21
6.1527914388
 31
0.0
 11
8.7598234716
 21
6.1573842048
 31
0.0
 11
8.7594395756
 21
6.1612546622
 31
0.0
 11
8.7590556797
 21
6.1643913788
 31
0.0
 11
8.7586717837
 21
6.16678358
 31
0.0
  0
SPLINE
  5
460
100
AcDbEntity
  8
0
100
AcDbSpline
 62
6
  6
CONTINUOUS
 70
0
 71
3
 72
13
 73
9
 74
7
 42
0.0000001
 43
0.0000001
 44
0.0000000001
 12
-0.0005513375
 22
0.0028958116
 32
0.0
 13
-0.0029478251
 23
0.0000050268
 33
0.0
 40
0.0
 40
0.0
 40
0.0
 40
0.0
 40
0.4069719144
 40
0.5692269818
 40
0.7043727919
 40
0.8130113308
 40
0.8963554373
 40
1.0
 40
1.0
 40
1.0
 40
1.0
 10
8.7586717837
 20
6.16678358
 30
0.0
 10
8.7585969907
 20
6.167176418
 30
0.0
 10
8.7584828807
 20
6.1677242563
 30
0.0
 10
8.7583006154
 20
6.1683926934
 30
0.0
 10
8.7581762781
 20
6.1687709118
 30
0.0
 10
8.7580489333
 20
6.1690700099
 30
0.0
 10
8.7579116826
 20
6.1693161138
 30
0.0
 10
8.7577539345
 20
6.1694663733
 30
0.0
 10
8.7576520925
 20
6.1694665469
 30
0.0
 11
8.7586717837
 21
6.16678358
 31
0.0
 11
8.7584168609
 21
6.1679558664
 31
0.0
 11
8.7582893995
 21
6.1684168705
 31
0.0
 11
8.7581619381
 21
6.1687943166
 31
0.0
 11
8.7580344767
 21
6.1690881062
 31
0.0
 11
8.7579070153
 21
6.1692981403
 31
0.0
 11
8.7576520925
 21
6.1694665469
 31
0.0
  0
LINE
  5
461
100
AcDbEntity
  8
0
100
AcDbLine
 62
6
  6
CONTINUOUS
 10
8.4771390615
 20
5.7160662537
 11
8.4767117624
 21
5.7148568925
  0
LINE
  5
462
100
AcDbEntity
  8
0
100
AcDbLine
 62
6
  6
CONTINUOUS
 10
8.4356317398
 20
5.7167740942
 11
8.4350417394
 21
5.7148569308
  0
SPLINE
  5
463
100
AcDbEntity
  8
0
100
AcDbSpline
 62
6
  6
CONTINUOUS
 70
0
 71
3
 72
43
 73
39
 74
37
 42
0.0000001
 43
0.0000001
 44
0.0000000001
 12
-0.4538608555
 22
0.0007565762
 32
0.0
 13
-0.1023961323
 23
0.4421597909
 33
0.0
 40
0.0
 40
0.0
 40
0.0
 40
0.0
 40
0.000885953
 40
0.0016618747
 40
0.0026933539
 40
0.0039886751
 40
0.0055516372
 40
0.0073841231
 40
0.0094870719
 40
0.0145035053
 40
0.0205928053
 40
0.0277430561
 40
0.0359413002
 40
0.0554136686
 40
0.0788367722
 40
0.106011664
 40
0.1366936879
 40
0.1706169685
 40
0.207476841
 40
0.2469512122
 40
0.288686763
 40
0.3323168608
 40
0.3774522504
 40
0.4706334256
 40
0.5649335621
 40
0.6570161893
 40
0.7436235808
 40
0.8216925424
 40
0.8566470043
 40
0.8884637848
 40
0.9168568752
 40
0.9415813132
 40
0.9624146313
 40
0.9791822431
 40
0.9859931908
 40
0.9917382429
 40
0.996409015
 40
1.0
 40
1.0
 40
1.0
 40
1.0
 10
8.5597171243
 20
5.7145668149
 30
0.0
 10
8.5595830912
 20
5.7145670383
 30
0.0
 10
8.5593910495
 20
5.71481124
 30
0.0
 10
8.5592300394
 20
5.7151643039
 30
0.0
 10
8.5590737193
 20
5.7156150433
 30
0.0
 10
8.5589219926
 20
5.7161811716
 30
0.0
 10
8.5587673436
 20
5.7168748757
 30
0.0
 10
8.5586128881
 20
5.7176920401
 30
0.0
 10
8.5583930523
 20
5.7190286093
 30
0.0
 10
8.558125311
 20
5.7210091663
 30
0.0
 10
8.5578175892
 20
5.723754019
 30
0.0
 10
8.5575087267
 20
5.7269826493
 30
0.0
 10
8.5570702198
 20
5.7322324081
 30
0.0
 10
8.5565363731
 20
5.7399441041
 30
0.0
 10
8.5559217914
 20
5.7505271265
 30
0.0
 10
8.5553052252
 20
5.7628083843
 30
0.0
 10
8.5546866034
 20
5.7766798101
 30
0.0
 10
8.5540670561
 20
5.7920177161
 30
0.0
 10
8.5534465607
 20
5.8086867397
 30
0.0
 10
8.5528256181
 20
5.8265384013
 30
0.0
 10
8.5522041761
 20
5.8454148751
 30
0.0
 10
8.5515825016
 20
5.8651482216
 30
0.0
 10
8.5507443911
 20
5.8926616571
 30
0.0
 10
8.5497109706
 20
5.9278384072
 30
0.0
 10
8.5484829837
 20
5.9701150084
 30
0.0
 10
8.5472561778
 20
6.0113967022
 30
0.0
 10
8.5460318243
 20
6.0502217628
 30
0.0
 10
8.5449816153
 20
6.0804051989
 30
0.0
 10
8.5441230269
 20
6.1023008723
 30
0.0
 10
8.5435041566
 20
6.1166847563
 30
0.0
 10
8.5428865377
 20
6.1295194355
 30
0.0
 10
8.5422717071
 20
6.1406905007
 30
0.0
 10
8.5416594982
 20
6.1500997549
 30
0.0
 10
8.5411256029
 20
6.1567980333
 30
0.0
 10
8.5406829459
 20
6.1612123121
 30
0.0
 10
8.5403759576
 20
6.1638006356
 30
0.0
 10
8.5400711433
 20
6.165897784
 30
0.0
 10
8.5398419622
 20
6.1671274203
 30
0.0
 10
8.5397193946
 20
6.1676566833
 30
0.0
 11
8.5597171243
 21
5.7145668149
 31
0.0
 11
8.5594046783
 21
5.7148199193
 31
0.0
 11
8.5592484476
 21
5.7151355288
 31
0.0
 11
8.5590922134
 21
5.7155768383
 31
0.0
 11
8.5589359767
 21
5.7161435942
 31
0.0
 11
8.5587797388
 21
5.716835543
 31
0.0
 11
8.5586235007
 21
5.7176524309
 31
0.0
 11
8.5584672635
 21
5.718594004
 31
0.0
 11
8.5581547943
 21
5.7208492259
 31
0.0
 11
8.5578423301
 21
5.7235952042
 31
0.0
 11
8.5575298685
 21
5.7268253502
 31
0.0
 11
8.5572174071
 21
5.7305330747
 31
0.0
 11
8.5565924798
 21
5.7393487105
 31
0.0
 11
8.5559675495
 21
5.749961171
 31
0.0
 11
8.5553426204
 21
5.7622789655
 31
0.0
 11
8.5547176921
 21
5.7761903249
 31
0.0
 11
8.5540927634
 21
5.7915741076
 31
0.0
 11
8.5534678345
 21
5.8082917078
 31
0.0
 11
8.5528429056
 21
5.8261967021
 31
0.0
 11
8.5522179768
 21
5.8451285498
 31
0.0
 11
8.5515930479
 21
5.8649207073
 31
0.0
 11
8.550968119
 21
5.8853963879
 31
0.0
 11
8.5497182611
 21
5.9276692617
 31
0.0
 11
8.5484684031
 21
5.9704502083
 31
0.0
 11
8.547218545
 21
6.0122242729
 31
0.0
 11
8.5459686868
 21
6.0515121566
 31
0.0
 11
8.5447188285
 21
6.0869226007
 31
0.0
 11
8.5440938993
 21
6.1027747714
 31
0.0
 11
8.5434689702
 21
6.117201654
 31
0.0
 11
8.5428440409
 21
6.1300730224
 31
0.0
 11
8.5422191117
 21
6.1412770778
 31
0.0
 11
8.5415941825
 21
6.1507118444
 31
0.0
 11
8.5409692532
 21
6.1582963154
 31
0.0
 11
8.5406567885
 21
6.1613717096
 31
0.0
 11
8.5403443239
 21
6.1639603777
 31
0.0
 11
8.5400318592
 21
6.1660571066
 31
0.0
 11
8.5397193946
 21
6.1676566833
 31
0.0
  0
LINE
  5
464
100
AcDbEntity
  8
0
100
AcDbLine
 62
6
  6
CONTINUOUS
 10
8.5397193946
 20
6.1676566833
 11
8.5392167949
 21
6.1691765688
  0
SPLINE
  5
465
100
AcDbEntity
  8
0
100
AcDbSpline
 62
6
  6
CONTINUOUS
 70
0
 71
3
 72
12
 73
8
 74
6
 42
0.0000001
 43
0.0000001
 44
0.0000000001
 12
-0.000804622
 22
-0.0067794701
 32
0.0
 13
-0.0034197702
 23
-0.0059087904
 33
0.0
 40
0.0
 40
0.0
 40
0.0
 40
0.0
 40
0.3680509057
 40
0.6570719106
 40
0.8671986555
 40
0.9430501167
 40
1.0
 40
1.0
 40
1.0
 40
1.0
 10
8.7697128048
 20
5.7215337876
 30
0.0
 10
8.7696140909
 20
5.7207020575
 30
0.0
 10
8.769423703
 20
5.7192185077
 30
0.0
 10
8.7691057879
 20
5.7172710126
 30
0.0
 10
8.7688274096
 20
5.7159899555
 30
0.0
 10
8.768588236
 20
5.7152468314
 30
0.0
 10
8.76846666
 20
5.7149685619
 30
0.0
 10
8.7684017414
 20
5.7148563936
 30
0.0
 11
8.7697128048
 21
5.7215337876
 31
0.0
 11
8.769384961
 21
5.7190425645
 31
0.0
 11
8.7690571953
 21
5.7170968166
 31
0.0
 11
8.7687294685
 21
5.7157002073
 31
0.0
 11
8.7685656074
 21
5.7152089744
 31
0.0
 11
8.7684017414
 21
5.7148563936
 31
0.0
  0
SPLINE
  5
466
100
AcDbEntity
  8
0
100
AcDbSpline
 62
6
  6
CONTINUOUS
 70
0
 71
3
 72
42
 73
38
 74
36
 42
0.0000001
 43
0.0000001
 44
0.0000000001
 12
-0.4534892572
 22
0.0007009207
 32
0.0
 13
-0.0938608583
 23
0.4436700767
 33
0.0
 40
0.0
 40
0.0
 40
0.0
 40
0.0
 40
0.0008810297
 40
0.001651183
 40
0.0026750736
 40
0.0039613357
 40
0.0055140891
 40
0.0073349669
 40
0.0094240711
 40
0.0144047191
 40
0.0204495925
 40
0.027549753
 40
0.0356924627
 40
0.0550281509
 40
0.0782936961
 40
0.1052859563
 40
0.1357703845
 40
0.1694790979
 40
0.2061170107
 40
0.2453619887
 40
0.286869405
 40
0.330274457
 40
0.3751953441
 40
0.4679954271
 40
0.5620125924
 40
0.6539468936
 40
0.7405717568
 40
0.8188477389
 40
0.8539830545
 40
0.8860301561
 40
0.9147085334
 40
0.9397670686
 40
0.9609877146
 40
0.9781877397
 40
0.9912231885
 40
0.9961483831
 40
1.0
 40
1.0
 40
1.0
 40
1.0
 10
8.5180471463
 20
5.7145673393
 30
0.0
 10
8.5179139672
 20
5.7145675452
 30
0.0
 10
8.5177224794
 20
5.7148088209
 30
0.0
 10
8.517561978
 20
5.7151591361
 30
0.0
 10
8.5174062708
 20
5.7156059463
 30
0.0
 10
8.5172551477
 20
5.7161675903
 30
0.0
 10
8.5171011466
 20
5.7168560434
 30
0.0
 10
8.5169473523
 20
5.7176671591
 30
0.0
 10
8.5167284556
 20
5.7189933736
 30
0.0
 10
8.5164617271
 20
5.7209580683
 30
0.0
 10
8.516155173
 20
5.7236809558
 30
0.0
 10
8.5158475564
 20
5.7268842518
 30
0.0
 10
8.51541093
 20
5.7320930827
 30
0.0
 10
8.5148789839
 20
5.7397455645
 30
0.0
 10
8.5142670482
 20
5.750247839
 30
0.0
 10
8.5136527946
 20
5.7624377333
 30
0.0
 10
8.5130367526
 20
5.7762078917
 30
0.0
 10
8.5124195868
 20
5.791437378
 30
0.0
 10
8.5118016352
 20
5.8079920943
 30
0.0
 10
8.511183113
 20
5.8257264272
 30
0.0
 10
8.5105641879
 20
5.8444842725
 30
0.0
 10
8.5099449595
 20
5.8641005403
 30
0.0
 10
8.5091100155
 20
5.8914674112
 30
0.0
 10
8.5080803795
 20
5.9264825759
 30
0.0
 10
8.506857135
 20
5.9686018084
 30
0.0
 10
8.5056349812
 20
6.009787219
 30
0.0
 10
8.5044151995
 20
6.0485921153
 30
0.0
 10
8.5033693515
 20
6.0788122558
 30
0.0
 10
8.5025148791
 20
6.1007836525
 30
0.0
 10
8.5018981887
 20
6.1152611924
 30
0.0
 10
8.5012830463
 20
6.1282140701
 30
0.0
 10
8.5006697512
 20
6.139528356
 30
0.0
 10
8.5000607183
 20
6.1491050677
 30
0.0
 10
8.4994555983
 20
6.156859811
 30
0.0
 10
8.4989260765
 20
6.1621497803
 30
0.0
 10
8.4984776259
 20
6.1654165948
 30
0.0
 10
8.4982499837
 20
6.1667243713
 30
0.0
 10
8.4981294783
 20
6.167293987
 30
0.0
 11
8.5180471463
 21
5.7145673393
 31
0.0
 11
8.5177359328
 21
5.7148178922
 31
0.0
 11
8.5175803261
 21
5.715130569
 31
0.0
 11
8.5174247194
 21
5.7155680428
 31
0.0
 11
8.5172691126
 21
5.7161302111
 31
0.0
 11
8.5171135059
 21
5.7168169606
 31
0.0
 11
8.5169578991
 21
5.717627916
 31
0.0
 11
8.5168022924
 21
5.7185624371
 31
0.0
 11
8.5164910789
 21
5.720799567
 31
0.0
 11
8.5161798654
 21
5.7235231323
 31
0.0
 11
8.5158686519
 21
5.7267279073
 31
0.0
 11
8.5155574384
 21
5.7304074052
 31
0.0
 11
8.5149350114
 21
5.7391538235
 31
0.0
 11
8.5143125844
 21
5.7496861351
 31
0.0
 11
8.5136901573
 21
5.7619110147
 31
0.0
 11
8.5130677303
 21
5.7757213728
 31
0.0
 11
8.5124453032
 21
5.7909952534
 31
0.0
 11
8.5118228761
 21
5.8075985104
 31
0.0
 11
8.5112004491
 21
5.8253848201
 31
0.0
 11
8.510578022
 21
5.8441977162
 31
0.0
 11
8.5099555949
 21
5.863871621
 31
0.0
 11
8.5093331678
 21
5.8842332739
 31
0.0
 11
8.5080883135
 21
5.9262987493
 31
0.0
 11
8.5068434592
 21
5.9689163976
 31
0.0
 11
8.5055986049
 21
6.0105890762
 31
0.0
 11
8.5043537505
 21
6.049852839
 31
0.0
 11
8.5031088962
 21
6.0853283638
 31
0.0
 11
8.5024864689
 21
6.1012497091
 31
0.0
 11
8.5018640417
 21
6.1157694078
 31
0.0
 11
8.5012416145
 21
6.1287598564
 31
0.0
 11
8.5006191873
 21
6.1401065876
 31
0.0
 11
8.4999967601
 21
6.149709784
 31
0.0
 11
8.4993743328
 21
6.1574849461
 31
0.0
 11
8.4987519056
 21
6.1633635295
 31
0.0
 11
8.498440692
 21
6.1655752669
 31
0.0
 11
8.4981294783
 21
6.167293987
 31
0.0
  0
LINE
  5
467
100
AcDbEntity
  8
0
100
AcDbLine
 62
6
  6
CONTINUOUS
 10
8.4980808048
 20
6.1675179941
 11
8.4975467844
 21
6.1691767214
  0
SPLINE
  5
468
100
AcDbEntity
  8
0
100
AcDbSpline
 62
6
  6
CONTINUOUS
 70
0
 71
3
 72
40
 73
36
 74
34
 42
0.0000001
 43
0.0000001
 44
0.0000000001
 12
-0.449258104
 22
-0.0004517296
 32
0.0
 13
-0.0553857973
 23
0.445831203
 33
0.0
 40
0.0
 40
0.0
 40
0.0
 40
0.0
 40
0.0008482564
 40
0.0015803902
 40
0.002551656
 40
0.0037703031
 40
0.0052397411
 40
0.0069614413
 40
0.0089359224
 40
0.0136427749
 40
0.0193574338
 40
0.0260720446
 40
0.0337723357
 40
0.0520673675
 40
0.0741035988
 40
0.0996967494
 40
0.1286434575
 40
0.1607017462
 40
0.195612926
 40
0.2330866793
 40
0.2728179191
 40
0.3144778904
 40
0.3577254146
 40
0.4475480823
 40
0.5393365202
 40
0.6300765167
 40
0.7167884035
 40
0.7966252959
 40
0.8669671563
 40
0.8978414263
 40
0.9255081165
 40
0.9497366561
 40
0.9703347585
 40
0.9871309728
 40
1.0
 40
1.0
 40
1.0
 40
1.0
 10
8.4763771148
 20
5.7145674632
 30
0.0
 10
8.4762500861
 20
5.7145673355
 30
0.0
 10
8.4760640404
 20
5.7147900597
 30
0.0
 10
8.4759079604
 20
5.7151203233
 30
0.0
 10
8.4757573858
 20
5.7155383092
 30
0.0
 10
8.475611196
 20
5.7160643807
 30
0.0
 10
8.4754622372
 20
5.7167087095
 30
0.0
 10
8.4753134554
 20
5.7174676706
 30
0.0
 10
8.4751017279
 20
5.7187083157
 30
0.0
 10
8.4748436797
 20
5.7205469084
 30
0.0
 10
8.4745472037
 20
5.7230960572
 30
0.0
 10
8.4742497545
 20
5.7260959129
 30
0.0
 10
8.473827287
 20
5.7309761549
 30
0.0
 10
8.4733126509
 20
5.7381509114
 30
0.0
 10
8.4727208162
 20
5.748005628
 30
0.0
 10
8.4721265753
 20
5.7594578057
 30
0.0
 10
8.4715307611
 20
5.7724124742
 30
0.0
 10
8.4709337209
 20
5.7867638103
 30
0.0
 10
8.4703360271
 20
5.8023930703
 30
0.0
 10
8.4697376881
 20
5.8191721279
 30
0.0
 10
8.4691390199
 20
5.8369624253
 30
0.0
 10
8.4685399994
 20
5.8556178129
 30
0.0
 10
8.4677308607
 20
5.881771631
 30
0.0
 10
8.4667324441
 20
5.9154300394
 30
0.0
 10
8.4655480521
 20
5.9561981711
 30
0.0
 10
8.4643641022
 20
5.9965002717
 30
0.0
 10
8.4631821103
 20
6.0350118738
 30
0.0
 10
8.4620033283
 20
6.0704673542
 30
0.0
 10
8.4609881319
 20
6.0975617167
 30
0.0
 10
8.4601559966
 20
6.116844382
 30
0.0
 10
8.4595607485
 20
6.1292251205
 30
0.0
 10
8.4589671643
 20
6.1400650319
 30
0.0
 10
8.4583773892
 20
6.1492746422
 30
0.0
 10
8.4577915076
 20
6.1567789851
 30
0.0
 10
8.4573509421
 20
6.1612005373
 30
0.0
 10
8.457113355
 20
6.1631130086
 30
0.0
 11
8.4763771148
 21
5.7145674632
 31
0.0
 11
8.4760761185
 21
5.7148011895
 31
0.0
 11
8.4759256204
 21
5.7150936564
 31
0.0
 11
8.4757751222
 21
5.7155032305
 31
0.0
 11
8.4756246241
 21
5.7160296265
 31
0.0
 11
8.475474126
 21
5.7166724001
 31
0.0
 11
8.4753236278
 21
5.7174311057
 31
0.0
 11
8.4751731297
 21
5.7183052977
 31
0.0
 11
8.4748721334
 21
5.7203983585
 31
0.0
 11
8.4745711371
 21
5.7229480112
 31
0.0
 11
8.4742701408
 21
5.7259495518
 31
0.0
 11
8.4739691446
 21
5.7293958524
 31
0.0
 11
8.473367152
 21
5.7375929725
 31
0.0
 11
8.4727651595
 21
5.7474746132
 31
0.0
 11
8.4721631669
 21
5.7589567794
 31
0.0
 11
8.4715611744
 21
5.7719473883
 31
0.0
 11
8.4709591819
 21
5.7863372551
 31
0.0
 11
8.4703571893
 21
5.8020098363
 31
0.0
 11
8.4697551968
 21
5.8188344658
 31
0.0
 11
8.4691532043
 21
5.836673902
 31
0.0
 11
8.4685512118
 21
5.8553803073
 31
0.0
 11
8.4679492192
 21
5.8748002897
 31
0.0
 11
8.4667452342
 21
5.9151359065
 31
0.0
 11
8.4655412492
 21
5.9563550468
 31
0.0
 11
8.4643372643
 21
5.997102963
 31
0.0
 11
8.4631332793
 21
6.0360403907
 31
0.0
 11
8.4619292944
 21
6.0718875666
 31
0.0
 11
8.4607253095
 21
6.1034662899
 31
0.0
 11
8.460123317
 21
6.1173237433
 31
0.0
 11
8.4595213246
 21
6.1297386477
 31
0.0
 11
8.4589193322
 21
6.1406068615
 31
0.0
 11
8.4583173398
 21
6.1498411292
 31
0.0
 11
8.4577153474
 21
6.1573629171
 31
0.0
 11
8.457113355
 21
6.1631130086
 31
0.0
  0
SPLINE
  5
469
100
AcDbEntity
  8
0
100
AcDbSpline
 62
6
  6
CONTINUOUS
 70
0
 71
3
 72
12
 73
8
 74
6
 42
0.0000001
 43
0.0000001
 44
0.0000000001
 12
-0.0007655215
 22
0.0061621101
 32
0.0
 13
-0.003107442
 23
0.0053760049
 33
0.0
 40
0.0
 40
0.0
 40
0.0
 40
0.0
 40
0.3652845125
 40
0.6533652728
 40
0.864410194
 40
0.9414267655
 40
1.0
 40
1.0
 40
1.0
 40
1.0
 10
8.457113355
 20
6.1631130086
 30
0.0
 10
8.4570201439
 20
6.1638633164
 30
0.0
 10
8.4568401066
 20
6.1652040221
 30
0.0
 10
8.4565399908
 20
6.1669677341
 30
0.0
 10
8.4562769152
 20
6.1681331114
 30
0.0
 10
8.4560517897
 20
6.1688146636
 30
0.0
 10
8.4559374169
 20
6.1690723
 30
0.0
 10
8.455876746
 20
6.1691772634
 30
0.0
 11
8.457113355
 21
6.1631130086
 31
0.0
 11
8.4568042027
 21
6.1653600679
 31
0.0
 11
8.4564950505
 21
6.1671219823
 31
0.0
 11
8.4561858982
 21
6.1683954736
 31
0.0
 11
8.4560313221
 21
6.168848036
 31
0.0
 11
8.455876746
 21
6.1691772634
 31
0.0
  0
SPLINE
  5
46A
100
AcDbEntity
  8
0
100
AcDbSpline
 62
6
  6
CONTINUOUS
 70
0
 71
3
 72
35
 73
31
 74
29
 42
0.0000001
 43
0.0000001
 44
0.0000000001
 12
-0.0216507331
 22
0.4159292273
 32
0.0
 13
-0.4164923482
 23
-0.0000157131
 33
0.0
 40
0.0
 40
0.0
 40
0.0
 40
0.0
 40
0.0542662449
 40
0.1186033945
 40
0.1913677354
 40
0.2707371672
 40
0.3547013836
 40
0.4411414789
 40
0.5278728425
 40
0.612703727
 40
0.6934910289
 40
0.7317262426
 40
0.7681945806
 40
0.8026691162
 40
0.8349286437
 40
0.8647716662
 40
0.8920098603
 40
0.9164693552
 40
0.9380010535
 40
0.9564649137
 40
0.9717525902
 40
0.9837693109
 40
0.9885298149
 40
0.9924528184
 40
0.9955370087
 40
0.9967658295
 40
0.997787813
 40
0.9986072535
 40
0.9992331602
 40
1.0
 40
1.0
 40
1.0
 40
1.0
 10
8.732873967
 20
5.7535990635
 30
0.0
 10
8.7324823324
 20
5.7611227026
 30
0.0
 10
8.7317313064
 20
5.7775716643
 30
0.0
 10
8.7306986718
 20
5.8041193942
 30
0.0
 10
8.7296617271
 20
5.8341544024
 30
0.0
 10
8.728621701
 20
5.8669155867
 30
0.0
 10
8.7275801407
 20
5.9015762349
 30
0.0
 10
8.7265377769
 20
5.9372593607
 30
0.0
 10
8.7254953519
 20
5.9730628566
 30
0.0
 10
8.724453452
 20
6.0080812494
 30
0.0
 10
8.723570968
 20
6.036368636
 30
0.0
 10
8.7228568959
 20
6.0579437464
 30
0.0
 10
8.722331335
 20
6.0730919193
 30
0.0
 10
8.7218061432
 20
6.0874099723
 30
0.0
 10
8.7212812533
 20
6.1008075836
 30
0.0
 10
8.7207568797
 20
6.1131997655
 30
0.0
 10
8.7202332336
 20
6.1245080451
 30
0.0
 10
8.7197104627
 20
6.1346611525
 30
0.0
 10
8.7191892318
 20
6.1435943801
 30
0.0
 10
8.7186703375
 20
6.1512520386
 30
0.0
 10
8.7181545049
 20
6.1575852546
 30
0.0
 10
8.7177031437
 20
6.1620146689
 30
0.0
 10
8.7173269803
 20
6.1648640066
 30
0.0
 10
8.7170683003
 20
6.1664774333
 30
0.0
 10
8.7168423338
 20
6.1675986807
 30
0.0
 10
8.7166536728
 20
6.1683157452
 30
0.0
 10
8.716525062
 20
6.1687210527
 30
0.0
 10
8.7163931486
 20
6.1690416421
 30
0.0
 10
8.7162522277
 20
6.1693032134
 30
0.0
 10
8.7160886037
 20
6.1694660186
 30
0.0
 10
8.7159821427
 20
6.1694660146
 30
0.0
 11
8.732873967
 21
5.7535990635
 31
0.0
 11
8.7318183222
 21
5.7761758729
 31
0.0
 11
8.7307624369
 21
5.8029509919
 31
0.0
 11
8.7297067717
 21
5.8332383911
 31
0.0
 11
8.7286510067
 21
5.8662782884
 31
0.0
 11
8.7275952753
 21
5.9012328026
 31
0.0
 11
8.726539535
 21
5.9372189579
 31
0.0
 11
8.7254837961
 21
5.9733264762
 31
0.0
 11
8.7244280573
 21
6.0086421137
 31
0.0
 11
8.7233723181
 21
6.04227284
 31
0.0
 11
8.7228444486
 21
6.0581887626
 31
0.0
 11
8.722316579
 21
6.0733683708
 31
0.0
 11
8.7217887094
 21
6.0877170446
 31
0.0
 11
8.7212608398
 21
6.1011425174
 31
0.0
 11
8.7207329702
 21
6.1135606937
 31
0.0
 11
8.7202051005
 21
6.1248929054
 31
0.0
 11
8.7196772309
 21
6.1350664124
 31
0.0
 11
8.7191493612
 21
6.1440186505
 31
0.0
 11
8.7186214915
 21
6.1516905683
 31
0.0
 11
8.7180936218
 21
6.1580358494
 31
0.0
 11
8.717565752
 21
6.1630128063
 31
0.0
 11
8.7173018172
 21
6.164977874
 31
0.0
 11
8.7170378823
 21
6.1665903165
 31
0.0
 11
8.7167739474
 21
6.1678474504
 31
0.0
 11
8.71664198
 21
6.1683419382
 31
0.0
 11
8.7165100125
 21
6.1687466122
 31
0.0
 11
8.7163780451
 21
6.1690613565
 31
0.0
 11
8.7162460776
 21
6.1692861707
 31
0.0
 11
8.7159821427
 21
6.1694660146
 31
0.0
  0
SPLINE
  5
46B
100
AcDbEntity
  8
0
100
AcDbSpline
 62
6
  6
CONTINUOUS
 70
0
 71
3
 72
39
 73
35
 74
33
 42
0.0000001
 43
0.0000001
 44
0.0000000001
 12
-0.4459475907
 22
-0.000613421
 32
0.0
 13
-0.0449023352
 23
0.4436816542
 33
0.0
 40
0.0
 40
0.0
 40
0.0
 40
0.0
 40
0.0008330443
 40
0.0015465873
 40
0.002490699
 40
0.003673571
 40
0.0050989494
 40
0.0067686633
 40
0.0086835932
 40
0.0132500385
 40
0.018795146
 40
0.0253085687
 40
0.0327785106
 40
0.0505362837
 40
0.0719327767
 40
0.0968010367
 40
0.1249473541
 40
0.1561477814
 40
0.1901589321
 40
0.2267088098
 40
0.265511816
 40
0.3062576965
 40
0.3486270195
 40
0.4368788854
 40
0.5274787551
 40
0.6175634764
 40
0.7042862221
 40
0.7849067958
 40
0.8568786985
 40
0.9179304518
 40
0.9437439186
 40
0.9661397115
 40
0.9849379764
 40
1.0
 40
1.0
 40
1.0
 40
1.0
 10
8.4347070904
 20
5.7145668698
 30
0.0
 10
8.434583259
 20
5.7145666995
 30
0.0
 10
8.4344006306
 20
5.7147802206
 30
0.0
 10
8.4342470044
 20
5.7150996767
 30
0.0
 10
8.434099283
 20
5.7155019288
 30
0.0
 10
8.4339557981
 20
5.7160082113
 30
0.0
 10
8.4338096589
 20
5.7166280208
 30
0.0
 10
8.4336636908
 20
5.7173581698
 30
0.0
 10
8.4334559553
 20
5.7185520828
 30
0.0
 10
8.4332028488
 20
5.7203220915
 30
0.0
 10
8.4329120977
 20
5.7227763675
 30
0.0
 10
8.4326202445
 20
5.7256646629
 30
0.0
 10
8.4322056867
 20
5.7303648061
 30
0.0
 10
8.4317009465
 20
5.7372773937
 30
0.0
 10
8.4311202062
 20
5.7467766725
 30
0.0
 10
8.4305373442
 20
5.7578225654
 30
0.0
 10
8.4299527861
 20
5.7703274644
 30
0.0
 10
8.4293671094
 20
5.7841927262
 30
0.0
 10
8.4287807523
 20
5.7993081527
 30
0.0
 10
8.4281937627
 20
5.8155544582
 30
0.0
 10
8.4276064658
 20
5.8328024762
 30
0.0
 10
8.4270187876
 20
5.8509160123
 30
0.0
 10
8.4262242237
 20
5.8763772236
 30
0.0
 10
8.4252434817
 20
5.9092469704
 30
0.0
 10
8.424080966
 20
5.9492072883
 30
0.0
 10
8.4229187273
 20
5.9889402203
 30
0.0
 10
8.4217578038
 20
6.0271891239
 30
0.0
 10
8.4206002041
 20
6.0627443981
 30
0.0
 10
8.4194471682
 20
6.0944815961
 30
0.0
 10
8.4184481517
 20
6.1180718319
 30
0.0
 10
8.4176232171
 20
6.1342925379
 30
0.0
 10
8.4170421186
 20
6.144236364
 30
0.0
 10
8.416463984
 20
6.1525789109
 30
0.0
 10
8.4160357752
 20
6.1575944951
 30
0.0
 10
8.4158103352
 20
6.1598220763
 30
0.0
 11
8.4347070904
 21
5.7145668698
 31
0.0
 11
8.4344118285
 21
5.7147923217
 31
0.0
 11
8.4342641975
 21
5.7150742051
 31
0.0
 11
8.4341165665
 21
5.7154684981
 31
0.0
 11
8.4339689356
 21
5.7159749176
 31
0.0
 11
8.4338213046
 21
5.7165931807
 31
0.0
 11
8.4336736737
 21
5.7173230043
 31
0.0
 11
8.4335260427
 21
5.7181641056
 31
0.0
 11
8.4332307808
 21
5.7201789838
 31
0.0
 11
8.4329355189
 21
5.7226341227
 31
0.0
 11
8.4326402569
 21
5.7255237247
 31
0.0
 11
8.432344995
 21
5.7288418194
 31
0.0
 11
8.4317544712
 21
5.7367388146
 31
0.0
 11
8.4311639474
 21
5.7462622473
 31
0.0
 11
8.4305734237
 21
5.7573364649
 31
0.0
 11
8.4299828999
 21
5.7698743604
 31
0.0
 11
8.4293923762
 21
5.7837755919
 31
0.0
 11
8.4288018524
 21
5.7989312968
 31
0.0
 11
8.4282113287
 21
5.8152199413
 31
0.0
 11
8.4276208051
 21
5.8325139857
 31
0.0
 11
8.4270302814
 21
5.8506749319
 31
0.0
 11
8.4264397577
 21
5.869560217
 31
0.0
 11
8.4252587105
 21
5.9088982359
 31
0.0
 11
8.4240776633
 21
5.9492838019
 31
0.0
 11
8.4228966162
 21
5.9894395398
 31
0.0
 11
8.4217155691
 21
6.0280953379
 31
0.0
 11
8.4205345222
 21
6.0640285185
 31
0.0
 11
8.4193534753
 21
6.0961025083
 31
0.0
 11
8.4181724285
 21
6.1233027877
 31
0.0
 11
8.4175819051
 21
6.1347990953
 31
0.0
 11
8.4169913818
 21
6.1447689814
 31
0.0
 11
8.4164008585
 21
6.1531312054
 31
0.0
 11
8.4158103352
 21
6.1598220763
 31
0.0
  0
SPLINE
  5
46C
100
AcDbEntity
  8
0
100
AcDbSpline
 62
6
  6
CONTINUOUS
 70
0
 71
3
 72
13
 73
9
 74
7
 42
0.0000001
 43
0.0000001
 44
0.0000000001
 12
-0.0009585943
 22
0.0094719062
 32
0.0
 13
-0.0047682644
 23
0.0082401192
 33
0.0
 40
0.0
 40
0.0
 40
0.0
 40
0.0
 40
0.3763544715
 40
0.6685106889
 40
0.7828617031
 40
0.8760561204
 40
0.948247535
 40
1.0
 40
1.0
 40
1.0
 40
1.0
 10
8.4158103352
 20
6.1598220763
 30
0.0
 10
8.4156900781
 20
6.161010341
 30
0.0
 10
8.4154579098
 20
6.1631191292
 30
0.0
 10
8.4151149758
 20
6.1655806973
 30
0.0
 10
8.4148281449
 20
6.1671404392
 30
0.0
 10
8.4146324649
 20
6.1680070036
 30
0.0
 10
8.4144386961
 20
6.1686681713
 30
0.0
 10
8.4142890047
 20
6.1690346243
 30
0.0
 10
8.4142067482
 20
6.1691767731
 30
0.0
 11
8.4158103352
 21
6.1598220763
 31
0.0
 11
8.4154094384
 21
6.1633825812
 31
0.0
 11
8.4150085417
 21
6.1661349499
 31
0.0
 11
8.4148080933
 21
6.1672049917
 31
0.0
 11
8.414607645
 21
6.1680692899
 31
0.0
 11
8.4144071966
 21
6.1687266929
 31
0.0
 11
8.4142067482
 21
6.1691767731
 31
0.0
  0
SPLINE
  5
46D
100
AcDbEntity
  8
0
100
AcDbSpline
 62
6
  6
CONTINUOUS
 70
0
 71
3
 72
21
 73
17
 74
15
 42
0.0000001
 43
0.0000001
 44
0.0000000001
 12
-0.0211657959
 22
0.4066131652
 32
0.0
 13
-0.0423800054
 23
0.4049520863
 33
0.0
 40
0.0
 40
0.0
 40
0.0
 40
0.0
 40
0.0488180509
 40
0.1059262071
 40
0.1701513804
 40
0.2402341708
 40
0.3922656494
 40
0.549925543
 40
0.7006742831
 40
0.769663295
 40
0.832526755
 40
0.888008146
 40
0.9350030401
 40
0.9725797041
 40
0.9875962314
 40
1.0
 40
1.0
 40
1.0
 40
1.0
 10
8.722453967
 20
5.7535990635
 30
0.0
 10
8.7221095427
 20
5.7602157509
 30
0.0
 10
8.7214437528
 20
5.7745769754
 30
0.0
 10
8.7205222066
 20
5.7976518031
 30
0.0
 10
8.7195974836
 20
5.8236146336
 30
0.0
 10
8.7183269289
 20
5.8624562298
 30
0.0
 10
8.7167893809
 20
5.9139767729
 30
0.0
 10
8.7149843042
 20
5.9764421612
 30
0.0
 10
8.7134444638
 20
6.0276399557
 30
0.0
 10
8.7121713033
 20
6.0659738504
 30
0.0
 10
8.7112469311
 20
6.0913822654
 30
0.0
 10
8.7103271211
 20
6.1138036876
 30
0.0
 10
8.7094122767
 20
6.1327899103
 30
0.0
 10
8.7086143307
 20
6.1462832934
 30
0.0
 10
8.7079478619
 20
6.155079714
 30
0.0
 10
8.707609911
 20
6.1587861597
 30
0.0
 10
8.7074346871
 20
6.1604604703
 30
0.0
 11
8.722453967
 21
5.7535990635
 31
0.0
 11
8.7215154193
 21
5.7734538299
 31
0.0
 11
8.7205764791
 21
5.7966872315
 31
0.0
 11
8.7196378736
 21
5.8228205389
 31
0.0
 11
8.7186991484
 21
5.8513402604
 31
0.0
 11
8.7168217403
 21
5.9132134794
 31
0.0
 11
8.7149443289
 21
5.9773794014
 31
0.0
 11
8.7130669188
 21
6.0387300933
 31
0.0
 11
8.7121282136
 21
6.0668042236
 31
0.0
 11
8.7111895084
 21
6.092382722
 31
0.0
 11
8.7102508032
 21
6.114953217
 31
0.0
 11
8.7093120979
 21
6.1340647914
 31
0.0
 11
8.7083733925
 21
6.1493358202
 31
0.0
 11
8.7079040398
 21
6.1554319632
 31
0.0
 11
8.7074346871
 21
6.1604604703
 31
0.0
  0
SPLINE
  5
46E
100
AcDbEntity
  8
0
100
AcDbSpline
 62
6
  6
CONTINUOUS
 70
0
 71
3
 72
13
 73
9
 74
7
 42
0.0000001
 43
0.0000001
 44
0.0000000001
 12
-0.0009241505
 22
0.0088305008
 32
0.0
 13
-0.0044472112
 23
0.0076846672
 33
0.0
 40
0.0
 40
0.0
 40
0.0
 40
0.0
 40
0.3746590808
 40
0.6661745856
 40
0.7806396548
 40
0.8742594005
 40
0.9471972622
 40
1.0
 40
1.0
 40
1.0
 40
1.0
 10
8.7074346871
 20
6.1604604703
 30
0.0
 10
8.7073192733
 20
6.1615632794
 30
0.0
 10
8.7070963299
 20
6.163522295
 30
0.0
 10
8.7067673104
 20
6.1658100556
 30
0.0
 10
8.7064924197
 20
6.1672630278
 30
0.0
 10
8.70630455
 20
6.1680738471
 30
0.0
 10
8.7061184698
 20
6.1686957998
 30
0.0
 10
8.7059750647
 20
6.1690416348
 30
0.0
 10
8.7058967898
 20
6.1691768919
 30
0.0
 11
8.7074346871
 21
6.1604604703
 31
0.0
 11
8.7070502128
 21
6.1637646728
 31
0.0
 11
8.7066657384
 21
6.1663242445
 31
0.0
 11
8.7064735013
 21
6.1673222019
 31
0.0
 11
8.7062812641
 21
6.1681308913
 31
0.0
 11
8.7060890269
 21
6.1687492962
 31
0.0
 11
8.7058967898
 21
6.1691768919
 31
0.0
  0
LINE
  5
46F
100
AcDbEntity
  8
0
100
AcDbLine
 62
6
  6
CONTINUOUS
 10
8.560536936
 20
5.7163022933
 11
8.5600517708
 21
5.7148562344
  0
SPLINE
  5
470
100
AcDbEntity
  8
0
100
AcDbSpline
 62
6
  6
CONTINUOUS
 70
0
 71
3
 72
15
 73
11
 74
9
 42
0.0000001
 43
0.0000001
 44
0.0000000001
 12
-0.0012280678
 22
-0.0166994407
 32
0.0
 13
-0.008364562
 23
-0.0145056393
 33
0.0
 40
0.0
 40
0.0
 40
0.0
 40
0.0
 40
0.3903522207
 40
0.5508354571
 40
0.6878763155
 40
0.8012691665
 40
0.890929896
 40
0.9569852614
 40
0.9813043818
 40
1.0
 40
1.0
 40
1.0
 40
1.0
 10
8.4241351318
 20
5.7088458647
 30
0.0
 10
8.4239753388
 20
5.7066729768
 30
0.0
 10
8.4237309393
 20
5.7036079446
 30
0.0
 10
8.4233526444
 20
5.6997870866
 30
0.0
 10
8.4230886711
 20
5.6975087201
 30
0.0
 10
8.4228267625
 20
5.695628191
 30
0.0
 10
8.4225664448
 20
5.6941489153
 30
0.0
 10
8.4223380406
 20
5.6931684845
 30
0.0
 10
8.4221433174
 20
5.6925913905
 30
0.0
 10
8.4220444845
 20
5.6923715239
 30
0.0
 10
8.4219923576
 20
5.6922811266
 30
0.0
 11
8.4241351318
 21
5.7088458647
 31
0.0
 11
8.4235995556
 21
5.7023315774
 31
0.0
 11
8.4233317491
 21
5.6996577382
 31
0.0
 11
8.4230639029
 21
5.6973787384
 31
0.0
 11
8.4227959973
 21
5.6954990233
 31
0.0
 11
8.4225280539
 21
5.6940217996
 31
0.0
 11
8.4222601478
 21
5.692948669
 31
0.0
 11
8.4221262333
 21
5.6925641059
 31
0.0
 11
8.4219923576
 21
5.6922811266
 31
0.0
  0
SPLINE
  5
471
100
AcDbEntity
  8
0
100
AcDbSpline
 62
6
  6
CONTINUOUS
 70
0
 71
3
 72
15
 73
11
 74
9
 42
0.0000001
 43
0.0000001
 44
0.0000000001
 12
-0.0044951254
 22
0.0
 32
0.0
 13
-0.0006449275
 23
0.0044486201
 33
0.0
 40
0.0
 40
0.0
 40
0.0
 40
0.0
 40
0.0369841957
 40
0.0620352638
 40
0.0929093577
 40
0.1739934202
 40
0.2824306993
 40
0.4189900581
 40
0.5840147117
 40
1.0
 40
1.0
 40
1.0
 40
1.0
 10
8.5050278982
 20
5.6920167727
 30
0.0
 10
8.504972482
 20
5.6920167727
 30
0.0
 10
8.5048821978
 20
5.6920663878
 30
0.0
 10
8.504791752
 20
5.6921709205
 30
0.0
 10
8.5046801555
 20
5.6923445853
 30
0.0
 10
8.5045493779
 20
5.6926491118
 30
0.0
 10
8.5044004642
 20
5.6931147494
 30
0.0
 10
8.5042508975
 20
5.6937109798
 30
0.0
 10
8.504032885
 20
5.6947639921
 30
0.0
 10
8.5038964172
 20
5.6956242826
 30
0.0
 10
8.5038069904
 20
5.6962411361
 30
0.0
 11
8.5050278982
 21
5.6920167727
 31
0.0
 11
8.5048754559
 21
5.6920831047
 31
0.0
 11
8.5047992045
 21
5.6921659673
 31
0.0
 11
8.5047229352
 21
5.6922819143
 31
0.0
 11
8.5045703509
 21
5.6926129217
 31
0.0
 11
8.5044177177
 21
5.6930758472
 31
0.0
 11
8.5042650503
 21
5.6936704111
 31
0.0
 11
8.5041123634
 21
5.6943963337
 31
0.0
 11
8.5038069904
 21
5.6962411361
 31
0.0
  0
LINE
  5
472
100
AcDbEntity
  8
0
100
AcDbLine
 62
6
  6
CONTINUOUS
 10
8.5038069904
 20
5.6962411361
 11
8.5025848473
 21
5.7087882266
  0
SPLINE
  5
473
100
AcDbEntity
  8
0
100
AcDbSpline
 62
6
  6
CONTINUOUS
 70
0
 71
3
 72
22
 73
18
 74
16
 42
0.0000001
 43
0.0000001
 44
0.0000000001
 12
-0.0338364754
 22
0.459348527
 32
0.0
 13
-0.0291533628
 23
0.4596695093
 33
0.0
 40
0.0
 40
0.0
 40
0.0
 40
0.0
 40
0.0156818867
 40
0.0339833246
 40
0.0780534252
 40
0.131273887
 40
0.1925112957
 40
0.2604615396
 40
0.3336754465
 40
0.4895476089
 40
0.6468761546
 40
0.7218827653
 40
0.7922898558
 40
0.8565935804
 40
0.9134226593
 40
0.9615665495
 40
1.0
 40
1.0
 40
1.0
 40
1.0
 10
8.5025848473
 20
5.7087882266
 30
0.0
 10
8.5024079741
 20
5.7111893771
 30
0.0
 10
8.5020626676
 20
5.7163955725
 30
0.0
 10
8.5013803655
 20
5.7283598521
 30
0.0
 10
8.500555322
 20
5.7460880227
 30
0.0
 10
8.4996061441
 20
5.7704085508
 30
0.0
 10
8.4986527921
 20
5.7983977173
 30
0.0
 10
8.4976959605
 20
5.8294579296
 30
0.0
 10
8.4963906553
 20
5.8750435605
 30
0.0
 10
8.4948111522
 20
5.9343491835
 30
0.0
 10
8.4932376062
 20
5.9939302823
 30
0.0
 10
8.4919381258
 20
6.0403924549
 30
0.0
 10
8.4909804632
 20
6.0725763709
 30
0.0
 10
8.4900252437
 20
6.101968207
 30
0.0
 10
8.4890745275
 20
6.1279401882
 30
0.0
 10
8.4881298679
 20
6.149937336
 30
0.0
 10
8.4874280888
 20
6.1632116959
 30
0.0
 10
8.4870546007
 20
6.1691005911
 30
0.0
 11
8.5025848473
 21
5.7087882266
 31
0.0
 11
8.5020995579
 21
5.7159948739
 31
0.0
 11
8.5016142349
 21
5.7244104067
 31
0.0
 11
8.5006435922
 21
5.7446855689
 31
0.0
 11
8.4996729764
 21
5.769179321
 31
0.0
 11
8.4987023639
 21
5.7973681418
 31
0.0
 11
8.4977317345
 21
5.8286504985
 31
0.0
 11
8.4967610709
 21
5.8623583437
 31
0.0
 11
8.49481976
 21
5.9341257301
 31
0.0
 11
8.492878463
 21
6.00656416
 31
0.0
 11
8.4919077791
 21
6.0410980457
 31
0.0
 11
8.4909371147
 21
6.0735125335
 31
0.0
 11
8.4899664858
 21
6.1031144746
 31
0.0
 11
8.4889958769
 21
6.1292715525
 31
0.0
 11
8.4880252489
 21
6.1514250415
 31
0.0
 11
8.4870546007
 21
6.1691005911
 31
0.0
  0
LINE
  5
474
100
AcDbEntity
  8
0
100
AcDbLine
 62
6
  6
CONTINUOUS
 10
8.4870546007
 20
6.1691005911
 11
8.4870174025
 21
6.1696835354
  0
SPLINE
  5
475
100
AcDbEntity
  8
0
100
AcDbSpline
 62
6
  6
CONTINUOUS
 70
0
 71
3
 72
15
 73
11
 74
9
 42
0.0000001
 43
0.0000001
 44
0.0000000001
 12
-0.0012258556
 22
0.0166416474
 32
0.0
 13
-0.0083353893
 23
0.0144557406
 33
0.0
 40
0.0
 40
0.0
 40
0.0
 40
0.0
 40
0.3902821206
 40
0.5507479656
 40
0.6877821288
 40
0.8011786414
 40
0.8908562305
 40
0.9569419758
 40
0.9812812096
 40
1.0
 40
1.0
 40
1.0
 40
1.0
 10
8.4866359365
 20
6.1752453105
 30
0.0
 10
8.48647646
 20
6.1774102897
 30
0.0
 10
8.4862325429
 20
6.1804642256
 30
0.0
 10
8.485855009
 20
6.1842713143
 30
0.0
 10
8.4855915571
 20
6.1865416571
 30
0.0
 10
8.4853301519
 20
6.1884157169
 30
0.0
 10
8.4850703356
 20
6.1898901055
 30
0.0
 10
8.4848423675
 20
6.1908674542
 30
0.0
 10
8.4846480414
 20
6.191442897
 30
0.0
 10
8.4845494121
 20
6.1916622045
 30
0.0
 10
8.4844974027
 20
6.1917524025
 30
0.0
 11
8.4866359365
 21
6.1752453105
 31
0.0
 11
8.486101436
 21
6.1817358742
 31
0.0
 11
8.4858341627
 21
6.1844001528
 31
0.0
 11
8.4855668462
 21
6.1866711269
 31
0.0
 11
8.485299467
 21
6.1885443583
 31
0.0
 11
8.4850320488
 21
6.1900166962
 31
0.0
 11
8.4847646677
 21
6.1910865452
 31
0.0
 11
8.4846310157
 21
6.1914700667
 31
0.0
 11
8.4844974027
 21
6.1917524025
 31
0.0
  0
LINE
  5
476
100
AcDbEntity
  8
0
100
AcDbLine
 62
6
  6
CONTINUOUS
 10
8.3937471767
 20
5.7158697679
 11
8.3933717828
 21
5.7148563312
  0
SPLINE
  5
477
100
AcDbEntity
  8
0
100
AcDbSpline
 62
6
  6
CONTINUOUS
 70
0
 71
3
 72
11
 73
7
 74
5
 42
0.0000001
 43
0.0000001
 44
0.0000000001
 12
0.0441988049
 22
-0.0124380066
 32
0.0
 13
0.0232834675
 23
-0.0395742152
 33
0.0
 40
0.0
 40
0.0
 40
0.0
 40
0.0
 40
0.2593379125
 40
0.5129944285
 40
0.7599089826
 40
1.0
 40
1.0
 40
1.0
 40
1.0
 10
7.3625655093
 20
6.1305823972
 30
0.0
 10
7.3663863179
 20
6.1295071816
 30
0.0
 10
7.373778572
 20
6.1267220308
 30
0.0
 10
7.3838045471
 20
6.1207008467
 30
0.0
 10
7.392301187
 20
6.1130930898
 30
0.0
 10
7.3967854763
 20
6.1070602836
 30
0.0
 10
7.3986488601
 20
6.1038931457
 30
0.0
 11
7.3625655093
 21
6.1305823972
 31
0.0
 11
7.3737009706
 21
6.1263641626
 31
0.0
 11
7.3836721622
 21
6.1203456224
 31
0.0
 11
7.3920960658
 21
6.112758107
 31
0.0
 11
7.3986488601
 21
6.1038931457
 31
0.0
  0
SPLINE
  5
478
100
AcDbEntity
  8
0
100
AcDbSpline
 62
6
  6
CONTINUOUS
 70
0
 71
3
 72
9
 73
5
 74
3
 42
0.0000001
 43
0.0000001
 44
0.0000000001
 12
0.0075910278
 22
-0.0137627043
 32
0.0
 13
0.0028275974
 23
-0.0154609323
 33
0.0
 40
0.0
 40
0.0
 40
0.0
 40
0.0
 40
0.5032949855
 40
1.0
 40
1.0
 40
1.0
 40
1.0
 10
7.3993508268
 20
6.1026612705
 30
0.0
 10
7.4006243355
 20
6.1003523705
 30
0.0
 10
7.4028013885
 20
6.0955596383
 30
0.0
 10
7.4041749721
 20
6.0904761393
 30
0.0
 10
7.4046431327
 20
6.0879162984
 30
0.0
 11
7.3993508268
 21
6.1026612705
 31
0.0
 11
7.4026122117
 21
6.0954544014
 31
0.0
 11
7.4046431327
 21
6.0879162984
 31
0.0
  0
SPLINE
  5
479
100
AcDbEntity
  8
0
100
AcDbSpline
 62
6
  6
CONTINUOUS
 70
0
 71
3
 72
15
 73
11
 74
9
 42
0.0000001
 43
0.0000001
 44
0.0000000001
 12
-0.004491382
 22
0.0
 32
0.0
 13
-0.0006446649
 23
0.0044448757
 33
0.0
 40
0.0
 40
0.0
 40
0.0
 40
0.0
 40
0.0369961329
 40
0.0620510507
 40
0.0929277617
 40
0.1740142044
 40
0.2824510638
 40
0.4190078352
 40
0.5840280926
 40
1.0
 40
1.0
 40
1.0
 40
1.0
 10
8.4216878395
 20
5.6920167727
 30
0.0
 10
8.4216324515
 20
5.6920167727
 30
0.0
 10
8.4215422132
 20
5.6920663346
 30
0.0
 10
8.421451799
 20
5.6921707814
 30
0.0
 10
8.4213402537
 20
5.69234429
 30
0.0
 10
8.4212095315
 20
5.6926485488
 30
0.0
 10
8.421060683
 20
5.6931137789
 30
0.0
 10
8.4209111815
 20
5.6937094867
 30
0.0
 10
8.4206932655
 20
5.6947615735
 30
0.0
 10
8.4205568574
 20
5.6956211125
 30
0.0
 10
8.4204674699
 20
5.696237427
 30
0.0
 11
8.4216878395
 21
5.6920167727
 31
0.0
 11
8.4215354642
 21
5.6920830462
 31
0.0
 11
8.4214592463
 21
5.6921658357
 31
0.0
 11
8.4213830107
 21
5.6922816806
 31
0.0
 11
8.4212304936
 21
5.6926123965
 31
0.0
 11
8.4210779277
 21
5.6930749148
 31
0.0
 11
8.4209253276
 21
5.6936689563
 31
0.0
 11
8.4207727082
 21
5.6943942416
 31
0.0
 11
8.4204674699
 21
5.696237427
 31
0.0
  0
LINE
  5
47A
100
AcDbEntity
  8
0
100
AcDbLine
 62
6
  6
CONTINUOUS
 10
8.4204674699
 20
5.696237427
 11
8.4192458582
 21
5.7087737286
  0
SPLINE
  5
47B
100
AcDbEntity
  8
0
100
AcDbSpline
 62
6
  6
CONTINUOUS
 70
0
 71
3
 72
22
 73
18
 74
16
 42
0.0000001
 43
0.0000001
 44
0.0000000001
 12
-0.0338519934
 22
0.4593677523
 32
0.0
 13
-0.0291570345
 23
0.4596896308
 33
0.0
 40
0.0
 40
0.0
 40
0.0
 40
0.0
 40
0.0156770504
 40
0.0339742479
 40
0.078037654
 40
0.1312539856
 40
0.1924898334
 40
0.2604397579
 40
0.3336520545
 40
0.4895277124
 40
0.646862339
 40
0.7218691541
 40
0.7922782521
 40
0.856585802
 40
0.9134184052
 40
0.961564935
 40
1.0
 40
1.0
 40
1.0
 40
1.0
 10
8.4192458582
 20
5.7087737286
 30
0.0
 10
8.4190689584
 20
5.711174239
 30
0.0
 10
8.4187236082
 20
5.7163792657
 30
0.0
 10
8.418041224
 20
5.7283416447
 30
0.0
 10
8.4172160973
 20
5.7460682799
 30
0.0
 10
8.4162668304
 20
5.7703879756
 30
0.0
 10
8.4153133884
 20
5.7983774517
 30
0.0
 10
8.4143564808
 20
5.8294384966
 30
0.0
 10
8.413051067
 20
5.875026377
 30
0.0
 10
8.4114714533
 20
5.934335838
 30
0.0
 10
8.4098978059
 20
5.9939210659
 30
0.0
 10
8.408598254
 20
6.040386561
 30
0.0
 10
8.4076405319
 20
6.0725728233
 30
0.0
 10
8.4066852297
 20
6.1019673918
 30
0.0
 10
8.4057344096
 20
6.1279420508
 30
0.0
 10
8.4047896621
 20
6.1499413624
 30
0.0
 10
8.4040877479
 20
6.1632169566
 30
0.0
 10
8.403714197
 20
6.1691063569
 30
0.0
 11
8.4192458582
 21
5.7087737286
 31
0.0
 11
8.41876052
 21
5.7159784592
 31
0.0
 11
8.4182751484
 21
5.7243924052
 31
0.0
 11
8.4173044089
 21
5.7446653719
 31
0.0
 11
8.4163336934
 21
5.7691582981
 31
0.0
 11
8.4153629767
 21
5.7973476405
 31
0.0
 11
8.4143922549
 21
5.8286312281
 31
0.0
 11
8.4134215362
 21
5.8623398176
 31
0.0
 11
8.4114800753
 21
5.9341119781
 31
0.0
 11
8.4095386288
 21
6.006556403
 31
0.0
 11
8.4085679132
 21
6.0410919062
 31
0.0
 11
8.4075971892
 21
6.0735087482
 31
0.0
 11
8.4066264645
 21
6.103113756
 31
0.0
 11
8.4056557505
 21
6.1292736097
 31
0.0
 11
8.4046850072
 21
6.1514292895
 31
0.0
 11
8.403714197
 21
6.1691063569
 31
0.0
  0
LINE
  5
47C
100
AcDbEntity
  8
0
100
AcDbLine
 62
6
  6
CONTINUOUS
 10
8.403714197
 20
6.1691063569
 11
8.403678313
 21
6.1696687815
  0
LINE
  5
47D
100
AcDbEntity
  8
0
100
AcDbLine
 62
6
  6
CONTINUOUS
 10
8.4033390085
 20
6.1746552147
 11
8.4021832197
 21
6.1870037975
  0
LINE
  5
47E
100
AcDbEntity
  8
0
100
AcDbLine
 62
6
  6
CONTINUOUS
 10
8.4031224894
 20
5.7148570182
 11
8.4024498086
 21
5.7171854049
  0
SPLINE
  5
47F
100
AcDbEntity
  8
0
100
AcDbSpline
 62
6
  6
CONTINUOUS
 70
0
 71
3
 72
28
 73
24
 74
22
 42
0.0000001
 43
0.0000001
 44
0.0000000001
 12
-0.0830892912
 22
0.4311621405
 32
0.0
 13
-0.0374503249
 23
0.4374952512
 33
0.0
 40
0.0
 40
0.0
 40
0.0
 40
0.0
 40
0.003724292
 40
0.0083050045
 40
0.0200112376
 40
0.0350581123
 40
0.0533460017
 40
0.0747544217
 40
0.0991408907
 40
0.1561640396
 40
0.222871349
 40
0.2974524312
 40
0.3778814513
 40
0.4619726855
 40
0.5474401538
 40
0.6319602555
 40
0.7132355341
 40
0.7890572837
 40
0.8573657569
 40
0.9163065843
 40
0.9642823234
 40
0.9837397612
 40
1.0
 40
1.0
 40
1.0
 40
1.0
 10
8.4024498086
 20
5.7171854049
 30
0.0
 10
8.402346659
 20
5.7177206628
 30
0.0
 10
8.4021483754
 20
5.7189203349
 30
0.0
 10
8.4017568395
 20
5.7218231924
 30
0.0
 10
8.4012890866
 20
5.7263863913
 30
0.0
 10
8.4007547428
 20
5.7329572476
 30
0.0
 10
8.400217194
 20
5.7409519244
 30
0.0
 10
8.3996766378
 20
5.7503158905
 30
0.0
 10
8.3989137345
 20
5.7653456074
 30
0.0
 10
8.3979859642
 20
5.7870051616
 30
0.0
 10
8.3969140518
 20
5.8160113164
 30
0.0
 10
8.3958382608
 20
5.8484452228
 30
0.0
 10
8.3947596807
 20
5.8834246975
 30
0.0
 10
8.3936797977
 20
5.9199982355
 30
0.0
 10
8.3925994314
 20
5.9571708024
 30
0.0
 10
8.3915193744
 20
5.9939310467
 30
0.0
 10
8.3904405495
 20
6.0292789154
 30
0.0
 10
8.389363869
 20
6.0622528614
 30
0.0
 10
8.3882918427
 20
6.0919561614
 30
0.0
 10
8.3872253411
 20
6.1175808828
 30
0.0
 10
8.386296808
 20
6.1360549278
 30
0.0
 10
8.3855229852
 20
6.148280401
 30
0.0
 10
8.3851302991
 20
6.1534937088
 30
0.0
 10
8.3849273153
 20
6.1558649679
 30
0.0
 11
8.4024498086
 21
5.7171854049
 31
0.0
 11
8.4021760198
 21
5.7187976417
 31
0.0
 11
8.401902231
 21
5.7207902895
 31
0.0
 11
8.4013546533
 21
5.7259011908
 31
0.0
 11
8.4008070756
 21
5.7324854714
 31
0.0
 11
8.4002594979
 21
5.7404969049
 31
0.0
 11
8.3997119202
 21
5.749881278
 31
0.0
 11
8.3991643425
 21
5.7605752503
 31
0.0
 11
8.3980691869
 21
5.7855898812
 31
0.0
 11
8.3969740313
 21
5.8148602621
 31
0.0
 11
8.3958788757
 21
5.8475901425
 31
0.0
 11
8.3947837199
 21
5.8828891571
 31
0.0
 11
8.3936885641
 21
5.9197969724
 31
0.0
 11
8.3925934082
 21
5.9573093473
 31
0.0
 11
8.3914982523
 21
5.9944055587
 31
0.0
 11
8.3904030963
 21
6.0300763383
 31
0.0
 11
8.3893079402
 21
6.0633512897
 31
0.0
 11
8.3882127841
 21
6.0933252144
 31
0.0
 11
8.3871176279
 21
6.1191826691
 31
0.0
 11
8.3860224717
 21
6.140220101
 31
0.0
 11
8.3854748935
 21
6.1487462035
 31
0.0
 11
8.3849273153
 21
6.1558649679
 31
0.0
  0
SPLINE
  5
480
100
AcDbEntity
  8
0
100
AcDbSpline
 62
6
  6
CONTINUOUS
 70
0
 71
3
 72
17
 73
13
 74
11
 42
0.0000001
 43
0.0000001
 44
0.0000000001
 12
-0.0011891309
 22
0.0138914447
 32
0.0
 13
-0.0139422259
 23
0.0000245878
 33
0.0
 40
0.0
 40
0.0
 40
0.0
 40
0.0
 40
0.4263469314
 40
0.5953849341
 40
0.7346495992
 40
0.7930597878
 40
0.8439818849
 40
0.8874518199
 40
0.9235373393
 40
0.952366905
 40
0.9742088118
 40
1.0
 40
1.0
 40
1.0
 40
1.0
 10
8.3849273153
 20
6.1558649679
 30
0.0
 10
8.3847583212
 20
6.1578391595
 30
0.0
 10
8.3845010655
 20
6.1605946877
 30
0.0
 10
8.3840901205
 20
6.1639842854
 30
0.0
 10
8.3838430985
 20
6.1656708516
 30
0.0
 10
8.3836404187
 20
6.1668084567
 30
0.0
 10
8.3834979494
 20
6.1675040378
 30
0.0
 10
8.3833553308
 20
6.1680942474
 30
0.0
 10
8.3832152094
 20
6.1685763884
 30
0.0
 10
8.3830710996
 20
6.1689590563
 30
0.0
 10
8.3829202044
 20
6.1692649695
 30
0.0
 10
8.3827420125
 20
6.1694663459
 30
0.0
 10
8.3826221504
 20
6.1694665573
 30
0.0
 11
8.3849273153
 21
6.1558649679
 31
0.0
 11
8.3843510241
 21
6.1617812008
 31
0.0
 11
8.3840628785
 21
6.1641202894
 31
0.0
 11
8.3837747329
 21
6.1660404522
 31
0.0
 11
8.3836306601
 21
6.166841976
 31
0.0
 11
8.3834865873
 21
6.1675371726
 31
0.0
 11
8.3833425144
 21
6.1681258679
 31
0.0
 11
8.3831984416
 21
6.1686079114
 31
0.0
 11
8.3830543688
 21
6.1689831527
 31
0.0
 11
8.382910296
 21
6.1692514411
 31
0.0
 11
8.3826221504
 21
6.1694665573
 31
0.0
  0
LINE
  5
481
100
AcDbEntity
  8
0
100
AcDbLine
 62
6
  6
CONTINUOUS
 10
8.358671154
 20
5.7392133421
 11
8.3573919688
 21
5.7627134965
  0
SPLINE
  5
482
100
AcDbEntity
  8
0
100
AcDbSpline
 62
6
  6
CONTINUOUS
 70
0
 71
3
 72
17
 73
13
 74
11
 42
0.0000001
 43
0.0000001
 44
0.0000000001
 12
-0.01730191
 22
0.3650866376
 32
0.0
 13
-0.0184873213
 23
0.3650285304
 33
0.0
 40
0.0
 40
0.0
 40
0.0
 40
0.0
 40
0.0479174135
 40
0.1018383443
 40
0.2247066478
 40
0.3619657547
 40
0.50619518
 40
0.6495951302
 40
0.784410514
 40
0.9033536752
 40
0.954821487
 40
1.0
 40
1.0
 40
1.0
 40
1.0
 10
8.3573919688
 20
5.7627134965
 30
0.0
 10
8.3571156146
 20
5.7685448323
 30
0.0
 10
8.3565737503
 20
5.7809402634
 30
0.0
 10
8.3555082553
 20
5.8082960687
 30
0.0
 10
8.3542167445
 20
5.8465356427
 30
0.0
 10
8.352715284
 20
5.8957764192
 30
0.0
 10
8.3512105555
 20
5.9475196179
 30
0.0
 10
8.349706343
 20
5.9989649896
 30
0.0
 10
8.3482062633
 20
6.0473284095
 30
0.0
 10
8.3469129499
 20
6.0844925468
 30
0.0
 10
8.3458433119
 20
6.1107365571
 30
0.0
 10
8.3452988897
 20
6.1224987052
 30
0.0
 10
8.3450204798
 20
6.1279958539
 30
0.0
 11
8.3573919688
 21
5.7627134965
 31
0.0
 11
8.3566187508
 21
5.7802100611
 31
0.0
 11
8.3558455328
 21
5.7999027925
 31
0.0
 11
8.3542990968
 21
5.8447840793
 31
0.0
 11
8.3527526608
 21
5.8949279466
 31
0.0
 11
8.3512062247
 21
5.9476205928
 31
0.0
 11
8.3496597885
 21
6.0000099375
 31
0.0
 11
8.3481133523
 21
6.0492602005
 31
0.0
 11
8.3465669161
 21
6.0927059825
 31
0.0
 11
8.345793698
 21
6.1115013839
 31
0.0
 11
8.3450204798
 21
6.1279958539
 31
0.0
  0
LINE
  5
483
100
AcDbEntity
  8
0
100
AcDbLine
 62
6
  6
CONTINUOUS
 10
8.3138622037
 20
5.8084473464
 11
8.3135857357
 21
5.8162354807
  0
LINE
  5
484
100
AcDbEntity
  8
0
100
AcDbLine
 62
6
  6
CONTINUOUS
 10
8.3135857357
 20
5.8162354807
 11
8.3133834774
 21
5.8220725965
  0
LINE
  5
485
100
AcDbEntity
  8
0
100
AcDbLine
 62
6
  6
CONTINUOUS
 10
8.312334129
 20
5.8540209329
 11
8.3121335801
 21
5.8604026529
  0
LINE
  5
486
100
AcDbEntity
  8
0
100
AcDbLine
 62
6
  6
CONTINUOUS
 10
8.3121335801
 20
5.8604026529
 11
8.3066404356
 21
6.0432519735
  0
LINE
  5
487
100
AcDbEntity
  8
0
100
AcDbLine
 62
6
  6
CONTINUOUS
 10
8.3066404356
 20
6.0432519735
 11
8.3061655456
 21
6.0575649802
  0
SPLINE
  5
488
100
AcDbEntity
  8
0
100
AcDbSpline
 62
6
  6
CONTINUOUS
 70
0
 71
3
 72
11
 73
7
 74
5
 42
0.0000001
 43
0.0000001
 44
0.0000000001
 12
-0.0534239085
 22
-0.0084990274
 32
0.0
 13
-0.0272207317
 23
-0.0467480399
 33
0.0
 40
0.0
 40
0.0
 40
0.0
 40
0.0
 40
0.2632056836
 40
0.5184011241
 40
0.7639958768
 40
1.0
 40
1.0
 40
1.0
 40
1.0
 10
7.328870378
 20
6.1342503574
 30
0.0
 10
7.3241832192
 20
6.1335046933
 30
0.0
 10
7.3150665702
 20
6.1311270261
 30
0.0
 10
7.3026358564
 20
6.1249599036
 30
0.0
 10
7.2922092897
 20
6.1165514598
 30
0.0
 10
7.2868497853
 20
6.1095877701
 30
0.0
 10
7.2847083836
 20
6.1059101934
 30
0.0
 11
7.328870378
 21
6.1342503574
 31
0.0
 11
7.3151014912
 21
6.1306244767
 31
0.0
 11
7.3027552616
 21
6.1244480576
 31
0.0
 11
7.2924521407
 21
6.1160603544
 31
0.0
 11
7.2847083836
 21
6.1059101934
 31
0.0
  0
SPLINE
  5
489
100
AcDbEntity
  8
0
100
AcDbSpline
 62
6
  6
CONTINUOUS
 70
0
 71
3
 72
9
 73
5
 74
3
 42
0.0000001
 43
0.0000001
 44
0.0000000001
 12
-0.0062166154
 22
-0.0106762224
 32
0.0
 13
-0.0032647045
 23
-0.0119151054
 33
0.0
 40
0.0
 40
0.0
 40
0.0
 40
0.0
 40
0.252965915
 40
1.0
 40
1.0
 40
1.0
 40
1.0
 10
7.2847083836
 20
6.1059101934
 30
0.0
 10
7.2841841864
 20
6.1050099532
 30
0.0
 10
7.2822245591
 20
6.1013870857
 30
0.0
 10
7.280728372
 20
6.0975116298
 30
0.0
 10
7.2799154235
 20
6.0945446331
 30
0.0
 11
7.2847083836
 21
6.1059101934
 31
0.0
 11
7.2832224049
 21
6.1031608657
 31
0.0
 11
7.2799154235
 21
6.0945446331
 31
0.0
  0
ENDSEC
  0
SECTION
  2
OBJECTS
  0
DICTIONARY
  5
C
100
AcDbDictionary
280
0
281
1
  3
ACAD_GROUP
350
D
  3
ACAD_MLINESTYLE
350
17
  3
ACAD_LAYOUT
350
1A
  3
ACAD_PLOTSETTINGS
350
19
  3
ACAD_PLOTSTYLENAME
350
E
  0
DICTIONARY
  5
D
102
{ACAD_REACTORS
330
C
102
}
100
AcDbDictionary
280
0
281
1
  0
ACDBDICTIONARYWDFLT
  5
E
102
{ACAD_REACTORS
330
C
102
}
100
AcDbDictionary
281
1
  3
Normal
350
F
100
AcDbDictionaryWithDefault
340
F
  0
DICTIONARY
  5
17
102
{ACAD_REACTORS
330
C
102
}
100
AcDbDictionary
280
0
281
1
  3
Standard
350
18
  0
DICTIONARY
  5
19
102
{ACAD_REACTORS
330
C
102
}
100
AcDbDictionary
281
1
  0
DICTIONARY
  5
1A
102
{ACAD_REACTORS
330
C
102
}
100
AcDbDictionary
281
1
  3
Model
350
48A
  3
Layout1
350
48B
  0
ACDBPLACEHOLDER
  5
F
102
{ACAD_REACTORS
330
E
102
}
  0
MLINESTYLE
  5
18
102
{ACAD_REACTORS
330
17
102
}
100
AcDbMlineStyle
  2
STANDARD
 70
0
  3

 62
256
 51
90.0
 52
90.0
 71
2
 49
0.5
 62
256
  6
BYLAYER
 49
-0.5
 62
256
  6
BYLAYER
  0
LAYOUT
  5
48A
102
{ACAD_REACTORS
330
1A
102
}
100
AcDbPlotSettings
  1

  2
none_device
  4
ISO_A3_(420.00_x_297.00_MM)
  6

 40
0.0
 41
0.0
 42
0.0
 43
0.0
 44
420.0
 45
297.0
 46
0.0
 47
0.0
 48
0.0
 49
0.0
140
0.0
141
0.0
142
1.0
143
1.0
 70
1024
 72
0
 73
0
 74
0
  7

 75
0
147
1.0
148
0.0
149
0.0
100
AcDbLayout
  1
Model
 70
0
 71
0
 10
0.0
 20
0.0
 11
16.5354330709
 21
11.6929133858
 12
0.0
 22
0.0
 32
0.0
 14
0.0
 24
0.0
 34
0.0
 15
0.0
 25
0.0
 35
0.0
146
0.0
 13
0.0
 23
0.0
 33
0.0
 16
1.0
 26
0.0
 36
0.0
 17
0.0
 27
1.0
 37
0.0
 76
0
330
203
345
0
346
0
  0
LAYOUT
  5
48B
102
{ACAD_REACTORS
330
1A
102
}
100
AcDbPlotSettings
  1

  2
none_device
  4
ISO_A3_(420.00_x_297.00_MM)
  6

 40
0.0
 41
0.0
 42
0.0
 43
0.0
 44
420.0
 45
297.0
 46
0.0
 47
0.0
 48
0.0
 49
0.0
140
0.0
141
0.0
142
1.0
143
1.0
 70
0
 72
0
 73
0
 74
0
  7

 75
0
147
1.0
148
0.0
149
0.0
100
AcDbLayout
  1
Layout1
 70
0
 71
1
 10
0.0
 20
0.0
 11
16.5354330709
 21
11.6929133858
 12
0.0
 22
0.0
 32
0.0
 14
0.0
 24
0.0
 34
0.0
 15
0.0
 25
0.0
 35
0.0
146
0.0
 13
0.0
 23
0.0
 33
0.0
 16
1.0
 26
0.0
 36
0.0
 17
0.0
 27
1.0
 37
0.0
 76
0
330
204
345
0
346
0
  0
ENDSEC
  0
EOF
