  0
SECTION
  2
HEADER
  9
$ACADVER
  1
AC1015
  9
$DWGCODEPAGE
  3
ANSI_1252
  9
$EXTMAX
 10
16.5354330709
 20
11.6929133858
 30
0.0
  9
$EXTMIN
 10
0.0
 20
0.0
 30
0.0
  9
$LIMMIN
 10
0.0
 20
0.0
  9
$LIMMAX
 10
16.5354330709
 20
11.6929133858
  9
$VIEWCTR
 10
8.2677165354
 20
5.8464566929
  9
$VIEWSIZE
 40
11.6929133858
  9
$CLAYER
  8
0
  9
$LTSCALE
 40
0.9094488189
  9
$CELTYPE
  6
BYLAYER
  9
$DIMSCALE
 40
1.0
  9
$DIMASZ
 40
0.1
  9
$DIMEXO
 40
0.1033464567
  9
$DIMDLI
 40
0.6283464567
  9
$DIMEXE
 40
0.2976377953
  9
$DIMCEN
 40
0.1488188976
  9
$DIMLFAC
 40
1.0
  9
$DIMBLK
  1
_FILLED
  9
$DIMTXT
 40
0.08
  9
$DIMTOL
 70
1
  9
$DIMLIM
 70
0
  9
$DIMTFAC
 40
1.0
  9
$DIMTP
 40
0.01
  9
$DIMTM
 40
0.01
  9
$PDMODE
 70
3
  9
$PDSIZE
 40
0.06
  9
$HANDSEED
  5
2D5
  9
$TILEMODE
 70
1
  9
$MEASUREMENT
 70
0
  9
$INSUNITS
 70
1
  0
ENDSEC
  0
SECTION
  2
CLASSES
  0
CLASS
  1
ACDBDICTIONARYWDFLT
  2
AcDbDictionaryWithDefault
  3
AutoCAD 2000
 90
0
280
0
281
0
  0
CLASS
  1
ACDBPLACEHOLDER
  2
AcDbPlaceHolder
  3
AutoCAD 2000
 90
0
280
0
281
0
  0
CLASS
  1
LAYOUT
  2
AcDbLayout
  3
AutoCAD 2000
 90
0
280
0
281
0
  0
ENDSEC
  0
SECTION
  2
TABLES
  0
TABLE
  2
VPORT
  5
8
100
AcDbSymbolTable
 70
2
  0
VPORT
  5
1F4
100
AcDbSymbolTableRecord
100
AcDbViewportTableRecord
  2
*ACTIVE
 70
0
 10
0.0
 20
0.0
 11
1.0
 21
1.0
 12
8.2677165354
 22
5.8464566929
 13
0.0
 23
0.0
 14
1.0
 24
1.0
 15
0.0
 25
0.0
 16
0.0
 26
0.0
 36
1.0
 17
0.0
 27
0.0
 37
0.0
 40
11.6929133858
 41
1.4141414141
 42
50.0
 43
0.0
 44
0.0
 50
0.0
 51
0.0
 71
0
 72
100
 73
1
 74
1
 75
0
 76
0
 77
0
 78
0
  0
ENDTAB
  0
TABLE
  2
LTYPE
  5
5
100
AcDbSymbolTable
 70
6
  0
LTYPE
  5
14
100
AcDbSymbolTableRecord
100
AcDbLinetypeTableRecord
  2
BYBLOCK
 70
0
  3

 72
65
 73
0
 40
0.0
  0
LTYPE
  5
15
100
AcDbSymbolTableRecord
100
AcDbLinetypeTableRecord
  2
BYLAYER
 70
0
  3

 72
65
 73
0
 40
0.0
  0
LTYPE
  5
16
100
AcDbSymbolTableRecord
100
AcDbLinetypeTableRecord
  2
CONTINUOUS
 70
64
  3
Solid line
 72
65
 73
0
 40
0.0
  0
LTYPE
  5
1F5
100
AcDbSymbolTableRecord
100
AcDbLinetypeTableRecord
  2
CENTER
 70
64
  3
____ _ ____ _ ____ _ ____ _ ____ _ ____ _ ____
 72
65
 73
4
 40
0.6
 49
0.375
 74
0
 49
-0.075
 74
0
 49
0.075
 74
0
 49
-0.075
 74
0
  0
LTYPE
  5
1F6
100
AcDbSymbolTableRecord
100
AcDbLinetypeTableRecord
  2
HIDDEN
 70
64
  3
- - - - - - - - - - - - - - - - - - - -
 72
65
 73
2
 40
0.2
 49
0.1
 74
0
 49
-0.1
 74
0
  0
LTYPE
  5
1F7
100
AcDbSymbolTableRecord
100
AcDbLinetypeTableRecord
  2
PHANTOM
 70
64
  3
_____ _ _ _____ _ _ _____ _ _ _____
 72
65
 73
6
 40
0.8
 49
0.45
 74
0
 49
-0.05
 74
0
 49
0.1
 74
0
 49
-0.05
 74
0
 49
0.1
 74
0
 49
-0.05
 74
0
  0
LTYPE
  5
1F8
100
AcDbSymbolTableRecord
100
AcDbLinetypeTableRecord
  2
DOT
 70
64
  3
. . . . . . . . . . . . . . . . . . . .
 72
65
 73
2
 40
0.2
 49
0.1
 74
0
 49
-0.1
 74
0
  0
LTYPE
  5
1F9
100
AcDbSymbolTableRecord
100
AcDbLinetypeTableRecord
  2
DASHED
 70
64
  3
- - - - - - - - - - - - - - - - - - - -
 72
65
 73
2
 40
0.2
 49
0.1
 74
0
 49
-0.1
 74
0
  0
ENDTAB
  0
TABLE
  2
LAYER
  5
2
100
AcDbSymbolTable
 70
36
  0
LAYER
  5
10
100
AcDbSymbolTableRecord
100
AcDbLayerTableRecord
  2
0
 70
0
 62
7
  6
CONTINUOUS
370
-3
390
F
  0
LAYER
  5
1FA
100
AcDbSymbolTableRecord
100
AcDbLayerTableRecord
  2
DEFAULT_1
 70
0
 62
7
  6
CENTER
370
-3
390
F
  0
LAYER
  5
1FB
100
AcDbSymbolTableRecord
100
AcDbLayerTableRecord
  2
DEFAULT_2
 70
0
 62
8
  6
HIDDEN
370
-3
390
F
  0
LAYER
  5
1FC
100
AcDbSymbolTableRecord
100
AcDbLayerTableRecord
  2
DEFAULT_3
 70
0
 62
7
  6
PHANTOM
370
-3
390
F
  0
LAYER
  5
1FD
100
AcDbSymbolTableRecord
100
AcDbLayerTableRecord
  2
DEFAULT_COORDINATE_SYSTEM
 70
0
 62
7
  6
CONTINUOUS
370
-3
390
F
  0
LAYER
  5
1FE
100
AcDbSymbolTableRecord
100
AcDbLayerTableRecord
  2
DEFAULT_DATUM_AXES
 70
0
 62
7
  6
CONTINUOUS
370
-3
390
F
  0
LAYER
  5
1FF
100
AcDbSymbolTableRecord
100
AcDbLayerTableRecord
  2
DEFAULT_DATUM_CURVES
 70
0
 62
7
  6
CONTINUOUS
370
-3
390
F
  0
LAYER
  5
200
100
AcDbSymbolTableRecord
100
AcDbLayerTableRecord
  2
DEFAULT_DATUM_PLANES
 70
0
 62
7
  6
CONTINUOUS
370
-3
390
F
  0
ENDTAB
  0
TABLE
  2
STYLE
  5
3
100
AcDbSymbolTable
 70
1
  0
STYLE
  5
11
100
AcDbSymbolTableRecord
100
AcDbTextStyleTableRecord
  2
STANDARD
 70
0
 40
0.0
 41
0.8
 50
0.0
 71
0
 42
0.2
  3
txt
  4

  0
STYLE
  5
201
100
AcDbSymbolTableRecord
100
AcDbTextStyleTableRecord
  2
TEXTSTYLE_1
 70
0
 40
0.0
 41
0.8
 50
0.0
 71
0
 42
0.2
  3
gdt
  4

  0
ENDTAB
  0
TABLE
  2
VIEW
  5
6
100
AcDbSymbolTable
 70
0
  0
ENDTAB
  0
TABLE
  2
UCS
  5
7
100
AcDbSymbolTable
 70
0
  0
ENDTAB
  0
TABLE
  2
APPID
  5
9
100
AcDbSymbolTable
 70
1
  0
APPID
  5
202
100
AcDbSymbolTableRecord
100
AcDbRegAppTableRecord
  2
ACAD
 70
0
  0
ENDTAB
  0
TABLE
  2
BLOCK_RECORD
  5
1
100
AcDbSymbolTable
 70
0
  0
BLOCK_RECORD
  5
203
100
AcDbSymbolTableRecord
100
AcDbBlockTableRecord
  2
*Model_Space
  0
BLOCK_RECORD
  5
204
100
AcDbSymbolTableRecord
100
AcDbBlockTableRecord
  2
*Paper_Space
  0
ENDTAB
  0
TABLE
  2
DIMSTYLE
  5
A
100
AcDbSymbolTable
 70
1
100
AcDbDimStyleTable
 71
0
  0
DIMSTYLE
105
205
100
AcDbSymbolTableRecord
100
AcDbDimStyleTableRecord
  2
STANDARD
 70
0
  3

  4

 40
1.0
 41
0.1
 42
0.0625
 43
0.38
 44
0.18
 45
0.0
 46
0.0
 47
0.01
 48
0.01
140
0.08
141
0.09
142
0.0
143
25.4
144
1.0
145
0.0
146
1.0
147
0.09
 71
1.0
 72
0.0
 73
1
 74
1
 75
0
 76
0
 77
0
 78
4
170
0
171
2
172
0
173
0
174
0
175
0
176
0
177
0
178
0
270
2
271
2
272
2
273
2
274
2
275
0
280
0
281
0
282
0
283
1
284
4
285
0
286
0
287
3
288
0
340
11
  0
ENDTAB
  0
ENDSEC
  0
SECTION
  2
BLOCKS
  0
BLOCK
  5
20
100
AcDbEntity
  8
0
100
AcDbBlockBegin
  2
*Model_Space
 70
0
 10
0.0
 20
0.0
 30
0.0
  3
*Model_Space
  1

  0
ENDBLK
  5
21
100
AcDbEntity
  8
0
100
AcDbBlockEnd
  0
BLOCK
  5
1C
100
AcDbEntity
  8
0
100
AcDbBlockBegin
  2
*Paper_Space
 70
0
 10
0.0
 20
0.0
 30
0.0
  3
*Paper_Space
  1

  0
ENDBLK
  5
1D
100
AcDbEntity
  8
0
100
AcDbBlockEnd
  0
ENDSEC
  0
SECTION
  2
ENTITIES
  0
LINE
  5
206
100
AcDbEntity
  8
0
100
AcDbLine
 62
6
  6
CONTINUOUS
 10
2.4442012793
 20
4.8677667727
 11
2.4442012793
 21
4.3927667727
  0
LINE
  5
207
100
AcDbEntity
  8
0
100
AcDbLine
 62
9
  6
CONTINUOUS
 10
2.5742591148
 20
4.8464633011
 11
2.5742591148
 21
4.4140702444
  0
LINE
  5
208
100
AcDbEntity
  8
0
100
AcDbLine
 62
6
  6
CONTINUOUS
 10
2.7672012793
 20
4.8487667727
 11
2.7672012793
 21
4.4117667727
  0
LINE
  5
209
100
AcDbEntity
  8
0
100
AcDbLine
 62
9
  6
CONTINUOUS
 10
3.1109610242
 20
5.0245160812
 11
3.1109610242
 21
4.2360174643
  0
LINE
  5
20A
100
AcDbEntity
  8
0
100
AcDbLine
 62
9
  6
CONTINUOUS
 10
4.1657971964
 20
4.8194766999
 11
4.1657971964
 21
4.4410568455
  0
LINE
  5
20B
100
AcDbEntity
  8
0
100
AcDbLine
 62
6
  6
CONTINUOUS
 10
4.8052012793
 20
5.5031144967
 11
4.8052012793
 21
5.6782667727
  0
LINE
  5
20C
100
AcDbEntity
  8
0
100
AcDbLine
 62
6
  6
CONTINUOUS
 10
4.9073258507
 20
6.6507667727
 11
4.9073258507
 21
6.5607667727
  0
LINE
  5
20D
100
AcDbEntity
  8
0
100
AcDbLine
 62
6
  6
CONTINUOUS
 10
4.9355727956
 20
6.6507667727
 11
4.9355727956
 21
6.5607667727
  0
LINE
  5
20E
100
AcDbEntity
  8
0
100
AcDbLine
 62
6
  6
CONTINUOUS
 10
4.9592012793
 20
4.8802667727
 11
4.9592012793
 21
4.3802667727
  0
LINE
  5
20F
100
AcDbEntity
  8
0
100
AcDbLine
 62
6
  6
CONTINUOUS
 10
5.0042012793
 20
4.8802667727
 11
5.0042012793
 21
4.3802667727
  0
LINE
  5
210
100
AcDbEntity
  8
0
100
AcDbLine
 62
6
  6
CONTINUOUS
 10
5.0237012793
 20
5.9782667727
 11
5.0237012793
 21
6.0539569148
  0
LINE
  5
211
100
AcDbEntity
  8
0
100
AcDbLine
 62
6
  6
CONTINUOUS
 10
5.2602012793
 20
4.1432667727
 11
5.2502012793
 21
4.1532667727
  0
LINE
  5
212
100
AcDbEntity
  8
0
100
AcDbLine
 62
7
  6
CONTINUOUS
 10
5.0292012793
 20
4.8552667727
 11
5.0292012793
 21
4.4052667727
  0
LINE
  5
213
100
AcDbEntity
  8
0
100
AcDbLine
 62
6
  6
CONTINUOUS
 10
5.0777012793
 20
5.2632667727
 11
5.0777012793
 21
5.3132667727
  0
LINE
  5
214
100
AcDbEntity
  8
0
100
AcDbLine
 62
6
  6
CONTINUOUS
 10
5.0997012793
 20
4.2802667727
 11
5.0997012793
 21
4.3512667727
  0
LINE
  5
215
100
AcDbEntity
  8
0
100
AcDbLine
 62
6
  6
CONTINUOUS
 10
5.1277012793
 20
5.6782667727
 11
5.1277012793
 21
5.9782667727
  0
LINE
  5
216
100
AcDbEntity
  8
0
100
AcDbLine
 62
6
  6
CONTINUOUS
 10
5.1582012793
 20
4.2092667727
 11
5.1582012793
 21
4.2332667727
  0
LINE
  5
217
100
AcDbEntity
  8
0
100
AcDbLine
 62
6
  6
CONTINUOUS
 10
5.1586575444
 20
5.6782667727
 11
5.1586575444
 21
5.9782667727
  0
LINE
  5
218
100
AcDbEntity
  8
0
100
AcDbLine
 62
6
  6
CONTINUOUS
 10
5.1702282038
 20
6.3657667727
 11
5.1702282038
 21
6.6282667727
  0
LINE
  5
219
100
AcDbEntity
  8
0
100
AcDbLine
 62
6
  6
CONTINUOUS
 10
5.2452012793
 20
6.7007667727
 11
5.2452012793
 21
6.6777729904
  0
LINE
  5
21A
100
AcDbEntity
  8
0
100
AcDbLine
 62
6
  6
CONTINUOUS
 10
5.3064323414
 20
6.7007667727
 11
5.3064323414
 21
6.6782667727
  0
LINE
  5
21B
100
AcDbEntity
  8
0
100
AcDbLine
 62
7
  6
CONTINUOUS
 10
5.0381919304
 20
4.8383540901
 11
5.0381913353
 21
4.4223013027
  0
LINE
  5
21C
100
AcDbEntity
  8
0
100
AcDbLine
 62
6
  6
CONTINUOUS
 10
5.0042012793
 20
4.8802667727
 11
5.0292012793
 21
4.8552667727
  0
LINE
  5
21D
100
AcDbEntity
  8
0
100
AcDbLine
 62
6
  6
CONTINUOUS
 10
5.5539702173
 20
6.7007667727
 11
5.5539702173
 21
6.6782667727
  0
LINE
  5
21E
100
AcDbEntity
  8
0
100
AcDbLine
 62
6
  6
CONTINUOUS
 10
5.6031777231
 20
6.7007667727
 11
5.6031777231
 21
6.6782667727
  0
LINE
  5
21F
100
AcDbEntity
  8
0
100
AcDbLine
 62
6
  6
CONTINUOUS
 10
5.6901743549
 20
6.3657667727
 11
5.6901743549
 21
6.6282667727
  0
LINE
  5
220
100
AcDbEntity
  8
0
100
AcDbLine
 62
6
  6
CONTINUOUS
 10
5.7017450143
 20
5.6782667727
 11
5.7017450143
 21
5.9782667727
  0
LINE
  5
221
100
AcDbEntity
  8
0
100
AcDbLine
 62
6
  6
CONTINUOUS
 10
5.7022012793
 20
4.2092667727
 11
5.7022012793
 21
4.2332667727
  0
LINE
  5
222
100
AcDbEntity
  8
0
100
AcDbLine
 62
6
  6
CONTINUOUS
 10
5.7327012793
 20
5.6782667727
 11
5.7327012793
 21
5.9782667727
  0
LINE
  5
223
100
AcDbEntity
  8
0
100
AcDbLine
 62
6
  6
CONTINUOUS
 10
5.7607012793
 20
4.2802667727
 11
5.7607012793
 21
4.3512667727
  0
LINE
  5
224
100
AcDbEntity
  8
0
100
AcDbLine
 62
6
  6
CONTINUOUS
 10
5.7827012793
 20
5.2632667727
 11
5.7827012793
 21
5.3132667727
  0
LINE
  5
225
100
AcDbEntity
  8
0
100
AcDbLine
 62
6
  6
CONTINUOUS
 10
5.8367012793
 20
5.9782667727
 11
5.8367012793
 21
6.0539568653
  0
LINE
  5
226
100
AcDbEntity
  8
0
100
AcDbLine
 62
6
  6
CONTINUOUS
 10
5.6862561237
 20
5.1638895607
 11
5.6853950083
 21
5.1651073619
  0
LINE
  5
227
100
AcDbEntity
  8
0
100
AcDbLine
 62
6
  6
CONTINUOUS
 10
5.6418291544
 20
5.1051663089
 11
5.6533033123
 21
5.0654186599
  0
LINE
  5
228
100
AcDbEntity
  8
0
100
AcDbLine
 62
6
  6
CONTINUOUS
 10
5.6972257788
 20
5.1132667727
 11
5.6827920221
 21
5.1632667727
  0
LINE
  5
229
100
AcDbEntity
  8
0
100
AcDbLine
 62
6
  6
CONTINUOUS
 10
6.0552012793
 20
5.5031144967
 11
6.0552012793
 21
5.6782667727
  0
LINE
  5
22A
100
AcDbEntity
  8
0
100
AcDbLine
 62
6
  6
CONTINUOUS
 10
5.6827920221
 20
5.0632667727
 11
5.6972257788
 21
5.1132667727
  0
LINE
  5
22B
100
AcDbEntity
  8
0
100
AcDbLine
 62
6
  6
CONTINUOUS
 10
4.8207875712
 20
5.4941410079
 11
4.8051654637
 21
5.5031387481
  0
LINE
  5
22C
100
AcDbEntity
  8
0
100
AcDbLine
 62
6
  6
CONTINUOUS
 10
5.2602012793
 20
4.1432667727
 11
5.6002012793
 21
4.1432667727
  0
LINE
  5
22D
100
AcDbEntity
  8
0
100
AcDbLine
 62
6
  6
CONTINUOUS
 10
5.2502012793
 20
4.1532667727
 11
5.6102012793
 21
4.1532667727
  0
LINE
  5
22E
100
AcDbEntity
  8
0
100
AcDbLine
 62
6
  6
CONTINUOUS
 10
5.1582060335
 20
4.2092667727
 11
5.7021965252
 21
4.2092667727
  0
LINE
  5
22F
100
AcDbEntity
  8
0
100
AcDbLine
 62
9
  6
CONTINUOUS
 10
5.1467062345
 20
4.2332667727
 11
5.7136963242
 21
4.2332667727
  0
LINE
  5
230
100
AcDbEntity
  8
0
100
AcDbLine
 62
9
  6
CONTINUOUS
 10
5.0997012793
 20
4.2802667727
 11
5.7607012793
 21
4.2802667727
  0
LINE
  5
231
100
AcDbEntity
  8
0
100
AcDbLine
 62
6
  6
CONTINUOUS
 10
4.1657971964
 20
4.8194766999
 11
3.1109610242
 21
5.0245160812
  0
LINE
  5
232
100
AcDbEntity
  8
0
100
AcDbLine
 62
6
  6
CONTINUOUS
 10
5.1948605856
 20
5.3132667727
 11
4.8207875712
 21
5.4941410079
  0
LINE
  5
233
100
AcDbEntity
  8
0
100
AcDbLine
 62
6
  6
CONTINUOUS
 10
5.0042012793
 20
4.3802667727
 11
5.0292012793
 21
4.4052667727
  0
LINE
  5
234
100
AcDbEntity
  8
0
100
AcDbLine
 62
6
  6
CONTINUOUS
 10
5.0997012793
 20
4.3512667727
 11
5.7607012793
 21
4.3512667727
  0
LINE
  5
235
100
AcDbEntity
  8
0
100
AcDbLine
 62
6
  6
CONTINUOUS
 10
5.0042012793
 20
4.3802667727
 11
4.9592012793
 21
4.3802667727
  0
LINE
  5
236
100
AcDbEntity
  8
0
100
AcDbLine
 62
9
  6
CONTINUOUS
 10
5.0537440064
 20
4.8599749918
 11
5.8066585523
 21
4.8599749918
  0
LINE
  5
237
100
AcDbEntity
  8
0
100
AcDbLine
 62
6
  6
CONTINUOUS
 10
5.0042012793
 20
4.8802667727
 11
4.9592012793
 21
4.8802667727
  0
LINE
  5
238
100
AcDbEntity
  8
0
100
AcDbLine
 62
6
  6
CONTINUOUS
 10
5.6539245087
 20
5.0632667727
 11
5.6827920221
 21
5.0632667727
  0
LINE
  5
239
100
AcDbEntity
  8
0
100
AcDbLine
 62
6
  6
CONTINUOUS
 10
5.6972257788
 20
5.1132667727
 11
5.6433414846
 21
5.1132667727
  0
LINE
  5
23A
100
AcDbEntity
  8
0
100
AcDbLine
 62
6
  6
CONTINUOUS
 10
5.6002012793
 20
4.1432667727
 11
5.6102012793
 21
4.1532667727
  0
LINE
  5
23B
100
AcDbEntity
  8
0
100
AcDbLine
 62
6
  6
CONTINUOUS
 10
6.0396149875
 20
5.4941410079
 11
6.055237095
 21
5.5031387481
  0
LINE
  5
23C
100
AcDbEntity
  8
0
100
AcDbLine
 62
6
  6
CONTINUOUS
 10
5.6655419731
 20
5.3132667727
 11
6.0396149875
 21
5.4941410079
  0
LINE
  5
23D
100
AcDbEntity
  8
0
100
AcDbLine
 62
6
  6
CONTINUOUS
 10
4.1657971964
 20
4.4410568455
 11
3.1109610242
 21
4.2360174643
  0
LINE
  5
23E
100
AcDbEntity
  8
0
100
AcDbLine
 62
6
  6
CONTINUOUS
 10
5.6827920221
 20
5.1632667727
 11
5.6696688682
 21
5.1632667727
  0
LINE
  5
23F
100
AcDbEntity
  8
0
100
AcDbLine
 62
6
  6
CONTINUOUS
 10
5.0777012793
 20
5.2632667727
 11
5.7827012793
 21
5.2632667727
  0
LINE
  5
240
100
AcDbEntity
  8
0
100
AcDbLine
 62
6
  6
CONTINUOUS
 10
5.0777054097
 20
5.3132667727
 11
5.782697149
 21
5.3132667727
  0
LINE
  5
241
100
AcDbEntity
  8
0
100
AcDbLine
 62
9
  6
CONTINUOUS
 10
4.8207875712
 20
5.4941410079
 11
6.0396149875
 21
5.4941410079
  0
LINE
  5
242
100
AcDbEntity
  8
0
100
AcDbLine
 62
6
  6
CONTINUOUS
 10
9.7073259424
 20
7.4665800156
 11
9.0705142332
 21
6.9023142564
  0
LINE
  5
243
100
AcDbEntity
  8
0
100
AcDbLine
 62
6
  6
CONTINUOUS
 10
9.7670128968
 20
7.3992192891
 11
9.1302011876
 21
6.8349535299
  0
LINE
  5
244
100
AcDbEntity
  8
0
100
AcDbLine
 62
9
  6
CONTINUOUS
 10
4.8052012793
 20
5.6066761062
 11
6.0552012793
 21
5.6066761062
  0
LINE
  5
245
100
AcDbEntity
  8
0
100
AcDbLine
 62
6
  6
CONTINUOUS
 10
4.8052012793
 20
5.6782667727
 11
6.0552012793
 21
5.6782667727
  0
LINE
  5
246
100
AcDbEntity
  8
0
100
AcDbLine
 62
6
  6
CONTINUOUS
 10
5.8367012793
 20
5.9782667727
 11
5.7327012793
 21
5.9782667727
  0
LINE
  5
247
100
AcDbEntity
  8
0
100
AcDbLine
 62
6
  6
CONTINUOUS
 10
5.0237012793
 20
5.9782667727
 11
5.1277012793
 21
5.9782667727
  0
LINE
  5
248
100
AcDbEntity
  8
0
100
AcDbLine
 62
6
  6
CONTINUOUS
 10
5.1586575444
 20
5.9782667727
 11
5.7017450143
 21
5.9782667727
  0
LINE
  5
249
100
AcDbEntity
  8
0
100
AcDbLine
 62
6
  6
CONTINUOUS
 10
8.4073258507
 20
6.5607667727
 11
5.6901743549
 21
6.5607667727
  0
LINE
  5
24A
100
AcDbEntity
  8
0
100
AcDbLine
 62
6
  6
CONTINUOUS
 10
4.9073412167
 20
6.5607667727
 11
5.1702282038
 21
6.5607667727
  0
LINE
  5
24B
100
AcDbEntity
  8
0
100
AcDbLine
 62
9
  6
CONTINUOUS
 10
5.6901743549
 20
6.6282667727
 11
5.1702282038
 21
6.6282667727
  0
LINE
  5
24C
100
AcDbEntity
  8
0
100
AcDbLine
 62
6
  6
CONTINUOUS
 10
8.4073258507
 20
6.6507667727
 11
5.6813850755
 21
6.6507667727
  0
LINE
  5
24D
100
AcDbEntity
  8
0
100
AcDbLine
 62
6
  6
CONTINUOUS
 10
5.1790116916
 20
6.6507667727
 11
4.9073412167
 21
6.6507667727
  0
LINE
  5
24E
100
AcDbEntity
  8
0
100
AcDbLine
 62
6
  6
CONTINUOUS
 10
5.2586320513
 20
6.6782667727
 11
5.6017705074
 21
6.6782667727
  0
LINE
  5
24F
100
AcDbEntity
  8
0
100
AcDbLine
 62
6
  6
CONTINUOUS
 10
5.2452012793
 20
6.7007667727
 11
5.6031777231
 21
6.7007667727
  0
LINE
  5
250
100
AcDbEntity
  8
0
100
AcDbLine
 62
6
  6
CONTINUOUS
 10
10.4302012793
 20
7.6507667727
 11
14.4301859133
 21
7.6507667727
  0
LINE
  5
251
100
AcDbEntity
  8
0
100
AcDbLine
 62
6
  6
CONTINUOUS
 10
14.4301859133
 20
7.7407667727
 11
10.4302012793
 21
7.7407667727
  0
LINE
  5
252
100
AcDbEntity
  8
0
100
AcDbLine
 62
6
  6
CONTINUOUS
 10
14.4019543344
 20
7.7407667727
 11
14.4019543344
 21
7.6507667727
  0
LINE
  5
253
100
AcDbEntity
  8
0
100
AcDbLine
 62
6
  6
CONTINUOUS
 10
14.4302012793
 20
7.7407667727
 11
14.4302012793
 21
7.6507667727
  0
ARC
  5
254
100
AcDbEntity
  8
0
100
AcDbCircle
 62
6
  6
CONTINUOUS
 10
2.6721013319
 20
4.5277667727
 40
0.15
100
AcDbArc
 50
229.2861651139
 51
309.3458297662
  0
ARC
  5
255
100
AcDbEntity
  8
0
100
AcDbCircle
 62
6
  6
CONTINUOUS
 10
2.5181629104
 20
4.3488842348
 40
0.086
100
AcDbArc
 50
49.2861651139
 51
149.3187124064
  0
ARC
  5
256
100
AcDbEntity
  8
0
100
AcDbCircle
 62
6
  6
CONTINUOUS
 10
2.5221729363
 20
4.6302667727
 40
0.249971657
100
AcDbArc
 50
108.1750968409
 51
251.8249031591
  0
ARC
  5
257
100
AcDbEntity
  8
0
100
AcDbCircle
 62
6
  6
CONTINUOUS
 10
2.6721013319
 20
4.7327667727
 40
0.15
100
AcDbArc
 50
50.6541702338
 51
130.7138348861
  0
ARC
  5
258
100
AcDbEntity
  8
0
100
AcDbCircle
 62
6
  6
CONTINUOUS
 10
2.5181629104
 20
4.9116493107
 40
0.086
100
AcDbArc
 50
210.6812875936
 51
310.7138348861
  0
ARC
  5
259
100
AcDbEntity
  8
0
100
AcDbCircle
 62
6
  6
CONTINUOUS
 10
3.0512378087
 20
4.5432667727
 40
0.313
100
AcDbArc
 50
204.842656017
 51
281.0
  0
ARC
  5
25A
100
AcDbEntity
  8
0
100
AcDbCircle
 62
6
  6
CONTINUOUS
 10
3.0512378087
 20
4.7172667727
 40
0.313
100
AcDbArc
 50
79.0
 51
155.157343983
  0
ARC
  5
25B
100
AcDbEntity
  8
0
100
AcDbCircle
 62
6
  6
CONTINUOUS
 10
4.4520106894
 20
2.9686160704
 40
1.5
100
AcDbArc
 50
70.2371945424
 51
101.0
  0
ARC
  5
25C
100
AcDbEntity
  8
0
100
AcDbCircle
 62
6
  6
CONTINUOUS
 10
5.3502012793
 20
4.63032725
 40
0.375
100
AcDbArc
 50
213.5626404709
 51
228.0871091166
  0
ARC
  5
25D
100
AcDbEntity
  8
0
100
AcDbCircle
 62
6
  6
CONTINUOUS
 10
5.3502012793
 20
4.63032725
 40
0.375
100
AcDbArc
 50
142.2371948106
 51
146.4350001058
  0
ARC
  5
25E
100
AcDbEntity
  8
0
100
AcDbCircle
 62
6
  6
CONTINUOUS
 10
5.1942012793
 20
4.1532667727
 40
0.056
100
AcDbArc
 50
0.0
 51
90.0
  0
ARC
  5
25F
100
AcDbEntity
  8
0
100
AcDbCircle
 62
6
  6
CONTINUOUS
 10
5.1467012793
 20
4.2802667727
 40
0.047
100
AcDbArc
 50
180.0
 51
270.0
  0
ARC
  5
260
100
AcDbEntity
  8
0
100
AcDbCircle
 62
6
  6
CONTINUOUS
 10
4.7708199271
 20
5.0791393768
 40
0.3578813522
100
AcDbArc
 50
322.2371948106
 51
30.9635622203
  0
ARC
  5
261
100
AcDbEntity
  8
0
100
AcDbCircle
 62
6
  6
CONTINUOUS
 10
5.5102012793
 20
4.63032725
 40
0.375
100
AcDbArc
 50
311.9128908834
 51
37.7628051894
  0
ARC
  5
262
100
AcDbEntity
  8
0
100
AcDbCircle
 62
6
  6
CONTINUOUS
 10
5.6662012793
 20
4.1532667727
 40
0.056
100
AcDbArc
 50
90.0
 51
180.0
  0
ARC
  5
263
100
AcDbEntity
  8
0
100
AcDbCircle
 62
6
  6
CONTINUOUS
 10
5.7137012793
 20
4.2802667727
 40
0.047
100
AcDbArc
 50
270.0
 51
360.0
  0
ARC
  5
264
100
AcDbEntity
  8
0
100
AcDbCircle
 62
7
  6
CONTINUOUS
 10
5.5760097775
 20
5.1132636632
 40
0.1233484879
100
AcDbArc
 50
355.4916053462
 51
0.0014443745
  0
ARC
  5
265
100
AcDbEntity
  8
0
100
AcDbCircle
 62
6
  6
CONTINUOUS
 10
5.5765456108
 20
5.1132909677
 40
0.1228126569
100
AcDbArc
 50
359.9887123076
 51
4.5182379718
  0
ARC
  5
266
100
AcDbEntity
  8
0
100
AcDbCircle
 62
7
  6
CONTINUOUS
 10
5.5822402638
 20
5.1127825778
 40
0.1170994644
100
AcDbArc
 50
350.8233663713
 51
355.4866383197
  0
ARC
  5
267
100
AcDbEntity
  8
0
100
AcDbCircle
 62
6
  6
CONTINUOUS
 10
5.5838370789
 20
5.1139426484
 40
0.115492536
100
AcDbArc
 50
4.4809017015
 51
9.2090936074
  0
ARC
  5
268
100
AcDbEntity
  8
0
100
AcDbCircle
 62
6
  6
CONTINUOUS
 10
5.7464476742
 20
5.1054698705
 40
0.1028140084
100
AcDbArc
 50
203.1675200694
 51
204.5998356665
  0
ARC
  5
269
100
AcDbEntity
  8
0
100
AcDbCircle
 62
6
  6
CONTINUOUS
 10
5.6094149298
 20
5.099953205
 40
0.0900975188
100
AcDbArc
 50
331.7236439855
 51
333.6148822615
  0
ARC
  5
26A
100
AcDbEntity
  8
0
100
AcDbCircle
 62
6
  6
CONTINUOUS
 10
5.7208404597
 20
5.0701136911
 40
0.089173606
100
AcDbArc
 50
134.1854905822
 51
139.3231869517
  0
ARC
  5
26B
100
AcDbEntity
  8
0
100
AcDbCircle
 62
6
  6
CONTINUOUS
 10
5.73503977
 20
5.1140395582
 40
0.0879815917
100
AcDbArc
 50
126.4120511412
 51
128.6436418723
  0
ARC
  5
26C
100
AcDbEntity
  8
0
100
AcDbCircle
 62
6
  6
CONTINUOUS
 10
5.7287958053
 20
5.1065323441
 40
0.0873634772
100
AcDbArc
 50
198.2922280034
 51
208.3697783648
  0
ARC
  5
26D
100
AcDbEntity
  8
0
100
AcDbCircle
 62
6
  6
CONTINUOUS
 10
5.7270099673
 20
5.1058731073
 40
0.0854707102
100
AcDbArc
 50
177.5226509709
 51
198.2724688546
  0
ARC
  5
26E
100
AcDbEntity
  8
0
100
AcDbCircle
 62
6
  6
CONTINUOUS
 10
5.738711014
 20
5.1047531053
 40
0.0852204586
100
AcDbArc
 50
152.1375027511
 51
159.8864007163
  0
ARC
  5
26F
100
AcDbEntity
  8
0
100
AcDbCircle
 62
6
  6
CONTINUOUS
 10
5.7147896177
 20
5.1171229213
 40
0.0812795712
100
AcDbArc
 50
238.7709525511
 51
241.1910268906
  0
ARC
  5
270
100
AcDbEntity
  8
0
100
AcDbCircle
 62
6
  6
CONTINUOUS
 10
5.7115433425
 20
5.116614042
 40
0.0788432026
100
AcDbArc
 50
220.872584488
 51
222.8456130789
  0
ARC
  5
271
100
AcDbEntity
  8
0
100
AcDbCircle
 62
6
  6
CONTINUOUS
 10
5.6303271118
 20
5.1063320973
 40
0.0773308541
100
AcDbArc
 50
332.8101046765
 51
334.4407509673
  0
ARC
  5
272
100
AcDbEntity
  8
0
100
AcDbCircle
 62
6
  6
CONTINUOUS
 10
5.6386440549
 20
5.1036803437
 40
0.0715108556
100
AcDbArc
 50
329.7188315043
 51
333.9555244442
  0
ARC
  5
273
100
AcDbEntity
  8
0
100
AcDbCircle
 62
6
  6
CONTINUOUS
 10
5.706007512
 20
5.0983695419
 40
0.06055018
100
AcDbArc
 50
249.220812401
 51
249.9654534961
  0
ARC
  5
274
100
AcDbEntity
  8
0
100
AcDbCircle
 62
6
  6
CONTINUOUS
 10
5.7017341564
 20
5.0836564513
 40
0.0452142582
100
AcDbArc
 50
257.1923737913
 51
259.4574694279
  0
ARC
  5
275
100
AcDbEntity
  8
0
100
AcDbCircle
 62
6
  6
CONTINUOUS
 10
5.6647941282
 20
5.0842902744
 40
0.0388258076
100
AcDbArc
 50
312.3180830824
 51
314.0252650446
  0
ARC
  5
276
100
AcDbEntity
  8
0
100
AcDbCircle
 62
6
  6
CONTINUOUS
 10
5.6663450655
 20
5.0825706995
 40
0.0365101612
100
AcDbArc
 50
309.9204598642
 51
312.3351962006
  0
ARC
  5
277
100
AcDbEntity
  8
0
100
AcDbCircle
 62
6
  6
CONTINUOUS
 10
5.5386601967
 20
5.1218839603
 40
0.164588789
100
AcDbArc
 50
354.9390726629
 51
1.391306034
  0
ARC
  5
278
100
AcDbEntity
  8
0
100
AcDbCircle
 62
6
  6
CONTINUOUS
 10
5.8051182355
 20
5.1218374428
 40
0.1639588524
100
AcDbArc
 50
182.9510247338
 51
184.2917602051
  0
ARC
  5
279
100
AcDbEntity
  8
0
100
AcDbCircle
 62
6
  6
CONTINUOUS
 10
5.8044872062
 20
5.1218626062
 40
0.1633299657
100
AcDbArc
 50
177.77584515
 51
182.9712365917
  0
ARC
  5
27A
100
AcDbEntity
  8
0
100
AcDbCircle
 62
6
  6
CONTINUOUS
 10
5.5800666483
 20
5.1218607415
 40
0.1301690045
100
AcDbArc
 50
355.6483724316
 51
356.2144851369
  0
ARC
  5
27B
100
AcDbEntity
  8
0
100
AcDbCircle
 62
6
  6
CONTINUOUS
 10
5.5811621653
 20
5.1217598053
 40
0.1290689881
100
AcDbArc
 50
349.7872791571
 51
355.6561500182
  0
ARC
  5
27C
100
AcDbEntity
  8
0
100
AcDbCircle
 62
6
  6
CONTINUOUS
 10
5.585399711
 20
5.1216272983
 40
0.1279604654
100
AcDbArc
 50
349.6899507347
 51
356.2538093243
  0
ARC
  5
27D
100
AcDbEntity
  8
0
100
AcDbCircle
 62
6
  6
CONTINUOUS
 10
5.5823389068
 20
5.1218316178
 40
0.127899838
100
AcDbArc
 50
356.1603001946
 51
3.7494176073
  0
ARC
  5
27E
100
AcDbEntity
  8
0
100
AcDbCircle
 62
6
  6
CONTINUOUS
 10
5.5889884146
 20
5.1221953298
 40
0.1212408
100
AcDbArc
 50
3.7833949004
 51
4.5113461495
  0
ARC
  5
27F
100
AcDbEntity
  8
0
100
AcDbCircle
 62
6
  6
CONTINUOUS
 10
5.5977545935
 20
5.1230324041
 40
0.1124360328
100
AcDbArc
 50
4.4374746436
 51
9.2538934378
  0
ARC
  5
280
100
AcDbEntity
  8
0
100
AcDbCircle
 62
6
  6
CONTINUOUS
 10
5.7198157068
 20
5.1250015561
 40
0.0906280186
100
AcDbArc
 50
227.9360594847
 51
234.8802249748
  0
ARC
  5
281
100
AcDbEntity
  8
0
100
AcDbCircle
 62
6
  6
CONTINUOUS
 10
5.7187671509
 20
5.1238450106
 40
0.0890677027
100
AcDbArc
 50
226.7688947704
 51
227.9317308531
  0
ARC
  5
282
100
AcDbEntity
  8
0
100
AcDbCircle
 62
6
  6
CONTINUOUS
 10
5.7175564626
 20
5.1216964918
 40
0.0866249386
100
AcDbArc
 50
234.8448977448
 51
238.7744467546
  0
ARC
  5
283
100
AcDbEntity
  8
0
100
AcDbCircle
 62
6
  6
CONTINUOUS
 10
5.7166970778
 20
5.1216372728
 40
0.0860412703
100
AcDbArc
 50
225.3217779693
 51
226.76628097
  0
ARC
  5
284
100
AcDbEntity
  8
0
100
AcDbCircle
 62
6
  6
CONTINUOUS
 10
5.7141303066
 20
5.1190391618
 40
0.0823890802
100
AcDbArc
 50
222.8587356223
 51
225.320630712
  0
ARC
  5
285
100
AcDbEntity
  8
0
100
AcDbCircle
 62
6
  6
CONTINUOUS
 10
5.6873070822
 20
5.1660430382
 40
0.0123235943
100
AcDbArc
 50
89.9932610284
 51
96.0420141026
  0
ARC
  5
286
100
AcDbEntity
  8
0
100
AcDbCircle
 62
6
  6
CONTINUOUS
 10
6.0895826316
 20
5.0791393768
 40
0.3578813522
100
AcDbArc
 50
149.0364377797
 51
217.7628051894
  0
ARC
  5
287
100
AcDbEntity
  8
0
100
AcDbCircle
 62
6
  6
CONTINUOUS
 10
5.8783358591
 20
5.0987610045
 40
0.2200404976
100
AcDbArc
 50
159.5429297705
 51
162.3836824279
  0
ARC
  5
288
100
AcDbEntity
  8
0
100
AcDbCircle
 62
6
  6
CONTINUOUS
 10
5.8452580913
 20
5.109256492
 40
0.1853375594
100
AcDbArc
 50
162.3813936954
 51
165.7180864146
  0
ARC
  5
289
100
AcDbEntity
  8
0
100
AcDbCircle
 62
6
  6
CONTINUOUS
 10
5.8175216375
 20
5.1162450752
 40
0.1567343183
100
AcDbArc
 50
165.6925701079
 51
169.5842511354
  0
ARC
  5
28A
100
AcDbEntity
  8
0
100
AcDbCircle
 62
6
  6
CONTINUOUS
 10
4.4520106894
 20
6.2919174751
 40
1.5
100
AcDbArc
 50
259.0
 51
289.7628054576
  0
ARC
  5
28B
100
AcDbEntity
  8
0
100
AcDbCircle
 62
6
  6
CONTINUOUS
 10
8.4073258507
 20
7.6507667727
 40
1.09
100
AcDbArc
 50
270.0
 51
311.5434926902
  0
ARC
  5
28C
100
AcDbEntity
  8
0
100
AcDbCircle
 62
6
  6
CONTINUOUS
 10
10.4302012793
 20
6.6507667727
 40
1.09
100
AcDbArc
 50
90.0
 51
131.5434926902
  0
ARC
  5
28D
100
AcDbEntity
  8
0
100
AcDbCircle
 62
6
  6
CONTINUOUS
 10
10.4302012793
 20
6.6507667727
 40
1.0
100
AcDbArc
 50
90.0
 51
131.5434926902
  0
ARC
  5
28E
100
AcDbEntity
  8
0
100
AcDbCircle
 62
6
  6
CONTINUOUS
 10
8.4073258507
 20
7.6507667727
 40
1.0
100
AcDbArc
 50
270.0
 51
311.5434926902
  0
SPLINE
  5
28F
100
AcDbEntity
  8
0
100
AcDbSpline
 62
6
  6
CONTINUOUS
 70
0
 71
3
 72
35
 73
31
 74
29
 42
0.0000001
 43
0.0000001
 44
0.0000000001
 12
0.0
 22
-0.3511004758
 32
0.0
 13
0.256786808
 23
0.2394411813
 33
0.0
 40
0.0
 40
0.0
 40
0.0
 40
0.0
 40
0.0917933548
 40
0.1826548377
 40
0.3586041116
 40
0.442822031
 40
0.5238845172
 40
0.6012932141
 40
0.6744586961
 40
0.7426752275
 40
0.805107846
 40
0.8338600187
 40
0.8607932793
 40
0.8857700922
 40
0.9086487899
 40
0.9292831083
 40
0.9475269911
 40
0.9632447375
 40
0.9763080049
 40
0.9818046871
 40
0.9865949547
 40
0.9906693737
 40
0.9940185161
 40
0.9966329515
 40
0.9976617069
 40
0.9985035173
 40
0.9991582476
 40
0.9996259021
 40
0.9999064848
 40
1.0
 40
1.0
 40
1.0
 40
1.0
 10
5.1702282038
 20
6.3657667727
 30
0.0
 10
5.1702282038
 20
6.3550238759
 30
0.0
 10
5.1688889166
 20
6.3336237745
 30
0.0
 10
5.1613120025
 20
6.2922662661
 30
0.0
 10
5.1477823549
 20
6.253223207
 30
0.0
 10
5.1309546071
 20
6.2170016884
 30
0.0
 10
5.1176569866
 20
6.1918889481
 30
0.0
 10
5.1040012792
 20
6.1684645571
 30
0.0
 10
5.0904020758
 20
6.1467641872
 30
0.0
 10
5.0772287695
 20
6.1268763232
 30
0.0
 10
5.0666188119
 20
6.1115307346
 30
0.0
 10
5.058621143
 20
6.1002552608
 30
0.0
 10
5.0531059463
 20
6.0925935979
 30
0.0
 10
5.0479492532
 20
6.08552107
 30
0.0
 10
5.0431928218
 20
6.0790691866
 30
0.0
 10
5.0388766765
 20
6.0732717909
 30
0.0
 10
5.0350411142
 20
6.0681615071
 30
0.0
 10
5.0317229544
 20
6.0637707913
 30
0.0
 10
5.0292951568
 20
6.0605772187
 30
0.0
 10
5.0276378175
 20
6.0584043444
 30
0.0
 10
5.0266173666
 20
6.0570689189
 30
0.0
 10
5.0257483341
 20
6.0559336921
 30
0.0
 10
5.0250340033
 20
6.0550018906
 30
0.0
 10
5.0245346385
 20
6.0543516128
 30
0.0
 10
5.0242165132
 20
6.0539371044
 30
0.0
 10
5.0240331168
 20
6.053699007
 30
0.0
 10
5.0239017946
 20
6.0535262749
 30
0.0
 10
5.0237820952
 20
6.0533743955
 30
0.0
 10
5.0237566072
 20
6.0533342525
 30
0.0
 10
5.0236942121
 20
6.0532602149
 30
0.0
 10
5.0237022166
 20
6.0532676787
 30
0.0
 11
5.1702282038
 21
6.3657667727
 31
0.0
 11
5.1682456365
 21
6.3335991194
 31
0.0
 11
5.1625709827
 21
6.3022063712
 31
0.0
 11
5.1429649517
 21
6.2436242739
 31
0.0
 11
5.1305639286
 21
6.2167814439
 31
0.0
 11
5.1172842747
 21
6.1916083685
 31
0.0
 11
5.1036236615
 21
6.1681127551
 31
0.0
 11
5.0900006598
 21
6.1463341062
 31
0.0
 11
5.0767862782
 21
6.1263585299
 31
0.0
 11
5.0643279324
 21
6.1083229714
 31
0.0
 11
5.0584881161
 21
6.1000886783
 31
0.0
 11
5.0529641251
 21
6.092413604
 31
0.0
 11
5.0477981069
 21
6.0853274116
 31
0.0
 11
5.0430316386
 21
6.0788617023
 31
0.0
 11
5.0387056207
 21
6.0730503752
 31
0.0
 11
5.0348606239
 21
6.0679273283
 31
0.0
 11
5.0315333702
 21
6.0635246796
 31
0.0
 11
5.0287578553
 21
6.0598732857
 31
0.0
 11
5.0275874495
 21
6.0583388096
 31
0.0
 11
5.0265662526
 21
6.057002461
 31
0.0
 11
5.0256967046
 21
6.0558665457
 31
0.0
 11
5.0249812431
 21
6.0549333675
 31
0.0
 11
5.0244223057
 21
6.0542052304
 31
0.0
 11
5.0242022953
 21
6.0539187722
 31
0.0
 11
5.0240222605
 21
6.0536843725
 31
0.0
 11
5.0238822364
 21
6.0535020643
 31
0.0
 11
5.0237822217
 21
6.0533718466
 31
0.0
 11
5.0237222155
 21
6.0532937185
 31
0.0
 11
5.0237022166
 21
6.0532676787
 31
0.0
  0
LINE
  5
290
100
AcDbEntity
  8
0
100
AcDbLine
 62
6
  6
CONTINUOUS
 10
5.8355170352
 20
6.0548086287
 11
5.8367003422
 21
6.0532676786
  0
SPLINE
  5
291
100
AcDbEntity
  8
0
100
AcDbSpline
 62
6
  6
CONTINUOUS
 70
0
 71
3
 72
17
 73
13
 74
11
 42
0.0000001
 43
0.0000001
 44
0.0000000001
 12
-0.1116008253
 22
0.0
 32
0.0
 13
0.0
 23
-0.1116008253
 33
0.0
 40
0.0
 40
0.0
 40
0.0
 40
0.0
 40
0.1249783842
 40
0.2499639446
 40
0.3749529421
 40
0.4999372078
 40
0.6248866629
 40
0.7497611075
 40
0.8123290505
 40
0.874886909
 40
0.9374623897
 40
1.0
 40
1.0
 40
1.0
 40
1.0
 10
5.2586320513
 20
6.6782667727
 30
0.0
 10
5.2539828211
 20
6.6782667727
 30
0.0
 10
5.2446800307
 20
6.6779672246
 30
0.0
 10
5.2307996083
 20
6.6764329843
 30
0.0
 10
5.2171189966
 20
6.6735838485
 30
0.0
 10
5.2038584424
 20
6.6691256974
 30
0.0
 10
5.1914134999
 20
6.662698626
 30
0.0
 10
5.182281979
 20
6.6553053435
 30
0.0
 10
5.1764168317
 20
6.6480440477
 30
0.0
 10
5.172969014
 20
6.641928097
 30
0.0
 10
5.1707449086
 20
6.6352625501
 30
0.0
 10
5.1702282038
 20
6.630593189
 30
0.0
 10
5.1702282038
 20
6.6282667727
 30
0.0
 11
5.2586320513
 21
6.6782667727
 31
0.0
 11
5.2446926343
 21
6.6777864287
 31
0.0
 11
5.2308330729
 21
6.6762138574
 31
0.0
 11
5.2171886236
 21
6.6733155608
 31
0.0
 11
5.2039925422
 21
6.6687967306
 31
0.0
 11
5.1916592656
 21
6.6622899406
 31
0.0
 11
5.1809407488
 21
6.6533833121
 31
0.0
 11
5.1765759035
 21
6.6479330547
 31
0.0
 11
5.173173171
 21
6.6418369187
 31
0.0
 11
5.1709861115
 21
6.6352047473
 31
0.0
 11
5.1702282038
 21
6.6282667727
 31
0.0
  0
SPLINE
  5
292
100
AcDbEntity
  8
0
100
AcDbSpline
 62
6
  6
CONTINUOUS
 70
0
 71
3
 72
17
 73
13
 74
11
 42
0.0000001
 43
0.0000001
 44
0.0000000001
 12
0.0
 22
0.1116008113
 32
0.0
 13
-0.1116008113
 23
0.0
 33
0.0
 40
0.0
 40
0.0
 40
0.0
 40
0.0
 40
0.0625378606
 40
0.1251143154
 40
0.187673459
 40
0.2502418801
 40
0.3751171756
 40
0.5000661126
 40
0.6250492591
 40
0.7500372797
 40
0.8750220894
 40
1.0
 40
1.0
 40
1.0
 40
1.0
 10
5.6901743549
 20
6.6282667727
 30
0.0
 10
5.6901743549
 20
6.6305931981
 30
0.0
 10
5.6896576252
 20
6.6352626034
 30
0.0
 10
5.6874334736
 20
6.6419282296
 30
0.0
 10
5.6839856114
 20
6.6480442763
 30
0.0
 10
5.6781203022
 20
6.6553055676
 30
0.0
 10
5.668988733
 20
6.6626988246
 30
0.0
 10
5.6565437778
 20
6.6691258077
 30
0.0
 10
5.6432833105
 20
6.673583896
 30
0.0
 10
5.6296028026
 20
6.6764330009
 30
0.0
 10
5.6157224631
 20
6.6779672286
 30
0.0
 10
5.6064197194
 20
6.6782667727
 30
0.0
 10
5.6017705074
 20
6.6782667727
 30
0.0
 11
5.6901743549
 21
6.6282667727
 31
0.0
 11
5.689416428
 21
6.6352047724
 31
0.0
 11
5.6872293213
 21
6.6418370419
 31
0.0
 11
5.6838265069
 21
6.6479332954
 31
0.0
 11
5.679461572
 21
6.6533835481
 31
0.0
 11
5.6687429227
 21
6.6622901631
 31
0.0
 11
5.6564096637
 21
6.668796859
 31
0.0
 11
5.6432136902
 21
6.6733156129
 31
0.0
 11
5.6295693467
 21
6.6762138751
 31
0.0
 11
5.61570987
 21
6.6777864328
 31
0.0
 11
5.6017705074
 21
6.6782667727
 31
0.0
  0
SPLINE
  5
293
100
AcDbEntity
  8
0
100
AcDbSpline
 62
6
  6
CONTINUOUS
 70
0
 71
3
 72
9
 73
5
 74
3
 42
0.0000001
 43
0.0000001
 44
0.0000000001
 12
0.0097883157
 22
0.0013527291
 32
0.0
 13
0.0098799187
 23
0.0001679486
 33
0.0
 40
0.0
 40
0.0
 40
0.0
 40
0.0
 40
0.2607198911
 40
1.0
 40
1.0
 40
1.0
 40
1.0
 10
5.6878160491
 20
5.1882462789
 30
0.0
 10
5.6886667187
 20
5.1883638401
 30
0.0
 10
5.6919344325
 20
5.1887756196
 30
0.0
 10
5.6952259563
 20
5.1890194815
 30
0.0
 10
5.6976606321
 20
5.1890608685
 30
0.0
 11
5.6878160491
 21
5.1882462789
 31
0.0
 11
5.6903722531
 21
5.1885671441
 31
0.0
 11
5.6976606321
 21
5.1890608685
 31
0.0
  0
SPLINE
  5
294
100
AcDbEntity
  8
0
100
AcDbSpline
 62
6
  6
CONTINUOUS
 70
0
 71
3
 72
9
 73
5
 74
3
 42
0.0000001
 43
0.0000001
 44
0.0000000001
 12
0.0087998052
 22
0.0001495877
 32
0.0
 13
0.0086893274
 23
-0.0013980478
 33
0.0
 40
0.0
 40
0.0
 40
0.0
 40
0.0
 40
0.2622031813
 40
1.0
 40
1.0
 40
1.0
 40
1.0
 10
5.6976606321
 20
5.1890608685
 30
0.0
 10
5.6984297444
 20
5.1890739426
 30
0.0
 10
5.7013631419
 20
5.1890700456
 30
0.0
 10
5.7043003349
 20
5.1888378323
 30
0.0
 10
5.7064373209
 20
5.1884940072
 30
0.0
 11
5.6976606321
 21
5.1890608685
 31
0.0
 11
5.6999682976
 21
5.1890562021
 31
0.0
 11
5.7064373209
 21
5.1884940072
 31
0.0
  0
SPLINE
  5
295
100
AcDbEntity
  8
0
100
AcDbSpline
 62
6
  6
CONTINUOUS
 70
0
 71
3
 72
9
 73
5
 74
3
 42
0.0000001
 43
0.0000001
 44
0.0000000001
 12
0.0076804721
 22
-0.0012357305
 32
0.0
 13
0.0071959385
 23
-0.0029555288
 33
0.0
 40
0.0
 40
0.0
 40
0.0
 40
0.0
 40
0.2610131361
 40
1.0
 40
1.0
 40
1.0
 40
1.0
 10
5.7064373209
 20
5.1884940072
 30
0.0
 10
5.7071055556
 20
5.1883864933
 30
0.0
 10
5.7096543563
 20
5.1879096946
 30
0.0
 10
5.712155772
 20
5.187159374
 30
0.0
 10
5.71392834
 20
5.1864313417
 30
0.0
 11
5.7064373209
 21
5.1884940072
 31
0.0
 11
5.7084328683
 21
5.1881189574
 31
0.0
 11
5.71392834
 21
5.1864313417
 31
0.0
  0
SPLINE
  5
296
100
AcDbEntity
  8
0
100
AcDbSpline
 62
6
  6
CONTINUOUS
 70
0
 71
3
 72
9
 73
5
 74
3
 42
0.0000001
 43
0.0000001
 44
0.0000000001
 12
0.0129792518
 22
-0.0053308616
 32
0.0
 13
0.0088391325
 23
-0.0108971923
 33
0.0
 40
0.0
 40
0.0
 40
0.0
 40
0.0
 40
0.5088640237
 40
1.0
 40
1.0
 40
1.0
 40
1.0
 10
5.71392834
 20
5.1864313417
 30
0.0
 10
5.7161298981
 20
5.1855271138
 30
0.0
 10
5.7202578749
 20
5.1831987033
 30
0.0
 10
5.7236262988
 20
5.1798788179
 30
0.0
 10
5.7250733708
 20
5.1780948169
 30
0.0
 11
5.71392834
 21
5.1864313417
 31
0.0
 11
5.7201343753
 21
5.1829006901
 31
0.0
 11
5.7250733708
 21
5.1780948169
 31
0.0
  0
SPLINE
  5
297
100
AcDbEntity
  8
0
100
AcDbSpline
 62
6
  6
CONTINUOUS
 70
0
 71
3
 72
9
 73
5
 74
3
 42
0.0000001
 43
0.0000001
 44
0.0000000001
 12
0.0075407047
 22
0.0075024222
 32
0.0
 13
0.0083088137
 23
0.0066417002
 33
0.0
 40
0.0
 40
0.0
 40
0.0
 40
0.0
 40
0.2561074872
 40
1.0
 40
1.0
 40
1.0
 40
1.0
 10
5.6721723641
 20
5.1756663612
 30
0.0
 10
5.6728161078
 20
5.1763068367
 30
0.0
 10
5.6753621805
 20
5.1787746582
 30
0.0
 10
5.6780372043
 20
5.1811102404
 30
0.0
 10
5.6800974923
 20
5.1827571441
 30
0.0
 11
5.6721723641
 21
5.1756663612
 31
0.0
 11
5.6741287024
 21
5.1775622181
 31
0.0
 11
5.6800974923
 21
5.1827571441
 31
0.0
  0
LINE
  5
298
100
AcDbEntity
  8
0
100
AcDbLine
 62
6
  6
CONTINUOUS
 10
5.6828149381
 20
5.1848444127
 11
5.6878160491
 21
5.1882462789
  0
SPLINE
  5
299
100
AcDbEntity
  8
0
100
AcDbSpline
 62
6
  6
CONTINUOUS
 70
0
 71
3
 72
9
 73
5
 74
3
 42
0.0000001
 43
0.0000001
 44
0.0000000001
 12
0.0025137484
 22
0.0065464401
 32
0.0
 13
0.0033611578
 23
0.006154464
 33
0.0
 40
0.0
 40
0.0
 40
0.0
 40
0.0
 40
0.2526924042
 40
1.0
 40
1.0
 40
1.0
 40
1.0
 10
5.6416191391
 20
5.1095675297
 30
0.0
 10
5.6418308741
 20
5.1101189416
 30
0.0
 10
5.6427096087
 20
5.1122853421
 30
0.0
 10
5.6437404529
 20
5.1143888716
 30
0.0
 10
5.6445777259
 20
5.1159219641
 30
0.0
 11
5.6416191391
 21
5.1095675297
 31
0.0
 11
5.642284686
 21
5.111209793
 31
0.0
 11
5.6445777259
 21
5.1159219641
 31
0.0
  0
SPLINE
  5
29A
100
AcDbEntity
  8
0
100
AcDbSpline
 62
6
  6
CONTINUOUS
 70
0
 71
3
 72
9
 73
5
 74
3
 42
0.0000001
 43
0.0000001
 44
0.0000000001
 12
0.0035535659
 22
0.0065067737
 32
0.0
 13
0.0042666814
 23
0.006063115
 33
0.0
 40
0.0
 40
0.0
 40
0.0
 40
0.0
 40
0.2533836113
 40
1.0
 40
1.0
 40
1.0
 40
1.0
 10
5.6445777259
 20
5.1159219641
 30
0.0
 10
5.6448778643
 20
5.1164715341
 30
0.0
 10
5.6460967081
 20
5.1186216572
 30
0.0
 10
5.6474439318
 20
5.1206980538
 30
0.0
 10
5.6485057899
 20
5.1222069941
 30
0.0
 11
5.6445777259
 21
5.1159219641
 31
0.0
 11
5.6455037768
 21
5.1175564125
 31
0.0
 11
5.6485057899
 21
5.1222069941
 31
0.0
  0
LINE
  5
29B
100
AcDbEntity
  8
0
100
AcDbLine
 62
6
  6
CONTINUOUS
 10
5.6485057899
 20
5.1222069941
 11
5.65321136
 21
5.1282362933
  0
SPLINE
  5
29C
100
AcDbEntity
  8
0
100
AcDbSpline
 62
6
  6
CONTINUOUS
 70
0
 71
3
 72
9
 73
5
 74
3
 42
0.0000001
 43
0.0000001
 44
0.0000000001
 12
-0.0074425742
 22
-0.0024858604
 32
0.0
 13
-0.0078381021
 23
-0.0003681951
 33
0.0
 40
0.0
 40
0.0
 40
0.0
 40
0.0
 40
0.485049888
 40
1.0
 40
1.0
 40
1.0
 40
1.0
 10
5.7097045352
 20
5.0399693626
 30
0.0
 10
5.7085011953
 20
5.0395674405
 30
0.0
 10
5.7059571388
 20
5.0389190555
 30
0.0
 10
5.7033486865
 20
5.0386292098
 30
0.0
 10
5.702003276
 20
5.0385660091
 30
0.0
 11
5.7097045352
 21
5.0399693626
 31
0.0
 11
5.706018056
 21
5.0390227971
 31
0.0
 11
5.702003276
 21
5.0385660091
 31
0.0
  0
SPLINE
  5
29D
100
AcDbEntity
  8
0
100
AcDbSpline
 62
6
  6
CONTINUOUS
 70
0
 71
3
 72
9
 73
5
 74
3
 42
0.0000001
 43
0.0000001
 44
0.0000000001
 12
-0.0085670911
 22
-0.0004024394
 32
0.0
 13
-0.00843195
 23
0.0015681922
 33
0.0
 40
0.0
 40
0.0
 40
0.0
 40
0.0
 40
0.2368915278
 40
1.0
 40
1.0
 40
1.0
 40
1.0
 10
5.702003276
 20
5.0385660091
 30
0.0
 10
5.7013267855
 20
5.0385342309
 30
0.0
 10
5.6984669971
 20
5.0384915264
 30
0.0
 10
5.6956063449
 20
5.0388065383
 30
0.0
 10
5.6934615141
 20
5.0392054386
 30
0.0
 11
5.702003276
 21
5.0385660091
 31
0.0
 11
5.6999718178
 21
5.0385340724
 31
0.0
 11
5.6934615141
 21
5.0392054386
 31
0.0
  0
SPLINE
  5
29E
100
AcDbEntity
  8
0
100
AcDbSpline
 62
6
  6
CONTINUOUS
 70
0
 71
3
 72
9
 73
5
 74
3
 42
0.0000001
 43
0.0000001
 44
0.0000000001
 12
-0.0065617562
 22
0.001489262
 32
0.0
 13
-0.0063215224
 23
0.0023049731
 33
0.0
 40
0.0
 40
0.0
 40
0.0
 40
0.0
 40
0.2408875432
 40
1.0
 40
1.0
 40
1.0
 40
1.0
 10
5.6917111369
 20
5.0395671303
 30
0.0
 10
5.6911842551
 20
5.0396867119
 30
0.0
 10
5.6890056093
 20
5.0402207132
 30
0.0
 10
5.6868634097
 20
5.0409002371
 30
0.0
 10
5.6852638276
 20
5.0414834817
 30
0.0
 11
5.6917111369
 21
5.0395671303
 31
0.0
 11
5.6901367527
 21
5.0399524246
 31
0.0
 11
5.6852638276
 21
5.0414834817
 31
0.0
  0
SPLINE
  5
29F
100
AcDbEntity
  8
0
100
AcDbSpline
 62
6
  6
CONTINUOUS
 70
0
 71
3
 72
9
 73
5
 74
3
 42
0.0000001
 43
0.0000001
 44
0.0000000001
 12
-0.0091876386
 22
0.0034859602
 32
0.0
 13
-0.0086109521
 23
0.0047345672
 33
0.0
 40
0.0
 40
0.0
 40
0.0
 40
0.0
 40
0.2393233673
 40
1.0
 40
1.0
 40
1.0
 40
1.0
 10
5.684526284
 20
5.0417578723
 30
0.0
 10
5.6837933452
 20
5.0420359629
 30
0.0
 10
5.6807532254
 20
5.0432566849
 30
0.0
 10
5.6778051148
 20
5.0447027317
 30
0.0
 10
5.6756217314
 20
5.0459032233
 30
0.0
 11
5.684526284
 21
5.0417578723
 31
0.0
 11
5.6823434717
 21
5.0426331631
 31
0.0
 11
5.6756217314
 21
5.0459032233
 31
0.0
  0
SPLINE
  5
2A0
100
AcDbEntity
  8
0
100
AcDbSpline
 62
6
  6
CONTINUOUS
 70
0
 71
3
 72
9
 73
5
 74
3
 42
0.0000001
 43
0.0000001
 44
0.0000000001
 12
0.0091957553
 22
-0.0130053132
 32
0.0
 13
0.0054384753
 23
-0.0149707406
 33
0.0
 40
0.0
 40
0.0
 40
0.0
 40
0.0
 40
0.4753429668
 40
1.0
 40
1.0
 40
1.0
 40
1.0
 10
5.6862571475
 20
5.1638881017
 30
0.0
 10
5.6877141934
 20
5.1618274403
 30
0.0
 10
5.6904113816
 20
5.1572284281
 30
0.0
 10
5.6924866808
 20
5.1523276265
 30
0.0
 10
5.6934377922
 20
5.1497094584
 30
0.0
 11
5.6862571475
 21
5.1638881017
 31
0.0
 11
5.6901378559
 21
5.1573870345
 31
0.0
 11
5.6934377922
 21
5.1497094584
 31
0.0
  0
SPLINE
  5
2A1
100
AcDbEntity
  8
0
100
AcDbSpline
 62
6
  6
CONTINUOUS
 70
0
 71
3
 72
9
 73
5
 74
3
 42
0.0000001
 43
0.0000001
 44
0.0000000001
 12
0.0060964557
 22
-0.0167819934
 32
0.0
 13
0.0028634028
 23
-0.0176239325
 33
0.0
 40
0.0
 40
0.0
 40
0.0
 40
0.0
 40
0.4859093774
 40
1.0
 40
1.0
 40
1.0
 40
1.0
 10
5.6934377922
 20
5.1497094584
 30
0.0
 10
5.6944252339
 20
5.1469912824
 30
0.0
 10
5.6961537953
 20
5.1412844531
 30
0.0
 10
5.6973503345
 20
5.1354459259
 30
0.0
 10
5.6978410174
 20
5.1324258264
 30
0.0
 11
5.6934377922
 21
5.1497094584
 31
0.0
 11
5.6959794676
 21
5.1414141837
 31
0.0
 11
5.6978410174
 21
5.1324258264
 31
0.0
  0
SPLINE
  5
2A2
100
AcDbEntity
  8
0
100
AcDbSpline
 62
7
  6
CONTINUOUS
 70
0
 71
3
 72
9
 73
5
 74
3
 42
0.0000001
 43
0.0000001
 44
0.0000000001
 12
-0.001472314
 22
-0.0090619321
 32
0.0
 13
-0.0022664711
 23
-0.0088965966
 33
0.0
 40
0.0
 40
0.0
 40
0.0
 40
0.0
 40
0.2542704316
 40
1.0
 40
1.0
 40
1.0
 40
1.0
 10
5.6978410174
 20
5.0941077191
 30
0.0
 10
5.6977162288
 20
5.0933396586
 30
0.0
 10
5.6971936099
 20
5.0903243182
 30
0.0
 10
5.6965428591
 20
5.0873308468
 30
0.0
 10
5.6959794676
 20
5.0851193617
 30
0.0
 11
5.6978410174
 21
5.0941077191
 31
0.0
 11
5.6974421716
 21
5.0918076487
 31
0.0
 11
5.6959794676
 21
5.0851193617
 31
0.0
  0
SPLINE
  5
2A3
100
AcDbEntity
  8
0
100
AcDbSpline
 62
7
  6
CONTINUOUS
 70
0
 71
3
 72
10
 73
6
 74
4
 42
0.0000001
 43
0.0000001
 44
0.0000000001
 12
-0.0059343929
 22
-0.0232943191
 32
0.0
 13
-0.0136277142
 23
-0.0198022151
 33
0.0
 40
0.0
 40
0.0
 40
0.0
 40
0.0
 40
0.5315141935
 40
0.774406714
 40
1.0
 40
1.0
 40
1.0
 40
1.0
 10
5.6959794676
 20
5.0851193617
 30
0.0
 10
5.6949280629
 20
5.0809922747
 30
0.0
 10
5.6930002845
 20
5.0750587319
 30
0.0
 10
5.6895487974
 20
5.0678181892
 30
0.0
 10
5.6876043818
 20
5.0645968013
 30
0.0
 10
5.6865796082
 20
5.0631077191
 30
0.0
 11
5.6959794676
 21
5.0851193617
 31
0.0
 11
5.6919308127
 21
5.0730010661
 31
0.0
 11
5.6894010714
 21
5.0677388192
 31
0.0
 11
5.6865796082
 21
5.0631077191
 31
0.0
  0
SPLINE
  5
2A4
100
AcDbEntity
  8
0
100
AcDbSpline
 62
7
  6
CONTINUOUS
 70
0
 71
3
 72
12
 73
8
 74
6
 42
0.0000001
 43
0.0000001
 44
0.0000000001
 12
-0.01279391
 22
-0.0185906275
 32
0.0
 13
-0.0225675777
 23
0.0
 33
0.0
 40
0.0
 40
0.0
 40
0.0
 40
0.0
 40
0.2907154356
 40
0.549317336
 40
0.7818218602
 40
0.8918920927
 40
1.0
 40
1.0
 40
1.0
 40
1.0
 10
5.6865796082
 20
5.0631077191
 30
0.0
 10
5.6853398125
 20
5.0613061916
 30
0.0
 10
5.6827445916
 20
5.0580604566
 30
0.0
 10
5.678233286
 20
5.0542217574
 30
0.0
 10
5.6741246144
 20
5.0521867465
 30
0.0
 10
5.6708156575
 20
5.0513974358
 30
0.0
 10
5.6691715099
 20
5.0512667727
 30
0.0
 10
5.6683582654
 20
5.0512667727
 30
0.0
 11
5.6865796082
 21
5.0631077191
 31
0.0
 11
5.6824319709
 21
5.0580243682
 31
0.0
 11
5.6779377922
 21
5.0543012687
 31
0.0
 11
5.6732077338
 21
5.0520300956
 31
0.0
 11
5.6707904935
 21
5.0514579966
 31
0.0
 11
5.6683582654
 21
5.0512667727
 31
0.0
  0
LINE
  5
2A5
100
AcDbEntity
  8
0
100
AcDbLine
 62
6
  6
CONTINUOUS
 10
5.0237022166
 20
6.0532676787
 11
5.0248846113
 21
6.054807438
  0
SPLINE
  5
2A6
100
AcDbEntity
  8
0
100
AcDbSpline
 62
6
  6
CONTINUOUS
 70
0
 71
3
 72
36
 73
32
 74
30
 42
0.0000001
 43
0.0000001
 44
0.0000000001
 12
0.2594393674
 22
-0.2365644936
 32
0.0
 13
-0.0
 23
0.3511004771
 33
0.0
 40
0.0
 40
0.0
 40
0.0
 40
0.0
 40
0.0000935069
 40
0.0003740839
 40
0.0008417377
 40
0.0014964752
 40
0.002338303
 40
0.0033670784
 40
0.0059815256
 40
0.0093306565
 40
0.0134050583
 40
0.0181953206
 40
0.0236920251
 40
0.0298838494
 40
0.0367553094
 40
0.0524730346
 40
0.0707169307
 40
0.0913512649
 40
0.1142299661
 40
0.1392067797
 40
0.1661400553
 40
0.1948922351
 40
0.2573248625
 40
0.3255413929
 40
0.398706871
 40
0.4761155553
 40
0.5571780184
 40
0.6413959088
 40
0.8173451487
 40
0.9082066423
 40
1.0
 40
1.0
 40
1.0
 40
1.0
 10
5.8367003422
 20
6.0532676786
 30
0.0
 10
5.8367084286
 20
6.0532603051
 30
0.0
 10
5.836645836
 20
6.0533341221
 30
0.0
 10
5.836620543
 20
6.0533744745
 30
0.0
 10
5.8365007327
 20
6.0535262344
 30
0.0
 10
5.8363694577
 20
6.0536990214
 30
0.0
 10
5.8361860383
 20
6.0539371019
 30
0.0
 10
5.8358679173
 20
6.0543516236
 30
0.0
 10
5.8353685454
 20
6.0550018971
 30
0.0
 10
5.8346542192
 20
6.0559337004
 30
0.0
 10
5.8337851895
 20
6.0570689242
 30
0.0
 10
5.8327647382
 20
6.0584043488
 30
0.0
 10
5.8315951179
 20
6.059937802
 30
0.0
 10
5.8302795112
 20
6.0616661934
 30
0.0
 10
5.828242703
 20
6.0643489474
 30
0.0
 10
5.8253614345
 20
6.0681615114
 30
0.0
 10
5.821525874
 20
6.0732718021
 30
0.0
 10
5.8172097262
 20
6.0790691993
 30
0.0
 10
5.8124532959
 20
6.085521087
 30
0.0
 10
5.8072965977
 20
6.0925936137
 30
0.0
 10
5.8017814026
 20
6.1002552812
 30
0.0
 10
5.7937837307
 20
6.1115307573
 30
0.0
 10
5.7831737737
 20
6.1268763487
 30
0.0
 10
5.770000466
 20
6.1467642123
 30
0.0
 10
5.756401264
 20
6.1684645808
 30
0.0
 10
5.74274556
 20
6.1918889686
 30
0.0
 10
5.729447944
 20
6.2170017028
 30
0.0
 10
5.7126202016
 20
6.253223213
 30
0.0
 10
5.6990905555
 20
6.2922662661
 30
0.0
 10
5.691513642
 20
6.3336237725
 30
0.0
 10
5.6901743549
 20
6.3550238755
 30
0.0
 10
5.6901743549
 20
6.3657667727
 30
0.0
 11
5.8367003422
 21
6.0532676786
 31
0.0
 11
5.8366803456
 21
6.0532937164
 31
0.0
 11
5.8366203409
 21
6.0533718432
 31
0.0
 11
5.8365203265
 21
6.0535020608
 31
0.0
 11
5.8363803006
 21
6.0536843708
 31
0.0
 11
5.8362002615
 21
6.0539187749
 31
0.0
 11
5.8359802461
 21
6.0542052381
 31
0.0
 11
5.8354213059
 21
6.0549333783
 31
0.0
 11
5.8347058476
 21
6.0558665538
 31
0.0
 11
5.8338363042
 21
6.0570024651
 31
0.0
 11
5.8328151086
 21
6.0583388123
 31
0.0
 11
5.8316446968
 21
6.0598732937
 31
0.0
 11
5.8303280236
 21
6.061603161
 31
0.0
 11
5.8288691786
 21
6.0635246915
 31
0.0
 11
5.8255419309
 21
6.0679273355
 31
0.0
 11
5.8216969294
 21
6.0730503847
 31
0.0
 11
5.817370909
 21
6.0788617168
 31
0.0
 11
5.812604441
 21
6.085327428
 31
0.0
 11
5.807438421
 21
6.0924136193
 31
0.0
 11
5.8019144282
 21
6.1000886989
 31
0.0
 11
5.7960746107
 21
6.1083229943
 31
0.0
 11
5.7836162638
 21
6.1263585559
 31
0.0
 11
5.770401882
 21
6.1463341318
 31
0.0
 11
5.7567788813
 21
6.1681127798
 31
0.0
 11
5.7431182713
 21
6.1916083901
 31
0.0
 11
5.7298386221
 21
6.2167814589
 31
0.0
 11
5.7174376041
 21
6.2436242801
 31
0.0
 11
5.6978315766
 21
6.3022063663
 31
0.0
 11
5.6921569221
 21
6.3335991182
 31
0.0
 11
5.6901743549
 21
6.3657667727
 31
0.0
  0
SPLINE
  5
2A7
100
AcDbEntity
  8
0
100
AcDbSpline
 62
6
  6
CONTINUOUS
 70
0
 71
3
 72
9
 73
5
 74
3
 42
0.0000001
 43
0.0000001
 44
0.0000000001
 12
-0.0039086359
 22
-0.0004133303
 32
0.0
 13
-0.0036193484
 23
-0.0015325121
 33
0.0
 40
0.0
 40
0.0
 40
0.0
 40
0.0
 40
0.2452583427
 40
1.0
 40
1.0
 40
1.0
 40
1.0
 10
5.686009929
 20
5.1782981746
 30
0.0
 10
5.6856903872
 20
5.1782643837
 30
0.0
 10
5.6843930448
 20
5.1780763517
 30
0.0
 10
5.6831271904
 20
5.1776862656
 30
0.0
 10
5.6822166327
 20
5.1773007153
 30
0.0
 11
5.686009929
 21
5.1782981746
 31
0.0
 11
5.6850559131
 21
5.178159997
 31
0.0
 11
5.6822166327
 21
5.1773007153
 31
0.0
  0
SPLINE
  5
2A8
100
AcDbEntity
  8
0
100
AcDbSpline
 62
6
  6
CONTINUOUS
 70
0
 71
3
 72
9
 73
5
 74
3
 42
0.0000001
 43
0.0000001
 44
0.0000000001
 12
-0.0067859136
 22
-0.0028733058
 32
0.0
 13
-0.0052017848
 23
-0.0052197649
 33
0.0
 40
0.0
 40
0.0
 40
0.0
 40
0.0
 40
0.233490706
 40
1.0
 40
1.0
 40
1.0
 40
1.0
 10
5.6822166327
 20
5.1773007153
 30
0.0
 10
5.6816884834
 20
5.1770770853
 30
0.0
 10
5.6794823559
 20
5.1759869544
 30
0.0
 10
5.6775347924
 20
5.1744179715
 30
0.0
 10
5.6762057203
 20
5.1730843055
 30
0.0
 11
5.6822166327
 21
5.1773007153
 31
0.0
 11
5.6806723593
 21
5.1765419084
 31
0.0
 11
5.6762057203
 21
5.1730843055
 31
0.0
  0
SPLINE
  5
2A9
100
AcDbEntity
  8
0
100
AcDbSpline
 62
6
  6
CONTINUOUS
 70
0
 71
3
 72
9
 73
5
 74
3
 42
0.0000001
 43
0.0000001
 44
0.0000000001
 12
-0.006360177
 22
-0.0063821611
 32
0.0
 13
-0.0044829459
 23
-0.007815819
 33
0.0
 40
0.0
 40
0.0
 40
0.0
 40
0.0
 40
0.4751655918
 40
1.0
 40
1.0
 40
1.0
 40
1.0
 10
5.6762057203
 20
5.1730843055
 30
0.0
 10
5.6751983412
 20
5.1720734443
 30
0.0
 10
5.6732538918
 20
5.1697685262
 30
0.0
 10
5.6716241018
 20
5.1672372902
 30
0.0
 10
5.6708398337
 20
5.1658699533
 30
0.0
 11
5.6762057203
 21
5.1730843055
 31
0.0
 11
5.6734215148
 21
5.1698319101
 31
0.0
 11
5.6708398337
 21
5.1658699533
 31
0.0
  0
SPLINE
  5
2AA
100
AcDbEntity
  8
0
100
AcDbSpline
 62
6
  6
CONTINUOUS
 70
0
 71
3
 72
9
 73
5
 74
3
 42
0.0000001
 43
0.0000001
 44
0.0000000001
 12
-0.005234488
 22
-0.0091260995
 32
0.0
 13
-0.0034927759
 23
-0.009924015
 33
0.0
 40
0.0
 40
0.0
 40
0.0
 40
0.0
 40
0.4801088795
 40
1.0
 40
1.0
 40
1.0
 40
1.0
 10
5.6708398337
 20
5.1658699533
 30
0.0
 10
5.6700021256
 20
5.1644094461
 30
0.0
 10
5.6684240132
 20
5.161270406
 30
0.0
 10
5.6671336378
 20
5.1580048703
 30
0.0
 10
5.6665283501
 20
5.1562850678
 30
0.0
 11
5.6708398337
 21
5.1658699533
 31
0.0
 11
5.6685531187
 21
5.1613661262
 31
0.0
 11
5.6665283501
 21
5.1562850678
 31
0.0
  0
SPLINE
  5
2AB
100
AcDbEntity
  8
0
100
AcDbSpline
 62
6
  6
CONTINUOUS
 70
0
 71
3
 72
9
 73
5
 74
3
 42
0.0000001
 43
0.0000001
 44
0.0000000001
 12
0.0058180271
 22
-0.0008826664
 32
0.0
 13
0.0049944239
 23
-0.0031119559
 33
0.0
 40
0.0
 40
0.0
 40
0.0
 40
0.0
 40
0.4852708262
 40
1.0
 40
1.0
 40
1.0
 40
1.0
 10
5.6860198051
 20
5.1782265286
 30
0.0
 10
5.6869609114
 20
5.1780837512
 30
0.0
 10
5.6888709709
 20
5.177565297
 30
0.0
 10
5.6906302415
 20
5.1766683203
 30
0.0
 10
5.6914871667
 20
5.1761343822
 30
0.0
 11
5.6860198051
 21
5.1782265286
 31
0.0
 11
5.6887791948
 21
5.1774914324
 31
0.0
 11
5.6914871667
 21
5.1761343822
 31
0.0
  0
SPLINE
  5
2AC
100
AcDbEntity
  8
0
100
AcDbSpline
 62
6
  6
CONTINUOUS
 70
0
 71
3
 72
9
 73
5
 74
3
 42
0.0000001
 43
0.0000001
 44
0.0000000001
 12
0.0035822296
 22
-0.0022320373
 32
0.0
 13
0.0030553065
 23
-0.0029119515
 33
0.0
 40
0.0
 40
0.0
 40
0.0
 40
0.0
 40
0.2399830169
 40
1.0
 40
1.0
 40
1.0
 40
1.0
 10
5.6914871667
 20
5.1761343822
 30
0.0
 10
5.6917737248
 20
5.1759558318
 30
0.0
 10
5.6929463246
 20
5.1751774876
 30
0.0
 10
5.6940313451
 20
5.1742705153
 30
0.0
 10
5.6948053734
 20
5.1735328045
 30
0.0
 11
5.6914871667
 21
5.1761343822
 31
0.0
 11
5.692331489
 21
5.1755748451
 31
0.0
 11
5.6948053734
 21
5.1735328045
 31
0.0
  0
LINE
  5
2AD
100
AcDbEntity
  8
0
100
AcDbLine
 62
6
  6
CONTINUOUS
 10
5.6948053734
 20
5.1735328045
 11
5.6972234188
 21
5.1708963826
  0
SPLINE
  5
2AE
100
AcDbEntity
  8
0
100
AcDbSpline
 62
6
  6
CONTINUOUS
 70
0
 71
3
 72
9
 73
5
 74
3
 42
0.0000001
 43
0.0000001
 44
0.0000000001
 12
0.0059135697
 22
-0.0073063412
 32
0.0
 13
0.0041199507
 23
-0.0084486054
 33
0.0
 40
0.0
 40
0.0
 40
0.0
 40
0.0
 40
0.4769566293
 40
1.0
 40
1.0
 40
1.0
 40
1.0
 10
5.6972234188
 20
5.1708963826
 30
0.0
 10
5.6981635909
 20
5.16973478
 30
0.0
 10
5.6999639008
 20
5.1671591228
 30
0.0
 10
5.7014660116
 20
5.1644029778
 30
0.0
 10
5.7021843159
 20
5.1629299821
 30
0.0
 11
5.6972234188
 21
5.1708963826
 31
0.0
 11
5.6998130938
 21
5.1672367677
 31
0.0
 11
5.7021843159
 21
5.1629299821
 31
0.0
  0
SPLINE
  5
2AF
100
AcDbEntity
  8
0
100
AcDbSpline
 62
6
  6
CONTINUOUS
 70
0
 71
3
 72
9
 73
5
 74
3
 42
0.0000001
 43
0.0000001
 44
0.0000000001
 12
0.0047288685
 22
-0.0096972868
 32
0.0
 13
0.0030982964
 23
-0.0103344147
 33
0.0
 40
0.0
 40
0.0
 40
0.0
 40
0.0
 40
0.236691265
 40
1.0
 40
1.0
 40
1.0
 40
1.0
 10
5.7021843159
 20
5.1629299821
 30
0.0
 10
5.7025574098
 20
5.1621648944
 30
0.0
 10
5.7040566708
 20
5.1588950362
 30
0.0
 10
5.7052653747
 20
5.1554956021
 30
0.0
 10
5.7060536936
 20
5.1528661524
 30
0.0
 11
5.7021843159
 21
5.1629299821
 31
0.0
 11
5.703250856
 21
5.1606097415
 31
0.0
 11
5.7060536936
 21
5.1528661524
 31
0.0
  0
SPLINE
  5
2B0
100
AcDbEntity
  8
0
100
AcDbSpline
 62
6
  6
CONTINUOUS
 70
0
 71
3
 72
9
 73
5
 74
3
 42
0.0000001
 43
0.0000001
 44
0.0000000001
 12
0.0034627615
 22
-0.0115500936
 32
0.0
 13
0.0019451492
 23
-0.0119000745
 33
0.0
 40
0.0
 40
0.0
 40
0.0
 40
0.0
 40
0.2404738461
 40
1.0
 40
1.0
 40
1.0
 40
1.0
 10
5.7060536936
 20
5.1528661524
 30
0.0
 10
5.7063312615
 20
5.1519403206
 30
0.0
 10
5.7074158307
 20
5.1480695429
 30
0.0
 10
5.708234857
 20
5.1441260074
 30
0.0
 10
5.7087273209
 20
5.1411132015
 30
0.0
 11
5.7060536936
 21
5.1528661524
 31
0.0
 11
5.7068375268
 21
5.1500744716
 31
0.0
 11
5.7087273209
 21
5.1411132015
 31
0.0
  0
SPLINE
  5
2B1
100
AcDbEntity
  8
0
100
AcDbSpline
 62
6
  6
CONTINUOUS
 70
0
 71
3
 72
9
 73
5
 74
3
 42
0.0000001
 43
0.0000001
 44
0.0000000001
 12
-0.0048478412
 22
-0.0267664533
 32
0.0
 13
-0.0117376656
 23
-0.0245391889
 33
0.0
 40
0.0
 40
0.0
 40
0.0
 40
0.0
 40
0.5162515709
 40
1.0
 40
1.0
 40
1.0
 40
1.0
 10
5.7081862189
 20
5.0988754545
 30
0.0
 10
5.7073519836
 20
5.09426938
 30
0.0
 10
5.7052297785
 20
5.0854298604
 30
0.0
 10
5.7019830312
 20
5.0769250785
 30
0.0
 10
5.7000903388
 20
5.0729681472
 30
0.0
 11
5.7081862189
 21
5.0988754545
 31
0.0
 11
5.7048610921
 21
5.0852317611
 31
0.0
 11
5.7000903388
 21
5.0729681472
 31
0.0
  0
SPLINE
  5
2B2
100
AcDbEntity
  8
0
100
AcDbSpline
 62
6
  6
CONTINUOUS
 70
0
 71
3
 72
9
 73
5
 74
3
 42
0.0000001
 43
0.0000001
 44
0.0000000001
 12
-0.0053270426
 22
-0.0103648199
 32
0.0
 13
-0.0071602329
 23
-0.0091944515
 33
0.0
 40
0.0
 40
0.0
 40
0.0
 40
0.0
 40
0.2611822011
 40
1.0
 40
1.0
 40
1.0
 40
1.0
 10
5.6991126725
 20
5.0709964547
 30
0.0
 10
5.6986488963
 20
5.0700940858
 30
0.0
 10
5.6968034247
 20
5.0666762033
 30
0.0
 10
5.6946681015
 20
5.063409133
 30
0.0
 10
5.6929047323
 20
5.0611447915
 30
0.0
 11
5.6991126725
 21
5.0709964547
 31
0.0
 11
5.6976651151
 21
5.0683189935
 31
0.0
 11
5.6929047323
 21
5.0611447915
 31
0.0
  0
LINE
  5
2B3
100
AcDbEntity
  8
0
100
AcDbLine
 62
6
  6
CONTINUOUS
 10
5.6929047323
 20
5.0611447915
 11
5.6899390057
 21
5.0576840291
  0
LINE
  5
2B4
100
AcDbEntity
  8
0
100
AcDbLine
 62
6
  6
CONTINUOUS
 10
5.6899390057
 20
5.0576840291
 11
5.6868264858
 21
5.0547273494
  0
SPLINE
  5
2B5
100
AcDbEntity
  8
0
100
AcDbSpline
 62
6
  6
CONTINUOUS
 70
0
 71
3
 72
10
 73
6
 74
4
 42
0.0000001
 43
0.0000001
 44
0.0000000001
 12
-0.0112653966
 22
-0.0095555226
 32
0.0
 13
-0.014617607
 23
-0.0021313698
 33
0.0
 40
0.0
 40
0.0
 40
0.0
 40
0.0
 40
0.5216762462
 40
0.7647940886
 40
1.0
 40
1.0
 40
1.0
 40
1.0
 10
5.6868264858
 20
5.0547273494
 30
0.0
 10
5.6848675225
 20
5.0530657196
 30
0.0
 10
5.6817063885
 20
5.0509185367
 30
0.0
 10
5.6771207448
 20
5.0490860245
 30
0.0
 10
5.6748137532
 20
5.0485548252
 30
0.0
 10
5.673667704
 20
5.0483877216
 30
0.0
 11
5.6868264858
 21
5.0547273494
 31
0.0
 11
5.6803940611
 21
5.0504834283
 31
0.0
 11
5.6770551241
 21
5.0491607392
 31
0.0
 11
5.673667704
 21
5.0483877216
 31
0.0
  0
LINE
  5
2B6
100
AcDbEntity
  8
0
100
AcDbLine
 62
6
  6
CONTINUOUS
 10
5.6743657589
 20
5.17966158
 11
5.6721723641
 21
5.1756663612
  0
SPLINE
  5
2B7
100
AcDbEntity
  8
0
100
AcDbSpline
 62
6
  6
CONTINUOUS
 70
0
 71
3
 72
9
 73
5
 74
3
 42
0.0000001
 43
0.0000001
 44
0.0000000001
 12
0.0069351298
 22
-0.0036347157
 32
0.0
 13
0.0054840831
 23
-0.0055885611
 33
0.0
 40
0.0
 40
0.0
 40
0.0
 40
0.0
 40
0.2363075519
 40
1.0
 40
1.0
 40
1.0
 40
1.0
 10
5.6762170978
 20
5.1732413039
 30
0.0
 10
5.6767633723
 20
5.1729550003
 30
0.0
 10
5.6790195602
 20
5.1716375752
 30
0.0
 10
5.6810359199
 20
5.1699318245
 30
0.0
 10
5.6824319709
 20
5.1685091772
 30
0.0
 11
5.6762170978
 21
5.1732413039
 31
0.0
 11
5.6778162885
 21
5.1723106807
 31
0.0
 11
5.6824319709
 21
5.1685091772
 31
0.0
  0
SPLINE
  5
2B8
100
AcDbEntity
  8
0
100
AcDbSpline
 62
6
  6
CONTINUOUS
 70
0
 71
3
 72
9
 73
5
 74
3
 42
0.0000001
 43
0.0000001
 44
0.0000000001
 12
0.0042042171
 22
-0.0042843122
 32
0.0
 13
0.0034654839
 23
-0.0049011421
 33
0.0
 40
0.0
 40
0.0
 40
0.0
 40
0.0
 40
0.2401923228
 40
1.0
 40
1.0
 40
1.0
 40
1.0
 10
5.6824319709
 20
5.1685091772
 30
0.0
 10
5.6827685778
 20
5.1681661576
 30
0.0
 10
5.684137584
 20
5.1667063659
 30
0.0
 10
5.6853794471
 20
5.1651294102
 30
0.0
 10
5.6862571475
 20
5.1638881017
 30
0.0
 11
5.6824319709
 21
5.1685091772
 31
0.0
 11
5.6834188922
 21
5.1674581366
 31
0.0
 11
5.6862571475
 21
5.1638881017
 31
0.0
  0
LINE
  5
2B9
100
AcDbEntity
  8
0
100
AcDbLine
 62
6
  6
CONTINUOUS
 10
5.6706618065
 20
5.1703273542
 11
5.6736661486
 21
5.1736624135
  0
SPLINE
  5
2BA
100
AcDbEntity
  8
0
100
AcDbSpline
 62
6
  6
CONTINUOUS
 70
0
 71
3
 72
9
 73
5
 74
3
 42
0.0000001
 43
0.0000001
 44
0.0000000001
 12
0.0011426911
 22
0.0172706563
 32
0.0
 13
-0.001195214
 23
0.0172671009
 33
0.0
 40
0.0
 40
0.0
 40
0.0
 40
0.0
 40
0.2527668034
 40
1.0
 40
1.0
 40
1.0
 40
1.0
 10
5.7130867593
 20
5.1132667727
 30
0.0
 10
5.7131830374
 20
5.1147219223
 30
0.0
 10
5.7134669427
 20
5.1204847
 30
0.0
 10
5.7133725931
 20
5.1262670213
 30
0.0
 10
5.7130748919
 20
5.1305678717
 30
0.0
 11
5.7130867593
 21
5.1132667727
 31
0.0
 11
5.713302394
 21
5.1176364487
 31
0.0
 11
5.7130748919
 21
5.1305678717
 31
0.0
  0
SPLINE
  5
2BB
100
AcDbEntity
  8
0
100
AcDbSpline
 62
6
  6
CONTINUOUS
 70
0
 71
3
 72
9
 73
5
 74
3
 42
0.0000001
 43
0.0000001
 44
0.0000000001
 12
-0.0007156678
 22
0.0103391598
 32
0.0
 13
-0.0016474331
 23
0.0102321244
 33
0.0
 40
0.0
 40
0.0
 40
0.0
 40
0.0
 40
0.2547755298
 40
1.0
 40
1.0
 40
1.0
 40
1.0
 10
5.7130748919
 20
5.1305678717
 30
0.0
 10
5.7130141137
 20
5.1314459267
 30
0.0
 10
5.7127381315
 20
5.1348895723
 30
0.0
 10
5.7123122066
 20
5.1383215796
 30
0.0
 10
5.7119029707
 20
5.1408633228
 30
0.0
 11
5.7130748919
 21
5.1305678717
 31
0.0
 11
5.7128637538
 21
5.1331998845
 31
0.0
 11
5.7119029707
 21
5.1408633228
 31
0.0
  0
SPLINE
  5
2BC
100
AcDbEntity
  8
0
100
AcDbSpline
 62
6
  6
CONTINUOUS
 70
0
 71
3
 72
10
 73
6
 74
4
 42
0.0000001
 43
0.0000001
 44
0.0000000001
 12
-0.0037386033
 22
0.0232202782
 32
0.0
 13
-0.010476077
 23
0.0210573096
 33
0.0
 40
0.0
 40
0.0
 40
0.0
 40
0.0
 40
0.5309891009
 40
0.7740756689
 40
1.0
 40
1.0
 40
1.0
 40
1.0
 10
5.7119029707
 20
5.1408633228
 30
0.0
 10
5.7112412515
 20
5.1449732277
 30
0.0
 10
5.7099300024
 20
5.1509238869
 30
0.0
 10
5.707395164
 20
5.1583486628
 30
0.0
 10
5.7059213141
 20
5.1617239576
 30
0.0
 10
5.7051323805
 20
5.1633097438
 30
0.0
 11
5.7119029707
 21
5.1408633228
 31
0.0
 11
5.709136025
 21
5.1530414477
 31
0.0
 11
5.7072751053
 21
5.1584473434
 31
0.0
 11
5.7051323805
 21
5.1633097438
 31
0.0
  0
LINE
  5
2BD
100
AcDbEntity
  8
0
100
AcDbLine
 62
6
  6
CONTINUOUS
 10
5.7051323805
 20
5.1633097438
 11
5.7030350664
 21
5.1670967179
  0
LINE
  5
2BE
100
AcDbEntity
  8
0
100
AcDbLine
 62
6
  6
CONTINUOUS
 10
5.7030350664
 20
5.1670967179
 11
5.7001180717
 21
5.171189817
  0
LINE
  5
2BF
100
AcDbEntity
  8
0
100
AcDbLine
 62
6
  6
CONTINUOUS
 10
5.7001180717
 20
5.171189817
 11
5.6972636778
 21
5.1741535288
  0
SPLINE
  5
2C0
100
AcDbEntity
  8
0
100
AcDbSpline
 62
6
  6
CONTINUOUS
 70
0
 71
3
 72
11
 73
7
 74
5
 42
0.0000001
 43
0.0000001
 44
0.0000000001
 12
-0.0082807073
 22
0.0072993066
 32
0.0
 13
-0.0110385679
 23
0.0000031777
 33
0.0
 40
0.0
 40
0.0
 40
0.0
 40
0.0
 40
0.273871338
 40
0.5280560739
 40
0.767861097
 40
1.0
 40
1.0
 40
1.0
 40
1.0
 10
5.6972636778
 20
5.1741535288
 30
0.0
 10
5.6965077283
 20
5.1748198858
 30
0.0
 10
5.6949623654
 20
5.1760113297
 30
0.0
 10
5.6924638122
 20
5.1773599688
 30
0.0
 10
5.689904202
 20
5.1781807942
 30
0.0
 10
5.6881626921
 20
5.1783663865
 30
0.0
 10
5.6873085317
 20
5.1783666324
 30
0.0
 11
5.6972636778
 21
5.1741535288
 31
0.0
 11
5.6948582481
 21
5.1759847385
 31
0.0
 11
5.6923815647
 21
5.1773033562
 31
0.0
 11
5.6898570652
 21
5.1780996367
 31
0.0
 11
5.6873085317
 21
5.1783666324
 31
0.0
  0
SPLINE
  5
2C1
100
AcDbEntity
  8
0
100
AcDbSpline
 62
6
  6
CONTINUOUS
 70
0
 71
3
 72
9
 73
5
 74
3
 42
0.0000001
 43
0.0000001
 44
0.0000000001
 12
0.0041982867
 22
-0.0091664542
 32
0.0
 13
0.0052016581
 23
-0.0086366803
 33
0.0
 40
0.0
 40
0.0
 40
0.0
 40
0.0
 40
0.2567823633
 40
1.0
 40
1.0
 40
1.0
 40
1.0
 10
5.6529653424
 20
5.0626706417
 30
0.0
 10
5.6533246911
 20
5.0618860471
 30
0.0
 10
5.6547635684
 20
5.0588489228
 30
0.0
 10
5.656363203
 20
5.0558868799
 30
0.0
 10
5.6576518577
 20
5.0537472356
 30
0.0
 11
5.6529653424
 21
5.0626706417
 31
0.0
 11
5.6540742476
 21
5.0603312379
 31
0.0
 11
5.6576518577
 21
5.0537472356
 31
0.0
  0
SPLINE
  5
2C2
100
AcDbEntity
  8
0
100
AcDbSpline
 62
6
  6
CONTINUOUS
 70
0
 71
3
 72
9
 73
5
 74
3
 42
0.0000001
 43
0.0000001
 44
0.0000000001
 12
-0.0034365748
 22
0.0145242538
 32
0.0
 13
-0.0055195631
 23
0.0138671705
 33
0.0
 40
0.0
 40
0.0
 40
0.0
 40
0.0
 40
0.5144919024
 40
1.0
 40
1.0
 40
1.0
 40
1.0
 10
5.7266221813
 20
5.1552645169
 30
0.0
 10
5.726032818
 20
5.1577553872
 30
0.0
 10
5.7247309188
 20
5.1625614895
 30
0.0
 10
5.7230862578
 20
5.1672629019
 30
0.0
 10
5.7221929936
 20
5.1695071098
 30
0.0
 11
5.7266221813
 21
5.1552645169
 31
0.0
 11
5.7246024551
 21
5.162673077
 31
0.0
 11
5.7221929936
 21
5.1695071098
 31
0.0
  0
SPLINE
  5
2C3
100
AcDbEntity
  8
0
100
AcDbSpline
 62
6
  6
CONTINUOUS
 70
0
 71
3
 72
9
 73
5
 74
3
 42
0.0000001
 43
0.0000001
 44
0.0000000001
 12
-0.0048045498
 22
0.0120707944
 32
0.0
 13
-0.0070045343
 23
0.0109418589
 33
0.0
 40
0.0
 40
0.0
 40
0.0
 40
0.0
 40
0.5199645136
 40
1.0
 40
1.0
 40
1.0
 40
1.0
 10
5.7221929936
 20
5.1695071098
 30
0.0
 10
5.7213602618
 20
5.171599238
 30
0.0
 10
5.7195989587
 20
5.1755618676
 30
0.0
 10
5.7174734621
 20
5.1793450907
 30
0.0
 10
5.7163526537
 20
5.1810959176
 30
0.0
 11
5.7221929936
 21
5.1695071098
 31
0.0
 11
5.7194301671
 21
5.1756715867
 31
0.0
 11
5.7163526537
 21
5.1810959176
 31
0.0
  0
SPLINE
  5
2C4
100
AcDbEntity
  8
0
100
AcDbSpline
 62
6
  6
CONTINUOUS
 70
0
 71
3
 72
9
 73
5
 74
3
 42
0.0000001
 43
0.0000001
 44
0.0000000001
 12
-0.00435041
 22
0.0067958225
 32
0.0
 13
-0.0055101671
 23
0.0058946865
 33
0.0
 40
0.0
 40
0.0
 40
0.0
 40
0.0
 40
0.262741578
 40
1.0
 40
1.0
 40
1.0
 40
1.0
 10
5.7163526537
 20
5.1810959176
 30
0.0
 10
5.7159716426
 20
5.1816910993
 30
0.0
 10
5.7144770714
 20
5.1839271016
 30
0.0
 10
5.7127973518
 20
5.1860433072
 30
0.0
 10
5.7114432127
 20
5.1874919429
 30
0.0
 11
5.7163526537
 21
5.1810959176
 31
0.0
 11
5.7151734892
 21
5.1828578109
 31
0.0
 11
5.7114432127
 21
5.1874919429
 31
0.0
  0
SPLINE
  5
2C5
100
AcDbEntity
  8
0
100
AcDbSpline
 62
6
  6
CONTINUOUS
 70
0
 71
3
 72
11
 73
7
 74
5
 42
0.0000001
 43
0.0000001
 44
0.0000000001
 12
0.0175754507
 22
-0.0000000096
 32
0.0
 13
0.0134806263
 23
0.0112769313
 33
0.0
 40
0.0
 40
0.0
 40
0.0
 40
0.0
 40
0.2351802325
 40
0.4767302144
 40
0.730256409
 40
1.0
 40
1.0
 40
1.0
 40
1.0
 10
5.6737709321
 20
5.0481667727
 30
0.0
 10
5.6751487316
 20
5.048166772
 30
0.0
 10
5.6779489115
 20
5.0484480019
 30
0.0
 10
5.6820667599
 20
5.0496933998
 30
0.0
 10
5.6860751635
 20
5.0517419324
 30
0.0
 10
5.6885623912
 20
5.0535557808
 30
0.0
 10
5.6897744953
 20
5.0545697408
 30
0.0
 11
5.6737709321
 21
5.0481667727
 31
0.0
 11
5.6778842547
 21
5.0485736648
 31
0.0
 11
5.6819523298
 21
5.0497876496
 31
0.0
 11
5.6859302577
 21
5.0517952788
 31
0.0
 11
5.6897744953
 21
5.0545697408
 31
0.0
  0
SPLINE
  5
2C6
100
AcDbEntity
  8
0
100
AcDbSpline
 62
6
  6
CONTINUOUS
 70
0
 71
3
 72
9
 73
5
 74
3
 42
0.0000001
 43
0.0000001
 44
0.0000000001
 12
0.0102155452
 22
0.0098700513
 32
0.0
 13
0.0071682645
 23
0.0122634115
 33
0.0
 40
0.0
 40
0.0
 40
0.0
 40
0.0
 40
0.4790879644
 40
1.0
 40
1.0
 40
1.0
 40
1.0
 10
5.6917771133
 20
5.0563732214
 30
0.0
 10
5.6934084949
 20
5.057949429
 30
0.0
 10
5.6965383455
 20
5.0615296246
 30
0.0
 10
5.6991533859
 20
5.0654920503
 30
0.0
 10
5.7003980643
 20
5.0676214365
 30
0.0
 11
5.6917771133
 21
5.0563732214
 31
0.0
 11
5.6962892805
 21
5.0614676177
 31
0.0
 11
5.7003980643
 21
5.0676214365
 31
0.0
  0
SPLINE
  5
2C7
100
AcDbEntity
  8
0
100
AcDbSpline
 62
6
  6
CONTINUOUS
 70
0
 71
3
 72
9
 73
5
 74
3
 42
0.0000001
 43
0.0000001
 44
0.0000000001
 12
0.0122425341
 22
0.0249703565
 32
0.0
 13
0.0049901111
 23
0.0273586757
 33
0.0
 40
0.0
 40
0.0
 40
0.0
 40
0.0
 40
0.4830180763
 40
1.0
 40
1.0
 40
1.0
 40
1.0
 10
5.7028932328
 20
5.0722821654
 30
0.0
 10
5.7048643546
 20
5.0763025432
 30
0.0
 10
5.7082406527
 20
5.0849783257
 30
0.0
 10
5.7104341511
 20
5.0940109554
 30
0.0
 10
5.7112940835
 20
5.0987256023
 30
0.0
 11
5.7028932328
 21
5.0722821654
 31
0.0
 11
5.7078500258
 21
5.0847669175
 31
0.0
 11
5.7112940835
 21
5.0987256023
 31
0.0
  0
SPLINE
  5
2C8
100
AcDbEntity
  8
0
100
AcDbSpline
 62
6
  6
CONTINUOUS
 70
0
 71
3
 72
11
 73
7
 74
5
 42
0.0000001
 43
0.0000001
 44
0.0000000001
 12
-0.0047040278
 22
-0.0214098638
 32
0.0
 13
-0.0123782116
 23
-0.0180911587
 33
0.0
 40
0.0
 40
0.0
 40
0.0
 40
0.0
 40
0.2842853341
 40
0.5453869738
 40
0.7834757662
 40
1.0
 40
1.0
 40
1.0
 40
1.0
 10
5.7174117589
 20
5.060362843
 30
0.0
 10
5.7169659968
 20
5.0583340063
 30
0.0
 10
5.71601748
 20
5.0544609544
 30
0.0
 10
5.7142820705
 20
5.0489993285
 30
0.0
 10
5.7122504831
 20
5.0441714943
 30
0.0
 10
5.7105979295
 20
5.0412750874
 30
0.0
 10
5.7097045352
 20
5.0399693626
 30
0.0
 11
5.7174117589
 21
5.060362843
 31
0.0
 11
5.7159066459
 21
5.0543156473
 31
0.0
 11
5.7141459417
 21
5.0488697083
 31
0.0
 11
5.7120899503
 21
5.0440727063
 31
0.0
 11
5.7097045352
 21
5.0399693626
 31
0.0
  0
SPLINE
  5
2C9
100
AcDbEntity
  8
0
100
AcDbSpline
 62
6
  6
CONTINUOUS
 70
0
 71
3
 72
9
 73
5
 74
3
 42
0.0000001
 43
0.0000001
 44
0.0000000001
 12
-0.0077242871
 22
-0.0548061178
 32
0.0
 13
-0.0047378032
 23
-0.0551446134
 33
0.0
 40
0.0
 40
0.0
 40
0.0
 40
0.0
 40
0.4951041043
 40
1.0
 40
1.0
 40
1.0
 40
1.0
 10
5.7266221813
 20
5.1552645169
 30
0.0
 10
5.7253474059
 20
5.1462196056
 30
0.0
 10
5.7230747076
 20
5.1279074513
 30
0.0
 10
5.7213110138
 20
5.1095408422
 30
0.0
 10
5.720513648
 20
5.1002600792
 30
0.0
 11
5.7266221813
 21
5.1552645169
 31
0.0
 11
5.7232217327
 21
5.1280734117
 31
0.0
 11
5.720513648
 21
5.1002600792
 31
0.0
  0
LINE
  5
2CA
100
AcDbEntity
  8
0
100
AcDbLine
 62
6
  6
CONTINUOUS
 10
5.720513648
 20
5.1002600792
 11
5.7174117589
 21
5.060362843
  0
SPLINE
  5
2CB
100
AcDbEntity
  8
0
100
AcDbSpline
 62
6
  6
CONTINUOUS
 70
0
 71
3
 72
11
 73
7
 74
5
 42
0.0000001
 43
0.0000001
 44
0.0000000001
 12
0.0047274119
 22
-0.0224323442
 32
0.0
 13
-0.000379718
 23
-0.0229219175
 33
0.0
 40
0.0
 40
0.0
 40
0.0
 40
0.0
 40
0.2203946071
 40
0.4608983679
 40
0.7210706122
 40
1.0
 40
1.0
 40
1.0
 40
1.0
 10
5.7250733708
 20
5.1780948169
 30
0.0
 10
5.7254206695
 20
5.1764468277
 30
0.0
 10
5.725975718
 20
5.1729638129
 30
0.0
 10
5.7264586122
 20
5.1674719667
 30
0.0
 10
5.726669811
 20
5.161516145
 30
0.0
 10
5.7266574862
 20
5.1573957157
 30
0.0
 10
5.7266221813
 20
5.1552645169
 30
0.0
 11
5.7250733708
 21
5.1780948169
 31
0.0
 11
5.7258951615
 21
5.1731095362
 31
0.0
 11
5.7263993695
 21
5.1676190754
 31
0.0
 11
5.7266278443
 21
5.161658988
 31
0.0
 11
5.7266221813
 21
5.1552645169
 31
0.0
  0
SPLINE
  5
2CC
100
AcDbEntity
  8
0
100
AcDbSpline
 62
6
  6
CONTINUOUS
 70
0
 71
3
 72
9
 73
5
 74
3
 42
0.0000001
 43
0.0000001
 44
0.0000000001
 12
0.0059065955
 22
0.0118977588
 32
0.0
 13
0.0043856523
 23
0.0125383646
 33
0.0
 40
0.0
 40
0.0
 40
0.0
 40
0.0
 40
0.242657953
 40
1.0
 40
1.0
 40
1.0
 40
1.0
 10
5.6901267397
 20
5.0599136416
 30
0.0
 10
5.6906045005
 20
5.0608760036
 30
0.0
 10
5.6925051949
 20
5.0648756042
 30
0.0
 10
5.6941428585
 20
5.0689985431
 30
0.0
 10
5.6952500048
 20
5.07216382
 30
0.0
 11
5.6901267397
 21
5.0599136416
 31
0.0
 11
5.6915114497
 21
5.0628243359
 31
0.0
 11
5.6952500048
 21
5.07216382
 31
0.0
  0
SPLINE
  5
2CD
100
AcDbEntity
  8
0
100
AcDbSpline
 62
6
  6
CONTINUOUS
 70
0
 71
3
 72
9
 73
5
 74
3
 42
0.0000001
 43
0.0000001
 44
0.0000000001
 12
0.011895607
 22
0.0340089568
 32
0.0
 13
0.0031810895
 23
0.0358886512
 33
0.0
 40
0.0
 40
0.0
 40
0.0
 40
0.0
 40
0.4890060933
 40
1.0
 40
1.0
 40
1.0
 40
1.0
 10
5.6952500048
 20
5.07216382
 30
0.0
 10
5.6971890129
 20
5.077707349
 30
0.0
 10
5.7003367636
 20
5.0893379416
 30
0.0
 10
5.7020654898
 20
5.1012517948
 30
0.0
 10
5.7026073289
 20
5.1073647555
 30
0.0
 11
5.6952500048
 21
5.07216382
 31
0.0
 11
5.6999282244
 21
5.0891499455
 31
0.0
 11
5.7026073289
 21
5.1073647555
 31
0.0
  0
SPLINE
  5
2CE
100
AcDbEntity
  8
0
100
AcDbSpline
 62
6
  6
CONTINUOUS
 70
0
 71
3
 72
9
 73
5
 74
3
 42
0.0000001
 43
0.0000001
 44
0.0000000001
 12
-0.0004419978
 22
0.0179338096
 32
0.0
 13
-0.0025474667
 23
0.0177574576
 33
0.0
 40
0.0
 40
0.0
 40
0.0
 40
0.0
 40
0.2546548958
 40
1.0
 40
1.0
 40
1.0
 40
1.0
 10
5.7032004625
 20
5.1258802559
 30
0.0
 10
5.7031629436
 20
5.1274025667
 30
0.0
 10
5.7029303973
 20
5.1333779554
 30
0.0
 10
5.7023599583
 20
5.1393413233
 30
0.0
 10
5.7017270443
 20
5.1437531346
 30
0.0
 11
5.7032004625
 21
5.1258802559
 31
0.0
 11
5.7030225934
 21
5.1304451112
 31
0.0
 11
5.7017270443
 21
5.1437531346
 31
0.0
  0
SPLINE
  5
2CF
100
AcDbEntity
  8
0
100
AcDbSpline
 62
6
  6
CONTINUOUS
 70
0
 71
3
 72
9
 73
5
 74
3
 42
0.0000001
 43
0.0000001
 44
0.0000000001
 12
-0.0023686426
 22
0.0165109398
 32
0.0
 13
-0.0045436241
 23
0.0160492081
 33
0.0
 40
0.0
 40
0.0
 40
0.0
 40
0.0
 40
0.2585926189
 40
1.0
 40
1.0
 40
1.0
 40
1.0
 10
5.7017270443
 20
5.1437531346
 30
0.0
 10
5.7015228732
 20
5.145176337
 30
0.0
 10
5.7006486662
 20
5.1506671732
 30
0.0
 10
5.6994346703
 20
5.1561064852
 30
0.0
 10
5.6983117781
 20
5.160072819
 30
0.0
 11
5.7017270443
 21
5.1437531346
 31
0.0
 11
5.7010480245
 21
5.148012671
 31
0.0
 11
5.6983117781
 21
5.160072819
 31
0.0
  0
SPLINE
  5
2D0
100
AcDbEntity
  8
0
100
AcDbSpline
 62
6
  6
CONTINUOUS
 70
0
 71
3
 72
9
 73
5
 74
3
 42
0.0000001
 43
0.0000001
 44
0.0000000001
 12
-0.004048681
 22
0.0143009463
 32
0.0
 13
-0.0063426018
 23
0.0134417367
 33
0.0
 40
0.0
 40
0.0
 40
0.0
 40
0.0
 40
0.5172091061
 40
1.0
 40
1.0
 40
1.0
 40
1.0
 10
5.6983117781
 20
5.160072819
 30
0.0
 10
5.6976137732
 20
5.1625383455
 30
0.0
 10
5.6960954386
 20
5.1672597127
 30
0.0
 10
5.6941990162
 20
5.1718446846
 30
0.0
 10
5.6931782994
 20
5.1740078673
 30
0.0
 11
5.6983117781
 21
5.160072819
 31
0.0
 11
5.6959420398
 21
5.1673857273
 31
0.0
 11
5.6931782994
 21
5.1740078673
 31
0.0
  0
SPLINE
  5
2D1
100
AcDbEntity
  8
0
100
AcDbSpline
 62
6
  6
CONTINUOUS
 70
0
 71
3
 72
9
 73
5
 74
3
 42
0.0000001
 43
0.0000001
 44
0.0000000001
 12
0.0096803423
 22
0.0079087136
 32
0.0
 13
0.0075167341
 23
0.0099877669
 33
0.0
 40
0.0
 40
0.0
 40
0.0
 40
0.0
 40
0.2373183234
 40
1.0
 40
1.0
 40
1.0
 40
1.0
 10
5.7011328694
 20
5.0385564364
 30
0.0
 10
5.7018986436
 20
5.039182064
 30
0.0
 10
5.705032245
 20
5.0419320603
 30
0.0
 10
5.7077944144
 20
5.0450910317
 30
0.0
 10
5.7097053728
 20
5.0476301939
 30
0.0
 11
5.7011328694
 21
5.0385564364
 31
0.0
 11
5.7033650466
 21
5.0405103465
 31
0.0
 11
5.7097053728
 21
5.0476301939
 31
0.0
  0
SPLINE
  5
2D2
100
AcDbEntity
  8
0
100
AcDbSpline
 62
6
  6
CONTINUOUS
 70
0
 71
3
 72
9
 73
5
 74
3
 42
0.0000001
 43
0.0000001
 44
0.0000000001
 12
0.0089595711
 22
0.0119049187
 32
0.0
 13
0.0065554115
 23
0.013380119
 33
0.0
 40
0.0
 40
0.0
 40
0.0
 40
0.0
 40
0.4847673453
 40
1.0
 40
1.0
 40
1.0
 40
1.0
 10
5.7097053728
 20
5.0476301939
 30
0.0
 10
5.711153142
 20
5.0495538992
 30
0.0
 10
5.7139188235
 20
5.0536909362
 30
0.0
 10
5.7162859048
 20
5.0580648849
 30
0.0
 10
5.7174117589
 20
5.060362843
 30
0.0
 11
5.7097053728
 21
5.0476301939
 31
0.0
 11
5.7137408954
 21
5.0536205742
 31
0.0
 11
5.7174117589
 21
5.060362843
 31
0.0
  0
ENDSEC
  0
SECTION
  2
OBJECTS
  0
DICTIONARY
  5
C
100
AcDbDictionary
280
0
281
1
  3
ACAD_GROUP
350
D
  3
ACAD_MLINESTYLE
350
17
  3
ACAD_LAYOUT
350
1A
  3
ACAD_PLOTSETTINGS
350
19
  3
ACAD_PLOTSTYLENAME
350
E
  0
DICTIONARY
  5
D
102
{ACAD_REACTORS
330
C
102
}
100
AcDbDictionary
280
0
281
1
  0
ACDBDICTIONARYWDFLT
  5
E
102
{ACAD_REACTORS
330
C
102
}
100
AcDbDictionary
281
1
  3
Normal
350
F
100
AcDbDictionaryWithDefault
340
F
  0
DICTIONARY
  5
17
102
{ACAD_REACTORS
330
C
102
}
100
AcDbDictionary
280
0
281
1
  3
Standard
350
18
  0
DICTIONARY
  5
19
102
{ACAD_REACTORS
330
C
102
}
100
AcDbDictionary
281
1
  0
DICTIONARY
  5
1A
102
{ACAD_REACTORS
330
C
102
}
100
AcDbDictionary
281
1
  3
Model
350
2D3
  3
Layout1
350
2D4
  0
ACDBPLACEHOLDER
  5
F
102
{ACAD_REACTORS
330
E
102
}
  0
MLINESTYLE
  5
18
102
{ACAD_REACTORS
330
17
102
}
100
AcDbMlineStyle
  2
STANDARD
 70
0
  3

 62
256
 51
90.0
 52
90.0
 71
2
 49
0.5
 62
256
  6
BYLAYER
 49
-0.5
 62
256
  6
BYLAYER
  0
LAYOUT
  5
2D3
102
{ACAD_REACTORS
330
1A
102
}
100
AcDbPlotSettings
  1

  2
none_device
  4
ISO_A3_(420.00_x_297.00_MM)
  6

 40
0.0
 41
0.0
 42
0.0
 43
0.0
 44
420.0
 45
297.0
 46
0.0
 47
0.0
 48
0.0
 49
0.0
140
0.0
141
0.0
142
1.0
143
1.0
 70
1024
 72
0
 73
0
 74
0
  7

 75
0
147
1.0
148
0.0
149
0.0
100
AcDbLayout
  1
Model
 70
0
 71
0
 10
0.0
 20
0.0
 11
16.5354330709
 21
11.6929133858
 12
0.0
 22
0.0
 32
0.0
 14
0.0
 24
0.0
 34
0.0
 15
0.0
 25
0.0
 35
0.0
146
0.0
 13
0.0
 23
0.0
 33
0.0
 16
1.0
 26
0.0
 36
0.0
 17
0.0
 27
1.0
 37
0.0
 76
0
330
203
345
0
346
0
  0
LAYOUT
  5
2D4
102
{ACAD_REACTORS
330
1A
102
}
100
AcDbPlotSettings
  1

  2
none_device
  4
ISO_A3_(420.00_x_297.00_MM)
  6

 40
0.0
 41
0.0
 42
0.0
 43
0.0
 44
420.0
 45
297.0
 46
0.0
 47
0.0
 48
0.0
 49
0.0
140
0.0
141
0.0
142
1.0
143
1.0
 70
0
 72
0
 73
0
 74
0
  7

 75
0
147
1.0
148
0.0
149
0.0
100
AcDbLayout
  1
Layout1
 70
0
 71
1
 10
0.0
 20
0.0
 11
16.5354330709
 21
11.6929133858
 12
0.0
 22
0.0
 32
0.0
 14
0.0
 24
0.0
 34
0.0
 15
0.0
 25
0.0
 35
0.0
146
0.0
 13
0.0
 23
0.0
 33
0.0
 16
1.0
 26
0.0
 36
0.0
 17
0.0
 27
1.0
 37
0.0
 76
0
330
204
345
0
346
0
  0
ENDSEC
  0
EOF
