  0
SECTION
  2
HEADER
  9
$ACADVER
  1
AC1015
  9
$DWGCODEPAGE
  3
ANSI_1252
  9
$EXTMAX
 10
8.2677165354
 20
11.6929133858
 30
0.0
  9
$EXTMIN
 10
0.0
 20
0.0
 30
0.0
  9
$LIMMIN
 10
0.0
 20
0.0
  9
$LIMMAX
 10
8.2677165354
 20
11.6929133858
  9
$VIEWCTR
 10
4.1338582677
 20
5.8464566929
  9
$VIEWSIZE
 40
11.6929133858
  9
$CLAYER
  8
0
  9
$LTSCALE
 40
0.7622047244
  9
$CELTYPE
  6
BYLAYER
  9
$DIMSCALE
 40
1.0
  9
$DIMASZ
 40
0.1
  9
$DIMEXO
 40
0.0866141732
  9
$DIMDLI
 40
0.5266141732
  9
$DIMEXE
 40
0.2494488189
  9
$DIMCEN
 40
0.1247244094
  9
$DIMLFAC
 40
1.0
  9
$DIMBLK
  1
_FILLED
  9
$DIMTXT
 40
0.08
  9
$DIMTOL
 70
1
  9
$DIMLIM
 70
0
  9
$DIMTFAC
 40
1.0
  9
$DIMTP
 40
0.01
  9
$DIMTM
 40
0.01
  9
$PDMODE
 70
3
  9
$PDSIZE
 40
0.06
  9
$HANDSEED
  5
2C4
  9
$TILEMODE
 70
1
  9
$MEASUREMENT
 70
0
  9
$INSUNITS
 70
1
  0
ENDSEC
  0
SECTION
  2
CLASSES
  0
CLASS
  1
ACDBDICTIONARYWDFLT
  2
AcDbDictionaryWithDefault
  3
AutoCAD 2000
 90
0
280
0
281
0
  0
CLASS
  1
ACDBPLACEHOLDER
  2
AcDbPlaceHolder
  3
AutoCAD 2000
 90
0
280
0
281
0
  0
CLASS
  1
LAYOUT
  2
AcDbLayout
  3
AutoCAD 2000
 90
0
280
0
281
0
  0
ENDSEC
  0
SECTION
  2
TABLES
  0
TABLE
  2
VPORT
  5
8
100
AcDbSymbolTable
 70
2
  0
VPORT
  5
1F4
100
AcDbSymbolTableRecord
100
AcDbViewportTableRecord
  2
*ACTIVE
 70
0
 10
0.0
 20
0.0
 11
1.0
 21
1.0
 12
4.1338582677
 22
5.8464566929
 13
0.0
 23
0.0
 14
1.0
 24
1.0
 15
0.0
 25
0.0
 16
0.0
 26
0.0
 36
1.0
 17
0.0
 27
0.0
 37
0.0
 40
11.6929133858
 41
0.7070707071
 42
50.0
 43
0.0
 44
0.0
 50
0.0
 51
0.0
 71
0
 72
100
 73
1
 74
1
 75
0
 76
0
 77
0
 78
0
  0
ENDTAB
  0
TABLE
  2
LTYPE
  5
5
100
AcDbSymbolTable
 70
6
  0
LTYPE
  5
14
100
AcDbSymbolTableRecord
100
AcDbLinetypeTableRecord
  2
BYBLOCK
 70
0
  3

 72
65
 73
0
 40
0.0
  0
LTYPE
  5
15
100
AcDbSymbolTableRecord
100
AcDbLinetypeTableRecord
  2
BYLAYER
 70
0
  3

 72
65
 73
0
 40
0.0
  0
LTYPE
  5
16
100
AcDbSymbolTableRecord
100
AcDbLinetypeTableRecord
  2
CONTINUOUS
 70
64
  3
Solid line
 72
65
 73
0
 40
0.0
  0
LTYPE
  5
1F5
100
AcDbSymbolTableRecord
100
AcDbLinetypeTableRecord
  2
CENTER
 70
64
  3
____ _ ____ _ ____ _ ____ _ ____ _ ____ _ ____
 72
65
 73
4
 40
0.6
 49
0.375
 74
0
 49
-0.075
 74
0
 49
0.075
 74
0
 49
-0.075
 74
0
  0
LTYPE
  5
1F6
100
AcDbSymbolTableRecord
100
AcDbLinetypeTableRecord
  2
HIDDEN
 70
64
  3
- - - - - - - - - - - - - - - - - - - -
 72
65
 73
2
 40
0.2
 49
0.1
 74
0
 49
-0.1
 74
0
  0
LTYPE
  5
1F7
100
AcDbSymbolTableRecord
100
AcDbLinetypeTableRecord
  2
PHANTOM
 70
64
  3
_____ _ _ _____ _ _ _____ _ _ _____
 72
65
 73
6
 40
0.8
 49
0.45
 74
0
 49
-0.05
 74
0
 49
0.1
 74
0
 49
-0.05
 74
0
 49
0.1
 74
0
 49
-0.05
 74
0
  0
LTYPE
  5
1F8
100
AcDbSymbolTableRecord
100
AcDbLinetypeTableRecord
  2
DOT
 70
64
  3
. . . . . . . . . . . . . . . . . . . .
 72
65
 73
2
 40
0.2
 49
0.1
 74
0
 49
-0.1
 74
0
  0
LTYPE
  5
1F9
100
AcDbSymbolTableRecord
100
AcDbLinetypeTableRecord
  2
DASHED
 70
64
  3
- - - - - - - - - - - - - - - - - - - -
 72
65
 73
2
 40
0.2
 49
0.1
 74
0
 49
-0.1
 74
0
  0
ENDTAB
  0
TABLE
  2
LAYER
  5
2
100
AcDbSymbolTable
 70
36
  0
LAYER
  5
10
100
AcDbSymbolTableRecord
100
AcDbLayerTableRecord
  2
0
 70
0
 62
7
  6
CONTINUOUS
370
-3
390
F
  0
LAYER
  5
1FA
100
AcDbSymbolTableRecord
100
AcDbLayerTableRecord
  2
DEFAULT_1
 70
0
 62
7
  6
CENTER
370
-3
390
F
  0
LAYER
  5
1FB
100
AcDbSymbolTableRecord
100
AcDbLayerTableRecord
  2
DEFAULT_2
 70
0
 62
8
  6
HIDDEN
370
-3
390
F
  0
LAYER
  5
1FC
100
AcDbSymbolTableRecord
100
AcDbLayerTableRecord
  2
DEFAULT_3
 70
0
 62
7
  6
PHANTOM
370
-3
390
F
  0
LAYER
  5
1FD
100
AcDbSymbolTableRecord
100
AcDbLayerTableRecord
  2
DEFAULT_COORDINATE_SYSTEM
 70
0
 62
7
  6
CONTINUOUS
370
-3
390
F
  0
LAYER
  5
1FE
100
AcDbSymbolTableRecord
100
AcDbLayerTableRecord
  2
DEFAULT_DATUM_AXES
 70
0
 62
7
  6
CONTINUOUS
370
-3
390
F
  0
LAYER
  5
1FF
100
AcDbSymbolTableRecord
100
AcDbLayerTableRecord
  2
DEFAULT_DATUM_CURVES
 70
0
 62
7
  6
CONTINUOUS
370
-3
390
F
  0
LAYER
  5
200
100
AcDbSymbolTableRecord
100
AcDbLayerTableRecord
  2
DEFAULT_DATUM_PLANES
 70
0
 62
7
  6
CONTINUOUS
370
-3
390
F
  0
ENDTAB
  0
TABLE
  2
STYLE
  5
3
100
AcDbSymbolTable
 70
1
  0
STYLE
  5
11
100
AcDbSymbolTableRecord
100
AcDbTextStyleTableRecord
  2
STANDARD
 70
0
 40
0.0
 41
0.8
 50
0.0
 71
0
 42
0.2
  3
txt
  4

  0
STYLE
  5
201
100
AcDbSymbolTableRecord
100
AcDbTextStyleTableRecord
  2
TEXTSTYLE_1
 70
0
 40
0.0
 41
0.8
 50
0.0
 71
0
 42
0.2
  3
gdt
  4

  0
ENDTAB
  0
TABLE
  2
VIEW
  5
6
100
AcDbSymbolTable
 70
0
  0
ENDTAB
  0
TABLE
  2
UCS
  5
7
100
AcDbSymbolTable
 70
0
  0
ENDTAB
  0
TABLE
  2
APPID
  5
9
100
AcDbSymbolTable
 70
1
  0
APPID
  5
202
100
AcDbSymbolTableRecord
100
AcDbRegAppTableRecord
  2
ACAD
 70
0
  0
ENDTAB
  0
TABLE
  2
BLOCK_RECORD
  5
1
100
AcDbSymbolTable
 70
0
  0
BLOCK_RECORD
  5
203
100
AcDbSymbolTableRecord
100
AcDbBlockTableRecord
  2
*Model_Space
  0
BLOCK_RECORD
  5
204
100
AcDbSymbolTableRecord
100
AcDbBlockTableRecord
  2
*Paper_Space
  0
ENDTAB
  0
TABLE
  2
DIMSTYLE
  5
A
100
AcDbSymbolTable
 70
1
100
AcDbDimStyleTable
 71
0
  0
DIMSTYLE
105
205
100
AcDbSymbolTableRecord
100
AcDbDimStyleTableRecord
  2
STANDARD
 70
0
  3

  4

 40
1.0
 41
0.1
 42
0.0625
 43
0.38
 44
0.18
 45
0.0
 46
0.0
 47
0.01
 48
0.01
140
0.08
141
0.09
142
0.0
143
25.4
144
1.0
145
0.0
146
1.0
147
0.09
 71
1.0
 72
0.0
 73
1
 74
1
 75
0
 76
0
 77
0
 78
4
170
0
171
2
172
0
173
0
174
0
175
0
176
0
177
0
178
0
270
2
271
2
272
2
273
2
274
2
275
0
280
0
281
0
282
0
283
1
284
4
285
0
286
0
287
3
288
0
340
11
  0
ENDTAB
  0
ENDSEC
  0
SECTION
  2
BLOCKS
  0
BLOCK
  5
20
100
AcDbEntity
  8
0
100
AcDbBlockBegin
  2
*Model_Space
 70
0
 10
0.0
 20
0.0
 30
0.0
  3
*Model_Space
  1

  0
ENDBLK
  5
21
100
AcDbEntity
  8
0
100
AcDbBlockEnd
  0
BLOCK
  5
1C
100
AcDbEntity
  8
0
100
AcDbBlockBegin
  2
*Paper_Space
 70
0
 10
0.0
 20
0.0
 30
0.0
  3
*Paper_Space
  1

  0
ENDBLK
  5
1D
100
AcDbEntity
  8
0
100
AcDbBlockEnd
  0
ENDSEC
  0
SECTION
  2
ENTITIES
  0
LWPOLYLINE
  5
206
100
AcDbEntity
  8
0
100
AcDbPolyline
 62
6
  6
CONTINUOUS
 90
40
 70
0
 10
4.7574733658
 20
0.3503911783
 10
4.8161745673
 20
0.3511966007
 10
4.8737277454
 20
0.3536060053
 10
4.9289288067
 20
0.3575263383
 10
4.9815595902
 20
0.3628470476
 10
5.0313987551
 20
0.3694255906
 10
5.0782375159
 20
0.3770822687
 10
5.1220133532
 20
0.3856480776
 10
5.1630442481
 20
0.3950215264
 10
5.2017053318
 20
0.4051517764
 10
5.2382379298
 20
0.4159993229
 10
5.2728048722
 20
0.4275133397
 10
5.3055604759
 20
0.4396619052
 10
5.3365558945
 20
0.452395259
 10
5.3658052897
 20
0.4656365313
 10
5.3933302993
 20
0.4793135307
 10
5.419141524
 20
0.4933541338
 10
5.4432536505
 20
0.5076695015
 10
5.4657025935
 20
0.5221787047
 10
5.4865793769
 20
0.5368517149
 10
5.5060037815
 20
0.551680115
 10
5.5240953501
 20
0.5666655346
 10
5.5409132915
 20
0.5817896434
 10
5.5564904908
 20
0.5970131504
 10
5.570871675
 20
0.6122976961
 10
5.5841044859
 20
0.627611053
 10
5.5962260999
 20
0.642923482
 10
5.6072801425
 20
0.6582098907
 10
5.6173168556
 20
0.6734517526
 10
5.6263886538
 20
0.6886415305
 10
5.6345460043
 20
0.7037855642
 10
5.6418365387
 20
0.7189013245
 10
5.6482968905
 20
0.7340000515
 10
5.6539572771
 20
0.749082922
 10
5.6588432002
 20
0.7641483092
 10
5.6629738506
 20
0.7791999099
 10
5.6663600516
 20
0.794234125
 10
5.669016053
 20
0.8092378316
 10
5.6709594437
 20
0.8241983967
 10
5.6721563687
 20
0.8383867335
  0
LINE
  5
207
100
AcDbEntity
  8
0
100
AcDbLine
 62
6
  6
CONTINUOUS
 10
4.7571030345
 20
0.3503914468
 11
4.7574604346
 21
0.3503914819
  0
LINE
  5
208
100
AcDbEntity
  8
0
100
AcDbLine
 62
6
  6
CONTINUOUS
 10
3.2966318246
 20
0.3503914468
 11
4.757103035
 21
0.3503914468
  0
LINE
  5
209
100
AcDbEntity
  8
0
100
AcDbLine
 62
9
  6
CONTINUOUS
 10
3.3517010659
 20
0.3976282852
 11
4.4448345377
 21
0.3976282851
  0
LINE
  5
20A
100
AcDbEntity
  8
0
100
AcDbLine
 62
9
  6
CONTINUOUS
 10
4.6407590178
 20
0.4240825163
 11
4.7852056684
 21
0.4240825163
  0
LINE
  5
20B
100
AcDbEntity
  8
0
100
AcDbLine
 62
9
  6
CONTINUOUS
 10
4.4626026187
 20
0.4414857438
 11
3.2008411756
 21
0.4414856065
  0
LINE
  5
20C
100
AcDbEntity
  8
0
100
AcDbLine
 62
9
  6
CONTINUOUS
 10
2.979314463
 20
0.8416652436
 11
2.7967483732
 21
0.8416760079
  0
LINE
  5
20D
100
AcDbEntity
  8
0
100
AcDbLine
 62
6
  6
CONTINUOUS
 10
2.7913363065
 20
1.1503914468
 11
5.6914876481
 21
1.1503914468
  0
LINE
  5
20E
100
AcDbEntity
  8
0
100
AcDbLine
 62
6
  6
CONTINUOUS
 10
2.9754088158
 20
1.2303914468
 11
4.4154082343
 21
1.2303914468
  0
LINE
  5
20F
100
AcDbEntity
  8
0
100
AcDbLine
 62
6
  6
CONTINUOUS
 10
4.5579082343
 20
1.5307061137
 11
3.3929082343
 21
1.5307061137
  0
LINE
  5
210
100
AcDbEntity
  8
0
100
AcDbLine
 62
6
  6
CONTINUOUS
 10
4.5579082343
 20
1.6107061137
 11
3.3929082343
 21
1.6107061137
  0
LINE
  5
211
100
AcDbEntity
  8
0
100
AcDbLine
 62
6
  6
CONTINUOUS
 10
3.415411809
 20
1.8107061137
 11
4.5354046595
 21
1.8107061137
  0
LINE
  5
212
100
AcDbEntity
  8
0
100
AcDbLine
 62
6
  6
CONTINUOUS
 10
3.9754082343
 20
2.0157061137
 11
4.1964575405
 21
2.0157061137
  0
LINE
  5
213
100
AcDbEntity
  8
0
100
AcDbLine
 62
6
  6
CONTINUOUS
 10
3.6929782343
 20
2.0330670363
 11
3.7329082343
 21
2.0330670363
  0
LINE
  5
214
100
AcDbEntity
  8
0
100
AcDbLine
 62
6
  6
CONTINUOUS
 10
3.9754082343
 20
2.0330670363
 11
4.2578382343
 21
2.0330670363
  0
LINE
  5
215
100
AcDbEntity
  8
0
100
AcDbLine
 62
6
  6
CONTINUOUS
 10
3.6929782343
 20
2.0757061137
 11
4.2578382343
 21
2.0757061137
  0
LINE
  5
216
100
AcDbEntity
  8
0
100
AcDbLine
 62
6
  6
CONTINUOUS
 10
3.6632828849
 20
1.8277549218
 11
3.6927731811
 21
1.8107061137
  0
LINE
  5
217
100
AcDbEntity
  8
0
100
AcDbLine
 62
6
  6
CONTINUOUS
 10
3.6632828842
 20
1.8833149329
 11
3.6928744619
 21
1.8662075667
  0
LINE
  5
218
100
AcDbEntity
  8
0
100
AcDbLine
 62
6
  6
CONTINUOUS
 10
3.6928744619
 20
1.8662075667
 11
3.6929782344
 21
1.8661475685
  0
LINE
  5
219
100
AcDbEntity
  8
0
100
AcDbLine
 62
6
  6
CONTINUOUS
 10
3.6632828846
 20
1.9388749016
 11
3.6928744628
 21
1.9217675351
  0
LINE
  5
21A
100
AcDbEntity
  8
0
100
AcDbLine
 62
6
  6
CONTINUOUS
 10
3.6928744628
 20
1.9217675351
 11
3.6929782354
 21
1.9217075367
  0
LINE
  5
21B
100
AcDbEntity
  8
0
100
AcDbLine
 62
6
  6
CONTINUOUS
 10
3.6632828849
 20
1.9944349245
 11
3.6928744625
 21
1.9773275584
  0
LINE
  5
21C
100
AcDbEntity
  8
0
100
AcDbLine
 62
6
  6
CONTINUOUS
 10
3.6928744625
 20
1.9773275584
 11
3.6929782351
 21
1.97726756
  0
LINE
  5
21D
100
AcDbEntity
  8
0
100
AcDbLine
 62
6
  6
CONTINUOUS
 10
4.2824875545
 20
1.8107061137
 11
4.2579420064
 21
1.824896536
  0
LINE
  5
21E
100
AcDbEntity
  8
0
100
AcDbLine
 62
6
  6
CONTINUOUS
 10
4.2579420064
 20
1.824896536
 11
4.2578382338
 21
1.8249565343
  0
LINE
  5
21F
100
AcDbEntity
  8
0
100
AcDbLine
 62
6
  6
CONTINUOUS
 10
4.2875335847
 20
1.8633491452
 11
4.2579420063
 21
1.8804565117
  0
LINE
  5
220
100
AcDbEntity
  8
0
100
AcDbLine
 62
6
  6
CONTINUOUS
 10
4.2579420063
 20
1.8804565117
 11
4.2578382339
 21
1.8805165099
  0
LINE
  5
221
100
AcDbEntity
  8
0
100
AcDbLine
 62
6
  6
CONTINUOUS
 10
4.2875335838
 20
1.9189091454
 11
4.2579420058
 21
1.9360165117
  0
LINE
  5
222
100
AcDbEntity
  8
0
100
AcDbLine
 62
6
  6
CONTINUOUS
 10
4.2579420058
 20
1.9360165117
 11
4.2578382331
 21
1.9360765101
  0
LINE
  5
223
100
AcDbEntity
  8
0
100
AcDbLine
 62
6
  6
CONTINUOUS
 10
4.2818964053
 20
2.0191770448
 11
4.2578382343
 21
2.0330670363
  0
LINE
  5
224
100
AcDbEntity
  8
0
100
AcDbLine
 62
6
  6
CONTINUOUS
 10
4.287533584
 20
1.974469171
 11
4.2579420064
 21
1.991576537
  0
LINE
  5
225
100
AcDbEntity
  8
0
100
AcDbLine
 62
6
  6
CONTINUOUS
 10
4.2579420064
 20
1.991576537
 11
4.2578382339
 21
1.9916365354
  0
LINE
  5
226
100
AcDbEntity
  8
0
100
AcDbLine
 62
6
  6
CONTINUOUS
 10
3.6632828849
 20
1.8277549218
 11
3.6629082343
 21
1.828187963
  0
LINE
  5
227
100
AcDbEntity
  8
0
100
AcDbLine
 62
6
  6
CONTINUOUS
 10
3.6632828842
 20
1.8833149329
 11
3.6629082343
 21
1.8837479732
  0
LINE
  5
228
100
AcDbEntity
  8
0
100
AcDbLine
 62
6
  6
CONTINUOUS
 10
3.6929782344
 20
1.8663870506
 11
3.6933926024
 21
1.8659079927
  0
LINE
  5
229
100
AcDbEntity
  8
0
100
AcDbLine
 62
6
  6
CONTINUOUS
 10
3.6632828846
 20
1.9388749016
 11
3.6629082343
 21
1.9393079424
  0
LINE
  5
22A
100
AcDbEntity
  8
0
100
AcDbLine
 62
6
  6
CONTINUOUS
 10
3.6929782354
 20
1.9219470191
 11
3.6933926037
 21
1.9214679607
  0
LINE
  5
22B
100
AcDbEntity
  8
0
100
AcDbLine
 62
6
  6
CONTINUOUS
 10
3.6629082343
 20
1.9948679758
 11
3.6632828849
 21
1.9944349245
  0
LINE
  5
22C
100
AcDbEntity
  8
0
100
AcDbLine
 62
6
  6
CONTINUOUS
 10
4.2574238663
 20
1.8807560855
 11
4.2578382339
 21
1.880277028
  0
LINE
  5
22D
100
AcDbEntity
  8
0
100
AcDbLine
 62
6
  6
CONTINUOUS
 10
4.2875335847
 20
1.8633491452
 11
4.2879082343
 21
1.8629161052
  0
LINE
  5
22E
100
AcDbEntity
  8
0
100
AcDbLine
 62
6
  6
CONTINUOUS
 10
4.2875335838
 20
1.9189091454
 11
4.2879082343
 21
1.9184761043
  0
LINE
  5
22F
100
AcDbEntity
  8
0
100
AcDbLine
 62
6
  6
CONTINUOUS
 10
4.2879082343
 20
1.9740361302
 11
4.287533584
 21
1.974469171
  0
LINE
  5
230
100
AcDbEntity
  8
0
100
AcDbLine
 62
6
  6
CONTINUOUS
 10
3.9254082343
 20
8.6703914468
 11
3.8752301988
 21
8.6202134113
  0
LWPOLYLINE
  5
231
100
AcDbEntity
  8
0
100
AcDbPolyline
 62
6
  6
CONTINUOUS
 90
37
 70
0
 10
2.7967483772
 20
0.8416753617
 10
2.7975537225
 20
0.8207174298
 10
2.7993000471
 20
0.799198182
 10
2.8019737244
 20
0.7777743855
 10
2.8055697691
 20
0.7564859855
 10
2.810081476
 20
0.7353726746
 10
2.8155004329
 20
0.7144738191
 10
2.8218165356
 20
0.6938283853
 10
2.8290180074
 20
0.6734748671
 10
2.8370914207
 20
0.6534512139
 10
2.8460217221
 20
0.6337947602
 10
2.8557922605
 20
0.6145421555
 10
2.8663848181
 20
0.5957292965
 10
2.8777796447
 20
0.5773912598
 10
2.889955494
 20
0.5595622368
 10
2.9028896636
 20
0.5422754694
 10
2.9165580372
 20
0.5255631889
 10
2.9309351296
 20
0.509456555
 10
2.9459941343
 20
0.4939855983
 10
2.9617069733
 20
0.4791791641
 10
2.9780443496
 20
0.4650648587
 10
2.994975802
 20
0.4516689976
 10
3.0124697613
 20
0.4390165572
 10
3.03049361
 20
0.4271311274
 10
3.0490137423
 20
0.416034868
 10
3.0679956275
 20
0.4057484677
 10
3.0874038738
 20
0.3962911049
 10
3.1072022945
 20
0.3876804123
 10
3.1273539757
 20
0.3799324441
 10
3.1478213446
 20
0.373061646
 10
3.1685662401
 20
0.3670808281
 10
3.1895499834
 20
0.3620011414
 10
3.2107334508
 20
0.3578320566
 10
3.2320771456
 20
0.3545813466
 10
3.253541273
 20
0.3522550721
 10
3.2750858136
 20
0.3508575704
 10
3.2966705972
 20
0.3503914468
  0
LINE
  5
232
100
AcDbEntity
  8
0
100
AcDbLine
 62
6
  6
CONTINUOUS
 10
2.7913647695
 20
1.1503914468
 11
2.7967471664
 21
0.841675323
  0
LINE
  5
233
100
AcDbEntity
  8
0
100
AcDbLine
 62
9
  6
CONTINUOUS
 10
2.7972091481
 20
1.1503914468
 11
2.8025512443
 21
0.8416652436
  0
LINE
  5
234
100
AcDbEntity
  8
0
100
AcDbLine
 62
9
  6
CONTINUOUS
 10
2.974980769
 20
1.1503914468
 11
2.979314463
 21
0.8416652436
  0
LINE
  5
235
100
AcDbEntity
  8
0
100
AcDbLine
 62
6
  6
CONTINUOUS
 10
2.9754082343
 20
1.2303914468
 11
2.9754082343
 21
1.1503914468
  0
LINE
  5
236
100
AcDbEntity
  8
0
100
AcDbLine
 62
9
  6
CONTINUOUS
 10
3.1852727965
 20
1.2303914468
 11
3.1852727965
 21
1.1503914468
  0
LINE
  5
237
100
AcDbEntity
  8
0
100
AcDbLine
 62
6
  6
CONTINUOUS
 10
3.3929082343
 20
1.6107061137
 11
3.3929082343
 21
1.5307061137
  0
LINE
  5
238
100
AcDbEntity
  8
0
100
AcDbLine
 62
6
  6
CONTINUOUS
 10
3.4154082363
 20
1.8107061137
 11
3.4154082363
 21
1.6107061137
  0
LINE
  5
239
100
AcDbEntity
  8
0
100
AcDbLine
 62
9
  6
CONTINUOUS
 10
3.4254563311
 20
1.8107061137
 11
3.4254563311
 21
1.6107061137
  0
LINE
  5
23A
100
AcDbEntity
  8
0
100
AcDbLine
 62
6
  6
CONTINUOUS
 10
3.6604082343
 20
1.2303914468
 11
3.6604082343
 21
1.5307061137
  0
LINE
  5
23B
100
AcDbEntity
  8
0
100
AcDbLine
 62
6
  6
CONTINUOUS
 10
3.6629082343
 20
1.828187963
 11
3.6629082343
 21
1.8351361279
  0
LINE
  5
23C
100
AcDbEntity
  8
0
100
AcDbLine
 62
6
  6
CONTINUOUS
 10
3.6629082343
 20
1.8837479732
 11
3.6629082343
 21
1.8906960958
  0
LINE
  5
23D
100
AcDbEntity
  8
0
100
AcDbLine
 62
6
  6
CONTINUOUS
 10
3.6629082343
 20
1.9393079424
 11
3.6629082343
 21
1.9462561194
  0
LINE
  5
23E
100
AcDbEntity
  8
0
100
AcDbLine
 62
6
  6
CONTINUOUS
 10
3.6629082343
 20
1.9948679657
 11
3.6629082343
 21
2.0018161254
  0
LINE
  5
23F
100
AcDbEntity
  8
0
100
AcDbLine
 62
6
  6
CONTINUOUS
 10
3.6679949878
 20
1.6107061137
 11
3.6679949878
 21
1.8107061137
  0
LINE
  5
240
100
AcDbEntity
  8
0
100
AcDbLine
 62
6
  6
CONTINUOUS
 10
3.6737112653
 20
1.2303914468
 11
3.6737112653
 21
1.1503914468
  0
LINE
  5
241
100
AcDbEntity
  8
0
100
AcDbLine
 62
6
  6
CONTINUOUS
 10
3.6929782351
 20
1.9775070426
 11
3.6929782351
 21
1.9638565251
  0
LINE
  5
242
100
AcDbEntity
  8
0
100
AcDbLine
 62
6
  6
CONTINUOUS
 10
3.6929782354
 20
1.9219470191
 11
3.6929782354
 21
1.9082965014
  0
LINE
  5
243
100
AcDbEntity
  8
0
100
AcDbLine
 62
6
  6
CONTINUOUS
 10
3.6929782344
 20
1.8663870506
 11
3.6929782344
 21
1.8527365326
  0
LINE
  5
244
100
AcDbEntity
  8
0
100
AcDbLine
 62
6
  6
CONTINUOUS
 10
3.6929782352
 20
1.8108270399
 11
3.6929782352
 21
1.8107061137
  0
LINE
  5
245
100
AcDbEntity
  8
0
100
AcDbLine
 62
6
  6
CONTINUOUS
 10
3.6929782343
 20
2.01941653
 11
3.6929782343
 21
2.0757061137
  0
LINE
  5
246
100
AcDbEntity
  8
0
100
AcDbLine
 62
6
  6
CONTINUOUS
 10
3.7204082343
 20
1.2303914468
 11
3.7204082343
 21
1.5307061137
  0
LINE
  5
247
100
AcDbEntity
  8
0
100
AcDbLine
 62
9
  6
CONTINUOUS
 10
3.7328695776
 20
1.8107061137
 11
3.7328695776
 21
1.6107061137
  0
LINE
  5
248
100
AcDbEntity
  8
0
100
AcDbLine
 62
6
  6
CONTINUOUS
 10
3.7737112653
 20
1.2303914468
 11
3.7737112653
 21
1.1503914468
  0
LINE
  5
249
100
AcDbEntity
  8
0
100
AcDbLine
 62
6
  6
CONTINUOUS
 10
3.8754082343
 20
2.0757061137
 11
3.8754082343
 21
8.6150498877
  0
LINE
  5
24A
100
AcDbEntity
  8
0
100
AcDbLine
 62
6
  6
CONTINUOUS
 10
3.8752287659
 20
8.6202352568
 11
3.8754082343
 21
8.6150498877
  0
LINE
  5
24B
100
AcDbEntity
  8
0
100
AcDbLine
 62
6
  6
CONTINUOUS
 10
4.2818965645
 20
2.0191769529
 11
4.2818967984
 21
2.0189565574
  0
LINE
  5
24C
100
AcDbEntity
  8
0
100
AcDbLine
 62
6
  6
CONTINUOUS
 10
3.9254082343
 20
8.6703914468
 11
3.9254082343
 21
11.3703914468
  0
LINE
  5
24D
100
AcDbEntity
  8
0
100
AcDbLine
 62
6
  6
CONTINUOUS
 10
3.9754082343
 20
2.0157061137
 11
3.9754082343
 21
2.0330670363
  0
LINE
  5
24E
100
AcDbEntity
  8
0
100
AcDbLine
 62
9
  6
CONTINUOUS
 10
3.9754082343
 20
2.0330670363
 11
3.9754082343
 21
2.0469570363
  0
LINE
  5
24F
100
AcDbEntity
  8
0
100
AcDbLine
 62
6
  6
CONTINUOUS
 10
4.0254082343
 20
8.6703914468
 11
4.0254082343
 21
11.3703914468
  0
LINE
  5
250
100
AcDbEntity
  8
0
100
AcDbLine
 62
6
  6
CONTINUOUS
 10
4.0754082343
 20
2.0757061137
 11
4.0754082343
 21
8.6150498877
  0
LINE
  5
251
100
AcDbEntity
  8
0
100
AcDbLine
 62
6
  6
CONTINUOUS
 10
4.217946891
 20
1.6107061137
 11
4.217946891
 21
1.8107061137
  0
LINE
  5
252
100
AcDbEntity
  8
0
100
AcDbLine
 62
6
  6
CONTINUOUS
 10
4.2304082343
 20
1.2303914468
 11
4.2304082343
 21
1.5307061137
  0
LINE
  5
253
100
AcDbEntity
  8
0
100
AcDbLine
 62
6
  6
CONTINUOUS
 10
4.2578382338
 20
1.824717052
 11
4.2578382338
 21
1.8383675695
  0
LINE
  5
254
100
AcDbEntity
  8
0
100
AcDbLine
 62
6
  6
CONTINUOUS
 10
4.2578382339
 20
1.880277028
 11
4.2578382339
 21
1.8939275461
  0
LINE
  5
255
100
AcDbEntity
  8
0
100
AcDbLine
 62
6
  6
CONTINUOUS
 10
4.2578382331
 20
1.9358370276
 11
4.2578382331
 21
1.949487545
  0
LINE
  5
256
100
AcDbEntity
  8
0
100
AcDbLine
 62
6
  6
CONTINUOUS
 10
4.2578382339
 20
1.991397053
 11
4.2578382339
 21
2.0050475706
  0
LINE
  5
257
100
AcDbEntity
  8
0
100
AcDbLine
 62
6
  6
CONTINUOUS
 10
4.2578382343
 20
2.0330670363
 11
4.2578382343
 21
2.0757061137
  0
LINE
  5
258
100
AcDbEntity
  8
0
100
AcDbLine
 62
9
  6
CONTINUOUS
 10
4.2828214808
 20
1.8107061137
 11
4.2828214808
 21
1.6107061137
  0
LINE
  5
259
100
AcDbEntity
  8
0
100
AcDbLine
 62
6
  6
CONTINUOUS
 10
4.2879082343
 20
1.8559679749
 11
4.2879082343
 21
1.8629161052
  0
LINE
  5
25A
100
AcDbEntity
  8
0
100
AcDbLine
 62
6
  6
CONTINUOUS
 10
4.2879082343
 20
1.9115279509
 11
4.2879082343
 21
1.9184761043
  0
LINE
  5
25B
100
AcDbEntity
  8
0
100
AcDbLine
 62
6
  6
CONTINUOUS
 10
4.2879082343
 20
1.9670879509
 11
4.2879082343
 21
1.9740361302
  0
LINE
  5
25C
100
AcDbEntity
  8
0
100
AcDbLine
 62
6
  6
CONTINUOUS
 10
4.2904082343
 20
1.2303914468
 11
4.2904082343
 21
1.5307061137
  0
LINE
  5
25D
100
AcDbEntity
  8
0
100
AcDbLine
 62
9
  6
CONTINUOUS
 10
3.9066997895
 20
1.1503914468
 11
3.9057033288
 21
0.8525843993
  0
LINE
  5
25E
100
AcDbEntity
  8
0
100
AcDbLine
 62
9
  6
CONTINUOUS
 10
4.1359534018
 20
1.1503914468
 11
4.1336171772
 21
0.8553872735
  0
LINE
  5
25F
100
AcDbEntity
  8
0
100
AcDbLine
 62
6
  6
CONTINUOUS
 10
4.0755882545
 20
8.6202432128
 11
4.0754082343
 21
8.6150498877
  0
LINE
  5
260
100
AcDbEntity
  8
0
100
AcDbLine
 62
6
  6
CONTINUOUS
 10
4.4154082343
 20
1.2303914468
 11
4.4154082343
 21
1.1503914468
  0
LINE
  5
261
100
AcDbEntity
  8
0
100
AcDbLine
 62
6
  6
CONTINUOUS
 10
4.5253601375
 20
1.6107061137
 11
4.5253601375
 21
1.8107061137
  0
LINE
  5
262
100
AcDbEntity
  8
0
100
AcDbLine
 62
6
  6
CONTINUOUS
 10
4.5354082322
 20
1.8107061137
 11
4.5354082322
 21
1.6107061137
  0
LINE
  5
263
100
AcDbEntity
  8
0
100
AcDbLine
 62
6
  6
CONTINUOUS
 10
4.5579082343
 20
1.6107061137
 11
4.5579082343
 21
1.5307061137
  0
LINE
  5
264
100
AcDbEntity
  8
0
100
AcDbLine
 62
9
  6
CONTINUOUS
 10
4.8380430512
 20
1.1503914468
 11
4.8344980318
 21
0.6061164175
  0
LINE
  5
265
100
AcDbEntity
  8
0
100
AcDbLine
 62
6
  6
CONTINUOUS
 10
4.6802128075
 20
0.7360872012
 11
4.6874354693
 21
1.1503914468
  0
LINE
  5
266
100
AcDbEntity
  8
0
100
AcDbLine
 62
9
  6
CONTINUOUS
 10
4.6802105984
 20
0.73606191
 11
4.6802108658
 21
0.7360770832
  0
LINE
  5
267
100
AcDbEntity
  8
0
100
AcDbLine
 62
6
  6
CONTINUOUS
 10
4.6801165623
 20
0.7321911504
 11
4.6802115292
 21
0.7361150759
  0
LINE
  5
268
100
AcDbEntity
  8
0
100
AcDbLine
 62
9
  6
CONTINUOUS
 10
4.6739639025
 20
0.7053135031
 11
4.6758034597
 21
0.7217446011
  0
LWPOLYLINE
  5
269
100
AcDbEntity
  8
0
100
AcDbPolyline
 62
6
  6
CONTINUOUS
 90
3
 70
0
 10
5.6721570676
 20
0.8383866863
 10
5.6785775402
 20
0.9417966103
 10
5.6914948026
 20
1.1503914468
  0
LINE
  5
26A
100
AcDbEntity
  8
0
100
AcDbLine
 62
9
  6
CONTINUOUS
 10
4.6758032852
 20
0.7217446042
 11
4.6802105984
 21
0.73606191
  0
LINE
  5
26B
100
AcDbEntity
  8
0
100
AcDbLine
 62
6
  6
CONTINUOUS
 10
4.0755862747
 20
8.6202134063
 11
4.0254082343
 21
8.6703914468
  0
LWPOLYLINE
  5
26C
100
AcDbEntity
  8
0
100
AcDbPolyline
 62
6
  6
CONTINUOUS
 90
8
 70
0
 10
4.6607989986
 20
0.6366594335
 10
4.6652722075
 20
0.6491596248
 10
4.6694316831
 20
0.6627319507
 10
4.6729271055
 20
0.6764647915
 10
4.6757479369
 20
0.6903178395
 10
4.6778875964
 20
0.7042501488
 10
4.6793434692
 20
0.7182214174
 10
4.6801165623
 20
0.7321911504
  0
LINE
  5
26D
100
AcDbEntity
  8
0
100
AcDbLine
 62
9
  6
CONTINUOUS
 10
4.6607942189
 20
0.6366469594
 11
4.6607989986
 21
0.6366594335
  0
LINE
  5
26E
100
AcDbEntity
  8
0
100
AcDbLine
 62
6
  6
CONTINUOUS
 10
3.6629082343
 20
2.0018161254
 11
3.663282884
 21
2.0022491656
  0
LINE
  5
26F
100
AcDbEntity
  8
0
100
AcDbLine
 62
6
  6
CONTINUOUS
 10
3.6632828848
 20
1.9466891606
 11
3.6629082343
 21
1.9462561194
  0
LINE
  5
270
100
AcDbEntity
  8
0
100
AcDbLine
 62
6
  6
CONTINUOUS
 10
3.6632828845
 20
1.8911291365
 11
3.6629082343
 21
1.8906960958
  0
LINE
  5
271
100
AcDbEntity
  8
0
100
AcDbLine
 62
6
  6
CONTINUOUS
 10
3.6632828841
 20
1.8355691682
 11
3.6629082343
 21
1.8351361279
  0
LINE
  5
272
100
AcDbEntity
  8
0
100
AcDbLine
 62
6
  6
CONTINUOUS
 10
4.2875335837
 20
1.9666549097
 11
4.2879082343
 21
1.9670879509
  0
LINE
  5
273
100
AcDbEntity
  8
0
100
AcDbLine
 62
6
  6
CONTINUOUS
 10
4.2875335846
 20
1.9110949108
 11
4.2879082343
 21
1.9115279509
  0
LINE
  5
274
100
AcDbEntity
  8
0
100
AcDbLine
 62
6
  6
CONTINUOUS
 10
4.2875335839
 20
1.8555349339
 11
4.2879082343
 21
1.8559679749
  0
LINE
  5
275
100
AcDbEntity
  8
0
100
AcDbLine
 62
6
  6
CONTINUOUS
 10
3.693392602
 20
2.0196561057
 11
3.663282884
 21
2.0022491656
  0
LINE
  5
276
100
AcDbEntity
  8
0
100
AcDbLine
 62
9
  6
CONTINUOUS
 10
3.8754082343
 20
8.6150498877
 11
4.0754082343
 21
8.6150498877
  0
LINE
  5
277
100
AcDbEntity
  8
0
100
AcDbLine
 62
9
  6
CONTINUOUS
 10
3.9198556364
 20
8.6648388489
 11
4.0309608322
 21
8.6648388489
  0
LINE
  5
278
100
AcDbEntity
  8
0
100
AcDbLine
 62
9
  6
CONTINUOUS
 10
3.9254082343
 20
8.7703914468
 11
4.0254082343
 21
8.7703914468
  0
LINE
  5
279
100
AcDbEntity
  8
0
100
AcDbLine
 62
6
  6
CONTINUOUS
 10
3.6933926037
 20
1.9640961012
 11
3.6632828848
 21
1.9466891606
  0
LINE
  5
27A
100
AcDbEntity
  8
0
100
AcDbLine
 62
6
  6
CONTINUOUS
 10
3.6933926036
 20
1.9085360773
 11
3.6632828845
 21
1.8911291365
  0
LINE
  5
27B
100
AcDbEntity
  8
0
100
AcDbLine
 62
6
  6
CONTINUOUS
 10
3.6933926022
 20
1.8529761084
 11
3.6632828841
 21
1.8355691682
  0
LINE
  5
27C
100
AcDbEntity
  8
0
100
AcDbLine
 62
6
  6
CONTINUOUS
 10
4.2574238654
 20
2.0048079946
 11
4.2818967984
 21
2.0189565574
  0
LINE
  5
27D
100
AcDbEntity
  8
0
100
AcDbLine
 62
6
  6
CONTINUOUS
 10
4.2574238644
 20
1.9492479688
 11
4.2875335837
 21
1.9666549097
  0
LINE
  5
27E
100
AcDbEntity
  8
0
100
AcDbLine
 62
6
  6
CONTINUOUS
 10
4.2574238662
 20
1.8936879705
 11
4.2875335846
 21
1.9110949108
  0
LINE
  5
27F
100
AcDbEntity
  8
0
100
AcDbLine
 62
6
  6
CONTINUOUS
 10
4.2574238653
 20
1.8381279934
 11
4.2875335839
 21
1.8555349339
  0
LINE
  5
280
100
AcDbEntity
  8
0
100
AcDbLine
 62
6
  6
CONTINUOUS
 10
3.9254082343
 20
11.3703914468
 11
4.0254082343
 21
11.3703914468
  0
ARC
  5
281
100
AcDbEntity
  8
0
100
AcDbCircle
 62
9
  6
CONTINUOUS
 10
4.4460828619
 20
0.7181870044
 40
0.2297479693
100
AcDbArc
 50
356.7551941831
 51
0.8872487471
  0
ARC
  5
282
100
AcDbEntity
  8
0
100
AcDbCircle
 62
9
  6
CONTINUOUS
 10
4.7571029231
 20
0.3608266909
 40
0.0104352441
100
AcDbArc
 50
270.000611555
 51
271.7545155665
  0
LINE
  5
283
100
AcDbEntity
  8
0
100
AcDbLine
 62
6
  6
CONTINUOUS
 10
3.6929782343
 20
2.0330670363
 11
3.6930120579
 21
2.0329304916
  0
LINE
  5
284
100
AcDbEntity
  8
0
100
AcDbLine
 62
6
  6
CONTINUOUS
 10
3.6930120579
 20
2.0329304916
 11
3.6933936864
 21
2.0325879911
  0
SPLINE
  5
285
100
AcDbEntity
  8
0
100
AcDbSpline
 62
6
  6
CONTINUOUS
 70
0
 71
3
 72
55
 73
51
 74
49
 42
0.0000001
 43
0.0000001
 44
0.0000000001
 12
-0.5339119727
 22
-0.0213732895
 32
0.0
 13
-0.0007284608
 23
-0.5343391072
 33
0.0
 40
0.0
 40
0.0
 40
0.0
 40
0.0
 40
0.0315466295
 40
0.065187211
 40
0.100713792
 40
0.1379269993
 40
0.1766328127
 40
0.2166271167
 40
0.299599101
 40
0.3850423984
 40
0.4711105382
 40
0.5559407778
 40
0.5973155145
 40
0.6376976238
 40
0.6768668749
 40
0.7146124094
 40
0.7507295331
 40
0.785021977
 40
0.8173062762
 40
0.8474047759
 40
0.8751583536
 40
0.9004142186
 40
0.9120628986
 40
0.9230383758
 40
0.933325462
 40
0.9429092361
 40
0.9517774119
 40
0.9599194059
 40
0.9673247588
 40
0.9739831566
 40
0.9798853248
 40
0.9825509848
 40
0.9850255775
 40
0.9873085797
 40
0.9893995348
 40
0.9912980798
 40
0.9930039882
 40
0.9945172412
 40
0.9958381815
 40
0.9969680553
 40
0.9974621056
 40
0.9979094435
 40
0.9983106919
 40
0.9986667229
 40
0.9989787961
 40
0.9992487961
 40
0.9994796512
 40
0.9996760617
 40
0.9998456314
 40
1.0
 40
1.0
 40
1.0
 40
1.0
 10
4.1964575405
 20
2.0157061137
 30
0.0
 10
4.1908431661
 20
2.015481362
 30
0.0
 10
4.1792410484
 20
2.0150345233
 30
0.0
 10
4.1613143035
 20
2.0143861107
 30
0.0
 10
4.1423776544
 20
2.0137373809
 30
0.0
 10
4.1225383225
 20
2.0130885387
 30
0.0
 10
4.1019028278
 20
2.0124395466
 30
0.0
 10
4.0731202232
 20
2.0115633087
 30
0.0
 10
4.0360155926
 20
2.0104776863
 30
0.0
 10
3.9907070436
 20
2.0091895062
 30
0.0
 10
3.945067389
 20
2.0079011286
 30
0.0
 10
3.9072742272
 20
2.0068190879
 30
0.0
 10
3.8776157108
 20
2.0059461211
 30
0.0
 10
3.8560869595
 20
2.0052969449
 30
0.0
 10
3.8352049156
 20
2.0046478661
 30
0.0
 10
3.8150828951
 20
2.0039989647
 30
0.0
 10
3.7958299602
 20
2.0033502837
 30
0.0
 10
3.7775503133
 20
2.0027018241
 30
0.0
 10
3.7603433581
 20
2.0020537962
 30
0.0
 10
3.7443019237
 20
2.0014061301
 30
0.0
 10
3.7295134159
 20
2.0007591533
 30
0.0
 10
3.7180101501
 20
2.0002068306
 30
0.0
 10
3.7094937051
 20
1.9997615852
 30
0.0
 10
3.7036407695
 20
1.9994368288
 30
0.0
 10
3.6981562132
 20
1.999112214
 30
0.0
 10
3.6930476891
 20
1.9987877106
 30
0.0
 10
3.6883220495
 20
1.9984633726
 30
0.0
 10
3.6839853846
 20
1.9981392816
 30
0.0
 10
3.6800434757
 20
1.9978155286
 30
0.0
 10
3.6765019577
 20
1.9974921829
 30
0.0
 10
3.6738041194
 20
1.9972145724
 30
0.0
 10
3.671850116
 20
1.9969903888
 30
0.0
 10
3.6705379157
 20
1.9968280854
 30
0.0
 10
3.6693289064
 20
1.9966658747
 30
0.0
 10
3.6682234805
 20
1.9965037711
 30
0.0
 10
3.6672220199
 20
1.9963418108
 30
0.0
 10
3.6663249001
 20
1.9961800332
 30
0.0
 10
3.6655324457
 20
1.9960185215
 30
0.0
 10
3.6648449331
 20
1.9958573001
 30
0.0
 10
3.6643390669
 20
1.9957178221
 30
0.0
 10
3.6639878953
 20
1.9956045947
 30
0.0
 10
3.6637628409
 20
1.9955235682
 30
0.0
 10
3.663564064
 20
1.9954426053
 30
0.0
 10
3.6633915194
 20
1.9953616972
 30
0.0
 10
3.6632451263
 20
1.9952808273
 30
0.0
 10
3.6631247567
 20
1.9951999199
 30
0.0
 10
3.6630302329
 20
1.9951187811
 30
0.0
 10
3.6629614365
 20
1.9950368924
 30
0.0
 10
3.6629187597
 20
1.9949534778
 30
0.0
 10
3.6629087435
 20
1.9948954719
 30
0.0
 10
3.662908706
 20
1.9948679768
 30
0.0
 11
4.1964575405
 21
2.0157061137
 31
0.0
 11
4.1796134977
 21
2.0150552357
 31
0.0
 11
4.1616498102
 21
2.0144038154
 31
0.0
 11
4.142677729
 21
2.013752458
 31
0.0
 11
4.1228039032
 21
2.0131012984
 31
0.0
 11
4.1021321064
 21
2.0124501701
 31
0.0
 11
4.0807714894
 21
2.0117989828
 31
0.0
 11
4.0364554063
 21
2.0104965742
 31
0.0
 11
3.9908182483
 21
2.0091941983
 31
0.0
 11
3.9448470775
 21
2.0078918128
 31
0.0
 11
3.899537635
 21
2.0065894295
 31
0.0
 11
3.877439067
 21
2.0059382378
 31
0.0
 11
3.8558711351
 21
2.005287046
 31
0.0
 11
3.8349515858
 21
2.0046358542
 31
0.0
 11
3.814793167
 21
2.0039846624
 31
0.0
 11
3.7955053471
 21
2.0033334706
 31
0.0
 11
3.7771931108
 21
2.0026822788
 31
0.0
 11
3.7599546263
 21
2.002031087
 31
0.0
 11
3.7438849947
 21
2.0013798951
 31
0.0
 11
3.7290694631
 21
2.0007287033
 31
0.0
 11
3.7155899745
 21
2.0000775115
 31
0.0
 11
3.7093741453
 21
1.9997519156
 31
0.0
 11
3.7035185584
 21
1.9994263197
 31
0.0
 11
3.6980314125
 21
1.9991007238
 31
0.0
 11
3.6929207837
 21
1.9987751279
 31
0.0
 11
3.6881933654
 21
1.998449532
 31
0.0
 11
3.6838549764
 21
1.998123936
 31
0.0
 11
3.6799114215
 21
1.9977983401
 31
0.0
 11
3.6763685056
 21
1.9974727442
 31
0.0
 11
3.6732315958
 21
1.9971471482
 31
0.0
 11
3.6718165621
 21
1.9969843503
 31
0.0
 11
3.6705043494
 21
1.9968215523
 31
0.0
 11
3.6692953625
 21
1.9966587544
 31
0.0
 11
3.6681900066
 21
1.9964959564
 31
0.0
 11
3.6671886867
 21
1.9963331584
 31
0.0
 11
3.6662918077
 21
1.9961703605
 31
0.0
 11
3.6654997747
 21
1.9960075625
 31
0.0
 11
3.664812975
 21
1.9958447646
 31
0.0
 11
3.6642316022
 21
1.9956819666
 31
0.0
 11
3.6639804742
 21
1.9956005676
 31
0.0
 11
3.6637557305
 21
1.9955191686
 31
0.0
 11
3.6635573803
 21
1.9954377697
 31
0.0
 11
3.6633854325
 21
1.9953563707
 31
0.0
 11
3.6632398963
 21
1.9952749717
 31
0.0
 11
3.6631207808
 21
1.9951935727
 31
0.0
 11
3.6630280949
 21
1.9951121737
 31
0.0
 11
3.6629618477
 21
1.9950307748
 31
0.0
 11
3.6629220484
 21
1.9949493758
 31
0.0
 11
3.662908706
 21
1.9948679768
 31
0.0
  0
LINE
  5
286
100
AcDbEntity
  8
0
100
AcDbLine
 62
9
  6
CONTINUOUS
 10
5.6253849561
 20
0.8412565868
 11
5.6445351887
 21
1.1503914468
  0
SPLINE
  5
287
100
AcDbEntity
  8
0
100
AcDbSpline
 62
9
  6
CONTINUOUS
 70
0
 71
3
 72
24
 73
20
 74
18
 42
0.0000001
 43
0.0000001
 44
0.0000000001
 12
-0.73660277
 22
-0.0355322709
 32
0.0
 13
-0.722670885
 23
-0.146945483
 33
0.0
 40
0.0
 40
0.0
 40
0.0
 40
0.0
 40
0.0637521077
 40
0.1279111564
 40
0.2569975745
 40
0.3217136132
 40
0.3864035683
 40
0.4509445543
 40
0.5152079927
 40
0.5790536523
 40
0.6423306583
 40
0.7048786519
 40
0.7665186059
 40
0.8270643896
 40
0.8863127295
 40
0.915384483
 40
0.9440458993
 40
0.9722624987
 40
1.0
 40
1.0
 40
1.0
 40
1.0
 10
3.9057033234
 20
0.8525843998
 30
0.0
 10
3.890049997
 20
0.8518293141
 30
0.0
 10
3.8586500826
 20
0.8501719391
 30
0.0
 10
3.795594523
 20
0.8462781193
 30
0.0
 10
3.7323570568
 20
0.8415221073
 30
0.0
 10
3.66906156
 20
0.8359174611
 30
0.0
 10
3.6216098071
 20
0.8312919268
 30
0.0
 10
3.5743113546
 20
0.8262601994
 30
0.0
 10
3.5272652091
 20
0.8208359011
 30
0.0
 10
3.4805775772
 20
0.8150310186
 30
0.0
 10
3.434362883
 20
0.808855581
 30
0.0
 10
3.3887448975
 20
0.8023235202
 30
0.0
 10
3.3438551748
 20
0.7954565231
 30
0.0
 10
3.2998359236
 20
0.7882776463
 30
0.0
 10
3.2637785145
 20
0.7820289897
 30
0.0
 10
3.2354826697
 20
0.7769025815
 30
0.0
 10
3.2147137473
 20
0.7730224075
 30
0.0
 10
3.1942902586
 20
0.7690812003
 30
0.0
 10
3.1808017425
 20
0.7663880578
 30
0.0
 10
3.1741200477
 20
0.7650294243
 30
0.0
 11
3.9057033234
 21
0.8525843998
 31
0.0
 11
3.8587540317
 21
0.8501074997
 31
0.0
 11
3.8115292659
 21
0.8471918564
 31
0.0
 11
3.7166010947
 21
0.8400562961
 31
0.0
 11
3.6690616625
 21
0.8358467479
 31
0.0
 11
3.6215804834
 21
0.831218589
 31
0.0
 11
3.5742512192
 21
0.8261833957
 31
0.0
 11
3.5271715808
 21
0.820754039
 31
0.0
 11
3.4804480648
 21
0.8149423288
 31
0.0
 11
3.4341953149
 21
0.8087591187
 31
0.0
 11
3.3885347869
 21
0.8022185347
 31
0.0
 11
3.3436010635
 21
0.7953413751
 31
0.0
 11
3.2995335137
 21
0.7881526334
 31
0.0
 11
3.2564824772
 21
0.7806889023
 31
0.0
 11
3.2353869708
 21
0.7768652423
 31
0.0
 11
3.2146101917
 21
0.7729816276
 31
0.0
 11
3.1941789479
 21
0.7690367808
 31
0.0
 11
3.1741200477
 21
0.7650294243
 31
0.0
  0
SPLINE
  5
288
100
AcDbEntity
  8
0
100
AcDbSpline
 62
9
  6
CONTINUOUS
 70
0
 71
3
 72
36
 73
32
 74
30
 42
0.0000001
 43
0.0000001
 44
0.0000000001
 12
0.117209342
 22
0.2060264215
 32
0.0
 13
-0.0130094797
 23
0.2366762971
 33
0.0
 40
0.0
 40
0.0
 40
0.0
 40
0.0
 40
0.0070828762
 40
0.0144901052
 40
0.0222242217
 40
0.0302869679
 40
0.0386794212
 40
0.0474020993
 40
0.0658370825
 40
0.0855887625
 40
0.1066479132
 40
0.1289981965
 40
0.1526180015
 40
0.1774833146
 40
0.2035683007
 40
0.2308456404
 40
0.2592829605
 40
0.2888408187
 40
0.3194784263
 40
0.3511543382
 40
0.383826584
 40
0.4174513453
 40
0.451978709
 40
0.4873569695
 40
0.5235341217
 40
0.598075048
 40
0.6751770423
 40
0.7544042974
 40
0.835311558
 40
0.9173707365
 40
1.0
 40
1.0
 40
1.0
 40
1.0
 10
3.8855947386
 20
0.6182125632
 30
0.0
 10
3.885871465
 20
0.618698983
 30
0.0
 10
3.8864205592
 20
0.6197038631
 30
0.0
 10
3.8872152208
 20
0.621269983
 30
0.0
 10
3.8879989181
 20
0.6229276713
 30
0.0
 10
3.8887712943
 20
0.6246760846
 30
0.0
 10
3.8895320218
 20
0.6265144099
 30
0.0
 10
3.8905491328
 20
0.6291328466
 30
0.0
 10
3.8917842623
 20
0.6326284001
 30
0.0
 10
3.8931885779
 20
0.637094704
 30
0.0
 10
3.8945380636
 20
0.6418999521
 30
0.0
 10
3.8958307262
 20
0.6470364263
 30
0.0
 10
3.897064914
 20
0.6524959426
 30
0.0
 10
3.8982387983
 20
0.6582701177
 30
0.0
 10
3.8993506085
 20
0.664350529
 30
0.0
 10
3.9003984492
 20
0.670728434
 30
0.0
 10
3.9013806441
 20
0.6773942253
 30
0.0
 10
3.9022959737
 20
0.6843373824
 30
0.0
 10
3.9031430179
 20
0.6915468851
 30
0.0
 10
3.9039203904
 20
0.6990116595
 30
0.0
 10
3.9046266852
 20
0.7067205158
 30
0.0
 10
3.9052604783
 20
0.7146616902
 30
0.0
 10
3.9058211093
 20
0.7228226716
 30
0.0
 10
3.9063078552
 20
0.7311904044
 30
0.0
 10
3.9068628689
 20
0.7427204594
 30
0.0
 10
3.9073611083
 20
0.7575529196
 30
0.0
 10
3.9076488357
 20
0.7757928461
 30
0.0
 10
3.9076312826
 20
0.7945380179
 30
0.0
 10
3.9073065544
 20
0.8136720704
 30
0.0
 10
3.9066783347
 20
0.8330674172
 30
0.0
 10
3.9060616446
 20
0.8460656038
 30
0.0
 10
3.9057033234
 20
0.8525843998
 30
0.0
 11
3.8855947386
 21
0.6182125632
 31
0.0
 11
3.8864008664
 21
0.6196852458
 31
0.0
 11
3.8871963487
 21
0.621250464
 31
0.0
 11
3.8879808379
 21
0.6229073784
 31
0.0
 11
3.888753986
 21
0.6246551495
 31
0.0
 11
3.8895154456
 21
0.6264929381
 31
0.0
 11
3.8902648686
 21
0.6284199048
 31
0.0
 11
3.8917262146
 21
0.6325380152
 31
0.0
 11
3.8931352421
 21
0.637002766
 31
0.0
 11
3.8944892202
 21
0.6418073544
 31
0.0
 11
3.8957860128
 21
0.6469439554
 31
0.0
 11
3.8970238672
 21
0.6524040846
 31
0.0
 11
3.8982010373
 21
0.6581792464
 31
0.0
 11
3.8993157769
 21
0.6642609453
 31
0.0
 11
3.9003663419
 21
0.6706406697
 31
0.0
 11
3.9013511289
 21
0.6773089437
 31
0.0
 11
3.9022687515
 21
0.6842547968
 31
0.0
 11
3.9031178421
 21
0.6914671298
 31
0.0
 11
3.9038970332
 21
0.6989348436
 31
0.0
 11
3.9046049573
 21
0.706646839
 31
0.0
 11
3.9052403552
 21
0.7145916685
 31
0.0
 11
3.9058024021
 21
0.7227564909
 31
0.0
 11
3.9062903817
 21
0.7311281165
 31
0.0
 11
3.9067035774
 21
0.7396933555
 31
0.0
 11
3.9073027798
 21
0.7573518945
 31
0.0
 11
3.9075959815
 21
0.7756253038
 31
0.0
 11
3.9075817512
 21
0.794404818
 31
0.0
 11
3.9072592082
 21
0.8135798428
 31
0.0
 11
3.906631274
 21
0.8330204848
 31
0.0
 11
3.9057033234
 21
0.8525843998
 31
0.0
  0
SPLINE
  5
289
100
AcDbEntity
  8
0
100
AcDbSpline
 62
9
  6
CONTINUOUS
 70
0
 71
3
 72
28
 73
24
 74
22
 42
0.0000001
 43
0.0000001
 44
0.0000000001
 12
-0.5574257383
 22
-0.0337322936
 32
0.0
 13
-0.5349652248
 23
-0.1602296155
 33
0.0
 40
0.0
 40
0.0
 40
0.0
 40
0.0
 40
0.0635902434
 40
0.1275780691
 40
0.1918595489
 40
0.2563315032
 40
0.320893643
 40
0.3854471331
 40
0.4498896011
 40
0.5140949348
 40
0.5779291156
 40
0.6412505304
 40
0.7038910474
 40
0.734902435
 40
0.7656782591
 40
0.796192034
 40
0.8264164315
 40
0.8563243503
 40
0.8858888819
 40
0.9150784976
 40
0.9438535598
 40
0.9721739587
 40
1.0
 40
1.0
 40
1.0
 40
1.0
 10
3.8855947386
 20
0.6182125632
 30
0.0
 10
3.8737791258
 20
0.6174975482
 30
0.0
 10
3.8500817109
 20
0.6159326769
 30
0.0
 10
3.8144722861
 20
0.6131878958
 30
0.0
 10
3.7787318872
 20
0.6100344689
 30
0.0
 10
3.7429227144
 20
0.6064697532
 30
0.0
 10
3.7071061696
 20
0.6024912493
 30
0.0
 10
3.6713438156
 20
0.598096446
 30
0.0
 10
3.6357022426
 20
0.5932839258
 30
0.0
 10
3.600255426
 20
0.5880497256
 30
0.0
 10
3.5650852625
 20
0.5823902945
 30
0.0
 10
3.5302821011
 20
0.5763038036
 30
0.0
 10
3.5015726159
 20
0.5708574354
 30
0.0
 10
3.4788673575
 20
0.5662792044
 30
0.0
 10
3.4620518262
 20
0.5627500474
 30
0.0
 10
3.4454090003
 20
0.5591139976
 30
0.0
 10
3.4289554931
 20
0.5553711535
 30
0.0
 10
3.4127081277
 20
0.5515216764
 30
0.0
 10
3.3966846244
 20
0.5475659243
 30
0.0
 10
3.3809050883
 20
0.5435050052
 30
0.0
 10
3.3653921229
 20
0.539340825
 30
0.0
 10
3.3501700511
 20
0.535075665
 30
0.0
 10
3.3401391549
 20
0.5321392123
 30
0.0
 10
3.3351771667
 20
0.530653027
 30
0.0
 11
3.8855947386
 21
0.6182125632
 31
0.0
 11
3.8501602148
 21
0.6158728871
 31
0.0
 11
3.8145321998
 21
0.6131265084
 31
0.0
 11
3.7787734697
 21
0.6099708652
 31
0.0
 11
3.7429465778
 21
0.6064033955
 31
0.0
 11
3.7071126978
 21
0.6024215366
 31
0.0
 11
3.6713324752
 21
0.5980227256
 31
0.0
 11
3.6356689041
 21
0.5932042952
 31
0.0
 11
3.6001988873
 21
0.5879629603
 31
0.0
 11
3.5650044284
 21
0.5822952095
 31
0.0
 11
3.5301724362
 21
0.576198328
 31
0.0
 11
3.4958052898
 21
0.5696721179
 31
0.0
 11
3.4788289795
 21
0.5662481079
 31
0.0
 11
3.4620090386
 21
0.5627168958
 31
0.0
 11
3.4453616977
 21
0.5590786078
 31
0.0
 11
3.4289037795
 21
0.5553333873
 31
0.0
 11
3.4126521069
 21
0.5514813779
 31
0.0
 11
3.3966235353
 21
0.5475227322
 31
0.0
 11
3.3808375566
 21
0.5434583476
 31
0.0
 11
3.3653181913
 21
0.5392904003
 31
0.0
 11
3.3500899058
 21
0.5350211927
 31
0.0
 11
3.3351771667
 21
0.530653027
 31
0.0
  0
SPLINE
  5
28A
100
AcDbEntity
  8
0
100
AcDbSpline
 62
9
  6
CONTINUOUS
 70
0
 71
3
 72
13
 73
9
 74
7
 42
0.0000001
 43
0.0000001
 44
0.0000000001
 12
-0.162425068
 22
0.0049364365
 32
0.0
 13
-0.1622034653
 23
-0.009813611
 33
0.0
 40
0.0
 40
0.0
 40
0.0
 40
0.0
 40
0.1191804603
 40
0.2403455489
 40
0.4879403633
 40
0.7415790348
 40
0.8702861038
 40
1.0
 40
1.0
 40
1.0
 40
1.0
 10
4.048017531
 20
0.6210154373
 30
0.0
 10
4.0415648996
 20
0.6212115463
 30
0.0
 10
4.0285495094
 20
0.6215238252
 30
0.0
 10
4.0021207007
 20
0.6218344758
 30
0.0
 10
3.968404811
 20
0.6216264274
 30
0.0
 10
3.9342941339
 20
0.6206490964
 30
0.0
 10
3.906584857
 20
0.6194098211
 30
0.0
 10
3.8926080864
 20
0.6186368837
 30
0.0
 10
3.8855947386
 20
0.6182125632
 30
0.0
 11
4.048017531
 21
0.6210154373
 31
0.0
 11
4.0286563213
 21
0.6214820861
 31
0.0
 11
4.0089683681
 21
0.6217153292
 31
0.0
 11
3.9687348854
 21
0.6214795789
 31
0.0
 11
3.927535208
 21
0.6203091019
 31
0.0
 11
3.906641141
 21
0.6193756664
 31
0.0
 11
3.8855947386
 21
0.6182125632
 31
0.0
  0
SPLINE
  5
28B
100
AcDbEntity
  8
0
100
AcDbSpline
 62
9
  6
CONTINUOUS
 70
0
 71
3
 72
13
 73
9
 74
7
 42
0.0000001
 43
0.0000001
 44
0.0000000001
 12
-0.2279155126
 22
0.0049348207
 32
0.0
 13
-0.2277573868
 23
-0.0098186614
 33
0.0
 40
0.0
 40
0.0
 40
0.0
 40
0.0
 40
0.1191883308
 40
0.2403592033
 40
0.4879600506
 40
0.7415924323
 40
0.8702922483
 40
1.0
 40
1.0
 40
1.0
 40
1.0
 10
4.1336171772
 20
0.8553872735
 30
0.0
 10
4.1245622207
 20
0.8555833312
 30
0.0
 10
4.1062997848
 20
0.8558955482
 30
0.0
 10
4.0692208055
 20
0.8562062305
 30
0.0
 10
4.021922672
 20
0.8559985892
 30
0.0
 10
3.9740621989
 20
0.8550216018
 30
0.0
 10
3.9351719257
 20
0.8537821325
 30
0.0
 10
3.9155506284
 20
0.8530089182
 30
0.0
 10
3.9057033288
 20
0.8525843993
 30
0.0
 11
4.1336171772
 21
0.8553872735
 31
0.0
 11
4.1064499468
 21
0.8558538315
 31
0.0
 11
4.0788277376
 21
0.8560871009
 31
0.0
 11
4.022382928
 21
0.8558517093
 31
0.0
 11
3.964574468
 21
0.8546815056
 31
0.0
 11
3.9352497652
 21
0.8537479348
 31
0.0
 11
3.9057033288
 21
0.8525843993
 31
0.0
  0
SPLINE
  5
28C
100
AcDbEntity
  8
0
100
AcDbSpline
 62
9
  6
CONTINUOUS
 70
0
 71
3
 72
37
 73
33
 74
31
 42
0.0000001
 43
0.0000001
 44
0.0000000001
 12
0.2134636839
 22
0.1430833789
 32
0.0
 13
0.0082347468
 23
0.2568497355
 33
0.0
 40
0.0
 40
0.0
 40
0.0
 40
0.0
 40
0.0205312751
 40
0.0417813362
 40
0.063779814
 40
0.0865494321
 40
0.1101070293
 40
0.1344644764
 40
0.1596292148
 40
0.1856041251
 40
0.2123880381
 40
0.2399763757
 40
0.2683616495
 40
0.2975309861
 40
0.3274645793
 40
0.3581400972
 40
0.3895334401
 40
0.4216190537
 40
0.4543691967
 40
0.4877509732
 40
0.5217292926
 40
0.556268066
 40
0.6268749625
 40
0.6628709591
 40
0.6992754547
 40
0.7360487875
 40
0.7731509099
 40
0.8105414076
 40
0.8481739507
 40
0.8859930303
 40
0.9239420748
 40
1.0
 40
1.0
 40
1.0
 40
1.0
 10
4.048017531
 20
0.6210154373
 30
0.0
 10
4.0494784249
 20
0.6219946654
 30
0.0
 10
4.0523877841
 20
0.6240836988
 30
0.0
 10
4.0566321628
 20
0.6275281711
 30
0.0
 10
4.0608228581
 20
0.6313294132
 30
0.0
 10
4.064952195
 20
0.6354805539
 30
0.0
 10
4.0690128528
 20
0.6399749103
 30
0.0
 10
4.0729970949
 20
0.6448059537
 30
0.0
 10
4.0768988665
 20
0.6499657028
 30
0.0
 10
4.0807129544
 20
0.6554456346
 30
0.0
 10
4.0844339239
 20
0.6612374087
 30
0.0
 10
4.088056406
 20
0.667332614
 30
0.0
 10
4.091574745
 20
0.6737226907
 30
0.0
 10
4.0949835567
 20
0.6803981345
 30
0.0
 10
4.098278253
 20
0.6873482837
 30
0.0
 10
4.1014538247
 20
0.6945622351
 30
0.0
 10
4.1045053005
 20
0.7020290132
 30
0.0
 10
4.107427652
 20
0.709737569
 30
0.0
 10
4.1102157333
 20
0.7176764067
 30
0.0
 10
4.1128659316
 20
0.7258329114
 30
0.0
 10
4.1153744872
 20
0.7341941835
 30
0.0
 10
4.118548425
 20
0.7456819591
 30
0.0
 10
4.1213935405
 20
0.7574369832
 30
0.0
 10
4.1239165582
 20
0.7694250105
 30
0.0
 10
4.1256625344
 20
0.7786131237
 30
0.0
 10
4.1272473526
 20
0.7879264452
 30
0.0
 10
4.1286685212
 20
0.7973515689
 30
0.0
 10
4.1299232946
 20
0.806874516
 30
0.0
 10
4.1310095036
 20
0.81647994
 30
0.0
 10
4.1319262043
 20
0.8261511277
 30
0.0
 10
4.1329212974
 20
0.8391189692
 30
0.0
 10
4.1334083858
 20
0.8488754549
 30
0.0
 10
4.1336171583
 20
0.8553872742
 30
0.0
 11
4.048017531
 21
0.6210154373
 31
0.0
 11
4.052306602
 21
0.6240881816
 31
0.0
 11
4.056550309
 21
0.6275250592
 31
0.0
 11
4.0607410261
 21
0.6313193487
 31
0.0
 11
4.0648711271
 21
0.6354643287
 31
0.0
 11
4.0689329858
 21
0.6399532778
 31
0.0
 11
4.0729190825
 21
0.6447793892
 31
0.0
 11
4.0768231339
 21
0.6499348607
 31
0.0
 11
4.0806396545
 21
0.6554112482
 31
0.0
 11
4.0843631721
 21
0.6612000971
 31
0.0
 11
4.0879882144
 21
0.6672929525
 31
0.0
 11
4.0915093123
 21
0.6736813438
 31
0.0
 11
4.0949211714
 21
0.6803558491
 31
0.0
 11
4.0982187693
 21
0.6873055721
 31
0.0
 11
4.1013971065
 21
0.6945194893
 31
0.0
 11
4.1044511838
 21
0.7019865776
 31
0.0
 11
4.1073760019
 21
0.7096958136
 31
0.0
 11
4.1101667608
 21
0.7176358312
 31
0.0
 11
4.1128194569
 21
0.7257938927
 31
0.0
 11
4.1153302862
 21
0.7341569173
 31
0.0
 11
4.1176954444
 21
0.7427118245
 31
0.0
 11
4.1219735933
 21
0.7603449434
 31
0.0
 11
4.1238798231
 21
0.7693967152
 31
0.0
 11
4.1256272648
 21
0.7785873565
 31
0.0
 11
4.1272133738
 21
0.7879033725
 31
0.0
 11
4.1286356057
 21
0.7973312682
 31
0.0
 11
4.1298914239
 21
0.8068575233
 31
0.0
 11
4.1309787616
 21
0.816467077
 31
0.0
 11
4.1318962799
 21
0.8261424819
 31
0.0
 11
4.1326427029
 21
0.835866085
 31
0.0
 11
4.1336171583
 21
0.8553872742
 31
0.0
  0
SPLINE
  5
28D
100
AcDbEntity
  8
0
100
AcDbSpline
 62
9
  6
CONTINUOUS
 70
0
 71
3
 72
56
 73
52
 74
50
 42
0.0000001
 43
0.0000001
 44
0.0000000001
 12
0.1655047325
 22
0.4319215642
 32
0.0
 13
-0.4623315113
 23
0.014058014
 33
0.0
 40
0.0
 40
0.0
 40
0.0
 40
0.0
 40
0.0082379136
 40
0.0162188719
 40
0.0239965247
 40
0.0316275222
 40
0.0391705387
 40
0.0429286693
 40
0.0466871658
 40
0.0542330539
 40
0.0618672624
 40
0.0696419674
 40
0.0776037811
 40
0.0857934492
 40
0.0942459809
 40
0.1029913205
 40
0.1120544048
 40
0.1214555061
 40
0.1312107716
 40
0.1413327477
 40
0.1518309155
 40
0.1627124519
 40
0.1739823593
 40
0.1856436026
 40
0.1976974018
 40
0.210143482
 40
0.2229802862
 40
0.2362054164
 40
0.2498161843
 40
0.2638091683
 40
0.2781802175
 40
0.2929245456
 40
0.3080368113
 40
0.3235111868
 40
0.3393417482
 40
0.3720504753
 40
0.4061219931
 40
0.4415106218
 40
0.4781677348
 40
0.5160454749
 40
0.5550958591
 40
0.5952690877
 40
0.6365144196
 40
0.6787878401
 40
0.7220500748
 40
0.7662611609
 40
0.8113803713
 40
0.8573633257
 40
0.9041609129
 40
0.9517232388
 40
1.0
 40
1.0
 40
1.0
 40
1.0
 10
4.455156018
 20
0.4873727649
 30
0.0
 10
4.4556104892
 20
0.4885588091
 30
0.0
 10
4.4564157439
 20
0.4909296396
 30
0.0
 10
4.4573113164
 20
0.4945238747
 30
0.0
 10
4.457875194
 20
0.4980906852
 30
0.0
 10
4.4581092361
 20
0.5016265309
 30
0.0
 10
4.4580309621
 20
0.5045490866
 30
0.0
 10
4.4578059481
 20
0.5068608121
 30
0.0
 10
4.4574735202
 20
0.5091600018
 30
0.0
 10
4.4568554913
 20
0.5120183409
 30
0.0
 10
4.455799794
 20
0.515401057
 30
0.0
 10
4.4544349298
 20
0.5187404222
 30
0.0
 10
4.4527668366
 20
0.5220349075
 30
0.0
 10
4.4508013488
 20
0.5252834113
 30
0.0
 10
4.4485441186
 20
0.5284849251
 30
0.0
 10
4.4460007144
 20
0.5316386681
 30
0.0
 10
4.4431765603
 20
0.5347439671
 30
0.0
 10
4.4400769785
 20
0.5378001473
 30
0.0
 10
4.4367072319
 20
0.5408064973
 30
0.0
 10
4.4330725437
 20
0.5437622797
 30
0.0
 10
4.4291780395
 20
0.5466667253
 30
0.0
 10
4.425028945
 20
0.5495193341
 30
0.0
 10
4.420630451
 20
0.5523197159
 30
0.0
 10
4.4159877101
 20
0.555067458
 30
0.0
 10
4.4111058811
 20
0.5577621349
 30
0.0
 10
4.4059901269
 20
0.560403306
 30
0.0
 10
4.4006455775
 20
0.5629905341
 30
0.0
 10
4.3950772454
 20
0.5655234439
 30
0.0
 10
4.3892900545
 20
0.5680018316
 30
0.0
 10
4.3832888203
 20
0.5704255346
 30
0.0
 10
4.3770783488
 20
0.5727943953
 30
0.0
 10
4.3706634489
 20
0.5751082544
 30
0.0
 10
4.3640489354
 20
0.5773669449
 30
0.0
 10
4.3572395673
 20
0.5795703369
 30
0.0
 10
4.3478037826
 20
0.5824658386
 30
0.0
 10
4.3355468927
 20
0.5859366779
 30
0.0
 10
4.320282832
 20
0.5898354022
 30
0.0
 10
4.3043383167
 20
0.5935111923
 30
0.0
 10
4.2877442294
 20
0.5969633958
 30
0.0
 10
4.2705305897
 20
0.6001920502
 30
0.0
 10
4.2527267007
 20
0.603197665
 30
0.0
 10
4.23436145
 20
0.6059807298
 30
0.0
 10
4.215462455
 20
0.6085420992
 30
0.0
 10
4.1960550003
 20
0.6108817939
 30
0.0
 10
4.176162229
 20
0.6129996206
 30
0.0
 10
4.1558064342
 20
0.6148956731
 30
0.0
 10
4.1350103658
 20
0.6165698984
 30
0.0
 10
4.113797941
 20
0.6180225275
 30
0.0
 10
4.0921942615
 20
0.6192542072
 30
0.0
 10
4.0702251483
 20
0.6202654219
 30
0.0
 10
4.055457487
 20
0.6207892122
 30
0.0
 10
4.048017531
 20
0.6210154373
 30
0.0
 11
4.455156018
 21
0.4873727649
 31
0.0
 11
4.4563769172
 21
0.4909822814
 31
0.0
 11
4.457265498
 21
0.4945652961
 31
0.0
 11
4.4578241177
 21
0.4981191763
 31
0.0
 11
4.4580551339
 21
0.5016412894
 31
0.0
 11
4.4579609041
 21
0.5051290027
 31
0.0
 11
4.4577925596
 21
0.5068591372
 31
0.0
 11
4.4575439071
 21
0.5085797375
 31
0.0
 11
4.4568082716
 21
0.5119916481
 31
0.0
 11
4.4557593159
 21
0.5153634175
 31
0.0
 11
4.4544023842
 21
0.5186937401
 31
0.0
 11
4.4527428211
 21
0.5219813105
 31
0.0
 11
4.450785971
 21
0.5252248234
 31
0.0
 11
4.4485371663
 21
0.5284230195
 31
0.0
 11
4.4460016762
 21
0.531574883
 31
0.0
 11
4.4431847495
 21
0.5346794779
 31
0.0
 11
4.4400916347
 21
0.5377358681
 31
0.0
 11
4.4367275803
 21
0.5407431174
 31
0.0
 11
4.433097835
 21
0.5437002898
 31
0.0
 11
4.4292076451
 21
0.5466064838
 31
0.0
 11
4.4250622378
 21
0.5494610809
 31
0.0
 11
4.4206668312
 21
0.5522636006
 31
0.0
 11
4.4160266432
 21
0.5550135634
 31
0.0
 11
4.4111468919
 21
0.5577104898
 31
0.0
 11
4.4060327952
 21
0.5603539003
 31
0.0
 11
4.4006895708
 21
0.5629433156
 31
0.0
 11
4.3951223402
 21
0.565478336
 31
0.0
 11
4.3893359779
 21
0.5679587656
 31
0.0
 11
4.3833353195
 21
0.5703844405
 31
0.0
 11
4.3771252008
 21
0.5727551972
 31
0.0
 11
4.3707104574
 21
0.5750708718
 31
0.0
 11
4.3640959248
 21
0.5773313006
 31
0.0
 11
4.3572864388
 21
0.5795363198
 31
0.0
 11
4.3502866796
 21
0.5816857805
 31
0.0
 11
4.3357325679
 21
0.5858176658
 31
0.0
 11
4.3204653454
 21
0.5897263019
 31
0.0
 11
4.3045166284
 21
0.5934110473
 31
0.0
 11
4.2879178975
 21
0.5968713265
 31
0.0
 11
4.2706991619
 21
0.6001072776
 31
0.0
 11
4.2528895295
 21
0.6031194757
 31
0.0
 11
4.2345180954
 21
0.6059085024
 31
0.0
 11
4.2156136752
 21
0.6084749185
 31
0.0
 11
4.1962013228
 21
0.6108190064
 31
0.0
 11
4.1763033972
 21
0.6129408491
 31
0.0
 11
4.1559421987
 21
0.6148405252
 31
0.0
 11
4.1351400601
 21
0.6165181174
 31
0.0
 11
4.1139207443
 21
0.6179738882
 31
0.0
 11
4.0923099742
 21
0.6192083471
 31
0.0
 11
4.0703336148
 21
0.6202220211
 31
0.0
 11
4.048017531
 21
0.6210154373
 31
0.0
  0
SPLINE
  5
28E
100
AcDbEntity
  8
0
100
AcDbSpline
 62
9
  6
CONTINUOUS
 70
0
 71
3
 72
29
 73
25
 74
23
 42
0.0000001
 43
0.0000001
 44
0.0000000001
 12
0.267348272
 22
0.0204551403
 32
0.0
 13
0.0959413649
 23
0.250377247
 33
0.0
 40
0.0
 40
0.0
 40
0.0
 40
0.0
 40
0.0638555703
 40
0.1276028843
 40
0.1911712231
 40
0.2545063325
 40
0.3176063333
 40
0.3804834878
 40
0.4431520707
 40
0.5056197542
 40
0.5678923879
 40
0.5989637326
 40
0.6299915802
 40
0.6609786629
 40
0.6919276914
 40
0.7228414863
 40
0.7537231108
 40
0.7845759782
 40
0.8154035109
 40
0.8769847527
 40
0.9077545089
 40
0.9385110875
 40
0.9692579605
 40
1.0
 40
1.0
 40
1.0
 40
1.0
 10
4.455156018
 20
0.4873727649
 30
0.0
 10
4.4608465768
 20
0.4878081565
 30
0.0
 10
4.472192383
 20
0.4890625356
 30
0.0
 10
4.4890222735
 20
0.4920816593
 30
0.0
 10
4.505565091
 20
0.4962222266
 30
0.0
 10
4.5217294142
 20
0.5014713485
 30
0.0
 10
4.537436673
 20
0.5077979899
 30
0.0
 10
4.5526146988
 20
0.5151711971
 30
0.0
 10
4.5671906615
 20
0.5235606284
 30
0.0
 10
4.5810970729
 20
0.5329213986
 30
0.0
 10
4.5920820281
 20
0.5415015262
 30
0.0
 10
4.6004644982
 20
0.5488050505
 30
0.0
 10
4.6065391447
 20
0.5544925361
 30
0.0
 10
4.6123986454
 20
0.5603858819
 30
0.0
 10
4.618036286
 20
0.5664779651
 30
0.0
 10
4.6234452352
 20
0.5727615583
 30
0.0
 10
4.6286187183
 20
0.5792293653
 30
0.0
 10
4.6335498054
 20
0.5858744335
 30
0.0
 10
4.6397908117
 20
0.5949550218
 30
0.0
 10
4.6455309741
 20
0.6043629731
 30
0.0
 10
4.6507433328
 20
0.6140550001
 30
0.0
 10
4.6543839733
 20
0.6214571773
 30
0.0
 10
4.6577510812
 20
0.6289847223
 30
0.0
 10
4.6598111335
 20
0.6340812344
 30
0.0
 10
4.6607942779
 20
0.6366469368
 30
0.0
 11
4.455156018
 21
0.4873727649
 31
0.0
 11
4.4721739114
 21
0.4892541287
 31
0.0
 11
4.4889976393
 21
0.4922736123
 31
0.0
 11
4.5055313098
 21
0.49641543
 31
0.0
 11
4.5216826718
 21
0.501661623
 31
0.0
 11
4.5373757599
 21
0.5079845113
 31
0.0
 11
4.5525391602
 21
0.5153536983
 31
0.0
 11
4.5671019579
 21
0.5237367763
 31
0.0
 11
4.5809957351
 21
0.5330912747
 31
0.0
 11
4.5941528533
 21
0.5433715818
 31
0.0
 11
4.6004341567
 21
0.5488445399
 31
0.0
 11
4.6065072105
 21
0.5545306516
 31
0.0
 11
4.6123652005
 21
0.5604226845
 31
0.0
 11
4.6180013152
 21
0.5665134039
 31
0.0
 11
4.6234087433
 21
0.5727955746
 31
0.0
 11
4.6285806737
 21
0.5792619616
 31
0.0
 11
4.6335103949
 21
0.585905247
 31
0.0
 11
4.6381922205
 21
0.5927172626
 31
0.0
 11
4.6467918501
 21
0.6068128113
 31
0.0
 11
4.6506994981
 21
0.6140789984
 31
0.0
 11
4.6543389307
 21
0.62147923
 31
0.0
 11
4.6577051526
 21
0.6290048219
 31
0.0
 11
4.6607942779
 21
0.6366469368
 31
0.0
  0
SPLINE
  5
28F
100
AcDbEntity
  8
0
100
AcDbSpline
 62
9
  6
CONTINUOUS
 70
0
 71
3
 72
22
 73
18
 74
16
 42
0.0000001
 43
0.0000001
 44
0.0000000001
 12
-0.030429513
 22
0.0382381867
 32
0.0
 13
0.0174870451
 23
0.0456324165
 33
0.0
 40
0.0
 40
0.0
 40
0.0
 40
0.0
 40
0.1344440318
 40
0.1990877899
 40
0.2622749346
 40
0.3242349904
 40
0.3852121611
 40
0.4454683641
 40
0.5052772487
 40
0.5649168982
 40
0.6246660032
 40
0.6847999598
 40
0.7455841887
 40
0.807268594
 40
0.8700887884
 40
0.9342647824
 40
1.0
 40
1.0
 40
1.0
 40
1.0
 10
4.4626026187
 20
0.4414857438
 30
0.0
 10
4.4612389299
 20
0.4431993758
 30
0.0
 10
4.4593491684
 20
0.4458463562
 30
0.0
 10
4.4571908698
 20
0.449535766
 30
0.0
 10
4.455798448
 20
0.4522985192
 30
0.0
 10
4.4546121051
 20
0.4550910216
 30
0.0
 10
4.4536321605
 20
0.4579121212
 30
0.0
 10
4.4528587318
 20
0.4607604541
 30
0.0
 10
4.452291634
 20
0.4636347751
 30
0.0
 10
4.4519306639
 20
0.4665338691
 30
0.0
 10
4.4517755452
 20
0.4694565088
 30
0.0
 10
4.4518259842
 20
0.4724014197
 30
0.0
 10
4.4520814683
 20
0.4753672171
 30
0.0
 10
4.4525411764
 20
0.4783524485
 30
0.0
 10
4.4532043385
 20
0.4813556724
 30
0.0
 10
4.4540701102
 20
0.4843753312
 30
0.0
 10
4.4547728464
 20
0.4863728793
 30
0.0
 10
4.455156018
 20
0.4873727649
 30
0.0
 11
4.4626026187
 21
0.4414857438
 31
0.0
 11
4.458801281
 21
0.4468444253
 31
0.0
 11
4.4572080604
 21
0.44957227
 31
0.0
 11
4.4558201581
 21
0.4523306297
 31
0.0
 11
4.454637839
 21
0.455118139
 31
0.0
 11
4.4536613398
 21
0.4579334493
 31
0.0
 11
4.4528905802
 21
0.4607754061
 31
0.0
 11
4.4523252798
 21
0.4636429774
 31
0.0
 11
4.4519651549
 21
0.466535133
 31
0.0
 11
4.451809922
 21
0.4694508429
 31
0.0
 11
4.4518592949
 21
0.4723890745
 31
0.0
 11
4.4521128487
 21
0.4753486571
 31
0.0
 11
4.4525699492
 21
0.4783282128
 31
0.0
 11
4.4532299451
 21
0.4813263462
 31
0.0
 11
4.4540921852
 21
0.484341662
 31
0.0
 11
4.455156018
 21
0.4873727649
 31
0.0
  0
SPLINE
  5
290
100
AcDbEntity
  8
0
100
AcDbSpline
 62
9
  6
CONTINUOUS
 70
0
 71
3
 72
35
 73
31
 74
29
 42
0.0000001
 43
0.0000001
 44
0.0000000001
 12
-0.1946687715
 22
0.0000021914
 32
0.0
 13
-0.0345945388
 23
0.1915702182
 33
0.0
 40
0.0
 40
0.0
 40
0.0
 40
0.0
 40
0.0435633759
 40
0.0864633903
 40
0.1700217326
 40
0.2105837191
 40
0.2502886584
 40
0.289109646
 40
0.3270229214
 40
0.3640133298
 40
0.4000690651
 40
0.4351800348
 40
0.4693437292
 40
0.5025690582
 40
0.5348676962
 40
0.5967366259
 40
0.6263732908
 40
0.6551831873
 40
0.7104564593
 40
0.7629362176
 40
0.7882679197
 40
0.8130655719
 40
0.8373924692
 40
0.8613129267
 40
0.8848920193
 40
0.9081966648
 40
0.9312943007
 40
0.954251077
 40
0.9771314156
 40
1.0
 40
1.0
 40
1.0
 40
1.0
 10
4.8344980289
 20
0.6061159333
 30
0.0
 10
4.8316712192
 20
0.6061159651
 30
0.0
 10
4.8260603389
 20
0.6061816095
 30
0.0
 10
4.8150341056
 20
0.6065769806
 30
0.0
 10
4.8042191299
 20
0.6073657365
 30
0.0
 10
4.7936556888
 20
0.6085677772
 30
0.0
 10
4.7860036847
 20
0.6096534043
 30
0.0
 10
4.7785553545
 20
0.6109289387
 30
0.0
 10
4.7713210305
 20
0.6123915126
 30
0.0
 10
4.7643100799
 20
0.614036306
 30
0.0
 10
4.7575311727
 20
0.6158584423
 30
0.0
 10
4.7509925254
 20
0.6178533573
 30
0.0
 10
4.7447014045
 20
0.6200162884
 30
0.0
 10
4.7386633035
 20
0.6223415019
 30
0.0
 10
4.731066275
 20
0.6256037064
 30
0.0
 10
4.7238735158
 20
0.6292065393
 30
0.0
 10
4.7171359332
 20
0.6331553123
 30
0.0
 10
4.7109422905
 20
0.6371706955
 30
0.0
 10
4.7038479455
 20
0.6425050197
 30
0.0
 10
4.6974942646
 20
0.6483793708
 30
0.0
 10
4.6929920259
 20
0.653288722
 30
0.0
 10
4.6899288862
 20
0.6570284653
 30
0.0
 10
4.6871389766
 20
0.6608635225
 30
0.0
 10
4.6846210084
 20
0.6647888459
 30
0.0
 10
4.6823738162
 20
0.6687993929
 30
0.0
 10
4.6803957612
 20
0.672890088
 30
0.0
 10
4.6786848484
 20
0.677055874
 30
0.0
 10
4.6772390478
 20
0.6812918635
 30
0.0
 10
4.6760562893
 20
0.6855930724
 30
0.0
 10
4.6754420516
 20
0.6884995872
 30
0.0
 10
4.6751783423
 20
0.6899599004
 30
0.0
 11
4.8344980289
 21
0.6061159333
 31
0.0
 11
4.8260181962
 21
0.6062164894
 31
0.0
 11
4.8176723231
 21
0.6065173193
 31
0.0
 11
4.8014503405
 21
0.6077158758
 31
0.0
 11
4.7936050351
 21
0.6086105276
 31
0.0
 11
4.7859526589
 21
0.6096983687
 31
0.0
 11
4.7785042612
 21
0.6109763191
 31
0.0
 11
4.7712705341
 21
0.6124410463
 31
0.0
 11
4.7642605448
 21
0.6140880695
 31
0.0
 11
4.7574828999
 21
0.6159125824
 31
0.0
 11
4.7509461903
 21
0.6179097754
 31
0.0
 11
4.7446577807
 21
0.6200745951
 31
0.0
 11
4.7386229357
 21
0.6224015706
 31
0.0
 11
4.7328467132
 21
0.6248851901
 31
0.0
 11
4.722088675
 21
0.6303001057
 31
0.0
 11
4.7171127064
 21
0.6332198558
 31
0.0
 11
4.7124084172
 21
0.6362733243
 31
0.0
 11
4.7038221246
 21
0.6427581333
 31
0.0
 11
4.6963349398
 21
0.6497088308
 31
0.0
 11
4.6930036345
 21
0.653344768
 31
0.0
 11
4.689946393
 21
0.6570805911
 31
0.0
 11
4.6871619447
 21
0.6609112021
 31
0.0
 11
4.6846490126
 21
0.6648315057
 31
0.0
 11
4.6824062866
 21
0.6688364174
 31
0.0
 11
4.6804320218
 21
0.6729209987
 31
0.0
 11
4.6787241657
 21
0.6770804141
 31
0.0
 11
4.6772806594
 21
0.6813098301
 31
0.0
 11
4.6760994401
 21
0.6856044331
 31
0.0
 11
4.6751783423
 21
0.6899599004
 31
0.0
  0
SPLINE
  5
291
100
AcDbEntity
  8
0
100
AcDbSpline
 62
9
  6
CONTINUOUS
 70
0
 71
3
 72
46
 73
42
 74
40
 42
0.0000001
 43
0.0000001
 44
0.0000000001
 12
-0.7732046359
 22
0.0
 32
0.0
 13
-0.0133775395
 23
0.7730889021
 33
0.0
 40
0.0
 40
0.0
 40
0.0
 40
0.0
 40
0.031092908
 40
0.0622113449
 40
0.077777432
 40
0.093345265
 40
0.1089133386
 40
0.1244804463
 40
0.1556105639
 40
0.1867422201
 40
0.2178798386
 40
0.2490274669
 40
0.2801862536
 40
0.3113559426
 40
0.3269459523
 40
0.342538648
 40
0.3737302262
 40
0.404933744
 40
0.4361496606
 40
0.451763605
 40
0.467380883
 40
0.4986231901
 40
0.5298786915
 40
0.5455124368
 40
0.5611493944
 40
0.5924307509
 40
0.6237249984
 40
0.6550317416
 40
0.6706908531
 40
0.6863529766
 40
0.717683295
 40
0.7490232283
 40
0.7803708237
 40
0.8117253715
 40
0.843088877
 40
0.8744636089
 40
0.8901570827
 40
0.9058538549
 40
0.9372486199
 40
0.9686356721
 40
1.0
 40
1.0
 40
1.0
 40
1.0
 10
3.2981390397
 20
0.3503914468
 30
0.0
 10
3.2901253128
 20
0.3503914468
 30
0.0
 10
3.2740887154
 20
0.350785659
 30
0.0
 10
3.2540885857
 20
0.3522578368
 30
0.0
 10
3.2381397699
 20
0.354020881
 30
0.0
 10
3.2262105874
 20
0.3556355615
 30
0.0
 10
3.2143242207
 20
0.357541788
 30
0.0
 10
3.1985445936
 20
0.3604713257
 30
0.0
 10
3.1789617463
 20
0.3648571186
 30
0.0
 10
3.1557475906
 20
0.3712624061
 30
0.0
 10
3.1328694431
 20
0.3787954971
 30
0.0
 10
3.110380872
 20
0.3874417442
 30
0.0
 10
3.0883335917
 20
0.3971779495
 30
0.0
 10
3.0703721034
 20
0.4061796959
 30
0.0
 10
3.0562767811
 20
0.4139013273
 30
0.0
 10
3.0423694529
 20
0.421967873
 30
0.0
 10
3.0253557981
 20
0.4326871356
 30
0.0
 10
3.0055849113
 20
0.4465310005
 30
0.0
 10
2.9896834797
 20
0.4588591565
 30
0.0
 10
2.9773312587
 20
0.469179487
 30
0.0
 10
2.9652287542
 20
0.4798019252
 30
0.0
 10
2.9505851238
 20
0.4936308457
 30
0.0
 10
2.9366259257
 20
0.5081562048
 30
0.0
 10
2.925888337
 20
0.5201748648
 30
0.0
 10
2.9154414143
 20
0.5324557261
 30
0.0
 10
2.9029423954
 20
0.5482820328
 30
0.0
 10
2.8888762088
 20
0.5679812657
 30
0.0
 10
2.8779571659
 20
0.5849507999
 30
0.0
 10
2.8697207336
 20
0.5988342513
 30
0.0
 10
2.8618199607
 20
0.6129184013
 30
0.0
 10
2.8525830955
 20
0.6308800092
 30
0.0
 10
2.8425486266
 20
0.6529464465
 30
0.0
 10
2.83358677
 20
0.6754768881
 30
0.0
 10
2.8257214131
 20
0.6984195575
 30
0.0
 10
2.8189679799
 20
0.7217207526
 30
0.0
 10
2.814279879
 20
0.7413929452
 30
0.0
 10
2.811101114
 20
0.7572556651
 30
0.0
 10
2.8083054065
 20
0.7731955813
 30
0.0
 10
2.8055315019
 20
0.7932398029
 30
0.0
 10
2.803361688
 20
0.8174160042
 30
0.0
 10
2.8026911035
 20
0.8335827723
 30
0.0
 10
2.8025512443
 20
0.8416652436
 30
0.0
 11
3.2981390397
 21
0.3503914468
 31
0.0
 11
3.274105093
 21
0.3509811689
 31
0.0
 11
3.2501090613
 21
0.3527470446
 31
0.0
 11
3.2381461647
 21
0.3540694977
 31
0.0
 11
3.2262178283
 21
0.3556841384
 31
0.0
 11
3.2143324124
 21
0.3575903496
 31
0.0
 11
3.2024980614
 21
0.3597873722
 31
0.0
 11
3.1790098697
 21
0.3650473537
 31
0.0
 11
3.1558057805
 21
0.3714497023
 31
0.0
 11
3.1329378987
 21
0.3789797598
 31
0.0
 11
3.1104583523
 21
0.38762178
 31
0.0
 11
3.0884193998
 21
0.3973539297
 31
0.0
 11
3.0668733446
 21
0.4081522593
 31
0.0
 11
3.0563014985
 21
0.4139437567
 31
0.0
 11
3.0458724549
 21
0.4199927644
 31
0.0
 11
3.0254668563
 21
0.4328482706
 31
0.0
 11
3.0057033542
 21
0.4466866905
 31
0.0
 11
2.9866284684
 21
0.4614755138
 31
0.0
 11
2.9773637727
 21
0.4692161399
 31
0.0
 11
2.9682882499
 21
0.4771816282
 31
0.0
 11
2.9507250267
 21
0.4937671395
 31
0.0
 11
2.9339793512
 21
0.511191873
 31
0.0
 11
2.9259257631
 21
0.5202063892
 31
0.0
 11
2.9180917512
 21
0.5294156289
 31
0.0
 11
2.9031005255
 21
0.5483963768
 31
0.0
 11
2.8890392977
 21
0.5680882476
 31
0.0
 11
2.8759411032
 21
0.5884448893
 31
0.0
 11
2.8697634605
 21
0.5988580094
 31
0.0
 11
2.8638385632
 21
0.609419654
 31
0.0
 11
2.8527594871
 21
0.6309624593
 31
0.0
 11
2.8427285797
 21
0.653021007
 31
0.0
 11
2.8337704921
 21
0.6755429619
 31
0.0
 11
2.8259077769
 21
0.6984759973
 31
0.0
 11
2.8191569512
 21
0.7217678121
 31
0.0
 11
2.8135334533
 21
0.7453661093
 31
0.0
 11
2.8111492765
 21
0.7572638456
 31
0.0
 11
2.8090524536
 21
0.7692181612
 31
0.0
 11
2.8057243106
 21
0.7932635057
 31
0.0
 11
2.803555221
 21
0.8174349907
 31
0.0
 11
2.8025512443
 21
0.8416652436
 31
0.0
  0
SPLINE
  5
292
100
AcDbEntity
  8
0
100
AcDbSpline
 62
6
  6
CONTINUOUS
 70
0
 71
3
 72
83
 73
79
 74
77
 42
0.0000001
 43
0.0000001
 44
0.0000000001
 12
0.0
 22
0.6257637505
 32
0.0
 13
0.5420013367
 23
0.312753613
 33
0.0
 40
0.0
 40
0.0
 40
0.0
 40
0.0
 40
0.0000857397
 40
0.0001752943
 40
0.000272012
 40
0.0003785632
 40
0.00049695
 40
0.0006286322
 40
0.0009356619
 40
0.0013054088
 40
0.0017409345
 40
0.0022440687
 40
0.0028159634
 40
0.0034573747
 40
0.0041688137
 40
0.0049506332
 40
0.0058030793
 40
0.0077204421
 40
0.0099216804
 40
0.0124062637
 40
0.0151730125
 40
0.018220561
 40
0.0215474224
 40
0.0251520278
 40
0.0290327503
 40
0.0331878996
 40
0.0376152069
 40
0.0472747328
 40
0.0579879576
 40
0.0697312621
 40
0.0824790718
 40
0.0962002991
 40
0.1108627936
 40
0.1264341846
 40
0.1428783497
 40
0.1601555938
 40
0.1782260606
 40
0.2165797944
 40
0.2575788724
 40
0.3008432938
 40
0.3459675148
 40
0.392532435
 40
0.4401037982
 40
0.4882385736
 40
0.5364869317
 40
0.5843994353
 40
0.631528945
 40
0.6774374565
 40
0.7216962774
 40
0.7638936142
 40
0.8036352179
 40
0.8405503054
 40
0.8578391484
 40
0.8742954684
 40
0.8898795732
 40
0.9045550519
 40
0.9182895973
 40
0.9310512031
 40
0.9428087332
 40
0.9535364235
 40
0.9632107584
 40
0.9718084359
 40
0.9756968993
 40
0.9793092952
 40
0.9826439977
 40
0.9856994383
 40
0.9884741298
 40
0.9909667045
 40
0.9931759778
 40
0.9951013783
 40
0.9959578331
 40
0.9967436502
 40
0.9974590709
 40
0.9981044408
 40
0.9986802602
 40
0.999187268
 40
0.999626588
 40
1.0
 40
1.0
 40
1.0
 40
1.0
 10
3.6629082343
 20
1.9393079424
 30
0.0
 10
3.6629082343
 20
1.9393258266
 30
0.0
 10
3.6629122517
 20
1.9393625004
 30
0.0
 10
3.6629300556
 20
1.939416735
 30
0.0
 10
3.6629594142
 20
1.9394706208
 30
0.0
 10
3.6630001359
 20
1.9395241987
 30
0.0
 10
3.6630521356
 20
1.9395775991
 30
0.0
 10
3.6631411479
 20
1.9396525303
 30
0.0
 10
3.6632830215
 20
1.9397447286
 30
0.0
 10
3.6634898502
 20
1.9398503645
 30
0.0
 10
3.6637416376
 20
1.9399561762
 30
0.0
 10
3.6640384765
 20
1.9400621682
 30
0.0
 10
3.6643804944
 20
1.9401683189
 30
0.0
 10
3.66476771
 20
1.9402745972
 30
0.0
 10
3.6652001265
 20
1.9403809749
 30
0.0
 10
3.6656777225
 20
1.9404874377
 30
0.0
 10
3.6664036712
 20
1.9406353304
 30
0.0
 10
3.667424494
 20
1.9408180272
 30
0.0
 10
3.6687855098
 20
1.9410299917
 30
0.0
 10
3.6703255323
 20
1.9412422523
 30
0.0
 10
3.6720435274
 20
1.9414547703
 30
0.0
 10
3.6739383959
 20
1.9416674677
 30
0.0
 10
3.6760090128
 20
1.9418803074
 30
0.0
 10
3.6782542483
 20
1.94209326
 30
0.0
 10
3.680672962
 20
1.942306306
 30
0.0
 10
3.6832638929
 20
1.942519426
 30
0.0
 10
3.6870576797
 20
1.9428122431
 30
0.0
 10
3.692217959
 20
1.9431755418
 30
0.0
 10
3.6989035308
 20
1.943600416
 30
0.0
 10
3.7062344381
 20
1.9440256711
 30
0.0
 10
3.7141937282
 20
1.9444511583
 30
0.0
 10
3.7227627155
 20
1.9448769077
 30
0.0
 10
3.7319213334
 20
1.9453028731
 30
0.0
 10
3.741648493
 20
1.945728964
 30
0.0
 10
3.7519215463
 20
1.9461551624
 30
0.0
 10
3.7627162961
 20
1.9465815026
 30
0.0
 10
3.7780785827
 20
1.9471616487
 30
0.0
 10
3.798387153
 20
1.9478821001
 30
0.0
 10
3.8239495399
 20
1.9487312845
 30
0.0
 10
3.8509248889
 20
1.9495808983
 30
0.0
 10
3.8790617388
 20
1.9504309598
 30
0.0
 10
3.9080973528
 20
1.9512812463
 30
0.0
 10
3.937761188
 20
1.9521317324
 30
0.0
 10
3.9677763076
 20
1.9529822976
 30
0.0
 10
3.9978626123
 20
1.9538328934
 30
0.0
 10
4.0277391492
 20
1.9546834107
 30
0.0
 10
4.0571274257
 20
1.9555338196
 30
0.0
 10
4.0857532701
 20
1.9563839853
 30
0.0
 10
4.1133498643
 20
1.9572338688
 30
0.0
 10
4.1396594981
 20
1.9580832671
 30
0.0
 10
4.1644364959
 20
1.9589320748
 30
0.0
 10
4.1840191494
 20
1.959653485
 30
0.0
 10
4.1987465664
 20
1.9602347249
 30
0.0
 10
4.2090272324
 20
1.960660938
 30
0.0
 10
4.2187622952
 20
1.9610870275
 30
0.0
 10
4.2279290601
 20
1.9615129968
 30
0.0
 10
4.2365064213
 20
1.9619387502
 30
0.0
 10
4.2444743473
 20
1.9623642335
 30
0.0
 10
4.2518141297
 20
1.9627894918
 30
0.0
 10
4.2585088007
 20
1.9632143371
 30
0.0
 10
4.264542943
 20
1.9636386087
 30
0.0
 10
4.2691510873
 20
1.9640025889
 30
0.0
 10
4.2724961719
 20
1.9642966006
 30
0.0
 10
4.2747463038
 20
1.9645095602
 30
0.0
 10
4.2768218531
 20
1.9647223992
 30
0.0
 10
4.2787216906
 20
1.9649350991
 30
0.0
 10
4.2804446925
 20
1.9651476205
 30
0.0
 10
4.2819897602
 20
1.9653598876
 30
0.0
 10
4.2833558539
 20
1.9655718593
 30
0.0
 10
4.2843809322
 20
1.9657545425
 30
0.0
 10
4.2851103002
 20
1.9659024118
 30
0.0
 10
4.2855904567
 20
1.9660088779
 30
0.0
 10
4.2860254347
 20
1.9661152601
 30
0.0
 10
4.2864152153
 20
1.9662215447
 30
0.0
 10
4.2867597903
 20
1.9663277021
 30
0.0
 10
4.2870592073
 20
1.9664337069
 30
0.0
 10
4.2873134938
 20
1.9665395193
 30
0.0
 10
4.2874651021
 20
1.9666159816
 30
0.0
 10
4.2875325653
 20
1.9666549103
 30
0.0
 11
3.6629082343
 21
1.9393079424
 31
0.0
 11
3.6629139481
 21
1.93936129
 31
0.0
 11
3.6629310854
 21
1.9394146454
 31
0.0
 11
3.6629596405
 21
1.9394680081
 31
0.0
 11
3.6629996072
 21
1.9395213778
 31
0.0
 11
3.6630509797
 21
1.9395747542
 31
0.0
 11
3.663113752
 21
1.9396281369
 31
0.0
 11
3.6632734724
 21
1.9397349198
 31
0.0
 11
3.6634787209
 21
1.9398417237
 31
0.0
 11
3.6637294499
 21
1.9399485458
 31
0.0
 11
3.6640256119
 21
1.9400553833
 31
0.0
 11
3.6643671594
 21
1.9401622334
 31
0.0
 11
3.6647540449
 21
1.9402690933
 31
0.0
 11
3.6651862209
 21
1.9403759603
 31
0.0
 11
3.6656636397
 21
1.9404828314
 31
0.0
 11
3.666186254
 21
1.9405897039
 31
0.0
 11
3.6673668788
 21
1.9408034419
 31
0.0
 11
3.6687276542
 21
1.9410171541
 31
0.0
 11
3.6702676622
 21
1.9412308379
 31
0.0
 11
3.6719857589
 21
1.9414444989
 31
0.0
 11
3.6738807993
 21
1.941658143
 31
0.0
 11
3.6759516383
 21
1.9418717757
 31
0.0
 11
3.6781971308
 21
1.942085403
 31
0.0
 11
3.6806161316
 21
1.9422990304
 31
0.0
 11
3.6832074823
 21
1.9425126636
 31
0.0
 11
3.6859696811
 21
1.9427263047
 31
0.0
 11
3.6919991402
 21
1.9431536036
 31
0.0
 11
3.6986894557
 21
1.9435809126
 31
0.0
 11
3.7060255559
 21
1.944008217
 31
0.0
 11
3.7139912212
 21
1.9444355068
 31
0.0
 11
3.7225668298
 21
1.9448627868
 31
0.0
 11
3.7317321332
 21
1.9452900643
 31
0.0
 11
3.7414667724
 21
1.9457173464
 31
0.0
 11
3.7517480595
 21
1.9461446358
 31
0.0
 11
3.7625510854
 21
1.9465719309
 31
0.0
 11
3.7738508523
 21
1.9469992299
 31
0.0
 11
3.7978360085
 21
1.9478538328
 31
0.0
 11
3.8234775079
 21
1.948708433
 31
0.0
 11
3.8505373233
 21
1.9495630212
 31
0.0
 11
3.8787614906
 21
1.9504175946
 31
0.0
 11
3.9078875959
 21
1.9512721576
 31
0.0
 11
3.9376437619
 21
1.9521267243
 31
0.0
 11
3.9677526344
 21
1.9529812958
 31
0.0
 11
3.9979326116
 21
1.9538358611
 31
0.0
 11
4.0279023385
 21
1.9546904196
 31
0.0
 11
4.0573818939
 21
1.9555449772
 31
0.0
 11
4.086097063
 21
1.9563995439
 31
0.0
 11
4.113779441
 21
1.957254127
 31
0.0
 11
4.1401711719
 21
1.9581087253
 31
0.0
 11
4.1650253384
 21
1.9589633335
 31
0.0
 11
4.1881096481
 21
1.9598179427
 31
0.0
 11
4.1989199376
 21
1.960245243
 31
0.0
 11
4.2092088373
 21
1.960672537
 31
0.0
 11
4.2189514398
 21
1.9610998219
 31
0.0
 11
4.228124877
 21
1.9615270995
 31
0.0
 11
4.2367088301
 21
1.9619543769
 31
0.0
 11
4.2446831411
 21
1.9623816615
 31
0.0
 11
4.2520281587
 21
1.9628089589
 31
0.0
 11
4.2587275451
 21
1.9632362605
 31
0.0
 11
4.2647662949
 21
1.9636635524
 31
0.0
 11
4.2701294169
 21
1.9640908208
 31
0.0
 11
4.2725532808
 21
1.9643044455
 31
0.0
 11
4.2748036705
 21
1.9645180698
 31
0.0
 11
4.2768794424
 21
1.9647316997
 31
0.0
 11
4.278779453
 21
1.9649453407
 31
0.0
 11
4.2805025585
 21
1.9651589988
 31
0.0
 11
4.2820476154
 21
1.9653726796
 31
0.0
 11
4.2834134807
 21
1.9655863889
 31
0.0
 11
4.284599217
 21
1.9658001247
 31
0.0
 11
4.2851243915
 21
1.9659069965
 31
0.0
 11
4.2856043737
 21
1.9660138672
 31
0.0
 11
4.2860391159
 21
1.966120734
 31
0.0
 11
4.2864285706
 21
1.966227594
 31
0.0
 11
4.2867726905
 21
1.9663344444
 31
0.0
 11
4.2870714279
 21
1.9664412825
 31
0.0
 11
4.2873247353
 21
1.9665481054
 31
0.0
 11
4.2875325653
 21
1.9666549103
 31
0.0
  0
SPLINE
  5
293
100
AcDbEntity
  8
0
100
AcDbSpline
 62
9
  6
CONTINUOUS
 70
0
 71
3
 72
56
 73
52
 74
50
 42
0.0000001
 43
0.0000001
 44
0.0000000001
 12
0.0099627128
 22
0.5769911569
 32
0.0
 13
-0.5769135855
 23
0.0137392032
 33
0.0
 40
0.0
 40
0.0
 40
0.0
 40
0.0
 40
0.0025486101
 40
0.005097291
 40
0.0076549724
 40
0.0102304389
 40
0.0128322388
 40
0.0154685378
 40
0.0208731043
 40
0.0265017733
 40
0.0324017101
 40
0.0386119657
 40
0.0451642317
 40
0.0520837153
 40
0.0593893726
 40
0.0670952735
 40
0.0752118979
 40
0.0837468052
 40
0.0927051755
 40
0.102090248
 40
0.1119036754
 40
0.1221457974
 40
0.1328157996
 40
0.1439118893
 40
0.1554314575
 40
0.1673712106
 40
0.1797272769
 40
0.1924952964
 40
0.2056705136
 40
0.2192478422
 40
0.2332218919
 40
0.2475870093
 40
0.2623373132
 40
0.2774667241
 40
0.2929689896
 40
0.3250669504
 40
0.3585852473
 40
0.3934775451
 40
0.4296961624
 40
0.4671926464
 40
0.5059192731
 40
0.5458280253
 40
0.5868701692
 40
0.6289970113
 40
0.6721654936
 40
0.7163356278
 40
0.807518555
 40
0.8544475034
 40
0.9022038787
 40
0.9507380104
 40
1.0
 40
1.0
 40
1.0
 40
1.0
 10
4.680210935
 20
0.736094156
 30
0.0
 10
4.6802193987
 20
0.7365843311
 30
0.0
 10
4.6802067819
 20
0.7375654655
 30
0.0
 10
4.6800988657
 20
0.7390348605
 30
0.0
 10
4.6799021877
 20
0.7405002848
 30
0.0
 10
4.6796169336
 20
0.7419614357
 30
0.0
 10
4.6792435626
 20
0.7434182083
 30
0.0
 10
4.6786240317
 20
0.7453703876
 30
0.0
 10
4.6776227714
 20
0.7478075268
 30
0.0
 10
4.6760869609
 20
0.7506853905
 30
0.0
 10
4.6742118486
 20
0.753541304
 30
0.0
 10
4.6720021449
 20
0.7563749753
 30
0.0
 10
4.6694621546
 20
0.7591864768
 30
0.0
 10
4.6665961349
 20
0.761975598
 30
0.0
 10
4.6634082107
 20
0.7647416796
 30
0.0
 10
4.6599025409
 20
0.7674836398
 30
0.0
 10
4.6560833464
 20
0.7702002554
 30
0.0
 10
4.6519548414
 20
0.7728902239
 30
0.0
 10
4.6475212489
 20
0.7755521865
 30
0.0
 10
4.6427868142
 20
0.778184763
 30
0.0
 10
4.6377557647
 20
0.7807864733
 30
0.0
 10
4.6324326511
 20
0.7833564047
 30
0.0
 10
4.6268220929
 20
0.7858938028
 30
0.0
 10
4.6209286975
 20
0.7883978619
 30
0.0
 10
4.6147570891
 20
0.7908677817
 30
0.0
 10
4.6083118992
 20
0.7933027543
 30
0.0
 10
4.6015977672
 20
0.7957019691
 30
0.0
 10
4.5946193355
 20
0.7980646176
 30
0.0
 10
4.5873812385
 20
0.80038988
 30
0.0
 10
4.5798881017
 20
0.802676924
 30
0.0
 10
4.5721445512
 20
0.8049249216
 30
0.0
 10
4.5641552149
 20
0.8071330453
 30
0.0
 10
4.555924725
 20
0.8093004636
 30
0.0
 10
4.5474577093
 20
0.8114263619
 30
0.0
 10
4.5357227987
 20
0.8142370293
 30
0.0
 10
4.5204917889
 20
0.817633016
 30
0.0
 10
4.5015446911
 20
0.8214851886
 30
0.0
 10
4.4817547298
 20
0.8251547685
 30
0.0
 10
4.4611544676
 20
0.8286365632
 30
0.0
 10
4.4397760258
 20
0.831925266
 30
0.0
 10
4.4176515083
 20
0.8350182447
 30
0.0
 10
4.3948126073
 20
0.8379131942
 30
0.0
 10
4.3712907876
 20
0.8406077507
 30
0.0
 10
4.3471162562
 20
0.8430998432
 30
0.0
 10
4.3223171203
 20
0.8453864873
 30
0.0
 10
4.2880907829
 20
0.8481868652
 30
0.0
 10
4.2531025005
 20
0.8505224944
 30
0.0
 10
4.2173990213
 20
0.8524178941
 30
0.0
 10
4.189876076
 20
0.8536370848
 30
0.0
 10
4.1618954207
 20
0.8546403576
 30
0.0
 10
4.1430904379
 20
0.8551616683
 30
0.0
 10
4.1336171342
 20
0.8553872752
 30
0.0
 11
4.680210935
 21
0.736094156
 31
0.0
 11
4.6801919719
 21
0.7375647784
 31
0.0
 11
4.6800843565
 21
0.7390316216
 31
0.0
 11
4.6798882734
 21
0.7404945184
 31
0.0
 11
4.6796039317
 21
0.7419533082
 31
0.0
 11
4.6792317359
 21
0.7434078839
 31
0.0
 11
4.6787721822
 21
0.7448581631
 31
0.0
 11
4.6775929873
 21
0.7477455038
 31
0.0
 11
4.6760703204
 21
0.7506146736
 31
0.0
 11
4.6742081547
 21
0.7534650155
 31
0.0
 11
4.6720104637
 21
0.7562958728
 31
0.0
 11
4.6694812205
 21
0.7591065885
 31
0.0
 11
4.6666244221
 21
0.7618964557
 31
0.0
 11
4.6634442957
 21
0.7646642788
 31
0.0
 11
4.6599451979
 21
0.7674085872
 31
0.0
 11
4.6561314868
 21
0.7701279071
 31
0.0
 11
4.6520075205
 21
0.7728207649
 31
0.0
 11
4.6475776572
 21
0.7754856867
 31
0.0
 11
4.642846255
 21
0.778121199
 31
0.0
 11
4.6378176954
 21
0.7807258765
 31
0.0
 11
4.6324965578
 21
0.7832987043
 31
0.0
 11
4.6268875208
 21
0.7858388732
 31
0.0
 11
4.6209952639
 21
0.7883455758
 31
0.0
 11
4.6148244664
 21
0.7908180048
 31
0.0
 11
4.6083798079
 21
0.7932553526
 31
0.0
 11
4.6016659676
 21
0.7956568118
 31
0.0
 11
4.5946876246
 21
0.7980215746
 31
0.0
 11
4.5874494421
 21
0.8003488269
 31
0.0
 11
4.5799560667
 21
0.8026377468
 31
0.0
 11
4.5722121437
 21
0.8048875124
 31
0.0
 11
4.5642223187
 21
0.8070973016
 31
0.0
 11
4.5559912371
 21
0.8092662924
 31
0.0
 11
4.5475235445
 21
0.8113936628
 31
0.0
 11
4.5388238863
 21
0.8134785907
 31
0.0
 11
4.5207467004
 21
0.817518007
 31
0.0
 11
4.501793337
 21
0.821379079
 31
0.0
 11
4.4819964751
 21
0.8250566549
 31
0.0
 11
4.4613887935
 21
0.8285455831
 31
0.0
 11
4.4400028478
 21
0.8318410563
 31
0.0
 11
4.4178705194
 21
0.834940153
 31
0.0
 11
4.3950234601
 21
0.8378405951
 31
0.0
 11
4.3714933215
 21
0.840540105
 31
0.0
 11
4.3473113837
 21
0.8430363628
 31
0.0
 11
4.3225053418
 21
0.8453266411
 31
0.0
 11
4.2971008839
 21
0.847407984
 31
0.0
 11
4.2445994406
 21
0.850932066
 31
0.0
 11
4.217556032
 21
0.8523702689
 31
0.0
 11
4.1900240165
 21
0.8535920964
 31
0.0
 11
4.1620341365
 21
0.854597711
 31
0.0
 11
4.1336171342
 21
0.8553872752
 31
0.0
  0
SPLINE
  5
294
100
AcDbEntity
  8
0
100
AcDbSpline
 62
9
  6
CONTINUOUS
 70
0
 71
3
 72
18
 73
14
 74
12
 42
0.0000001
 43
0.0000001
 44
0.0000000001
 12
-0.200419866
 22
0.0614477165
 32
0.0
 13
-0.1861660077
 23
0.096364735
 33
0.0
 40
0.0
 40
0.0
 40
0.0
 40
0.0
 40
0.1395021251
 40
0.2754697576
 40
0.4075700803
 40
0.5354929191
 40
0.6589650767
 40
0.7189500737
 40
0.7777224418
 40
0.8352473704
 40
0.8914906463
 40
0.9464189521
 40
1.0
 40
1.0
 40
1.0
 40
1.0
 10
3.1741309091
 20
0.764989717
 30
0.0
 10
3.1648112434
 20
0.7678470794
 30
0.0
 10
3.146457358
 20
0.7736519602
 30
0.0
 10
3.1194653168
 20
0.7827402055
 30
0.0
 10
3.0934148076
 20
0.7920738141
 30
0.0
 10
3.0683746876
 20
0.8016225713
 30
0.0
 10
3.0482140327
 20
0.809810669
 30
0.0
 10
3.0326449751
 20
0.8164519462
 30
0.0
 10
3.0213732332
 20
0.8214205029
 30
0.0
 10
3.0104027463
 20
0.826421941
 30
0.0
 10
2.9997422601
 20
0.8314534418
 30
0.0
 10
2.9894006
 20
0.8365121733
 30
0.0
 10
2.9826392401
 20
0.8399442459
 30
0.0
 10
2.9793142502
 20
0.8416653537
 30
0.0
 11
3.1741309091
 21
0.764989717
 31
0.0
 11
3.1462501809
 21
0.7738130496
 31
0.0
 11
3.1192396181
 21
0.7829141406
 31
0.0
 11
3.0931729531
 21
0.7922614703
 31
0.0
 11
3.0681197746
 21
0.8018243182
 31
0.0
 11
3.0441427203
 21
0.811573304
 31
0.0
 11
3.0325771108
 21
0.8165084608
 31
0.0
 11
3.0213041436
 21
0.8214794768
 31
0.0
 11
3.0103325647
 21
0.826483488
 31
0.0
 11
2.9996711833
 21
0.8315176804
 31
0.0
 11
2.9893288087
 21
0.8365792403
 31
0.0
 11
2.9793142502
 21
0.8416653537
 31
0.0
  0
SPLINE
  5
295
100
AcDbEntity
  8
0
100
AcDbSpline
 62
9
  6
CONTINUOUS
 70
0
 71
3
 72
13
 73
9
 74
7
 42
0.0000001
 43
0.0000001
 44
0.0000000001
 12
0.0091143653
 22
0.0780783673
 32
0.0
 13
0.0236177602
 23
0.074976693
 33
0.0
 40
0.0
 40
0.0
 40
0.0
 40
0.0
 40
0.1187594187
 40
0.2396247638
 40
0.4869635562
 40
0.7408466249
 40
0.8698678256
 40
1.0
 40
1.0
 40
1.0
 40
1.0
 10
3.1573344525
 20
0.6883077995
 30
0.0
 10
3.157695258
 20
0.6913986466
 30
0.0
 10
3.1585069875
 20
0.6976256879
 30
0.0
 10
3.1604795719
 20
0.7102332353
 30
0.0
 10
3.1636008841
 20
0.7262390254
 30
0.0
 10
3.1675163558
 20
0.7422884744
 30
0.0
 10
3.1711351949
 20
0.7552361033
 30
0.0
 10
3.1731058692
 20
0.7617351135
 30
0.0
 10
3.174130346
 20
0.7649874068
 30
0.0
 11
3.1573344525
 21
0.6883077995
 31
0.0
 11
3.158538893
 21
0.6975652816
 31
0.0
 11
3.1600056088
 21
0.7069524362
 31
0.0
 11
3.1637139225
 21
0.7260384628
 31
0.0
 11
3.1684336697
 21
0.745429722
 31
0.0
 11
3.17116272
 21
0.7551978267
 31
0.0
 11
3.174130346
 21
0.7649874068
 31
0.0
  0
SPLINE
  5
296
100
AcDbEntity
  8
0
100
AcDbSpline
 62
9
  6
CONTINUOUS
 70
0
 71
3
 72
21
 73
17
 74
15
 42
0.0000001
 43
0.0000001
 44
0.0000000001
 12
-0.1988644228
 22
0.127015937
 32
0.0
 13
-0.1502500584
 23
0.1819478685
 33
0.0
 40
0.0
 40
0.0
 40
0.0
 40
0.0
 40
0.1338686165
 40
0.1999906271
 40
0.265537522
 40
0.3304870086
 40
0.362731541
 40
0.3948190997
 40
0.4585131523
 40
0.5215511434
 40
0.6455787947
 40
0.7065381614
 40
0.7667679583
 40
0.8262483653
 40
0.8849602533
 40
1.0
 40
1.0
 40
1.0
 40
1.0
 10
3.1574308461
 20
0.688332797
 30
0.0
 10
3.1485569443
 20
0.6940006129
 30
0.0
 10
3.1354311754
 20
0.7026767088
 30
0.0
 10
3.1183039129
 20
0.7146312677
 30
0.0
 10
3.1057773603
 20
0.7237021521
 30
0.0
 10
3.0955455773
 20
0.7313951316
 30
0.0
 10
3.0875040472
 20
0.7376191997
 30
0.0
 10
3.0795992749
 20
0.7438578631
 30
0.0
 10
3.069903643
 20
0.7517361686
 30
0.0
 10
3.0548377157
 20
0.7644669276
 30
0.0
 10
3.0403042702
 20
0.7774899903
 30
0.0
 10
3.0263358239
 20
0.7907917
 30
0.0
 10
3.01624692
 20
0.8008009981
 30
0.0
 10
3.0064929062
 20
0.8108926394
 30
0.0
 10
2.9940295896
 20
0.8243550207
 30
0.0
 10
2.9850758598
 20
0.8346881647
 30
0.0
 10
2.9793142836
 20
0.8416652436
 30
0.0
 11
3.1574308461
 21
0.688332797
 31
0.0
 11
3.1310862338
 21
0.7057624793
 31
0.0
 11
3.1182930624
 21
0.7146941583
 31
0.0
 11
3.1057669014
 21
0.7237671428
 31
0.0
 11
3.093518441
 21
0.7329789926
 31
0.0
 11
3.0875016892
 21
0.7376362293
 31
0.0
 11
3.0815582427
 21
0.7423271052
 31
0.0
 11
3.0698945454
 21
0.7518059551
 31
0.0
 11
3.0585335774
 21
0.7614074843
 31
0.0
 11
3.0367444749
 21
0.7809460156
 31
0.0
 11
3.0263286664
 21
0.7908667354
 31
0.0
 11
3.0162406353
 21
0.8008776479
 31
0.0
 11
3.0064877344
 21
0.8109708447
 31
0.0
 11
2.9970774108
 21
0.8211384361
 31
0.0
 11
2.9793142836
 21
0.8416652436
 31
0.0
  0
SPLINE
  5
297
100
AcDbEntity
  8
0
100
AcDbSpline
 62
9
  6
CONTINUOUS
 70
0
 71
3
 72
25
 73
21
 74
19
 42
0.0000001
 43
0.0000001
 44
0.0000000001
 12
0.0748795774
 22
0.1887229164
 32
0.0
 13
0.1720391227
 23
0.1078231448
 33
0.0
 40
0.0
 40
0.0
 40
0.0
 40
0.0
 40
0.048353344
 40
0.0983216383
 40
0.1500178683
 40
0.2035318769
 40
0.2589400596
 40
0.3163010152
 40
0.3756555246
 40
0.4370279802
 40
0.5004288177
 40
0.5658569921
 40
0.6333036263
 40
0.7027539195
 40
0.738225024
 40
0.7741887577
 40
0.8106405087
 40
0.8475745434
 40
0.9228628562
 40
1.0
 40
1.0
 40
1.0
 40
1.0
 10
3.0162207201
 20
0.5467278676
 30
0.0
 10
3.0174276127
 20
0.5497696623
 30
0.0
 10
3.020101418
 20
0.5558696012
 30
0.0
 10
3.0247708595
 20
0.5648919312
 30
0.0
 10
3.0301469331
 20
0.5739206119
 30
0.0
 10
3.0362150691
 20
0.5829456634
 30
0.0
 10
3.0429599617
 20
0.5919596946
 30
0.0
 10
3.0503666456
 20
0.6009558614
 30
0.0
 10
3.0584203787
 20
0.6099272866
 30
0.0
 10
3.0671054925
 20
0.6188677033
 30
0.0
 10
3.0764062684
 20
0.6277707781
 30
0.0
 10
3.0863068423
 20
0.6366305246
 30
0.0
 10
3.096793337
 20
0.645438996
 30
0.0
 10
3.1059439729
 20
0.6526772078
 30
0.0
 10
3.113542731
 20
0.6584371726
 30
0.0
 10
3.1194206544
 20
0.6627692109
 30
0.0
 10
3.1254346669
 20
0.6670823883
 30
0.0
 10
3.1336836016
 20
0.6728446684
 30
0.0
 10
3.1443208176
 20
0.6799943866
 30
0.0
 10
3.1530073105
 20
0.6855604072
 30
0.0
 10
3.1574308461
 20
0.688332797
 30
0.0
 11
3.0162207201
 21
0.5467278676
 31
0.0
 11
3.0201509879
 21
0.5557242524
 31
0.0
 11
3.0248034895
 21
0.5647398941
 31
0.0
 11
3.0301636007
 21
0.57376422
 31
0.0
 11
3.0362166739
 21
0.5827871611
 31
0.0
 11
3.0429479549
 21
0.5918009343
 31
0.0
 11
3.0503426593
 21
0.6007984052
 31
0.0
 11
3.058385895
 21
0.6097724941
 31
0.0
 11
3.0670620599
 21
0.6187164816
 31
0.0
 11
3.0763552637
 21
0.6276237949
 31
0.0
 11
3.0862497355
 21
0.6364877661
 31
0.0
 11
3.0967312857
 21
0.6453004758
 31
0.0
 11
3.1077868388
 21
0.6540531223
 31
0.0
 11
3.1135257878
 21
0.6584041656
 31
0.0
 11
3.1194032757
 21
0.6627369399
 31
0.0
 11
3.1254169285
 21
0.6670509414
 31
0.0
 11
3.1315639825
 21
0.6713459806
 31
0.0
 11
3.1442472214
 21
0.6798784286
 31
0.0
 11
3.1574308461
 21
0.688332797
 31
0.0
  0
SPLINE
  5
298
100
AcDbEntity
  8
0
100
AcDbSpline
 62
9
  6
CONTINUOUS
 70
0
 71
3
 72
37
 73
33
 74
31
 42
0.0000001
 43
0.0000001
 44
0.0000000001
 12
0.1022951699
 22
-0.2244960241
 32
0.0
 13
0.2436779402
 23
-0.0385204893
 33
0.0
 40
0.0
 40
0.0
 40
0.0
 40
0.0
 40
0.0350337684
 40
0.0700285166
 40
0.1049562783
 40
0.1397857006
 40
0.1744823512
 40
0.1917696515
 40
0.2090103972
 40
0.2433421297
 40
0.2774608146
 40
0.3113504454
 40
0.3449962465
 40
0.3783848072
 40
0.4115026149
 40
0.4443336567
 40
0.4768618714
 40
0.5090716905
 40
0.5409481896
 40
0.6036410898
 40
0.6648579136
 40
0.694893226
 40
0.7245336641
 40
0.75377787
 40
0.7826317835
 40
0.8111036805
 40
0.839204052
 40
0.8669457857
 40
0.894335768
 40
0.9213582669
 40
0.9479926038
 40
1.0
 40
1.0
 40
1.0
 40
1.0
 10
3.1573344525
 20
0.6883077995
 30
0.0
 10
3.1585290476
 20
0.6856861522
 30
0.0
 10
3.1609931833
 20
0.6804801871
 30
0.0
 10
3.1649014909
 20
0.6727836151
 30
0.0
 10
3.1690049573
 20
0.6652084147
 30
0.0
 10
3.1732876276
 20
0.6577614743
 30
0.0
 10
3.176997097
 20
0.6516609358
 30
0.0
 10
3.1800399074
 20
0.646849598
 30
0.0
 10
3.1831217805
 20
0.6420989176
 30
0.0
 10
3.1870604126
 20
0.6362547474
 30
0.0
 10
3.1919302447
 20
0.629389937
 30
0.0
 10
3.1969337919
 20
0.6226921702
 30
0.0
 10
3.2020679703
 20
0.616170201
 30
0.0
 10
3.2073298507
 20
0.6098330296
 30
0.0
 10
3.2127153586
 20
0.6036893704
 30
0.0
 10
3.2182170581
 20
0.5977455678
 30
0.0
 10
3.2238277382
 20
0.5920085027
 30
0.0
 10
3.2295401524
 20
0.5864849279
 30
0.0
 10
3.237239287
 20
0.5794534495
 30
0.0
 10
3.2470712115
 20
0.5712280388
 30
0.0
 10
3.2572606851
 20
0.5637007033
 30
0.0
 10
3.2655307868
 20
0.5581808282
 30
0.0
 10
3.2717424563
 20
0.5543201518
 30
0.0
 10
3.2779954847
 20
0.55071768
 30
0.0
 10
3.2842843997
 20
0.5473783226
 30
0.0
 10
3.2906039924
 20
0.5443066957
 30
0.0
 10
3.2969490716
 20
0.5415073505
 30
0.0
 10
3.3033139401
 20
0.5389853798
 30
0.0
 10
3.3096896133
 20
0.5367456591
 30
0.0
 10
3.316061793
 20
0.5347857806
 30
0.0
 10
3.3244633629
 20
0.5325627838
 30
0.0
 10
3.3308120806
 20
0.5312824688
 30
0.0
 10
3.3350364324
 20
0.5306146853
 30
0.0
 11
3.1573344525
 21
0.6883077995
 31
0.0
 11
3.1610304838
 21
0.6804949781
 31
0.0
 11
3.1649378874
 21
0.6727964904
 31
0.0
 11
3.1690407685
 21
0.6652191683
 31
0.0
 11
3.1733232325
 21
0.6577698439
 31
0.0
 11
3.1777693848
 21
0.6504553493
 31
0.0
 11
3.1800488799
 21
0.6468507986
 31
0.0
 11
3.1823638186
 21
0.6432825905
 31
0.0
 11
3.1870981296
 21
0.6362595366
 31
0.0
 11
3.1919691555
 21
0.6293949522
 31
0.0
 11
3.1969738608
 21
0.6226976212
 31
0.0
 11
3.20210921
 21
0.6161763275
 31
0.0
 11
3.2073721599
 21
0.6098398516
 31
0.0
 11
3.2127584051
 21
0.6036964009
 31
0.0
 11
3.218260971
 21
0.5977529706
 31
0.0
 11
3.2238725434
 21
0.5920164019
 31
0.0
 11
3.2295858083
 21
0.586493536
 31
0.0
 11
3.2353934516
 21
0.5811912141
 31
0.0
 11
3.2472619836
 21
0.5712739085
 31
0.0
 11
3.2594157147
 21
0.5623089763
 31
0.0
 11
3.2655796919
 21
0.5581966894
 31
0.0
 11
3.271791203
 21
0.5543381337
 31
0.0
 11
3.2780435636
 21
0.5507382364
 31
0.0
 11
3.2843314936
 21
0.5474016018
 31
0.0
 11
3.2906497914
 21
0.5443328156
 31
0.0
 11
3.2969932556
 21
0.541536464
 31
0.0
 11
3.3033566805
 21
0.539017131
 31
0.0
 11
3.309732158
 21
0.5367781108
 31
0.0
 11
3.3161044034
 21
0.5348191772
 31
0.0
 11
3.3224568853
 21
0.5331395092
 31
0.0
 11
3.3350364324
 21
0.5306146853
 31
0.0
  0
SPLINE
  5
299
100
AcDbEntity
  8
0
100
AcDbSpline
 62
9
  6
CONTINUOUS
 70
0
 71
3
 72
32
 73
28
 74
26
 42
0.0000001
 43
0.0000001
 44
0.0000000001
 12
0.0769928804
 22
0.1445417275
 32
0.0
 13
0.1518339904
 23
0.0613730722
 33
0.0
 40
0.0
 40
0.0
 40
0.0
 40
0.0
 40
0.0195248638
 40
0.0397146295
 40
0.0605990965
 40
0.0822028311
 40
0.1045457832
 40
0.1276438529
 40
0.1515098363
 40
0.1761549171
 40
0.2015878226
 40
0.227814839
 40
0.2548401164
 40
0.2826659352
 40
0.3112927957
 40
0.3407188745
 40
0.3709406853
 40
0.401953556
 40
0.46632644
 40
0.5337859385
 40
0.6042849834
 40
0.6777782462
 40
0.7156323899
 40
0.7542141129
 40
0.8334949287
 40
0.9154753368
 40
1.0
 40
1.0
 40
1.0
 40
1.0
 10
3.2008411756
 20
0.4414856065
 30
0.0
 10
3.2013422675
 20
0.4424263257
 30
0.0
 10
3.2024127796
 20
0.4443128716
 30
0.0
 10
3.2041843083
 20
0.4471079765
 30
0.0
 10
3.2061453681
 20
0.4499131301
 30
0.0
 10
3.2082935636
 20
0.452726899
 30
0.0
 10
3.210626587
 20
0.4555479797
 30
0.0
 10
3.2131421367
 20
0.458375034
 30
0.0
 10
3.215837992
 20
0.4612067999
 30
0.0
 10
3.2187118988
 20
0.464042206
 30
0.0
 10
3.2217616771
 20
0.4668802513
 30
0.0
 10
3.2249851587
 20
0.4697199415
 30
0.0
 10
3.2283801761
 20
0.4725602757
 30
0.0
 10
3.2319445526
 20
0.4754002463
 30
0.0
 10
3.2356760753
 20
0.4782387962
 30
0.0
 10
3.2395723313
 20
0.4810749964
 30
0.0
 10
3.2436308499
 20
0.483907921
 30
0.0
 10
3.2493261233
 20
0.4877269584
 30
0.0
 10
3.2568408747
 20
0.4924795641
 30
0.0
 10
3.2663589298
 20
0.4980865301
 30
0.0
 10
3.2764698424
 20
0.5036583499
 30
0.0
 10
3.2852878698
 20
0.5082199756
 30
0.0
 10
3.2926238896
 20
0.511849369
 30
0.0
 10
3.3002865639
 20
0.5155297258
 30
0.0
 10
3.310199112
 20
0.5200876796
 30
0.0
 10
3.3225004336
 20
0.5254470875
 30
0.0
 10
3.3308992611
 20
0.5289238476
 30
0.0
 10
3.3351771667
 20
0.530653027
 30
0.0
 11
3.2008411756
 21
0.4414856065
 31
0.0
 11
3.2024167281
 21
0.4442680596
 31
0.0
 11
3.2041843867
 21
0.4470623425
 31
0.0
 11
3.2061418279
 21
0.4498670447
 31
0.0
 11
3.2082867283
 21
0.4526807556
 31
0.0
 11
3.2106167645
 21
0.4555020645
 31
0.0
 11
3.213129613
 21
0.4583295608
 31
0.0
 11
3.2158229765
 21
0.4611619078
 31
0.0
 11
3.2186946481
 21
0.4639980256
 31
0.0
 11
3.2217424407
 21
0.4668368901
 31
0.0
 11
3.224964167
 21
0.4696774773
 31
0.0
 11
3.2283576399
 21
0.472518763
 31
0.0
 11
3.2319206722
 21
0.4753597231
 31
0.0
 11
3.2356510432
 21
0.4781993395
 31
0.0
 11
3.2395463282
 21
0.4810366306
 31
0.0
 11
3.243604026
 21
0.4838706282
 31
0.0
 11
3.2478216349
 21
0.4867003645
 31
0.0
 11
3.2567265805
 21
0.492343181
 31
0.0
 11
3.2662414994
 21
0.4979573881
 31
0.0
 11
3.276349967
 21
0.5035357788
 31
0.0
 11
3.2870373295
 21
0.5090714113
 31
0.0
 11
3.2925935226
 21
0.5118210248
 31
0.0
 11
3.2982887576
 21
0.5145573565
 31
0.0
 11
3.3100826398
 21
0.5199870343
 31
0.0
 11
3.3223889569
 21
0.5253542979
 31
0.0
 11
3.3351771667
 21
0.530653027
 31
0.0
  0
SPLINE
  5
29A
100
AcDbEntity
  8
0
100
AcDbSpline
 62
9
  6
CONTINUOUS
 70
0
 71
3
 72
38
 73
34
 74
32
 42
0.0000001
 43
0.0000001
 44
0.0000000001
 12
0.0643757711
 22
-0.2882685709
 32
0.0
 13
0.2831581644
 23
-0.0840503586
 33
0.0
 40
0.0
 40
0.0
 40
0.0
 40
0.0
 40
0.0362656323
 40
0.072670404
 40
0.1091525762
 40
0.1456502617
 40
0.182101852
 40
0.2184529548
 40
0.2546576925
 40
0.2906708091
 40
0.3264473399
 40
0.3619426097
 40
0.3971113258
 40
0.4319082093
 40
0.4662886038
 40
0.5002087322
 40
0.5336276929
 40
0.5665087491
 40
0.5988165482
 40
0.6305170939
 40
0.6615783706
 40
0.6919730085
 40
0.7216770038
 40
0.7506685026
 40
0.7789282778
 40
0.8064423614
 40
0.8332055974
 40
0.85921725
 40
0.8844807735
 40
0.9090045122
 40
0.9328009053
 40
0.9558864254
 40
1.0
 40
1.0
 40
1.0
 40
1.0
 10
3.174130346
 20
0.7649874068
 30
0.0
 10
3.1749085553
 20
0.7615026595
 30
0.0
 10
3.1765480568
 20
0.7545374171
 30
0.0
 10
3.1792459403
 20
0.7441339095
 30
0.0
 10
3.1821823077
 20
0.7337713796
 30
0.0
 10
3.1853507775
 20
0.723472636
 30
0.0
 10
3.1887454649
 20
0.7132598112
 30
0.0
 10
3.1923599344
 20
0.7031533101
 30
0.0
 10
3.1961866706
 20
0.6931714712
 30
0.0
 10
3.2002187315
 20
0.6833318824
 30
0.0
 10
3.2044490676
 20
0.673652053
 30
0.0
 10
3.2088707409
 20
0.6641497075
 30
0.0
 10
3.2134750573
 20
0.6548419694
 30
0.0
 10
3.2182530511
 20
0.6457459551
 30
0.0
 10
3.2231957637
 20
0.6368788191
 30
0.0
 10
3.2282944652
 20
0.6282576392
 30
0.0
 10
3.2335400868
 20
0.6198987783
 30
0.0
 10
3.2389221688
 20
0.6118171098
 30
0.0
 10
3.2444307011
 20
0.6040273382
 30
0.0
 10
3.2500555786
 20
0.5965440166
 30
0.0
 10
3.2557871625
 20
0.5893817062
 30
0.0
 10
3.2616144469
 20
0.582553364
 30
0.0
 10
3.2675260974
 20
0.5760710329
 30
0.0
 10
3.2735110302
 20
0.5699467305
 30
0.0
 10
3.2795583482
 20
0.5641923464
 30
0.0
 10
3.2856575193
 20
0.5588191627
 30
0.0
 10
3.2917970913
 20
0.553836182
 30
0.0
 10
3.2979662377
 20
0.5492520925
 30
0.0
 10
3.3041541887
 20
0.545075356
 30
0.0
 10
3.3103500616
 20
0.5413151176
 30
0.0
 10
3.3165422247
 20
0.5379781668
 30
0.0
 10
3.3246495426
 20
0.5341598723
 30
0.0
 10
3.3308727261
 20
0.5318506059
 30
0.0
 10
3.3350364324
 20
0.5306146853
 30
0.0
 11
3.174130346
 21
0.7649874068
 31
0.0
 11
3.1765839343
 21
0.7545604433
 31
0.0
 11
3.1792827171
 21
0.744151775
 31
0.0
 11
3.1822203626
 21
0.7337842186
 31
0.0
 11
3.1853905394
 21
0.7234805912
 31
0.0
 11
3.188786907
 21
0.7132636405
 31
0.0
 11
3.1924028337
 21
0.7031538325
 31
0.0
 11
3.1962313369
 21
0.6931688828
 31
0.0
 11
3.200265413
 21
0.6833263437
 31
0.0
 11
3.2044980585
 21
0.6736437672
 31
0.0
 11
3.208922065
 21
0.6641386701
 31
0.0
 11
3.2135289609
 21
0.6548283517
 31
0.0
 11
3.2183097934
 21
0.6457300281
 31
0.0
 11
3.2232556083
 21
0.6368609156
 31
0.0
 11
3.2283574472
 21
0.6282382203
 31
0.0
 11
3.233605969
 21
0.6198782944
 31
0.0
 11
3.2389911577
 21
0.6117959847
 31
0.0
 11
3.2445029289
 21
0.6040059849
 31
0.0
 11
3.2501311979
 21
0.5965229886
 31
0.0
 11
3.2558658145
 21
0.5893615305
 31
0.0
 11
3.2616959812
 21
0.5825345828
 31
0.0
 11
3.2676105337
 21
0.5760542309
 31
0.0
 11
3.2735983032
 21
0.5699325501
 31
0.0
 11
3.2796481212
 21
0.5641816138
 31
0.0
 11
3.285748881
 21
0.5588126426
 31
0.0
 11
3.2918896377
 21
0.5538346182
 31
0.0
 11
3.298059473
 21
0.5492561598
 31
0.0
 11
3.3042474685
 21
0.5450858864
 31
0.0
 11
3.310442625
 21
0.5413323306
 31
0.0
 11
3.3166325898
 21
0.5380025725
 31
0.0
 11
3.3228038862
 21
0.5351024867
 31
0.0
 11
3.3350364324
 21
0.5306146853
 31
0.0
  0
SPLINE
  5
29B
100
AcDbEntity
  8
0
100
AcDbSpline
 62
9
  6
CONTINUOUS
 70
0
 71
3
 72
33
 73
29
 74
27
 42
0.0000001
 43
0.0000001
 44
0.0000000001
 12
-0.3278678547
 22
-0.2552317898
 32
0.0
 13
-0.4151310856
 23
0.0175150924
 33
0.0
 40
0.0
 40
0.0
 40
0.0
 40
0.0
 40
0.0661949278
 40
0.1316203238
 40
0.1640520945
 40
0.1963047211
 40
0.228386232
 40
0.2603052653
 40
0.3236908167
 40
0.3865385066
 40
0.4177855117
 40
0.4489272701
 40
0.5109208984
 40
0.572589259
 40
0.6033205262
 40
0.6339933475
 40
0.664615814
 40
0.6951915508
 40
0.7257266184
 40
0.7562303937
 40
0.7867116552
 40
0.8171749019
 40
0.8476271267
 40
0.878078827
 40
0.9085409572
 40
0.9390143819
 40
0.9694995003
 40
1.0
 40
1.0
 40
1.0
 40
1.0
 10
4.8344980318
 20
0.6061164175
 30
0.0
 10
4.8272636355
 20
0.6004847342
 30
0.0
 10
4.8128064714
 20
0.5893795916
 30
0.0
 10
4.7946010775
 20
0.5757834115
 30
0.0
 10
4.7800396311
 20
0.5651674334
 30
0.0
 10
4.7691445541
 20
0.5573624395
 30
0.0
 10
4.7582359268
 20
0.5496991878
 30
0.0
 10
4.7436972417
 20
0.5397036643
 30
0.0
 10
4.7254395591
 20
0.52759809
 30
0.0
 10
4.7069380086
 20
0.5160408908
 30
0.0
 10
4.6920069174
 20
0.5072120513
 30
0.0
 10
4.6770262656
 20
0.4987047209
 30
0.0
 10
4.6580844354
 20
0.488647203
 30
0.0
 10
4.638772271
 20
0.4794465063
 30
0.0
 10
4.6231233236
 20
0.4726852011
 30
0.0
 10
4.6112947213
 20
0.4679337707
 30
0.0
 10
4.5993613396
 20
0.4635133754
 30
0.0
 10
4.5873249798
 20
0.4594402425
 30
0.0
 10
4.5751884906
 20
0.4557312742
 30
0.0
 10
4.5629553305
 20
0.452403677
 30
0.0
 10
4.5506308233
 20
0.4494742769
 30
0.0
 10
4.5382224488
 20
0.4469583057
 30
0.0
 10
4.5257386917
 20
0.4448716529
 30
0.0
 10
4.5131886057
 20
0.4432302222
 30
0.0
 10
4.5005836859
 20
0.4420500704
 30
0.0
 10
4.487938548
 20
0.4413435052
 30
0.0
 10
4.4752703463
 20
0.4411232257
 30
0.0
 10
4.4668232164
 20
0.4413090401
 30
0.0
 10
4.4626026478
 20
0.4414871132
 30
0.0
 11
4.8344980318
 21
0.6061164175
 31
0.0
 11
4.8126842161
 21
0.5893644456
 31
0.0
 11
4.7908984033
 21
0.5731051896
 31
0.0
 11
4.7800085978
 21
0.5651680034
 31
0.0
 11
4.7691133137
 21
0.5573655009
 31
0.0
 11
4.7582046764
 21
0.5497047331
 31
0.0
 11
4.7472745081
 21
0.5421932802
 31
0.0
 11
4.7253124993
 21
0.5276573541
 31
0.0
 11
4.7031524361
 21
0.5138431232
 31
0.0
 11
4.6919753223
 21
0.5072375086
 31
0.0
 11
4.6807220812
 21
0.5008505695
 31
0.0
 11
4.6579599792
 21
0.4887931746
 31
0.0
 11
4.6348174102
 21
0.4777944751
 31
0.0
 11
4.6230946312
 21
0.4727328454
 31
0.0
 11
4.6112674034
 21
0.4679851357
 31
0.0
 11
4.5993350797
 21
0.4635680258
 31
0.0
 11
4.5873003232
 21
0.4594983658
 31
0.0
 11
4.5751661213
 21
0.4557930225
 31
0.0
 11
4.5629354788
 21
0.4524688592
 31
0.0
 11
4.5506132474
 21
0.449542385
 31
0.0
 11
4.5382077141
 21
0.4470294503
 31
0.0
 11
4.5257275408
 21
0.4449458334
 31
0.0
 11
4.5131813892
 21
0.4433073126
 31
0.0
 11
4.5005793122
 21
0.442129175
 31
0.0
 11
4.4879372078
 21
0.4414246427
 31
0.0
 11
4.4752725088
 21
0.4412063954
 31
0.0
 11
4.4626026478
 21
0.4414871132
 31
0.0
  0
SPLINE
  5
29C
100
AcDbEntity
  8
0
100
AcDbSpline
 62
9
  6
CONTINUOUS
 70
0
 71
3
 72
25
 73
21
 74
19
 42
0.0000001
 43
0.0000001
 44
0.0000000001
 12
-0.1546291377
 22
-0.2190872471
 32
0.0
 13
-0.234750433
 23
-0.1296210872
 33
0.0
 40
0.0
 40
0.0
 40
0.0
 40
0.0
 40
0.0633911323
 40
0.1266940022
 40
0.1898989759
 40
0.2214626656
 40
0.2529992864
 40
0.3159853775
 40
0.347434305
 40
0.3788526472
 40
0.4415925669
 40
0.5042017058
 40
0.5666761411
 40
0.6290096872
 40
0.6912000215
 40
0.7532472462
 40
0.8151549815
 40
0.8769252365
 40
0.9385446112
 40
1.0
 40
1.0
 40
1.0
 40
1.0
 10
4.8344980318
 20
0.6061164175
 30
0.0
 10
4.8312306598
 20
0.6014870213
 30
0.0
 10
4.8246148609
 20
0.5922946861
 30
0.0
 10
4.8144283981
 20
0.5787151773
 30
0.0
 10
4.8057113856
 20
0.5675935411
 30
0.0
 10
4.7985949704
 20
0.5588285205
 30
0.0
 10
4.7913875843
 20
0.5501636293
 30
0.0
 10
4.784029083
 20
0.541638665
 30
0.0
 10
4.7765156602
 20
0.5332656403
 30
0.0
 10
4.7689076343
 20
0.5250083576
 30
0.0
 10
4.7592059197
 20
0.5148944917
 30
0.0
 10
4.7472489091
 20
0.5031059165
 30
0.0
 10
4.7349824014
 20
0.4916926914
 30
0.0
 10
4.7224089792
 20
0.4806749986
 30
0.0
 10
4.7095313442
 20
0.4700742018
 30
0.0
 10
4.6963546694
 20
0.4599094616
 30
0.0
 10
4.6828850305
 20
0.4502000989
 30
0.0
 10
4.6691306689
 20
0.4409665607
 30
0.0
 10
4.6551044131
 20
0.4322279282
 30
0.0
 10
4.6455679109
 20
0.4267378211
 30
0.0
 10
4.6407590178
 20
0.4240825163
 30
0.0
 11
4.8344980318
 21
0.6061164175
 31
0.0
 11
4.8245651253
 21
0.592321468
 31
0.0
 11
4.8143754899
 21
0.5787446318
 31
0.0
 11
4.8039160382
 21
0.5654078987
 31
0.0
 11
4.7985805095
 21
0.5588372783
 31
0.0
 11
4.7931721377
 21
0.552335924
 31
0.0
 11
4.782132853
 21
0.5395524753
 31
0.0
 11
4.7765001446
 21
0.5332760507
 31
0.0
 11
4.7707909849
 21
0.5270802347
 31
0.0
 11
4.7591420914
 21
0.5149410403
 31
0.0
 11
4.7471842565
 21
0.5031559599
 31
0.0
 11
4.7349172696
 21
0.4917459929
 31
0.0
 11
4.7223436686
 21
0.4807320738
 31
0.0
 11
4.7094665396
 21
0.4701349504
 31
0.0
 11
4.6962908308
 21
0.4599741606
 31
0.0
 11
4.6828222549
 21
0.4502687458
 31
0.0
 11
4.6690683667
 21
0.4410380645
 31
0.0
 11
4.6550424767
 21
0.4323024716
 31
0.0
 11
4.6407590178
 21
0.4240825163
 31
0.0
  0
SPLINE
  5
29D
100
AcDbEntity
  8
0
100
AcDbSpline
 62
9
  6
CONTINUOUS
 70
0
 71
3
 72
18
 73
14
 74
12
 42
0.0000001
 43
0.0000001
 44
0.0000000001
 12
-0.020869483
 22
-0.0173080116
 32
0.0
 13
-0.0081550347
 23
-0.025857262
 33
0.0
 40
0.0
 40
0.0
 40
0.0
 40
0.0
 40
0.0953270868
 40
0.1460473302
 40
0.19886672
 40
0.3109150999
 40
0.3702104928
 40
0.4316934259
 40
0.4953643126
 40
0.5612163547
 40
0.6993782745
 40
0.8458259189
 40
1.0
 40
1.0
 40
1.0
 40
1.0
 10
3.2008411822
 20
0.4414856065
 30
0.0
 10
3.2001780398
 20
0.4409356324
 30
0.0
 10
3.1992154874
 20
0.4400270428
 30
0.0
 10
3.1980064386
 20
0.4386967521
 30
0.0
 10
3.19676652
 20
0.437192876
 30
0.0
 10
3.1955851868
 20
0.4355436987
 30
0.0
 10
3.1944576569
 20
0.4337667772
 30
0.0
 10
3.1936148546
 20
0.4323281253
 30
0.0
 10
3.1927917954
 20
0.4308104144
 30
0.0
 10
3.1917045418
 20
0.4286489082
 30
0.0
 10
3.1904064719
 20
0.4257578705
 30
0.0
 10
3.1889673483
 20
0.4220611869
 30
0.0
 10
3.1880974615
 20
0.4194862434
 30
0.0
 10
3.1876783631
 20
0.4181574035
 30
0.0
 11
3.2008411822
 21
0.4414856065
 31
0.0
 11
3.1989532923
 21
0.4397204053
 31
0.0
 11
3.1980273592
 21
0.4387036797
 31
0.0
 11
3.1971153113
 21
0.4375995862
 31
0.0
 11
3.1953384811
 21
0.4351354495
 31
0.0
 11
3.1944762123
 21
0.4337785885
 31
0.0
 11
3.1936327115
 21
0.4323407759
 31
0.0
 11
3.1928089372
 21
0.4308237102
 31
0.0
 11
3.1920058478
 21
0.42922909
 31
0.0
 11
3.1904656045
 21
0.4258144429
 31
0.0
 11
3.18902024
 21
0.4221162538
 31
0.0
 11
3.1876783631
 21
0.4181574035
 31
0.0
  0
SPLINE
  5
29E
100
AcDbEntity
  8
0
100
AcDbSpline
 62
9
  6
CONTINUOUS
 70
0
 71
3
 72
23
 73
19
 74
17
 42
0.0000001
 43
0.0000001
 44
0.0000000001
 12
-0.037080326
 22
-0.0307519446
 32
0.0
 13
-0.0071148862
 23
-0.0476446332
 33
0.0
 40
0.0
 40
0.0
 40
0.0
 40
0.0
 40
0.041467995
 40
0.0857506832
 40
0.1329554861
 40
0.1831396157
 40
0.2363226911
 40
0.292495929
 40
0.3516235514
 40
0.4136457451
 40
0.4784857402
 40
0.5460538845
 40
0.6162500655
 40
0.6889273489
 40
0.7638704363
 40
0.8408521447
 40
0.9196404549
 40
1.0
 40
1.0
 40
1.0
 40
1.0
 10
4.4626026668
 20
0.4414857438
 30
0.0
 10
4.4620901179
 20
0.44106067
 30
0.0
 10
4.4610740141
 20
0.4401280209
 30
0.0
 10
4.459627424
 20
0.4385550894
 30
0.0
 10
4.4582143214
 20
0.4367699014
 30
0.0
 10
4.4568398122
 20
0.4347789386
 30
0.0
 10
4.4555087857
 20
0.4325884818
 30
0.0
 10
4.4542266256
 20
0.4302048726
 30
0.0
 10
4.4529970678
 20
0.4276355895
 30
0.0
 10
4.4518231247
 20
0.4248885436
 30
0.0
 10
4.4507080688
 20
0.421971596
 30
0.0
 10
4.4496550955
 20
0.4188926891
 30
0.0
 10
4.4486677795
 20
0.4156603431
 30
0.0
 10
4.4477493205
 20
0.4122849367
 30
0.0
 10
4.4469020273
 20
0.4087788241
 30
0.0
 10
4.4461288082
 20
0.4051552654
 30
0.0
 10
4.4454325144
 20
0.401427676
 30
0.0
 10
4.4450251206
 20
0.3989045188
 30
0.0
 10
4.4448345376
 20
0.3976282851
 30
0.0
 11
4.4626026668
 21
0.4414857438
 31
0.0
 11
4.4611268037
 21
0.4401394988
 31
0.0
 11
4.4596786317
 21
0.4385731472
 31
0.0
 11
4.4582633934
 21
0.4367932171
 31
0.0
 11
4.4568863313
 21
0.434806237
 31
0.0
 11
4.4555526881
 21
0.432618735
 31
0.0
 11
4.4542676081
 21
0.4302373132
 31
0.0
 11
4.4530350919
 21
0.4276694325
 31
0.0
 11
4.4518584025
 21
0.4249231074
 31
0.0
 11
4.4507407909
 21
0.4220063616
 31
0.0
 11
4.4496855077
 21
0.418927219
 31
0.0
 11
4.4486958012
 21
0.4156937367
 31
0.0
 11
4.4477747701
 21
0.4123159779
 31
0.0
 11
4.4469252812
 21
0.4088071143
 31
0.0
 11
4.4461501816
 21
0.4051805849
 31
0.0
 11
4.445452318
 21
0.4014498288
 31
0.0
 11
4.4448345376
 21
0.3976282851
 31
0.0
  0
SPLINE
  5
29F
100
AcDbEntity
  8
0
100
AcDbSpline
 62
9
  6
CONTINUOUS
 70
0
 71
3
 72
28
 73
24
 74
22
 42
0.0000001
 43
0.0000001
 44
0.0000000001
 12
-0.2208991124
 22
0.0044279711
 32
0.0
 13
-0.1233143676
 23
0.1833291889
 33
0.0
 40
0.0
 40
0.0
 40
0.0
 40
0.0
 40
0.0611233032
 40
0.122319999
 40
0.1529519924
 40
0.1836044553
 40
0.2142781976
 40
0.2449779675
 40
0.3064727182
 40
0.3681415442
 40
0.3990575462
 40
0.4300312701
 40
0.4921570978
 40
0.5545468058
 40
0.5858491687
 40
0.6172235593
 40
0.6801941458
 40
0.7434888081
 40
0.7752672545
 40
0.8071338445
 40
0.8711189252
 40
0.9354205029
 40
1.0
 40
1.0
 40
1.0
 40
1.0
 10
3.200841129
 20
0.4414860439
 30
0.0
 10
3.1963404345
 20
0.4415762613
 30
0.0
 10
3.1873370294
 20
0.4420493314
 30
0.0
 10
3.176141099
 20
0.443361072
 30
0.0
 10
3.1672408486
 20
0.4448367765
 30
0.0
 10
3.160596884
 20
0.4461560987
 30
0.0
 10
3.1539931836
 20
0.4476863318
 30
0.0
 10
3.1452452997
 20
0.4500060851
 30
0.0
 10
3.1344332375
 20
0.4534243349
 30
0.0
 10
3.1238389547
 20
0.4575112208
 30
0.0
 10
3.1155074428
 20
0.4611738871
 30
0.0
 10
3.1072612536
 20
0.4651037099
 30
0.0
 10
3.0971519858
 20
0.4704988445
 30
0.0
 10
3.0873632771
 20
0.4765019104
 30
0.0
 10
3.079731987
 20
0.4816618636
 30
0.0
 10
3.0722217325
 20
0.4870700131
 30
0.0
 10
3.0631029075
 20
0.4942670872
 30
0.0
 10
3.0543942973
 20
0.5020000546
 30
0.0
 10
3.0476760609
 20
0.5085028882
 30
0.0
 10
3.0411110064
 20
0.515231539
 30
0.0
 10
3.033236778
 20
0.5240224077
 30
0.0
 10
3.0243604218
 20
0.5351201726
 30
0.0
 10
3.0188461384
 20
0.5428529103
 30
0.0
 10
3.0161916118
 20
0.5467993459
 30
0.0
 11
3.200841129
 21
0.4414860439
 31
0.0
 11
3.187354843
 21
0.4421928663
 31
0.0
 11
3.1739255188
 21
0.4437648085
 31
0.0
 11
3.1672487123
 21
0.4448717228
 31
0.0
 11
3.1606059401
 21
0.446190745
 31
0.0
 11
3.1540036644
 21
0.4477204189
 31
0.0
 11
3.1474472915
 21
0.44945878
 31
0.0
 11
3.1344918953
 21
0.4535527516
 31
0.0
 11
3.1217790204
 21
0.4584550271
 31
0.0
 11
3.1155257975
 21
0.4612037579
 31
0.0
 11
3.1093478797
 21
0.4641475713
 31
0.0
 11
3.097237162
 21
0.4706083567
 31
0.0
 11
3.0854852553
 21
0.4778130689
 31
0.0
 11
3.0797558514
 21
0.481686791
 31
0.0
 11
3.0741304158
 21
0.4857373026
 31
0.0
 11
3.0632078112
 21
0.4943551119
 31
0.0
 11
3.0527494472
 21
0.5036389731
 31
0.0
 11
3.0477043125
 21
0.5085220497
 31
0.0
 11
3.0427871842
 21
0.5135612486
 31
0.0
 11
3.0333526576
 21
0.5240896355
 31
0.0
 11
3.0244770786
 21
0.5351830286
 31
0.0
 11
3.0161916118
 21
0.5467993459
 31
0.0
  0
SPLINE
  5
2A0
100
AcDbEntity
  8
0
100
AcDbSpline
 62
9
  6
CONTINUOUS
 70
0
 71
3
 72
21
 73
17
 74
15
 42
0.0000001
 43
0.0000001
 44
0.0000000001
 12
0.1096485732
 22
-0.1914515473
 32
0.0
 13
0.2149836134
 23
-0.0495837731
 33
0.0
 40
0.0
 40
0.0
 40
0.0
 40
0.0
 40
0.1292473876
 40
0.2569111152
 40
0.3201480372
 40
0.3830069098
 40
0.4455247505
 40
0.5077376142
 40
0.5696858685
 40
0.6314203162
 40
0.6929909781
 40
0.7544456397
 40
0.8158311127
 40
0.8771927397
 40
0.9385706726
 40
1.0
 40
1.0
 40
1.0
 40
1.0
 10
3.0161995826
 20
0.5467850578
 30
0.0
 10
3.0209235132
 20
0.5385368536
 30
0.0
 10
3.0311315501
 20
0.5225949882
 30
0.0
 10
3.045787662
 20
0.5041133842
 30
0.0
 10
3.0584920066
 20
0.4904332633
 30
0.0
 10
3.0684506447
 20
0.4807682238
 30
0.0
 10
3.0788421467
 20
0.4716845977
 30
0.0
 10
3.0896418278
 20
0.4631980602
 30
0.0
 10
3.1008251519
 20
0.4553235843
 30
0.0
 10
3.1123655442
 20
0.4480708458
 30
0.0
 10
3.1242375945
 20
0.4414490645
 30
0.0
 10
3.1364161144
 20
0.4354674366
 30
0.0
 10
3.1488755082
 20
0.4301345656
 30
0.0
 10
3.1615875254
 20
0.4254520533
 30
0.0
 10
3.1745240524
 20
0.4214218828
 30
0.0
 10
3.1832755571
 20
0.419172239
 30
0.0
 10
3.1876776567
 20
0.4181569397
 30
0.0
 11
3.0161995826
 21
0.5467850578
 31
0.0
 11
3.0315875618
 21
0.5227778585
 31
0.0
 11
3.0491029254
 21
0.5007201379
 31
0.0
 11
3.0585976577
 21
0.4904974701
 31
0.0
 11
3.0685504554
 21
0.4808396097
 31
0.0
 11
3.0789360239
 21
0.4717626536
 31
0.0
 11
3.0897290686
 21
0.4632826951
 31
0.0
 11
3.1009042897
 21
0.4554141047
 31
0.0
 11
3.1124363738
 21
0.4481667528
 31
0.0
 11
3.1243000051
 21
0.4415497844
 31
0.0
 11
3.1364698677
 21
0.435572343
 31
0.0
 11
3.1489201057
 21
0.4302419375
 31
0.0
 11
3.1616232916
 21
0.4255613133
 31
0.0
 11
3.1745517127
 21
0.4215323532
 31
0.0
 11
3.1876776567
 21
0.4181569397
 31
0.0
  0
SPLINE
  5
2A1
100
AcDbEntity
  8
0
100
AcDbSpline
 62
9
  6
CONTINUOUS
 70
0
 71
3
 72
23
 73
19
 74
17
 42
0.0000001
 43
0.0000001
 44
0.0000000001
 12
0.0677400388
 22
-0.1824627884
 32
0.0
 13
0.166319703
 23
-0.1010897542
 33
0.0
 40
0.0
 40
0.0
 40
0.0
 40
0.0
 40
0.0630729732
 40
0.1257530668
 40
0.1880973932
 40
0.2501694293
 40
0.3120370223
 40
0.3737696671
 40
0.4354406864
 40
0.4971272486
 40
0.5589056585
 40
0.6208502283
 40
0.6830379721
 40
0.7455483971
 40
0.8084497161
 40
0.8717921637
 40
0.9356253881
 40
1.0
 40
1.0
 40
1.0
 40
1.0
 10
3.0162207201
 20
0.5467278676
 30
0.0
 10
3.0176449086
 20
0.5428917108
 30
0.0
 10
3.0206240341
 20
0.5352942169
 30
0.0
 10
3.0255049202
 20
0.5241065073
 30
0.0
 10
3.0307878191
 20
0.5131746408
 30
0.0
 10
3.0364775466
 20
0.5025084708
 30
0.0
 10
3.0425777271
 20
0.492117458
 30
0.0
 10
3.0490892057
 20
0.4820099453
 30
0.0
 10
3.0560131379
 20
0.4721946345
 30
0.0
 10
3.0633504155
 20
0.4626804991
 30
0.0
 10
3.0711011731
 20
0.4534767768
 30
0.0
 10
3.0792648327
 20
0.4445929586
 30
0.0
 10
3.0878406161
 20
0.4360388439
 30
0.0
 10
3.0968271999
 20
0.4278250319
 30
0.0
 10
3.1062206614
 20
0.4199626185
 30
0.0
 10
3.1160144224
 20
0.4124627529
 30
0.0
 10
3.1262009032
 20
0.4053379606
 30
0.0
 10
3.1332178403
 20
0.4008660828
 30
0.0
 10
3.1367867624
 20
0.3986968783
 30
0.0
 11
3.0162207201
 21
0.5467278676
 31
0.0
 11
3.0207047872
 21
0.5353001446
 31
0.0
 11
3.0255855163
 21
0.524119508
 31
0.0
 11
3.0308675814
 21
0.5131953278
 31
0.0
 11
3.0365556414
 21
0.5025369706
 31
0.0
 11
3.0426531103
 21
0.4921535408
 31
0.0
 11
3.0491612497
 21
0.4820536885
 31
0.0
 11
3.0560811078
 21
0.4722460192
 31
0.0
 11
3.0634137054
 21
0.4627391554
 31
0.0
 11
3.0711592625
 21
0.453542234
 31
0.0
 11
3.0793170864
 21
0.4446649773
 31
0.0
 11
3.0878864346
 21
0.4361171397
 31
0.0
 11
3.0968665078
 21
0.4279084978
 31
0.0
 11
3.1062538573
 21
0.4200498571
 31
0.0
 11
3.1160413144
 21
0.4125534679
 31
0.0
 11
3.1262214319
 21
0.4054316887
 31
0.0
 11
3.1367867624
 21
0.3986968783
 31
0.0
  0
SPLINE
  5
2A2
100
AcDbEntity
  8
0
100
AcDbSpline
 62
9
  6
CONTINUOUS
 70
0
 71
3
 72
20
 73
16
 74
14
 42
0.0000001
 43
0.0000001
 44
0.0000000001
 12
0.1595497913
 22
-0.0450664778
 32
0.0
 13
0.1657924103
 23
0.000000882
 33
0.0
 40
0.0
 40
0.0
 40
0.0
 40
0.0
 40
0.059066132
 40
0.1190457198
 40
0.1797647345
 40
0.2410515874
 40
0.3649627294
 40
0.4274723205
 40
0.4902720295
 40
0.5533288145
 40
0.6166170261
 40
0.6801102045
 40
0.743782001
 40
0.8716011492
 40
1.0
 40
1.0
 40
1.0
 40
1.0
 10
3.1876783631
 20
0.4181574035
 30
0.0
 10
3.1908196928
 20
0.4172701026
 30
0.0
 10
3.1971732728
 20
0.4155600388
 30
0.0
 10
3.2068229898
 20
0.4131951947
 30
0.0
 10
3.2166399435
 20
0.4110064182
 30
0.0
 10
3.2299605566
 20
0.408308679
 30
0.0
 10
3.2434518252
 20
0.4059676993
 30
0.0
 10
3.2570784558
 20
0.4039624044
 30
0.0
 10
3.2674016365
 20
0.4026176739
 30
0.0
 10
3.2777879221
 20
0.4014354251
 30
0.0
 10
3.2882297804
 20
0.4004142527
 30
0.0
 10
3.2987201205
 20
0.3995526918
 30
0.0
 10
3.3127807204
 20
0.3986133873
 30
0.0
 10
3.3304447087
 20
0.3978339189
 30
0.0
 10
3.3446052143
 20
0.3976282474
 30
0.0
 10
3.3517010659
 20
0.3976282852
 30
0.0
 11
3.1876783631
 21
0.4181574035
 31
0.0
 11
3.1971335699
 21
0.4156086079
 31
0.0
 11
3.2067911639
 21
0.4132385436
 31
0.0
 11
3.2166160658
 21
0.4110451909
 31
0.0
 11
3.2265744115
 21
0.4090264935
 31
0.0
 11
3.2468135335
 21
0.4055030807
 31
0.0
 11
3.2570665469
 21
0.4039930321
 31
0.0
 11
3.267390933
 21
0.4026473484
 31
0.0
 11
3.2777781139
 21
0.4014642928
 31
0.0
 11
3.2882209372
 21
0.4004423809
 31
0.0
 11
3.2987122508
 21
0.3995801284
 31
0.0
 11
3.3092450481
 21
0.3988760944
 31
0.0
 11
3.3304157863
 21
0.3979395207
 31
0.0
 11
3.3517010659
 21
0.3976282852
 31
0.0
  0
SPLINE
  5
2A3
100
AcDbEntity
  8
0
100
AcDbSpline
 62
9
  6
CONTINUOUS
 70
0
 71
3
 72
21
 73
17
 74
15
 42
0.0000001
 43
0.0000001
 44
0.0000000001
 12
0.1684680142
 22
-0.102494279
 32
0.0
 13
0.1971967265
 23
0.0000090847
 33
0.0
 40
0.0
 40
0.0
 40
0.0
 40
0.0
 40
0.0568268476
 40
0.1150747069
 40
0.1745072777
 40
0.234882591
 40
0.296037672
 40
0.3578836625
 40
0.4203303959
 40
0.4832878835
 40
0.5466977799
 40
0.6105192231
 40
0.7392108026
 40
0.8040222299
 40
0.8691075836
 40
1.0
 40
1.0
 40
1.0
 40
1.0
 10
3.1367867624
 20
0.3986968783
 30
0.0
 10
3.1399779311
 20
0.3967554027
 30
0.0
 10
3.1465311398
 20
0.3929719265
 30
0.0
 10
3.1566994359
 20
0.3876567103
 30
0.0
 10
3.1672799134
 20
0.3826461499
 30
0.0
 10
3.1782164222
 20
0.3779610851
 30
0.0
 10
3.1894631793
 20
0.3736177489
 30
0.0
 10
3.2009836304
 20
0.369626287
 30
0.0
 10
3.2127465011
 20
0.3659946792
 30
0.0
 10
3.2247230304
 20
0.3627304415
 30
0.0
 10
3.2368880313
 20
0.3598391835
 30
0.0
 10
3.2533734231
 20
0.3564778099
 30
0.0
 10
3.2701025289
 20
0.3538916607
 30
0.0
 10
3.2870054823
 20
0.3520798677
 30
0.0
 10
3.3041003
 20
0.3507785904
 30
0.0
 10
3.3169869626
 20
0.3503910504
 30
0.0
 10
3.3255908146
 20
0.3503914468
 30
0.0
 11
3.1367867624
 21
0.3986968783
 31
0.0
 11
3.1464872925
 21
0.3930865589
 31
0.0
 11
3.1566636655
 21
0.3877596249
 31
0.0
 11
3.167253753
 21
0.3827390373
 31
0.0
 11
3.1781961859
 21
0.3780473878
 31
0.0
 11
3.1894448494
 21
0.3736998504
 31
0.0
 11
3.2009677495
 21
0.3697047326
 31
0.0
 11
3.2127334241
 21
0.3660700832
 31
0.0
 11
3.224711036
 21
0.3628036943
 31
0.0
 11
3.2368760141
 21
0.3599107847
 31
0.0
 11
3.2492073993
 21
0.3573950897
 31
0.0
 11
3.2742858316
 21
0.3535101574
 31
0.0
 11
3.2869935291
 21
0.352147002
 31
0.0
 11
3.2997910653
 21
0.3511720638
 31
0.0
 11
3.3255908146
 21
0.3503914468
 31
0.0
  0
SPLINE
  5
2A4
100
AcDbEntity
  8
0
100
AcDbSpline
 62
9
  6
CONTINUOUS
 70
0
 71
3
 72
23
 73
19
 74
17
 42
0.0000001
 43
0.0000001
 44
0.0000000001
 12
-0.0413965893
 22
-0.0384303434
 32
0.0
 13
-0.055297756
 23
0.0115207238
 33
0.0
 40
0.0
 40
0.0
 40
0.0
 40
0.0
 40
0.0731958515
 40
0.1453816667
 40
0.2163996351
 40
0.2860978875
 40
0.3543336243
 40
0.4209813526
 40
0.4859833994
 40
0.5493279524
 40
0.6110167975
 40
0.6710680986
 40
0.7295200634
 40
0.7864254048
 40
0.8418414502
 40
0.8958416198
 40
0.9485208158
 40
1.0
 40
1.0
 40
1.0
 40
1.0
 10
3.187678162
 20
0.418157855
 30
0.0
 10
3.1866681425
 20
0.4172202078
 30
0.0
 10
3.1846233644
 20
0.415398984
 30
0.0
 10
3.1814681964
 20
0.4128191168
 30
0.0
 10
3.1782568584
 20
0.4104177216
 30
0.0
 10
3.1750024217
 20
0.4082046779
 30
0.0
 10
3.1717178506
 20
0.4061895985
 30
0.0
 10
3.1684149112
 20
0.4043821479
 30
0.0
 10
3.1651053617
 20
0.402788741
 30
0.0
 10
3.1618001775
 20
0.4014134142
 30
0.0
 10
3.1585095426
 20
0.4002602262
 30
0.0
 10
3.1552436827
 20
0.3993330706
 30
0.0
 10
3.152012888
 20
0.3986363405
 30
0.0
 10
3.1488284621
 20
0.398172926
 30
0.0
 10
3.1457026592
 20
0.3979423287
 30
0.0
 10
3.1426476561
 20
0.3979447217
 30
0.0
 10
3.139676079
 20
0.3981801124
 30
0.0
 10
3.1377377234
 20
0.3984959738
 30
0.0
 10
3.1367888289
 20
0.3986936663
 30
0.0
 11
3.187678162
 21
0.418157855
 31
0.0
 11
3.1845901652
 21
0.4154086421
 31
0.0
 11
3.1814328531
 21
0.4128285702
 31
0.0
 11
3.1782193393
 21
0.4104275019
 31
0.0
 11
3.1749627377
 21
0.4082152995
 31
0.0
 11
3.1716761619
 21
0.4062018255
 31
0.0
 11
3.1683725889
 21
0.4043966506
 31
0.0
 11
3.1650634058
 21
0.4028059559
 31
0.0
 11
3.1617589736
 21
0.4014337355
 31
0.0
 11
3.1584696364
 21
0.4002839467
 31
0.0
 11
3.1552057383
 21
0.3993605469
 31
0.0
 11
3.1519776362
 21
0.3986674688
 31
0.0
 11
3.1487964633
 21
0.3982071468
 31
0.0
 11
3.1456745562
 21
0.3979796931
 31
0.0
 11
3.1426243547
 21
0.3979850201
 31
0.0
 11
3.139658299
 21
0.3982230403
 31
0.0
 11
3.1367888289
 21
0.3986936663
 31
0.0
  0
SPLINE
  5
2A5
100
AcDbEntity
  8
0
100
AcDbSpline
 62
9
  6
CONTINUOUS
 70
0
 71
3
 72
32
 73
28
 74
26
 42
0.0000001
 43
0.0000001
 44
0.0000000001
 12
-0.0084714466
 22
-0.0567277924
 32
0.0
 13
-0.0573568465
 23
0.0
 33
0.0
 40
0.0
 40
0.0
 40
0.0
 40
0.0
 40
0.0900425459
 40
0.1776005919
 40
0.2622070966
 40
0.3434071084
 40
0.4207968311
 40
0.4941246061
 40
0.5631951152
 40
0.5960855666
 40
0.627855007
 40
0.6584927338
 40
0.6879983824
 40
0.7163774266
 40
0.7436403981
 40
0.7698038977
 40
0.7948917989
 40
0.8189366618
 40
0.8419813701
 40
0.8640819908
 40
0.8853110592
 40
0.9057535405
 40
0.9255065075
 40
0.9446796749
 40
0.9633953325
 40
0.9817874747
 40
1.0
 40
1.0
 40
1.0
 40
1.0
 10
3.3517010659
 20
0.3976282852
 30
0.0
 10
3.3514468024
 20
0.3959256469
 30
0.0
 10
3.3508923163
 20
0.3925749756
 30
0.0
 10
3.3499097366
 20
0.3876581359
 30
0.0
 10
3.3487930828
 20
0.3829434109
 30
0.0
 10
3.3475489312
 20
0.3784620085
 30
0.0
 10
3.3461825869
 20
0.3742422089
 30
0.0
 10
3.3447033929
 20
0.3703073508
 30
0.0
 10
3.3433628908
 20
0.3672337067
 30
0.0
 10
3.3422367639
 20
0.3649378851
 30
0.0
 10
3.3413829383
 20
0.3633279632
 30
0.0
 10
3.3405070713
 20
0.3618041034
 30
0.0
 10
3.3396104602
 20
0.3603681842
 30
0.0
 10
3.3386943531
 20
0.3590219337
 30
0.0
 10
3.3377599669
 20
0.3577670529
 30
0.0
 10
3.3368085091
 20
0.3566052426
 30
0.0
 10
3.3358411726
 20
0.3555382061
 30
0.0
 10
3.3348591343
 20
0.3545676572
 30
0.0
 10
3.3338635373
 20
0.3536953009
 30
0.0
 10
3.3328554523
 20
0.3529228676
 30
0.0
 10
3.3318366191
 20
0.352251119
 30
0.0
 10
3.3308086796
 20
0.351680715
 30
0.0
 10
3.3297732702
 20
0.3512123464
 30
0.0
 10
3.3287320769
 20
0.3508467366
 30
0.0
 10
3.3276867912
 20
0.3505846325
 30
0.0
 10
3.3266393524
 20
0.3504267801
 30
0.0
 10
3.325939019
 20
0.3503914468
 30
0.0
 10
3.3255908146
 20
0.3503914468
 30
0.0
 11
3.3517010659
 21
0.3976282852
 31
0.0
 11
3.3508560163
 21
0.3925333333
 31
0.0
 11
3.3498692885
 21
0.3876091695
 31
0.0
 11
3.3487474803
 21
0.382887851
 31
0.0
 11
3.3474971893
 21
0.3784014349
 31
0.0
 11
3.3461253325
 21
0.3741799157
 31
0.0
 11
3.3446401038
 21
0.3702450371
 31
0.0
 11
3.3430500166
 21
0.3666164802
 31
0.0
 11
3.3422183115
 21
0.3649232228
 31
0.0
 11
3.3413635841
 21
0.3633139262
 31
0.0
 11
3.3404869299
 21
0.3617909285
 31
0.0
 11
3.339589568
 21
0.3603560788
 31
0.0
 11
3.3386727488
 21
0.3590111046
 31
0.0
 11
3.3377377229
 21
0.3577577329
 31
0.0
 11
3.3367857405
 21
0.3565976909
 31
0.0
 11
3.3358180521
 21
0.3555327057
 31
0.0
 11
3.334835908
 21
0.3545645047
 31
0.0
 11
3.3338405586
 21
0.3536948149
 31
0.0
 11
3.3328333293
 21
0.3529251692
 31
0.0
 11
3.3318158455
 21
0.3522563229
 31
0.0
 11
3.3307898074
 21
0.351688837
 31
0.0
 11
3.3297569154
 21
0.3512232725
 31
0.0
 11
3.3287188698
 21
0.3508601902
 31
0.0
 11
3.3276773709
 21
0.3506001512
 31
0.0
 11
3.3266341191
 21
0.3504437164
 31
0.0
 11
3.3255908146
 21
0.3503914468
 31
0.0
  0
SPLINE
  5
2A6
100
AcDbEntity
  8
0
100
AcDbSpline
 62
9
  6
CONTINUOUS
 70
0
 71
3
 72
19
 73
15
 74
13
 42
0.0000001
 43
0.0000001
 44
0.0000000001
 12
0.198194363
 22
-0.0000034706
 32
0.0
 13
0.1925300779
 23
0.0470443901
 33
0.0
 40
0.0
 40
0.0
 40
0.0
 40
0.0
 40
0.1255590565
 40
0.2506550749
 40
0.3130546079
 40
0.3753632094
 40
0.4375969747
 40
0.4997908407
 40
0.6241941402
 40
0.6864710631
 40
0.7488377958
 40
0.8113334813
 40
0.8739998355
 40
1.0
 40
1.0
 40
1.0
 40
1.0
 10
4.4448344159
 20
0.3976290172
 30
0.0
 10
4.4531294483
 20
0.3976288719
 30
0.0
 10
4.469690456
 20
0.3979445448
 30
0.0
 10
4.4903445551
 20
0.3991027713
 30
0.0
 10
4.506792047
 20
0.4004670804
 30
0.0
 10
4.5190809471
 20
0.4017032302
 30
0.0
 10
4.5313333858
 20
0.4031476548
 30
0.0
 10
4.5476261913
 20
0.4053391823
 30
0.0
 10
4.5638681966
 20
0.4079133751
 30
0.0
 10
4.5800607268
 20
0.4108326441
 30
0.0
 10
4.5921978896
 20
0.413188544
 30
0.0
 10
4.6043299739
 20
0.4157001973
 30
0.0
 10
4.6205391555
 20
0.4192496024
 30
0.0
 10
4.6326725188
 20
0.4221066634
 30
0.0
 10
4.6407587927
 20
0.4240825303
 30
0.0
 11
4.4448344159
 21
0.3976290172
 31
0.0
 11
4.4697150819
 21
0.3980986161
 31
0.0
 11
4.494469796
 21
0.3994817753
 31
0.0
 11
4.5067947532
 21
0.4005035131
 31
0.0
 11
4.5190820368
 21
0.4017387207
 31
0.0
 11
4.5313317643
 21
0.4031813373
 31
0.0
 11
4.5435484119
 21
0.4048231272
 31
0.0
 11
4.5679024598
 21
0.4086702431
 31
0.0
 11
4.5800498563
 21
0.4108585769
 31
0.0
 11
4.592184487
 21
0.4132119791
 31
0.0
 11
4.6043140079
 21
0.4157209563
 31
0.0
 11
4.6164471053
 21
0.4183756285
 31
0.0
 11
4.6407587927
 21
0.4240825303
 31
0.0
  0
SPLINE
  5
2A7
100
AcDbEntity
  8
0
100
AcDbSpline
 62
9
  6
CONTINUOUS
 70
0
 71
3
 72
32
 73
28
 74
26
 42
0.0000001
 43
0.0000001
 44
0.0000000001
 12
-0.0084713014
 22
-0.0567276948
 32
0.0
 13
-0.0573567285
 23
0.0000011254
 33
0.0
 40
0.0
 40
0.0
 40
0.0
 40
0.0
 40
0.0900432352
 40
0.1776019114
 40
0.2622089752
 40
0.343409463
 40
0.4207995725
 40
0.4941276386
 40
0.5631983309
 40
0.5960888297
 40
0.6278582864
 40
0.6584959976
 40
0.6880015987
 40
0.7163805636
 40
0.7436434242
 40
0.7698067821
 40
0.7948945114
 40
0.818939174
 40
0.8419836554
 40
0.8640840255
 40
0.885312823
 40
0.9057550173
 40
0.9255076859
 40
0.9446805494
 40
0.9633959044
 40
0.9817877526
 40
1.0
 40
1.0
 40
1.0
 40
1.0
 10
4.4448345377
 20
0.3976282851
 30
0.0
 10
4.4445802766
 20
0.3959256368
 30
0.0
 10
4.4440257957
 20
0.3925749461
 30
0.0
 10
4.4430432253
 20
0.3876580785
 30
0.0
 10
4.4419265821
 20
0.3829433286
 30
0.0
 10
4.4406824427
 20
0.3784619045
 30
0.0
 10
4.4393161124
 20
0.3742420868
 30
0.0
 10
4.4378369342
 20
0.3703072144
 30
0.0
 10
4.4364964464
 20
0.3672335607
 30
0.0
 10
4.4353703318
 20
0.3649377337
 30
0.0
 10
4.4345165161
 20
0.3633278098
 30
0.0
 10
4.4336406593
 20
0.3618039493
 30
0.0
 10
4.4327440589
 20
0.3603680307
 30
0.0
 10
4.431827963
 20
0.3590217823
 30
0.0
 10
4.4308935883
 20
0.3577669047
 30
0.0
 10
4.4299421424
 20
0.3566050991
 30
0.0
 10
4.4289748183
 20
0.3555380687
 30
0.0
 10
4.4279927927
 20
0.3545675273
 30
0.0
 10
4.4269972087
 20
0.3536951798
 30
0.0
 10
4.4259891371
 20
0.3529227567
 30
0.0
 10
4.4249703177
 20
0.3522510198
 30
0.0
 10
4.4239423924
 20
0.3516806289
 30
0.0
 10
4.4229069976
 20
0.3512122747
 30
0.0
 10
4.4218658195
 20
0.3508466806
 30
0.0
 10
4.4208205494
 20
0.3505845938
 30
0.0
 10
4.4197731268
 20
0.3504267599
 30
0.0
 10
4.4190728051
 20
0.35039144
 30
0.0
 10
4.4187246067
 20
0.3503914468
 30
0.0
 11
4.4448345377
 21
0.3976282851
 31
0.0
 11
4.4439894959
 21
0.3925333027
 31
0.0
 11
4.4430027773
 21
0.3876091107
 31
0.0
 11
4.4418809797
 21
0.382887767
 31
0.0
 11
4.4406307009
 21
0.3784013291
 31
0.0
 11
4.4392588579
 21
0.3741797917
 31
0.0
 11
4.4377736449
 21
0.3702448986
 31
0.0
 11
4.436183575
 21
0.3666163316
 31
0.0
 11
4.4353518792
 21
0.3649230708
 31
0.0
 11
4.4344971617
 21
0.3633137722
 31
0.0
 11
4.4336205176
 21
0.3617907738
 31
0.0
 11
4.4327231664
 21
0.3603559248
 31
0.0
 11
4.4318063584
 21
0.3590109526
 31
0.0
 11
4.4308713439
 21
0.3577575842
 31
0.0
 11
4.4299193735
 21
0.3565975469
 31
0.0
 11
4.4289516973
 21
0.3555325679
 31
0.0
 11
4.4279695659
 21
0.3545643745
 31
0.0
 11
4.4269742296
 21
0.3536946936
 31
0.0
 11
4.4259670138
 21
0.3529250583
 31
0.0
 11
4.4249495438
 21
0.3522562238
 31
0.0
 11
4.42392352
 21
0.3516887511
 31
0.0
 11
4.4228906428
 21
0.351223201
 31
0.0
 11
4.4218526125
 21
0.3508601346
 31
0.0
 11
4.4208111295
 21
0.3506001128
 31
0.0
 11
4.4197678941
 21
0.3504436966
 31
0.0
 11
4.4187246067
 21
0.3503914468
 31
0.0
  0
SPLINE
  5
2A8
100
AcDbEntity
  8
0
100
AcDbSpline
 62
9
  6
CONTINUOUS
 70
0
 71
3
 72
33
 73
29
 74
27
 42
0.0000001
 43
0.0000001
 44
0.0000000001
 12
-0.0005488444
 22
-0.083902697
 32
0.0
 13
-0.0839044921
 23
-0.0
 33
0.0
 40
0.0
 40
0.0
 40
0.0
 40
0.0
 40
0.0864740559
 40
0.1722881193
 40
0.256601577
 40
0.3386701445
 40
0.4178947781
 40
0.4937047282
 40
0.5301662958
 40
0.5655814977
 40
0.5998912819
 40
0.6330394083
 40
0.6649759484
 40
0.6956658063
 40
0.7250807647
 40
0.7531978479
 40
0.7800007992
 40
0.8054828397
 40
0.8296575968
 40
0.8525567745
 40
0.8742265079
 40
0.8947308237
 40
0.9141558487
 40
0.9326155196
 40
0.9502516486
 40
0.9672306553
 40
0.9837429635
 40
1.0
 40
1.0
 40
1.0
 40
1.0
 10
4.6407590932
 20
0.4240825163
 30
0.0
 10
4.640743273
 20
0.4216640475
 30
0.0
 10
4.6406236428
 20
0.4168456883
 30
0.0
 10
4.6401841474
 20
0.4096809338
 30
0.0
 10
4.6394878148
 20
0.4026601532
 30
0.0
 10
4.6385395759
 20
0.3958548327
 30
0.0
 10
4.6373511168
 20
0.3893288364
 30
0.0
 10
4.6361533423
 20
0.3841063792
 30
0.0
 10
4.6350779829
 20
0.380117879
 30
0.0
 10
4.6342294281
 20
0.377271451
 30
0.0
 10
4.633330362
 20
0.3745379371
 30
0.0
 10
4.6323827358
 20
0.371924079
 30
0.0
 10
4.6313883382
 20
0.3694363134
 30
0.0
 10
4.6303499116
 20
0.3670802124
 30
0.0
 10
4.62927009
 20
0.3648609315
 30
0.0
 10
4.6281514458
 20
0.3627835525
 30
0.0
 10
4.6269965643
 20
0.3608530876
 30
0.0
 10
4.6258076786
 20
0.3590744079
 30
0.0
 10
4.6245875061
 20
0.3574515296
 30
0.0
 10
4.6233388932
 20
0.3559877407
 30
0.0
 10
4.6220644144
 20
0.3546862668
 30
0.0
 10
4.6207666245
 20
0.3535503199
 30
0.0
 10
4.6194478298
 20
0.3525833735
 30
0.0
 10
4.6181108442
 20
0.3517884589
 30
0.0
 10
4.6167594943
 20
0.3511670493
 30
0.0
 10
4.6153973536
 20
0.3507209054
 30
0.0
 10
4.6140287082
 20
0.350451823
 30
0.0
 10
4.6131111388
 20
0.3503914468
 30
0.0
 10
4.6126564594
 20
0.3503914468
 30
0.0
 11
4.6407590932
 21
0.4240825163
 31
0.0
 11
4.6405789836
 21
0.4168291904
 31
0.0
 11
4.6401362001
 21
0.4096426326
 31
0.0
 11
4.6394346301
 21
0.4026032288
 31
0.0
 11
4.6384805073
 21
0.39578373
 31
0.0
 11
4.6372837023
 21
0.3892450535
 31
0.0
 11
4.6358546772
 21
0.3830468598
 31
0.0
 11
4.6350572351
 21
0.3800933302
 31
0.0
 11
4.6342071322
 21
0.3772460324
 31
0.0
 11
4.6333063466
 21
0.3745118491
 31
0.0
 11
4.6323568563
 21
0.3718976631
 31
0.0
 11
4.6313607453
 21
0.3694100696
 31
0.0
 11
4.630320521
 21
0.3670545132
 31
0.0
 11
4.6292387971
 21
0.3648361511
 31
0.0
 11
4.6281181871
 21
0.3627601406
 31
0.0
 11
4.6269613043
 21
0.3608316387
 31
0.0
 11
4.625770773
 21
0.3590557092
 31
0.0
 11
4.6245493401
 21
0.3574363298
 31
0.0
 11
4.6232998321
 21
0.3559767778
 31
0.0
 11
4.6220250769
 21
0.3546803185
 31
0.0
 11
4.6207279021
 21
0.3535502176
 31
0.0
 11
4.6194111413
 21
0.3525897271
 31
0.0
 11
4.6180779808
 21
0.3518013001
 31
0.0
 11
4.6167321528
 21
0.3511861509
 31
0.0
 11
4.615377437
 21
0.3507453871
 31
0.0
 11
4.6140176127
 21
0.3504801165
 31
0.0
 11
4.6126564594
 21
0.3503914468
 31
0.0
  0
SPLINE
  5
2A9
100
AcDbEntity
  8
0
100
AcDbSpline
 62
9
  6
CONTINUOUS
 70
0
 71
3
 72
33
 73
29
 74
27
 42
0.0000001
 43
0.0000001
 44
0.0000000001
 12
-0.0005467884
 22
-0.0835836563
 32
0.0
 13
-0.0835462811
 23
-0.0025584177
 33
0.0
 40
0.0
 40
0.0
 40
0.0
 40
0.0
 40
0.0861689106
 40
0.1716911187
 40
0.255740919
 40
0.3375840422
 40
0.4166309737
 40
0.4923203385
 40
0.5287452522
 40
0.5641408468
 40
0.5984489013
 40
0.6316138659
 40
0.6635854374
 40
0.6943276439
 40
0.7238122005
 40
0.7520157701
 40
0.7789213412
 40
0.8045203793
 40
0.8288225938
 40
0.8518568501
 40
0.8736657872
 40
0.8943088243
 40
0.9138661033
 40
0.9324437849
 40
0.9501760477
 40
0.9672212573
 40
0.9837614411
 40
1.0
 40
1.0
 40
1.0
 40
1.0
 10
4.7852056684
 20
0.4240825163
 30
0.0
 10
4.785189963
 20
0.4216817455
 30
0.0
 10
4.785071837
 20
0.4168983431
 30
0.0
 10
4.7846383263
 20
0.409784622
 30
0.0
 10
4.7839516848
 20
0.4028117409
 30
0.0
 10
4.7830165786
 20
0.3960497695
 30
0.0
 10
4.7818444241
 20
0.3895613249
 30
0.0
 10
4.7806631489
 20
0.3843656261
 30
0.0
 10
4.7796024431
 20
0.3803945693
 30
0.0
 10
4.7787651626
 20
0.3775582732
 30
0.0
 10
4.7778779011
 20
0.3748325537
 30
0.0
 10
4.7769425948
 20
0.3722240219
 30
0.0
 10
4.7759609517
 20
0.3697390424
 30
0.0
 10
4.7749355715
 20
0.3673831606
 30
0.0
 10
4.7738690672
 20
0.3651614414
 30
0.0
 10
4.7727639525
 20
0.3630788605
 30
0.0
 10
4.7716227656
 20
0.3611403382
 30
0.0
 10
4.7704477461
 20
0.3593506805
 30
0.0
 10
4.7692414176
 20
0.3577139986
 30
0.0
 10
4.7680066298
 20
0.3562335567
 30
0.0
 10
4.7667459199
 20
0.3549125052
 30
0.0
 10
4.7654617895
 20
0.353754001
 30
0.0
 10
4.7641565818
 20
0.3527613265
 30
0.0
 10
4.7628327804
 20
0.3519377719
 30
0.0
 10
4.7614941068
 20
0.3512848707
 30
0.0
 10
4.7601440367
 20
0.3508042856
 30
0.0
 10
4.7587866917
 20
0.3504977688
 30
0.0
 10
4.7578746458
 20
0.3504101874
 30
0.0
 10
4.757422422
 20
0.350396339
 30
0.0
 11
4.7852056684
 21
0.4240825163
 31
0.0
 11
4.7850278382
 21
0.4168822453
 31
0.0
 11
4.7845911456
 21
0.4097471846
 31
0.0
 11
4.7838993868
 21
0.402755985
 31
0.0
 11
4.7829585715
 21
0.3959800943
 31
0.0
 11
4.7817783268
 21
0.38947919
 31
0.0
 11
4.7803688407
 21
0.3833116685
 31
0.0
 11
4.7795821367
 21
0.3803704714
 31
0.0
 11
4.7787433559
 21
0.3775333067
 31
0.0
 11
4.777854433
 21
0.3748069069
 31
0.0
 11
4.776917303
 21
0.3721980045
 31
0.0
 11
4.7759339715
 21
0.369713139
 31
0.0
 11
4.7749068508
 21
0.3673577468
 31
0.0
 11
4.773838497
 21
0.3651368729
 31
0.0
 11
4.7727314666
 21
0.3630555619
 31
0.0
 11
4.7715883159
 21
0.3611188581
 31
0.0
 11
4.7704116061
 21
0.3593317656
 31
0.0
 11
4.7692039996
 21
0.3576983909
 31
0.0
 11
4.7679682584
 21
0.3562219649
 31
0.0
 11
4.7667071485
 21
0.3549056817
 31
0.0
 11
4.7654234359
 21
0.3537527353
 31
0.0
 11
4.764119887
 21
0.3527663191
 31
0.0
 11
4.7627994941
 21
0.3519491139
 31
0.0
 11
4.7614658543
 21
0.3513024297
 31
0.0
 11
4.7601226644
 21
0.3508273502
 31
0.0
 11
4.7587736214
 21
0.3505249588
 31
0.0
 11
4.757422422
 21
0.350396339
 31
0.0
  0
SPLINE
  5
2AA
100
AcDbEntity
  8
0
100
AcDbSpline
 62
9
  6
CONTINUOUS
 70
0
 71
3
 72
65
 73
61
 74
59
 42
0.0000001
 43
0.0000001
 44
0.0000000001
 12
1.0170388237
 22
-0.0000242454
 32
0.0
 13
0.0633207541
 23
1.0150657376
 33
0.0
 40
0.0
 40
0.0
 40
0.0
 40
0.0
 40
0.0611908701
 40
0.0917974121
 40
0.1224109624
 40
0.1377208653
 40
0.153033048
 40
0.1836642342
 40
0.2143057649
 40
0.2449599673
 40
0.260293168
 40
0.2756311016
 40
0.3063216106
 40
0.3370330549
 40
0.3523978082
 40
0.3677692303
 40
0.3831481504
 40
0.3985352563
 40
0.4293338848
 40
0.4601690408
 40
0.4756030264
 40
0.4910494265
 40
0.5065088345
 40
0.5219814426
 40
0.5374679265
 40
0.552969489
 40
0.5684878814
 40
0.5840252027
 40
0.5995821138
 40
0.6151589834
 40
0.6307571124
 40
0.6463787936
 40
0.654199606
 40
0.6620275474
 40
0.6777044492
 40
0.693409927
 40
0.7091456998
 40
0.7249153292
 40
0.7328146862
 40
0.7407240562
 40
0.7565714763
 40
0.7724582052
 40
0.788387585
 40
0.7963706166
 40
0.8043666627
 40
0.8203952577
 40
0.8364726569
 40
0.8526025045
 40
0.8687913599
 40
0.8850343395
 40
0.901326966
 40
0.9094934915
 40
0.9176737232
 40
0.9340689685
 40
0.9505076986
 40
0.9587441983
 40
0.9669906597
 40
0.9752432438
 40
0.9834981596
 40
1.0
 40
1.0
 40
1.0
 40
1.0
 10
4.7852056684
 20
0.4240825163
 30
0.0
 10
4.8059501653
 20
0.4240820218
 30
0.0
 10
4.8370737192
 20
0.4245335471
 30
0.0
 10
4.878543764
 20
0.4261137438
 30
0.0
 10
4.9044514208
 20
0.427524783
 30
0.0
 10
4.9251645769
 20
0.4289169139
 30
0.0
 10
4.9458709435
 20
0.4304878322
 30
0.0
 10
4.9717331088
 20
0.4327942461
 30
0.0
 10
5.0027195916
 20
0.4361362631
 30
0.0
 10
5.0284911097
 20
0.439421472
 30
0.0
 10
5.0490723997
 20
0.4423627843
 30
0.0
 10
5.0696344285
 20
0.4455180633
 30
0.0
 10
5.0952855089
 20
0.4498719535
 30
0.0
 10
5.1208419296
 20
0.4548008919
 30
0.0
 10
5.1412238657
 20
0.4591075655
 30
0.0
 10
5.1564798548
 20
0.4625247602
 30
0.0
 10
5.1716996267
 20
0.4661329307
 30
0.0
 10
5.1919454081
 20
0.4712059606
 30
0.0
 10
5.2171461454
 20
0.4780534267
 30
0.0
 10
5.2421599529
 20
0.4856122624
 30
0.0
 10
5.2620476866
 20
0.4921124374
 30
0.0
 10
5.2769039065
 20
0.4972223355
 30
0.0
 10
5.2916890967
 20
0.5025729266
 30
0.0
 10
5.3063961761
 20
0.5081731118
 30
0.0
 10
5.3210178315
 20
0.5140313716
 30
0.0
 10
5.3355467433
 20
0.5201562357
 30
0.0
 10
5.3499754545
 20
0.5265563268
 30
0.0
 10
5.364296085
 20
0.5332394
 30
0.0
 10
5.3784980631
 20
0.5402163486
 30
0.0
 10
5.3925691271
 20
0.5474989107
 30
0.0
 10
5.4064967314
 20
0.5550982995
 30
0.0
 10
5.4179684153
 20
0.5617019105
 30
0.0
 10
5.4270605067
 20
0.5671536633
 30
0.0
 10
5.4361018466
 20
0.5727249354
 30
0.0
 10
5.4472878076
 20
0.5799092479
 30
0.0
 10
5.4604986045
 20
0.5888922166
 30
0.0
 10
5.4734820939
 20
0.5982548524
 30
0.0
 10
5.4840882172
 20
0.6063802903
 30
0.0
 10
5.4924366696
 20
0.613082418
 30
0.0
 10
5.5007002177
 20
0.619930342
 30
0.0
 10
5.5108411096
 20
0.6287540722
 30
0.0
 10
5.5226661755
 20
0.6397707769
 30
0.0
 10
5.5322041719
 20
0.6493186984
 30
0.0
 10
5.539629762
 20
0.6571856602
 30
0.0
 10
5.5469240706
 20
0.6652199692
 30
0.0
 10
5.5557590502
 20
0.6755583827
 30
0.0
 10
5.5658487984
 20
0.688433589
 30
0.0
 10
5.5753815149
 20
0.7017941941
 30
0.0
 10
5.5843002511
 20
0.7156399259
 30
0.0
 10
5.5925416555
 20
0.729963533
 30
0.0
 10
5.5987829296
 20
0.7422782993
 30
0.0
 10
5.6033668727
 20
0.7523507799
 30
0.0
 10
5.6076728033
 20
0.7625829747
 30
0.0
 10
5.6125016993
 20
0.7756310621
 30
0.0
 10
5.61653653
 20
0.7889670368
 30
0.0
 10
5.6192602951
 20
0.7997921223
 30
0.0
 10
5.6210442973
 20
0.8079873443
 30
0.0
 10
5.6225611207
 20
0.8162427215
 30
0.0
 10
5.6242170102
 20
0.8273114595
 30
0.0
 10
5.6250366531
 20
0.8356731026
 30
0.0
 10
5.6253849561
 20
0.8412565868
 30
0.0
 11
4.7852056684
 21
0.4240825163
 31
0.0
 11
4.8474322488
 21
0.4250098961
 31
0.0
 11
4.8785375985
 21
0.426198252
 31
0.0
 11
4.9096265207
 21
0.4278946243
 31
0.0
 11
4.9251622119
 21
0.4289391537
 31
0.0
 11
4.9406906318
 21
0.430117766
 31
0.0
 11
4.9717201919
 21
0.4328894781
 31
0.0
 11
5.0027036545
 21
0.4362356196
 31
0.0
 11
5.0336293475
 21
0.4401823308
 31
0.0
 11
5.049066883
 21
0.4423890689
 31
0.0
 11
5.0644855736
 21
0.4447557813
 31
0.0
 11
5.0952578041
 21
0.4499853715
 31
0.0
 11
5.1259261466
 21
0.4559066217
 31
0.0
 11
5.1412149567
 21
0.4591379325
 31
0.0
 11
5.1564701111
 21
0.4625557343
 31
0.0
 11
5.1716890471
 21
0.4661645534
 31
0.0
 11
5.1868687557
 21
0.4699693586
 31
0.0
 11
5.2170938015
 21
0.4781914052
 31
0.0
 11
5.2471110081
 21
0.4872716835
 31
0.0
 11
5.2620309177
 21
0.4921492784
 31
0.0
 11
5.2768858519
 21
0.4972602569
 31
0.0
 11
5.29166976
 21
0.5026121792
 31
0.0
 11
5.3063753389
 21
0.5082135448
 31
0.0
 11
5.3209952541
 21
0.5140728772
 31
0.0
 11
5.3355221707
 21
0.5201986997
 31
0.0
 11
5.3499487543
 21
0.5265995358
 31
0.0
 11
5.36426734
 21
0.533284083
 31
0.0
 11
5.3784671353
 21
0.5402626892
 31
0.0
 11
5.3925356223
 21
0.5475466129
 31
0.0
 11
5.406460265
 21
0.555147122
 31
0.0
 11
5.4202285272
 21
0.5630754846
 31
0.0
 11
5.4270500981
 21
0.5671661321
 31
0.0
 11
5.4338277319
 21
0.571343009
 31
0.0
 11
5.4472412422
 21
0.5799621415
 31
0.0
 11
5.4604480179
 21
0.5889465937
 31
0.0
 11
5.4734267888
 21
0.5983101433
 31
0.0
 11
5.4861562845
 21
0.6080665678
 31
0.0
 11
5.4924208715
 21
0.6130964134
 31
0.0
 11
5.4986142669
 21
0.6182296369
 31
0.0
 11
5.5107700589
 21
0.6288130503
 31
0.0
 11
5.5225886315
 21
0.6398304714
 31
0.0
 11
5.5340349195
 21
0.6512955634
 31
0.0
 11
5.5396074982
 21
0.6572002555
 31
0.0
 11
5.5450733403
 21
0.6632217754
 31
0.0
 11
5.5556591774
 21
0.6756187745
 31
0.0
 11
5.5657398948
 21
0.6884929901
 31
0.0
 11
5.5752627042
 21
0.701850747
 31
0.0
 11
5.5841730176
 21
0.7156960523
 31
0.0
 11
5.5924051114
 21
0.7300185684
 31
0.0
 11
5.5998890071
 21
0.7448024769
 31
0.0
 11
5.60332851
 21
0.7523625054
 31
0.0
 11
5.606554935
 21
0.760031022
 31
0.0
 11
5.6123369743
 21
0.7756710456
 31
0.0
 11
5.6171725053
 21
0.7916753203
 31
0.0
 11
5.6192157959
 21
0.7997991378
 31
0.0
 11
5.6209991475
 21
0.8079943161
 31
0.0
 11
5.6225151341
 21
0.8162494699
 31
0.0
 11
5.623756361
 21
0.8245527795
 31
0.0
 11
5.6253849561
 21
0.8412565868
 31
0.0
  0
SPLINE
  5
2AB
100
AcDbEntity
  8
0
100
AcDbSpline
 62
9
  6
CONTINUOUS
 70
0
 71
3
 72
41
 73
37
 74
35
 42
0.0000001
 43
0.0000001
 44
0.0000000001
 12
0.0467962621
 22
-0.0027680714
 32
0.0
 13
-0.0033415888
 23
-0.0467588083
 33
0.0
 40
0.0
 40
0.0
 40
0.0
 40
0.0
 40
0.1080797796
 40
0.2124360922
 40
0.3123861259
 40
0.4072700706
 40
0.4965746498
 40
0.5798442735
 40
0.6566274666
 40
0.7265184431
 40
0.7587612578
 40
0.7891393966
 40
0.8176057014
 40
0.8441166478
 40
0.8686407112
 40
0.8911488522
 40
0.9116120425
 40
0.9300012703
 40
0.9462875501
 40
0.9604432228
 40
0.9667165861
 40
0.9724518458
 40
0.9776476887
 40
0.9823028202
 40
0.9864159738
 40
0.9899859286
 40
0.9930115422
 40
0.9954918205
 40
0.9974260858
 40
0.9981884861
 40
0.9988145956
 40
0.9993049161
 40
0.9996607226
 40
0.9997892912
 40
0.999886363
 40
1.0
 40
1.0
 40
1.0
 40
1.0
 10
5.6253984212
 20
0.841646109
 30
0.0
 10
5.6270843311
 20
0.8415463848
 30
0.0
 10
5.6303979749
 20
0.841348765
 30
0.0
 10
5.6352702657
 20
0.8410514533
 30
0.0
 10
5.6399362227
 20
0.8407582979
 30
0.0
 10
5.6443667459
 20
0.8404689907
 30
0.0
 10
5.6485365955
 20
0.8401879685
 30
0.0
 10
5.6524238471
 20
0.8399201835
 30
0.0
 10
5.6560082957
 20
0.8396709033
 30
0.0
 10
5.6587971973
 20
0.8394751835
 30
0.0
 10
5.6608626171
 20
0.8393283271
 30
0.0
 10
5.6622822885
 20
0.8392263202
 30
0.0
 10
5.6636125342
 20
0.8391294893
 30
0.0
 10
5.6648514396
 20
0.8390378582
 30
0.0
 10
5.6659973839
 20
0.8389515872
 30
0.0
 10
5.6670489715
 20
0.8388708187
 30
0.0
 10
5.6680048457
 20
0.8387956934
 30
0.0
 10
5.6688636504
 20
0.838726356
 30
0.0
 10
5.6696240491
 20
0.8386629469
 30
0.0
 10
5.6701956182
 20
0.8386133603
 30
0.0
 10
5.6706028046
 20
0.8385765799
 30
0.0
 10
5.670870485
 20
0.8385516618
 30
0.0
 10
5.6711129125
 20
0.8385282912
 30
0.0
 10
5.6713300237
 20
0.8385064759
 30
0.0
 10
5.6715217561
 20
0.8384862275
 30
0.0
 10
5.6716880473
 20
0.8384675563
 30
0.0
 10
5.671828839
 20
0.8384504904
 30
0.0
 10
5.6719440706
 20
0.838435034
 30
0.0
 10
5.672024043
 20
0.8384227933
 30
0.0
 10
5.6720751401
 20
0.8384135319
 30
0.0
 10
5.6721038869
 20
0.838407595
 30
0.0
 10
5.6721262481
 20
0.8384020452
 30
0.0
 10
5.6721407596
 20
0.8383975679
 30
0.0
 10
5.6721491818
 20
0.8383938498
 30
0.0
 10
5.6721536063
 20
0.8383913504
 30
0.0
 10
5.6721564605
 20
0.8383885169
 30
0.0
 10
5.6721563339
 20
0.8383867457
 30
0.0
 11
5.6253984212
 21
0.841646109
 31
0.0
 11
5.6304559835
 21
0.8413441196
 31
0.0
 11
5.6353388981
 21
0.8410457626
 31
0.0
 11
5.6400151038
 21
0.8407513671
 31
0.0
 11
5.6444536382
 21
0.8404617201
 31
0.0
 11
5.6486306112
 21
0.840180556
 31
0.0
 11
5.6525249339
 21
0.8399127762
 31
0.0
 11
5.6561157066
 21
0.8396630367
 31
0.0
 11
5.6593839964
 21
0.839433314
 31
0.0
 11
5.6608916674
 21
0.8393260675
 31
0.0
 11
5.6623120695
 21
0.8392239508
 31
0.0
 11
5.6636429884
 21
0.8391270038
 31
0.0
 11
5.6648823811
 21
0.8390352859
 31
0.0
 11
5.6660287729
 21
0.8389489208
 31
0.0
 11
5.6670808068
 21
0.8388680453
 31
0.0
 11
5.6680371255
 21
0.8387927966
 31
0.0
 11
5.6688963718
 21
0.8387233114
 31
0.0
 11
5.6696571886
 21
0.8386597268
 31
0.0
 11
5.6703182785
 21
0.8386021735
 31
0.0
 11
5.6706111662
 21
0.8385756838
 31
0.0
 11
5.6708788632
 21
0.8385507268
 31
0.0
 11
5.6711213058
 21
0.8385273083
 31
0.0
 11
5.6713384302
 21
0.8385054343
 31
0.0
 11
5.6715301728
 21
0.8384851105
 31
0.0
 11
5.6716964697
 21
0.8384663428
 31
0.0
 11
5.6718372571
 21
0.8384491373
 31
0.0
 11
5.6719524714
 21
0.8384334997
 31
0.0
 11
5.6720420487
 21
0.8384194359
 31
0.0
 11
5.6720772036
 21
0.838412996
 31
0.0
 11
5.6721059253
 21
0.8384069518
 31
0.0
 11
5.6721282059
 21
0.838401304
 31
0.0
 11
5.6721440374
 21
0.8383960534
 31
0.0
 11
5.6721495323
 21
0.8383935772
 31
0.0
 11
5.6721534128
 21
0.8383912005
 31
0.0
 11
5.6721563339
 21
0.8383867457
 31
0.0
  0
SPLINE
  5
2AC
100
AcDbEntity
  8
0
100
AcDbSpline
 62
6
  6
CONTINUOUS
 70
0
 71
3
 72
83
 73
79
 74
77
 42
0.0000001
 43
0.0000001
 44
0.0000000001
 12
0.0
 22
-0.6257637674
 32
0.0
 13
-0.541998401
 23
-0.3127587342
 33
0.0
 40
0.0
 40
0.0
 40
0.0
 40
0.0
 40
0.0000857396
 40
0.0001752936
 40
0.0002720101
 40
0.0003785591
 40
0.0004969428
 40
0.0006286209
 40
0.0009356401
 40
0.0013053733
 40
0.0017408828
 40
0.0022439987
 40
0.0028158734
 40
0.0034572634
 40
0.0041686804
 40
0.0049504773
 40
0.0058029008
 40
0.0077202197
 40
0.0099214019
 40
0.0124058915
 40
0.0151725216
 40
0.0182199399
 40
0.0215466735
 40
0.0251511672
 40
0.0290318078
 40
0.033186904
 40
0.0376141218
 40
0.0472733968
 40
0.0579864002
 40
0.0697296598
 40
0.0824774712
 40
0.0961986657
 40
0.1108611672
 40
0.1264326345
 40
0.142876765
 40
0.1601538521
 40
0.1782240594
 40
0.2165766875
 40
0.2575743219
 40
0.3008372677
 40
0.3459609681
 40
0.3925264481
 40
0.4400994473
 40
0.4882365852
 40
0.5364878679
 40
0.5844031098
 40
0.6315340936
 40
0.677442714
 40
0.7217003398
 40
0.7638963198
 40
0.8036368776
 40
0.8405513744
 40
0.8578400189
 40
0.874296239
 40
0.8898803763
 40
0.9045559335
 40
0.9182905861
 40
0.9310523372
 40
0.9428099617
 40
0.9535375777
 40
0.9632117868
 40
0.971809401
 40
0.9756978017
 40
0.9793100894
 40
0.9826446555
 40
0.9856999491
 40
0.9884745004
 40
0.9909669592
 40
0.9931761575
 40
0.995101506
 40
0.9959579376
 40
0.9967437336
 40
0.9974591352
 40
0.9981044879
 40
0.9986802923
 40
0.9991872872
 40
0.9996265965
 40
1.0
 40
1.0
 40
1.0
 40
1.0
 10
4.2879082343
 20
1.9740361302
 30
0.0
 10
4.2879082343
 20
1.9740182459
 30
0.0
 10
4.2879042171
 20
1.9739815723
 30
0.0
 10
4.2878864142
 20
1.9739273378
 30
0.0
 10
4.2878570572
 20
1.9738734521
 30
0.0
 10
4.2878163377
 20
1.9738198744
 30
0.0
 10
4.2877643406
 20
1.9737664741
 30
0.0
 10
4.2876753327
 20
1.9736915433
 30
0.0
 10
4.2875334658
 20
1.9735993455
 30
0.0
 10
4.2873266462
 20
1.9734937104
 30
0.0
 10
4.2870748693
 20
1.9733878998
 30
0.0
 10
4.286778042
 20
1.973281909
 30
0.0
 10
4.2864360366
 20
1.9731757598
 30
0.0
 10
4.2860488342
 20
1.9730694832
 30
0.0
 10
4.2856164313
 20
1.9729631074
 30
0.0
 10
4.2851388492
 20
1.9728566467
 30
0.0
 10
4.2844129188
 20
1.9727087571
 30
0.0
 10
4.283392121
 20
1.9725260658
 30
0.0
 10
4.2820311449
 20
1.9723141086
 30
0.0
 10
4.2804911784
 20
1.9721018524
 30
0.0
 10
4.2787732546
 20
1.9718893391
 30
0.0
 10
4.2768784646
 20
1.9716766458
 30
0.0
 10
4.2748079248
 20
1.9714638097
 30
0.0
 10
4.2725627564
 20
1.9712508601
 30
0.0
 10
4.270144094
 20
1.9710378165
 30
0.0
 10
4.2675532098
 20
1.9708247
 30
0.0
 10
4.2637595051
 20
1.9705318845
 30
0.0
 10
4.2585993431
 20
1.9701685853
 30
0.0
 10
4.2519138794
 20
1.9697437089
 30
0.0
 10
4.2445830269
 20
1.9693184568
 30
0.0
 10
4.2366237526
 20
1.9688929682
 30
0.0
 10
4.2280547704
 20
1.9684672134
 30
0.0
 10
4.2188961419
 20
1.9680412431
 30
0.0
 10
4.2091689719
 20
1.9676151516
 30
0.0
 10
4.1988959426
 20
1.9671889511
 30
0.0
 10
4.1881012866
 20
1.9667626114
 30
0.0
 10
4.1727393169
 20
1.9661824757
 30
0.0
 10
4.1524313318
 20
1.9654620391
 30
0.0
 10
4.1268697833
 20
1.9646128814
 30
0.0
 10
4.099895151
 20
1.9637632813
 30
0.0
 10
4.0717585998
 20
1.9629132285
 30
0.0
 10
4.042722636
 20
1.9620629258
 30
0.0
 10
4.0130578495
 20
1.9612124125
 30
0.0
 10
3.9830412857
 20
1.9603618055
 30
0.0
 10
3.9529533068
 20
1.9595111616
 30
0.0
 10
3.923075281
 20
1.9586606029
 30
0.0
 10
3.8936861029
 20
1.9578101639
 30
0.0
 10
3.8650601768
 20
1.9569599959
 30
0.0
 10
3.8374640914
 20
1.956110122
 30
0.0
 10
3.811155207
 20
1.9552607464
 30
0.0
 10
3.7863788328
 20
1.954411954
 30
0.0
 10
3.7667965613
 20
1.953690558
 30
0.0
 10
3.7520693292
 20
1.9531093231
 30
0.0
 10
3.7417887185
 20
1.9526831103
 30
0.0
 10
3.7320536531
 20
1.9522570201
 30
0.0
 10
3.7228868427
 20
1.9518310461
 30
0.0
 10
3.7143094125
 20
1.951405286
 30
0.0
 10
3.706341414
 20
1.9509797976
 30
0.0
 10
3.699001597
 20
1.9505545365
 30
0.0
 10
3.6923069483
 20
1.9501296844
 30
0.0
 10
3.6862728614
 20
1.9497054065
 30
0.0
 10
3.6816647694
 20
1.9493414295
 30
0.0
 10
3.6783197335
 20
1.9490474211
 30
0.0
 10
3.6760696656
 20
1.9488344647
 30
0.0
 10
3.6739941979
 20
1.9486216301
 30
0.0
 10
3.6720944487
 20
1.9484089353
 30
0.0
 10
3.6703715307
 20
1.9481964194
 30
0.0
 10
3.668826532
 20
1.9479841576
 30
0.0
 10
3.6674604885
 20
1.9477721931
 30
0.0
 10
3.6664354409
 20
1.9475895157
 30
0.0
 10
3.6657060928
 20
1.9474416495
 30
0.0
 10
3.6652259494
 20
1.9473351854
 30
0.0
 10
3.6647909832
 20
1.947228805
 30
0.0
 10
3.6644012133
 20
1.9471225218
 30
0.0
 10
3.6640566478
 20
1.9470163657
 30
0.0
 10
3.6637572389
 20
1.9469103619
 30
0.0
 10
3.6635029594
 20
1.9468045503
 30
0.0
 10
3.6633513553
 20
1.9467280885
 30
0.0
 10
3.6632838939
 20
1.94668916
 30
0.0
 11
4.2879082343
 21
1.9740361302
 31
0.0
 11
4.2879025208
 21
1.9739827825
 31
0.0
 11
4.2878853844
 21
1.9739294272
 31
0.0
 11
4.2878568309
 21
1.9738760646
 31
0.0
 11
4.2878168662
 21
1.9738226951
 31
0.0
 11
4.2877654963
 21
1.9737693189
 31
0.0
 11
4.287702727
 21
1.9737159364
 31
0.0
 11
4.2875430142
 21
1.9736091542
 31
0.0
 11
4.2873377749
 21
1.9735023512
 31
0.0
 11
4.2870870564
 21
1.9733955302
 31
0.0
 11
4.2867909061
 21
1.9732886939
 31
0.0
 11
4.2864493712
 21
1.9731818453
 31
0.0
 11
4.2860624991
 21
1.9730749871
 31
0.0
 11
4.2856303369
 21
1.9729681221
 31
0.0
 11
4.285152932
 21
1.9728612531
 31
0.0
 11
4.2846303316
 21
1.972754383
 31
0.0
 11
4.2834497338
 21
1.9725406504
 31
0.0
 11
4.2820889929
 21
1.9723269442
 31
0.0
 11
4.2805490433
 21
1.9721132661
 31
0.0
 11
4.2788310207
 21
1.9718996102
 31
0.0
 11
4.2769360617
 21
1.9716859707
 31
0.0
 11
4.2748653026
 21
1.9714723419
 31
0.0
 11
4.27261988
 21
1.9712587179
 31
0.0
 11
4.2702009304
 21
1.9710450929
 31
0.0
 11
4.2676096128
 21
1.9708314613
 31
0.0
 11
4.2648474701
 21
1.9706178216
 31
0.0
 11
4.2588181681
 21
1.9701905245
 31
0.0
 11
4.2521279911
 21
1.9697632161
 31
0.0
 11
4.2447919188
 21
1.9693359112
 31
0.0
 11
4.2368262525
 21
1.9689086189
 31
0.0
 11
4.2282506644
 21
1.968481335
 31
0.0
 11
4.2190853566
 21
1.9680540533
 31
0.0
 11
4.2093506695
 21
1.9676267677
 31
0.0
 11
4.1990694038
 21
1.9671994767
 31
0.0
 11
4.1882664758
 21
1.9667721826
 31
0.0
 11
4.176966871
 21
1.9663448881
 31
0.0
 11
4.1529824059
 21
1.9654903047
 31
0.0
 11
4.1273418087
 21
1.9646357313
 31
0.0
 11
4.1002829158
 21
1.9637811659
 31
0.0
 11
4.0720590734
 21
1.9629265995
 31
0.0
 11
4.0429326172
 21
1.9620720222
 31
0.0
 11
4.0131754271
 21
1.9612174248
 31
0.0
 11
3.983065076
 21
1.9603628107
 31
0.0
 11
3.9528832687
 21
1.9595081931
 31
0.0
 11
3.9229118281
 21
1.9586535855
 31
0.0
 11
3.89343135
 21
1.9577989986
 31
0.0
 11
3.864716112
 21
1.9569444281
 31
0.0
 11
3.8370344809
 21
1.9560898637
 31
0.0
 11
3.810643598
 21
1.9552352897
 31
0.0
 11
3.7857900851
 21
1.9543806998
 31
0.0
 11
3.7627061443
 21
1.9535261027
 31
0.0
 11
3.7518959786
 21
1.9530988057
 31
0.0
 11
3.7416071412
 21
1.9526715127
 31
0.0
 11
3.7318645181
 21
1.9522442257
 31
0.0
 11
3.7226910317
 21
1.9518169435
 31
0.0
 11
3.7141070115
 21
1.95138966
 31
0.0
 11
3.7061326096
 21
1.950962369
 31
0.0
 11
3.698787533
 21
1.9505350658
 31
0.0
 11
3.6920881932
 21
1.9501077595
 31
0.0
 11
3.6860495224
 21
1.949680465
 31
0.0
 11
3.68068644
 21
1.9492531973
 31
0.0
 11
3.6782626152
 21
1.949039575
 31
0.0
 11
3.6760122931
 21
1.9488259543
 31
0.0
 11
3.6739366064
 21
1.9486123292
 31
0.0
 11
3.6720366877
 21
1.9483986937
 31
0.0
 11
3.6703136697
 21
1.9481850418
 31
0.0
 11
3.6687686852
 21
1.9479713675
 31
0.0
 11
3.6674028663
 21
1.9477576646
 31
0.0
 11
3.6662171621
 21
1.9475439344
 31
0.0
 11
3.6656920019
 21
1.9474370648
 31
0.0
 11
3.6652120328
 21
1.9473301961
 31
0.0
 11
3.6647773025
 21
1.9472233311
 31
0.0
 11
3.6643878584
 21
1.9471164726
 31
0.0
 11
3.664043748
 21
1.9470096234
 31
0.0
 11
3.6637450188
 21
1.9469027864
 31
0.0
 11
3.6634917183
 21
1.9467959643
 31
0.0
 11
3.6632838939
 21
1.94668916
 31
0.0
  0
SPLINE
  5
2AD
100
AcDbEntity
  8
0
100
AcDbSpline
 62
6
  6
CONTINUOUS
 70
0
 71
3
 72
37
 73
33
 74
31
 42
0.0000001
 43
0.0000001
 44
0.0000000001
 12
0.1445952781
 22
0.0048504116
 32
0.0
 13
0.1253023214
 23
0.0723232274
 33
0.0
 40
0.0
 40
0.0
 40
0.0
 40
0.0
 40
0.1066055502
 40
0.2087920271
 40
0.3061240149
 40
0.3982064275
 40
0.4847323414
 40
0.5654071057
 40
0.6399518713
 40
0.7081079402
 40
0.7696213195
 40
0.7978185295
 40
0.8242787122
 40
0.8489791648
 40
0.8718973384
 40
0.8930111912
 40
0.9123037391
 40
0.92976225
 40
0.945374707
 40
0.9591300359
 40
0.9653083124
 40
0.9710189358
 40
0.9762612879
 40
0.9810358201
 40
0.9853436984
 40
0.9873232223
 40
0.9891868379
 40
0.9925678363
 40
0.995491224
 40
0.9979642269
 40
0.9990357049
 40
1.0
 40
1.0
 40
1.0
 40
1.0
 10
4.1432398414
 20
1.9026512923
 30
0.0
 10
4.1483780611
 20
1.9028236525
 30
0.0
 10
4.1584412994
 20
1.9031675041
 30
0.0
 10
4.1731949191
 20
1.90369372
 30
0.0
 10
4.1872476901
 20
1.904219871
 30
0.0
 10
4.2005446724
 20
1.9047458522
 30
0.0
 10
4.2130377022
 20
1.9052714641
 30
0.0
 10
4.2246841866
 20
1.9057967593
 30
0.0
 10
4.2354438271
 20
1.9063217066
 30
0.0
 10
4.2452782343
 20
1.9068460847
 30
0.0
 10
4.252878281
 20
1.9072945329
 30
0.0
 10
4.2584690098
 20
1.907656148
 30
0.0
 10
4.2622870375
 20
1.907919332
 30
0.0
 10
4.2658498456
 20
1.9081823954
 30
0.0
 10
4.2691540834
 20
1.9084453147
 30
0.0
 10
4.272196647
 20
1.9087080807
 30
0.0
 10
4.2749748683
 20
1.9089706568
 30
0.0
 10
4.2774865206
 20
1.909232947
 30
0.0
 10
4.2797295614
 20
1.9094949023
 30
0.0
 10
4.2814290444
 20
1.9097200739
 30
0.0
 10
4.2826523093
 20
1.9099020833
 30
0.0
 10
4.2834679617
 20
1.9100336013
 30
0.0
 10
4.2842149827
 20
1.910165056
 30
0.0
 10
4.2848932335
 20
1.9102964312
 30
0.0
 10
4.2854147992
 20
1.9104087462
 30
0.0
 10
4.2857973619
 20
1.9104991574
 30
0.0
 10
4.2861351985
 20
1.9105842771
 30
0.0
 10
4.2865148671
 20
1.9106896134
 30
0.0
 10
4.2869176619
 20
1.91082019
 30
0.0
 10
4.2872086243
 20
1.9109334453
 30
0.0
 10
4.287405695
 20
1.9110254929
 30
0.0
 10
4.2874924144
 20
1.9110716644
 30
0.0
 10
4.2875326905
 20
1.9110949113
 30
0.0
 11
4.1432398414
 21
1.9026512923
 31
0.0
 11
4.1586541504
 21
1.9031787063
 31
0.0
 11
4.1734287179
 21
1.9037065337
 31
0.0
 11
4.1875004812
 21
1.904234434
 31
0.0
 11
4.2008121947
 21
1.9047621895
 31
0.0
 11
4.2133193447
 21
1.9052898518
 31
0.0
 11
4.2249791628
 21
1.9058175068
 31
0.0
 11
4.2357511292
 21
1.9063451986
 31
0.0
 11
4.2455975867
 21
1.9068729177
 31
0.0
 11
4.2544814731
 21
1.9074006507
 31
0.0
 11
4.2585524072
 21
1.9076645172
 31
0.0
 11
4.2623714722
 21
1.90792838
 31
0.0
 11
4.2659352957
 21
1.9081922367
 31
0.0
 11
4.2692405048
 21
1.9084560846
 31
0.0
 11
4.2722837701
 21
1.9087199215
 31
0.0
 11
4.2750624535
 21
1.9089837522
 31
0.0
 11
4.2775744745
 21
1.9092475872
 31
0.0
 11
4.2798177684
 21
1.9095114371
 31
0.0
 11
4.2817902708
 21
1.9097753126
 31
0.0
 11
4.2826743299
 21
1.9099072633
 31
0.0
 11
4.2834899169
 21
1.9100392244
 31
0.0
 11
4.2842367926
 21
1.9101711965
 31
0.0
 11
4.2849148303
 21
1.9103031759
 31
0.0
 11
4.2855239448
 21
1.9104351574
 31
0.0
 11
4.2858026293
 21
1.9105011473
 31
0.0
 11
4.286064051
 21
1.9105671357
 31
0.0
 11
4.2865350638
 21
1.9106991055
 31
0.0
 11
4.2869368981
 21
1.9108310615
 31
0.0
 11
4.2872694687
 21
1.9109629986
 31
0.0
 11
4.2874097535
 21
1.9110289583
 31
0.0
 11
4.2875326905
 21
1.9110949113
 31
0.0
  0
SPLINE
  5
2AE
100
AcDbEntity
  8
0
100
AcDbSpline
 62
6
  6
CONTINUOUS
 70
0
 71
3
 72
48
 73
44
 74
42
 42
0.0000001
 43
0.0000001
 44
0.0000000001
 12
0.000399534
 22
-0.2870529309
 32
0.0
 13
-0.286912592
 23
-0.0089838384
 33
0.0
 40
0.0
 40
0.0
 40
0.0
 40
0.0
 40
0.0001915734
 40
0.0003903728
 40
0.0006029401
 40
0.0008346593
 40
0.00137056
 40
0.0020214488
 40
0.0027996827
 40
0.003712266
 40
0.0047634043
 40
0.005955743
 40
0.0072910044
 40
0.0087703351
 40
0.0103945078
 40
0.0121640418
 40
0.0161403343
 40
0.0207007583
 40
0.0258455296
 40
0.031573769
 40
0.0378824543
 40
0.0447678251
 40
0.0522259213
 40
0.060252643
 40
0.0688437885
 40
0.0779950808
 40
0.0979582542
 40
0.1200918187
 40
0.1443406793
 40
0.1706493348
 40
0.1989556318
 40
0.2291870015
 40
0.2612698499
 40
0.2951294678
 40
0.3306817239
 40
0.3678374647
 40
0.4465991733
 40
0.5306441428
 40
0.6191521437
 40
0.7112543928
 40
0.8060522441
 40
0.9026152956
 40
1.0
 40
1.0
 40
1.0
 40
1.0
 10
4.2578378038
 20
1.8247170532
 30
0.0
 10
4.2578378293
 20
1.8246987227
 30
0.0
 10
4.2578341114
 20
1.8246612673
 30
0.0
 10
4.2578174103
 20
1.8246057252
 30
0.0
 10
4.2577897474
 20
1.824550464
 30
0.0
 10
4.2577357847
 20
1.8244734212
 30
0.0
 10
4.257637779
 20
1.8243780046
 30
0.0
 10
4.2574836935
 20
1.8242695226
 30
0.0
 10
4.2572872227
 20
1.8241610938
 30
0.0
 10
4.2570481456
 20
1.8240525975
 30
0.0
 10
4.2567662404
 20
1.8239439508
 30
0.0
 10
4.2564414552
 20
1.8238351758
 30
0.0
 10
4.2560737755
 20
1.8237262887
 30
0.0
 10
4.2556632256
 20
1.8236173132
 30
0.0
 10
4.2552098478
 20
1.8235082585
 30
0.0
 10
4.2545210685
 20
1.8233568225
 30
0.0
 10
4.2535526771
 20
1.8231697122
 30
0.0
 10
4.2522616291
 20
1.8229525149
 30
0.0
 10
4.2508009247
 20
1.8227349979
 30
0.0
 10
4.249171341
 20
1.8225172421
 30
0.0
 10
4.2473739018
 20
1.8222992876
 30
0.0
 10
4.2454098592
 20
1.8220811753
 30
0.0
 10
4.2432805135
 20
1.8218629404
 30
0.0
 10
4.2409871716
 20
1.8216446099
 30
0.0
 10
4.2385311438
 20
1.8214261947
 30
0.0
 10
4.2349357909
 20
1.8211261204
 30
0.0
 10
4.2300462353
 20
1.8207538952
 30
0.0
 10
4.223712898
 20
1.8203185772
 30
0.0
 10
4.2167711244
 20
1.8198828212
 30
0.0
 10
4.209237673
 20
1.8194467626
 30
0.0
 10
4.2011309142
 20
1.8190105119
 30
0.0
 10
4.1924709232
 20
1.8185740282
 30
0.0
 10
4.1832789421
 20
1.8181373666
 30
0.0
 10
4.1735772971
 20
1.8177006255
 30
0.0
 10
4.1633897937
 20
1.8172637774
 30
0.0
 10
4.148908685
 20
1.816669563
 30
0.0
 10
4.1297896074
 20
1.8159316323
 30
0.0
 10
4.1057584417
 20
1.8150615892
 30
0.0
 10
4.0804500217
 20
1.8141910637
 30
0.0
 10
4.0541121537
 20
1.8133200964
 30
0.0
 10
4.0270031436
 20
1.8124489085
 30
0.0
 10
3.9993884367
 20
1.8115775253
 30
0.0
 10
3.9808397397
 20
1.8109971272
 30
0.0
 10
3.9715261071
 20
1.8107054977
 30
0.0
 11
4.2578378038
 21
1.8247170532
 31
0.0
 11
4.2578324715
 21
1.8246623206
 31
0.0
 11
4.2578163202
 21
1.824607588
 31
0.0
 11
4.257789347
 21
1.8245528553
 31
0.0
 11
4.2577515491
 21
1.8244981227
 31
0.0
 11
4.2576434674
 21
1.8243886574
 31
0.0
 11
4.2574920527
 21
1.8242791922
 31
0.0
 11
4.2572973157
 21
1.8241697269
 31
0.0
 11
4.2570593233
 21
1.8240602616
 31
0.0
 11
4.2567781473
 21
1.8239507964
 31
0.0
 11
4.2564538597
 21
1.8238413311
 31
0.0
 11
4.2560865324
 21
1.8237318658
 31
0.0
 11
4.2556762372
 21
1.8236224006
 31
0.0
 11
4.2552230461
 21
1.8235129353
 31
0.0
 11
4.254727031
 21
1.82340347
 31
0.0
 11
4.2536068165
 21
1.8231845395
 31
0.0
 11
4.2523161689
 21
1.8229656089
 31
0.0
 11
4.2508556636
 21
1.8227466784
 31
0.0
 11
4.2492259939
 21
1.8225277479
 31
0.0
 11
4.247428348
 21
1.8223088173
 31
0.0
 11
4.2454640429
 21
1.8220898868
 31
0.0
 11
4.2433343961
 21
1.8218709562
 31
0.0
 11
4.2410407246
 21
1.8216520257
 31
0.0
 11
4.2385843458
 21
1.8214330952
 31
0.0
 11
4.2359665768
 21
1.8212141646
 31
0.0
 11
4.2302528366
 21
1.8207763035
 31
0.0
 11
4.2239144317
 21
1.8203384424
 31
0.0
 11
4.2169675039
 21
1.8199005813
 31
0.0
 11
4.2094282241
 21
1.8194627202
 31
0.0
 11
4.201314617
 21
1.8190248591
 31
0.0
 11
4.1926476588
 21
1.818586998
 31
0.0
 11
4.1834485891
 21
1.8181491369
 31
0.0
 11
4.1737389448
 21
1.8177112758
 31
0.0
 11
4.1635429532
 21
1.8172734147
 31
0.0
 11
4.1528862702
 21
1.8168355536
 31
0.0
 11
4.1302944353
 21
1.8159598313
 31
0.0
 11
4.1061849562
 21
1.8150841091
 31
0.0
 11
4.0807935474
 21
1.8142083868
 31
0.0
 11
4.0543698086
 21
1.8133326645
 31
0.0
 11
4.0271718758
 21
1.8124569423
 31
0.0
 11
3.9994669789
 21
1.81158122
 31
0.0
 11
3.9715261071
 21
1.8107054977
 31
0.0
  0
SPLINE
  5
2AF
100
AcDbEntity
  8
0
100
AcDbSpline
 62
6
  6
CONTINUOUS
 70
0
 71
3
 72
53
 73
49
 74
47
 42
0.0000001
 43
0.0000001
 44
0.0000000001
 12
0.0
 22
0.481087148
 32
0.0
 13
0.4808167046
 23
0.016128873
 33
0.0
 40
0.0
 40
0.0
 40
0.0
 40
0.0
 40
0.0001550001
 40
0.0003227812
 40
0.0005135276
 40
0.0007342485
 40
0.0009894791
 40
0.0012821404
 40
0.0016141543
 40
0.001986823
 40
0.0024010557
 40
0.0028575038
 40
0.0038987521
 40
0.0051132567
 40
0.0065025134
 40
0.0080674315
 40
0.0098085679
 40
0.0117261128
 40
0.013819812
 40
0.0160892701
 40
0.0185340178
 40
0.0239472112
 40
0.0300548264
 40
0.0368518456
 40
0.0443318773
 40
0.0524860164
 40
0.0613049542
 40
0.0707793044
 40
0.0808996086
 40
0.0916551514
 40
0.115020629
 40
0.1407719487
 40
0.1687976072
 40
0.1989700264
 40
0.231157907
 40
0.2652164098
 40
0.30099344
 40
0.3383311326
 40
0.3770607457
 40
0.4170113143
 40
0.4998579244
 40
0.5853990446
 40
0.6721092999
 40
0.7584444226
 40
0.8428575781
 40
0.9238658396
 40
0.962640774
 40
1.0
 40
1.0
 40
1.0
 40
1.0
 10
3.6629082343
 20
1.8837479732
 30
0.0
 10
3.6629082343
 20
1.8837728294
 30
0.0
 10
3.662916275
 20
1.8838248494
 30
0.0
 10
3.662951109
 20
1.8839003572
 30
0.0
 10
3.6630076749
 20
1.883974732
 30
0.0
 10
3.6630855645
 20
1.8840484603
 30
0.0
 10
3.66318479
 20
1.8841219503
 30
0.0
 10
3.6633054539
 20
1.8841953776
 30
0.0
 10
3.6634476438
 20
1.8842688208
 30
0.0
 10
3.663611417
 20
1.8843423034
 30
0.0
 10
3.6637968046
 20
1.8844158386
 30
0.0
 10
3.6640857635
 20
1.8845185023
 30
0.0
 10
3.664502107
 20
1.8846450543
 30
0.0
 10
3.6650681211
 20
1.8847914149
 30
0.0
 10
3.665720437
 20
1.8849380411
 30
0.0
 10
3.66645899
 20
1.8850848867
 30
0.0
 10
3.667283708
 20
1.8852318726
 30
0.0
 10
3.6681944057
 20
1.8853789554
 30
0.0
 10
3.66919081
 20
1.8855261221
 30
0.0
 10
3.6702725877
 20
1.8856733612
 30
0.0
 10
3.6718838795
 20
1.8858767263
 30
0.0
 10
3.6741093188
 20
1.8861285504
 30
0.0
 10
3.6770321786
 20
1.8864219165
 30
0.0
 10
3.6802879375
 20
1.8867156203
 30
0.0
 10
3.6838730559
 20
1.8870095928
 30
0.0
 10
3.6877833868
 20
1.8873038035
 30
0.0
 10
3.6920143483
 20
1.8875981974
 30
0.0
 10
3.696561305
 20
1.8878927313
 30
0.0
 10
3.7014194208
 20
1.8881873642
 30
0.0
 10
3.7085025557
 20
1.8885915316
 30
0.0
 10
3.7180907797
 20
1.8890929486
 30
0.0
 10
3.7304476223
 20
1.8896800433
 30
0.0
 10
3.7438971473
 20
1.8902675903
 30
0.0
 10
3.7583797381
 20
1.890855672
 30
0.0
 10
3.7738305032
 20
1.8914440083
 30
0.0
 10
3.7901806387
 20
1.8920326216
 30
0.0
 10
3.8073571096
 20
1.8926214505
 30
0.0
 10
3.8252830671
 20
1.8932103849
 30
0.0
 10
3.8438786443
 20
1.8937994902
 30
0.0
 10
3.8697692604
 20
1.8945946685
 30
0.0
 10
3.9031643276
 20
1.8955812068
 30
0.0
 10
3.9440556947
 20
1.896751925
 30
0.0
 10
3.9855067045
 20
1.8979229207
 30
0.0
 10
4.0267767625
 20
1.8990938188
 30
0.0
 10
4.067132075
 20
1.900264269
 30
0.0
 10
4.0998625798
 20
1.9012527903
 30
0.0
 10
4.1250497049
 20
1.9020499673
 30
0.0
 10
4.1372521947
 20
1.9024504382
 30
0.0
 10
4.1432398414
 20
1.9026512923
 30
0.0
 11
3.6629082343
 21
1.8837479732
 31
0.0
 11
3.6629191514
 21
1.8838217383
 31
0.0
 11
3.6629518927
 21
1.883895517
 31
0.0
 11
3.6630064434
 21
1.8839693083
 31
0.0
 11
3.6630827885
 21
1.8840431113
 31
0.0
 11
3.6631809133
 21
1.884116925
 31
0.0
 11
3.6633008027
 21
1.8841907486
 31
0.0
 11
3.663442442
 21
1.884264581
 31
0.0
 11
3.6636058162
 21
1.8843384213
 31
0.0
 11
3.6637909105
 21
1.8844122686
 31
0.0
 11
3.66399771
 21
1.8844861219
 31
0.0
 11
3.664476365
 21
1.8846338428
 31
0.0
 11
3.6650416621
 21
1.8847815766
 31
0.0
 11
3.6656934823
 21
1.8849293156
 31
0.0
 11
3.6664317066
 21
1.8850770524
 31
0.0
 11
3.6672562153
 21
1.8852247794
 31
0.0
 11
3.6681668188
 21
1.885372492
 31
0.0
 11
3.6691631827
 21
1.8855201915
 31
0.0
 11
3.6702449548
 21
1.8856678799
 31
0.0
 11
3.6714117831
 21
1.8858155595
 31
0.0
 11
3.6739991996
 21
1.8861108999
 31
0.0
 11
3.6769226153
 21
1.8864062295
 31
0.0
 11
3.6801792096
 21
1.8867015645
 31
0.0
 11
3.6837656158
 21
1.8869969151
 31
0.0
 11
3.6876773321
 21
1.8872922779
 31
0.0
 11
3.6919097156
 21
1.887587648
 31
0.0
 11
3.6964581231
 21
1.8878830203
 31
0.0
 11
3.7013179037
 21
1.8881783898
 31
0.0
 11
3.7064838201
 21
1.8884737541
 31
0.0
 11
3.7177091189
 21
1.889064473
 31
0.0
 11
3.7300836564
 21
1.8896551914
 31
0.0
 11
3.7435534934
 21
1.890245919
 31
0.0
 11
3.7580570311
 21
1.8908366542
 31
0.0
 11
3.7735309347
 21
1.891427394
 31
0.0
 11
3.78990539
 21
1.8920181354
 31
0.0
 11
3.8071071188
 21
1.8926088754
 31
0.0
 11
3.8250600865
 21
1.8931996109
 31
0.0
 11
3.843683039
 21
1.8937903389
 31
0.0
 11
3.862893664
 21
1.8943810575
 31
0.0
 11
3.9027325892
 21
1.8955624972
 31
0.0
 11
3.9438683594
 21
1.896743975
 31
0.0
 11
3.9855668139
 21
1.897925465
 31
0.0
 11
4.0270847236
 21
1.8991069786
 31
0.0
 11
4.0676776203
 21
1.9002883649
 31
0.0
 11
4.1066317376
 21
1.9014699493
 31
0.0
 11
4.1252764992
 21
1.9020608442
 31
0.0
 11
4.1432398414
 21
1.9026512923
 31
0.0
  0
SPLINE
  5
2B0
100
AcDbEntity
  8
0
100
AcDbSpline
 62
6
  6
CONTINUOUS
 70
0
 71
3
 72
83
 73
79
 74
77
 42
0.0000001
 43
0.0000001
 44
0.0000000001
 12
0.0
 22
-0.6257637489
 32
0.0
 13
-0.5420023202
 23
-0.3127519055
 33
0.0
 40
0.0
 40
0.0
 40
0.0
 40
0.0
 40
0.0000857397
 40
0.0001752942
 40
0.0002720118
 40
0.0003785626
 40
0.0004969489
 40
0.0006286304
 40
0.0009356581
 40
0.0013054022
 40
0.0017409246
 40
0.0022440547
 40
0.0028159448
 40
0.0034573508
 40
0.0041687841
 40
0.0049505972
 40
0.0058030365
 40
0.0077203841
 40
0.0099216011
 40
0.012406149
 40
0.0151728503
 40
0.0182203413
 40
0.0215471378
 40
0.0251516731
 40
0.0290323226
 40
0.0331873924
 40
0.037614583
 40
0.0472737988
 40
0.0579867028
 40
0.0697297824
 40
0.082477349
 40
0.0961983091
 40
0.1108606572
 40
0.1264321048
 40
0.1428763224
 40
0.1601536279
 40
0.1782242182
 40
0.2165781421
 40
0.2575773258
 40
0.3008418102
 40
0.3459660516
 40
0.3925307967
 40
0.4401016002
 40
0.4882357742
 40
0.5364843732
 40
0.5843975727
 40
0.6315274378
 40
0.6774359895
 40
0.7216947867
 40
0.7638920085
 40
0.8036335206
 40
0.8405483517
 40
0.8578371331
 40
0.8742934009
 40
0.8898774478
 40
0.9045530701
 40
0.9182878819
 40
0.931049732
 40
0.9428074851
 40
0.9535354952
 40
0.9632101406
 40
0.9718080155
 40
0.9756965515
 40
0.9793090173
 40
0.9826437846
 40
0.9856992824
 40
0.9884740214
 40
0.9909666314
 40
0.9931759259
 40
0.9951013412
 40
0.9959578025
 40
0.9967436258
 40
0.9974590521
 40
0.998104427
 40
0.9986802508
 40
0.9991872624
 40
0.9996265855
 40
1.0
 40
1.0
 40
1.0
 40
1.0
 10
4.2879082343
 20
1.9184761043
 30
0.0
 10
4.2879082343
 20
1.91845822
 30
0.0
 10
4.2879042169
 20
1.9184215463
 30
0.0
 10
4.2878864132
 20
1.9183673116
 30
0.0
 10
4.2878570549
 20
1.9183134258
 30
0.0
 10
4.2878163336
 20
1.9182598479
 30
0.0
 10
4.2877643344
 20
1.9182064475
 30
0.0
 10
4.2876753229
 20
1.9181315163
 30
0.0
 10
4.2875334506
 20
1.918039318
 30
0.0
 10
4.2873266238
 20
1.9179336823
 30
0.0
 10
4.2870748386
 20
1.9178278707
 30
0.0
 10
4.2867780023
 20
1.9177218789
 30
0.0
 10
4.2864359873
 20
1.9176157286
 30
0.0
 10
4.286048775
 20
1.9175094506
 30
0.0
 10
4.2856163621
 20
1.9174030734
 30
0.0
 10
4.28513877
 20
1.9172966111
 30
0.0
 10
4.2844128272
 20
1.9171487193
 30
0.0
 10
4.2833920133
 20
1.9169660242
 30
0.0
 10
4.2820310123
 20
1.9167540622
 30
0.0
 10
4.2804910115
 20
1.9165418036
 30
0.0
 10
4.2787730456
 20
1.9163292878
 30
0.0
 10
4.2768782125
 20
1.9161165929
 30
0.0
 10
4.2748076357
 20
1.9159037558
 30
0.0
 10
4.2725624436
 20
1.9156908059
 30
0.0
 10
4.2701437762
 20
1.9154777628
 30
0.0
 10
4.2675529014
 20
1.9152646466
 30
0.0
 10
4.2637592202
 20
1.9149718341
 30
0.0
 10
4.2585990968
 20
1.9146085403
 30
0.0
 10
4.2519137035
 20
1.9141836714
 30
0.0
 10
4.2445829605
 20
1.9137584264
 30
0.0
 10
4.2366238237
 20
1.913332944
 30
0.0
 10
4.2280549736
 20
1.9129071948
 30
0.0
 10
4.2188964303
 20
1.9124812282
 30
0.0
 10
4.2091692785
 20
1.9120551381
 30
0.0
 10
4.1988961899
 20
1.9116289344
 30
0.0
 10
4.1881013908
 20
1.9112025882
 30
0.0
 10
4.1727390261
 20
1.9106224368
 30
0.0
 10
4.1524303685
 20
1.9099019799
 30
0.0
 10
4.126867907
 20
1.9090527912
 30
0.0
 10
4.0998925187
 20
1.9082031743
 30
0.0
 10
4.071755688
 20
1.9073531127
 30
0.0
 10
4.0427202231
 20
1.9065028291
 30
0.0
 10
4.0130566665
 20
1.905652351
 30
0.0
 10
3.9830417389
 20
1.9048017904
 30
0.0
 10
3.9529553643
 20
1.903951193
 30
0.0
 10
3.9230785581
 20
1.9031006685
 30
0.0
 10
3.893690054
 20
1.9022502539
 30
0.0
 10
3.8650641321
 20
1.9014000862
 30
0.0
 10
3.8374675585
 20
1.9005502059
 30
0.0
 10
3.8111579728
 20
1.899700809
 30
0.0
 10
3.7863810714
 20
1.8988520096
 30
0.0
 10
3.7667985033
 20
1.898130603
 30
0.0
 10
3.7520711632
 20
1.8975493717
 30
0.0
 10
3.7417905329
 20
1.8971231639
 30
0.0
 10
3.7320554632
 20
1.8966970736
 30
0.0
 10
3.7228886248
 20
1.8962711054
 30
0.0
 10
3.714311127
 20
1.8958453518
 30
0.0
 10
3.706343048
 20
1.8954198639
 30
0.0
 10
3.6990031017
 20
1.8949945955
 30
0.0
 10
3.6923082528
 20
1.8945697447
 30
0.0
 10
3.6862739377
 20
1.8941454685
 30
0.0
 10
3.6816656724
 20
1.8937814816
 30
0.0
 10
3.6783205171
 20
1.8934874651
 30
0.0
 10
3.676070342
 20
1.8932745027
 30
0.0
 10
3.6739947527
 20
1.8930616612
 30
0.0
 10
3.67209488
 20
1.8928489589
 30
0.0
 10
3.6703718489
 20
1.8926364351
 30
0.0
 10
3.6688267596
 20
1.892424166
 30
0.0
 10
3.6674606513
 20
1.8922121918
 30
0.0
 10
3.6664355642
 20
1.892029507
 30
0.0
 10
3.6657061906
 20
1.8918816367
 30
0.0
 10
3.6652260303
 20
1.89177517
 30
0.0
 10
3.6647910488
 20
1.8916687874
 30
0.0
 10
3.6644012651
 20
1.8915625023
 30
0.0
 10
3.6640566873
 20
1.8914563447
 30
0.0
 10
3.6637572679
 20
1.8913503396
 30
0.0
 10
3.6635029793
 20
1.8912445271
 30
0.0
 10
3.6633513698
 20
1.8911680647
 30
0.0
 10
3.6632839059
 20
1.891129136
 30
0.0
 11
4.2879082343
 21
1.9184761043
 31
0.0
 11
4.2879025206
 21
1.9184227566
 31
0.0
 11
4.2878853834
 21
1.9183694012
 31
0.0
 11
4.2878568286
 21
1.9183160384
 31
0.0
 11
4.2878168623
 21
1.9182626687
 31
0.0
 11
4.2877654902
 21
1.9182092923
 31
0.0
 11
4.2877027185
 21
1.9181559097
 31
0.0
 11
4.2875429995
 21
1.9180491268
 31
0.0
 11
4.2873377529
 21
1.9179423231
 31
0.0
 11
4.2870870261
 21
1.9178355011
 31
0.0
 11
4.2867908667
 21
1.9177286638
 31
0.0
 11
4.2864493222
 21
1.917621814
 31
0.0
 11
4.28606244
 21
1.9175149545
 31
0.0
 11
4.2856302677
 21
1.917408088
 31
0.0
 11
4.2851528527
 21
1.9173012175
 31
0.0
 11
4.2846302427
 21
1.9171943456
 31
0.0
 11
4.2834496273
 21
1.9169806093
 31
0.0
 11
4.282088865
 21
1.9167668991
 31
0.0
 11
4.2805488791
 21
1.9165532176
 31
0.0
 11
4.278830812
 21
1.916339559
 31
0.0
 11
4.2769358075
 21
1.9161259175
 31
0.0
 11
4.2748650091
 21
1.9159122874
 31
0.0
 11
4.2726195604
 21
1.9156986629
 31
0.0
 11
4.2702006052
 21
1.9154850384
 31
0.0
 11
4.2676093042
 21
1.9152714082
 31
0.0
 11
4.2648471785
 21
1.9150577704
 31
0.0
 11
4.2588179134
 21
1.9146304787
 31
0.0
 11
4.2521277986
 21
1.9142031771
 31
0.0
 11
4.2447918389
 21
1.9137758796
 31
0.0
 11
4.2368263258
 21
1.9133485948
 31
0.0
 11
4.2282508844
 21
1.9129213173
 31
0.0
 11
4.2190856728
 21
1.9124940398
 31
0.0
 11
4.2093509983
 21
1.912066755
 31
0.0
 11
4.1990696784
 21
1.9116394612
 31
0.0
 11
4.1882666143
 21
1.9112121609
 31
0.0
 11
4.1769667704
 21
1.9107848569
 31
0.0
 11
4.1529814954
 21
1.9099302469
 31
0.0
 11
4.1273399301
 21
1.9090756425
 31
0.0
 11
4.1002800754
 21
1.9082210513
 31
0.0
 11
4.0720558955
 21
1.9073664766
 31
0.0
 11
4.0429298997
 21
1.9065119157
 31
0.0
 11
4.0131740839
 21
1.9056573587
 31
0.0
 11
3.9830655877
 21
1.9048027974
 31
0.0
 11
3.9528854599
 21
1.903948228
 31
0.0
 11
3.9229152977
 21
1.9030936576
 31
0.0
 11
3.8934355201
 21
1.9022390943
 31
0.0
 11
3.8647203259
 21
1.9013845277
 31
0.0
 11
3.8370379628
 21
1.9005299467
 31
0.0
 11
3.8106463038
 21
1.8996753519
 31
0.0
 11
3.7857921946
 21
1.898820749
 31
0.0
 11
3.7627080452
 21
1.8979661488
 31
0.0
 11
3.751897794
 21
1.8975388537
 31
0.0
 11
3.7416089269
 21
1.8971115642
 31
0.0
 11
3.7318663605
 21
1.8966842819
 31
0.0
 11
3.7226928334
 21
1.8962570044
 31
0.0
 11
3.7141087135
 21
1.8958297245
 31
0.0
 11
3.7061342497
 21
1.8954024349
 31
0.0
 11
3.6987890928
 21
1.8949751307
 31
0.0
 11
3.6920895063
 21
1.8945478216
 31
0.0
 11
3.6860505623
 21
1.8941205224
 31
0.0
 11
3.6806873169
 21
1.8936932477
 31
0.0
 11
3.6782634076
 21
1.8934796202
 31
0.0
 11
3.6760129743
 21
1.8932659931
 31
0.0
 11
3.6739371619
 21
1.8930523605
 31
0.0
 11
3.6720371155
 21
1.8928387169
 31
0.0
 11
3.6703139804
 21
1.8926250564
 31
0.0
 11
3.6687689015
 21
1.8924113734
 31
0.0
 11
3.6674030231
 21
1.892197662
 31
0.0
 11
3.6662172777
 21
1.8919839245
 31
0.0
 11
3.6656920991
 21
1.891877052
 31
0.0
 11
3.6652121132
 21
1.8917701807
 31
0.0
 11
3.6647773675
 21
1.8916633135
 31
0.0
 11
3.6643879096
 21
1.8915564531
 31
0.0
 11
3.664043787
 21
1.8914496023
 31
0.0
 11
3.6637450472
 21
1.891342764
 31
0.0
 11
3.6634917376
 21
1.891235941
 31
0.0
 11
3.6632839059
 21
1.891129136
 31
0.0
  0
SPLINE
  5
2B1
100
AcDbEntity
  8
0
100
AcDbSpline
 62
6
  6
CONTINUOUS
 70
0
 71
3
 72
43
 73
39
 74
37
 42
0.0000001
 43
0.0000001
 44
0.0000000001
 12
0.0
 22
-0.1452739404
 32
0.0
 13
-0.1451922746
 23
-0.0048704374
 33
0.0
 40
0.0
 40
0.0
 40
0.0
 40
0.0
 40
0.0004814389
 40
0.0009981503
 40
0.0015788881
 40
0.0022441045
 40
0.0030074476
 40
0.0038779233
 40
0.0048615653
 40
0.0059625175
 40
0.0071837028
 40
0.0085272343
 40
0.0115869221
 40
0.0151504458
 40
0.019222822
 40
0.0238071628
 40
0.0289054328
 40
0.0345188525
 40
0.0406476014
 40
0.0472907799
 40
0.0544471923
 40
0.0702939682
 40
0.0881756842
 40
0.1080786234
 40
0.1299882126
 40
0.1538855609
 40
0.1797453725
 40
0.2075415538
 40
0.2372478254
 40
0.2688377705
 40
0.3375495297
 40
0.4133951734
 40
0.4960767816
 40
0.5852804421
 40
0.6806670121
 40
0.7818871758
 40
0.8884991753
 40
1.0
 40
1.0
 40
1.0
 40
1.0
 10
4.2879082343
 20
1.8629161052
 30
0.0
 10
4.2879082343
 20
1.8628927917
 30
0.0
 10
4.2879012214
 20
1.8628442357
 30
0.0
 10
4.2878706521
 20
1.8627734067
 30
0.0
 10
4.2878208218
 20
1.8627034999
 30
0.0
 10
4.2877521102
 20
1.8626341724
 30
0.0
 10
4.2876645473
 20
1.8625650848
 30
0.0
 10
4.2875580652
 20
1.8624960764
 30
0.0
 10
4.2874325948
 20
1.8624270694
 30
0.0
 10
4.2872880868
 20
1.8623580365
 30
0.0
 10
4.2871245134
 20
1.8622889617
 30
0.0
 10
4.286869718
 20
1.8621925903
 30
0.0
 10
4.2865024697
 20
1.8620737436
 30
0.0
 10
4.2860030091
 20
1.861936258
 30
0.0
 10
4.2854274048
 20
1.86179853
 30
0.0
 10
4.2847757024
 20
1.8616605996
 30
0.0
 10
4.284047934
 20
1.8615225295
 30
0.0
 10
4.2832441979
 20
1.8613843638
 30
0.0
 10
4.2823646647
 20
1.8612461324
 30
0.0
 10
4.2814095829
 20
1.8611078333
 30
0.0
 10
4.279986712
 20
1.8609168149
 30
0.0
 10
4.2780209625
 20
1.8606802808
 30
0.0
 10
4.2754384818
 20
1.8604047453
 30
0.0
 10
4.2725609558
 20
1.8601288839
 30
0.0
 10
4.2693909489
 20
1.8598527656
 30
0.0
 10
4.2659315032
 20
1.8595764655
 30
0.0
 10
4.262186182
 20
1.8592999863
 30
0.0
 10
4.2581588672
 20
1.8590233727
 30
0.0
 10
4.2538534715
 20
1.8587466419
 30
0.0
 10
4.2475693356
 20
1.8583668369
 30
0.0
 10
4.2390524238
 20
1.8578957649
 30
0.0
 10
4.2280622452
 20
1.8573443467
 30
0.0
 10
4.2160786369
 20
1.8567924506
 30
0.0
 10
4.2031478615
 20
1.8562401843
 30
0.0
 10
4.1893186206
 20
1.8556874699
 30
0.0
 10
4.1746457653
 20
1.8551345215
 30
0.0
 10
4.1591920634
 20
1.8545814787
 30
0.0
 10
4.1486361941
 20
1.8542204663
 30
0.0
 10
4.1432398414
 20
1.8540394471
 30
0.0
 11
4.2879082343
 21
1.8629161052
 31
0.0
 11
4.2878986048
 21
1.8628468307
 31
0.0
 11
4.2878697244
 21
1.8627775441
 31
0.0
 11
4.2878216057
 21
1.8627082461
 31
0.0
 11
4.2877542608
 21
1.8626389374
 31
0.0
 11
4.2876677023
 21
1.8625696188
 31
0.0
 11
4.2875619424
 21
1.8625002911
 31
0.0
 11
4.2874369935
 21
1.8624309551
 31
0.0
 11
4.287292868
 21
1.8623616114
 31
0.0
 11
4.2871295783
 21
1.862292261
 31
0.0
 11
4.2869471366
 21
1.8622229045
 31
0.0
 11
4.2865248471
 21
1.8620841763
 31
0.0
 11
4.2860260984
 21
1.8619454332
 31
0.0
 11
4.2854509893
 21
1.861806681
 31
0.0
 11
4.2847996189
 21
1.8616679261
 31
0.0
 11
4.284072086
 21
1.8615291745
 31
0.0
 11
4.2832684915
 21
1.8613904322
 31
0.0
 11
4.2823890186
 21
1.8612517022
 31
0.0
 11
4.2814339595
 21
1.8611129832
 31
0.0
 11
4.2804036142
 21
1.8609742736
 31
0.0
 11
4.2781182644
 21
1.8606968767
 31
0.0
 11
4.2755353681
 21
1.860419499
 31
0.0
 11
4.2726573246
 21
1.8601421282
 31
0.0
 11
4.2694865414
 21
1.859864752
 31
0.0
 11
4.2660259789
 21
1.8595873636
 31
0.0
 11
4.2622794777
 21
1.8593099655
 31
0.0
 11
4.2582509567
 21
1.8590325606
 31
0.0
 11
4.2539443349
 21
1.8587551521
 31
0.0
 11
4.2493635312
 21
1.8584777428
 31
0.0
 11
4.2393969336
 21
1.8579229333
 31
0.0
 11
4.2283925138
 21
1.8573681487
 31
0.0
 11
4.216393848
 21
1.8568134035
 31
0.0
 11
4.2034467593
 21
1.8562586701
 31
0.0
 11
4.1896006878
 21
1.8557038535
 31
0.0
 11
4.1749065124
 21
1.8551488759
 31
0.0
 11
4.159428512
 21
1.8545939427
 31
0.0
 11
4.1432398414
 21
1.8540394471
 31
0.0
  0
SPLINE
  5
2B2
100
AcDbEntity
  8
0
100
AcDbSpline
 62
6
  6
CONTINUOUS
 70
0
 71
3
 72
50
 73
46
 74
44
 42
0.0000001
 43
0.0000001
 44
0.0000000001
 12
0.0
 22
0.4133950763
 32
0.0
 13
0.413210748
 23
0.0123436972
 33
0.0
 40
0.0
 40
0.0
 40
0.0
 40
0.0
 40
0.0001596896
 40
0.0003298949
 40
0.0005193479
 40
0.0007344339
 40
0.0009795294
 40
0.0012575856
 40
0.0015706124
 40
0.0019200072
 40
0.0027314494
 40
0.003697333
 40
0.0048205767
 40
0.006102943
 40
0.0075455383
 40
0.0091490721
 40
0.0109140003
 40
0.0128406089
 40
0.0171786394
 40
0.0221607583
 40
0.0277832788
 40
0.034042062
 40
0.0409326878
 40
0.0484505511
 40
0.0565901005
 40
0.0653435673
 40
0.0747027769
 40
0.0846595056
 40
0.1063324199
 40
0.1302907311
 40
0.156447233
 40
0.1847117173
 40
0.214988189
 40
0.2471673177
 40
0.281137763
 40
0.3167824128
 40
0.3539730739
 40
0.3925802066
 40
0.4734989452
 40
0.5584015428
 40
0.6460983354
 40
0.7353610315
 40
0.8249340474
 40
0.9135610282
 40
1.0
 40
1.0
 40
1.0
 40
1.0
 10
3.6629082343
 20
1.828187963
 30
0.0
 10
3.6629082343
 20
1.828209968
 30
0.0
 10
3.6629144411
 20
1.8282556179
 30
0.0
 10
3.6629416228
 20
1.8283224619
 30
0.0
 10
3.6629860666
 20
1.8283885475
 30
0.0
 10
3.6630474296
 20
1.8284541171
 30
0.0
 10
3.6631256556
 20
1.8285194527
 30
0.0
 10
3.6632207873
 20
1.8285846976
 30
0.0
 10
3.6633328743
 20
1.8286499354
 30
0.0
 10
3.6635142315
 20
1.8287415603
 30
0.0
 10
3.6637851831
 20
1.8288541604
 30
0.0
 10
3.6641634383
 20
1.828983788
 30
0.0
 10
3.6646096319
 20
1.8291137061
 30
0.0
 10
3.6651237662
 20
1.8292438763
 30
0.0
 10
3.6657058712
 20
1.8293742255
 30
0.0
 10
3.6663559035
 20
1.8295047088
 30
0.0
 10
3.6670738081
 20
1.8296352999
 30
0.0
 10
3.6681653215
 20
1.8298167667
 30
0.0
 10
3.6696989752
 20
1.8300407859
 30
0.0
 10
3.6717416542
 20
1.8303007318
 30
0.0
 10
3.6740508414
 20
1.8305610788
 30
0.0
 10
3.6766244568
 20
1.830821762
 30
0.0
 10
3.6794604283
 20
1.8310826858
 30
0.0
 10
3.6825565452
 20
1.8313437932
 30
0.0
 10
3.6859101845
 20
1.8316050278
 30
0.0
 10
3.689518259
 20
1.8318663946
 30
0.0
 10
3.6933773408
 20
1.8321278745
 30
0.0
 10
3.6990141304
 20
1.8324868603
 30
0.0
 10
3.7066611576
 20
1.83293224
 30
0.0
 10
3.7165396935
 20
1.8334532647
 30
0.0
 10
3.7273276603
 20
1.8339748278
 30
0.0
 10
3.7389871737
 20
1.834496785
 30
0.0
 10
3.7514773567
 20
1.8350189667
 30
0.0
 10
3.7647544425
 20
1.8355414415
 30
0.0
 10
3.7787717871
 20
1.8360641021
 30
0.0
 10
3.7934801643
 20
1.8365868617
 30
0.0
 10
3.8088278487
 20
1.8371097917
 30
0.0
 10
3.8304115097
 20
1.8378182608
 30
0.0
 10
3.8585677033
 20
1.8386976956
 30
0.0
 10
3.8934865982
 20
1.8397380315
 30
0.0
 10
3.9295557533
 20
1.8407788463
 30
0.0
 10
3.9662687374
 20
1.8418199143
 30
0.0
 10
4.0031099495
 20
1.8428610393
 30
0.0
 10
4.0395619055
 20
1.8439019997
 30
0.0
 10
4.0636753842
 20
1.8446077912
 30
0.0
 10
4.0755812216
 20
1.84496345
 30
0.0
 11
3.6629082343
 21
1.828187963
 31
0.0
 11
3.6629168346
 21
1.8282534153
 31
0.0
 11
3.6629426283
 21
1.828318879
 31
0.0
 11
3.6629856043
 21
1.8283843536
 31
0.0
 11
3.6630457516
 21
1.8284498384
 31
0.0
 11
3.6631230594
 21
1.8285153328
 31
0.0
 11
3.6632175165
 21
1.8285808361
 31
0.0
 11
3.6633291121
 21
1.8286463476
 31
0.0
 11
3.6634578351
 21
1.8287118667
 31
0.0
 11
3.6637666195
 21
1.8288429252
 31
0.0
 11
3.6641437818
 21
1.8289740064
 31
0.0
 11
3.6645892343
 21
1.8291051051
 31
0.0
 11
3.6651028891
 21
1.8292362162
 31
0.0
 11
3.6656846584
 21
1.8293673344
 31
0.0
 11
3.6663344542
 21
1.8294984546
 31
0.0
 11
3.6670521887
 21
1.8296295717
 31
0.0
 11
3.6678377738
 21
1.8297606804
 31
0.0
 11
3.6696118251
 21
1.8300228637
 31
0.0
 11
3.6716546574
 21
1.8302850091
 31
0.0
 11
3.6739641526
 21
1.8305471272
 31
0.0
 11
3.676538193
 21
1.8308092285
 31
0.0
 11
3.6793746604
 21
1.8310713236
 31
0.0
 11
3.6824714363
 21
1.831333423
 31
0.0
 11
3.6858260617
 21
1.8315955339
 31
0.0
 11
3.6894351958
 21
1.8318576543
 31
0.0
 11
3.6932953572
 21
1.8321197809
 31
0.0
 11
3.6974030646
 21
1.8323819103
 31
0.0
 11
3.7063471894
 21
1.8329061644
 31
0.0
 11
3.7162375537
 21
1.8334303982
 31
0.0
 11
3.727037808
 21
1.8339546186
 31
0.0
 11
3.7387104413
 21
1.8344788367
 31
0.0
 11
3.7512156025
 21
1.8350030606
 31
0.0
 11
3.7645079625
 21
1.835527291
 31
0.0
 11
3.778541389
 21
1.8360515276
 31
0.0
 11
3.7932673832
 21
1.8365757691
 31
0.0
 11
3.8086328789
 21
1.8371000124
 31
0.0
 11
3.8245842652
 21
1.8376242542
 31
0.0
 11
3.858019238
 21
1.8386727261
 31
0.0
 11
3.8931018907
 21
1.8397211807
 31
0.0
 11
3.929340149
 21
1.8407696367
 31
0.0
 11
3.9662260099
 21
1.8418181065
 31
0.0
 11
4.0032402074
 21
1.8428665639
 31
0.0
 11
4.0398631605
 21
1.8439150061
 31
0.0
 11
4.0755812216
 21
1.84496345
 31
0.0
  0
SPLINE
  5
2B3
100
AcDbEntity
  8
0
100
AcDbSpline
 62
6
  6
CONTINUOUS
 70
0
 71
3
 72
40
 73
36
 74
34
 42
0.0000001
 43
0.0000001
 44
0.0000000001
 12
0.212273923
 22
0.0063411831
 32
0.0
 13
0.1839417319
 23
0.1061407943
 33
0.0
 40
0.0
 40
0.0
 40
0.0
 40
0.0
 40
0.1027763308
 40
0.2023520702
 40
0.2981700244
 40
0.3896945229
 40
0.4764196337
 40
0.5578537888
 40
0.6335524905
 40
0.703086899
 40
0.735421538
 40
0.7660761869
 40
0.7950073485
 40
0.8221721945
 40
0.8475345537
 40
0.8710624229
 40
0.8927240168
 40
0.9124877738
 40
0.9303247832
 40
0.9462149712
 40
0.953424565
 40
0.960141008
 40
0.9663623267
 40
0.9720866866
 40
0.9773124457
 40
0.98203833
 40
0.9862644278
 40
0.9899920098
 40
0.9932233369
 40
0.9946541463
 40
0.9959626011
 40
0.9971497094
 40
0.9982168602
 40
0.9991660115
 40
1.0
 40
1.0
 40
1.0
 40
1.0
 10
4.0755812216
 20
1.84496345
 30
0.0
 10
4.0828534665
 20
1.8451806912
 30
0.0
 10
4.0971713313
 20
1.8456137259
 30
0.0
 10
4.1182683808
 20
1.8462721802
 30
0.0
 10
4.1385685229
 20
1.8469304649
 30
0.0
 10
4.1579584836
 20
1.8475885638
 30
0.0
 10
4.17632962
 20
1.848246291
 30
0.0
 10
4.1935797088
 20
1.8489037261
 30
0.0
 10
4.2096119551
 20
1.8495605599
 30
0.0
 10
4.222169476
 20
1.8501200608
 30
0.0
 10
4.2315399495
 20
1.8505706374
 30
0.0
 10
4.2380386111
 20
1.8509002416
 30
0.0
 10
4.2441708148
 20
1.8512297368
 30
0.0
 10
4.2499278112
 20
1.8515591586
 30
0.0
 10
4.2553016516
 20
1.8518884629
 30
0.0
 10
4.260285149
 20
1.8522175779
 30
0.0
 10
4.2648714096
 20
1.8525464505
 30
0.0
 10
4.269053721
 20
1.852874997
 30
0.0
 10
4.2728261176
 20
1.8532032301
 30
0.0
 10
4.2757103966
 20
1.8534846655
 30
0.0
 10
4.2778088364
 20
1.8537117847
 30
0.0
 10
4.2792255331
 20
1.8538764944
 30
0.0
 10
4.280536339
 20
1.8540411316
 30
0.0
 10
4.2817407355
 20
1.8542056878
 30
0.0
 10
4.2828382184
 20
1.8543701331
 30
0.0
 10
4.2838283599
 20
1.8545344579
 30
0.0
 10
4.2847108817
 20
1.8546985899
 30
0.0
 10
4.2854856082
 20
1.8548624664
 30
0.0
 10
4.2860626137
 20
1.8550038217
 30
0.0
 10
4.2864695108
 20
1.8551182994
 30
0.0
 10
4.2867350365
 20
1.8552005888
 30
0.0
 10
4.2869735108
 20
1.8552828138
 30
0.0
 10
4.28718495
 20
1.8553649748
 30
0.0
 10
4.2873693617
 20
1.8554470579
 30
0.0
 10
4.2874814302
 20
1.8555054277
 30
0.0
 10
4.2875325653
 20
1.8555349345
 30
0.0
 11
4.0755812216
 21
1.84496345
 31
0.0
 11
4.0973976868
 21
1.8456241411
 31
0.0
 11
4.1185341248
 21
1.8462848432
 31
0.0
 11
4.1388721218
 21
1.8469455543
 31
0.0
 11
4.1582978198
 21
1.8476062714
 31
0.0
 11
4.1767036564
 21
1.8482669903
 31
0.0
 11
4.1939850893
 21
1.8489277059
 31
0.0
 11
4.210047535
 21
1.84958841
 31
0.0
 11
4.2247996739
 21
1.8502490951
 31
0.0
 11
4.2316585862
 21
1.8505794331
 31
0.0
 11
4.238160285
 21
1.8509097718
 31
0.0
 11
4.2442954687
 21
1.8512401142
 31
0.0
 11
4.2500549633
 21
1.8515704625
 31
0.0
 11
4.2554309921
 21
1.8519008142
 31
0.0
 11
4.2604166406
 21
1.8522311635
 31
0.0
 11
4.2650050072
 21
1.8525615047
 31
0.0
 11
4.26918919
 21
1.8528918318
 31
0.0
 11
4.2729627821
 21
1.8532221441
 31
0.0
 11
4.2763211543
 21
1.8535524588
 31
0.0
 11
4.2778433111
 21
1.8537176237
 31
0.0
 11
4.279260077
 21
1.8538827972
 31
0.0
 11
4.280570923
 21
1.8540479819
 31
0.0
 11
4.2817753207
 21
1.8542131805
 31
0.0
 11
4.2828727411
 21
1.8543783957
 31
0.0
 11
4.2838626755
 21
1.8545436293
 31
0.0
 11
4.2847448222
 21
1.8547088756
 31
0.0
 11
4.285519004
 21
1.8548741244
 31
0.0
 11
4.2861850449
 21
1.855039365
 31
0.0
 11
4.2864774576
 21
1.8551219791
 31
0.0
 11
4.2867427693
 21
1.8552045872
 31
0.0
 11
4.2869809578
 21
1.8552871881
 31
0.0
 11
4.2871920013
 21
1.8553697805
 31
0.0
 11
4.2873758778
 21
1.855452363
 31
0.0
 11
4.2875325653
 21
1.8555349345
 31
0.0
  0
SPLINE
  5
2B4
100
AcDbEntity
  8
0
100
AcDbSpline
 62
6
  6
CONTINUOUS
 70
0
 71
3
 72
82
 73
78
 74
76
 42
0.0000001
 43
0.0000001
 44
0.0000000001
 12
-0.4897542794
 22
-0.2830766738
 32
0.0
 13
0.0002447919
 23
-0.5656779981
 33
0.0
 40
0.0
 40
0.0
 40
0.0
 40
0.0
 40
0.0004085704
 40
0.0008826743
 40
0.0014239895
 40
0.0020335975
 40
0.0027122156
 40
0.0034603288
 40
0.0042782672
 40
0.0051662547
 40
0.0071528684
 40
0.0094208388
 40
0.0119702474
 40
0.0148006718
 40
0.0179106896
 40
0.0212985396
 40
0.0249623682
 40
0.0289002559
 40
0.0375902733
 40
0.0473516889
 40
0.0581613899
 40
0.069993555
 40
0.0828222026
 40
0.0966192262
 40
0.1113510477
 40
0.1269831453
 40
0.1434808425
 40
0.1608061599
 40
0.1977728092
 40
0.2375427703
 40
0.2797442994
 40
0.3239879505
 40
0.3698606822
 40
0.4169379298
 40
0.4647811049
 40
0.512946477
 40
0.5609858177
 40
0.6084534193
 40
0.6549073181
 40
0.6999172042
 40
0.7430631756
 40
0.783946804
 40
0.8221858291
 40
0.84020318
 40
0.8574283827
 40
0.8738210836
 40
0.8893449422
 40
0.903963981
 40
0.9176426591
 40
0.9303501487
 40
0.9420587287
 40
0.9527408346
 40
0.9623704877
 40
0.9667843789
 40
0.9709279776
 40
0.9747990726
 40
0.9783954913
 40
0.9817151131
 40
0.9847559343
 40
0.9875167012
 40
0.9899967932
 40
0.9921958198
 40
0.9941137387
 40
0.994967457
 40
0.9957511819
 40
0.9964651579
 40
0.9971097574
 40
0.9976855426
 40
0.9981933697
 40
0.998634628
 40
0.9990115479
 40
0.9993277229
 40
0.9994649302
 40
0.9995895822
 40
0.9998072097
 40
0.9999053065
 40
1.0
 40
1.0
 40
1.0
 40
1.0
 10
4.257423841
 20
1.838127993
 30
0.0
 10
4.2573571413
 20
1.8380894408
 30
0.0
 10
4.2572087922
 20
1.8380134854
 30
0.0
 10
4.2569618643
 20
1.8379076952
 30
0.0
 10
4.2566742211
 20
1.8378017686
 30
0.0
 10
4.2563458699
 20
1.8376957317
 30
0.0
 10
4.2559768016
 20
1.8375895988
 30
0.0
 10
4.2555670492
 20
1.8374833905
 30
0.0
 10
4.2551166548
 20
1.8373771139
 30
0.0
 10
4.2544361274
 20
1.8372297738
 30
0.0
 10
4.2534835768
 20
1.8370475794
 30
0.0
 10
4.2522181278
 20
1.8368358788
 30
0.0
 10
4.2507916625
 20
1.836623892
 30
0.0
 10
4.2492049032
 20
1.8364116918
 30
0.0
 10
4.2474588007
 20
1.8361993108
 30
0.0
 10
4.2455545143
 20
1.835986788
 30
0.0
 10
4.2434932474
 20
1.8357741446
 30
0.0
 10
4.2404353078
 20
1.8354807736
 30
0.0
 10
4.236229166
 20
1.8351173873
 30
0.0
 10
4.2307279358
 20
1.8346937686
 30
0.0
 10
4.2246326866
 20
1.8342696383
 30
0.0
 10
4.2179578482
 20
1.8338450565
 30
0.0
 10
4.2107186969
 20
1.8334201814
 30
0.0
 10
4.2029319289
 20
1.8329951368
 30
0.0
 10
4.1946158225
 20
1.8325698775
 30
0.0
 10
4.1857898632
 20
1.8321444471
 30
0.0
 10
4.176474345
 20
1.8317189121
 30
0.0
 10
4.163138894
 20
1.8311388303
 30
0.0
 10
4.1454172284
 20
1.8304186661
 30
0.0
 10
4.1230063237
 20
1.8295713029
 30
0.0
 10
4.099222379
 20
1.8287232456
 30
0.0
 10
4.0742870219
 20
1.8278748005
 30
0.0
 10
4.0484318055
 20
1.8270259759
 30
0.0
 10
4.0218975168
 20
1.8261769786
 30
0.0
 10
3.994930718
 20
1.8253278196
 30
0.0
 10
3.9677824198
 20
1.824478632
 30
0.0
 10
3.940704974
 20
1.823629443
 30
0.0
 10
3.9139503982
 20
1.8227803747
 30
0.0
 10
3.8877673418
 20
1.8219314484
 30
0.0
 10
3.8623995974
 20
1.8210828432
 30
0.0
 10
3.8380827756
 20
1.8202345694
 30
0.0
 10
3.815043455
 20
1.8193869052
 30
0.0
 10
3.7967409005
 20
1.8186675498
 30
0.0
 10
3.7828973629
 20
1.8180884282
 30
0.0
 10
3.7731703528
 20
1.8176628187
 30
0.0
 10
3.7639139817
 20
1.817237282
 30
0.0
 10
3.7551495659
 20
1.8168118875
 30
0.0
 10
3.7468975317
 20
1.8163866773
 30
0.0
 10
3.7391772905
 20
1.8159616121
 30
0.0
 10
3.7320067203
 20
1.8155367622
 30
0.0
 10
3.7254022245
 20
1.8151122662
 30
0.0
 10
3.7193793597
 20
1.8146881899
 30
0.0
 10
3.7147311733
 20
1.8143254486
 30
0.0
 10
3.7113142871
 20
1.8140330958
 30
0.0
 10
3.7089804271
 20
1.8138203136
 30
0.0
 10
3.7068013825
 20
1.813607615
 30
0.0
 10
3.7047784871
 20
1.8133950101
 30
0.0
 10
3.7029130625
 20
1.8131825277
 30
0.0
 10
3.7012062954
 20
1.8129701754
 30
0.0
 10
3.6996591412
 20
1.8127579931
 30
0.0
 10
3.6982723073
 20
1.8125460757
 30
0.0
 10
3.6970464172
 20
1.8123344753
 30
0.0
 10
3.6961268904
 20
1.8121521964
 30
0.0
 10
3.695472889
 20
1.8120046744
 30
0.0
 10
3.6950423883
 20
1.8118984288
 30
0.0
 10
3.6946525912
 20
1.8117922594
 30
0.0
 10
3.6943035523
 20
1.8116861747
 30
0.0
 10
3.6939953018
 20
1.8115801959
 30
0.0
 10
3.6937278396
 20
1.8114743331
 30
0.0
 10
3.6935010461
 20
1.8113685829
 30
0.0
 10
3.6933147819
 20
1.8112629086
 30
0.0
 10
3.6931874841
 20
1.8111708435
 30
0.0
 10
3.6931078093
 20
1.8110961937
 30
0.0
 10
3.6930482572
 20
1.8110281222
 30
0.0
 10
3.6930043823
 20
1.8109559654
 30
0.0
 10
3.692982496
 20
1.8108813407
 30
0.0
 10
3.6929789434
 20
1.8108448948
 30
0.0
 10
3.6929789511
 20
1.8108270394
 30
0.0
 11
4.257423841
 21
1.838127993
 31
0.0
 11
4.2572187968
 21
1.8380213487
 31
0.0
 11
4.2569727217
 21
1.8379147044
 31
0.0
 11
4.2566856822
 21
1.83780806
 31
0.0
 11
4.2563577449
 21
1.8377014157
 31
0.0
 11
4.2559889762
 21
1.8375947714
 31
0.0
 11
4.2555794426
 21
1.837488127
 31
0.0
 11
4.2551292106
 21
1.8373814827
 31
0.0
 11
4.2546383467
 21
1.8372748384
 31
0.0
 11
4.2535349891
 21
1.8370615497
 31
0.0
 11
4.2522699019
 21
1.836848261
 31
0.0
 11
4.250843617
 21
1.8366349724
 31
0.0
 11
4.2492567781
 21
1.8364216837
 31
0.0
 11
4.2475104864
 21
1.836208395
 31
0.0
 11
4.2456059599
 21
1.8359951064
 31
0.0
 11
4.2435444166
 21
1.8357818177
 31
0.0
 11
4.2413270746
 21
1.835568529
 31
0.0
 11
4.2364298661
 21
1.8351419517
 31
0.0
 11
4.2309245494
 21
1.8347153743
 31
0.0
 11
4.2248246363
 21
1.834288797
 31
0.0
 11
4.2181450476
 21
1.8338622196
 31
0.0
 11
4.2109007117
 21
1.8334356423
 31
0.0
 11
4.2031077046
 21
1.8330090649
 31
0.0
 11
4.1947851616
 21
1.8325824875
 31
0.0
 11
4.1859527222
 21
1.8321559102
 31
0.0
 11
4.1766300914
 21
1.8317293328
 31
0.0
 11
4.1668388276
 21
1.8313027554
 31
0.0
 11
4.1459450166
 21
1.8304496007
 31
0.0
 11
4.1234642055
 21
1.8295964459
 31
0.0
 11
4.0996069766
 21
1.8287432912
 31
0.0
 11
4.0745938599
 21
1.8278901364
 31
0.0
 11
4.0486586912
 21
1.8270369816
 31
0.0
 11
4.0220417951
 21
1.8261838268
 31
0.0
 11
3.9949914118
 21
1.825330672
 31
0.0
 11
3.9677586786
 21
1.8244775172
 31
0.0
 11
3.9405972737
 21
1.8236243624
 31
0.0
 11
3.9137594505
 21
1.8227712075
 31
0.0
 11
3.8874953527
 21
1.8219180527
 31
0.0
 11
3.8620485459
 21
1.8210648979
 31
0.0
 11
3.8376567328
 21
1.820211743
 31
0.0
 11
3.8145455034
 21
1.8193585882
 31
0.0
 11
3.7929313575
 21
1.8185054333
 31
0.0
 11
3.7827482685
 21
1.8180788559
 31
0.0
 11
3.7730136914
 21
1.8176522785
 31
0.0
 11
3.7637505173
 21
1.817225701
 31
0.0
 11
3.7549793782
 21
1.8167991236
 31
0.0
 11
3.7467207183
 21
1.8163725462
 31
0.0
 11
3.7389947578
 21
1.8159459687
 31
0.0
 11
3.7318190781
 21
1.8155193913
 31
0.0
 11
3.7252095427
 21
1.8150928139
 31
0.0
 11
3.7191819857
 21
1.8146662364
 31
0.0
 11
3.7137514307
 21
1.814239659
 31
0.0
 11
3.7112637159
 21
1.8140263703
 31
0.0
 11
3.7089294974
 21
1.8138130815
 31
0.0
 11
3.706750116
 21
1.8135997928
 31
0.0
 11
3.7047269124
 21
1.8133865041
 31
0.0
 11
3.7028612274
 21
1.8131732154
 31
0.0
 11
3.7011543763
 21
1.8129599267
 31
0.0
 11
3.6996073045
 21
1.8127466379
 31
0.0
 11
3.6982206789
 21
1.8125333492
 31
0.0
 11
3.6969951597
 21
1.8123200605
 31
0.0
 11
3.6959314071
 21
1.8121067718
 31
0.0
 11
3.6954603997
 21
1.8120001274
 31
0.0
 11
3.6950300814
 21
1.811893483
 31
0.0
 11
3.694640535
 21
1.8117868387
 31
0.0
 11
3.6942918428
 21
1.8116801943
 31
0.0
 11
3.6939840874
 21
1.81157355
 31
0.0
 11
3.6937173495
 21
1.8114669056
 31
0.0
 11
3.6934916679
 21
1.8113602612
 31
0.0
 11
3.6933070392
 21
1.8112536169
 31
0.0
 11
3.6931634583
 21
1.8111469725
 31
0.0
 11
3.6931070592
 21
1.8110936503
 31
0.0
 11
3.6930609201
 21
1.8110403282
 31
0.0
 11
3.6929994194
 21
1.8109336838
 31
0.0
 11
3.6929840565
 21
1.8108803616
 31
0.0
 11
3.6929789511
 21
1.8108270394
 31
0.0
  0
SPLINE
  5
2B5
100
AcDbEntity
  8
0
100
AcDbSpline
 62
6
  6
CONTINUOUS
 70
0
 71
3
 72
47
 73
43
 74
41
 42
0.0000001
 43
0.0000001
 44
0.0000000001
 12
-0.480219843
 22
-0.0161088514
 32
0.0
 13
-0.4161381371
 23
-0.240207501
 33
0.0
 40
0.0
 40
0.0
 40
0.0
 40
0.0
 40
0.0365315896
 40
0.0744208175
 40
0.1535339344
 40
0.2359645004
 40
0.3203332367
 40
0.405196238
 40
0.4891102084
 40
0.5706466992
 40
0.6100890718
 40
0.6484220233
 40
0.6854840802
 40
0.7211165953
 40
0.755167179
 40
0.7874929519
 40
0.8179536312
 40
0.8464220383
 40
0.8727770378
 40
0.8969054653
 40
0.9187085608
 40
0.9287078917
 40
0.9380913437
 40
0.9468500372
 40
0.9549751939
 40
0.9624581011
 40
0.9692902132
 40
0.9754648167
 40
0.9809770816
 40
0.9858225543
 40
0.9879940126
 40
0.9899973575
 40
0.9918322422
 40
0.9934984972
 40
0.9949963978
 40
0.9963265159
 40
0.9974897735
 40
0.9984876745
 40
0.9989254108
 40
0.9993229041
 40
0.9996808008
 40
1.0
 40
1.0
 40
1.0
 40
1.0
 10
4.1432398414
 20
1.8540394471
 30
0.0
 10
4.1373921099
 20
1.8538432864
 30
0.0
 10
4.1254790415
 20
1.8534521144
 30
0.0
 10
4.1009008704
 20
1.8526732738
 30
0.0
 10
4.0689736325
 20
1.8517071721
 30
0.0
 10
4.0296040994
 20
1.8505631034
 30
0.0
 10
3.9893132811
 20
1.8494186031
 30
0.0
 10
3.9487847852
 20
1.8482739802
 30
0.0
 10
3.9087100866
 20
1.8471295694
 30
0.0
 10
3.8759079102
 20
1.8461660707
 30
0.0
 10
3.8504038091
 20
1.845389825
 30
0.0
 10
3.8320200825
 20
1.8448141228
 30
0.0
 10
3.8142468594
 20
1.8442385472
 30
0.0
 10
3.7971598827
 20
1.8436630982
 30
0.0
 10
3.7808319284
 20
1.8430877723
 30
0.0
 10
3.7653328412
 20
1.8425127168
 30
0.0
 10
3.7507284545
 20
1.8419378616
 30
0.0
 10
3.7370811386
 20
1.8413633749
 30
0.0
 10
3.724448955
 20
1.8407893828
 30
0.0
 10
3.7128854825
 20
1.8402158659
 30
0.0
 10
3.7039407735
 20
1.839725646
 30
0.0
 10
3.6973561528
 20
1.8393302603
 30
0.0
 10
3.6928581081
 20
1.8390424115
 30
0.0
 10
3.6886608829
 20
1.8387546958
 30
0.0
 10
3.6847688095
 20
1.8384671343
 30
0.0
 10
3.6811861934
 20
1.8381797829
 30
0.0
 10
3.677917055
 20
1.8378926614
 30
0.0
 10
3.6749648388
 20
1.8376058468
 30
0.0
 10
3.6723324352
 20
1.8373194311
 30
0.0
 10
3.670340777
 20
1.8370731184
 30
0.0
 10
3.6689098294
 20
1.836873937
 30
0.0
 10
3.6679580749
 20
1.8367301321
 30
0.0
 10
3.6670882179
 20
1.8365864153
 30
0.0
 10
3.6663004967
 20
1.8364427888
 30
0.0
 10
3.665595065
 20
1.8362993033
 30
0.0
 10
3.6649719768
 20
1.8361560299
 30
0.0
 10
3.6644312893
 20
1.8360130128
 30
0.0
 10
3.6640336049
 20
1.8358893645
 30
0.0
 10
3.6637576102
 20
1.8357890733
 30
0.0
 10
3.6635804804
 20
1.8357172171
 30
0.0
 10
3.6634239962
 20
1.8356454135
 30
0.0
 10
3.6633280249
 20
1.8355947258
 30
0.0
 10
3.6632837479
 20
1.8355691678
 30
0.0
 11
4.1432398414
 21
1.8540394471
 31
0.0
 11
4.1256962627
 21
1.8534625403
 31
0.0
 11
4.1075000263
 21
1.8528851965
 31
0.0
 11
4.069504505
 21
1.8517306777
 31
0.0
 11
4.0299142703
 21
1.8505763807
 31
0.0
 11
3.9893923813
 21
1.8494219515
 31
0.0
 11
3.9486329066
 21
1.8482675422
 31
0.0
 11
3.9083296163
 21
1.847113144
 31
0.0
 11
3.8691691621
 21
1.8459587808
 31
0.0
 11
3.8502262895
 21
1.8453816049
 31
0.0
 11
3.8318167374
 21
1.8448044211
 31
0.0
 11
3.814018148
 21
1.844227229
 31
0.0
 11
3.7969068147
 21
1.8436500316
 31
0.0
 11
3.7805560362
 21
1.8430728317
 31
0.0
 11
3.7650345557
 21
1.842495632
 31
0.0
 11
3.7504098911
 21
1.8419184353
 31
0.0
 11
3.7367432906
 21
1.8413412446
 31
0.0
 11
3.7240931387
 21
1.8407640625
 31
0.0
 11
3.712514048
 21
1.8401868863
 31
0.0
 11
3.7020537917
 21
1.8396097034
 31
0.0
 11
3.6972578892
 21
1.8393211052
 31
0.0
 11
3.692758481
 21
1.8390325037
 31
0.0
 11
3.688559924
 21
1.8387439033
 31
0.0
 11
3.6846665492
 21
1.8384553089
 31
0.0
 11
3.6810826876
 21
1.838166725
 31
0.0
 11
3.6778126342
 21
1.8378781558
 31
0.0
 11
3.6748598655
 21
1.8375895961
 31
0.0
 11
3.6722270443
 21
1.8373010307
 31
0.0
 11
3.6699167981
 21
1.8370124443
 31
0.0
 11
3.6688834617
 21
1.8368681383
 31
0.0
 11
3.6679317546
 21
1.8367238213
 31
0.0
 11
3.667062005
 21
1.8365794913
 31
0.0
 11
3.6662745055
 21
1.8364351479
 31
0.0
 11
3.6655694037
 21
1.8362907966
 31
0.0
 11
3.6649468108
 21
1.8361464445
 31
0.0
 11
3.6644068377
 21
1.8360020984
 31
0.0
 11
3.6639495954
 21
1.8358577656
 31
0.0
 11
3.6637520331
 21
1.8357856064
 31
0.0
 11
3.6635751952
 21
1.8357134531
 31
0.0
 11
3.6634190955
 21
1.8356413066
 31
0.0
 11
3.6632837479
 21
1.8355691678
 31
0.0
  0
SPLINE
  5
2B6
100
AcDbEntity
  8
0
100
AcDbSpline
 62
9
  6
CONTINUOUS
 70
0
 71
3
 72
48
 73
44
 74
42
 42
0.0000001
 43
0.0000001
 44
0.0000000001
 12
-0.2830303582
 22
-0.0088614355
 32
0.0
 13
-0.0000001514
 23
-0.2831690462
 33
0.0
 40
0.0
 40
0.0
 40
0.0
 40
0.0
 40
0.0977770484
 40
0.1946839565
 40
0.2896825905
 40
0.3818850087
 40
0.4704228618
 40
0.5544328539
 40
0.6331082945
 40
0.6702068053
 40
0.7056933962
 40
0.7394846402
 40
0.7714972185
 40
0.8016523395
 40
0.8298814442
 40
0.8561174861
 40
0.8802944418
 40
0.902356552
 40
0.9222548043
 40
0.9313773512
 40
0.9399408339
 40
0.9479401238
 40
0.9553716146
 40
0.962231955
 40
0.9685179348
 40
0.9742265442
 40
0.9793550664
 40
0.9839012353
 40
0.9878641804
 40
0.9896275244
 40
0.9912459506
 40
0.9927200706
 40
0.9940507508
 40
0.995239233
 40
0.9962873354
 40
0.9971977987
 40
0.9979749167
 40
0.9986257421
 40
0.9991624689
 40
0.9993948324
 40
0.9996081332
 40
0.9998076954
 40
1.0
 40
1.0
 40
1.0
 40
1.0
 10
3.9754082343
 20
2.0469570363
 30
0.0
 10
3.9661836099
 20
2.0466682213
 30
0.0
 10
3.9478164532
 20
2.0460931634
 30
0.0
 10
3.9204870553
 20
2.0452292708
 30
0.0
 10
3.8936841084
 20
2.0443654627
 30
0.0
 10
3.8676715219
 20
2.043502012
 30
0.0
 10
3.8426967244
 20
2.042638994
 30
0.0
 10
3.818999515
 20
2.0417764541
 30
0.0
 10
3.8001561419
 20
2.0410448096
 30
0.0
 10
3.7858908603
 20
2.0404556829
 30
0.0
 10
3.7758593686
 20
2.0400225942
 30
0.0
 10
3.7663083981
 20
2.039589643
 30
0.0
 10
3.7572612002
 20
2.0391568224
 30
0.0
 10
3.7487396396
 20
2.038724109
 30
0.0
 10
3.740764059
 20
2.0382916093
 30
0.0
 10
3.733353626
 20
2.0378593882
 30
0.0
 10
3.7265263404
 20
2.0374274264
 30
0.0
 10
3.7202985563
 20
2.0369958219
 30
0.0
 10
3.7154909329
 20
2.0366267972
 30
0.0
 10
3.7119558396
 20
2.0363293759
 30
0.0
 10
3.709541081
 20
2.0361128915
 30
0.0
 10
3.7072866162
 20
2.035896479
 30
0.0
 10
3.705193692
 20
2.0356801607
 30
0.0
 10
3.7032634016
 20
2.0354639561
 30
0.0
 10
3.7014968178
 20
2.035247893
 30
0.0
 10
3.6998950076
 20
2.0350320073
 30
0.0
 10
3.6984590106
 20
2.0348163742
 30
0.0
 10
3.6971898112
 20
2.0346010321
 30
0.0
 10
3.696237965
 20
2.0344154454
 30
0.0
 10
3.6955611304
 20
2.0342652377
 30
0.0
 10
3.6951156936
 20
2.0341570727
 30
0.0
 10
3.6947123716
 20
2.0340489888
 30
0.0
 10
3.6943511822
 20
2.0339409975
 30
0.0
 10
3.6940321251
 20
2.0338331247
 30
0.0
 10
3.6937551627
 20
2.0337253879
 30
0.0
 10
3.6935202201
 20
2.0336178107
 30
0.0
 10
3.6933270625
 20
2.0335103107
 30
0.0
 10
3.6931754646
 20
2.0334027855
 30
0.0
 10
3.693078982
 20
2.0333082795
 30
0.0
 10
3.6930257891
 20
2.0332320006
 30
0.0
 10
3.6929984776
 20
2.0331772752
 30
0.0
 10
3.6929819514
 20
2.0331222832
 30
0.0
 10
3.6929782343
 20
2.0330851997
 30
0.0
 10
3.6929782343
 20
2.0330670482
 30
0.0
 11
3.9754082343
 21
2.0469570363
 31
0.0
 11
3.9477344049
 21
2.0460891985
 31
0.0
 11
3.9203071144
 21
2.0452207311
 31
0.0
 11
3.8934204544
 21
2.0443525748
 31
0.0
 11
3.8673260185
 21
2.0434845003
 31
0.0
 11
3.8422698747
 21
2.0426163469
 31
0.0
 11
3.818496691
 21
2.0417482119
 31
0.0
 11
3.7962351612
 21
2.0408801114
 31
0.0
 11
3.7857389822
 21
2.040446058
 31
0.0
 11
3.7756996572
 21
2.0400120007
 31
0.0
 11
3.7661408729
 21
2.0395779431
 31
0.0
 11
3.7570862994
 21
2.039143889
 31
0.0
 11
3.7485583414
 21
2.0387098394
 31
0.0
 11
3.7405765257
 21
2.0382757898
 31
0.0
 11
3.7331599815
 21
2.0378417348
 31
0.0
 11
3.7263275903
 21
2.0374076698
 31
0.0
 11
3.7200953815
 21
2.0369736023
 31
0.0
 11
3.7144775559
 21
2.0365395472
 31
0.0
 11
3.711903465
 21
2.036322529
 31
0.0
 11
3.7094882816
 21
2.0361055195
 31
0.0
 11
3.7072335486
 21
2.0358885177
 31
0.0
 11
3.7051403988
 21
2.0356715173
 31
0.0
 11
3.7032099214
 21
2.0354545113
 31
0.0
 11
3.7014432055
 21
2.0352374929
 31
0.0
 11
3.6998413405
 21
2.0350204552
 31
0.0
 11
3.6984054154
 21
2.0348033913
 31
0.0
 11
3.6971365189
 21
2.0345862943
 31
0.0
 11
3.6960355416
 21
2.0343691662
 31
0.0
 11
3.6955481633
 21
2.034260597
 31
0.0
 11
3.6951029207
 21
2.0341520284
 31
0.0
 11
3.6946998607
 21
2.0340434635
 31
0.0
 11
3.6943390297
 21
2.0339349053
 31
0.0
 11
3.6940204746
 21
2.0338263569
 31
0.0
 11
3.6937442421
 21
2.0337178214
 31
0.0
 11
3.6935103787
 21
2.0336093017
 31
0.0
 11
3.6933189313
 21
2.0335008009
 31
0.0
 11
3.6931699464
 21
2.0333923222
 31
0.0
 11
3.6930634708
 21
2.0332838684
 31
0.0
 11
3.6930261886
 21
2.0332296519
 31
0.0
 11
3.6929995512
 21
2.0331754427
 31
0.0
 11
3.6929835645
 21
2.0331212414
 31
0.0
 11
3.6929782343
 21
2.0330670482
 31
0.0
  0
SPLINE
  5
2B7
100
AcDbEntity
  8
0
100
AcDbSpline
 62
6
  6
CONTINUOUS
 70
0
 71
3
 72
40
 73
36
 74
34
 42
0.0000001
 43
0.0000001
 44
0.0000000001
 12
-0.2823702228
 22
-0.0088407672
 32
0.0
 13
-0.244581383
 23
-0.141389706
 33
0.0
 40
0.0
 40
0.0
 40
0.0
 40
0.0
 40
0.0946317303
 40
0.1884886929
 40
0.2806201945
 40
0.3702210239
 40
0.4565107167
 40
0.5387096705
 40
0.6160750266
 40
0.6879160696
 40
0.7215620268
 40
0.753592001
 40
0.7839318652
 40
0.8125124378
 40
0.8392734979
 40
0.8641558689
 40
0.8871009247
 40
0.9080584216
 40
0.9269859894
 40
0.9438419823
 40
0.9514804171
 40
0.9585869875
 40
0.965158964
 40
0.9711937746
 40
0.9766890263
 40
0.9816425853
 40
0.9860527083
 40
0.9899182668
 40
0.9932396302
 40
0.9946973713
 40
0.9960207284
 40
0.9972107693
 40
0.9982690061
 40
0.9991976414
 40
1.0
 40
1.0
 40
1.0
 40
1.0
 10
3.9754082343
 20
2.0330670363
 30
0.0
 10
3.9665011734
 20
2.032788164
 30
0.0
 10
3.9487599753
 20
2.0322327024
 30
0.0
 10
3.9223472785
 20
2.0313983301
 30
0.0
 10
3.8964085769
 20
2.0305640061
 30
0.0
 10
3.8711828464
 20
2.0297300332
 30
0.0
 10
3.8468929755
 20
2.028896374
 30
0.0
 10
3.8237560027
 20
2.0280631688
 30
0.0
 10
3.8019805616
 20
2.0272305402
 30
0.0
 10
3.784775952
 20
2.0265228759
 30
0.0
 10
3.7718385897
 20
2.0259527728
 30
0.0
 10
3.7628064888
 20
2.0255347153
 30
0.0
 10
3.7542519237
 20
2.0251167786
 30
0.0
 10
3.7461941499
 20
2.024698938
 30
0.0
 10
3.7386510281
 20
2.0242812987
 30
0.0
 10
3.7316394525
 20
2.0238639268
 30
0.0
 10
3.7251754213
 20
2.0234468086
 30
0.0
 10
3.7192733889
 20
2.0230300423
 30
0.0
 10
3.7139462925
 20
2.0226137951
 30
0.0
 10
3.7098727775
 20
2.0222568693
 30
0.0
 10
3.7069108949
 20
2.0219686539
 30
0.0
 10
3.7049143662
 20
2.0217597259
 30
0.0
 10
3.7030697238
 20
2.0215509135
 30
0.0
 10
3.7013778508
 20
2.0213422337
 30
0.0
 10
3.699839617
 20
2.0211337314
 30
0.0
 10
3.6984558853
 20
2.0209254576
 30
0.0
 10
3.6972274764
 20
2.0207175143
 30
0.0
 10
3.6961551795
 20
2.0205099644
 30
0.0
 10
3.6953609029
 20
2.020330573
 30
0.0
 10
3.6948049213
 20
2.0201850176
 30
0.0
 10
3.6944457418
 20
2.0200807267
 30
0.0
 10
3.6941258758
 20
2.0199765331
 30
0.0
 10
3.6938452841
 20
2.0198724398
 30
0.0
 10
3.6936039407
 20
2.0197684722
 30
0.0
 10
3.6934587396
 20
2.0196939211
 30
0.0
 10
3.6933933256
 20
2.019656106
 30
0.0
 11
3.9754082343
 21
2.0330670363
 31
0.0
 11
3.9486870908
 21
2.0322291653
 31
0.0
 11
3.9221849551
 21
2.0313906372
 31
0.0
 11
3.8961705156
 21
2.0305524135
 31
0.0
 11
3.87087139
 21
2.02971432
 31
0.0
 11
3.8465082248
 21
2.028876138
 31
0.0
 11
3.8233014471
 21
2.0280379328
 31
0.0
 11
3.8014611475
 21
2.0271997516
 31
0.0
 11
3.781182751
 21
2.0263615737
 31
0.0
 11
3.7716867226
 21
2.025942482
 31
0.0
 11
3.7626476902
 21
2.0255233895
 31
0.0
 11
3.7540866699
 21
2.0251042971
 31
0.0
 11
3.7460232965
 21
2.0246852052
 31
0.0
 11
3.738474692
 21
2.0242661137
 31
0.0
 11
3.7314577126
 21
2.0238470223
 31
0.0
 11
3.7249890992
 21
2.0234279309
 31
0.0
 11
3.7190832776
 21
2.0230088393
 31
0.0
 11
3.7137525258
 21
2.0225897477
 31
0.0
 11
3.7090090406
 21
2.022170656
 31
0.0
 11
3.7068613153
 21
2.0219611101
 31
0.0
 11
3.7048646136
 21
2.0217515643
 31
0.0
 11
3.7030198366
 21
2.0215420184
 31
0.0
 11
3.7013278774
 21
2.0213324726
 31
0.0
 11
3.6997896285
 21
2.0211229268
 31
0.0
 11
3.6984059829
 21
2.020913381
 31
0.0
 11
3.6971778333
 21
2.0207038352
 31
0.0
 11
3.6961060725
 21
2.0204942893
 31
0.0
 11
3.6951914561
 21
2.0202847435
 31
0.0
 11
3.6947931824
 21
2.0201799706
 31
0.0
 11
3.6944343039
 21
2.0200751977
 31
0.0
 11
3.6941148498
 21
2.0199704248
 31
0.0
 11
3.6938348493
 21
2.0198656518
 31
0.0
 11
3.6935943315
 21
2.0197608789
 31
0.0
 11
3.6933933256
 21
2.019656106
 31
0.0
  0
SPLINE
  5
2B8
100
AcDbEntity
  8
0
100
AcDbSpline
 62
6
  6
CONTINUOUS
 70
0
 71
3
 72
81
 73
77
 74
75
 42
0.0000001
 43
0.0000001
 44
0.0000000001
 12
-0.4898063513
 22
-0.282986054
 32
0.0
 13
-0.0007285168
 23
-0.5656773266
 33
0.0
 40
0.0
 40
0.0
 40
0.0
 40
0.0
 40
0.0004086492
 40
0.0008827535
 40
0.0014240039
 40
0.0020334979
 40
0.0027119702
 40
0.0034599239
 40
0.0042777076
 40
0.0051655636
 40
0.0071520596
 40
0.0094202314
 40
0.0119701556
 40
0.0148008082
 40
0.0179107154
 40
0.0212982698
 40
0.0249617721
 40
0.0288994579
 40
0.0375900178
 40
0.0473518009
 40
0.0581609245
 40
0.0699927919
 40
0.0828222443
 40
0.0966192078
 40
0.1113504396
 40
0.1269825933
 40
0.1434809779
 40
0.1608059763
 40
0.1977725744
 40
0.2375424596
 40
0.2797442604
 40
0.3239876046
 40
0.3698606619
 40
0.4169376527
 40
0.4647810328
 40
0.5129463252
 40
0.5609857282
 40
0.6084533321
 40
0.6549073151
 40
0.6999170026
 40
0.7430633785
 40
0.7839463685
 40
0.8221863099
 40
0.8574277756
 40
0.8738211296
 40
0.8893456461
 40
0.9039637921
 40
0.9176420869
 40
0.9303505707
 40
0.9420594726
 40
0.9527402231
 40
0.9623701617
 40
0.9667846591
 40
0.9709287778
 40
0.9748000105
 40
0.9783959176
 40
0.9817146909
 40
0.9847551345
 40
0.9875161722
 40
0.9899968723
 40
0.9921965228
 40
0.9941147629
 40
0.9949684303
 40
0.9957519151
 40
0.9964654946
 40
0.9971096485
 40
0.9976850475
 40
0.9981926496
 40
0.9986338708
 40
0.9990108956
 40
0.9993272636
 40
0.9994645812
 40
0.9995893416
 40
0.9998071449
 40
0.9999052903
 40
1.0
 40
1.0
 40
1.0
 40
1.0
 10
4.2574236469
 20
2.0048079935
 30
0.0
 10
4.2573569273
 20
2.0047694462
 30
0.0
 10
4.2572085599
 20
2.0046934957
 30
0.0
 10
4.2569616309
 20
2.0045877019
 30
0.0
 10
4.2566740248
 20
2.0044817725
 30
0.0
 10
4.2563457388
 20
2.0043757336
 30
0.0
 10
4.2559767534
 20
2.0042695992
 30
0.0
 10
4.255567091
 20
2.0041633897
 30
0.0
 10
4.2551167834
 20
2.0040571122
 30
0.0
 10
4.2544363354
 20
2.0039097666
 30
0.0
 10
4.2534837957
 20
2.0037275642
 30
0.0
 10
4.252218232
 20
2.0035158659
 30
0.0
 10
4.2507915827
 20
2.0033039092
 30
0.0
 10
4.2492047046
 20
2.0030917043
 30
0.0
 10
4.2474586375
 20
2.002879317
 30
0.0
 10
4.2455544915
 20
2.0026667888
 30
0.0
 10
4.2434933822
 20
2.0024541416
 30
0.0
 10
4.240435443
 20
2.0021607524
 30
0.0
 10
4.2362291661
 20
2.0017973985
 30
0.0
 10
4.2307278748
 20
2.001373791
 30
0.0
 10
4.2246327264
 20
2.0009496316
 30
0.0
 10
4.2179579051
 20
2.0005250349
 30
0.0
 10
4.2107186702
 20
2.0001002022
 30
0.0
 10
4.2029318772
 20
1.9996751449
 30
0.0
 10
4.1946158875
 20
1.9992498685
 30
0.0
 10
4.1857899031
 20
1.9988244385
 30
0.0
 10
4.1764743078
 20
1.9983989306
 30
0.0
 10
4.1631388043
 20
1.9978188195
 30
0.0
 10
4.1454172302
 20
1.9970986726
 30
0.0
 10
4.1230063087
 20
1.9962512981
 30
0.0
 10
4.0992223951
 20
1.9954032567
 30
0.0
 10
4.0742869952
 20
1.994554793
 30
0.0
 10
4.0484318347
 20
1.9937059869
 30
0.0
 10
4.0218975069
 20
1.9928569742
 30
0.0
 10
3.9949307448
 20
1.9920078265
 30
0.0
 10
3.9677824236
 20
1.9911586322
 30
0.0
 10
3.9407049928
 20
1.9903094471
 30
0.0
 10
3.9139504011
 20
1.9894603757
 30
0.0
 10
3.8877673775
 20
1.9886114562
 30
0.0
 10
3.8623995901
 20
1.9877628373
 30
0.0
 10
3.8380828608
 20
1.9869145845
 30
0.0
 10
3.81504342
 20
1.986066904
 30
0.0
 10
3.7934955657
 20
1.9852199508
 30
0.0
 10
3.776564151
 20
1.9844987746
 30
0.0
 10
3.7639139821
 20
1.9839172891
 30
0.0
 10
3.7551494901
 20
1.9834919167
 30
0.0
 10
3.746897578
 20
1.9830666739
 30
0.0
 10
3.7391773947
 20
1.9826415894
 30
0.0
 10
3.7320066496
 20
1.982216774
 30
0.0
 10
3.7254021617
 20
1.9817923141
 30
0.0
 10
3.7193794468
 20
1.9813681541
 30
0.0
 10
3.714731349
 20
1.9810054326
 30
0.0
 10
3.7113141954
 20
1.9807131009
 30
0.0
 10
3.7089800964
 20
1.9805003265
 30
0.0
 10
3.706801024
 20
1.9802876387
 30
0.0
 10
3.7047783618
 20
1.9800750286
 30
0.0
 10
3.702913271
 20
1.9798625172
 30
0.0
 10
3.7012066877
 20
1.9796501547
 30
0.0
 10
3.6996594378
 20
1.9794379812
 30
0.0
 10
3.6982723163
 20
1.9792260749
 30
0.0
 10
3.697046127
 20
1.9790144901
 30
0.0
 10
3.6961264266
 20
1.9788322196
 30
0.0
 10
3.6954724209
 20
1.9786846919
 30
0.0
 10
3.6950420535
 20
1.9785784467
 30
0.0
 10
3.6946524695
 20
1.9784722711
 30
0.0
 10
3.6943036751
 20
1.9783661786
 30
0.0
 10
3.6939956395
 20
1.9782601884
 30
0.0
 10
3.6937283125
 20
1.978154318
 30
0.0
 10
3.6935015527
 20
1.9780485681
 30
0.0
 10
3.6933152328
 20
1.977942895
 30
0.0
 10
3.6931878368
 20
1.9778508389
 30
0.0
 10
3.69310805
 20
1.9777761962
 30
0.0
 10
3.6930483821
 20
1.977708128
 30
0.0
 10
3.693004374
 20
1.9776359833
 30
0.0
 10
3.6929823443
 20
1.9775613539
 30
0.0
 10
3.6929787247
 20
1.9775249021
 30
0.0
 10
3.6929787017
 20
1.9775070437
 30
0.0
 11
4.2574236469
 21
2.0048079935
 31
0.0
 11
4.2572185526
 21
2.0047013492
 31
0.0
 11
4.2569724774
 21
2.0045947049
 31
0.0
 11
4.2566854772
 21
2.0044880606
 31
0.0
 11
4.2563576078
 21
2.0043814163
 31
0.0
 11
4.2559889251
 21
2.0042747719
 31
0.0
 11
4.255579485
 21
2.0041681276
 31
0.0
 11
4.2551293431
 21
2.0040614833
 31
0.0
 11
4.2546385555
 21
2.003954839
 31
0.0
 11
4.2535352663
 21
2.0037415504
 31
0.0
 11
4.2522700641
 21
2.0035282617
 31
0.0
 11
4.2508434849
 21
2.0033149731
 31
0.0
 11
4.2492565165
 21
2.0031016845
 31
0.0
 11
4.2475102886
 21
2.0028883958
 31
0.0
 11
4.2456059313
 21
2.0026751072
 31
0.0
 11
4.2435445745
 21
2.0024618186
 31
0.0
 11
4.2413273482
 21
2.0022485299
 31
0.0
 11
4.2364298339
 21
2.0018219527
 31
0.0
 11
4.2309243113
 21
2.0013953754
 31
0.0
 11
4.2248247283
 21
2.0009687981
 31
0.0
 11
4.2181453113
 21
2.0005422208
 31
0.0
 11
4.2109005226
 21
2.0001156435
 31
0.0
 11
4.2031075532
 21
1.9996890662
 31
0.0
 11
4.1947853479
 21
1.9992624889
 31
0.0
 11
4.1859528808
 21
1.9988359116
 31
0.0
 11
4.1766298649
 21
1.9984093343
 31
0.0
 11
4.1668387862
 21
1.997982757
 31
0.0
 11
4.1459450136
 21
1.9971296024
 31
0.0
 11
4.1234642556
 21
1.9962764478
 31
0.0
 11
4.0996068838
 21
1.9954232932
 31
0.0
 11
4.074593952
 21
1.9945701385
 31
0.0
 11
4.0486586108
 21
1.9937169838
 31
0.0
 11
4.0220418721
 21
1.9928638292
 31
0.0
 11
3.9949913849
 21
1.9920106745
 31
0.0
 11
3.9677587092
 21
1.9911575198
 31
0.0
 11
3.9405972812
 21
1.9903043651
 31
0.0
 11
3.9137594689
 21
1.9894512104
 31
0.0
 11
3.8874953353
 21
1.9885980557
 31
0.0
 11
3.8620486524
 21
1.987744901
 31
0.0
 11
3.8376566213
 21
1.9868917462
 31
0.0
 11
3.8145457637
 21
1.9860385915
 31
0.0
 11
3.7929311089
 21
1.9851854367
 31
0.0
 11
3.7730140585
 21
1.984332282
 31
0.0
 11
3.7637505187
 21
1.9839057046
 31
0.0
 11
3.754979011
 21
1.9834791272
 31
0.0
 11
3.7467208606
 21
1.9830525498
 31
0.0
 11
3.7389951207
 21
1.9826259725
 31
0.0
 11
3.7318188809
 21
1.9821993951
 31
0.0
 11
3.725209166
 21
1.9817728177
 31
0.0
 11
3.7191823804
 21
1.9813462403
 31
0.0
 11
3.7137516658
 21
1.9809196629
 31
0.0
 11
3.711263608
 21
1.9807063742
 31
0.0
 11
3.7089290952
 21
1.9804930855
 31
0.0
 11
3.7067496365
 21
1.9802797968
 31
0.0
 11
3.7047267248
 21
1.9800665081
 31
0.0
 11
3.7028615238
 21
1.9798532194
 31
0.0
 11
3.7011548887
 21
1.9796399307
 31
0.0
 11
3.699607663
 21
1.979426642
 31
0.0
 11
3.69822069
 21
1.9792133533
 31
0.0
 11
3.6969948131
 21
1.9790000646
 31
0.0
 11
3.6959308758
 21
1.9787867759
 31
0.0
 11
3.695459898
 21
1.9786801316
 31
0.0
 11
3.69502972
 21
1.9785734872
 31
0.0
 11
3.6946404062
 21
1.9784668429
 31
0.0
 11
3.6942919778
 21
1.9783601985
 31
0.0
 11
3.6939844537
 21
1.9782535542
 31
0.0
 11
3.6937178531
 21
1.9781469098
 31
0.0
 11
3.6934921947
 21
1.9780402655
 31
0.0
 11
3.6933074977
 21
1.9779336211
 31
0.0
 11
3.6931637809
 21
1.9778269768
 31
0.0
 11
3.693107296
 21
1.9777736546
 31
0.0
 11
3.6930610633
 21
1.9777203324
 31
0.0
 11
3.6929993639
 21
1.9776136881
 31
0.0
 11
3.692983902
 21
1.9775603659
 31
0.0
 11
3.6929787017
 21
1.9775070437
 31
0.0
  0
SPLINE
  5
2B9
100
AcDbEntity
  8
0
100
AcDbSpline
 62
6
  6
CONTINUOUS
 70
0
 71
3
 72
34
 73
30
 74
28
 42
0.0000001
 43
0.0000001
 44
0.0000000001
 12
-0.0740424058
 22
-0.0428489031
 32
0.0
 13
-0.0855290972
 23
-0.0017549652
 33
0.0
 40
0.0
 40
0.0
 40
0.0
 40
0.0
 40
0.0006509024
 40
0.0014107585
 40
0.0032679551
 40
0.0055862138
 40
0.0083723621
 40
0.0116302244
 40
0.0153620171
 40
0.0195685302
 40
0.024249841
 40
0.0350355583
 40
0.0477152923
 40
0.0622832112
 40
0.0787325615
 40
0.0970560516
 40
0.1172460524
 40
0.1392929697
 40
0.1631820923
 40
0.2164240252
 40
0.2768455304
 40
0.3443191042
 40
0.4187017328
 40
0.4998296585
 40
0.5875374724
 40
0.6816538921
 40
0.7819477321
 40
0.8881522047
 40
1.0
 40
1.0
 40
1.0
 40
1.0
 10
4.2818962113
 20
2.018956557
 30
0.0
 10
4.2818801465
 20
2.0189472602
 30
0.0
 10
4.2818442527
 20
2.0189289632
 30
0.0
 10
4.2817583899
 20
2.0188926255
 30
0.0
 10
4.2816245234
 20
2.0188485584
 30
0.0
 10
4.2814324392
 20
2.018798228
 30
0.0
 10
4.2811993337
 20
2.0187477098
 30
0.0
 10
4.2809251869
 20
2.0186970292
 30
0.0
 10
4.2806099596
 20
2.0186462608
 30
0.0
 10
4.2802536969
 20
2.0185954203
 30
0.0
 10
4.2796972201
 20
2.0185241667
 30
0.0
 10
4.2788993239
 20
2.0184366238
 30
0.0
 10
4.2778194677
 20
2.0183355503
 30
0.0
 10
4.2765775133
 20
2.0182342979
 30
0.0
 10
4.2751741699
 20
2.018132909
 30
0.0
 10
4.273610142
 20
2.0180314492
 30
0.0
 10
4.2718861963
 20
2.0179299539
 30
0.0
 10
4.2700032935
 20
2.0178284488
 30
0.0
 10
4.2671786484
 20
2.0176879765
 30
0.0
 10
4.263260053
 20
2.0175144478
 30
0.0
 10
4.258098727
 20
2.0173127758
 30
0.0
 10
4.2523341513
 20
2.0171110662
 30
0.0
 10
4.2459787938
 20
2.0169093699
 30
0.0
 10
4.2390461777
 20
2.016707703
 30
0.0
 10
4.2315506187
 20
2.0165060919
 30
0.0
 10
4.2235083441
 20
2.0163046058
 30
0.0
 10
4.2149384663
 20
2.0161032696
 30
0.0
 10
4.2058628302
 20
2.0159021467
 30
0.0
 10
4.1996462875
 20
2.0157715434
 30
0.0
 10
4.1964575405
 20
2.0157061137
 30
0.0
 11
4.2818962113
 21
2.018956557
 31
0.0
 11
4.2818467751
 21
2.0189309319
 31
0.0
 11
4.2817870341
 21
2.0189053105
 31
0.0
 11
4.281636643
 21
2.0188540789
 31
0.0
 11
4.2814450503
 21
2.0188028621
 31
0.0
 11
4.2812122679
 21
2.0187516601
 31
0.0
 11
4.2809383082
 21
2.018700473
 31
0.0
 11
4.2806231921
 21
2.0186493007
 31
0.0
 11
4.280266992
 21
2.0185981432
 31
0.0
 11
4.2798697984
 21
2.0185470004
 31
0.0
 11
4.2789527937
 21
2.0184447591
 31
0.0
 11
4.2778729029
 21
2.0183425764
 31
0.0
 11
4.276630851
 21
2.018240452
 31
0.0
 11
4.2752273632
 21
2.0181383857
 31
0.0
 11
4.2736631645
 21
2.0180363771
 31
0.0
 11
4.27193898
 21
2.017934426
 31
0.0
 11
4.2700556846
 21
2.0178325322
 31
0.0
 11
4.2680145782
 21
2.0177306963
 31
0.0
 11
4.2634644335
 21
2.0175272006
 31
0.0
 11
4.2582995468
 21
2.0173239436
 31
0.0
 11
4.2525309494
 21
2.0171209296
 31
0.0
 11
4.246170963
 21
2.0169181529
 31
0.0
 11
4.2392336608
 21
2.0167155928
 31
0.0
 11
4.2317332412
 21
2.016513228
 31
0.0
 11
4.2236843934
 21
2.0163110426
 31
0.0
 11
4.2151069236
 21
2.016109078
 31
0.0
 11
4.2060236774
 21
2.0159074097
 31
0.0
 11
4.1964575405
 21
2.0157061137
 31
0.0
  0
SPLINE
  5
2BA
100
AcDbEntity
  8
0
100
AcDbSpline
 62
6
  6
CONTINUOUS
 70
0
 71
3
 72
53
 73
49
 74
47
 42
0.0000001
 43
0.0000001
 44
0.0000000001
 12
-0.4346352417
 22
-0.0161320146
 32
0.0
 13
0.0002476761
 23
-0.4349344478
 33
0.0
 40
0.0
 40
0.0
 40
0.0
 40
0.0
 40
0.0373476532
 40
0.0761153922
 40
0.1571142971
 40
0.2415057622
 40
0.327818821
 40
0.4145067734
 40
0.5000262692
 40
0.5828561115
 40
0.6227985943
 40
0.661521266
 40
0.6988497164
 40
0.7346204158
 40
0.7686723851
 40
0.8008536218
 40
0.8310237591
 40
0.8590450747
 40
0.8847957453
 40
0.9081624064
 40
0.918917414
 40
0.9290384047
 40
0.9385150138
 40
0.9473369273
 40
0.9554939007
 40
0.9629762093
 40
0.9697768561
 40
0.975890018
 40
0.9813101674
 40
0.9837587872
 40
0.9860323185
 40
0.9881302615
 40
0.9900523192
 40
0.9917986619
 40
0.9933697039
 40
0.9947661277
 40
0.9959890368
 40
0.997040231
 40
0.9975023831
 40
0.997922911
 40
0.9983025779
 40
0.9986424368
 40
0.9989439745
 40
0.9992093416
 40
0.9994417162
 40
0.999645848
 40
0.999828728
 40
1.0
 40
1.0
 40
1.0
 40
1.0
 10
4.1270904128
 20
1.8852903697
 30
0.0
 10
4.121679544
 20
1.8850895387
 30
0.0
 10
4.1106517372
 20
1.8846890921
 30
0.0
 10
4.0878875435
 20
1.8838918948
 30
0.0
 10
4.05830557
 20
1.8829033239
 30
0.0
 10
4.0218328385
 20
1.881732863
 30
0.0
 10
3.9845349201
 20
1.8805619974
 30
0.0
 10
3.9470733859
 20
1.8793910302
 30
0.0
 10
3.9101170823
 20
1.8782203113
 30
0.0
 10
3.8799354222
 20
1.87723379
 30
0.0
 10
3.8565356775
 20
1.8764385763
 30
0.0
 10
3.8397294529
 20
1.875849514
 30
0.0
 10
3.8235284267
 20
1.8752605284
 30
0.0
 10
3.8080050075
 20
1.8746717456
 30
0.0
 10
3.793228375
 20
1.874083152
 30
0.0
 10
3.7792643704
 20
1.8734947606
 30
0.0
 10
3.7661754829
 20
1.8729067794
 30
0.0
 10
3.7540198727
 20
1.8723191485
 30
0.0
 10
3.7428518365
 20
1.8717320549
 30
0.0
 10
3.7341860845
 20
1.8712306922
 30
0.0
 10
3.7277846005
 20
1.8708264712
 30
0.0
 10
3.7233939965
 20
1.8705318363
 30
0.0
 10
3.7192843105
 20
1.8702373229
 30
0.0
 10
3.7154601337
 20
1.8699429472
 30
0.0
 10
3.7119259908
 20
1.8696487509
 30
0.0
 10
3.70868597
 20
1.8693547203
 30
0.0
 10
3.7057435547
 20
1.8690609643
 30
0.0
 10
3.7031017132
 20
1.8687675622
 30
0.0
 10
3.70109024
 20
1.8685157328
 30
0.0
 10
3.6996339336
 20
1.8683123834
 30
0.0
 10
3.6986561701
 20
1.8681651484
 30
0.0
 10
3.6977556617
 20
1.8680179931
 30
0.0
 10
3.6969326704
 20
1.8678709151
 30
0.0
 10
3.6961873675
 20
1.8677239536
 30
0.0
 10
3.6955198583
 20
1.8675771413
 30
0.0
 10
3.6949301966
 20
1.8674305363
 30
0.0
 10
3.6944184511
 20
1.8672841728
 30
0.0
 10
3.6940422213
 20
1.8671576632
 30
0.0
 10
3.6937812262
 20
1.8670550943
 30
0.0
 10
3.6936135861
 20
1.8669815353
 30
0.0
 10
3.6934654746
 20
1.8669080087
 30
0.0
 10
3.6933368666
 20
1.8668344944
 30
0.0
 10
3.6932277167
 20
1.8667609595
 30
0.0
 10
3.6931379635
 20
1.8666873186
 30
0.0
 10
3.6930675553
 20
1.8666134039
 30
0.0
 10
3.6930165504
 20
1.8665388825
 30
0.0
 10
3.6929853471
 20
1.8664634519
 30
0.0
 10
3.6929782406
 20
1.8664118809
 30
0.0
 10
3.6929782548
 20
1.8663870502
 30
0.0
 11
4.1270904128
 21
1.8852903697
 31
0.0
 11
4.1108573614
 21
1.884699991
 31
0.0
 11
4.0940062908
 21
1.8841090846
 31
0.0
 11
4.0587968962
 21
1.8829273686
 31
0.0
 11
4.0221111509
 21
1.8817460212
 31
0.0
 11
3.9845892186
 21
1.8805645406
 31
0.0
 11
3.9469041512
 21
1.8793830806
 31
0.0
 11
3.9097275387
 21
1.8782016281
 31
0.0
 11
3.8737213593
 21
1.8770201686
 31
0.0
 11
3.8563590413
 21
1.87642944
 31
0.0
 11
3.8395275778
 21
1.8758387116
 31
0.0
 11
3.8233028966
 21
1.875247983
 31
0.0
 11
3.8077562037
 21
1.8746572541
 31
0.0
 11
3.7929576124
 21
1.8740665253
 31
0.0
 11
3.7789733531
 21
1.8734757965
 31
0.0
 11
3.7658646225
 21
1.8728850677
 31
0.0
 11
3.7536915099
 21
1.8722943389
 31
0.0
 11
3.742507244
 21
1.8717036101
 31
0.0
 11
3.7323614593
 21
1.8711128813
 31
0.0
 11
3.7276930696
 21
1.8708175168
 31
0.0
 11
3.7233010218
 21
1.8705221524
 31
0.0
 11
3.719189914
 21
1.870226788
 31
0.0
 11
3.7153643446
 21
1.8699314236
 31
0.0
 11
3.7118289118
 21
1.8696360591
 31
0.0
 11
3.708588029
 21
1.8693406947
 31
0.0
 11
3.7056449772
 21
1.8690453303
 31
0.0
 11
3.7030026088
 21
1.8687499658
 31
0.0
 11
3.7006637753
 21
1.8684546014
 31
0.0
 11
3.6996090753
 21
1.8683069192
 31
0.0
 11
3.6986313284
 21
1.8681592369
 31
0.0
 11
3.697730891
 21
1.8680115547
 31
0.0
 11
3.6969080699
 21
1.8678638725
 31
0.0
 11
3.6961630208
 21
1.8677161903
 31
0.0
 11
3.6954958706
 21
1.867568508
 31
0.0
 11
3.6949067463
 21
1.8674208258
 31
0.0
 11
3.6943957746
 21
1.8672731436
 31
0.0
 11
3.6939630826
 21
1.8671254614
 31
0.0
 11
3.6937761311
 21
1.8670516203
 31
0.0
 11
3.6936087971
 21
1.8669777791
 31
0.0
 11
3.6934610964
 21
1.866903938
 31
0.0
 11
3.693333045
 21
1.8668300969
 31
0.0
 11
3.6932246587
 21
1.8667562558
 31
0.0
 11
3.6931359533
 21
1.8666824147
 31
0.0
 11
3.6930669448
 21
1.8666085736
 31
0.0
 11
3.6930176489
 21
1.8665347324
 31
0.0
 11
3.6929880816
 21
1.8664608913
 31
0.0
 11
3.6929782548
 21
1.8663870502
 31
0.0
  0
SPLINE
  5
2BB
100
AcDbEntity
  8
0
100
AcDbSpline
 62
6
  6
CONTINUOUS
 70
0
 71
3
 72
82
 73
78
 74
76
 42
0.0000001
 43
0.0000001
 44
0.0000000001
 12
-0.4896293535
 22
-0.2832926247
 32
0.0
 13
0.0002648787
 23
-0.5656779515
 33
0.0
 40
0.0
 40
0.0
 40
0.0
 40
0.0
 40
0.0004082657
 40
0.0008821109
 40
0.0014232892
 40
0.0020328721
 40
0.0027115566
 40
0.0034598055
 40
0.0042779259
 40
0.0051661181
 40
0.0071531135
 40
0.0094212676
 40
0.0119704676
 40
0.0148002921
 40
0.0179099969
 40
0.0212979369
 40
0.0249620847
 40
0.028900346
 40
0.0375905719
 40
0.0473511021
 40
0.0581610037
 40
0.0699937725
 40
0.0828222082
 40
0.0966186601
 40
0.1113508699
 40
0.126983364
 40
0.1434805648
 40
0.1608057267
 40
0.1977729213
 40
0.2375424874
 40
0.2797442538
 40
0.3239877759
 40
0.3698605422
 40
0.4169378002
 40
0.4647809856
 40
0.512946341
 40
0.5609857519
 40
0.6084532611
 40
0.654907283
 40
0.6999170513
 40
0.7430631326
 40
0.7839467201
 40
0.8221857512
 40
0.840202993
 40
0.8574284044
 40
0.8738211325
 40
0.8893448274
 40
0.9039638325
 40
0.917642728
 40
0.9303501593
 40
0.942058598
 40
0.9527407655
 40
0.9623705507
 40
0.966784411
 40
0.9709279509
 40
0.9747989875
 40
0.9783953761
 40
0.9817150242
 40
0.9847559311
 40
0.9875167379
 40
0.9899968243
 40
0.9921958182
 40
0.9941136961
 40
0.9949673963
 40
0.9957511079
 40
0.9964650775
 40
0.9971096797
 40
0.9976854787
 40
0.9981933303
 40
0.9986346086
 40
0.9990115412
 40
0.9993277228
 40
0.9994649316
 40
0.9995895841
 40
0.9998072107
 40
0.9999053068
 40
1.0
 40
1.0
 40
1.0
 40
1.0
 10
4.2574237455
 20
1.9492479697
 30
0.0
 10
4.2573571126
 20
1.9492094168
 30
0.0
 10
4.2572088881
 20
1.9491334502
 30
0.0
 10
4.2569621047
 20
1.9490276558
 30
0.0
 10
4.2566745436
 20
1.9489217344
 30
0.0
 10
4.2563462101
 20
1.948815701
 30
0.0
 10
4.2559771061
 20
1.948709571
 30
0.0
 10
4.2555672783
 20
1.9486033649
 30
0.0
 10
4.2551167823
 20
1.94849709
 30
0.0
 10
4.2544361059
 20
1.9483497538
 30
0.0
 10
4.2534834061
 20
1.948167568
 30
0.0
 10
4.2522178882
 20
1.9479558727
 30
0.0
 10
4.2507915427
 20
1.9477438837
 30
0.0
 10
4.2492050009
 20
1.9475316529
 30
0.0
 10
4.2474590545
 20
1.9473192738
 30
0.0
 10
4.2455547491
 20
1.9471067581
 30
0.0
 10
4.2434933334
 20
1.94689412
 30
0.0
 10
4.240435222
 20
1.9466007627
 30
0.0
 10
4.2362291368
 20
1.9462373926
 30
0.0
 10
4.2307280017
 20
1.9458137128
 30
0.0
 10
4.2246327661
 20
1.9453896098
 30
0.0
 10
4.217957815
 20
1.9449650487
 30
0.0
 10
4.2107186988
 20
1.9445401629
 30
0.0
 10
4.2029320072
 20
1.9441150946
 30
0.0
 10
4.1946158601
 20
1.9436898544
 30
0.0
 10
4.1857898464
 20
1.943264437
 30
0.0
 10
4.176474378
 20
1.9428388808
 30
0.0
 10
4.1631389481
 20
1.9422587981
 30
0.0
 10
4.1454172837
 20
1.9415386571
 30
0.0
 10
4.1230063084
 20
1.9406912671
 30
0.0
 10
4.0992224186
 20
1.9398432275
 30
0.0
 10
4.0742870366
 20
1.9389947727
 30
0.0
 10
4.0484318376
 20
1.9381459522
 30
0.0
 10
4.0218975403
 20
1.9372969537
 30
0.0
 10
3.9949307425
 20
1.9364477956
 30
0.0
 10
3.9677824341
 20
1.9355986062
 30
0.0
 10
3.9407049974
 20
1.9347494209
 30
0.0
 10
3.9139504045
 20
1.9339003472
 30
0.0
 10
3.887767366
 20
1.9330514278
 30
0.0
 10
3.8623996018
 20
1.9322028156
 30
0.0
 10
3.8380827905
 20
1.9313545483
 30
0.0
 10
3.8150434576
 20
1.9305068794
 30
0.0
 10
3.7967409312
 20
1.9297875304
 30
0.0
 10
3.7828973749
 20
1.9292083997
 30
0.0
 10
3.7731703412
 20
1.9287827983
 30
0.0
 10
3.7639139571
 20
1.9283572617
 30
0.0
 10
3.7551495742
 20
1.927931863
 30
0.0
 10
3.7468975369
 20
1.9275066492
 30
0.0
 10
3.7391772721
 20
1.9270815947
 30
0.0
 10
3.7320066991
 20
1.9266567414
 30
0.0
 10
3.7254022303
 20
1.9262322396
 30
0.0
 10
3.7193793558
 20
1.9258081648
 30
0.0
 10
3.7147311384
 20
1.9254454304
 30
0.0
 10
3.7113142447
 20
1.9251530744
 30
0.0
 10
3.7089804129
 20
1.9249402918
 30
0.0
 10
3.7068013964
 20
1.9247275923
 30
0.0
 10
3.7047785131
 20
1.9245149866
 30
0.0
 10
3.7029130731
 20
1.9243025033
 30
0.0
 10
3.7012062767
 20
1.9240901554
 30
0.0
 10
3.6996590998
 20
1.9238779733
 30
0.0
 10
3.6982722657
 20
1.9236660555
 30
0.0
 10
3.697046391
 20
1.9234544546
 30
0.0
 10
3.696126882
 20
1.923272175
 30
0.0
 10
3.6954728947
 20
1.9231246529
 30
0.0
 10
3.6950424013
 20
1.9230184071
 30
0.0
 10
3.6946526076
 20
1.9229122375
 30
0.0
 10
3.6943035669
 20
1.9228061525
 30
0.0
 10
3.6939953085
 20
1.9227001733
 30
0.0
 10
3.6937278339
 20
1.9225943122
 30
0.0
 10
3.6935010282
 20
1.9224885625
 30
0.0
 10
3.6933147554
 20
1.9223828883
 30
0.0
 10
3.6931874528
 20
1.922290823
 30
0.0
 10
3.6931077761
 20
1.9222161729
 30
0.0
 10
3.6930482235
 20
1.9221481016
 30
0.0
 10
3.6930043489
 20
1.9220759447
 30
0.0
 10
3.6929824644
 20
1.9220013198
 30
0.0
 10
3.6929789129
 20
1.9219648739
 30
0.0
 10
3.6929789212
 20
1.9219470186
 30
0.0
 11
4.2574237455
 21
1.9492479697
 31
0.0
 11
4.2572188957
 21
1.9491413253
 31
0.0
 11
4.2569729801
 21
1.949034681
 31
0.0
 11
4.2566860233
 21
1.9489280366
 31
0.0
 11
4.2563581009
 21
1.9488213923
 31
0.0
 11
4.2559892932
 21
1.9487147479
 31
0.0
 11
4.2555796803
 21
1.9486081035
 31
0.0
 11
4.2551293425
 21
1.9485014592
 31
0.0
 11
4.2546383602
 21
1.9483948148
 31
0.0
 11
4.2535347828
 21
1.9481815261
 31
0.0
 11
4.2522695902
 21
1.9479682374
 31
0.0
 11
4.2508434247
 21
1.9477549487
 31
0.0
 11
4.2492569283
 21
1.94754166
 31
0.0
 11
4.2475108151
 21
1.9473283712
 31
0.0
 11
4.2456062375
 21
1.9471150825
 31
0.0
 11
4.2435445128
 21
1.9469017938
 31
0.0
 11
4.2413269587
 21
1.9466885051
 31
0.0
 11
4.2364296322
 21
1.9462619277
 31
0.0
 11
4.2309248182
 21
1.9458353502
 31
0.0
 11
4.2248247917
 21
1.9454087728
 31
0.0
 11
4.2181448613
 21
1.9449821954
 31
0.0
 11
4.2109006459
 21
1.944555618
 31
0.0
 11
4.2031079632
 21
1.9441290406
 31
0.0
 11
4.1947852009
 21
1.9437024631
 31
0.0
 11
4.1859525375
 21
1.9432758857
 31
0.0
 11
4.1766301885
 21
1.9428493083
 31
0.0
 11
4.1668390134
 21
1.9424227309
 31
0.0
 11
4.145944895
 21
1.9415695761
 31
0.0
 11
4.123464309
 21
1.9407164213
 31
0.0
 11
4.0996069474
 21
1.9398632665
 31
0.0
 11
4.0745939053
 21
1.9390101117
 31
0.0
 11
4.0486587188
 21
1.938156957
 31
0.0
 11
4.0220418186
 21
1.9373038022
 31
0.0
 11
3.9949914312
 21
1.9364506474
 31
0.0
 11
3.9677587093
 21
1.9355974927
 31
0.0
 11
3.9405972665
 21
1.934744338
 31
0.0
 11
3.9137594974
 21
1.9338911833
 31
0.0
 11
3.8874953317
 21
1.9330380285
 31
0.0
 11
3.8620485932
 21
1.9321848739
 31
0.0
 11
3.8376567195
 21
1.9313317192
 31
0.0
 11
3.8145455147
 21
1.9304785645
 31
0.0
 11
3.7929313669
 21
1.9296254099
 31
0.0
 11
3.7827483403
 21
1.9291988325
 31
0.0
 11
3.7730136457
 21
1.9287722552
 31
0.0
 11
3.7637504567
 21
1.9283456779
 31
0.0
 11
3.7549794109
 21
1.9279191006
 31
0.0
 11
3.7467207707
 21
1.9274925233
 31
0.0
 11
3.7389946875
 21
1.927065946
 31
0.0
 11
3.7318190414
 21
1.9266393687
 31
0.0
 11
3.7252095865
 21
1.9262127914
 31
0.0
 11
3.719181995
 21
1.9257862141
 31
0.0
 11
3.7137513653
 21
1.9253596368
 31
0.0
 11
3.7112636683
 21
1.9251463481
 31
0.0
 11
3.7089294833
 21
1.9249330595
 31
0.0
 11
3.7067501352
 21
1.9247197709
 31
0.0
 11
3.7047269489
 21
1.9245064822
 31
0.0
 11
3.702861249
 21
1.9242931936
 31
0.0
 11
3.7011543492
 21
1.9240799049
 31
0.0
 11
3.6996072547
 21
1.9238666163
 31
0.0
 11
3.6982206324
 21
1.9236533277
 31
0.0
 11
3.696995132
 21
1.923440039
 31
0.0
 11
3.6959314032
 21
1.9232267504
 31
0.0
 11
3.6954604062
 21
1.9231201061
 31
0.0
 11
3.6950300957
 21
1.9230134618
 31
0.0
 11
3.694640553
 21
1.9229068174
 31
0.0
 11
3.6942918592
 21
1.9228001731
 31
0.0
 11
3.6939840956
 21
1.9226935288
 31
0.0
 11
3.6937173428
 21
1.9225868845
 31
0.0
 11
3.6934916487
 21
1.9224802402
 31
0.0
 11
3.6933070117
 21
1.9223735959
 31
0.0
 11
3.6931634261
 21
1.9222669516
 31
0.0
 11
3.6931070258
 21
1.9222136294
 31
0.0
 11
3.6930608863
 21
1.9221603072
 31
0.0
 11
3.6929993866
 21
1.9220536629
 31
0.0
 11
3.692984025
 21
1.9220003408
 31
0.0
 11
3.6929789212
 21
1.9219470186
 31
0.0
  0
SPLINE
  5
2BC
100
AcDbEntity
  8
0
100
AcDbSpline
 62
6
  6
CONTINUOUS
 70
0
 71
3
 72
35
 73
31
 74
29
 42
0.0000001
 43
0.0000001
 44
0.0000000001
 12
-0.1131738645
 22
-0.0654639185
 32
0.0
 13
-0.1306534803
 23
-0.0048493625
 33
0.0
 40
0.0
 40
0.0
 40
0.0
 40
0.0
 40
0.0022128288
 40
0.0048570012
 40
0.0079448541
 40
0.0114839855
 40
0.0154793247
 40
0.0199338034
 40
0.0248486089
 40
0.0302241743
 40
0.0360604693
 40
0.0423571368
 40
0.0563288796
 40
0.0721329991
 40
0.0897611574
 40
0.1092034233
 40
0.1304436929
 40
0.1534622371
 40
0.178238955
 40
0.2047535062
 40
0.2329853738
 40
0.294509197
 40
0.3625848352
 40
0.4369680954
 40
0.5174088162
 40
0.6036302231
 40
0.6953470882
 40
0.7922527944
 40
0.8939462624
 40
1.0
 40
1.0
 40
1.0
 40
1.0
 10
4.2574232269
 20
1.8936879714
 30
0.0
 10
4.2573397487
 20
1.8936396845
 30
0.0
 10
4.2571498637
 20
1.8935452268
 30
0.0
 10
4.2568286394
 20
1.8934154888
 30
0.0
 10
4.2564458991
 20
1.8932854678
 30
0.0
 10
4.2560015614
 20
1.8931552276
 30
0.0
 10
4.2554955277
 20
1.8930248165
 30
0.0
 10
4.2549278445
 20
1.8928942787
 30
0.0
 10
4.2542986278
 20
1.89276363
 30
0.0
 10
4.2536080446
 20
1.8926328966
 30
0.0
 10
4.2528562744
 20
1.8925020886
 30
0.0
 10
4.2517330373
 20
1.8923212723
 30
0.0
 10
4.2501768658
 20
1.8920974092
 30
0.0
 10
4.2481273878
 20
1.8918367593
 30
0.0
 10
4.2458378251
 20
1.8915757914
 30
0.0
 10
4.243309999
 20
1.891314598
 30
0.0
 10
4.2405461356
 20
1.8910532196
 30
0.0
 10
4.2375488552
 20
1.8907916777
 30
0.0
 10
4.2343209193
 20
1.890530011
 30
0.0
 10
4.2308650962
 20
1.8902682335
 30
0.0
 10
4.2258106618
 20
1.8899087038
 30
0.0
 10
4.2189465921
 20
1.8894628274
 30
0.0
 10
4.2100720689
 20
1.8889411794
 30
0.0
 10
4.2003718583
 20
1.888419019
 30
0.0
 10
4.1898798011
 20
1.8878965569
 30
0.0
 10
4.178631475
 20
1.88737373
 30
0.0
 10
4.1666648776
 20
1.8868505479
 30
0.0
 10
4.1540233897
 20
1.8863272137
 30
0.0
 10
4.1407565793
 20
1.8858038261
 30
0.0
 10
4.1317091761
 20
1.8854618007
 30
0.0
 10
4.1270904128
 20
1.8852903697
 30
0.0
 11
4.2574232269
 21
1.8936879714
 31
0.0
 11
4.2571653796
 21
1.8935567588
 31
0.0
 11
4.25684554
 21
1.8934255462
 31
0.0
 11
4.2564637412
 21
1.8932943336
 31
0.0
 11
4.2560200168
 21
1.8931631209
 31
0.0
 11
4.2555144005
 21
1.8930319081
 31
0.0
 11
4.2549469802
 21
1.8929006953
 31
0.0
 11
4.2543179409
 21
1.8927694825
 31
0.0
 11
4.253627478
 21
1.8926382696
 31
0.0
 11
4.2528757868
 21
1.8925070568
 31
0.0
 11
4.2520630627
 21
1.892375844
 31
0.0
 11
4.2502552971
 21
1.8921134187
 31
0.0
 11
4.2482057443
 21
1.8918509939
 31
0.0
 11
4.2459159668
 21
1.8915885699
 31
0.0
 11
4.2433876002
 21
1.8913261467
 31
0.0
 11
4.2406230012
 21
1.891063724
 31
0.0
 11
4.2376249406
 21
1.8908013009
 31
0.0
 11
4.2343961942
 21
1.8905388767
 31
0.0
 11
4.2309395377
 21
1.8902764504
 31
0.0
 11
4.2272577469
 21
1.8900140213
 31
0.0
 11
4.2192310526
 21
1.8894891552
 31
0.0
 11
4.2103460981
 21
1.8889642955
 31
0.0
 11
4.2006351464
 21
1.8884394664
 31
0.0
 11
4.1901311508
 21
1.8879146771
 31
0.0
 11
4.1788704903
 21
1.8873898605
 31
0.0
 11
4.1668906067
 21
1.8868649261
 31
0.0
 11
4.1542317061
 21
1.8863398473
 31
0.0
 11
4.1409463196
 21
1.8858148825
 31
0.0
 11
4.1270904128
 21
1.8852903697
 31
0.0
  0
SPLINE
  5
2BD
100
AcDbEntity
  8
0
100
AcDbSpline
 62
6
  6
CONTINUOUS
 70
0
 71
3
 72
47
 73
43
 74
41
 42
0.0000001
 43
0.0000001
 44
0.0000000001
 12
-0.433975248
 22
-0.0161075181
 32
0.0
 13
-0.3760289829
 23
-0.2172467998
 33
0.0
 40
0.0
 40
0.0
 40
0.0
 40
0.0
 40
0.0364381084
 40
0.0742321516
 40
0.1531477994
 40
0.2353602404
 40
0.3195114236
 40
0.4041686954
 40
0.4878994751
 40
0.5692894785
 40
0.6086732573
 40
0.6469607562
 40
0.6839879187
 40
0.719599239
 40
0.7536450961
 40
0.7859785894
 40
0.8164660271
 40
0.8449780294
 40
0.8713919668
 40
0.8956005495
 40
0.9174992797
 40
0.9275529889
 40
0.9369965118
 40
0.9458202685
 40
0.9540147357
 40
0.961570535
 40
0.9684801213
 40
0.9747379271
 40
0.9803386935
 40
0.9852775044
 40
0.9874973204
 40
0.9895500882
 40
0.9914355183
 40
0.9931537531
 40
0.9947051608
 40
0.9954184974
 40
0.9960903802
 40
0.9973102963
 40
0.9983664896
 40
0.9992615056
 40
0.9996499422
 40
1.0
 40
1.0
 40
1.0
 40
1.0
 10
4.1270904128
 20
1.8714003697
 30
0.0
 10
4.1218193338
 20
1.8712047272
 30
0.0
 10
4.1110807155
 20
1.8708145614
 30
0.0
 10
4.0889249563
 20
1.8700376386
 30
0.0
 10
4.0601454986
 20
1.8690738539
 30
0.0
 10
4.0246576989
 20
1.8679325589
 30
0.0
 10
3.9883383484
 20
1.8667908823
 30
0.0
 10
3.951799104
 20
1.8656490705
 30
0.0
 10
3.9156597525
 20
1.8645074408
 30
0.0
 10
3.886071671
 20
1.8635464066
 30
0.0
 10
3.8630592945
 20
1.8627721051
 30
0.0
 10
3.8464657055
 20
1.8621978519
 30
0.0
 10
3.8304185441
 20
1.8616236747
 30
0.0
 10
3.8149857968
 20
1.8610496192
 30
0.0
 10
3.8002329766
 20
1.8604757748
 30
0.0
 10
3.7862224617
 20
1.8599020605
 30
0.0
 10
3.7730137116
 20
1.859328641
 30
0.0
 10
3.7606627052
 20
1.8587555833
 30
0.0
 10
3.7492216414
 20
1.8581828688
 30
0.0
 10
3.7387391675
 20
1.8576107949
 30
0.0
 10
3.7306240606
 20
1.857121833
 30
0.0
 10
3.7246446348
 20
1.8567275304
 30
0.0
 10
3.7205549976
 20
1.8564403974
 30
0.0
 10
3.716735197
 20
1.8561533895
 30
0.0
 10
3.7131894721
 20
1.855866531
 30
0.0
 10
3.7099217998
 20
1.8555798288
 30
0.0
 10
3.7069356263
 20
1.8552933152
 30
0.0
 10
3.7042338443
 20
1.8550071164
 30
0.0
 10
3.7018190771
 20
1.8547212976
 30
0.0
 10
3.6999883387
 20
1.8544756812
 30
0.0
 10
3.698669746
 20
1.8542771805
 30
0.0
 10
3.6977899175
 20
1.8541337201
 30
0.0
 10
3.6969837202
 20
1.8539903385
 30
0.0
 10
3.6962513258
 20
1.8538470519
 30
0.0
 10
3.6956878561
 20
1.8537245759
 30
0.0
 10
3.6952743296
 20
1.8536259913
 30
0.0
 10
3.6949088193
 20
1.8535331312
 30
0.0
 10
3.6944977273
 20
1.8534181921
 30
0.0
 10
3.6940611899
 20
1.8532757332
 30
0.0
 10
3.6937454831
 20
1.8531521969
 30
0.0
 10
3.6935313021
 20
1.8530518133
 30
0.0
 10
3.693436918
 20
1.8530014593
 30
0.0
 10
3.6933930407
 20
1.8529761096
 30
0.0
 11
4.1270904128
 21
1.8714003697
 31
0.0
 11
4.1112767523
 21
1.8708249613
 31
0.0
 11
4.0948738868
 21
1.8702490399
 31
0.0
 11
4.0606222276
 21
1.8690972476
 31
0.0
 11
4.0249380674
 21
1.8679458421
 31
0.0
 11
3.9884115376
 21
1.8667943087
 31
0.0
 11
3.9516651179
 21
1.8656427853
 31
0.0
 11
3.9153212488
 21
1.8644912754
 31
0.0
 11
3.8799944434
 21
1.8633397571
 31
0.0
 11
3.8629007832
 21
1.8627639989
 31
0.0
 11
3.8462834867
 21
1.8621882411
 31
0.0
 11
3.8302138612
 21
1.8616124832
 31
0.0
 11
3.8147595095
 21
1.861036725
 31
0.0
 11
3.7999854913
 21
1.8604609668
 31
0.0
 11
3.7859557027
 21
1.8598852085
 31
0.0
 11
3.7727283238
 21
1.8593094504
 31
0.0
 11
3.7603596939
 21
1.8587336922
 31
0.0
 11
3.7489032645
 21
1.858157934
 31
0.0
 11
3.7384058824
 21
1.8575821758
 31
0.0
 11
3.7289132765
 21
1.8570064175
 31
0.0
 11
3.7245567124
 21
1.8567185384
 31
0.0
 11
3.7204657517
 21
1.8564306593
 31
0.0
 11
3.716644652
 21
1.8561427802
 31
0.0
 11
3.7130976705
 21
1.855854901
 31
0.0
 11
3.7098290356
 21
1.8555670219
 31
0.0
 11
3.7068422227
 21
1.8552791428
 31
0.0
 11
3.7041399106
 21
1.8549912636
 31
0.0
 11
3.7017247395
 21
1.8547033845
 31
0.0
 11
3.6995993497
 21
1.8544155054
 31
0.0
 11
3.6986461478
 21
1.8542715658
 31
0.0
 11
3.6977663813
 21
1.8541276262
 31
0.0
 11
3.696960339
 21
1.8539836866
 31
0.0
 11
3.6962281689
 21
1.8538397471
 31
0.0
 11
3.6955699882
 21
1.8536958075
 31
0.0
 11
3.6952686807
 21
1.8536238377
 31
0.0
 11
3.6949859146
 21
1.8535518679
 31
0.0
 11
3.6944760656
 21
1.8534079283
 31
0.0
 11
3.6940405586
 21
1.8532639888
 31
0.0
 11
3.6936795111
 21
1.8531200492
 31
0.0
 11
3.6935269464
 21
1.8530480794
 31
0.0
 11
3.6933930407
 21
1.8529761096
 31
0.0
  0
SPLINE
  5
2BE
100
AcDbEntity
  8
0
100
AcDbSpline
 62
6
  6
CONTINUOUS
 70
0
 71
3
 72
82
 73
78
 74
76
 42
0.0000001
 43
0.0000001
 44
0.0000000001
 12
0.000204141
 22
-0.5656779903
 32
0.0
 13
-0.4897616118
 23
-0.2830639397
 33
0.0
 40
0.0
 40
0.0
 40
0.0
 40
0.0
 40
0.0000946941
 40
0.0001927925
 40
0.0004104249
 40
0.0005350792
 40
0.0006722881
 40
0.0009884629
 40
0.0013653761
 40
0.0018066195
 40
0.0023144234
 40
0.0028901916
 40
0.0035347825
 40
0.0042487571
 40
0.0050324865
 40
0.0058862137
 40
0.0078041579
 40
0.0100032097
 40
0.0124833147
 40
0.0152440705
 40
0.0182848496
 40
0.02160445
 40
0.0252008745
 40
0.0290719911
 40
0.0332156156
 40
0.0376295253
 40
0.047259147
 40
0.0579412178
 40
0.0696498371
 40
0.0823573554
 40
0.0960359811
 40
0.1106550171
 40
0.1261789159
 40
0.1425716242
 40
0.1597967791
 40
0.1778141454
 40
0.2160531886
 40
0.2569368116
 40
0.3000827789
 40
0.3450926769
 40
0.391546567
 40
0.4390141795
 40
0.4870535176
 40
0.535218891
 40
0.5830620721
 40
0.6301393135
 40
0.6760120541
 40
0.7202557041
 40
0.762457231
 40
0.8022272136
 40
0.8391938334
 40
0.8565191451
 40
0.873016894
 40
0.8886489748
 40
0.9033807582
 40
0.9171778001
 40
0.9300064925
 40
0.9418386219
 40
0.9526482903
 40
0.9624097585
 40
0.97109979
 40
0.9750376558
 40
0.9787014589
 40
0.9820892914
 40
0.9851993113
 40
0.9880297691
 40
0.9905792127
 40
0.9928471855
 40
0.9948337813
 40
0.995721756
 40
0.9965396811
 40
0.9972877819
 40
0.9979663902
 40
0.9985759922
 40
0.9991173067
 40
0.9995914164
 40
1.0
 40
1.0
 40
1.0
 40
1.0
 10
4.2578375118
 20
1.9913970534
 30
0.0
 10
4.2578375183
 20
1.9913791979
 30
0.0
 10
4.257833963
 20
1.9913427519
 30
0.0
 10
4.2578120718
 20
1.9912681272
 30
0.0
 10
4.2577681933
 20
1.991195971
 30
0.0
 10
4.2577086388
 20
1.9911278994
 30
0.0
 10
4.2576289628
 20
1.99105325
 30
0.0
 10
4.2575016661
 20
1.9909611853
 30
0.0
 10
4.2573154067
 20
1.990855511
 30
0.0
 10
4.2570886225
 20
1.9907497607
 30
0.0
 10
4.2568211722
 20
1.9906438961
 30
0.0
 10
4.2565129313
 20
1.9905379176
 30
0.0
 10
4.2561638977
 20
1.9904318332
 30
0.0
 10
4.2557741016
 20
1.9903256641
 30
0.0
 10
4.2553435985
 20
1.9902194186
 30
0.0
 10
4.2546895897
 20
1.9900718967
 30
0.0
 10
4.2537700514
 20
1.9898896183
 30
0.0
 10
4.2525441491
 20
1.9896780185
 30
0.0
 10
4.25115731
 20
1.9894661014
 30
0.0
 10
4.2496101635
 20
1.9892539195
 30
0.0
 10
4.247903411
 20
1.9890415649
 30
0.0
 10
4.2460379973
 20
1.9888290828
 30
0.0
 10
4.2440151009
 20
1.9886164784
 30
0.0
 10
4.2418360462
 20
1.9884037802
 30
0.0
 10
4.2395021738
 20
1.9881909984
 30
0.0
 10
4.2360852852
 20
1.9878986469
 30
0.0
 10
4.2314371083
 20
1.9875359041
 30
0.0
 10
4.2254142488
 20
1.9871118264
 30
0.0
 10
4.218809747
 20
1.9866873325
 30
0.0
 10
4.2116391741
 20
1.986262484
 30
0.0
 10
4.2039189384
 20
1.9858374163
 30
0.0
 10
4.1956669073
 20
1.9854122066
 30
0.0
 10
4.1869024834
 20
1.9849868133
 30
0.0
 10
4.1776461127
 20
1.9845612771
 30
0.0
 10
4.1679191078
 20
1.9841356658
 30
0.0
 10
4.1540755734
 20
1.9835565459
 30
0.0
 10
4.1357730144
 20
1.9828371902
 30
0.0
 10
4.1127336932
 20
1.9819895261
 30
0.0
 10
4.0884168719
 20
1.9811412522
 30
0.0
 10
4.0630491287
 20
1.9802926476
 30
0.0
 10
4.0368660708
 20
1.9794437208
 30
0.0
 10
4.0101114962
 20
1.9785946531
 30
0.0
 10
3.9830340498
 20
1.9777454639
 30
0.0
 10
3.9558857518
 20
1.9768962763
 30
0.0
 10
3.928918954
 20
1.9760471176
 30
0.0
 10
3.9023846647
 20
1.9751981199
 30
0.0
 10
3.8765294491
 20
1.9743492957
 30
0.0
 10
3.851594092
 20
1.9735008506
 30
0.0
 10
3.8278101449
 20
1.9726527927
 30
0.0
 10
3.805399243
 20
1.9718054306
 30
0.0
 10
3.7876775807
 20
1.9710852657
 30
0.0
 10
3.7743421273
 20
1.9705051828
 30
0.0
 10
3.7650266039
 20
1.9700796499
 30
0.0
 10
3.7562006456
 20
1.9696542186
 30
0.0
 10
3.7478845466
 20
1.9692289581
 30
0.0
 10
3.7400977741
 20
1.9688039135
 30
0.0
 10
3.7328586178
 20
1.9683790407
 30
0.0
 10
3.7261837842
 20
1.9679544575
 30
0.0
 10
3.7200885385
 20
1.9675303246
 30
0.0
 10
3.7145873018
 20
1.9671067089
 30
0.0
 10
3.7103811517
 20
1.9667433231
 30
0.0
 10
3.7073232186
 20
1.9664499509
 30
0.0
 10
3.7052619642
 20
1.966237307
 30
0.0
 10
3.7033576856
 20
1.9660247838
 30
0.0
 10
3.7016115799
 20
1.965812402
 30
0.0
 10
3.7000248072
 20
1.9656002028
 30
0.0
 10
3.6985983282
 20
1.9653882177
 30
0.0
 10
3.6973328755
 20
1.9651765166
 30
0.0
 10
3.6963803305
 20
1.9649943217
 30
0.0
 10
3.6956998117
 20
1.9648469812
 30
0.0
 10
3.6952494248
 20
1.9647407044
 30
0.0
 10
3.6948396794
 20
1.964634496
 30
0.0
 10
3.6944706167
 20
1.964528363
 30
0.0
 10
3.6941422689
 20
1.9644223258
 30
0.0
 10
3.6938546259
 20
1.9643163989
 30
0.0
 10
3.6936076945
 20
1.9642106083
 30
0.0
 10
3.6934593413
 20
1.9641346535
 30
0.0
 10
3.6933926384
 20
1.9640961017
 30
0.0
 11
4.2578375118
 21
1.9913970534
 31
0.0
 11
4.2578324027
 21
1.9913437312
 31
0.0
 11
4.2578170363
 21
1.9912904091
 31
0.0
 11
4.25775553
 21
1.9911837648
 31
0.0
 11
4.257709389
 21
1.9911304426
 31
0.0
 11
4.2576529886
 21
1.9910771204
 31
0.0
 11
4.2575094079
 21
1.9909704761
 31
0.0
 11
4.2573247835
 21
1.9908638318
 31
0.0
 11
4.2570991113
 21
1.9907571875
 31
0.0
 11
4.2568323875
 21
1.9906505432
 31
0.0
 11
4.2565246423
 21
1.9905438988
 31
0.0
 11
4.2561759552
 21
1.9904372545
 31
0.0
 11
4.2557864095
 21
1.9903306102
 31
0.0
 11
4.2553560887
 21
1.9902239659
 31
0.0
 11
4.254885076
 21
1.9901173215
 31
0.0
 11
4.2538213089
 21
1.9899040329
 31
0.0
 11
4.2525957753
 21
1.9896907442
 31
0.0
 11
4.2512091423
 21
1.9894774556
 31
0.0
 11
4.2496620769
 21
1.989264167
 31
0.0
 11
4.2479552498
 21
1.9890508783
 31
0.0
 11
4.2460895771
 21
1.9888375897
 31
0.0
 11
4.2440663703
 21
1.988624301
 31
0.0
 11
4.2418869767
 21
1.9884110123
 31
0.0
 11
4.2395527436
 21
1.9881977237
 31
0.0
 11
4.2370650185
 21
1.987984435
 31
0.0
 11
4.2316344815
 21
1.9875578577
 31
0.0
 11
4.2256069446
 21
1.9871312804
 31
0.0
 11
4.2189973871
 21
1.9867047031
 31
0.0
 11
4.2118216916
 21
1.9862781258
 31
0.0
 11
4.2040957611
 21
1.9858515485
 31
0.0
 11
4.1958371031
 21
1.9854249711
 31
0.0
 11
4.1870659417
 21
1.9849983938
 31
0.0
 11
4.1778027637
 21
1.9845718165
 31
0.0
 11
4.1680682141
 21
1.9841452391
 31
0.0
 11
4.1578851168
 21
1.9837186618
 31
0.0
 11
4.1362709615
 21
1.9828655071
 31
0.0
 11
4.1131597361
 21
1.9820123524
 31
0.0
 11
4.0887679264
 21
1.9811591977
 31
0.0
 11
4.0633211139
 21
1.980306043
 31
0.0
 11
4.0370570222
 21
1.9794528883
 31
0.0
 11
4.0102191939
 21
1.9785997335
 31
0.0
 11
3.9830577917
 21
1.9777465788
 31
0.0
 11
3.9558250589
 21
1.976893424
 31
0.0
 11
3.9287746733
 21
1.9760402693
 31
0.0
 11
3.9021577819
 21
1.9751871145
 31
0.0
 11
3.8762226092
 21
1.9743339597
 31
0.0
 11
3.8512094942
 21
1.9734808049
 31
0.0
 11
3.8273522676
 21
1.9726276501
 31
0.0
 11
3.8048714453
 21
1.9717744953
 31
0.0
 11
3.7839776518
 21
1.9709213405
 31
0.0
 11
3.7741863917
 21
1.9704947631
 31
0.0
 11
3.764863732
 21
1.9700681856
 31
0.0
 11
3.7560313025
 21
1.9696416082
 31
0.0
 11
3.7477087815
 21
1.9692150308
 31
0.0
 11
3.7399157644
 21
1.9687884534
 31
0.0
 11
3.7326714034
 21
1.968361876
 31
0.0
 11
3.7259918352
 21
1.9679352986
 31
0.0
 11
3.7198919408
 21
1.9675087211
 31
0.0
 11
3.7143865945
 21
1.9670821437
 31
0.0
 11
3.7094893783
 21
1.9666555663
 31
0.0
 11
3.7072720488
 21
1.9664422776
 31
0.0
 11
3.7052105201
 21
1.9662289889
 31
0.0
 11
3.7033060037
 21
1.9660157002
 31
0.0
 11
3.7015597108
 21
1.9658024114
 31
0.0
 11
3.699972853
 21
1.9655891227
 31
0.0
 11
3.6985465481
 21
1.965375834
 31
0.0
 11
3.6972814595
 21
1.9651625453
 31
0.0
 11
3.6961781123
 21
1.9649492566
 31
0.0
 11
3.6956872559
 21
1.9648426122
 31
0.0
 11
3.6952370316
 21
1.9647359679
 31
0.0
 11
3.6948275052
 21
1.9646293235
 31
0.0
 11
3.6944587424
 21
1.9645226792
 31
0.0
 11
3.6941308086
 21
1.9644160348
 31
0.0
 11
3.6938437696
 21
1.9643093904
 31
0.0
 11
3.693597691
 21
1.9642027461
 31
0.0
 11
3.6933926384
 21
1.9640961017
 31
0.0
  0
SPLINE
  5
2BF
100
AcDbEntity
  8
0
100
AcDbSpline
 62
6
  6
CONTINUOUS
 70
0
 71
3
 72
82
 73
78
 74
76
 42
0.0000001
 43
0.0000001
 44
0.0000000001
 12
0.0003828171
 22
-0.5656779497
 32
0.0
 13
-0.4896350721
 23
-0.2832828718
 33
0.0
 40
0.0
 40
0.0
 40
0.0
 40
0.0
 40
0.0000946941
 40
0.0001928102
 40
0.0002974468
 40
0.0004111648
 40
0.0006730243
 40
0.0009896282
 40
0.0013669817
 40
0.0018085766
 40
0.0023165446
 40
0.0028922486
 40
0.0035365926
 40
0.0042501938
 40
0.0050334819
 40
0.0058867597
 40
0.0078040232
 40
0.0100030896
 40
0.0124840141
 40
0.0152457595
 40
0.0182869799
 40
0.0216061823
 40
0.0252017742
 40
0.0290720924
 40
0.0332154227
 40
0.0376298775
 40
0.0472611508
 40
0.0579424441
 40
0.0696497545
 40
0.0823582922
 40
0.0960379056
 40
0.1106557691
 40
0.1261789827
 40
0.1425730163
 40
0.1597983779
 40
0.1778145974
 40
0.2160547566
 40
0.256937205
 40
0.3000842347
 40
0.3450932214
 40
0.3915478029
 40
0.4390149316
 40
0.4870546084
 40
0.5352197119
 40
0.5830631888
 40
0.6301399927
 40
0.6760133647
 40
0.7202561069
 40
0.7624588035
 40
0.8022274089
 40
0.839195555
 40
0.8565196227
 40
0.8730171224
 40
0.888650513
 40
0.9033823162
 40
0.917177805
 40
0.9300070167
 40
0.9418405315
 40
0.9526493685
 40
0.9624095185
 40
0.971100796
 40
0.9750394388
 40
0.9787035027
 40
0.9820907445
 40
0.9851997556
 40
0.9880295057
 40
0.9905790957
 40
0.9928478238
 40
0.9948352987
 40
0.9957236091
 40
0.9965417218
 40
0.997289804
 40
0.9979681569
 40
0.9985773367
 40
0.9991181555
 40
0.9995917877
 40
1.0
 40
1.0
 40
1.0
 40
1.0
 10
4.2578382031
 20
1.935837028
 30
0.0
 10
4.2578382151
 20
1.9358191726
 30
0.0
 10
4.2578346604
 20
1.9357827231
 30
0.0
 10
4.2578187548
 20
1.9357286408
 30
0.0
 10
4.2577924216
 20
1.9356748142
 30
0.0
 10
4.2577411497
 20
1.9355998671
 30
0.0
 10
4.2576480662
 20
1.9355069498
 30
0.0
 10
4.2575016206
 20
1.9354011904
 30
0.0
 10
4.2573150247
 20
1.9352954988
 30
0.0
 10
4.257088064
 20
1.9351897628
 30
0.0
 10
4.2568205165
 20
1.9350838929
 30
0.0
 10
4.2565123111
 20
1.9349779059
 30
0.0
 10
4.2561634138
 20
1.9348718145
 30
0.0
 10
4.2557738269
 20
1.9347656402
 30
0.0
 10
4.2553435701
 20
1.9346593907
 30
0.0
 10
4.254689868
 20
1.9345118554
 30
0.0
 10
4.2537705482
 20
1.9343295524
 30
0.0
 10
4.252544615
 20
1.9341179572
 30
0.0
 10
4.2511574224
 20
1.9339060746
 30
0.0
 10
4.2496098443
 20
1.9336939176
 30
0.0
 10
4.2479028949
 20
1.9334815682
 30
0.0
 10
4.2460376331
 20
1.9332690672
 30
0.0
 10
4.2440151226
 20
1.933056449
 30
0.0
 10
4.2418364336
 20
1.9328437391
 30
0.0
 10
4.2395026652
 20
1.9326309496
 30
0.0
 10
4.2360854148
 20
1.9323386143
 30
0.0
 10
4.2314369638
 20
1.9319759408
 30
0.0
 10
4.2254141905
 20
1.9315518043
 30
0.0
 10
4.2188098929
 20
1.9311272571
 30
0.0
 10
4.2116391841
 20
1.9307024622
 30
0.0
 10
4.2039187884
 20
1.9302774272
 30
0.0
 10
4.1956669234
 20
1.9298521685
 30
0.0
 10
4.1869026001
 20
1.9294267545
 30
0.0
 10
4.1776460663
 20
1.9290012692
 30
0.0
 10
4.167918988
 20
1.9285756567
 30
0.0
 10
4.1540754217
 20
1.9279964746
 30
0.0
 10
4.1357730849
 20
1.9272772083
 30
0.0
 10
4.1127335754
 20
1.926429459
 30
0.0
 10
4.0884169424
 20
1.9255812569
 30
0.0
 10
4.0630490399
 20
1.9247325941
 30
0.0
 10
4.0368661108
 20
1.9238837114
 30
0.0
 10
4.0101114318
 20
1.923034612
 30
0.0
 10
3.9830340604
 20
1.9221854457
 30
0.0
 10
3.9558856917
 20
1.9213362389
 30
0.0
 10
3.9289189684
 20
1.9204871016
 30
0.0
 10
3.9023845853
 20
1.9196380744
 30
0.0
 10
3.8765295005
 20
1.9187892934
 30
0.0
 10
3.8515939748
 20
1.9179407871
 30
0.0
 10
3.8278102329
 20
1.9170928113
 30
0.0
 10
3.8053990841
 20
1.9162453455
 30
0.0
 10
3.7876776224
 20
1.9155252891
 30
0.0
 10
3.7743421642
 20
1.9149451421
 30
0.0
 10
3.7650266751
 20
1.9145195971
 30
0.0
 10
3.75620051
 20
1.9140942098
 30
0.0
 10
3.7478844515
 20
1.913668963
 30
0.0
 10
3.7400978737
 20
1.9132438485
 30
0.0
 10
3.7328586495
 20
1.9128189921
 30
0.0
 10
3.7261836082
 20
1.9123944773
 30
0.0
 10
3.7200885076
 20
1.9119703194
 30
0.0
 10
3.7145874487
 20
1.9115466117
 30
0.0
 10
3.71038116
 20
1.9111832859
 30
0.0
 10
3.7073227918
 20
1.9108899371
 30
0.0
 10
3.7052614507
 20
1.9106773087
 30
0.0
 10
3.7033574269
 20
1.9104647747
 30
0.0
 10
3.7016117621
 20
1.9102523698
 30
0.0
 10
3.7000252919
 20
1.9100401424
 30
0.0
 10
3.6985987755
 20
1.9098281616
 30
0.0
 10
3.6973329798
 20
1.9096164776
 30
0.0
 10
3.6963800531
 20
1.9094343008
 30
0.0
 10
3.695699263
 20
1.9092869632
 30
0.0
 10
3.6952487769
 20
1.9091806919
 30
0.0
 10
3.6948390463
 20
1.9090744895
 30
0.0
 10
3.6944701204
 20
1.9089683544
 30
0.0
 10
3.6941420061
 20
1.9088623124
 30
0.0
 10
3.6938546456
 20
1.9087563788
 30
0.0
 10
3.6936079936
 20
1.9086505786
 30
0.0
 10
3.693459821
 20
1.9085746228
 30
0.0
 10
3.693393196
 20
1.9085360763
 30
0.0
 11
4.2578382031
 21
1.935837028
 31
0.0
 11
4.257833094
 21
1.9357837058
 31
0.0
 11
4.2578176917
 21
1.9357303837
 31
0.0
 11
4.2577919959
 21
1.9356770615
 31
0.0
 11
4.2577560125
 21
1.9356237393
 31
0.0
 11
4.2576532071
 21
1.9355170949
 31
0.0
 11
4.2575093241
 21
1.9354104506
 31
0.0
 11
4.2573244122
 21
1.9353038062
 31
0.0
 11
4.25709852
 21
1.9351971619
 31
0.0
 11
4.2568316962
 21
1.9350905175
 31
0.0
 11
4.2565239895
 21
1.9349838731
 31
0.0
 11
4.2561754484
 21
1.9348772288
 31
0.0
 11
4.2557861217
 21
1.9347705844
 31
0.0
 11
4.255356058
 21
1.9346639401
 31
0.0
 11
4.254885306
 21
1.9345572957
 31
0.0
 11
4.2538219316
 21
1.934344007
 31
0.0
 11
4.2525963894
 21
1.9341307183
 31
0.0
 11
4.2512092873
 21
1.9339174295
 31
0.0
 11
4.2496616566
 21
1.9337041408
 31
0.0
 11
4.2479545779
 21
1.9334908521
 31
0.0
 11
4.2460891316
 21
1.9332775634
 31
0.0
 11
4.2440663981
 21
1.9330642747
 31
0.0
 11
4.2418874581
 21
1.9328509859
 31
0.0
 11
4.239553392
 21
1.9326376972
 31
0.0
 11
4.2370653571
 21
1.9324244085
 31
0.0
 11
4.2316338825
 21
1.9319978311
 31
0.0
 11
4.225606786
 21
1.9315712536
 31
0.0
 11
4.2189979699
 21
1.9311446762
 31
0.0
 11
4.211821696
 21
1.9307180988
 31
0.0
 11
4.2040952052
 21
1.9302915214
 31
0.0
 11
4.1958372107
 21
1.9298649439
 31
0.0
 11
4.1870664365
 21
1.9294383665
 31
0.0
 11
4.1778025071
 21
1.9290117891
 31
0.0
 11
4.1680678396
 21
1.9285852117
 31
0.0
 11
4.1578853906
 21
1.9281586343
 31
0.0
 11
4.1362706017
 21
1.9273054794
 31
0.0
 11
4.113160039
 21
1.9264523246
 31
0.0
 11
4.0887676256
 21
1.9255991698
 31
0.0
 11
4.0633213266
 21
1.924746015
 31
0.0
 11
4.0370568412
 21
1.9238928603
 31
0.0
 11
4.0102192843
 21
1.9230397055
 31
0.0
 11
3.9830576878
 21
1.9221865507
 31
0.0
 11
3.9558251053
 21
1.921333396
 31
0.0
 11
3.9287745498
 21
1.9204802412
 31
0.0
 11
3.9021579035
 21
1.9196270865
 31
0.0
 11
3.8762223711
 21
1.9187739318
 31
0.0
 11
3.8512097676
 21
1.9179207771
 31
0.0
 11
3.8273518767
 21
1.9170676224
 31
0.0
 11
3.8048718319
 21
1.9162144677
 31
0.0
 11
3.7839771724
 21
1.9153613131
 31
0.0
 11
3.7741866157
 21
1.9149347357
 31
0.0
 11
3.7648640963
 21
1.9145081584
 31
0.0
 11
3.7560309242
 21
1.9140815811
 31
0.0
 11
3.7477083911
 21
1.9136550038
 31
0.0
 11
3.7399162532
 21
1.9132284265
 31
0.0
 11
3.7326715973
 21
1.9128018492
 31
0.0
 11
3.7259912432
 21
1.9123752719
 31
0.0
 11
3.7198918197
 21
1.9119486945
 31
0.0
 11
3.7143872207
 21
1.9115221173
 31
0.0
 11
3.7094892965
 21
1.91109554
 31
0.0
 11
3.7072715253
 21
1.9108822513
 31
0.0
 11
3.7052098481
 21
1.9106689627
 31
0.0
 11
3.7033056677
 21
1.910455674
 31
0.0
 11
3.7015599496
 21
1.9102423854
 31
0.0
 11
3.6999734955
 21
1.9100290967
 31
0.0
 11
3.6985471067
 21
1.9098158081
 31
0.0
 11
3.6972815847
 21
1.9096025195
 31
0.0
 11
3.696177731
 21
1.9093892308
 31
0.0
 11
3.6956866801
 21
1.9092825865
 31
0.0
 11
3.6952363468
 21
1.9091759422
 31
0.0
 11
3.6948268312
 21
1.9090692979
 31
0.0
 11
3.6944582187
 21
1.9089626535
 31
0.0
 11
3.694130536
 21
1.9088560092
 31
0.0
 11
3.6938437962
 21
1.9087493649
 31
0.0
 11
3.6935980119
 21
1.9086427206
 31
0.0
 11
3.693393196
 21
1.9085360763
 31
0.0
  0
SPLINE
  5
2C0
100
AcDbEntity
  8
0
100
AcDbSpline
 62
6
  6
CONTINUOUS
 70
0
 71
3
 72
41
 73
37
 74
35
 42
0.0000001
 43
0.0000001
 44
0.0000000001
 12
-0.0001365322
 22
-0.1314035325
 32
0.0
 13
-0.1313131852
 23
-0.0048738483
 33
0.0
 40
0.0
 40
0.0
 40
0.0
 40
0.0
 40
0.0005319378
 40
0.0010958321
 40
0.0017186069
 40
0.0024204262
 40
0.0032154483
 40
0.0041134211
 40
0.0051210981
 40
0.0062432437
 40
0.0088432348
 40
0.0119324087
 40
0.015521317
 40
0.019616516
 40
0.0242215484
 40
0.0293379609
 40
0.0349663916
 40
0.0411068859
 40
0.054922094
 40
0.0707779356
 40
0.0886657538
 40
0.108574887
 40
0.130487603
 40
0.1543812136
 40
0.1802324956
 40
0.2080179143
 40
0.2377137104
 40
0.269294199
 40
0.3379733952
 40
0.4137729604
 40
0.4964048875
 40
0.5855535601
 40
0.6808851188
 40
0.7820491791
 40
0.888588128
 40
1.0
 40
1.0
 40
1.0
 40
1.0
 10
4.2578376425
 20
1.8802770271
 30
0.0
 10
4.2578376183
 20
1.8802537276
 30
0.0
 10
4.2578313511
 20
1.8802055487
 30
0.0
 10
4.2578039495
 20
1.8801348119
 30
0.0
 10
4.2577590766
 20
1.8800647935
 30
0.0
 10
4.257697067
 20
1.8799953004
 30
0.0
 10
4.2576179924
 20
1.8799260681
 30
0.0
 10
4.2575218187
 20
1.8798569525
 30
0.0
 10
4.2574084967
 20
1.8797878646
 30
0.0
 10
4.2572252849
 20
1.8796909373
 30
0.0
 10
4.2569513532
 20
1.8795717609
 30
0.0
 10
4.2565686414
 20
1.8794345531
 30
0.0
 10
4.2561170723
 20
1.8792970741
 30
0.0
 10
4.2555966139
 20
1.8791593673
 30
0.0
 10
4.2550072748
 20
1.8790214888
 30
0.0
 10
4.2543492021
 20
1.8788834691
 30
0.0
 10
4.2536225814
 20
1.8787453323
 30
0.0
 10
4.2525184848
 20
1.8785534116
 30
0.0
 10
4.2509677494
 20
1.8783163844
 30
0.0
 10
4.2489027744
 20
1.8780412723
 30
0.0
 10
4.2465688559
 20
1.8777657197
 30
0.0
 10
4.2439680433
 20
1.8774898485
 30
0.0
 10
4.2411028644
 20
1.8772137354
 30
0.0
 10
4.2379763353
 20
1.8769374086
 30
0.0
 10
4.2345916677
 20
1.8766609191
 30
0.0
 10
4.2309520845
 20
1.8763843009
 30
0.0
 10
4.2270608888
 20
1.8761075746
 30
0.0
 10
4.2213813497
 20
1.875727833
 30
0.0
 10
4.2136840832
 20
1.875256748
 30
0.0
 10
4.2037516209
 20
1.8747052904
 30
0.0
 10
4.1929213323
 20
1.8741534273
 30
0.0
 10
4.1812345206
 20
1.8736011325
 30
0.0
 10
4.1687351577
 20
1.8730483819
 30
0.0
 10
4.155473391
 20
1.8724954216
 30
0.0
 10
4.1415067133
 20
1.87194237
 30
0.0
 10
4.1319670287
 20
1.8715813712
 30
0.0
 10
4.1270904128
 20
1.8714003697
 30
0.0
 11
4.2578376425
 21
1.8802770271
 31
0.0
 11
4.2578288936
 21
1.8802076783
 31
0.0
 11
4.2578027936
 21
1.8801383294
 31
0.0
 11
4.2577593462
 21
1.8800689806
 31
0.0
 11
4.2576985551
 21
1.8799996317
 31
0.0
 11
4.2576204241
 21
1.8799302828
 31
0.0
 11
4.2575249569
 21
1.8798609339
 31
0.0
 11
4.2574121572
 21
1.879791585
 31
0.0
 11
4.2572820288
 21
1.8797222361
 31
0.0
 11
4.2569698007
 21
1.8795835383
 31
0.0
 11
4.2565883024
 21
1.8794448403
 31
0.0
 11
4.2561375639
 21
1.8793061424
 31
0.0
 11
4.2556176215
 21
1.8791674443
 31
0.0
 11
4.2550286134
 21
1.8790287462
 31
0.0
 11
4.2543707606
 21
1.8788900481
 31
0.0
 11
4.2536442861
 21
1.87875135
 31
0.0
 11
4.2528494131
 21
1.8786126519
 31
0.0
 11
4.2510553638
 21
1.878335256
 31
0.0
 11
4.2489903976
 21
1.8780578606
 31
0.0
 11
4.2466562994
 21
1.8777804661
 31
0.0
 11
4.2440549154
 21
1.8775030725
 31
0.0
 11
4.2411888983
 21
1.8772256795
 31
0.0
 11
4.2380614696
 21
1.876948286
 31
0.0
 11
4.234675863
 21
1.8766708912
 31
0.0
 11
4.2310353119
 21
1.876393494
 31
0.0
 11
4.2271430499
 21
1.8761160936
 31
0.0
 11
4.2230025422
 21
1.8758386895
 31
0.0
 11
4.2139949183
 21
1.8752838827
 31
0.0
 11
4.2040500446
 21
1.8747291014
 31
0.0
 11
4.1932060914
 21
1.8741743678
 31
0.0
 11
4.1815047769
 21
1.8736196269
 31
0.0
 11
4.1689901607
 21
1.8730647725
 31
0.0
 11
4.1557084305
 21
1.8725097459
 31
0.0
 11
4.1417198316
 21
1.8719548121
 31
0.0
 11
4.1270904128
 21
1.8714003697
 31
0.0
  0
SPLINE
  5
2C1
100
AcDbEntity
  8
0
100
AcDbSpline
 62
6
  6
CONTINUOUS
 70
0
 71
3
 72
41
 73
37
 74
35
 42
0.0000001
 43
0.0000001
 44
0.0000000001
 12
0.2706788776
 22
0.1563376794
 32
0.0
 13
0.3124585625
 23
0.0088414663
 33
0.0
 40
0.0
 40
0.0
 40
0.0
 40
0.0
 40
0.0007343761
 40
0.0015964483
 40
0.0025896625
 40
0.0037162068
 40
0.0049775267
 40
0.0063746052
 40
0.0079081239
 40
0.0095785607
 40
0.0133313422
 40
0.0176345242
 40
0.0224872314
 40
0.0278872545
 40
0.0338320177
 40
0.0403187105
 40
0.047344362
 40
0.054905888
 40
0.0716228208
 40
0.0904323355
 40
0.1112903169
 40
0.1341521825
 40
0.1589702429
 40
0.1856858499
 40
0.2142376892
 40
0.2445642547
 40
0.2765984491
 40
0.3102649257
 40
0.3821898662
 40
0.4596950541
 40
0.5420813225
 40
0.6286017964
 40
0.7184670358
 40
0.8108867926
 40
0.905049657
 40
1.0
 40
1.0
 40
1.0
 40
1.0
 10
3.6632833793
 20
2.0022491667
 30
0.0
 10
3.6633496394
 20
2.0022874369
 30
0.0
 10
3.6634983031
 20
2.0023626399
 30
0.0
 10
3.663747365
 20
2.002466803
 30
0.0
 10
3.6640401448
 20
2.0025711335
 30
0.0
 10
3.664376668
 20
2.0026755969
 30
0.0
 10
3.6647569793
 20
2.0027801727
 30
0.0
 10
3.6651810708
 20
2.0028848353
 30
0.0
 10
3.6656489242
 20
2.002989575
 30
0.0
 10
3.6663590715
 20
2.0031350084
 30
0.0
 10
3.6673565896
 20
2.0033147122
 30
0.0
 10
3.6686854088
 20
2.0035232902
 30
0.0
 10
3.670187666
 20
2.0037321773
 30
0.0
 10
3.6718623887
 20
2.0039413337
 30
0.0
 10
3.6737085328
 20
2.0041506798
 30
0.0
 10
3.6757250291
 20
2.0043601722
 30
0.0
 10
3.677910803
 20
2.0045697872
 30
0.0
 10
3.6811596784
 20
2.0048591691
 30
0.0
 10
3.6856349827
 20
2.0052174218
 30
0.0
 10
3.6914951265
 20
2.0056349868
 30
0.0
 10
3.6979969575
 20
2.0060531056
 30
0.0
 10
3.7051259874
 20
2.0064716468
 30
0.0
 10
3.7128662986
 20
2.0068904148
 30
0.0
 10
3.7212002604
 20
2.0073094462
 30
0.0
 10
3.7301088427
 20
2.0077286924
 30
0.0
 10
3.7395721615
 20
2.0081480687
 30
0.0
 10
3.7495688867
 20
2.0085675384
 30
0.0
 10
3.7638973138
 20
2.0091396829
 30
0.0
 10
3.7829617922
 20
2.0098498618
 30
0.0
 10
3.8071013636
 20
2.0106852673
 30
0.0
 10
3.8327625405
 20
2.0115213031
 30
0.0
 10
3.8597121983
 20
2.0123577756
 30
0.0
 10
3.8877077622
 20
2.0131945828
 30
0.0
 10
3.916499955
 20
2.0140317283
 30
0.0
 10
3.9458222047
 20
2.0148689349
 30
0.0
 10
3.9655188851
 20
2.0154262803
 30
0.0
 10
3.9754082343
 20
2.0157061137
 30
0.0
 11
3.6632833793
 21
2.0022491667
 31
0.0
 11
3.6634874435
 21
2.0023542991
 31
0.0
 11
3.6637355585
 21
2.0024594316
 31
0.0
 11
3.6640276786
 21
2.002564564
 31
0.0
 11
3.6643637578
 21
2.0026696964
 31
0.0
 11
3.6647437505
 21
2.0027748288
 31
0.0
 11
3.6651676106
 21
2.0028799613
 31
0.0
 11
3.6656352925
 21
2.0029850937
 31
0.0
 11
3.6661467502
 21
2.0030902261
 31
0.0
 11
3.66730081
 21
2.0033004909
 31
0.0
 11
3.6686293785
 21
2.0035107558
 31
0.0
 11
3.6701316115
 21
2.0037210206
 31
0.0
 11
3.671806423
 21
2.0039312855
 31
0.0
 11
3.6736527243
 21
2.0041415503
 31
0.0
 11
3.6756694266
 21
2.0043518152
 31
0.0
 11
3.6778554412
 21
2.00456208
 31
0.0
 11
3.6802096794
 21
2.0047723449
 31
0.0
 11
3.6854181698
 21
2.0051928747
 31
0.0
 11
3.6912826579
 21
2.0056134044
 31
0.0
 11
3.6977889452
 21
2.0060339341
 31
0.0
 11
3.7049228061
 21
2.0064544636
 31
0.0
 11
3.7126691191
 21
2.006874993
 31
0.0
 11
3.7210093853
 21
2.0072955223
 31
0.0
 11
3.7299243098
 21
2.007716052
 31
0.0
 11
3.7393945654
 21
2.0081365823
 31
0.0
 11
3.7493990957
 21
2.0085571128
 31
0.0
 11
3.7599142795
 21
2.0089776429
 31
0.0
 11
3.7823811012
 21
2.0098186982
 31
0.0
 11
3.8065933507
 21
2.0106597537
 31
0.0
 11
3.832332211
 21
2.011500832
 31
0.0
 11
3.8593640135
 21
2.0123418959
 31
0.0
 11
3.8874418246
 21
2.0131828719
 31
0.0
 11
3.9163184811
 21
2.0140239558
 31
0.0
 11
3.9457402225
 21
2.0148653464
 31
0.0
 11
3.9754082343
 21
2.0157061137
 31
0.0
  0
ENDSEC
  0
SECTION
  2
OBJECTS
  0
DICTIONARY
  5
C
100
AcDbDictionary
280
0
281
1
  3
ACAD_GROUP
350
D
  3
ACAD_MLINESTYLE
350
17
  3
ACAD_LAYOUT
350
1A
  3
ACAD_PLOTSETTINGS
350
19
  3
ACAD_PLOTSTYLENAME
350
E
  0
DICTIONARY
  5
D
102
{ACAD_REACTORS
330
C
102
}
100
AcDbDictionary
280
0
281
1
  0
ACDBDICTIONARYWDFLT
  5
E
102
{ACAD_REACTORS
330
C
102
}
100
AcDbDictionary
281
1
  3
Normal
350
F
100
AcDbDictionaryWithDefault
340
F
  0
DICTIONARY
  5
17
102
{ACAD_REACTORS
330
C
102
}
100
AcDbDictionary
280
0
281
1
  3
Standard
350
18
  0
DICTIONARY
  5
19
102
{ACAD_REACTORS
330
C
102
}
100
AcDbDictionary
281
1
  0
DICTIONARY
  5
1A
102
{ACAD_REACTORS
330
C
102
}
100
AcDbDictionary
281
1
  3
Model
350
2C2
  3
Layout1
350
2C3
  0
ACDBPLACEHOLDER
  5
F
102
{ACAD_REACTORS
330
E
102
}
  0
MLINESTYLE
  5
18
102
{ACAD_REACTORS
330
17
102
}
100
AcDbMlineStyle
  2
STANDARD
 70
0
  3

 62
256
 51
90.0
 52
90.0
 71
2
 49
0.5
 62
256
  6
BYLAYER
 49
-0.5
 62
256
  6
BYLAYER
  0
LAYOUT
  5
2C2
102
{ACAD_REACTORS
330
1A
102
}
100
AcDbPlotSettings
  1

  2
none_device
  4

  6

 40
0.0
 41
0.0
 42
0.0
 43
0.0
 44
210.0
 45
297.0
 46
0.0
 47
0.0
 48
0.0
 49
0.0
140
0.0
141
0.0
142
1.0
143
1.0
 70
1024
 72
0
 73
0
 74
0
  7

 75
0
147
1.0
148
0.0
149
0.0
100
AcDbLayout
  1
Model
 70
0
 71
0
 10
0.0
 20
0.0
 11
8.2677165354
 21
11.6929133858
 12
0.0
 22
0.0
 32
0.0
 14
0.0
 24
0.0
 34
0.0
 15
0.0
 25
0.0
 35
0.0
146
0.0
 13
0.0
 23
0.0
 33
0.0
 16
1.0
 26
0.0
 36
0.0
 17
0.0
 27
1.0
 37
0.0
 76
0
330
203
345
0
346
0
  0
LAYOUT
  5
2C3
102
{ACAD_REACTORS
330
1A
102
}
100
AcDbPlotSettings
  1

  2
none_device
  4

  6

 40
0.0
 41
0.0
 42
0.0
 43
0.0
 44
210.0
 45
297.0
 46
0.0
 47
0.0
 48
0.0
 49
0.0
140
0.0
141
0.0
142
1.0
143
1.0
 70
0
 72
0
 73
0
 74
0
  7

 75
0
147
1.0
148
0.0
149
0.0
100
AcDbLayout
  1
Layout1
 70
0
 71
1
 10
0.0
 20
0.0
 11
8.2677165354
 21
11.6929133858
 12
0.0
 22
0.0
 32
0.0
 14
0.0
 24
0.0
 34
0.0
 15
0.0
 25
0.0
 35
0.0
146
0.0
 13
0.0
 23
0.0
 33
0.0
 16
1.0
 26
0.0
 36
0.0
 17
0.0
 27
1.0
 37
0.0
 76
0
330
204
345
0
346
0
  0
ENDSEC
  0
EOF
