  0
SECTION
  2
HEADER
  9
$ACADVER
  1
AC1015
  9
$DWGCODEPAGE
  3
ANSI_1252
  9
$EXTMAX
 10
16.5354330709
 20
11.6929133858
 30
0.0
  9
$EXTMIN
 10
0.0
 20
0.0
 30
0.0
  9
$LIMMIN
 10
0.0
 20
0.0
  9
$LIMMAX
 10
16.5354330709
 20
11.6929133858
  9
$VIEWCTR
 10
8.2677165354
 20
5.8464566929
  9
$VIEWSIZE
 40
11.6929133858
  9
$CLAYER
  8
0
  9
$LTSCALE
 40
0.9094488189
  9
$CELTYPE
  6
BYLAYER
  9
$DIMSCALE
 40
1.0
  9
$DIMASZ
 40
0.1
  9
$DIMEXO
 40
0.1033464567
  9
$DIMDLI
 40
0.6283464567
  9
$DIMEXE
 40
0.2976377953
  9
$DIMCEN
 40
0.1488188976
  9
$DIMLFAC
 40
1.0
  9
$DIMBLK
  1
_FILLED
  9
$DIMTXT
 40
0.08
  9
$DIMTOL
 70
1
  9
$DIMLIM
 70
0
  9
$DIMTFAC
 40
1.0
  9
$DIMTP
 40
0.01
  9
$DIMTM
 40
0.01
  9
$PDMODE
 70
3
  9
$PDSIZE
 40
0.06
  9
$HANDSEED
  5
2E1
  9
$TILEMODE
 70
1
  9
$MEASUREMENT
 70
0
  9
$INSUNITS
 70
1
  0
ENDSEC
  0
SECTION
  2
CLASSES
  0
CLASS
  1
ACDBDICTIONARYWDFLT
  2
AcDbDictionaryWithDefault
  3
AutoCAD 2000
 90
0
280
0
281
0
  0
CLASS
  1
ACDBPLACEHOLDER
  2
AcDbPlaceHolder
  3
AutoCAD 2000
 90
0
280
0
281
0
  0
CLASS
  1
LAYOUT
  2
AcDbLayout
  3
AutoCAD 2000
 90
0
280
0
281
0
  0
ENDSEC
  0
SECTION
  2
TABLES
  0
TABLE
  2
VPORT
  5
8
100
AcDbSymbolTable
 70
2
  0
VPORT
  5
1F4
100
AcDbSymbolTableRecord
100
AcDbViewportTableRecord
  2
*ACTIVE
 70
0
 10
0.0
 20
0.0
 11
1.0
 21
1.0
 12
8.2677165354
 22
5.8464566929
 13
0.0
 23
0.0
 14
1.0
 24
1.0
 15
0.0
 25
0.0
 16
0.0
 26
0.0
 36
1.0
 17
0.0
 27
0.0
 37
0.0
 40
11.6929133858
 41
1.4141414141
 42
50.0
 43
0.0
 44
0.0
 50
0.0
 51
0.0
 71
0
 72
100
 73
1
 74
1
 75
0
 76
0
 77
0
 78
0
  0
ENDTAB
  0
TABLE
  2
LTYPE
  5
5
100
AcDbSymbolTable
 70
6
  0
LTYPE
  5
14
100
AcDbSymbolTableRecord
100
AcDbLinetypeTableRecord
  2
BYBLOCK
 70
0
  3

 72
65
 73
0
 40
0.0
  0
LTYPE
  5
15
100
AcDbSymbolTableRecord
100
AcDbLinetypeTableRecord
  2
BYLAYER
 70
0
  3

 72
65
 73
0
 40
0.0
  0
LTYPE
  5
16
100
AcDbSymbolTableRecord
100
AcDbLinetypeTableRecord
  2
CONTINUOUS
 70
64
  3
Solid line
 72
65
 73
0
 40
0.0
  0
LTYPE
  5
1F5
100
AcDbSymbolTableRecord
100
AcDbLinetypeTableRecord
  2
CENTER
 70
64
  3
____ _ ____ _ ____ _ ____ _ ____ _ ____ _ ____
 72
65
 73
4
 40
0.6
 49
0.375
 74
0
 49
-0.075
 74
0
 49
0.075
 74
0
 49
-0.075
 74
0
  0
LTYPE
  5
1F6
100
AcDbSymbolTableRecord
100
AcDbLinetypeTableRecord
  2
HIDDEN
 70
64
  3
- - - - - - - - - - - - - - - - - - - -
 72
65
 73
2
 40
0.2
 49
0.1
 74
0
 49
-0.1
 74
0
  0
LTYPE
  5
1F7
100
AcDbSymbolTableRecord
100
AcDbLinetypeTableRecord
  2
PHANTOM
 70
64
  3
_____ _ _ _____ _ _ _____ _ _ _____
 72
65
 73
6
 40
0.8
 49
0.45
 74
0
 49
-0.05
 74
0
 49
0.1
 74
0
 49
-0.05
 74
0
 49
0.1
 74
0
 49
-0.05
 74
0
  0
LTYPE
  5
1F8
100
AcDbSymbolTableRecord
100
AcDbLinetypeTableRecord
  2
DOT
 70
64
  3
. . . . . . . . . . . . . . . . . . . .
 72
65
 73
2
 40
0.2
 49
0.1
 74
0
 49
-0.1
 74
0
  0
LTYPE
  5
1F9
100
AcDbSymbolTableRecord
100
AcDbLinetypeTableRecord
  2
DASHED
 70
64
  3
- - - - - - - - - - - - - - - - - - - -
 72
65
 73
2
 40
0.2
 49
0.1
 74
0
 49
-0.1
 74
0
  0
ENDTAB
  0
TABLE
  2
LAYER
  5
2
100
AcDbSymbolTable
 70
36
  0
LAYER
  5
10
100
AcDbSymbolTableRecord
100
AcDbLayerTableRecord
  2
0
 70
0
 62
7
  6
CONTINUOUS
370
-3
390
F
  0
LAYER
  5
1FA
100
AcDbSymbolTableRecord
100
AcDbLayerTableRecord
  2
DEFAULT_1
 70
0
 62
7
  6
CENTER
370
-3
390
F
  0
LAYER
  5
1FB
100
AcDbSymbolTableRecord
100
AcDbLayerTableRecord
  2
DEFAULT_2
 70
0
 62
8
  6
HIDDEN
370
-3
390
F
  0
LAYER
  5
1FC
100
AcDbSymbolTableRecord
100
AcDbLayerTableRecord
  2
DEFAULT_3
 70
0
 62
7
  6
PHANTOM
370
-3
390
F
  0
LAYER
  5
1FD
100
AcDbSymbolTableRecord
100
AcDbLayerTableRecord
  2
DEFAULT_COORDINATE_SYSTEM
 70
0
 62
7
  6
CONTINUOUS
370
-3
390
F
  0
LAYER
  5
1FE
100
AcDbSymbolTableRecord
100
AcDbLayerTableRecord
  2
DEFAULT_DATUM_AXES
 70
0
 62
7
  6
CONTINUOUS
370
-3
390
F
  0
LAYER
  5
1FF
100
AcDbSymbolTableRecord
100
AcDbLayerTableRecord
  2
DEFAULT_DATUM_CURVES
 70
0
 62
7
  6
CONTINUOUS
370
-3
390
F
  0
LAYER
  5
200
100
AcDbSymbolTableRecord
100
AcDbLayerTableRecord
  2
DEFAULT_DATUM_PLANES
 70
0
 62
7
  6
CONTINUOUS
370
-3
390
F
  0
ENDTAB
  0
TABLE
  2
STYLE
  5
3
100
AcDbSymbolTable
 70
1
  0
STYLE
  5
11
100
AcDbSymbolTableRecord
100
AcDbTextStyleTableRecord
  2
STANDARD
 70
0
 40
0.0
 41
0.8
 50
0.0
 71
0
 42
0.2
  3
txt
  4

  0
STYLE
  5
201
100
AcDbSymbolTableRecord
100
AcDbTextStyleTableRecord
  2
TEXTSTYLE_1
 70
0
 40
0.0
 41
0.8
 50
0.0
 71
0
 42
0.2
  3
gdt
  4

  0
ENDTAB
  0
TABLE
  2
VIEW
  5
6
100
AcDbSymbolTable
 70
0
  0
ENDTAB
  0
TABLE
  2
UCS
  5
7
100
AcDbSymbolTable
 70
0
  0
ENDTAB
  0
TABLE
  2
APPID
  5
9
100
AcDbSymbolTable
 70
1
  0
APPID
  5
202
100
AcDbSymbolTableRecord
100
AcDbRegAppTableRecord
  2
ACAD
 70
0
  0
ENDTAB
  0
TABLE
  2
BLOCK_RECORD
  5
1
100
AcDbSymbolTable
 70
0
  0
BLOCK_RECORD
  5
203
100
AcDbSymbolTableRecord
100
AcDbBlockTableRecord
  2
*Model_Space
  0
BLOCK_RECORD
  5
204
100
AcDbSymbolTableRecord
100
AcDbBlockTableRecord
  2
*Paper_Space
  0
ENDTAB
  0
TABLE
  2
DIMSTYLE
  5
A
100
AcDbSymbolTable
 70
1
100
AcDbDimStyleTable
 71
0
  0
DIMSTYLE
105
205
100
AcDbSymbolTableRecord
100
AcDbDimStyleTableRecord
  2
STANDARD
 70
0
  3

  4

 40
1.0
 41
0.1
 42
0.0625
 43
0.38
 44
0.18
 45
0.0
 46
0.0
 47
0.01
 48
0.01
140
0.08
141
0.09
142
0.0
143
25.4
144
1.0
145
0.0
146
1.0
147
0.09
 71
1.0
 72
0.0
 73
1
 74
1
 75
0
 76
0
 77
0
 78
4
170
0
171
2
172
0
173
0
174
0
175
0
176
0
177
0
178
0
270
2
271
2
272
2
273
2
274
2
275
0
280
0
281
0
282
0
283
1
284
4
285
0
286
0
287
3
288
0
340
11
  0
ENDTAB
  0
ENDSEC
  0
SECTION
  2
BLOCKS
  0
BLOCK
  5
20
100
AcDbEntity
  8
0
100
AcDbBlockBegin
  2
*Model_Space
 70
0
 10
0.0
 20
0.0
 30
0.0
  3
*Model_Space
  1

  0
ENDBLK
  5
21
100
AcDbEntity
  8
0
100
AcDbBlockEnd
  0
BLOCK
  5
1C
100
AcDbEntity
  8
0
100
AcDbBlockBegin
  2
*Paper_Space
 70
0
 10
0.0
 20
0.0
 30
0.0
  3
*Paper_Space
  1

  0
ENDBLK
  5
1D
100
AcDbEntity
  8
0
100
AcDbBlockEnd
  0
ENDSEC
  0
SECTION
  2
ENTITIES
  0
LINE
  5
206
100
AcDbEntity
  8
0
100
AcDbLine
 62
7
  6
CONTINUOUS
 10
8.0205606842
 20
6.0361361662
 11
8.0205606842
 21
6.0344975482
  0
CIRCLE
  5
207
100
AcDbEntity
  8
0
100
AcDbCircle
 62
6
  6
CONTINUOUS
 10
8.0205606842
 20
5.6296361662
 40
1.1800000459
  0
CIRCLE
  5
208
100
AcDbEntity
  8
0
100
AcDbCircle
 62
6
  6
CONTINUOUS
 10
8.0205606842
 20
5.6296361662
 40
1.0000026738
  0
CIRCLE
  5
209
100
AcDbEntity
  8
0
100
AcDbCircle
 62
9
  6
CONTINUOUS
 10
8.0205606842
 20
5.6296361662
 40
0.8130026738
  0
CIRCLE
  5
20A
100
AcDbEntity
  8
0
100
AcDbCircle
 62
6
  6
CONTINUOUS
 10
8.0205606842
 20
5.6296361662
 40
0.741
  0
CIRCLE
  5
20B
100
AcDbEntity
  8
0
100
AcDbCircle
 62
7
  6
CONTINUOUS
 10
8.0205606842
 20
5.6296361662
 40
0.4225
  0
ARC
  5
20C
100
AcDbEntity
  8
0
100
AcDbCircle
 62
6
  6
CONTINUOUS
 10
8.0205606842
 20
5.6296361662
 40
0.4065
100
AcDbArc
 50
121.7718420392
 51
90.0962324832
  0
ARC
  5
20D
100
AcDbEntity
  8
0
100
AcDbCircle
 62
6
  6
CONTINUOUS
 10
8.0208868573
 20
5.629797069
 40
0.4063361186
100
AcDbArc
 50
90.1425185241
 51
121.8274576094
  0
ARC
  5
20E
100
AcDbEntity
  8
0
100
AcDbCircle
 62
6
  6
CONTINUOUS
 10
8.020734557
 20
5.6299550072
 40
0.4061196023
100
AcDbArc
 50
121.8209524182
 51
179.9831297597
  0
ARC
  5
20F
100
AcDbEntity
  8
0
100
AcDbCircle
 62
6
  6
CONTINUOUS
 10
8.0202914022
 20
5.6299014078
 40
0.4056625205
100
AcDbArc
 50
180.0280413406
 51
269.942711583
  0
ARC
  5
210
100
AcDbEntity
  8
0
100
AcDbCircle
 62
6
  6
CONTINUOUS
 10
8.0208864172
 20
5.6297984939
 40
0.4046960361
100
AcDbArc
 50
90.11693393
 51
121.8245234626
  0
ARC
  5
211
100
AcDbEntity
  8
0
100
AcDbCircle
 62
6
  6
CONTINUOUS
 10
8.020885428
 20
5.6297974301
 40
0.4041119515
100
AcDbArc
 50
90.1065869542
 51
121.8179222323
  0
ARC
  5
212
100
AcDbEntity
  8
0
100
AcDbCircle
 62
6
  6
CONTINUOUS
 10
8.0208854781
 20
5.6297972243
 40
0.4024735482
100
AcDbArc
 50
90.1162341687
 51
121.8173384549
  0
ARC
  5
213
100
AcDbEntity
  8
0
100
AcDbCircle
 62
6
  6
CONTINUOUS
 10
8.0208871613
 20
5.6297965978
 40
0.4018902761
100
AcDbArc
 50
90.1077551254
 51
121.8170694063
  0
ARC
  5
214
100
AcDbEntity
  8
0
100
AcDbCircle
 62
6
  6
CONTINUOUS
 10
8.0214078063
 20
5.628937531
 40
0.4012551087
100
AcDbArc
 50
121.4465068684
 51
122.1164201845
  0
ARC
  5
215
100
AcDbEntity
  8
0
100
AcDbCircle
 62
6
  6
CONTINUOUS
 10
8.0214427304
 20
5.6294905811
 40
0.4008790631
100
AcDbArc
 50
148.215819683
 51
148.885858543
  0
ARC
  5
216
100
AcDbEntity
  8
0
100
AcDbCircle
 62
6
  6
CONTINUOUS
 10
8.0213249138
 20
5.6293671565
 40
0.4008657429
100
AcDbArc
 50
134.7952987369
 51
135.3683561294
  0
ARC
  5
217
100
AcDbEntity
  8
0
100
AcDbCircle
 62
6
  6
CONTINUOUS
 10
8.0213342304
 20
5.6297340619
 40
0.4006731733
100
AcDbArc
 50
162.1374356197
 51
162.4951190504
  0
ARC
  5
218
100
AcDbEntity
  8
0
100
AcDbCircle
 62
6
  6
CONTINUOUS
 10
8.0208850666
 20
5.6298030674
 40
0.4002449524
100
AcDbArc
 50
90.1525986832
 51
121.4472987896
  0
ARC
  5
219
100
AcDbEntity
  8
0
100
AcDbCircle
 62
6
  6
CONTINUOUS
 10
8.0208286004
 20
5.6298548181
 40
0.4001650646
100
AcDbArc
 50
148.8850695198
 51
162.1406454593
  0
ARC
  5
21A
100
AcDbEntity
  8
0
100
AcDbCircle
 62
6
  6
CONTINUOUS
 10
8.0219686004
 20
5.6284538653
 40
0.3997490375
100
AcDbArc
 50
128.407023943
 51
129.5207144628
  0
ARC
  5
21B
100
AcDbEntity
  8
0
100
AcDbCircle
 62
6
  6
CONTINUOUS
 10
8.0205047948
 20
5.6301367834
 40
0.3997414174
100
AcDbArc
 50
135.3642746649
 51
148.2237410974
  0
ARC
  5
21C
100
AcDbEntity
  8
0
100
AcDbCircle
 62
6
  6
CONTINUOUS
 10
8.0205388714
 20
5.6302216145
 40
0.3997055709
100
AcDbArc
 50
122.1087813894
 51
134.8016392425
  0
ARC
  5
21D
100
AcDbEntity
  8
0
100
AcDbCircle
 62
6
  6
CONTINUOUS
 10
8.0208962483
 20
5.6297633399
 40
0.3997019985
100
AcDbArc
 50
90.1290541308
 51
121.815199598
  0
ARC
  5
21E
100
AcDbEntity
  8
0
100
AcDbCircle
 62
6
  6
CONTINUOUS
 10
8.0203334015
 20
5.6299504595
 40
0.3996366568
100
AcDbArc
 50
162.481548269
 51
269.927145711
  0
ARC
  5
21F
100
AcDbEntity
  8
0
100
AcDbCircle
 62
6
  6
CONTINUOUS
 10
8.020742526
 20
5.6299533647
 40
0.399456487
100
AcDbArc
 50
121.8108322864
 51
153.6100485759
  0
ARC
  5
220
100
AcDbEntity
  8
0
100
AcDbCircle
 62
6
  6
CONTINUOUS
 10
8.0203453461
 20
5.6299670584
 40
0.3990689371
100
AcDbArc
 50
153.5864650093
 51
269.9306487559
  0
ARC
  5
221
100
AcDbEntity
  8
0
100
AcDbCircle
 62
6
  6
CONTINUOUS
 10
8.0217156546
 20
5.6294953894
 40
0.3988916325
100
AcDbArc
 50
153.6055373065
 51
155.6717163338
  0
ARC
  5
222
100
AcDbEntity
  8
0
100
AcDbCircle
 62
6
  6
CONTINUOUS
 10
8.0214261835
 20
5.6298354074
 40
0.3985124986
100
AcDbArc
 50
167.4196753886
 51
168.7096668852
  0
ARC
  5
223
100
AcDbEntity
  8
0
100
AcDbCircle
 62
6
  6
CONTINUOUS
 10
8.0212412844
 20
5.6300244323
 40
0.3983146188
100
AcDbArc
 50
180.5247896992
 51
181.2553199909
  0
ARC
  5
224
100
AcDbEntity
  8
0
100
AcDbCircle
 62
6
  6
CONTINUOUS
 10
8.0211009715
 20
5.6296686056
 40
0.3982763159
100
AcDbArc
 50
141.0660186539
 51
142.4403926585
  0
ARC
  5
225
100
AcDbEntity
  8
0
100
AcDbCircle
 62
6
  6
CONTINUOUS
 10
8.0210458665
 20
5.6301555919
 40
0.3981430318
100
AcDbArc
 50
193.3057084743
 51
193.7986870012
  0
ARC
  5
226
100
AcDbEntity
  8
0
100
AcDbCircle
 62
6
  6
CONTINUOUS
 10
8.0208963321
 20
5.6297631071
 40
0.3980636252
100
AcDbArc
 50
90.1077087096
 51
121.8154000397
  0
ARC
  5
227
100
AcDbEntity
  8
0
100
AcDbCircle
 62
6
  6
CONTINUOUS
 10
8.0206530642
 20
5.6302218659
 40
0.3975463386
100
AcDbArc
 50
121.8204635677
 51
128.4167497672
  0
ARC
  5
228
100
AcDbEntity
  8
0
100
AcDbCircle
 62
6
  6
CONTINUOUS
 10
8.0208871475
 20
5.629795954
 40
0.3974443233
100
AcDbArc
 50
90.1097103467
 51
121.8112054247
  0
ARC
  5
229
100
AcDbEntity
  8
0
100
AcDbCircle
 62
6
  6
CONTINUOUS
 10
8.0202677996
 20
5.6298649897
 40
0.3973130564
100
AcDbArc
 50
193.7847512306
 51
269.9686533485
  0
ARC
  5
22A
100
AcDbEntity
  8
0
100
AcDbCircle
 62
6
  6
CONTINUOUS
 10
8.0207840706
 20
5.629912855
 40
0.3972903322
100
AcDbArc
 50
121.8074597419
 51
153.5110981002
  0
ARC
  5
22B
100
AcDbEntity
  8
0
100
AcDbCircle
 62
6
  6
CONTINUOUS
 10
8.0202958017
 20
5.6302457573
 40
0.3972862197
100
AcDbArc
 50
142.4355900438
 51
153.6114433067
  0
ARC
  5
22C
100
AcDbEntity
  8
0
100
AcDbCircle
 62
6
  6
CONTINUOUS
 10
8.0201848207
 20
5.6300242191
 40
0.3972581976
100
AcDbArc
 50
168.7013193846
 51
180.5261545627
  0
ARC
  5
22D
100
AcDbEntity
  8
0
100
AcDbCircle
 62
6
  6
CONTINUOUS
 10
8.0202953988
 20
5.6303510073
 40
0.3972208474
100
AcDbArc
 50
129.5086791153
 51
141.06956391
  0
ARC
  5
22E
100
AcDbEntity
  8
0
100
AcDbCircle
 62
6
  6
CONTINUOUS
 10
8.0200570451
 20
5.6301652413
 40
0.3971043912
100
AcDbArc
 50
155.6615872441
 51
167.423095726
  0
ARC
  5
22F
100
AcDbEntity
  8
0
100
AcDbCircle
 62
6
  6
CONTINUOUS
 10
8.0199808713
 20
5.6299185089
 40
0.3970518414
100
AcDbArc
 50
181.2440232122
 51
193.3077844719
  0
ARC
  5
230
100
AcDbEntity
  8
0
100
AcDbCircle
 62
6
  6
CONTINUOUS
 10
8.0203613931
 20
5.6299756964
 40
0.3968620143
100
AcDbArc
 50
153.4920016318
 51
269.9680236318
  0
ARC
  5
231
100
AcDbEntity
  8
0
100
AcDbCircle
 62
6
  6
CONTINUOUS
 10
8.0208750264
 20
5.6298239678
 40
0.395776479
100
AcDbArc
 50
90.1179450073
 51
153.5269923361
  0
ARC
  5
232
100
AcDbEntity
  8
0
100
AcDbCircle
 62
6
  6
CONTINUOUS
 10
8.0203614182
 20
5.6299756674
 40
0.3952233907
100
AcDbArc
 50
153.5134874666
 51
269.9586536128
  0
ARC
  5
233
100
AcDbEntity
  8
0
100
AcDbCircle
 62
6
  6
CONTINUOUS
 10
8.0208710415
 20
5.6298294682
 40
0.3951854421
100
AcDbArc
 50
90.1080972456
 51
153.5318151301
  0
ARC
  5
234
100
AcDbEntity
  8
0
100
AcDbCircle
 62
6
  6
CONTINUOUS
 10
8.0203521193
 20
5.6299668465
 40
0.3946276571
100
AcDbArc
 50
154.5265939478
 51
269.9685866743
  0
ARC
  5
235
100
AcDbEntity
  8
0
100
AcDbCircle
 62
6
  6
CONTINUOUS
 10
8.0195238521
 20
5.6305222504
 40
0.3936683234
100
AcDbArc
 50
153.5346856365
 51
154.5477237861
  0
ARC
  5
236
100
AcDbEntity
  8
0
100
AcDbCircle
 62
6
  6
CONTINUOUS
 10
8.0208752851
 20
5.6298230477
 40
0.3935541511
100
AcDbArc
 50
90.1552461128
 51
153.553414731
  0
ARC
  5
237
100
AcDbEntity
  8
0
100
AcDbCircle
 62
6
  6
CONTINUOUS
 10
8.0206165125
 20
5.6299896521
 40
0.3932436159
100
AcDbArc
 50
154.5462256128
 51
185.3676547135
  0
ARC
  5
238
100
AcDbEntity
  8
0
100
AcDbCircle
 62
6
  6
CONTINUOUS
 10
8.0208709888
 20
5.6298294503
 40
0.3929623896
100
AcDbArc
 50
90.1429521769
 51
153.5748062439
  0
ARC
  5
239
100
AcDbEntity
  8
0
100
AcDbCircle
 62
6
  6
CONTINUOUS
 10
8.0202832274
 20
5.6298889759
 40
0.3928938983
100
AcDbArc
 50
185.3575842903
 51
269.9334359201
  0
ARC
  5
23A
100
AcDbEntity
  8
0
100
AcDbCircle
 62
6
  6
CONTINUOUS
 10
8.0205660318
 20
5.629998874
 40
0.3926084898
100
AcDbArc
 50
153.5771422116
 51
185.353523375
  0
ARC
  5
23B
100
AcDbEntity
  8
0
100
AcDbCircle
 62
6
  6
CONTINUOUS
 10
8.0202479993
 20
5.6294431761
 40
0.392436238
100
AcDbArc
 50
270.11855589
 51
337.8400400579
  0
ARC
  5
23C
100
AcDbEntity
  8
0
100
AcDbCircle
 62
6
  6
CONTINUOUS
 10
8.0202813967
 20
5.6298864192
 40
0.3923062344
100
AcDbArc
 50
185.3410499523
 51
269.9415204872
  0
ARC
  5
23D
100
AcDbEntity
  8
0
100
AcDbCircle
 62
6
  6
CONTINUOUS
 10
8.0195215818
 20
5.6305233778
 40
0.3920271715
100
AcDbArc
 50
153.5569444218
 51
154.5478823779
  0
ARC
  5
23E
100
AcDbEntity
  8
0
100
AcDbCircle
 62
6
  6
CONTINUOUS
 10
8.0207820589
 20
5.6293146327
 40
0.3918639076
100
AcDbArc
 50
337.8279934343
 51
89.9602645137
  0
ARC
  5
23F
100
AcDbEntity
  8
0
100
AcDbCircle
 62
6
  6
CONTINUOUS
 10
8.0202483731
 20
5.6294423384
 40
0.3918507983
100
AcDbArc
 50
270.1083396936
 51
337.8300498506
  0
ARC
  5
240
100
AcDbEntity
  8
0
100
AcDbCircle
 62
6
  6
CONTINUOUS
 10
8.020871025
 20
5.6298293945
 40
0.3913238407
100
AcDbArc
 50
90.1171332742
 51
153.5749913688
  0
ARC
  5
241
100
AcDbEntity
  8
0
100
AcDbCircle
 62
6
  6
CONTINUOUS
 10
8.0207821497
 20
5.6293129367
 40
0.3912806828
100
AcDbArc
 50
337.8181033768
 51
89.9696601193
  0
ARC
  5
242
100
AcDbEntity
  8
0
100
AcDbCircle
 62
6
  6
CONTINUOUS
 10
8.0205630624
 20
5.6299993843
 40
0.3909669097
100
AcDbArc
 50
153.5772155889
 51
185.3520887913
  0
ARC
  5
243
100
AcDbEntity
  8
0
100
AcDbCircle
 62
6
  6
CONTINUOUS
 10
8.0208712213
 20
5.6298297831
 40
0.3907388717
100
AcDbArc
 50
90.1081386854
 51
153.5872849282
  0
ARC
  5
244
100
AcDbEntity
  8
0
100
AcDbCircle
 62
6
  6
CONTINUOUS
 10
8.0202763564
 20
5.629880919
 40
0.3906608129
100
AcDbArc
 50
185.3387124572
 51
269.9688640293
  0
ARC
  5
245
100
AcDbEntity
  8
0
100
AcDbCircle
 62
6
  6
CONTINUOUS
 10
8.0206262928
 20
5.6299888257
 40
0.3904454569
100
AcDbArc
 50
153.8459374174
 51
185.3484796174
  0
ARC
  5
246
100
AcDbEntity
  8
0
100
AcDbCircle
 62
6
  6
CONTINUOUS
 10
8.0202483946
 20
5.6294423204
 40
0.3902121621
100
AcDbArc
 50
270.1183229824
 51
337.8189966273
  0
ARC
  5
247
100
AcDbEntity
  8
0
100
AcDbCircle
 62
6
  6
CONTINUOUS
 10
8.0202828164
 20
5.6298881129
 40
0.3900850541
100
AcDbArc
 50
185.3384541032
 51
269.9779424253
  0
ARC
  5
248
100
AcDbEntity
  8
0
100
AcDbCircle
 62
6
  6
CONTINUOUS
 10
8.0207820757
 20
5.6293128869
 40
0.3896421466
100
AcDbArc
 50
337.806994128
 51
89.9599801039
  0
ARC
  5
249
100
AcDbEntity
  8
0
100
AcDbCircle
 62
6
  6
CONTINUOUS
 10
8.02024966
 20
5.6294402298
 40
0.3896252508
100
AcDbArc
 50
270.108737787
 51
337.8135778294
  0
ARC
  5
24A
100
AcDbEntity
  8
0
100
AcDbCircle
 62
6
  6
CONTINUOUS
 10
8.0208505361
 20
5.6298689442
 40
0.389057977
100
AcDbArc
 50
90.1150806427
 51
167.647850058
  0
ARC
  5
24B
100
AcDbEntity
  8
0
100
AcDbCircle
 62
6
  6
CONTINUOUS
 10
8.0207820185
 20
5.6293129358
 40
0.3890575373
100
AcDbArc
 50
337.801331548
 51
89.9697006427
  0
ARC
  5
24C
100
AcDbEntity
  8
0
100
AcDbCircle
 62
6
  6
CONTINUOUS
 10
8.0193110811
 20
5.6306401709
 40
0.3889789717
100
AcDbArc
 50
153.5919676184
 51
153.8466633001
  0
ARC
  5
24D
100
AcDbEntity
  8
0
100
AcDbCircle
 62
6
  6
CONTINUOUS
 10
8.0205591448
 20
5.6299955163
 40
0.3887399788
100
AcDbArc
 50
167.6568861012
 51
185.3490925678
  0
ARC
  5
24E
100
AcDbEntity
  8
0
100
AcDbCircle
 62
6
  6
CONTINUOUS
 10
8.0208499671
 20
5.6298693222
 40
0.3884727609
100
AcDbArc
 50
90.1060517067
 51
167.0436077608
  0
ARC
  5
24F
100
AcDbEntity
  8
0
100
AcDbCircle
 62
6
  6
CONTINUOUS
 10
8.0202776922
 20
5.6298824904
 40
0.3884394792
100
AcDbArc
 50
185.3363640444
 51
269.9690466272
  0
ARC
  5
250
100
AcDbEntity
  8
0
100
AcDbCircle
 62
6
  6
CONTINUOUS
 10
8.0205905224
 20
5.6299940604
 40
0.3881866655
100
AcDbArc
 50
167.6617946555
 51
185.3503116882
  0
ARC
  5
251
100
AcDbEntity
  8
0
100
AcDbCircle
 62
6
  6
CONTINUOUS
 10
8.0202496774
 20
5.629440219
 40
0.3879866223
100
AcDbArc
 50
270.1187758392
 51
337.802786093
  0
ARC
  5
252
100
AcDbEntity
  8
0
100
AcDbCircle
 62
6
  6
CONTINUOUS
 10
8.0202831825
 20
5.6298891558
 40
0.3878628978
100
AcDbArc
 50
185.3391161174
 51
269.9781936391
  0
ARC
  5
253
100
AcDbEntity
  8
0
100
AcDbCircle
 62
6
  6
CONTINUOUS
 10
8.021453512
 20
5.6296962727
 40
0.3874588977
100
AcDbArc
 50
161.1914577308
 51
161.8199745384
  0
ARC
  5
254
100
AcDbEntity
  8
0
100
AcDbCircle
 62
6
  6
CONTINUOUS
 10
8.020782214
 20
5.6293129964
 40
0.3874187454
100
AcDbArc
 50
337.7904532069
 51
90.0327639794
  0
ARC
  5
255
100
AcDbEntity
  8
0
100
AcDbCircle
 62
6
  6
CONTINUOUS
 10
8.0202501045
 20
5.629439632
 40
0.387401303
100
AcDbArc
 50
270.1097553063
 51
337.8010951437
  0
ARC
  5
256
100
AcDbEntity
  8
0
100
AcDbCircle
 62
6
  6
CONTINUOUS
 10
8.0213693161
 20
5.6298998351
 40
0.3873312173
100
AcDbArc
 50
173.3280388445
 51
173.8228352426
  0
ARC
  5
257
100
AcDbEntity
  8
0
100
AcDbCircle
 62
6
  6
CONTINUOUS
 10
8.0212917451
 20
5.6300719016
 40
0.3872527802
100
AcDbArc
 50
185.1418336938
 51
185.6205902516
  0
ARC
  5
258
100
AcDbEntity
  8
0
100
AcDbCircle
 62
6
  6
CONTINUOUS
 10
8.0211233661
 20
5.6302103393
 40
0.387118512
100
AcDbArc
 50
197.3610814796
 51
197.7557605324
  0
ARC
  5
259
100
AcDbEntity
  8
0
100
AcDbCircle
 62
6
  6
CONTINUOUS
 10
8.0208746228
 20
5.6298205613
 40
0.3868864594
100
AcDbArc
 50
90.0464920365
 51
149.3202489614
  0
ARC
  5
25A
100
AcDbEntity
  8
0
100
AcDbCircle
 62
6
  6
CONTINUOUS
 10
8.0207809513
 20
5.6293146282
 40
0.3868337981
100
AcDbArc
 50
337.7885316313
 51
90.0326265967
  0
ARC
  5
25B
100
AcDbEntity
  8
0
100
AcDbCircle
 62
6
  6
CONTINUOUS
 10
8.0192561064
 20
5.630295618
 40
0.3868192158
100
AcDbArc
 50
167.0522112076
 51
167.6631947097
  0
ARC
  5
25C
100
AcDbEntity
  8
0
100
AcDbCircle
 62
6
  6
CONTINUOUS
 10
8.0207438005
 20
5.6299220471
 40
0.386714172
100
AcDbArc
 50
161.8189479854
 51
167.0478098868
  0
ARC
  5
25D
100
AcDbEntity
  8
0
100
AcDbCircle
 62
6
  6
CONTINUOUS
 10
8.0206064347
 20
5.6300106404
 40
0.3865606292
100
AcDbArc
 50
167.6403874022
 51
173.3312136604
  0
ARC
  5
25E
100
AcDbEntity
  8
0
100
AcDbCircle
 62
6
  6
CONTINUOUS
 10
8.0208503072
 20
5.629869399
 40
0.38625001
100
AcDbArc
 50
90.0429614147
 51
167.5663500479
  0
ARC
  5
25F
100
AcDbEntity
  8
0
100
AcDbCircle
 62
6
  6
CONTINUOUS
 10
8.0203217578
 20
5.6301383915
 40
0.3862450395
100
AcDbArc
 50
149.4758998423
 51
161.1994124743
  0
ARC
  5
260
100
AcDbEntity
  8
0
100
AcDbCircle
 62
6
  6
CONTINUOUS
 10
8.0202618141
 20
5.6298540551
 40
0.3861853958
100
AcDbArc
 50
197.7443999171
 51
270.044341803
  0
ARC
  5
261
100
AcDbEntity
  8
0
100
AcDbCircle
 62
6
  6
CONTINUOUS
 10
8.0207970827
 20
5.6299816892
 40
0.3861692141
100
AcDbArc
 50
167.5809195182
 51
185.3419277746
  0
ARC
  5
262
100
AcDbEntity
  8
0
100
AcDbCircle
 62
6
  6
CONTINUOUS
 10
8.019898783
 20
5.6290263736
 40
0.3861123515
100
AcDbArc
 50
18.2242457652
 51
18.7674443839
  0
ARC
  5
263
100
AcDbEntity
  8
0
100
AcDbCircle
 62
6
  6
CONTINUOUS
 10
8.0200276763
 20
5.6288738673
 40
0.3860636783
100
AcDbArc
 50
31.7244220166
 51
32.337122254
  0
ARC
  5
264
100
AcDbEntity
  8
0
100
AcDbCircle
 62
6
  6
CONTINUOUS
 10
8.0200812942
 20
5.6299956419
 40
0.3860403672
100
AcDbArc
 50
173.8164020559
 51
185.1466617076
  0
ARC
  5
265
100
AcDbEntity
  8
0
100
AcDbCircle
 62
6
  6
CONTINUOUS
 10
8.0200738086
 20
5.6298985069
 40
0.3860237207
100
AcDbArc
 50
185.6126979809
 51
197.3633900637
  0
ARC
  5
266
100
AcDbEntity
  8
0
100
AcDbCircle
 62
6
  6
CONTINUOUS
 10
8.0203600303
 20
5.62863643
 40
0.3860006769
100
AcDbArc
 50
58.985922929
 51
59.2052817583
  0
ARC
  5
267
100
AcDbEntity
  8
0
100
AcDbCircle
 62
6
  6
CONTINUOUS
 10
8.0203114945
 20
5.6288800535
 40
0.3858391736
100
AcDbArc
 50
45.3628684151
 51
45.7457208599
  0
ARC
  5
268
100
AcDbEntity
  8
0
100
AcDbCircle
 62
6
  6
CONTINUOUS
 10
8.0202499081
 20
5.629439892
 40
0.3857630023
100
AcDbArc
 50
270.0461577413
 51
337.7884890464
  0
ARC
  5
269
100
AcDbEntity
  8
0
100
AcDbCircle
 62
6
  6
CONTINUOUS
 10
8.0202823184
 20
5.6298864788
 40
0.3856377133
100
AcDbArc
 50
185.3349638818
 51
270.0413588316
  0
ARC
  5
26A
100
AcDbEntity
  8
0
100
AcDbCircle
 62
6
  6
CONTINUOUS
 10
8.0204956332
 20
5.6292858367
 40
0.3854717872
100
AcDbArc
 50
337.795881247
 51
4.9047993282
  0
ARC
  5
26B
100
AcDbEntity
  8
0
100
AcDbCircle
 62
6
  6
CONTINUOUS
 10
8.0202467728
 20
5.6294449414
 40
0.3851839313
100
AcDbArc
 50
270.0466935569
 51
337.6620541984
  0
ARC
  5
26C
100
AcDbEntity
  8
0
100
AcDbCircle
 62
6
  6
CONTINUOUS
 10
8.0192535249
 20
5.6302961911
 40
0.3851779542
100
AcDbArc
 50
167.0523613166
 51
167.6388026923
  0
ARC
  5
26D
100
AcDbEntity
  8
0
100
AcDbCircle
 62
6
  6
CONTINUOUS
 10
8.0202464293
 20
5.629341195
 40
0.3851387568
100
AcDbArc
 50
337.7992701714
 51
338.1891410827
  0
ARC
  5
26E
100
AcDbEntity
  8
0
100
AcDbCircle
 62
6
  6
CONTINUOUS
 10
8.0209771974
 20
5.6293566484
 40
0.3849846763
100
AcDbArc
 50
4.9004270455
 51
18.2277508844
  0
ARC
  5
26F
100
AcDbEntity
  8
0
100
AcDbCircle
 62
6
  6
CONTINUOUS
 10
8.0210015883
 20
5.6289214496
 40
0.3849825592
100
AcDbArc
 50
90.0656184167
 51
99.9111117154
  0
ARC
  5
270
100
AcDbEntity
  8
0
100
AcDbCircle
 62
6
  6
CONTINUOUS
 10
8.0209222999
 20
5.6296027773
 40
0.3848832316
100
AcDbArc
 50
59.2035338973
 51
90.0538316918
  0
ARC
  5
271
100
AcDbEntity
  8
0
100
AcDbCircle
 62
6
  6
CONTINUOUS
 10
8.0210880619
 20
5.6294929329
 40
0.3848362034
100
AcDbArc
 50
18.7586409912
 51
31.729040071
  0
ARC
  5
272
100
AcDbEntity
  8
0
100
AcDbCircle
 62
6
  6
CONTINUOUS
 10
8.021070155
 20
5.6295964305
 40
0.3847963766
100
AcDbArc
 50
32.3292480226
 51
45.3683038055
  0
ARC
  5
273
100
AcDbEntity
  8
0
100
AcDbCircle
 62
6
  6
CONTINUOUS
 10
8.0210779853
 20
5.6297158796
 40
0.3847056239
100
AcDbArc
 50
45.7406158049
 51
58.9947296642
  0
ARC
  5
274
100
AcDbEntity
  8
0
100
AcDbCircle
 62
6
  6
CONTINUOUS
 10
8.0207682165
 20
5.6293100244
 40
0.3846218191
100
AcDbArc
 50
338.1645737298
 51
86.5308972954
  0
ARC
  5
275
100
AcDbEntity
  8
0
100
AcDbCircle
 62
6
  6
CONTINUOUS
 10
8.0208524827
 20
5.6298665416
 40
0.3846147199
100
AcDbArc
 50
90.0434681914
 51
167.5659931692
  0
ARC
  5
276
100
AcDbEntity
  8
0
100
AcDbCircle
 62
6
  6
CONTINUOUS
 10
8.0207961587
 20
5.6299817281
 40
0.3845296827
100
AcDbArc
 50
167.5809466704
 51
185.3421500887
  0
ARC
  5
277
100
AcDbEntity
  8
0
100
AcDbCircle
 62
6
  6
CONTINUOUS
 10
8.0202823237
 20
5.6298864851
 40
0.3839991073
100
AcDbArc
 50
185.3351390447
 51
270.0415345208
  0
ARC
  5
278
100
AcDbEntity
  8
0
100
AcDbCircle
 62
6
  6
CONTINUOUS
 10
8.0207985991
 20
5.6299097142
 40
0.3839637386
100
AcDbArc
 50
113.3491952546
 51
167.1325368011
  0
ARC
  5
279
100
AcDbEntity
  8
0
100
AcDbCircle
 62
6
  6
CONTINUOUS
 10
8.020610213
 20
5.6299921606
 40
0.3837598365
100
AcDbArc
 50
167.5968189051
 51
185.3392447368
  0
ARC
  5
27A
100
AcDbEntity
  8
0
100
AcDbCircle
 62
6
  6
CONTINUOUS
 10
8.0207228807
 20
5.6302804696
 40
0.3835957475
100
AcDbArc
 50
99.9091888628
 51
113.3058052314
  0
ARC
  5
27B
100
AcDbEntity
  8
0
100
AcDbCircle
 62
6
  6
CONTINUOUS
 10
8.0202576651
 20
5.629429037
 40
0.3835269008
100
AcDbArc
 50
270.0452677978
 51
337.7878380904
  0
ARC
  5
27C
100
AcDbEntity
  8
0
100
AcDbCircle
 62
6
  6
CONTINUOUS
 10
8.0202826504
 20
5.6298885367
 40
0.3834156603
100
AcDbArc
 50
185.3283819662
 51
270.041548821
  0
ARC
  5
27D
100
AcDbEntity
  8
0
100
AcDbCircle
 62
6
  6
CONTINUOUS
 10
8.0207138139
 20
5.6292896775
 40
0.383035796
100
AcDbArc
 50
337.7813428711
 51
72.653322724
  0
ARC
  5
27E
100
AcDbEntity
  8
0
100
AcDbCircle
 62
6
  6
CONTINUOUS
 10
8.020252161
 20
5.62943612
 40
0.3829511483
100
AcDbArc
 50
270.0461595587
 51
337.7805229303
  0
ARC
  5
27F
100
AcDbEntity
  8
0
100
AcDbCircle
 62
6
  6
CONTINUOUS
 10
8.0209029445
 20
5.6309985625
 40
0.3829053467
100
AcDbArc
 50
86.5357315566
 51
90.051213889
  0
ARC
  5
280
100
AcDbEntity
  8
0
100
AcDbCircle
 62
6
  6
CONTINUOUS
 10
8.0208923386
 20
5.629440046
 40
0.3828243153
100
AcDbArc
 50
72.9200028789
 51
90.0199814635
  0
ARC
  5
281
100
AcDbEntity
  8
0
100
AcDbCircle
 62
6
  6
CONTINUOUS
 10
8.0207224371
 20
5.6292929452
 40
0.3824427938
100
AcDbArc
 50
337.77373733
 51
72.8954328295
  0
ARC
  5
282
100
AcDbEntity
  8
0
100
AcDbCircle
 62
6
  6
CONTINUOUS
 10
8.019248298
 20
5.6302985769
 40
0.3823644621
100
AcDbArc
 50
167.13760921
 51
167.5978288015
  0
ARC
  5
283
100
AcDbEntity
  8
0
100
AcDbCircle
 62
6
  6
CONTINUOUS
 10
8.0205606842
 20
5.6296361662
 40
0.3821502168
100
AcDbArc
 50
72.8571188976
 51
167.5227908
  0
ARC
  5
284
100
AcDbEntity
  8
0
100
AcDbCircle
 62
6
  6
CONTINUOUS
 10
8.0214048399
 20
5.6311529062
 40
0.3810368198
100
AcDbArc
 50
72.6689716092
 51
72.9180209344
  0
ARC
  5
285
100
AcDbEntity
  8
0
100
AcDbCircle
 62
6
  6
CONTINUOUS
 10
8.0202419925
 20
5.6294685268
 40
0.3443240337
100
AcDbArc
 50
275.3477366481
 51
320.3728731418
  0
ARC
  5
286
100
AcDbEntity
  8
0
100
AcDbCircle
 62
6
  6
CONTINUOUS
 10
8.0202955023
 20
5.6292128688
 40
0.3440663816
100
AcDbArc
 50
270.5476745101
 51
275.3428325632
  0
CIRCLE
  5
287
100
AcDbEntity
  8
0
100
AcDbCircle
 62
6
  6
CONTINUOUS
 10
8.0205606842
 20
5.6296361662
 40
0.34125
  0
SPLINE
  5
288
100
AcDbEntity
  8
0
100
AcDbSpline
 62
6
  6
CONTINUOUS
 70
0
 71
3
 72
31
 73
27
 74
25
 42
0.0000001
 43
0.0000001
 44
0.0000000001
 12
-0.1126329925
 22
-0.6748105579
 32
0.0
 13
0.6764154231
 23
0.1025556211
 33
0.0
 40
0.0
 40
0.0
 40
0.0
 40
0.0
 40
0.0624723695
 40
0.0937573527
 40
0.1250443441
 40
0.1875711844
 40
0.250085049
 40
0.3126081624
 40
0.343882963
 40
0.3751561701
 40
0.4064279176
 40
0.4376971628
 40
0.4689628876
 40
0.5002253176
 40
0.5314850155
 40
0.56274152
 40
0.5939950705
 40
0.6252467563
 40
0.6877154799
 40
0.750177033
 40
0.7814196203
 40
0.8126610344
 40
0.8438994552
 40
0.8751337375
 40
0.9375722256
 40
1.0
 40
1.0
 40
1.0
 40
1.0
 10
7.6474360821
 20
5.7122001986
 30
0.0
 10
7.6450905988
 20
5.6981478605
 30
0.0
 10
7.6427569431
 20
5.6768347848
 30
0.0
 10
7.6420469658
 20
5.6483166674
 30
0.0
 10
7.6429491965
 20
5.619788581
 30
0.0
 10
7.6471221646
 20
5.5842988221
 30
0.0
 10
7.6569362383
 20
5.5425744455
 30
0.0
 10
7.6690614399
 20
5.5089611394
 30
0.0
 10
7.6810230578
 20
5.4830540693
 30
0.0
 10
7.6911088299
 20
5.4641705589
 30
0.0
 10
7.7022782296
 20
5.4459094262
 30
0.0
 10
7.7144907514
 20
5.4283306762
 30
0.0
 10
7.7277070192
 20
5.4114961414
 30
0.0
 10
7.7418883965
 20
5.3954688817
 30
0.0
 10
7.7569884855
 20
5.3803069608
 30
0.0
 10
7.7729539177
 20
5.3660623848
 30
0.0
 10
7.789733968
 20
5.352788585
 30
0.0
 10
7.8131109203
 20
5.3364615029
 30
0.0
 10
7.8440915601
 20
5.3187067609
 30
0.0
 10
7.8769786787
 20
5.3047986579
 30
0.0
 10
7.9041318863
 20
5.2961138769
 30
0.0
 10
7.9248601454
 20
5.2908473158
 30
0.0
 10
7.9458680343
 20
5.286849164
 30
0.0
 10
7.9741394893
 20
5.2832393967
 30
0.0
 10
8.0098091857
 20
5.2819867054
 30
0.0
 10
8.0382575178
 20
5.2845072232
 30
0.0
 10
8.0523332209
 20
5.2866413296
 30
0.0
 11
7.6474360821
 21
5.7122001986
 31
0.0
 11
7.6427804308
 21
5.6697143138
 31
0.0
 11
7.6422486017
 21
5.6483174322
 31
0.0
 11
7.6429271657
 21
5.6269233268
 31
0.0
 11
7.6479238817
 21
5.5844386798
 31
0.0
 11
7.6577248305
 21
5.5428082296
 31
0.0
 11
7.6722383925
 21
5.5025707995
 31
0.0
 11
7.6812087223
 21
5.4831454448
 31
0.0
 11
7.6912897057
 21
5.4642738167
 31
0.0
 11
7.7024525525
 21
5.4460224417
 31
0.0
 11
7.7146587307
 21
5.428453782
 31
0.0
 11
7.7278685837
 21
5.4116298307
 31
0.0
 11
7.7420421814
 21
5.3956123949
 31
0.0
 11
7.7571334836
 21
5.3804591191
 31
0.0
 11
7.7730904354
 21
5.3662235503
 31
0.0
 11
7.7898607229
 21
5.352959058
 31
0.0
 11
7.8073894706
 21
5.340716601
 31
0.0
 11
7.8444746585
 21
5.3194751056
 31
0.0
 11
7.8838333912
 21
5.3028322944
 31
0.0
 11
7.9041922246
 21
5.2963218021
 31
0.0
 11
7.9249077258
 21
5.2910585043
 31
0.0
 11
7.9459027407
 21
5.287063994
 31
0.0
 11
7.9670995879
 21
5.2843585523
 31
0.0
 11
8.0097905836
 21
5.2828674098
 31
0.0
 11
8.0523332209
 21
5.2866413296
 31
0.0
  0
LINE
  5
289
100
AcDbEntity
  8
0
100
AcDbLine
 62
6
  6
CONTINUOUS
 10
8.0205606842
 20
6.0300510655
 11
8.0198190674
 21
6.0300497177
  0
LINE
  5
28A
100
AcDbEntity
  8
0
100
AcDbLine
 62
6
  6
CONTINUOUS
 10
8.0198252687
 20
5.2303329187
 11
8.0205606842
 21
5.2303328876
  0
LINE
  5
28B
100
AcDbEntity
  8
0
100
AcDbLine
 62
6
  6
CONTINUOUS
 10
8.0205606842
 20
6.0344975482
 11
8.0200604746
 21
6.0344967995
  0
SPLINE
  5
28C
100
AcDbEntity
  8
0
100
AcDbSpline
 62
6
  6
CONTINUOUS
 70
0
 71
3
 72
40
 73
36
 74
34
 42
0.0000001
 43
0.0000001
 44
0.0000000001
 12
-0.88783806
 22
-0.5510170185
 32
0.0
 13
1.0449287239
 23
-0.0003709312
 33
0.0
 40
0.0
 40
0.0
 40
0.0
 40
0.0
 40
0.0312525269
 40
0.0625030909
 40
0.0937518976
 40
0.1249996095
 40
0.15624702
 40
0.187495339
 40
0.2187439091
 40
0.2499931293
 40
0.2812430999
 40
0.312492465
 40
0.343741652
 40
0.3749907871
 40
0.4062393973
 40
0.4374885877
 40
0.468738064
 40
0.4999877341
 40
0.5312381823
 40
0.5624879845
 40
0.5937367993
 40
0.6249852773
 40
0.6562327873
 40
0.6874803272
 40
0.718728923
 40
0.7343569219
 40
0.7499855509
 40
0.7812380091
 40
0.812489723
 40
0.843737833
 40
0.8749867183
 40
0.9062440493
 40
0.9375154738
 40
0.9687798474
 40
1.0
 40
1.0
 40
1.0
 40
1.0
 10
7.8074829322
 20
5.9736543707
 30
0.0
 10
7.7982338712
 20
5.9679141459
 30
0.0
 10
7.7801894974
 20
5.9556844077
 30
0.0
 10
7.754698908
 20
5.9352203058
 30
0.0
 10
7.7309454315
 20
5.9127629218
 30
0.0
 10
7.7090752773
 20
5.8884699048
 30
0.0
 10
7.6892406902
 20
5.8624880109
 30
0.0
 10
7.67156566
 20
5.834991587
 30
0.0
 10
7.6561595153
 20
5.8061615139
 30
0.0
 10
7.6431380241
 20
5.7761781193
 30
0.0
 10
7.6325725693
 20
5.7452438626
 30
0.0
 10
7.6245343014
 20
5.7135583644
 30
0.0
 10
7.6190876321
 20
5.6813265665
 30
0.0
 10
7.6162512469
 20
5.6487615501
 30
0.0
 10
7.6160541302
 20
5.61607343
 30
0.0
 10
7.6185006285
 20
5.5834766107
 30
0.0
 10
7.6235610787
 20
5.5511817513
 30
0.0
 10
7.6312186628
 20
5.5194016493
 30
0.0
 10
7.6414165937
 20
5.4883437215
 30
0.0
 10
7.6540811594
 20
5.4582073647
 30
0.0
 10
7.6691456165
 20
5.4291967404
 30
0.0
 10
7.6864986566
 20
5.4014957661
 30
0.0
 10
7.7060286625
 20
5.3752838526
 30
0.0
 10
7.7276167011
 20
5.3507405995
 30
0.0
 10
7.7471991514
 20
5.3318003346
 30
0.0
 10
7.7637404081
 20
5.3176371686
 30
0.0
 10
7.780843773
 20
5.3041559751
 30
0.0
 10
7.8032258445
 20
5.2886184426
 30
0.0
 10
7.8314923681
 20
5.2721987621
 30
0.0
 10
7.8609944926
 20
5.2581192108
 30
0.0
 10
7.891539898
 20
5.246471079
 30
0.0
 10
7.9229330419
 20
5.2373214397
 30
0.0
 10
7.9549714067
 20
5.2307499748
 30
0.0
 10
7.987419595
 20
5.2267844826
 30
0.0
 10
8.0091932971
 20
5.2258901356
 30
0.0
 10
8.0200675752
 20
5.2258862754
 30
0.0
 11
7.8074829322
 21
5.9736543707
 31
0.0
 11
7.780451485
 21
5.9553306527
 31
0.0
 11
7.7549877532
 21
5.9348875077
 31
0.0
 11
7.7312589218
 21
5.9124565813
 31
0.0
 11
7.7094144497
 21
5.8881883257
 31
0.0
 11
7.6896008257
 21
5.8622358899
 31
0.0
 11
7.6719439057
 21
5.8347694779
 31
0.0
 11
7.6565570968
 21
5.8059695845
 31
0.0
 11
7.6435474773
 21
5.7760199281
 31
0.0
 11
7.6329937085
 21
5.745118451
 31
0.0
 11
7.6249662104
 21
5.7134672065
 31
0.0
 11
7.6195226724
 21
5.6812709686
 31
0.0
 11
7.616691115
 21
5.6487408504
 31
0.0
 11
7.6164947231
 21
5.6160888685
 31
0.0
 11
7.6189362695
 21
5.5835270975
 31
0.0
 11
7.6239939058
 21
5.5512676819
 31
0.0
 11
7.6316419766
 21
5.5195222912
 31
0.0
 11
7.6418277995
 21
5.4884970607
 31
0.0
 11
7.6544813352
 21
5.4583945714
 31
0.0
 11
7.6695271713
 21
5.4294147979
 31
0.0
 11
7.6868617157
 21
5.401743603
 31
0.0
 11
7.7063716534
 21
5.3755619731
 31
0.0
 11
7.7279347106
 21
5.3510435715
 31
0.0
 11
7.7514057919
 21
5.3283433987
 31
0.0
 11
7.763810379
 21
5.3177226695
 31
0.0
 11
7.7766358119
 21
5.3076130978
 31
0.0
 11
7.8034610843
 21
5.2889889776
 31
0.0
 11
7.8316995938
 21
5.2725880974
 31
0.0
 11
7.8611678135
 21
5.2585246561
 31
0.0
 11
7.8916771049
 21
5.2468888324
 31
0.0
 11
7.9230349486
 21
5.2377525686
 31
0.0
 11
7.9550442875
 21
5.2311836943
 31
0.0
 11
7.9874720282
 21
5.2272203542
 31
0.0
 11
8.0200675752
 21
5.2258862754
 31
0.0
  0
LINE
  5
28D
100
AcDbEntity
  8
0
100
AcDbLine
 62
6
  6
CONTINUOUS
 10
8.0200675752
 20
5.2258862754
 11
8.0205606842
 21
5.2258864039
  0
LINE
  5
28E
100
AcDbEntity
  8
0
100
AcDbLine
 62
6
  6
CONTINUOUS
 10
8.0205606842
 20
6.0322743077
 11
8.0200689857
 21
6.032273573
  0
SPLINE
  5
28F
100
AcDbEntity
  8
0
100
AcDbSpline
 62
6
  6
CONTINUOUS
 70
0
 71
3
 72
39
 73
35
 74
33
 42
0.0000001
 43
0.0000001
 44
0.0000000001
 12
-0.8830726872
 22
-0.5478747581
 32
0.0
 13
1.0392227786
 23
-0.0003712428
 33
0.0
 40
0.0
 40
0.0
 40
0.0
 40
0.0
 40
0.0312510628
 40
0.062500466
 40
0.0937487841
 40
0.1249966902
 40
0.1562453199
 40
0.1874950339
 40
0.218744146
 40
0.2499926302
 40
0.2812409023
 40
0.3124884731
 40
0.343736407
 40
0.3749845978
 40
0.4062328039
 40
0.4374821737
 40
0.4687322868
 40
0.4999834001
 40
0.5312359027
 40
0.5624882685
 40
0.5937403465
 40
0.6249920212
 40
0.6562416707
 40
0.6874898604
 40
0.7187382131
 40
0.749987978
 40
0.7812401195
 40
0.8124915644
 40
0.8437393863
 40
0.874987963
 40
0.9062449859
 40
0.937516111
 40
0.968780175
 40
1.0
 40
1.0
 40
1.0
 40
1.0
 10
7.8086969216
 20
5.9717912053
 30
0.0
 10
7.7994979349
 20
5.9660839825
 30
0.0
 10
7.7815508795
 20
5.9539243525
 30
0.0
 10
7.7561989933
 20
5.933574336
 30
0.0
 10
7.7325721573
 20
5.9112436526
 30
0.0
 10
7.7108180462
 20
5.8870857926
 30
0.0
 10
7.6910895606
 20
5.8612462665
 30
0.0
 10
7.6735064357
 20
5.8339016898
 30
0.0
 10
7.6581813251
 20
5.8052301671
 30
0.0
 10
7.6452283484
 20
5.7754123904
 30
0.0
 10
7.6347168531
 20
5.7446498431
 30
0.0
 10
7.6267212254
 20
5.7131393589
 30
0.0
 10
7.6213007939
 20
5.6810856413
 30
0.0
 10
7.6184755116
 20
5.6486996723
 30
0.0
 10
7.618277959
 20
5.6161904615
 30
0.0
 10
7.6207068007
 20
5.5837712362
 30
0.0
 10
7.6257362726
 20
5.5516513286
 30
0.0
 10
7.6333510622
 20
5.5200430737
 30
0.0
 10
7.6434902657
 20
5.4891515651
 30
0.0
 10
7.6560846356
 20
5.4591762906
 30
0.0
 10
7.671067434
 20
5.4303208931
 30
0.0
 10
7.688325555
 20
5.4027675232
 30
0.0
 10
7.707748594
 20
5.3766961436
 30
0.0
 10
7.7292192139
 20
5.352285076
 30
0.0
 10
7.7525857667
 20
5.3296823496
 30
0.0
 10
7.7777047749
 20
5.309041861
 30
0.0
 10
7.8044125024
 20
5.2905016977
 30
0.0
 10
7.8325245579
 20
5.2741705103
 30
0.0
 10
7.861864911
 20
5.2601675941
 30
0.0
 10
7.8922430928
 20
5.2485826735
 30
0.0
 10
7.9234643936
 20
5.239482737
 30
0.0
 10
7.9553274453
 20
5.2329469371
 30
0.0
 10
7.9875980988
 20
5.2290029201
 30
0.0
 10
8.0092526813
 20
5.2281133799
 30
0.0
 10
8.0200674658
 20
5.2281095165
 30
0.0
 11
7.8086969216
 21
5.9717912053
 31
0.0
 11
7.78181178
 21
5.9535721797
 31
0.0
 11
7.7564860789
 21
5.9332438603
 31
0.0
 11
7.7328841442
 21
5.9109389919
 31
0.0
 11
7.7111558593
 21
5.8868057721
 31
0.0
 11
7.691447379
 21
5.8609957875
 31
0.0
 11
7.6738826649
 21
5.833680343
 31
0.0
 11
7.658576549
 21
5.8050388543
 31
0.0
 11
7.6456352035
 21
5.7752547771
 31
0.0
 11
7.6351360848
 21
5.7445249239
 31
0.0
 11
7.6271504476
 21
5.7130489389
 31
0.0
 11
7.6217333355
 21
5.6810303907
 31
0.0
 11
7.6189134685
 21
5.6486792202
 31
0.0
 11
7.618715672
 21
5.616205973
 31
0.0
 11
7.6211401906
 21
5.5838215451
 31
0.0
 11
7.6261670548
 21
5.5517371211
 31
0.0
 11
7.6337716333
 21
5.5201631204
 31
0.0
 11
7.6438994608
 21
5.4893042799
 31
0.0
 11
7.6564827702
 21
5.4593628034
 31
0.0
 11
7.6714468051
 21
5.4305376422
 31
0.0
 11
7.6886868997
 21
5.4030137584
 31
0.0
 11
7.7080902927
 21
5.3769723169
 31
0.0
 11
7.7295351543
 21
5.3525865073
 31
0.0
 11
7.7528773037
 21
5.330009863
 31
0.0
 11
7.7779687651
 21
5.3093925234
 31
0.0
 11
7.8046468629
 21
5.2908696823
 31
0.0
 11
7.8327305648
 21
5.2745578702
 31
0.0
 11
7.8620373348
 21
5.2605707973
 31
0.0
 11
7.8923795526
 21
5.2489981681
 31
0.0
 11
7.9235657498
 21
5.2399115192
 31
0.0
 11
7.9553999353
 21
5.2333782942
 31
0.0
 11
7.9876502556
 21
5.2294364214
 31
0.0
 11
8.0200674658
 21
5.2281095165
 31
0.0
  0
LINE
  5
290
100
AcDbEntity
  8
0
100
AcDbLine
 62
6
  6
CONTINUOUS
 10
8.0200674658
 20
5.2281095165
 11
8.0205606842
 21
5.2281096457
  0
LINE
  5
291
100
AcDbEntity
  8
0
100
AcDbLine
 62
6
  6
CONTINUOUS
 10
8.0205606842
 20
6.0278278248
 11
8.0201480218
 21
6.0278272429
  0
LINE
  5
292
100
AcDbEntity
  8
0
100
AcDbLine
 62
6
  6
CONTINUOUS
 10
8.020050431
 20
5.2325560033
 11
8.0205606842
 21
5.2325561272
  0
LINE
  5
293
100
AcDbEntity
  8
0
100
AcDbLine
 62
6
  6
CONTINUOUS
 10
8.0205606842
 20
6.0233813423
 11
8.0198089181
 21
6.0233799432
  0
LINE
  5
294
100
AcDbEntity
  8
0
100
AcDbLine
 62
6
  6
CONTINUOUS
 10
8.0198267866
 20
5.2370026409
 11
8.0205606842
 21
5.2370026108
  0
LINE
  5
295
100
AcDbEntity
  8
0
100
AcDbLine
 62
6
  6
CONTINUOUS
 10
8.0205606842
 20
6.0256045846
 11
8.0200603011
 21
6.0256038187
  0
LINE
  5
296
100
AcDbEntity
  8
0
100
AcDbLine
 62
6
  6
CONTINUOUS
 10
8.0200762323
 20
5.2347792343
 11
8.0205606842
 21
5.2347793688
  0
LINE
  5
297
100
AcDbEntity
  8
0
100
AcDbLine
 62
6
  6
CONTINUOUS
 10
8.0205606842
 20
6.0211581014
 11
8.0200710081
 21
6.0211573502
  0
LINE
  5
298
100
AcDbEntity
  8
0
100
AcDbLine
 62
6
  6
CONTINUOUS
 10
8.0200640645
 20
5.2392257189
 11
8.0205606842
 21
5.2392258505
  0
LINE
  5
299
100
AcDbEntity
  8
0
100
AcDbLine
 62
6
  6
CONTINUOUS
 10
7.6881428414
 20
5.8272232217
 11
7.6876042555
 21
5.8263125339
  0
LINE
  5
29A
100
AcDbEntity
  8
0
100
AcDbLine
 62
6
  6
CONTINUOUS
 10
8.0205606842
 20
6.0189348614
 11
8.0200690837
 21
6.0189341017
  0
LINE
  5
29B
100
AcDbEntity
  8
0
100
AcDbLine
 62
6
  6
CONTINUOUS
 10
8.0200678455
 20
5.2414489581
 11
8.0205606842
 21
5.2414490919
  0
LINE
  5
29C
100
AcDbEntity
  8
0
100
AcDbLine
 62
6
  6
CONTINUOUS
 10
8.0205606842
 20
5.2258864039
 11
8.02105499
 21
5.2258871421
  0
SPLINE
  5
29D
100
AcDbEntity
  8
0
100
AcDbSpline
 62
6
  6
CONTINUOUS
 70
0
 71
3
 72
56
 73
52
 74
50
 42
0.0000001
 43
0.0000001
 44
0.0000000001
 12
1.2653709924
 22
0.0026705449
 32
0.0
 13
-1.2653737297
 23
0.0004522483
 33
0.0
 40
0.0
 40
0.0
 40
0.0
 40
0.0
 40
0.0312202173
 40
0.0468544131
 40
0.0624923943
 40
0.0781277756
 40
0.0937583838
 40
0.1093857495
 40
0.1250113237
 40
0.1406365424
 40
0.1562628478
 40
0.187509265
 40
0.2187554122
 40
0.2499994087
 40
0.265625705
 40
0.2812518239
 40
0.2968780534
 40
0.312504645
 40
0.3437487975
 40
0.3593752616
 40
0.375001675
 40
0.406245331
 40
0.4218716786
 40
0.4374979867
 40
0.4687418611
 40
0.4999856499
 40
0.5156122749
 40
0.5312391878
 40
0.5624841041
 40
0.5937298581
 40
0.6249765758
 40
0.6406042356
 40
0.6562316208
 40
0.6718589154
 40
0.687485996
 40
0.7031126377
 40
0.7187387904
 40
0.7343648025
 40
0.7499909751
 40
0.7812348576
 40
0.812481512
 40
0.8437286317
 40
0.8593553711
 40
0.8749812405
 40
0.8906076952
 40
0.9062361343
 40
0.9218680039
 40
0.9375047981
 40
0.9531439996
 40
0.9687791106
 40
1.0
 40
1.0
 40
1.0
 40
1.0
 10
8.02105499
 20
5.2258871421
 30
0.0
 10
8.0342233758
 20
5.2259149338
 30
0.0
 10
8.0540018183
 20
5.2269317312
 30
0.0
 10
8.080163436
 20
5.2302053019
 30
0.0
 10
8.0996608047
 20
5.2336181856
 30
0.0
 10
8.1189648275
 20
5.237983694
 30
0.0
 10
8.1380266962
 20
5.2432920165
 30
0.0
 10
8.1568018398
 20
5.2495258104
 30
0.0
 10
8.1752473261
 20
5.2566697412
 30
0.0
 10
8.1933210015
 20
5.2647082602
 30
0.0
 10
8.2168594008
 20
5.2765955062
 30
0.0
 10
8.2451517438
 20
5.2935965681
 30
0.0
 10
8.2769399663
 20
5.3172077596
 30
0.0
 10
8.3013760078
 20
5.3393964235
 30
0.0
 10
8.3195468698
 20
5.3585051224
 30
0.0
 10
8.3324603661
 20
5.3734897107
 30
0.0
 10
8.3446217037
 20
5.3890913218
 30
0.0
 10
8.3597934387
 20
5.410658012
 30
0.0
 10
8.373365775
 20
5.4333148913
 30
0.0
 10
8.3852174203
 20
5.4568707825
 30
0.0
 10
8.3958965269
 20
5.4809806804
 30
0.0
 10
8.4047911275
 20
5.5058483394
 30
0.0
 10
8.4118261653
 20
5.5312613674
 30
0.0
 10
8.4176038302
 20
5.5569906752
 30
0.0
 10
8.4224472489
 20
5.5896369782
 30
0.0
 10
8.4240779628
 20
5.6226008053
 30
0.0
 10
8.4234344564
 20
5.6489631711
 30
0.0
 10
8.4215005656
 20
5.6752623983
 30
0.0
 10
8.4166741068
 20
5.7079148469
 30
0.0
 10
8.4070631048
 20
5.7463290895
 30
0.0
 10
8.3959575419
 20
5.777412964
 30
0.0
 10
8.385284954
 20
5.8015282031
 30
0.0
 10
8.3763975154
 20
5.8192024246
 30
0.0
 10
8.3666541807
 20
5.8364186931
 30
0.0
 10
8.3560799886
 20
5.8531372707
 30
0.0
 10
8.3447003082
 20
5.8693178007
 30
0.0
 10
8.3325397471
 20
5.884919304
 30
0.0
 10
8.3196261927
 20
5.8999038696
 30
0.0
 10
8.3014544364
 20
5.919011484
 30
0.0
 10
8.2770143394
 20
5.9411961917
 30
0.0
 10
8.2452176251
 20
5.9647969709
 30
0.0
 10
8.2169166755
 20
5.9817854719
 30
0.0
 10
8.1933698605
 20
5.9936578224
 30
0.0
 10
8.1752894509
 20
6.0016832949
 30
0.0
 10
8.1568369779
 20
6.0088122993
 30
0.0
 10
8.138054669
 20
6.0150289046
 30
0.0
 10
8.1189856277
 20
6.0203174878
 30
0.0
 10
8.0996747553
 20
6.0246602696
 30
0.0
 10
8.0801714474
 20
6.0280480334
 30
0.0
 10
8.054004005
 20
6.0312846318
 30
0.0
 10
8.0342230558
 20
6.0322697299
 30
0.0
 10
8.0210543581
 20
6.0322744364
 30
0.0
 11
8.02105499
 21
5.2258871421
 31
0.0
 11
8.0605085014
 21
5.2279082438
 31
0.0
 11
8.0801385461
 21
5.230364351
 31
0.0
 11
8.0996299002
 21
5.233777236
 31
0.0
 11
8.1189271442
 21
5.2381415055
 31
0.0
 11
8.137980878
 21
5.2434468571
 31
0.0
 11
8.1567479664
 21
5.249677879
 31
0.0
 11
8.1751855668
 21
5.2568189208
 31
0.0
 11
8.1932508364
 21
5.2648543323
 31
0.0
 11
8.2109011382
 21
5.273767414
 31
0.0
 11
8.2447917654
 21
5.2941318514
 31
0.0
 11
8.2765296794
 21
5.3177107129
 31
0.0
 11
8.3058019086
 21
5.3442847474
 31
0.0
 11
8.3194275047
 21
5.3586136989
 31
0.0
 11
8.3323349643
 21
5.3735924951
 31
0.0
 11
8.3444914405
 21
5.3891871246
 31
0.0
 11
8.355868794
 21
5.4053595187
 31
0.0
 11
8.3761840058
 21
5.4392763358
 31
0.0
 11
8.3850708522
 21
5.4569400862
 31
0.0
 11
8.3930791695
 21
5.4750190364
 31
0.0
 11
8.4063941102
 21
5.5122443099
 31
0.0
 11
8.4116689726
 21
5.5313009129
 31
0.0
 11
8.4160014196
 21
5.5505935597
 31
0.0
 11
8.4218047463
 21
5.5897004886
 31
0.0
 11
8.4237547534
 21
5.6291874409
 31
0.0
 11
8.4232731435
 21
5.648955097
 31
0.0
 11
8.4218231506
 21
5.6686757485
 31
0.0
 11
8.4160376049
 21
5.7077866447
 31
0.0
 11
8.4064440955
 21
5.7461426498
 31
0.0
 11
8.3931414919
 21
5.783376448
 31
0.0
 11
8.3851379088
 21
5.8014592192
 31
0.0
 11
8.376254829
 21
5.8191261688
 31
0.0
 11
8.3665156307
 21
5.8363358666
 31
0.0
 11
8.3559455928
 21
5.8530478166
 31
0.0
 11
8.3445699944
 21
5.8692215227
 31
0.0
 11
8.3324141905
 21
5.8848165532
 31
0.0
 11
8.3195067232
 21
5.8997951641
 31
0.0
 11
8.3058804078
 21
5.9141232158
 31
0.0
 11
8.2766036934
 21
5.9406920941
 31
0.0
 11
8.2448574594
 21
5.9642608293
 31
0.0
 11
8.2109562632
 21
5.9846093946
 31
0.0
 11
8.1932997472
 21
5.9935113799
 31
0.0
 11
8.1752277807
 21
6.0015337477
 31
0.0
 11
8.156783192
 21
6.0086598126
 31
0.0
 11
8.1380089619
 21
6.0148736068
 31
0.0
 11
8.1189480708
 21
6.0201591627
 31
0.0
 11
8.0996438991
 21
6.0245008418
 31
0.0
 11
8.0801465907
 21
6.027888576
 31
0.0
 11
8.0605119279
 21
6.0303169413
 31
0.0
 11
8.0210543581
 21
6.0322744364
 31
0.0
  0
LINE
  5
29E
100
AcDbEntity
  8
0
100
AcDbLine
 62
6
  6
CONTINUOUS
 10
8.0210543581
 20
6.0322744364
 11
8.0205606842
 21
6.0322743077
  0
LINE
  5
29F
100
AcDbEntity
  8
0
100
AcDbLine
 62
6
  6
CONTINUOUS
 10
8.0205606842
 20
5.2281096457
 11
8.021053471
 21
5.2281103848
  0
SPLINE
  5
2A0
100
AcDbEntity
  8
0
100
AcDbSpline
 62
6
  6
CONTINUOUS
 70
0
 71
3
 72
54
 73
50
 74
48
 42
0.0000001
 43
0.0000001
 44
0.0000000001
 12
1.2583675298
 22
0.0026658427
 32
0.0
 13
-1.258370274
 23
0.0004475406
 33
0.0
 40
0.0
 40
0.0
 40
0.0
 40
0.0
 40
0.0312209483
 40
0.0468553456
 40
0.0624931741
 40
0.0781278819
 40
0.0937573902
 40
0.1093834509
 40
0.1250077429
 40
0.1406319407
 40
0.1562575883
 40
0.1875032036
 40
0.2187489778
 40
0.249993343
 40
0.2656200857
 40
0.2812468636
 40
0.3124923073
 40
0.3437388593
 40
0.3593665779
 40
0.3749942626
 40
0.4062400723
 40
0.4218670892
 40
0.4374936867
 40
0.4687373313
 40
0.4999808888
 40
0.5156077764
 40
0.5312351735
 40
0.5624814656
 40
0.5937289458
 40
0.6249778129
 40
0.6406068116
 40
0.6562357639
 40
0.6874841882
 40
0.7031124003
 40
0.7187398182
 40
0.7343667015
 40
0.7499934142
 40
0.7812375321
 40
0.8124834542
 40
0.843729634
 40
0.8593559929
 40
0.8749815241
 40
0.8906076728
 40
0.9062358504
 40
0.9218675115
 40
0.9375041702
 40
0.9531433773
 40
0.9687786161
 40
1.0
 40
1.0
 40
1.0
 40
1.0
 10
8.021053471
 20
5.2281103848
 30
0.0
 10
8.0341492802
 20
5.2281381282
 30
0.0
 10
8.0538186345
 20
5.229149559
 30
0.0
 10
8.0798357551
 20
5.2324052315
 30
0.0
 10
8.0992249455
 20
5.2357992218
 30
0.0
 10
8.1184213439
 20
5.2401403526
 30
0.0
 10
8.1373765255
 20
5.2454187306
 30
0.0
 10
8.1560463561
 20
5.2516173253
 30
0.0
 10
8.1743883983
 20
5.2587210285
 30
0.0
 10
8.1923608646
 20
5.2667146544
 30
0.0
 10
8.2157680927
 20
5.2785355242
 30
0.0
 10
8.243904232
 20
5.2954403297
 30
0.0
 10
8.2755164038
 20
5.3189205873
 30
0.0
 10
8.2998180009
 20
5.340985486
 30
0.0
 10
8.3178898682
 20
5.3599883178
 30
0.0
 10
8.3350104843
 20
5.3798536678
 30
0.0
 10
8.3545475499
 20
5.4062292422
 30
0.0
 10
8.37141581
 20
5.4343865287
 30
0.0
 10
8.3832034053
 20
5.457814607
 30
0.0
 10
8.3938241877
 20
5.4817926156
 30
0.0
 10
8.4026707523
 20
5.5065241291
 30
0.0
 10
8.4096676549
 20
5.5317976278
 30
0.0
 10
8.4154136988
 20
5.5573847637
 30
0.0
 10
8.4202311877
 20
5.5898501817
 30
0.0
 10
8.4218528237
 20
5.6226315058
 30
0.0
 10
8.4212129804
 20
5.6488481738
 30
0.0
 10
8.4192903085
 20
5.6750027704
 30
0.0
 10
8.4144911304
 20
5.7074761003
 30
0.0
 10
8.4049328687
 20
5.7456799979
 30
0.0
 10
8.3938886976
 20
5.7765937953
 30
0.0
 10
8.3832739817
 20
5.8005780772
 30
0.0
 10
8.3714914561
 20
5.8240095888
 30
0.0
 10
8.3579966568
 20
5.846546789
 30
0.0
 10
8.3429094752
 20
5.8679981746
 30
0.0
 10
8.3308151628
 20
5.8835151446
 30
0.0
 10
8.3179721594
 20
5.8984172936
 30
0.0
 10
8.2998998428
 20
5.9174190927
 30
0.0
 10
8.2755945518
 20
5.939480449
 30
0.0
 10
8.2439742704
 20
5.962950242
 30
0.0
 10
8.2158300954
 20
5.9798432773
 30
0.0
 10
8.1924141495
 20
5.9916494306
 30
0.0
 10
8.1744341553
 20
5.9996302088
 30
0.0
 10
8.1560841087
 20
6.0067194717
 30
0.0
 10
8.1374060211
 20
6.0129014388
 30
0.0
 10
8.1184427451
 20
6.018160602
 30
0.0
 10
8.0992388963
 20
6.0224793382
 30
0.0
 10
8.079843525
 20
6.0258483056
 30
0.0
 10
8.0538206397
 20
6.0290669421
 30
0.0
 10
8.0341489086
 20
6.0300465378
 30
0.0
 10
8.0210528881
 20
6.0300511954
 30
0.0
 11
8.021053471
 21
5.2281103848
 31
0.0
 11
8.0602895184
 21
5.2301207283
 31
0.0
 11
8.0798111517
 21
5.232563407
 31
0.0
 11
8.0991944294
 21
5.2359574176
 31
0.0
 11
8.1183840537
 21
5.2402972954
 31
0.0
 11
8.1373310486
 21
5.2455727289
 31
0.0
 11
8.1559927743
 21
5.2517685478
 31
0.0
 11
8.1743268676
 21
5.2588693701
 31
0.0
 11
8.1922909654
 21
5.2668598135
 31
0.0
 11
8.2098429231
 21
5.275723025
 31
0.0
 11
8.2435459205
 21
5.2959728845
 31
0.0
 11
8.2751082535
 21
5.3194203513
 31
0.0
 11
8.3042197174
 21
5.3458466227
 31
0.0
 11
8.3177708975
 21
5.3600960945
 31
0.0
 11
8.330607792
 21
5.3749923294
 31
0.0
 11
8.3540135158
 21
5.4065851128
 31
0.0
 11
8.374219044
 21
5.4403160802
 31
0.0
 11
8.3830575549
 21
5.4578834065
 31
0.0
 11
8.391022316
 21
5.4758637049
 31
0.0
 11
8.4042651251
 21
5.5128852674
 31
0.0
 11
8.4095113457
 21
5.5318371188
 31
0.0
 11
8.4138201617
 21
5.5510232817
 31
0.0
 11
8.4195920587
 21
5.589913371
 31
0.0
 11
8.4215314416
 21
5.6291814754
 31
0.0
 11
8.4210526202
 21
5.648840057
 31
0.0
 11
8.419610991
 21
5.6684521968
 31
0.0
 11
8.4138580045
 21
5.7073484557
 31
0.0
 11
8.4043174177
 21
5.7454943675
 31
0.0
 11
8.3910879243
 21
5.782524776
 31
0.0
 11
8.3831279655
 21
5.8005090092
 31
0.0
 11
8.374292991
 21
5.818079852
 31
0.0
 11
8.3540934943
 21
5.8518171778
 31
0.0
 11
8.3427796332
 21
5.8679029231
 31
0.0
 11
8.3306901731
 21
5.8834129296
 31
0.0
 11
8.3178532015
 21
5.8983092731
 31
0.0
 11
8.3043014134
 21
5.9125581148
 31
0.0
 11
8.2751859518
 21
5.9389795182
 31
0.0
 11
8.2436159211
 21
5.9624169319
 31
0.0
 11
8.2099028979
 21
5.982651476
 31
0.0
 11
8.1923444437
 21
5.9915037991
 31
0.0
 11
8.1743728385
 21
5.9994814795
 31
0.0
 11
8.1560306415
 21
6.0065678286
 31
0.0
 11
8.1373605924
 21
6.0127470044
 31
0.0
 11
8.1184054307
 21
6.0180031646
 31
0.0
 11
8.0992082666
 21
6.0223207706
 31
0.0
 11
8.0798188567
 21
6.0256897201
 31
0.0
 11
8.060292699
 21
6.0281046079
 31
0.0
 11
8.0210528881
 21
6.0300511954
 31
0.0
  0
LINE
  5
2A1
100
AcDbEntity
  8
0
100
AcDbLine
 62
6
  6
CONTINUOUS
 10
8.0210528881
 20
6.0300511954
 11
8.0205606842
 21
6.0300510655
  0
LINE
  5
2A2
100
AcDbEntity
  8
0
100
AcDbLine
 62
6
  6
CONTINUOUS
 10
8.0205606842
 20
5.2303328876
 11
8.0210566622
 21
5.2303336377
  0
SPLINE
  5
2A3
100
AcDbEntity
  8
0
100
AcDbSpline
 62
6
  6
CONTINUOUS
 70
0
 71
3
 72
54
 73
50
 74
48
 42
0.0000001
 43
0.0000001
 44
0.0000000001
 12
1.2513861751
 22
0.0026759269
 32
0.0
 13
-1.2513889612
 23
0.0004331498
 33
0.0
 40
0.0
 40
0.0
 40
0.0
 40
0.0
 40
0.0312211802
 40
0.0468559494
 40
0.0624944034
 40
0.0781300189
 40
0.0937605003
 40
0.109387427
 40
0.1250123126
 40
0.1406366472
 40
0.1562618953
 40
0.1875059311
 40
0.2187503339
 40
0.2499943307
 40
0.2656212037
 40
0.2812482691
 40
0.3124946934
 40
0.3437428996
 40
0.3593717211
 40
0.3750006867
 40
0.4062494728
 40
0.4218780474
 40
0.4375061042
 40
0.4687521973
 40
0.4999972167
 40
0.5156241714
 40
0.531251343
 40
0.5624968896
 40
0.5781246855
 40
0.5937530435
 40
0.6250015173
 40
0.6406303706
 40
0.6562590779
 40
0.6875070588
 40
0.7187533494
 40
0.7343803862
 40
0.7500072447
 40
0.7812512277
 40
0.8124956685
 40
0.8437397422
 40
0.8593649612
 40
0.8749891566
 40
0.8906137954
 40
0.9062404106
 40
0.9218705613
 40
0.9375058921
 40
0.9531442009
 40
0.9687789187
 40
1.0
 40
1.0
 40
1.0
 40
1.0
 10
8.0210566622
 20
5.2303336377
 30
0.0
 10
8.0340799133
 20
5.2303614862
 30
0.0
 10
8.0536403758
 20
5.2313677287
 30
0.0
 10
8.079513595
 20
5.2346059647
 30
0.0
 10
8.0987959238
 20
5.2379816858
 30
0.0
 10
8.117886762
 20
5.2422993287
 30
0.0
 10
8.1367377168
 20
5.2475493513
 30
0.0
 10
8.1553047221
 20
5.2537145075
 30
0.0
 10
8.1735454178
 20
5.2607795675
 30
0.0
 10
8.1914181955
 20
5.2687291261
 30
0.0
 10
8.2146947771
 20
5.2804842778
 30
0.0
 10
8.2426730434
 20
5.2972955731
 30
0.0
 10
8.274108018
 20
5.3206456475
 30
0.0
 10
8.2982739085
 20
5.3425880947
 30
0.0
 10
8.3162452454
 20
5.3614857842
 30
0.0
 10
8.3332710445
 20
5.3812415482
 30
0.0
 10
8.352699978
 20
5.4074721467
 30
0.0
 10
8.3694746247
 20
5.4354750448
 30
0.0
 10
8.3811973152
 20
5.458774785
 30
0.0
 10
8.3917592848
 20
5.4826221772
 30
0.0
 10
8.4005562299
 20
5.5072192584
 30
0.0
 10
8.4075141476
 20
5.5323551648
 30
0.0
 10
8.4132285976
 20
5.5578026355
 30
0.0
 10
8.4180165468
 20
5.5900906846
 30
0.0
 10
8.4196280578
 20
5.6226917059
 30
0.0
 10
8.4189910549
 20
5.6487636222
 30
0.0
 10
8.4170771537
 20
5.6747719947
 30
0.0
 10
8.4132552707
 20
5.7006113597
 30
0.0
 10
8.4075500678
 20
5.7260595745
 30
0.0
 10
8.4006003049
 20
5.7511976331
 30
0.0
 10
8.391810177
 20
5.7757968303
 30
0.0
 10
8.3812539666
 20
5.7996465489
 30
0.0
 10
8.3695362475
 20
5.8229485956
 30
0.0
 10
8.3527650468
 20
5.8509534648
 30
0.0
 10
8.3333370069
 20
5.8771846578
 30
0.0
 10
8.3163101813
 20
5.896939477
 30
0.0
 10
8.298336438
 20
5.9158348802
 30
0.0
 10
8.2741654555
 20
5.9377719551
 30
0.0
 10
8.2427215752
 20
5.9611104331
 30
0.0
 10
8.2147336971
 20
5.9779061677
 30
0.0
 10
8.1914490944
 20
5.989645367
 30
0.0
 10
8.1735702196
 20
5.9975808646
 30
0.0
 10
8.1553234724
 20
6.0046295671
 30
0.0
 10
8.1367506398
 20
6.0107760758
 30
0.0
 10
8.1178942198
 20
6.0160051181
 30
0.0
 10
8.0987984105
 20
6.0202994429
 30
0.0
 10
8.0795117239
 20
6.0236492594
 30
0.0
 10
8.0536338775
 20
6.0268495724
 30
0.0
 10
8.0340716171
 20
6.0278234493
 30
0.0
 10
8.0210483782
 20
6.0278279571
 30
0.0
 11
8.0210566622
 21
5.2303336377
 31
0.0
 11
8.0600752802
 21
5.2323336496
 31
0.0
 11
8.0794890189
 21
5.2347632522
 31
0.0
 11
8.0987654591
 21
5.2381389789
 31
0.0
 11
8.1178496351
 21
5.2424554462
 31
0.0
 11
8.1366925254
 21
5.247702519
 31
0.0
 11
8.1552515424
 21
5.2538649193
 31
0.0
 11
8.17348442
 21
5.2609271123
 31
0.0
 11
8.1913488919
 21
5.2688735634
 31
0.0
 11
8.2088029146
 21
5.2776875994
 31
0.0
 11
8.2423166625
 21
5.2978250522
 31
0.0
 11
8.2737018601
 21
5.3211422905
 31
0.0
 11
8.30265099
 21
5.3474221758
 31
0.0
 11
8.3161268978
 21
5.3615929051
 31
0.0
 11
8.3288926281
 21
5.3764069258
 31
0.0
 11
8.3521686555
 21
5.4078258467
 31
0.0
 11
8.3722623654
 21
5.4413719234
 31
0.0
 11
8.3810521649
 21
5.45884317
 31
0.0
 11
8.3889728122
 21
5.4767254358
 31
0.0
 11
8.4021417348
 21
5.513545711
 31
0.0
 11
8.4073587779
 21
5.5323944618
 31
0.0
 11
8.4116436568
 21
5.5514760607
 31
0.0
 11
8.4173813506
 21
5.5901538128
 31
0.0
 11
8.4193082972
 21
5.6292059758
 31
0.0
 11
8.4188314258
 21
5.6487555603
 31
0.0
 11
8.4173963816
 21
5.6682585069
 31
0.0
 11
8.4116726758
 21
5.70693764
 31
0.0
 11
8.407394569
 21
5.7260204237
 31
0.0
 11
8.402183674
 21
5.7448705941
 31
0.0
 11
8.3890250672
 21
5.781694142
 31
0.0
 11
8.3811087194
 21
5.799578158
 31
0.0
 11
8.3723225629
 21
5.817051077
 31
0.0
 11
8.3522332392
 21
5.8505994518
 31
0.0
 11
8.3289582079
 21
5.8820189024
 31
0.0
 11
8.3161916693
 21
5.8968321792
 31
0.0
 11
8.3027139878
 21
5.9110011967
 31
0.0
 11
8.2737588511
 21
5.9372744379
 31
0.0
 11
8.2423647558
 21
5.9605797746
 31
0.0
 11
8.2088397603
 21
5.9806985892
 31
0.0
 11
8.1913797158
 21
5.9895006093
 31
0.0
 11
8.17350917
 21
5.9974329621
 31
0.0
 11
8.1552702926
 21
6.0044787886
 31
0.0
 11
8.1367054993
 21
6.0106225249
 31
0.0
 11
8.1178572059
 21
6.0158486071
 31
0.0
 11
8.0987681246
 21
6.0201417054
 31
0.0
 11
8.0794873514
 21
6.0234915344
 31
0.0
 11
8.0600701362
 21
6.0258926701
 31
0.0
 11
8.0210483782
 21
6.0278279571
 31
0.0
  0
LINE
  5
2A4
100
AcDbEntity
  8
0
100
AcDbLine
 62
6
  6
CONTINUOUS
 10
8.0210483782
 20
6.0278279571
 11
8.0205606842
 21
6.0278278248
  0
LINE
  5
2A5
100
AcDbEntity
  8
0
100
AcDbLine
 62
6
  6
CONTINUOUS
 10
8.0205606842
 20
5.2325561272
 11
8.0210596091
 21
5.2325568878
  0
SPLINE
  5
2A6
100
AcDbEntity
  8
0
100
AcDbSpline
 62
6
  6
CONTINUOUS
 70
0
 71
3
 72
54
 73
50
 74
48
 42
0.0000001
 43
0.0000001
 44
0.0000000001
 12
1.2444019958
 22
0.0026852805
 32
0.0
 13
-1.2444048193
 23
0.0004283377
 33
0.0
 40
0.0
 40
0.0
 40
0.0
 40
0.0
 40
0.0312214053
 40
0.0468565219
 40
0.0624955513
 40
0.0781319954
 40
0.093763399
 40
0.1093912638
 40
0.1250170432
 40
0.1406421565
 40
0.1562680545
 40
0.1875132766
 40
0.2187585221
 40
0.2500026374
 40
0.2656294587
 40
0.2812564654
 40
0.2968839928
 40
0.3125122745
 40
0.3437607373
 40
0.359389685
 40
0.375018706
 40
0.4062676326
 40
0.4375151531
 40
0.4687615256
 40
0.4843889474
 40
0.5000158558
 40
0.5312595114
 40
0.562503415
 40
0.5781302882
 40
0.5937577026
 40
0.6250044368
 40
0.6406325594
 40
0.6562606484
 40
0.6875077213
 40
0.7187534863
 40
0.73438038
 40
0.750007193
 40
0.7812514944
 40
0.8124969443
 40
0.8437421536
 40
0.8593676575
 40
0.8749917676
 40
0.8906160152
 40
0.9062420706
 40
0.9218716196
 40
0.9375064328
 40
0.9531444215
 40
0.9687789788
 40
1.0
 40
1.0
 40
1.0
 40
1.0
 10
8.0210596091
 20
5.2325568878
 30
0.0
 10
8.0340102688
 20
5.2325848339
 30
0.0
 10
8.0534617792
 20
5.2335858991
 30
0.0
 10
8.079191
 20
5.2368066762
 30
0.0
 10
8.0983663578
 20
5.2401640712
 30
0.0
 10
8.1173515287
 20
5.2444581028
 30
0.0
 10
8.1360982188
 20
5.2496796034
 30
0.0
 10
8.1545625054
 20
5.2558112513
 30
0.0
 10
8.1727022004
 20
5.2628378038
 30
0.0
 10
8.1904759378
 20
5.2707437624
 30
0.0
 10
8.2136233165
 20
5.2824343434
 30
0.0
 10
8.2414453403
 20
5.2991541391
 30
0.0
 10
8.2727052259
 20
5.3223747635
 30
0.0
 10
8.2967358219
 20
5.3441961082
 30
0.0
 10
8.3146056923
 20
5.3629889128
 30
0.0
 10
8.3273056197
 20
5.3777263081
 30
0.0
 10
8.3392659537
 20
5.3930710138
 30
0.0
 10
8.3541873168
 20
5.4142832752
 30
0.0
 10
8.36753574
 20
5.4365682723
 30
0.0
 10
8.3791923379
 20
5.4597373224
 30
0.0
 10
8.3896951608
 20
5.4834528236
 30
0.0
 10
8.4006262357
 20
5.5140201308
 30
0.0
 10
8.4100917526
 20
5.551796731
 30
0.0
 10
8.414850254
 20
5.5839078319
 30
0.0
 10
8.4167621179
 20
5.6097714394
 30
0.0
 10
8.4174054397
 20
5.635696952
 30
0.0
 10
8.4158150535
 20
5.6681152782
 30
0.0
 10
8.4110637037
 20
5.7002225733
 30
0.0
 10
8.4053905018
 20
5.7255281848
 30
0.0
 10
8.3984795823
 20
5.7505241955
 30
0.0
 10
8.3897383891
 20
5.7749846451
 30
0.0
 10
8.3792412745
 20
5.798699912
 30
0.0
 10
8.3675893021
 20
5.8218710374
 30
0.0
 10
8.3509119045
 20
5.849718737
 30
0.0
 10
8.3315925798
 20
5.8758029169
 30
0.0
 10
8.3146609817
 20
5.8954472622
 30
0.0
 10
8.2967875158
 20
5.9142372476
 30
0.0
 10
8.2727509945
 20
5.9360522088
 30
0.0
 10
8.2414814928
 20
5.9592606697
 30
0.0
 10
8.2136487646
 20
5.9759628431
 30
0.0
 10
8.1904936683
 20
5.9876368604
 30
0.0
 10
8.1727146664
 20
5.99552808
 30
0.0
 10
8.1545700999
 20
6.0025371459
 30
0.0
 10
8.1361014646
 20
6.0086489338
 30
0.0
 10
8.1173508959
 20
6.0138483844
 30
0.0
 10
8.0983622283
 20
6.0181185281
 30
0.0
 10
8.0791835772
 20
6.0214494998
 30
0.0
 10
8.0534503723
 20
6.0246318508
 30
0.0
 10
8.0339973815
 20
6.0256002604
 30
0.0
 10
8.0210468517
 20
6.0256047181
 30
0.0
 11
8.0210596091
 21
5.2325568878
 31
0.0
 11
8.0598606978
 21
5.2345465651
 31
0.0
 11
8.079166464
 21
5.2369630718
 31
0.0
 11
8.0983359603
 21
5.2403204536
 31
0.0
 11
8.1173145575
 21
5.2446133826
 31
0.0
 11
8.1360532624
 21
5.2498319335
 31
0.0
 11
8.1545096318
 21
5.2559608373
 31
0.0
 11
8.1726415901
 21
5.2629845253
 31
0.0
 11
8.1904070618
 21
5.2708874287
 31
0.0
 11
8.2077641528
 21
5.279653114
 31
0.0
 11
8.2410912043
 21
5.2996804653
 31
0.0
 11
8.2723014809
 21
5.3228689982
 31
0.0
 11
8.3010881813
 21
5.3490033804
 31
0.0
 11
8.3144881866
 21
5.3630955905
 31
0.0
 11
8.3271821539
 21
5.3778272807
 31
0.0
 11
8.3391377299
 21
5.3931651068
 31
0.0
 11
8.3503272365
 21
5.4090715882
 31
0.0
 11
8.3703075187
 21
5.4424315808
 31
0.0
 11
8.3790480714
 21
5.4598055897
 31
0.0
 11
8.3869241298
 21
5.4775882975
 31
0.0
 11
8.4000179448
 21
5.5142038363
 31
0.0
 11
8.4094659449
 21
5.5519231268
 31
0.0
 11
8.4151700483
 21
5.590385598
 31
0.0
 11
8.4166035439
 21
5.6097795322
 31
0.0
 11
8.417084983
 21
5.6292197729
 31
0.0
 11
8.415182911
 21
5.6680529764
 31
0.0
 11
8.4094900531
 21
5.7065140079
 31
0.0
 11
8.405235855
 21
5.7254891189
 31
0.0
 11
8.4000541002
 21
5.7442328819
 31
0.0
 11
8.3869689361
 21
5.7808486158
 31
0.0
 11
8.3790968973
 21
5.7986318809
 31
0.0
 11
8.3703600275
 21
5.8160065461
 31
0.0
 11
8.3503831916
 21
5.8493665864
 31
0.0
 11
8.3272383323
 21
5.8806100686
 31
0.0
 11
8.3145431584
 21
5.8953405335
 31
0.0
 11
8.301140736
 21
5.9094304306
 31
0.0
 11
8.2723468328
 21
5.9355572214
 31
0.0
 11
8.2411267073
 21
5.9587329193
 31
0.0
 11
8.2077874351
 21
5.9787398893
 31
0.0
 11
8.1904245345
 21
5.9874929718
 31
0.0
 11
8.1726538289
 21
5.995381023
 31
0.0
 11
8.1545171504
 21
6.0023872251
 31
0.0
 11
8.136056563
 21
6.0084962494
 31
0.0
 11
8.117314131
 21
6.0136927671
 31
0.0
 11
8.0983321931
 21
6.01796166
 31
0.0
 11
8.0791594079
 21
6.0212926517
 31
0.0
 11
8.0598507538
 21
6.0236803078
 31
0.0
 11
8.0210468517
 21
6.0256047181
 31
0.0
  0
LINE
  5
2A7
100
AcDbEntity
  8
0
100
AcDbLine
 62
6
  6
CONTINUOUS
 10
8.0210468517
 20
6.0256047181
 11
8.0205606842
 21
6.0256045846
  0
LINE
  5
2A8
100
AcDbEntity
  8
0
100
AcDbLine
 62
6
  6
CONTINUOUS
 10
8.0205606842
 20
5.2347793688
 11
8.0210618874
 21
5.2347801387
  0
SPLINE
  5
2A9
100
AcDbEntity
  8
0
100
AcDbSpline
 62
6
  6
CONTINUOUS
 70
0
 71
3
 72
55
 73
51
 74
49
 42
0.0000001
 43
0.0000001
 44
0.0000000001
 12
1.2374298176
 22
0.0026925372
 32
0.0
 13
-1.2374326741
 23
0.0004244733
 33
0.0
 40
0.0
 40
0.0
 40
0.0
 40
0.0
 40
0.0312212579
 40
0.0468564835
 40
0.0624958145
 40
0.078132786
 40
0.093764841
 40
0.1093934477
 40
0.1250200455
 40
0.1406460337
 40
0.1562728797
 40
0.1875202512
 40
0.218767141
 40
0.2500112584
 40
0.265637607
 40
0.2812639065
 40
0.2968905093
 40
0.3125177557
 40
0.3437641777
 40
0.3593922157
 40
0.3750204198
 40
0.4062680167
 40
0.4375144736
 40
0.4687598955
 40
0.4843870072
 40
0.5000137844
 40
0.5312576919
 40
0.562501604
 40
0.5781279171
 40
0.5937542586
 40
0.6249979967
 40
0.6406245589
 40
0.656251257
 40
0.6874960765
 40
0.7031230467
 40
0.7187496092
 40
0.7343759656
 40
0.7500024245
 40
0.7812465609
 40
0.8124926953
 40
0.8437390791
 40
0.8593653271
 40
0.8749903494
 40
0.8906155871
 40
0.9062425343
 40
0.9218726981
 40
0.9375076889
 40
0.9531454843
 40
0.9687796567
 40
1.0
 40
1.0
 40
1.0
 40
1.0
 10
8.0210618874
 20
5.2347801387
 30
0.0
 10
8.0339399259
 20
5.2348081602
 30
0.0
 10
8.0532824187
 20
5.2358040015
 30
0.0
 10
8.0788675293
 20
5.2390072433
 30
0.0
 10
8.0979357708
 20
5.2423462382
 30
0.0
 10
8.1168151153
 20
5.246616578
 30
0.0
 10
8.135457433
 20
5.251809412
 30
0.0
 10
8.153818988
 20
5.2579074352
 30
0.0
 10
8.1718578057
 20
5.2648954515
 30
0.0
 10
8.1895327744
 20
5.2727579589
 30
0.0
 10
8.2125516364
 20
5.2843843885
 30
0.0
 10
8.2402182756
 20
5.3010134628
 30
0.0
 10
8.2713040028
 20
5.3241052211
 30
0.0
 10
8.2951995057
 20
5.3458056093
 30
0.0
 10
8.3129677377
 20
5.3644938909
 30
0.0
 10
8.3255953153
 20
5.3791485815
 30
0.0
 10
8.337487868
 20
5.3944065179
 30
0.0
 10
8.3523238744
 20
5.4154991678
 30
0.0
 10
8.3655955034
 20
5.437658567
 30
0.0
 10
8.3771856709
 20
5.4606966176
 30
0.0
 10
8.3876288413
 20
5.4842782327
 30
0.0
 10
8.3984971172
 20
5.5146734228
 30
0.0
 10
8.4079089834
 20
5.5522370695
 30
0.0
 10
8.4126403434
 20
5.5841673755
 30
0.0
 10
8.414540972
 20
5.6098855365
 30
0.0
 10
8.4151803279
 20
5.6356657234
 30
0.0
 10
8.4135982201
 20
5.6679024513
 30
0.0
 10
8.4088728898
 20
5.6998296164
 30
0.0
 10
8.4032318848
 20
5.7249928422
 30
0.0
 10
8.3963603084
 20
5.7498470158
 30
0.0
 10
8.3876687389
 20
5.7741680943
 30
0.0
 10
8.3772310068
 20
5.797748296
 30
0.0
 10
8.3656457216
 20
5.8207868909
 30
0.0
 10
8.3523754329
 20
5.8429456302
 30
0.0
 10
8.3375395416
 20
5.8640373897
 30
0.0
 10
8.3256468322
 20
5.8792950863
 30
0.0
 10
8.3130175234
 20
5.8939484041
 30
0.0
 10
8.2952453405
 20
5.9126330682
 30
0.0
 10
8.2713438655
 20
5.9343266451
 30
0.0
 10
8.2402490341
 20
5.9574054055
 30
0.0
 10
8.2125719959
 20
5.9740156819
 30
0.0
 10
8.1895456627
 20
5.9856249904
 30
0.0
 10
8.1718652413
 20
5.9934723637
 30
0.0
 10
8.1538212684
 20
6.0004425928
 30
0.0
 10
8.1354551565
 20
6.0065205357
 30
0.0
 10
8.1168090147
 20
6.0116911832
 30
0.0
 10
8.0979265341
 20
6.0159376343
 30
0.0
 10
8.0788555012
 20
6.0192499361
 30
0.0
 10
8.0532669714
 20
6.0224142787
 30
0.0
 10
8.0339234049
 20
6.0233770597
 30
0.0
 10
8.0210457139
 20
6.0233814771
 30
0.0
 11
8.0210618874
 21
5.2347801387
 31
0.0
 11
8.0596453617
 21
5.2367593966
 31
0.0
 11
8.0788430493
 21
5.2391627481
 31
0.0
 11
8.0979054531
 21
5.2425017115
 31
0.0
 11
8.1167782919
 21
5.2467710051
 31
0.0
 11
8.1354126834
 21
5.2519608955
 31
0.0
 11
8.1537663724
 21
5.2580561843
 31
0.0
 11
8.17179751
 21
5.2650413386
 31
0.0
 11
8.1894642473
 21
5.2729008251
 31
0.0
 11
8.2067248715
 21
5.2816184526
 31
0.0
 11
8.2398664664
 21
5.3015366483
 31
0.0
 11
8.2709029158
 21
5.3245972758
 31
0.0
 11
8.2995272806
 21
5.3505863923
 31
0.0
 11
8.3128510028
 21
5.3645999858
 31
0.0
 11
8.3254726936
 21
5.3792489772
 31
0.0
 11
8.3373603127
 21
5.3945001759
 31
0.0
 11
8.3484858407
 21
5.4103168749
 31
0.0
 11
8.368351506
 21
5.4434886144
 31
0.0
 11
8.3770422199
 21
5.4607644565
 31
0.0
 11
8.3848734551
 21
5.4784467339
 31
0.0
 11
8.3978924003
 21
5.514855915
 31
0.0
 11
8.4072866719
 21
5.5523627139
 31
0.0
 11
8.4129581909
 21
5.5906085914
 31
0.0
 11
8.4143833003
 21
5.6098935067
 31
0.0
 11
8.4148617436
 21
5.6292246728
 31
0.0
 11
8.412969609
 21
5.6678405786
 31
0.0
 11
8.4073081435
 21
5.7060860569
 31
0.0
 11
8.4030780423
 21
5.7249542025
 31
0.0
 11
8.3979257517
 21
5.7435916901
 31
0.0
 11
8.3849149271
 21
5.779998703
 31
0.0
 11
8.3770875898
 21
5.7976804843
 31
0.0
 11
8.3684004018
 21
5.8149562439
 31
0.0
 11
8.3485375452
 21
5.8481273541
 31
0.0
 11
8.3374120509
 21
5.8639436591
 31
0.0
 11
8.3255239901
 21
5.87919445
 31
0.0
 11
8.3129005983
 21
5.8938420686
 31
0.0
 11
8.2995739762
 21
5.9078530928
 31
0.0
 11
8.2709421566
 21
5.9338340313
 31
0.0
 11
8.2398965223
 21
5.9568807238
 31
0.0
 11
8.2067433231
 21
5.9767772235
 31
0.0
 11
8.1894769606
 21
5.9854818364
 31
0.0
 11
8.1718047778
 21
5.9933261251
 31
0.0
 11
8.1537685769
 21
6.0002935261
 31
0.0
 11
8.1354103975
 21
6.006368744
 31
0.0
 11
8.1167722795
 21
6.0115364836
 31
0.0
 11
8.0978965109
 21
6.0157816489
 31
0.0
 11
8.0788313872
 21
6.0190939633
 31
0.0
 11
8.0596313784
 21
6.021468104
 31
0.0
 11
8.0210457139
 21
6.0233814771
 31
0.0
  0
LINE
  5
2AA
100
AcDbEntity
  8
0
100
AcDbLine
 62
6
  6
CONTINUOUS
 10
8.0210457139
 20
6.0233814771
 11
8.0205606842
 21
6.0233813423
  0
LINE
  5
2AB
100
AcDbEntity
  8
0
100
AcDbLine
 62
6
  6
CONTINUOUS
 10
8.0205606842
 20
5.2370026108
 11
8.0210600332
 21
5.237003381
  0
LINE
  5
2AC
100
AcDbEntity
  8
0
100
AcDbLine
 62
6
  6
CONTINUOUS
 10
8.0210538084
 20
6.0211582339
 11
8.0205606842
 21
6.0211581014
  0
LINE
  5
2AD
100
AcDbEntity
  8
0
100
AcDbLine
 62
6
  6
CONTINUOUS
 10
8.0205606842
 20
5.2392258505
 11
8.0210542402
 21
5.2392266123
  0
LINE
  5
2AE
100
AcDbEntity
  8
0
100
AcDbLine
 62
6
  6
CONTINUOUS
 10
8.0210542186
 20
6.0189349946
 11
8.0205606842
 21
6.0189348614
  0
LINE
  5
2AF
100
AcDbEntity
  8
0
100
AcDbLine
 62
6
  6
CONTINUOUS
 10
8.0205606842
 20
5.2414490919
 11
8.021053994
 21
5.2414498576
  0
LINE
  5
2B0
100
AcDbEntity
  8
0
100
AcDbLine
 62
6
  6
CONTINUOUS
 10
8.0205606842
 20
5.2264710277
 11
8.0201323089
 21
5.2264708812
  0
SPLINE
  5
2B1
100
AcDbEntity
  8
0
100
AcDbSpline
 62
6
  6
CONTINUOUS
 70
0
 71
3
 72
39
 73
35
 74
33
 42
0.0000001
 43
0.0000001
 44
0.0000000001
 12
-1.0435203137
 22
0.0002020659
 32
0.0
 13
0.8867189135
 23
0.550149302
 33
0.0
 40
0.0
 40
0.0
 40
0.0
 40
0.0
 40
0.0312197019
 40
0.06248372
 40
0.0937548679
 40
0.1250119184
 40
0.1562605079
 40
0.1875083291
 40
0.2187597739
 40
0.2500119216
 40
0.2812616947
 40
0.3125100526
 40
0.3437582459
 40
0.3750078963
 40
0.4062595736
 40
0.4375116559
 40
0.4687640251
 40
0.5000165327
 40
0.531267652
 40
0.5625177697
 40
0.5937671448
 40
0.6250153556
 40
0.6562635504
 40
0.6875114887
 40
0.7187590633
 40
0.7500073391
 40
0.7812558271
 40
0.8125049425
 40
0.8437546607
 40
0.875003295
 40
0.9062512049
 40
0.9374995268
 40
0.9687489334
 40
1.0
 40
1.0
 40
1.0
 40
1.0
 10
8.0201323089
 20
5.2264708812
 30
0.0
 10
8.0092728446
 20
5.226472984
 30
0.0
 10
7.9875286256
 20
5.2273627169
 30
0.0
 10
7.9551239579
 20
5.2313180156
 30
0.0
 10
7.9231281402
 20
5.2378759749
 30
0.0
 10
7.8917763595
 20
5.2470089344
 30
0.0
 10
7.8612708851
 20
5.2586374303
 30
0.0
 10
7.8318072448
 20
5.2726941717
 30
0.0
 10
7.8035767495
 20
5.2890891393
 30
0.0
 10
7.7767561775
 20
5.3077025276
 30
0.0
 10
7.7515306962
 20
5.3284252249
 30
0.0
 10
7.7280647994
 20
5.3511186267
 30
0.0
 10
7.7065025664
 20
5.3756281644
 30
0.0
 10
7.6869963023
 20
5.4018052009
 30
0.0
 10
7.6696638967
 20
5.4294706927
 30
0.0
 10
7.6546162009
 20
5.4584438974
 30
0.0
 10
7.6419668406
 20
5.4885419159
 30
0.0
 10
7.6317828759
 20
5.5195602495
 30
0.0
 10
7.6241338273
 20
5.5512985559
 30
0.0
 10
7.6190809099
 20
5.5835508845
 30
0.0
 10
7.616639517
 20
5.6161039938
 30
0.0
 10
7.6168355112
 20
5.648747663
 30
0.0
 10
7.6196702863
 20
5.6812677577
 30
0.0
 10
7.6251111199
 20
5.7134543753
 30
0.0
 10
7.6331379776
 20
5.7450956387
 30
0.0
 10
7.6436913175
 20
5.7759859618
 30
0.0
 10
7.6566964251
 20
5.8059276747
 30
0.0
 10
7.6720836741
 20
5.8347184325
 30
0.0
 10
7.6897384776
 20
5.8621767612
 30
0.0
 10
7.7095476937
 20
5.888123803
 30
0.0
 10
7.7313910937
 20
5.9123821786
 30
0.0
 10
7.7551151289
 20
5.9348057518
 30
0.0
 10
7.7805714936
 20
5.9552403816
 30
0.0
 10
7.7985926165
 20
5.9674505257
 30
0.0
 10
7.8078295871
 20
5.9731814432
 30
0.0
 11
8.0201323089
 21
5.2264708812
 31
0.0
 11
7.9875809591
 21
5.2277980441
 31
0.0
 11
7.9551967072
 21
5.2317511788
 31
0.0
 11
7.923229859
 21
5.2383065718
 31
0.0
 11
7.8919133274
 21
5.2474261947
 31
0.0
 11
7.8614439684
 21
5.259042345
 31
0.0
 11
7.8320140648
 21
5.2730831882
 31
0.0
 11
7.8038120462
 21
5.2894586959
 31
0.0
 11
7.777021227
 21
5.3080546892
 31
0.0
 11
7.7518234181
 21
5.3287541521
 31
0.0
 11
7.7283820274
 21
5.351421358
 31
0.0
 11
7.7068456642
 21
5.3759055341
 31
0.0
 11
7.6873591397
 21
5.40205251
 31
0.0
 11
7.6700448334
 21
5.4296883877
 31
0.0
 11
7.6550159869
 21
5.4586312326
 31
0.0
 11
7.6423777408
 21
5.4886953104
 31
0.0
 11
7.6322051967
 21
5.5196808359
 31
0.0
 11
7.6245664111
 21
5.5513847459
 31
0.0
 11
7.6195161153
 21
5.5836014389
 31
0.0
 11
7.617079062
 21
5.6161196033
 31
0.0
 11
7.61727531
 21
5.6487271561
 31
0.0
 11
7.6201046462
 21
5.6812123032
 31
0.0
 11
7.6255421469
 21
5.7133636027
 31
0.0
 11
7.6335589781
 21
5.744970218
 31
0.0
 11
7.6440998867
 21
5.7758277078
 31
0.0
 11
7.6570933165
 21
5.8057355775
 31
0.0
 11
7.6724614928
 21
5.8344961708
 31
0.0
 11
7.6900978057
 21
5.8619252442
 31
0.0
 11
7.7098869343
 21
5.8878426172
 31
0.0
 11
7.7317043985
 21
5.9120762466
 31
0.0
 11
7.755403426
 21
5.9344738953
 31
0.0
 11
7.7808334955
 21
5.9548867333
 31
0.0
 11
7.8078295871
 21
5.9731814432
 31
0.0
  0
LINE
  5
2B2
100
AcDbEntity
  8
0
100
AcDbLine
 62
6
  6
CONTINUOUS
 10
8.0201336549
 20
6.0339123247
 11
8.0205606842
 21
6.0339129259
  0
LINE
  5
2B3
100
AcDbEntity
  8
0
100
AcDbLine
 62
6
  6
CONTINUOUS
 10
8.0205606842
 20
6.0272432027
 11
8.0209829361
 21
6.0272433524
  0
SPLINE
  5
2B4
100
AcDbEntity
  8
0
100
AcDbSpline
 62
6
  6
CONTINUOUS
 70
0
 71
3
 72
54
 73
50
 74
48
 42
0.0000001
 43
0.0000001
 44
0.0000000001
 12
1.2496808163
 22
-0.0002258767
 32
0.0
 13
-1.2496783794
 23
-0.0024782516
 33
0.0
 40
0.0
 40
0.0
 40
0.0
 40
0.0
 40
0.0312209114
 40
0.046855451
 40
0.0624934439
 40
0.0781282772
 40
0.0937578427
 40
0.1093839094
 40
0.1250081636
 40
0.140632276
 40
0.15625778
 40
0.1875029921
 40
0.2187484499
 40
0.2499927576
 40
0.2656195747
 40
0.2812464722
 40
0.3124922417
 40
0.3437393206
 40
0.3593674137
 40
0.3749955402
 40
0.4062422809
 40
0.4218696997
 40
0.4374965771
 40
0.4687404867
 40
0.4999841483
 40
0.5156110606
 40
0.5312384865
 40
0.562484865
 40
0.5937323919
 40
0.6249813246
 40
0.6406103493
 40
0.656239301
 40
0.6874877693
 40
0.703116054
 40
0.7187435843
 40
0.7343705945
 40
0.7499974195
 40
0.7812415406
 40
0.8124867936
 40
0.8437320187
 40
0.8593579177
 40
0.8749830346
 40
0.8906088215
 40
0.9062366978
 40
0.9218681178
 40
0.9375045808
 40
0.9531436124
 40
0.9687787094
 40
1.0
 40
1.0
 40
1.0
 40
1.0
 10
8.0209829361
 20
6.0272433524
 30
0.0
 10
8.0339883274
 20
6.0272410017
 30
0.0
 10
8.0535239026
 20
6.0262715548
 30
0.0
 10
8.0793666366
 20
6.0230795767
 30
0.0
 10
8.0986270879
 20
6.0197372688
 30
0.0
 10
8.1176968842
 20
6.015451702
 30
0.0
 10
8.1365276762
 20
6.0102327441
 30
0.0
 10
8.1550754251
 20
6.0040974458
 30
0.0
 10
8.1732978064
 20
5.9970609319
 30
0.0
 10
8.1911531427
 20
5.9891383969
 30
0.0
 10
8.2144077615
 20
5.9774175558
 30
0.0
 10
8.2423602941
 20
5.9606475399
 30
0.0
 10
8.2737646535
 20
5.9373437261
 30
0.0
 10
8.297904996
 20
5.915438353
 30
0.0
 10
8.3158557345
 20
5.8965701138
 30
0.0
 10
8.3328605849
 20
5.876843737
 30
0.0
 10
8.3522635657
 20
5.8506502389
 30
0.0
 10
8.3690132375
 20
5.8226853902
 30
0.0
 10
8.3807157412
 20
5.799416585
 30
0.0
 10
8.3912583885
 20
5.775601218
 30
0.0
 10
8.4000375094
 20
5.7510373549
 30
0.0
 10
8.40697842
 20
5.7259355505
 30
0.0
 10
8.4126762433
 20
5.7005227692
 30
0.0
 10
8.4174482015
 20
5.6682793976
 30
0.0
 10
8.4190454587
 20
5.6357236142
 30
0.0
 10
8.4183993051
 20
5.6096881791
 30
0.0
 10
8.4164790951
 20
5.5837149268
 30
0.0
 10
8.411699864
 20
5.5514677462
 30
0.0
 10
8.4021931554
 20
5.5135312279
 30
0.0
 10
8.3912145571
 20
5.4828347247
 30
0.0
 10
8.3806660963
 20
5.4590191586
 30
0.0
 10
8.3689588687
 20
5.435752478
 30
0.0
 10
8.355552513
 20
5.413373782
 30
0.0
 10
8.3405664439
 20
5.3920725936
 30
0.0
 10
8.3285542677
 20
5.3766637068
 30
0.0
 10
8.3157993306
 20
5.3618648255
 30
0.0
 10
8.2978521139
 20
5.3429938398
 30
0.0
 10
8.273717607
 20
5.3210821812
 30
0.0
 10
8.2423227716
 20
5.2977663284
 30
0.0
 10
8.2143808782
 20
5.2809787928
 30
0.0
 10
8.1911339235
 20
5.2692414813
 30
0.0
 10
8.1732838138
 20
5.2613042727
 30
0.0
 10
8.1550662666
 20
5.2542503376
 30
0.0
 10
8.1365228316
 20
5.2480952454
 30
0.0
 10
8.1176958866
 20
5.2428543063
 30
0.0
 10
8.0986295608
 20
5.2385449233
 30
0.0
 10
8.0793723828
 20
5.2351762627
 30
0.0
 10
8.0535336152
 20
5.2319459536
 30
0.0
 10
8.0339995128
 20
5.2309439225
 30
0.0
 10
8.0209939888
 20
5.2309181311
 30
0.0
 11
8.0209829361
 21
6.0272433524
 31
0.0
 11
8.059951523
 21
6.0253169253
 31
0.0
 11
8.0793423768
 21
6.0229220464
 31
0.0
 11
8.0985969389
 21
6.0195797201
 31
0.0
 11
8.1176599818
 21
6.015295401
 31
0.0
 11
8.1364826016
 21
6.0100793892
 31
0.0
 11
8.1550222664
 21
6.0039468663
 31
0.0
 11
8.173236725
 21
5.9969132291
 31
0.0
 11
8.1910837264
 21
5.9889938747
 31
0.0
 11
8.2085212507
 21
5.9802056842
 31
0.0
 11
8.2420040227
 21
5.9601174667
 31
0.0
 11
8.2733587804
 21
5.936846548
 31
0.0
 11
8.3022770426
 21
5.9106114883
 31
0.0
 11
8.3157374085
 21
5.896462913
 31
0.0
 11
8.3284875048
 21
5.8816709354
 31
0.0
 11
8.3517325747
 21
5.850296525
 31
0.0
 11
8.3717959819
 21
5.816796161
 31
0.0
 11
8.3805707391
 21
5.7993482513
 31
0.0
 11
8.3884769238
 21
5.7814899256
 31
0.0
 11
8.4016188605
 21
5.7447194051
 31
0.0
 11
8.4068231023
 21
5.725896311
 31
0.0
 11
8.4110957625
 21
5.7068408406
 31
0.0
 11
8.4168133118
 21
5.6682168192
 31
0.0
 11
8.4187236
 21
5.6292189733
 31
0.0
 11
8.4182400418
 21
5.6096963081
 31
0.0
 11
8.4168002883
 21
5.5902201571
 31
0.0
 11
8.4110713373
 21
5.5515947062
 31
0.0
 11
8.4015822265
 21
5.5137157516
 31
0.0
 11
8.388431487
 21
5.4769454692
 31
0.0
 11
8.3805212057
 21
5.4590877301
 31
0.0
 11
8.3717426899
 21
5.44164051
 31
0.0
 11
8.3516756976
 21
5.4081402694
 31
0.0
 11
8.3404376679
 21
5.3921671057
 31
0.0
 11
8.3284302733
 21
5.3767651278
 31
0.0
 11
8.3156813231
 21
5.3619719764
 31
0.0
 11
8.3022233181
 21
5.3478211418
 31
0.0
 11
8.2733121534
 21
5.3215786079
 31
0.0
 11
8.2419671529
 21
5.2982949776
 31
0.0
 11
8.2084965216
 21
5.2781865064
 31
0.0
 11
8.1910647672
 21
5.2693857813
 31
0.0
 11
8.1732229606
 21
5.2614516402
 31
0.0
 11
8.1550131847
 21
5.2544005825
 31
0.0
 11
8.1364777026
 21
5.2482482463
 31
0.0
 11
8.1176587777
 21
5.24301027
 31
0.0
 11
8.0985990487
 21
5.2387019858
 31
0.0
 11
8.0793477559
 21
5.2353333403
 31
0.0
 11
8.0599597762
 21
5.2329096822
 31
0.0
 11
8.0209939888
 21
5.2309181311
 31
0.0
  0
LINE
  5
2B5
100
AcDbEntity
  8
0
100
AcDbLine
 62
6
  6
CONTINUOUS
 10
8.0209939888
 20
5.2309181311
 11
8.0205606842
 21
5.2309175091
  0
LINE
  5
2B6
100
AcDbEntity
  8
0
100
AcDbLine
 62
6
  6
CONTINUOUS
 10
8.0205606842
 20
6.0250199603
 11
8.0209819481
 21
6.0250201111
  0
SPLINE
  5
2B7
100
AcDbEntity
  8
0
100
AcDbSpline
 62
6
  6
CONTINUOUS
 70
0
 71
3
 72
56
 73
52
 74
50
 42
0.0000001
 43
0.0000001
 44
0.0000000001
 12
1.2427204997
 22
-0.0002225208
 32
0.0
 13
-1.2427180359
 23
-0.0024845801
 33
0.0
 40
0.0
 40
0.0
 40
0.0
 40
0.0
 40
0.031219942
 40
0.0468539499
 40
0.0624916024
 40
0.0781264657
 40
0.0937564988
 40
0.1093833105
 40
0.1250084087
 40
0.1406332874
 40
0.1562593896
 40
0.1875054844
 40
0.2187513351
 40
0.2499951862
 40
0.2656215032
 40
0.2812477175
 40
0.2968741372
 40
0.3125009648
 40
0.3437454983
 40
0.3593720545
 40
0.3749984746
 40
0.4062419264
 40
0.4218681258
 40
0.4374942966
 40
0.4687379223
 40
0.4999815433
 40
0.5156081783
 40
0.5312351478
 40
0.5624802833
 40
0.5937264543
 40
0.6249737647
 40
0.6406018262
 40
0.6562297219
 40
0.671857583
 40
0.6874852131
 40
0.7031123164
 40
0.7187387761
 40
0.7343649332
 40
0.7499911397
 40
0.781234972
 40
0.8124815782
 40
0.8437286602
 40
0.8593553606
 40
0.8749812062
 40
0.8906076652
 40
0.9062361371
 40
0.921868062
 40
0.9375049057
 40
0.9531440919
 40
0.9687791507
 40
1.0
 40
1.0
 40
1.0
 40
1.0
 10
8.0209819481
 20
6.0250201111
 30
0.0
 10
8.033914502
 20
6.0250177954
 30
0.0
 10
8.0533406541
 20
6.0240539701
 30
0.0
 10
8.0790387137
 20
6.0208799908
 30
0.0
 10
8.0981915471
 20
6.0175563453
 30
0.0
 10
8.1171551572
 20
6.0132944622
 30
0.0
 10
8.1358815247
 20
6.0081042977
 30
0.0
 10
8.1543267541
 20
6.0020028341
 30
0.0
 10
8.1724485463
 20
5.9950051464
 30
0.0
 10
8.190205306
 20
5.9871264468
 30
0.0
 10
8.2133311658
 20
5.9754703012
 30
0.0
 10
8.2411280074
 20
5.9587921597
 30
0.0
 10
8.2723576927
 20
5.9356180252
 30
0.0
 10
8.2963629827
 20
5.9138340188
 30
0.0
 10
8.3142124276
 20
5.895071089
 30
0.0
 10
8.3268966777
 20
5.8803562258
 30
0.0
 10
8.3388411555
 20
5.8650342923
 30
0.0
 10
8.353741651
 20
5.8438535407
 30
0.0
 10
8.3670697657
 20
5.8216010478
 30
0.0
 10
8.378705565
 20
5.7984647743
 30
0.0
 10
8.3891888168
 20
5.7747844726
 30
0.0
 10
8.3979182996
 20
5.7503599822
 30
0.0
 10
8.4048198519
 20
5.7254000151
 30
0.0
 10
8.4104854632
 20
5.700129615
 30
0.0
 10
8.4152313871
 20
5.6680663667
 30
0.0
 10
8.4168203504
 20
5.6356921757
 30
0.0
 10
8.4161781487
 20
5.6098020622
 30
0.0
 10
8.4142691624
 20
5.5839742585
 30
0.0
 10
8.4095170411
 20
5.5519078531
 30
0.0
 10
8.4000640166
 20
5.5141843811
 30
0.0
 10
8.389148032
 20
5.4836597305
 30
0.0
 10
8.3786595587
 20
5.4599786087
 30
0.0
 10
8.3699265363
 20
5.4426224895
 30
0.0
 10
8.3603538835
 20
5.4257157994
 30
0.0
 10
8.3499660657
 20
5.409297622
 30
0.0
 10
8.3387880346
 20
5.3934075713
 30
0.0
 10
8.3268438872
 20
5.3780859181
 30
0.0
 10
8.3141612251
 20
5.3633696259
 30
0.0
 10
8.2963156592
 20
5.3446032079
 30
0.0
 10
8.2723162138
 20
5.322812496
 30
0.0
 10
8.2410955155
 20
5.2996255259
 30
0.0
 10
8.2133089859
 20
5.2829287154
 30
0.0
 10
8.1901905298
 20
5.2712555672
 30
0.0
 10
8.1724391766
 20
5.2633618181
 30
0.0
 10
8.1543224953
 20
5.2563464287
 30
0.0
 10
8.1358817812
 20
5.2502249717
 30
0.0
 10
8.1171591988
 20
5.2450127113
 30
0.0
 10
8.098198691
 20
5.2407270331
 30
0.0
 10
8.0790486229
 20
5.2373767857
 30
0.0
 10
8.0533539596
 20
5.2341640301
 30
0.0
 10
8.0339288717
 20
5.233167237
 30
0.0
 10
8.0209959675
 20
5.2331413801
 30
0.0
 11
8.0209819481
 21
6.0250201111
 31
0.0
 11
8.0597323008
 21
6.0231047065
 31
0.0
 11
8.0790145091
 21
6.0207233359
 31
0.0
 11
8.0981614095
 21
6.0173996792
 31
0.0
 11
8.1171182836
 21
6.0131390791
 31
0.0
 11
8.135836592
 21
6.0079518357
 31
0.0
 11
8.1542738529
 21
6.0018531088
 31
0.0
 11
8.1723878387
 21
5.9948582621
 31
0.0
 11
8.1901363216
 21
5.9869826592
 31
0.0
 11
8.2074773109
 21
5.9782429277
 31
0.0
 11
8.2407740103
 21
5.9582651556
 31
0.0
 11
8.2719542734
 21
5.9351232195
 31
0.0
 11
8.3007104424
 21
5.9090339921
 31
0.0
 11
8.3140950004
 21
5.8949642803
 31
0.0
 11
8.3267733067
 21
5.8802551411
 31
0.0
 11
8.3387131129
 21
5.8649401429
 31
0.0
 11
8.3498870543
 21
5.8490571059
 31
0.0
 11
8.3698364594
 21
5.8157456645
 31
0.0
 11
8.3785615239
 21
5.7983966593
 31
0.0
 11
8.3864229965
 21
5.7806398182
 31
0.0
 11
8.3994905718
 21
5.7440780214
 31
0.0
 11
8.4046653381
 21
5.7253612027
 31
0.0
 11
8.4089138903
 21
5.7064126954
 31
0.0
 11
8.4146000286
 21
5.6680042182
 31
0.0
 11
8.4165003605
 21
5.6292236616
 31
0.0
 11
8.4160197879
 21
5.6098100688
 31
0.0
 11
8.4145884104
 21
5.5904429359
 31
0.0
 11
8.4088920224
 21
5.5520340808
 31
0.0
 11
8.3994566189
 21
5.5143676224
 31
0.0
 11
8.3863807305
 21
5.4778037054
 31
0.0
 11
8.3785152625
 21
5.4600464025
 31
0.0
 11
8.369786577
 21
5.4426973555
 31
0.0
 11
8.3602179447
 21
5.4257970895
 31
0.0
 11
8.349834188
 21
5.4093853815
 31
0.0
 11
8.3386601297
 21
5.393502008
 31
0.0
 11
8.3267206836
 21
5.378186666
 31
0.0
 11
8.3140440031
 21
5.3634762194
 31
0.0
 11
8.300662274
 21
5.3494040064
 31
0.0
 11
8.2719134236
 21
5.3233067495
 31
0.0
 11
8.2407422235
 21
5.3001510328
 31
0.0
 11
8.207457023
 21
5.280151726
 31
0.0
 11
8.1901217224
 21
5.2713990669
 31
0.0
 11
8.1723786381
 21
5.2635083514
 31
0.0
 11
8.1542696713
 21
5.2564958369
 31
0.0
 11
8.1358368588
 21
5.2503771262
 31
0.0
 11
8.1171222374
 21
5.2451678223
 31
0.0
 11
8.0981682584
 21
5.2408831865
 31
0.0
 11
8.0790240518
 21
5.2375329725
 31
0.0
 11
8.059744146
 21
5.2351224832
 31
0.0
 11
8.0209959675
 21
5.2331413801
 31
0.0
  0
LINE
  5
2B8
100
AcDbEntity
  8
0
100
AcDbLine
 62
6
  6
CONTINUOUS
 10
8.0209959675
 20
5.2331413801
 11
8.0205606842
 21
5.2331407508
  0
LINE
  5
2B9
100
AcDbEntity
  8
0
100
AcDbLine
 62
6
  6
CONTINUOUS
 10
8.0205606842
 20
6.0227967193
 11
8.0209889778
 21
6.0227968695
  0
SPLINE
  5
2BA
100
AcDbEntity
  8
0
100
AcDbSpline
 62
6
  6
CONTINUOUS
 70
0
 71
3
 72
51
 73
47
 74
45
 42
0.0000001
 43
0.0000001
 44
0.0000000001
 12
1.2355121177
 22
-0.0002450646
 32
0.0
 13
-1.2355096552
 23
-0.0024789061
 33
0.0
 40
0.0
 40
0.0
 40
0.0
 40
0.0
 40
0.0312263075
 40
0.0468641276
 40
0.0625060355
 40
0.0781455333
 40
0.0937801132
 40
0.1094112687
 40
0.1250404432
 40
0.1406690338
 40
0.1562984914
 40
0.1875510407
 40
0.218803222
 40
0.2500527783
 40
0.265681721
 40
0.2813103703
 40
0.2969389676
 40
0.3125678646
 40
0.3438170404
 40
0.3594464852
 40
0.3750762584
 40
0.4063273188
 40
0.437577691
 40
0.5000020948
 40
0.5624261656
 40
0.5936758453
 40
0.6249260616
 40
0.6405554962
 40
0.6561847078
 40
0.687433719
 40
0.7030626204
 40
0.7186912444
 40
0.7343199227
 40
0.7499488975
 40
0.7811985153
 40
0.812450614
 40
0.8437030257
 40
0.8593323897
 40
0.874960866
 40
0.8905899078
 40
0.9062209099
 40
0.9218553016
 40
0.9374945557
 40
0.9531362019
 40
0.9687737984
 40
1.0
 40
1.0
 40
1.0
 40
1.0
 10
8.0209889778
 20
6.0227968695
 30
0.0
 10
8.0338491383
 20
6.0227943187
 30
0.0
 10
8.053166782
 20
6.0218352568
 30
0.0
 10
8.0787215831
 20
6.0186781786
 30
0.0
 10
8.0977683869
 20
6.0153724295
 30
0.0
 10
8.1166273682
 20
6.0111339001
 30
0.0
 10
8.1352502882
 20
6.0059716126
 30
0.0
 10
8.1535932884
 20
5.999902921
 30
0.0
 10
8.1716142611
 20
5.9929430781
 30
0.0
 10
8.1892719505
 20
5.9851076329
 30
0.0
 10
8.2122683357
 20
5.9735159315
 30
0.0
 10
8.2399079808
 20
5.9569283089
 30
0.0
 10
8.2709618743
 20
5.9338831091
 30
0.0
 10
8.2948311346
 20
5.9122199157
 30
0.0
 10
8.3125786161
 20
5.8935612013
 30
0.0
 10
8.3251905082
 20
5.8789288238
 30
0.0
 10
8.3370672281
 20
5.8636934608
 30
0.0
 10
8.3518822349
 20
5.8426317312
 30
0.0
 10
8.3651332979
 20
5.8205038347
 30
0.0
 10
8.3767028448
 20
5.7974974776
 30
0.0
 10
8.3871263867
 20
5.7739483543
 30
0.0
 10
8.397973657
 20
5.7435925918
 30
0.0
 10
8.4104792875
 20
5.6936170632
 30
0.0
 10
8.4168171916
 20
5.6291990467
 30
0.0
 10
8.4104520391
 20
5.564784273
 30
0.0
 10
8.3979287421
 20
5.5148140366
 30
0.0
 10
8.3870721629
 20
5.4844624896
 30
0.0
 10
8.3766426803
 20
5.4609166535
 30
0.0
 10
8.3650682048
 20
5.43791313
 30
0.0
 10
8.3518139061
 20
5.4157874752
 30
0.0
 10
8.3369973854
 20
5.3947269
 30
0.0
 10
8.3251203802
 20
5.3794917519
 30
0.0
 10
8.3125090869
 20
5.364858838
 30
0.0
 10
8.294763561
 20
5.3461982238
 30
0.0
 10
8.2708989795
 20
5.3245301247
 30
0.0
 10
8.2398537788
 20
5.3014736545
 30
0.0
 10
8.2122233441
 20
5.2848713537
 30
0.0
 10
8.1892350395
 20
5.2732640302
 30
0.0
 10
8.1715836494
 20
5.2654148317
 30
0.0
 10
8.1535690371
 20
5.2584390906
 30
0.0
 10
8.1352323014
 20
5.2523522284
 30
0.0
 10
8.1166153831
 20
5.2471693768
 30
0.0
 10
8.0977619398
 20
5.2429077472
 30
0.0
 10
8.0787199536
 20
5.2395763489
 30
0.0
 10
8.053170107
 20
5.2363816476
 30
0.0
 10
8.0338544479
 20
5.2353904249
 30
0.0
 10
8.0209943567
 20
5.2353646226
 30
0.0
 11
8.0209889778
 21
6.0227968695
 31
0.0
 11
8.0595223631
 21
6.0208911371
 31
0.0
 11
8.0786973297
 21
6.0185224354
 31
0.0
 11
8.0977382719
 21
6.015216714
 31
0.0
 11
8.1165907048
 21
6.0109792664
 31
0.0
 11
8.135205664
 21
6.0058199339
 31
0.0
 11
8.1535407739
 21
5.9997539864
 31
0.0
 11
8.1715540456
 21
5.992797012
 31
0.0
 11
8.18920349
 21
5.9849645989
 31
0.0
 11
8.2064472709
 21
5.9762730526
 31
0.0
 11
8.2395562135
 21
5.9564046284
 31
0.0
 11
8.2705607916
 21
5.9333907762
 31
0.0
 11
8.2991538231
 21
5.9074464252
 31
0.0
 11
8.3124619678
 21
5.8934550109
 31
0.0
 11
8.3250679958
 21
5.8788283079
 31
0.0
 11
8.3369398195
 21
5.8635997258
 31
0.0
 11
8.3480496112
 21
5.8478061597
 31
0.0
 11
8.3678841291
 21
5.8146817517
 31
0.0
 11
8.3765594741
 21
5.797429832
 31
0.0
 11
8.3843760863
 21
5.779771786
 31
0.0
 11
8.3973685755
 21
5.7434123369
 31
0.0
 11
8.4067382976
 21
5.70595627
 31
0.0
 11
8.4142771972
 21
5.6291995005
 31
0.0
 11
8.4067069104
 21
5.5524462337
 31
0.0
 11
8.3973239767
 21
5.5149943561
 31
0.0
 11
8.3843205292
 21
5.4786399324
 31
0.0
 11
8.3764994698
 21
5.4609843133
 31
0.0
 11
8.3678204629
 21
5.443734558
 31
0.0
 11
8.3479810836
 21
5.4106132985
 31
0.0
 11
8.3368701304
 21
5.3948205427
 31
0.0
 11
8.324998017
 21
5.3795921448
 31
0.0
 11
8.3123925843
 21
5.3649648814
 31
0.0
 11
8.2990859066
 21
5.3509720173
 31
0.0
 11
8.2704983544
 21
5.3250215156
 31
0.0
 11
8.2395023736
 21
5.3019962567
 31
0.0
 11
8.2064043399
 21
5.282109995
 31
0.0
 11
8.1891666061
 21
5.2734067186
 31
0.0
 11
8.1715234331
 21
5.2655605361
 31
0.0
 11
8.1535164934
 21
5.258587643
 31
0.0
 11
8.1351876116
 21
5.2525035039
 31
0.0
 11
8.1165786124
 21
5.2473235835
 31
0.0
 11
8.0977316949
 21
5.2430630373
 31
0.0
 11
8.0786955523
 21
5.2397316625
 31
0.0
 11
8.0595243737
 21
5.237334722
 31
0.0
 11
8.0209943567
 21
5.2353646226
 31
0.0
  0
LINE
  5
2BB
100
AcDbEntity
  8
0
100
AcDbLine
 62
6
  6
CONTINUOUS
 10
8.0209943567
 20
5.2353646226
 11
8.0205606842
 21
5.2353639929
  0
LINE
  5
2BC
100
AcDbEntity
  8
0
100
AcDbLine
 62
6
  6
CONTINUOUS
 10
8.0205606842
 20
5.2286942697
 11
8.0201348931
 21
5.2286941219
  0
SPLINE
  5
2BD
100
AcDbEntity
  8
0
100
AcDbSpline
 62
6
  6
CONTINUOUS
 70
0
 71
3
 72
40
 73
36
 74
34
 42
0.0000001
 43
0.0000001
 44
0.0000000001
 12
-1.0377882454
 22
0.0001952704
 32
0.0
 13
0.8818599672
 23
0.5471082879
 33
0.0
 40
0.0
 40
0.0
 40
0.0
 40
0.0
 40
0.0312193138
 40
0.0624824097
 40
0.0937517133
 40
0.1093838066
 40
0.1250126726
 40
0.156258432
 40
0.1875032403
 40
0.218751337
 40
0.2500003731
 40
0.2812483909
 40
0.3124964624
 40
0.3437450483
 40
0.3749953608
 40
0.4062474973
 40
0.4374998512
 40
0.4687525521
 40
0.5000052262
 40
0.5312564286
 40
0.5625067419
 40
0.5937561232
 40
0.6250041301
 40
0.6562522072
 40
0.6875006985
 40
0.7187503334
 40
0.7500016996
 40
0.7812532277
 40
0.8125046252
 40
0.8437559015
 40
0.8750055348
 40
0.9062539223
 40
0.9375021174
 40
0.9687505768
 40
1.0
 40
1.0
 40
1.0
 40
1.0
 10
8.0201348931
 20
5.2286941219
 30
0.0
 10
8.0093352141
 20
5.2286961539
 30
0.0
 10
7.9877107039
 20
5.2295808649
 30
0.0
 10
7.9554859013
 20
5.2335138297
 30
0.0
 10
7.928965191
 20
5.2389495531
 30
0.0
 10
7.9080739443
 20
5.2445779417
 30
0.0
 10
7.887435113
 20
5.251043889
 30
0.0
 10
7.8621536438
 20
5.2606804917
 30
0.0
 10
7.8328554129
 20
5.2746581143
 30
0.0
 10
7.8047816345
 20
5.2909596969
 30
0.0
 10
7.7781099179
 20
5.3094680733
 30
0.0
 10
7.753024778
 20
5.3300762755
 30
0.0
 10
7.7296865059
 20
5.3526428077
 30
0.0
 10
7.7082414907
 20
5.377017079
 30
0.0
 10
7.6888417853
 20
5.403050491
 30
0.0
 10
7.6716022488
 20
5.4305631211
 30
0.0
 10
7.6566368337
 20
5.4593774506
 30
0.0
 10
7.6440562517
 20
5.4893100722
 30
0.0
 10
7.6339261707
 20
5.5201575841
 30
0.0
 10
7.6263193136
 20
5.5517217835
 30
0.0
 10
7.621293231
 20
5.5837968524
 30
0.0
 10
7.6188636901
 20
5.6161710648
 30
0.0
 10
7.6190587973
 20
5.6486353125
 30
0.0
 10
7.6218764957
 20
5.6809769498
 30
0.0
 10
7.6272867638
 20
5.7129878154
 30
0.0
 10
7.6352708511
 20
5.7444569719
 30
0.0
 10
7.6457664364
 20
5.7751805037
 30
0.0
 10
7.6587008339
 20
5.804960636
 30
0.0
 10
7.6740050173
 20
5.833595187
 30
0.0
 10
7.6915642435
 20
5.860903774
 30
0.0
 10
7.7112656071
 20
5.8867088799
 30
0.0
 10
7.7329899413
 20
5.9108338241
 30
0.0
 10
7.7565841622
 20
5.9331333706
 30
0.0
 10
7.7819000444
 20
5.9534550476
 30
0.0
 10
7.7998216761
 20
5.9655972813
 30
0.0
 10
7.8090075479
 20
5.9712962207
 30
0.0
 11
8.0201348931
 21
5.2286941219
 31
0.0
 11
7.9877627415
 21
5.2300137567
 31
0.0
 11
7.9555572974
 21
5.2339448204
 31
0.0
 11
7.9237678963
 21
5.240463712
 31
0.0
 11
7.9081034485
 21
5.2446832392
 31
0.0
 11
7.892625773
 21
5.2495321816
 31
0.0
 11
7.8623263403
 21
5.2610829882
 31
0.0
 11
7.8330606596
 21
5.2750448178
 31
0.0
 11
7.8050157473
 21
5.2913272306
 31
0.0
 11
7.7783740663
 21
5.3098182593
 31
0.0
 11
7.7533159147
 21
5.3304026661
 31
0.0
 11
7.7300022601
 21
5.3529438703
 31
0.0
 11
7.708582897
 21
5.3772929542
 31
0.0
 11
7.6892022955
 21
5.4032963291
 31
0.0
 11
7.6719813778
 21
5.4307798878
 31
0.0
 11
7.6570343706
 21
5.4595636961
 31
0.0
 11
7.644464646
 21
5.4894626263
 31
0.0
 11
7.6343465331
 21
5.5202776548
 31
0.0
 11
7.6267493446
 21
5.5518074162
 31
0.0
 11
7.6217259308
 21
5.5838472132
 31
0.0
 11
7.6193011083
 21
5.6161866748
 31
0.0
 11
7.6194958929
 21
5.6486149046
 31
0.0
 11
7.6223085581
 21
5.6809215862
 31
0.0
 11
7.6277156098
 21
5.7128969584
 31
0.0
 11
7.6356892158
 21
5.7443319583
 31
0.0
 11
7.6461728522
 21
5.7750231219
 31
0.0
 11
7.6590958208
 21
5.8047697508
 31
0.0
 11
7.6743809374
 21
5.8333743216
 31
0.0
 11
7.6919216947
 21
5.8606537998
 31
0.0
 11
7.711603155
 21
5.8864293236
 31
0.0
 11
7.7333016804
 21
5.9105296897
 31
0.0
 11
7.75687099
 21
5.9328036284
 31
0.0
 11
7.7821608367
 21
5.9531034348
 31
0.0
 11
7.8090075479
 21
5.9712962207
 31
0.0
  0
LINE
  5
2BE
100
AcDbEntity
  8
0
100
AcDbLine
 62
6
  6
CONTINUOUS
 10
8.0201313286
 20
6.0316890745
 11
8.0205606842
 21
6.0316896835
  0
LINE
  5
2BF
100
AcDbEntity
  8
0
100
AcDbLine
 62
6
  6
CONTINUOUS
 10
8.0205606842
 20
6.0205734795
 11
8.0209893343
 21
6.0205736305
  0
LINE
  5
2C0
100
AcDbEntity
  8
0
100
AcDbLine
 62
6
  6
CONTINUOUS
 10
8.0209893255
 20
5.2375878555
 11
8.0205606842
 21
5.2375872325
  0
LINE
  5
2C1
100
AcDbEntity
  8
0
100
AcDbLine
 62
6
  6
CONTINUOUS
 10
8.0205606842
 20
6.0183502372
 11
8.0209877507
 21
6.0183503894
  0
LINE
  5
2C2
100
AcDbEntity
  8
0
100
AcDbLine
 62
6
  6
CONTINUOUS
 10
8.0209891117
 20
5.2398111001
 11
8.0205606842
 21
5.2398104739
  0
LINE
  5
2C3
100
AcDbEntity
  8
0
100
AcDbLine
 62
6
  6
CONTINUOUS
 10
8.0209922157
 20
5.2420343523
 11
8.0205606842
 21
5.2420337161
  0
LINE
  5
2C4
100
AcDbEntity
  8
0
100
AcDbLine
 62
6
  6
CONTINUOUS
 10
8.0205606842
 20
5.2331407508
 11
8.0201399222
 21
5.2331406003
  0
LINE
  5
2C5
100
AcDbEntity
  8
0
100
AcDbLine
 62
6
  6
CONTINUOUS
 10
8.0201261131
 20
6.0272425765
 11
8.0205606842
 21
6.0272432027
  0
LINE
  5
2C6
100
AcDbEntity
  8
0
100
AcDbLine
 62
6
  6
CONTINUOUS
 10
8.3768332216
 20
5.4838155219
 11
8.3765201942
 21
5.4830508463
  0
LINE
  5
2C7
100
AcDbEntity
  8
0
100
AcDbLine
 62
6
  6
CONTINUOUS
 10
8.0198905418
 20
6.0227955405
 11
8.0205606842
 21
6.0227967193
  0
LINE
  5
2C8
100
AcDbEntity
  8
0
100
AcDbLine
 62
6
  6
CONTINUOUS
 10
8.0205606842
 20
5.2375872325
 11
8.0198809924
 21
5.2375872131
  0
SPLINE
  5
2C9
100
AcDbEntity
  8
0
100
AcDbSpline
 62
6
  6
CONTINUOUS
 70
0
 71
3
 72
34
 73
30
 74
28
 42
0.0000001
 43
0.0000001
 44
0.0000000001
 12
0.4860848105
 22
0.5231504549
 32
0.0
 13
-0.6708879859
 23
0.2446919529
 33
0.0
 40
0.0
 40
0.0
 40
0.0
 40
0.0
 40
0.0624502802
 40
0.0937307091
 40
0.1250048386
 40
0.1874865805
 40
0.2187374401
 40
0.2499899632
 40
0.2812452452
 40
0.3125019142
 40
0.3437579653
 40
0.3750137602
 40
0.4062700456
 40
0.4375260278
 40
0.5000068767
 40
0.5312622465
 40
0.5625163829
 40
0.5937697293
 40
0.6250234797
 40
0.6562774089
 40
0.6875311289
 40
0.7187849533
 40
0.7500376943
 40
0.7812870244
 40
0.8125335306
 40
0.8437828422
 40
0.8750399875
 40
0.9375531364
 40
1.0
 40
1.0
 40
1.0
 40
1.0
 10
8.2854439441
 20
5.4098628176
 30
0.0
 10
8.295562655
 20
5.4207531151
 30
0.0
 10
8.3097020526
 20
5.4381179371
 30
0.0
 10
8.3261961069
 20
5.4629018987
 30
0.0
 10
8.3410681684
 20
5.488703505
 30
0.0
 10
8.3534187423
 20
5.5158816703
 30
0.0
 10
8.3631005213
 20
5.5440294651
 30
0.0
 10
8.3690097034
 20
5.5655677544
 30
0.0
 10
8.3735501989
 20
5.587435398
 30
0.0
 10
8.3767108014
 20
5.6095458452
 30
0.0
 10
8.3784766542
 20
5.6318112611
 30
0.0
 10
8.3788453862
 20
5.6541429716
 30
0.0
 10
8.3778261658
 20
5.6764554241
 30
0.0
 10
8.3746287604
 20
5.7060509663
 30
0.0
 10
8.3686777243
 20
5.7352952512
 30
0.0
 10
8.3600890942
 20
5.7637956603
 30
0.0
 10
8.3523470597
 20
5.7847450878
 30
0.0
 10
8.3433381544
 20
5.8051798214
 30
0.0
 10
8.3331052478
 20
5.8250300125
 30
0.0
 10
8.3216891937
 20
5.8442242391
 30
0.0
 10
8.3091297771
 20
5.8626905599
 30
0.0
 10
8.2954808164
 20
5.8803661659
 30
0.0
 10
8.2807984563
 20
5.8971916938
 30
0.0
 10
8.2651366437
 20
5.9131071927
 30
0.0
 10
8.2485512118
 20
5.9280561384
 30
0.0
 10
8.231104414
 20
5.9419938443
 30
0.0
 10
8.2067810289
 20
5.9591665695
 30
0.0
 10
8.1745367848
 20
5.9778692632
 30
0.0
 10
8.1471665409
 20
5.9897150589
 30
0.0
 10
8.1332015907
 20
5.9948084739
 30
0.0
 11
8.2854439441
 21
5.4098628176
 31
0.0
 11
8.3136174907
 21
5.4444335173
 31
0.0
 11
8.3259935107
 21
5.4630296726
 31
0.0
 11
8.3371461436
 21
5.4823791092
 31
0.0
 11
8.3556156926
 21
5.5229963742
 31
0.0
 11
8.3628747985
 21
5.5440995806
 31
0.0
 11
8.3687813809
 21
5.5656217841
 31
0.0
 11
8.3733201315
 21
5.5874754028
 31
0.0
 11
8.376478355
 21
5.6095717996
 31
0.0
 11
8.3782438057
 21
5.6318223862
 31
0.0
 11
8.3786140624
 21
5.6541396479
 31
0.0
 11
8.3775962548
 21
5.6764371132
 31
0.0
 11
8.3751979072
 21
5.6986283538
 31
0.0
 11
8.3663121544
 21
5.7423533231
 31
0.0
 11
8.3598724674
 21
5.7637241944
 31
0.0
 11
8.3521358217
 21
5.7846595402
 31
0.0
 11
8.3431341931
 21
5.8050823188
 31
0.0
 11
8.3329080838
 21
5.8249206345
 31
0.0
 11
8.3214986081
 21
5.844102961
 31
0.0
 11
8.3089481725
 21
5.8625587915
 31
0.0
 11
8.2953083057
 21
5.8802248175
 31
0.0
 11
8.2806344633
 21
5.8970408294
 31
0.0
 11
8.2649821283
 21
5.9129466648
 31
0.0
 11
8.2484084046
 21
5.9278869751
 31
0.0
 11
8.2309736527
 21
5.9418160822
 31
0.0
 11
8.2127386225
 21
5.954689465
 31
0.0
 11
8.1741282647
 21
5.9770976934
 31
0.0
 11
8.1332015907
 21
5.9948084739
 31
0.0
  0
LINE
  5
2CA
100
AcDbEntity
  8
0
100
AcDbLine
 62
6
  6
CONTINUOUS
 10
8.0205606842
 20
5.2353639929
 11
8.0201357719
 21
5.2353638424
  0
LINE
  5
2CB
100
AcDbEntity
  8
0
100
AcDbLine
 62
6
  6
CONTINUOUS
 10
8.0201254546
 20
6.0250193293
 11
8.0205606842
 21
6.0250199603
  0
LINE
  5
2CC
100
AcDbEntity
  8
0
100
AcDbLine
 62
6
  6
CONTINUOUS
 10
8.0205606842
 20
5.2398104739
 11
8.0201326453
 21
5.2398103223
  0
LINE
  5
2CD
100
AcDbEntity
  8
0
100
AcDbLine
 62
6
  6
CONTINUOUS
 10
8.0201337412
 20
6.0205728581
 11
8.0205606842
 21
6.0205734795
  0
LINE
  5
2CE
100
AcDbEntity
  8
0
100
AcDbLine
 62
6
  6
CONTINUOUS
 10
8.0205606842
 20
5.2420337161
 11
8.0201355674
 21
5.2420335631
  0
LINE
  5
2CF
100
AcDbEntity
  8
0
100
AcDbLine
 62
6
  6
CONTINUOUS
 10
8.0201309082
 20
6.0183496065
 11
8.0205606842
 21
6.0183502372
  0
LINE
  5
2D0
100
AcDbEntity
  8
0
100
AcDbLine
 62
6
  6
CONTINUOUS
 10
7.8686195335
 20
5.9824320664
 11
7.8689573892
 21
5.9825777386
  0
LINE
  5
2D1
100
AcDbEntity
  8
0
100
AcDbLine
 62
6
  6
CONTINUOUS
 10
8.0199959498
 20
6.0294655416
 11
8.0205606842
 21
6.0294664427
  0
LINE
  5
2D2
100
AcDbEntity
  8
0
100
AcDbLine
 62
6
  6
CONTINUOUS
 10
8.0205606842
 20
5.2309175091
 11
8.0198623333
 21
5.2309175064
  0
LINE
  5
2D3
100
AcDbEntity
  8
0
100
AcDbLine
 62
6
  6
CONTINUOUS
 10
8.0205606842
 20
5.2242477858
 11
8.0198858005
 21
5.2242477632
  0
LINE
  5
2D4
100
AcDbEntity
  8
0
100
AcDbLine
 62
6
  6
CONTINUOUS
 10
7.614616442
 20
5.6297028649
 11
7.6146163485
 21
5.6300745852
  0
LINE
  5
2D5
100
AcDbEntity
  8
0
100
AcDbLine
 62
6
  6
CONTINUOUS
 10
8.0198761232
 20
6.0361349891
 11
8.0205606842
 21
6.0361361662
  0
LINE
  5
2D6
100
AcDbEntity
  8
0
100
AcDbLine
 62
6
  6
CONTINUOUS
 10
8.0205606842
 20
6.0339129259
 11
8.0209894549
 21
6.0339130719
  0
SPLINE
  5
2D7
100
AcDbEntity
  8
0
100
AcDbSpline
 62
6
  6
CONTINUOUS
 70
0
 71
3
 72
56
 73
52
 74
50
 42
0.0000001
 43
0.0000001
 44
0.0000000001
 12
1.2706502136
 22
-0.0002466428
 32
0.0
 13
-1.2706478457
 23
-0.0024654569
 33
0.0
 40
0.0
 40
0.0
 40
0.0
 40
0.0
 40
0.0312207777
 40
0.0468558691
 40
0.0624950724
 40
0.0781318848
 40
0.0937637704
 40
0.1093922208
 40
0.1250186828
 40
0.1406445558
 40
0.156271296
 40
0.187518419
 40
0.2187650823
 40
0.2500089724
 40
0.2656351493
 40
0.2812611653
 40
0.2968873215
 40
0.3125139664
 40
0.3281410504
 40
0.3437683488
 40
0.3593957378
 40
0.3750234011
 40
0.4062701246
 40
0.4375158848
 40
0.468760807
 40
0.4843877238
 40
0.5000143527
 40
0.5312581473
 40
0.5625020272
 40
0.5781283392
 40
0.5937546907
 40
0.6249983524
 40
0.6406247695
 40
0.6562512376
 40
0.6874953959
 40
0.7031219909
 40
0.7187482238
 40
0.7343743466
 40
0.750000647
 40
0.7812446502
 40
0.8124908053
 40
0.8437372253
 40
0.859363531
 40
0.8749887525
 40
0.8906143332
 40
0.9062417094
 40
0.9218723327
 40
0.9375077318
 40
0.9531457156
 40
0.9687798927
 40
1.0
 40
1.0
 40
1.0
 40
1.0
 10
8.0209894549
 20
6.0339130719
 30
0.0
 10
8.0342130175
 20
6.0339105051
 30
0.0
 10
8.0540765593
 20
6.0329244173
 30
0.0
 10
8.080353548
 20
6.0296782531
 30
0.0
 10
8.0999386756
 20
6.026279197
 30
0.0
 10
8.1193307024
 20
6.0219210362
 30
0.0
 10
8.1384799976
 20
6.0166129854
 30
0.0
 10
8.157341453
 20
6.0103729049
 30
0.0
 10
8.1758717752
 20
6.0032164859
 30
0.0
 10
8.1940285527
 20
5.99515973
 30
0.0
 10
8.2176749372
 20
5.9832406046
 30
0.0
 10
8.2460957403
 20
5.9661842995
 30
0.0
 10
8.2780273772
 20
5.9424882209
 30
0.0
 10
8.302571354
 20
5.9202131426
 30
0.0
 10
8.3208204208
 20
5.9010273023
 30
0.0
 10
8.3337889549
 20
5.8859812201
 30
0.0
 10
8.3460013271
 20
5.8703155131
 30
0.0
 10
8.357429514
 20
5.8540682471
 30
0.0
 10
8.3680488023
 20
5.837280583
 30
0.0
 10
8.377833711
 20
5.8199930532
 30
0.0
 10
8.3867590939
 20
5.8022455706
 30
0.0
 10
8.3974772664
 20
5.7780302449
 30
0.0
 10
8.408630286
 20
5.7468171454
 30
0.0
 10
8.4182823952
 20
5.708242958
 30
0.0
 10
8.423129512
 20
5.6754544127
 30
0.0
 10
8.4250716899
 20
5.6490455302
 30
0.0
 10
8.4257179671
 20
5.6225732315
 30
0.0
 10
8.4240803034
 20
5.589471939
 30
0.0
 10
8.4192161993
 20
5.5566895595
 30
0.0
 10
8.4134138518
 20
5.5308530889
 30
0.0
 10
8.4063487641
 20
5.5053342825
 30
0.0
 10
8.3974161786
 20
5.4803632318
 30
0.0
 10
8.386691481
 20
5.4561532606
 30
0.0
 10
8.3747892523
 20
5.4324997218
 30
0.0
 10
8.3611590253
 20
5.4097491241
 30
0.0
 10
8.3459226234
 20
5.3880934821
 30
0.0
 10
8.3337094705
 20
5.3724276673
 30
0.0
 10
8.3207409891
 20
5.3573815673
 30
0.0
 10
8.3024928091
 20
5.338194649
 30
0.0
 10
8.2779528851
 20
5.3159156194
 30
0.0
 10
8.2460297364
 20
5.2922091355
 30
0.0
 10
8.2176175372
 20
5.2751402787
 30
0.0
 10
8.1939795709
 20
5.2632062571
 30
0.0
 10
8.1758295291
 20
5.2551364571
 30
0.0
 10
8.1573061968
 20
5.2479651134
 30
0.0
 10
8.1384519111
 20
5.2417078451
 30
0.0
 10
8.1193097938
 20
5.2363800532
 30
0.0
 10
8.0999246214
 20
5.2319991616
 30
0.0
 10
8.0803454354
 20
5.2285749824
 30
0.0
 10
8.05407427
 20
5.2252918399
 30
0.0
 10
8.0342132319
 20
5.224274047
 30
0.0
 10
8.0209899779
 20
5.2242483897
 30
0.0
 11
8.0209894549
 21
6.0339130719
 31
0.0
 11
8.0606117241
 21
6.0319536556
 31
0.0
 11
8.0803286001
 21
6.0295181135
 31
0.0
 11
8.0999077044
 21
6.0261190889
 31
0.0
 11
8.1192930073
 21
6.0217620271
 31
0.0
 11
8.1384341173
 21
6.0164570166
 31
0.0
 11
8.1572874583
 21
6.0102197592
 31
0.0
 11
8.1758098617
 21
6.0030662925
 31
0.0
 11
8.1939581589
 21
5.9950126539
 31
0.0
 11
8.2116893327
 21
5.986075595
 31
0.0
 11
8.2457340912
 21
5.9656458355
 31
0.0
 11
8.2776150236
 21
5.9419819297
 31
0.0
 11
8.3070161618
 21
5.915304832
 31
0.0
 11
8.3207004497
 21
5.9009181233
 31
0.0
 11
8.3336628702
 21
5.8858780215
 31
0.0
 11
8.3458704618
 21
5.8702188139
 31
0.0
 11
8.3572945491
 21
5.8539784023
 31
0.0
 11
8.3679096649
 21
5.8371973947
 31
0.0
 11
8.3776904195
 21
5.8199164644
 31
0.0
 11
8.3866114233
 21
5.8021762847
 31
0.0
 11
8.3946491902
 21
5.7840184645
 31
0.0
 11
8.4080086376
 21
5.7466298899
 31
0.0
 11
8.4176431739
 21
5.7081141935
 31
0.0
 11
8.423453481
 21
5.6688402971
 31
0.0
 11
8.4249096874
 21
5.6490374206
 31
0.0
 11
8.4253933707
 21
5.6291873329
 31
0.0
 11
8.4234350538
 21
5.5895357271
 31
0.0
 11
8.4176069427
 21
5.5502658077
 31
0.0
 11
8.4132559881
 21
5.5308928077
 31
0.0
 11
8.4079585944
 21
5.5117568845
 31
0.0
 11
8.3945867946
 21
5.4743768578
 31
0.0
 11
8.3865442889
 21
5.4562228679
 31
0.0
 11
8.3776195142
 21
5.4384858949
 31
0.0
 11
8.3572176561
 21
5.4044287999
 31
0.0
 11
8.3457918084
 21
5.3881897043
 31
0.0
 11
8.3335835404
 21
5.3725309004
 31
0.0
 11
8.3206211223
 21
5.3574906173
 31
0.0
 11
8.3069375483
 21
5.3431030131
 31
0.0
 11
8.2775408894
 21
5.3164207657
 31
0.0
 11
8.2456682742
 21
5.2927467417
 31
0.0
 11
8.2116340828
 21
5.2723011177
 31
0.0
 11
8.1939091244
 21
5.263352963
 31
0.0
 11
8.1757675262
 21
5.2552862826
 31
0.0
 11
8.1572521143
 21
5.2481178407
 31
0.0
 11
8.1384059193
 21
5.2418633562
 31
0.0
 11
8.1192719722
 21
5.2365385484
 31
0.0
 11
8.0998936024
 21
5.2321588926
 31
0.0
 11
8.0803204549
 21
5.2287347137
 31
0.0
 11
8.0606081969
 21
5.2262714251
 31
0.0
 11
8.0209899779
 21
5.2242483897
 31
0.0
  0
LINE
  5
2D8
100
AcDbEntity
  8
0
100
AcDbLine
 62
6
  6
CONTINUOUS
 10
8.0209899779
 20
5.2242483897
 11
8.0205606842
 21
5.2242477858
  0
LINE
  5
2D9
100
AcDbEntity
  8
0
100
AcDbLine
 62
6
  6
CONTINUOUS
 10
8.0205606842
 20
6.0316896835
 11
8.0209881784
 21
6.0316898305
  0
SPLINE
  5
2DA
100
AcDbEntity
  8
0
100
AcDbSpline
 62
6
  6
CONTINUOUS
 70
0
 71
3
 72
54
 73
50
 74
48
 42
0.0000001
 43
0.0000001
 44
0.0000000001
 12
1.2636462599
 22
-0.000242556
 32
0.0
 13
-1.263643886
 23
-0.00246137
 33
0.0
 40
0.0
 40
0.0
 40
0.0
 40
0.0
 40
0.0312212724
 40
0.046856492
 40
0.0624957014
 40
0.0781323787
 40
0.093764056
 40
0.1093922451
 40
0.1250184014
 40
0.1406439363
 40
0.1562702962
 40
0.1875164795
 40
0.2187624101
 40
0.2500065346
 40
0.2656332512
 40
0.281260138
 40
0.2968875588
 40
0.3125157739
 40
0.3437642036
 40
0.35939316
 40
0.3750221626
 40
0.4062710358
 40
0.4375185226
 40
0.4687648207
 40
0.4843922219
 40
0.5000191135
 40
0.5312626769
 40
0.5625063274
 40
0.5781329288
 40
0.5937599499
 40
0.6250057657
 40
0.6406334543
 40
0.6562611769
 40
0.6875077348
 40
0.7187531828
 40
0.7343799644
 40
0.750006711
 40
0.7812510823
 40
0.8124968641
 40
0.8437424817
 40
0.8593681291
 40
0.8749923287
 40
0.890616627
 40
0.9062426984
 40
0.9218722227
 40
0.9375069501
 40
0.9531447825
 40
0.9687791619
 40
1.0
 40
1.0
 40
1.0
 40
1.0
 10
8.0209881784
 20
6.0316898305
 30
0.0
 10
8.0341390597
 20
6.0316873062
 30
0.0
 10
8.0538933769
 20
6.0307067121
 30
0.0
 10
8.0800257985
 20
6.0274784994
 30
0.0
 10
8.099502981
 20
6.0240982329
 30
0.0
 10
8.1187879746
 20
6.0197641112
 30
0.0
 10
8.1378314941
 20
6.0144854751
 30
0.0
 10
8.1565887174
 20
6.0082800288
 30
0.0
 10
8.1750166021
 20
6.0011633482
 30
0.0
 10
8.1930729533
 20
5.9931512849
 30
0.0
 10
8.2165884528
 20
5.9812983542
 30
0.0
 10
8.2448524638
 20
5.9643375185
 30
0.0
 10
8.2766076476
 20
5.9407724299
 30
0.0
 10
8.301016803
 20
5.918620707
 30
0.0
 10
8.3191664232
 20
5.8995406867
 30
0.0
 10
8.3320644023
 20
5.8845770234
 30
0.0
 10
8.3442105221
 20
5.8689958461
 30
0.0
 10
8.3593623608
 20
5.8474554996
 30
0.0
 10
8.3729150403
 20
5.8248245693
 30
0.0
 10
8.3847481422
 20
5.8012954003
 30
0.0
 10
8.3954084413
 20
5.7772110293
 30
0.0
 10
8.4065000624
 20
5.7461680096
 30
0.0
 10
8.416099427
 20
5.7078041719
 30
0.0
 10
8.4209192581
 20
5.6751947511
 30
0.0
 10
8.4228502138
 20
5.6489305055
 30
0.0
 10
8.4234928271
 20
5.6226039139
 30
0.0
 10
8.4218642432
 20
5.5896851374
 30
0.0
 10
8.4170260688
 20
5.5570836562
 30
0.0
 10
8.4112553453
 20
5.531389366
 30
0.0
 10
8.4042283943
 20
5.5060100932
 30
0.0
 10
8.395343846
 20
5.4811751903
 30
0.0
 10
8.3846774773
 20
5.4570971095
 30
0.0
 10
8.3728392992
 20
5.4335713807
 30
0.0
 10
8.3558987041
 20
5.4052969851
 30
0.0
 10
8.3362779253
 20
5.3788121375
 30
0.0
 10
8.3190840151
 20
5.3588647936
 30
0.0
 10
8.300934835
 20
5.3397837467
 30
0.0
 10
8.2765293696
 20
5.3176284872
 30
0.0
 10
8.2447822902
 20
5.2940529411
 30
0.0
 10
8.2165263107
 20
5.2770803477
 30
0.0
 10
8.1930195348
 20
5.2652126991
 30
0.0
 10
8.1749707172
 20
5.2571877918
 30
0.0
 10
8.156550845
 20
5.2500566748
 30
0.0
 10
8.1378018874
 20
5.2438346039
 30
0.0
 10
8.118766471
 20
5.2385367527
 30
0.0
 10
8.0994889342
 20
5.2341802324
 30
0.0
 10
8.0800179352
 20
5.2307749394
 30
0.0
 10
8.0538912763
 20
5.2275096836
 30
0.0
 10
8.0341393324
 20
5.2264972476
 30
0.0
 10
8.0209886586
 20
5.2264716323
 30
0.0
 11
8.0209881784
 21
6.0316898305
 31
0.0
 11
8.0603926759
 21
6.0297413042
 31
0.0
 11
8.0800010392
 21
6.0273192318
 31
0.0
 11
8.0994722365
 21
6.023938985
 31
0.0
 11
8.1187505221
 21
6.0196059899
 31
0.0
 11
8.1377858923
 21
6.0143303697
 31
0.0
 11
8.1565350415
 21
6.0081277268
 31
0.0
 11
8.1749550421
 21
6.0010139729
 31
0.0
 11
8.1930029668
 21
5.9930050198
 31
0.0
 11
8.2106360674
 21
5.9841176216
 31
0.0
 11
8.2444926309
 21
5.963801886
 31
0.0
 11
8.2761973388
 21
5.9402693069
 31
0.0
 11
8.3054372077
 21
5.913739689
 31
0.0
 11
8.3190469633
 21
5.8994321932
 31
0.0
 11
8.3319388839
 21
5.8844743604
 31
0.0
 11
8.3440801276
 21
5.8689001757
 31
0.0
 11
8.355442475
 21
5.8527477229
 31
0.0
 11
8.3757286042
 21
5.8188701028
 31
0.0
 11
8.3846015017
 21
5.8012260284
 31
0.0
 11
8.3925956423
 21
5.7831667458
 31
0.0
 11
8.4058819733
 21
5.7459815626
 31
0.0
 11
8.4154635816
 21
5.7076759645
 31
0.0
 11
8.4212413238
 21
5.6686167126
 31
0.0
 11
8.4226891644
 21
5.6489223528
 31
0.0
 11
8.4231700586
 21
5.6291813458
 31
0.0
 11
8.4212223669
 21
5.5897486046
 31
0.0
 11
8.4154256872
 21
5.5506955412
 31
0.0
 11
8.4110983652
 21
5.5314290308
 31
0.0
 11
8.4058296147
 21
5.512397863
 31
0.0
 11
8.3925299494
 21
5.4752215502
 31
0.0
 11
8.3845310023
 21
5.457166212
 31
0.0
 11
8.3756545654
 21
5.4395256633
 31
0.0
 11
8.3553623928
 21
5.4056544203
 31
0.0
 11
8.3318563905
 21
5.373930762
 31
0.0
 11
8.3189645419
 21
5.3589730427
 31
0.0
 11
8.3053553884
 21
5.3446649219
 31
0.0
 11
8.2761195095
 21
5.3181304428
 31
0.0
 11
8.244422494
 21
5.2945878189
 31
0.0
 11
8.2105759535
 21
5.2742567775
 31
0.0
 11
8.1929493532
 21
5.2653584918
 31
0.0
 11
8.1749089427
 21
5.2573367791
 31
0.0
 11
8.1564970542
 21
5.250208556
 31
0.0
 11
8.1377562377
 21
5.2439892726
 31
0.0
 11
8.1187290435
 21
5.2386943791
 31
0.0
 11
8.0994583044
 21
5.2343391088
 31
0.0
 11
8.0799932415
 21
5.2309337969
 31
0.0
 11
8.0603894016
 21
5.2284839282
 31
0.0
 11
8.0209886586
 21
5.2264716323
 31
0.0
  0
LINE
  5
2DB
100
AcDbEntity
  8
0
100
AcDbLine
 62
6
  6
CONTINUOUS
 10
8.0209886586
 20
5.2264716323
 11
8.0205606842
 21
5.2264710277
  0
LINE
  5
2DC
100
AcDbEntity
  8
0
100
AcDbLine
 62
6
  6
CONTINUOUS
 10
8.0205606842
 20
6.0294664427
 11
8.0209842615
 21
6.0294665914
  0
SPLINE
  5
2DD
100
AcDbEntity
  8
0
100
AcDbSpline
 62
6
  6
CONTINUOUS
 70
0
 71
3
 72
54
 73
50
 74
48
 42
0.0000001
 43
0.0000001
 44
0.0000000001
 12
1.2566647716
 22
-0.0002300558
 32
0.0
 13
-1.256662365
 23
-0.0024701275
 33
0.0
 40
0.0
 40
0.0
 40
0.0
 40
0.0
 40
0.0312209714
 40
0.0468556711
 40
0.0624939835
 40
0.0781293339
 40
0.0937595011
 40
0.1093861277
 40
0.1250107737
 40
0.1406349723
 40
0.1562601921
 40
0.1875042691
 40
0.2187487171
 40
0.2499927059
 40
0.2656195682
 40
0.2812466086
 40
0.3124929034
 40
0.34374089
 40
0.3593696013
 40
0.3749984585
 40
0.4062469385
 40
0.4218753009
 40
0.437503101
 40
0.4687486537
 40
0.4843758293
 40
0.500002788
 40
0.5312478133
 40
0.5624939124
 40
0.5781219734
 40
0.5937505521
 40
0.6249993443
 40
0.6406283136
 40
0.6562571391
 40
0.6875053508
 40
0.718751779
 40
0.7343788479
 40
0.7500057245
 40
0.7812497266
 40
0.8124941362
 40
0.8437381748
 40
0.8593634237
 40
0.8749877616
 40
0.8906126544
 40
0.9062395925
 40
0.9218700902
 40
0.9375057249
 40
0.9531441819
 40
0.9687789324
 40
1.0
 40
1.0
 40
1.0
 40
1.0
 10
8.0209842615
 20
6.0294665914
 30
0.0
 10
8.0340623598
 20
6.0294641972
 30
0.0
 10
8.0537072021
 20
6.0284892932
 30
0.0
 10
8.0796945756
 20
6.025279367
 30
0.0
 10
8.0990630625
 20
6.0219182248
 30
0.0
 10
8.1182400019
 20
6.0176084876
 30
0.0
 10
8.1371766481
 20
6.0123599477
 30
0.0
 10
8.1558285975
 20
6.006189938
 30
0.0
 10
8.1741531631
 20
5.9991137971
 30
0.0
 10
8.1921083749
 20
5.9911469947
 30
0.0
 10
8.2154925028
 20
5.9793609886
 30
0.0
 10
8.2436001868
 20
5.9624974313
 30
0.0
 10
8.2751789291
 20
5.9390636239
 30
0.0
 10
8.2994537404
 20
5.9170361569
 30
0.0
 10
8.3175047651
 20
5.8980625145
 30
0.0
 10
8.334604854
 20
5.8782256769
 30
0.0
 10
8.3541165654
 20
5.8518851802
 30
0.0
 10
8.3709600572
 20
5.8237631739
 30
0.0
 10
8.3827283232
 20
5.8003634553
 30
0.0
 10
8.3933300822
 20
5.7764136421
 30
0.0
 10
8.4021581532
 20
5.7517110351
 30
0.0
 10
8.4091379239
 20
5.7264671841
 30
0.0
 10
8.4148677669
 20
5.7009118051
 30
0.0
 10
8.418706153
 20
5.6749635443
 30
0.0
 10
8.4206283118
 20
5.6488455288
 30
0.0
 10
8.4212680536
 20
5.6226636889
 30
0.0
 10
8.4196495572
 20
5.5899252152
 30
0.0
 10
8.4148408934
 20
5.5575011018
 30
0.0
 10
8.4091017301
 20
5.5319464779
 30
0.0
 10
8.402113734
 20
5.5067047985
 30
0.0
 10
8.3932787777
 20
5.4820043308
 30
0.0
 10
8.3826711921
 20
5.4580568732
 30
0.0
 10
8.3708978892
 20
5.4346594938
 30
0.0
 10
8.3540508755
 20
5.4065395037
 30
0.0
 10
8.3345381979
 20
5.3801996548
 30
0.0
 10
8.3174390823
 20
5.3603619181
 30
0.0
 10
8.2993904138
 20
5.341386037
 30
0.0
 10
8.2751206361
 20
5.3193532619
 30
0.0
 10
8.2435507387
 20
5.2959079391
 30
0.0
 10
8.2154526231
 20
5.2790288902
 30
0.0
 10
8.1920764846
 20
5.2672269901
 30
0.0
 10
8.1741273479
 20
5.2592461694
 30
0.0
 10
8.1558088137
 20
5.252153714
 30
0.0
 10
8.1371626729
 20
5.2459650998
 30
0.0
 10
8.1182314754
 20
5.2406956233
 30
0.0
 10
8.0990594927
 20
5.2363626119
 30
0.0
 10
8.079695352
 20
5.2329756083
 30
0.0
 10
8.0537125938
 20
5.2297278167
 30
0.0
 10
8.0340695433
 20
5.2287205898
 30
0.0
 10
8.0209914297
 20
5.2286948831
 30
0.0
 11
8.0209842615
 21
6.0294665914
 31
0.0
 11
8.060170699
 21
6.027529308
 31
0.0
 11
8.0796701125
 21
6.02512096
 31
0.0
 11
8.0990326624
 21
6.0217598068
 31
0.0
 11
8.1182028504
 21
6.0174512928
 31
0.0
 11
8.1371313345
 21
6.0122057263
 31
0.0
 11
8.1557752088
 21
6.0060385008
 31
0.0
 11
8.17409187
 21
5.9989652489
 31
0.0
 11
8.1920387148
 21
5.9910016033
 31
0.0
 11
8.2095733851
 21
5.9821644873
 31
0.0
 11
8.2432418821
 21
5.9619644499
 31
0.0
 11
8.274770613
 21
5.9385639168
 31
0.0
 11
8.3038501185
 21
5.9121824298
 31
0.0
 11
8.3173857503
 21
5.8979547448
 31
0.0
 11
8.3302072195
 21
5.8830799653
 31
0.0
 11
8.3535824795
 21
5.8515296041
 31
0.0
 11
8.3737583953
 21
5.8178409197
 31
0.0
 11
8.3825824509
 21
5.8002947618
 31
0.0
 11
8.3905329564
 21
5.7823356896
 31
0.0
 11
8.4037483597
 21
5.7453573602
 31
0.0
 11
8.4089817545
 21
5.7264278602
 31
0.0
 11
8.4132783368
 21
5.707264718
 31
0.0
 11
8.4190267571
 21
5.6684225954
 31
0.0
 11
8.4204679928
 21
5.6488374313
 31
0.0
 11
8.4209469143
 21
5.6292054232
 31
0.0
 11
8.4190116156
 21
5.5899886232
 31
0.0
 11
8.4132490989
 21
5.5511478952
 31
0.0
 11
8.4089456901
 21
5.5319859489
 31
0.0
 11
8.4037060941
 21
5.5130578823
 31
0.0
 11
8.3904802724
 21
5.4760828613
 31
0.0
 11
8.382525417
 21
5.4581255612
 31
0.0
 11
8.3736976693
 21
5.4405811
 31
0.0
 11
8.3535172752
 21
5.4068947683
 31
0.0
 11
8.3301409331
 21
5.3753450002
 31
0.0
 11
8.3173202323
 21
5.3604695112
 31
0.0
 11
8.3037863364
 21
5.3462401501
 31
0.0
 11
8.274712768
 21
5.3198520953
 31
0.0
 11
8.2431928741
 21
5.2964397414
 31
0.0
 11
8.2095355724
 21
5.2762211496
 31
0.0
 11
8.1920069001
 21
5.267372061
 31
0.0
 11
8.1740661072
 21
5.2593943601
 31
0.0
 11
8.1557554255
 21
5.2523047845
 31
0.0
 11
8.1371173088
 21
5.246118938
 31
0.0
 11
8.1181942109
 21
5.2408524245
 31
0.0
 11
8.0990289139
 21
5.2365205853
 31
0.0
 11
8.0796706854
 21
5.2331335778
 31
0.0
 11
8.0601747392
 21
5.230696806
 31
0.0
 11
8.0209914297
 21
5.2286948831
 31
0.0
  0
LINE
  5
2DE
100
AcDbEntity
  8
0
100
AcDbLine
 62
6
  6
CONTINUOUS
 10
8.0209914297
 20
5.2286948831
 11
8.0205606842
 21
5.2286942697
  0
ENDSEC
  0
SECTION
  2
OBJECTS
  0
DICTIONARY
  5
C
100
AcDbDictionary
280
0
281
1
  3
ACAD_GROUP
350
D
  3
ACAD_MLINESTYLE
350
17
  3
ACAD_LAYOUT
350
1A
  3
ACAD_PLOTSETTINGS
350
19
  3
ACAD_PLOTSTYLENAME
350
E
  0
DICTIONARY
  5
D
102
{ACAD_REACTORS
330
C
102
}
100
AcDbDictionary
280
0
281
1
  0
ACDBDICTIONARYWDFLT
  5
E
102
{ACAD_REACTORS
330
C
102
}
100
AcDbDictionary
281
1
  3
Normal
350
F
100
AcDbDictionaryWithDefault
340
F
  0
DICTIONARY
  5
17
102
{ACAD_REACTORS
330
C
102
}
100
AcDbDictionary
280
0
281
1
  3
Standard
350
18
  0
DICTIONARY
  5
19
102
{ACAD_REACTORS
330
C
102
}
100
AcDbDictionary
281
1
  0
DICTIONARY
  5
1A
102
{ACAD_REACTORS
330
C
102
}
100
AcDbDictionary
281
1
  3
Model
350
2DF
  3
Layout1
350
2E0
  0
ACDBPLACEHOLDER
  5
F
102
{ACAD_REACTORS
330
E
102
}
  0
MLINESTYLE
  5
18
102
{ACAD_REACTORS
330
17
102
}
100
AcDbMlineStyle
  2
STANDARD
 70
0
  3

 62
256
 51
90.0
 52
90.0
 71
2
 49
0.5
 62
256
  6
BYLAYER
 49
-0.5
 62
256
  6
BYLAYER
  0
LAYOUT
  5
2DF
102
{ACAD_REACTORS
330
1A
102
}
100
AcDbPlotSettings
  1

  2
none_device
  4
ISO_A3_(420.00_x_297.00_MM)
  6

 40
0.0
 41
0.0
 42
0.0
 43
0.0
 44
420.0
 45
297.0
 46
0.0
 47
0.0
 48
0.0
 49
0.0
140
0.0
141
0.0
142
1.0
143
1.0
 70
1024
 72
0
 73
0
 74
0
  7

 75
0
147
1.0
148
0.0
149
0.0
100
AcDbLayout
  1
Model
 70
0
 71
0
 10
0.0
 20
0.0
 11
16.5354330709
 21
11.6929133858
 12
0.0
 22
0.0
 32
0.0
 14
0.0
 24
0.0
 34
0.0
 15
0.0
 25
0.0
 35
0.0
146
0.0
 13
0.0
 23
0.0
 33
0.0
 16
1.0
 26
0.0
 36
0.0
 17
0.0
 27
1.0
 37
0.0
 76
0
330
203
345
0
346
0
  0
LAYOUT
  5
2E0
102
{ACAD_REACTORS
330
1A
102
}
100
AcDbPlotSettings
  1

  2
none_device
  4
ISO_A3_(420.00_x_297.00_MM)
  6

 40
0.0
 41
0.0
 42
0.0
 43
0.0
 44
420.0
 45
297.0
 46
0.0
 47
0.0
 48
0.0
 49
0.0
140
0.0
141
0.0
142
1.0
143
1.0
 70
0
 72
0
 73
0
 74
0
  7

 75
0
147
1.0
148
0.0
149
0.0
100
AcDbLayout
  1
Layout1
 70
0
 71
1
 10
0.0
 20
0.0
 11
16.5354330709
 21
11.6929133858
 12
0.0
 22
0.0
 32
0.0
 14
0.0
 24
0.0
 34
0.0
 15
0.0
 25
0.0
 35
0.0
146
0.0
 13
0.0
 23
0.0
 33
0.0
 16
1.0
 26
0.0
 36
0.0
 17
0.0
 27
1.0
 37
0.0
 76
0
330
204
345
0
346
0
  0
ENDSEC
  0
EOF
