  0
SECTION
  2
HEADER
  9
$ACADVER
  1
AC1015
  9
$DWGCODEPAGE
  3
ANSI_1252
  9
$EXTMAX
 10
23.3858267717
 20
16.5354330709
 30
0.0
  9
$EXTMIN
 10
0.0
 20
0.0
 30
0.0
  9
$LIMMIN
 10
0.0
 20
0.0
  9
$LIMMAX
 10
23.3858267717
 20
16.5354330709
  9
$VIEWCTR
 10
11.6929133858
 20
8.2677165354
  9
$VIEWSIZE
 40
16.5354330709
  9
$CLAYER
  8
0
  9
$LTSCALE
 40
1.2862204724
  9
$CELTYPE
  6
BYLAYER
  9
$DIMSCALE
 40
1.0
  9
$DIMASZ
 40
0.1
  9
$DIMEXO
 40
0.1461614173
  9
$DIMDLI
 40
0.8886614173
  9
$DIMEXE
 40
0.4209448819
  9
$DIMCEN
 40
0.2104724409
  9
$DIMLFAC
 40
1.0
  9
$DIMBLK
  1
_FILLED
  9
$DIMTXT
 40
0.08
  9
$DIMTOL
 70
1
  9
$DIMLIM
 70
0
  9
$DIMTFAC
 40
1.0
  9
$DIMTP
 40
0.01
  9
$DIMTM
 40
0.01
  9
$PDMODE
 70
3
  9
$PDSIZE
 40
0.06
  9
$HANDSEED
  5
2F9
  9
$TILEMODE
 70
1
  9
$MEASUREMENT
 70
0
  9
$INSUNITS
 70
1
  0
ENDSEC
  0
SECTION
  2
CLASSES
  0
CLASS
  1
ACDBDICTIONARYWDFLT
  2
AcDbDictionaryWithDefault
  3
AutoCAD 2000
 90
0
280
0
281
0
  0
CLASS
  1
ACDBPLACEHOLDER
  2
AcDbPlaceHolder
  3
AutoCAD 2000
 90
0
280
0
281
0
  0
CLASS
  1
LAYOUT
  2
AcDbLayout
  3
AutoCAD 2000
 90
0
280
0
281
0
  0
ENDSEC
  0
SECTION
  2
TABLES
  0
TABLE
  2
VPORT
  5
8
100
AcDbSymbolTable
 70
2
  0
VPORT
  5
1F4
100
AcDbSymbolTableRecord
100
AcDbViewportTableRecord
  2
*ACTIVE
 70
0
 10
0.0
 20
0.0
 11
1.0
 21
1.0
 12
11.6929133858
 22
8.2677165354
 13
0.0
 23
0.0
 14
1.0
 24
1.0
 15
0.0
 25
0.0
 16
0.0
 26
0.0
 36
1.0
 17
0.0
 27
0.0
 37
0.0
 40
16.5354330709
 41
1.4142857143
 42
50.0
 43
0.0
 44
0.0
 50
0.0
 51
0.0
 71
0
 72
100
 73
1
 74
1
 75
0
 76
0
 77
0
 78
0
  0
ENDTAB
  0
TABLE
  2
LTYPE
  5
5
100
AcDbSymbolTable
 70
6
  0
LTYPE
  5
14
100
AcDbSymbolTableRecord
100
AcDbLinetypeTableRecord
  2
BYBLOCK
 70
0
  3

 72
65
 73
0
 40
0.0
  0
LTYPE
  5
15
100
AcDbSymbolTableRecord
100
AcDbLinetypeTableRecord
  2
BYLAYER
 70
0
  3

 72
65
 73
0
 40
0.0
  0
LTYPE
  5
16
100
AcDbSymbolTableRecord
100
AcDbLinetypeTableRecord
  2
CONTINUOUS
 70
64
  3
Solid line
 72
65
 73
0
 40
0.0
  0
LTYPE
  5
1F5
100
AcDbSymbolTableRecord
100
AcDbLinetypeTableRecord
  2
CENTER
 70
64
  3
____ _ ____ _ ____ _ ____ _ ____ _ ____ _ ____
 72
65
 73
4
 40
0.6
 49
0.375
 74
0
 49
-0.075
 74
0
 49
0.075
 74
0
 49
-0.075
 74
0
  0
LTYPE
  5
1F6
100
AcDbSymbolTableRecord
100
AcDbLinetypeTableRecord
  2
HIDDEN
 70
64
  3
- - - - - - - - - - - - - - - - - - - -
 72
65
 73
2
 40
0.2
 49
0.1
 74
0
 49
-0.1
 74
0
  0
LTYPE
  5
1F7
100
AcDbSymbolTableRecord
100
AcDbLinetypeTableRecord
  2
PHANTOM
 70
64
  3
_____ _ _ _____ _ _ _____ _ _ _____
 72
65
 73
6
 40
0.8
 49
0.45
 74
0
 49
-0.05
 74
0
 49
0.1
 74
0
 49
-0.05
 74
0
 49
0.1
 74
0
 49
-0.05
 74
0
  0
LTYPE
  5
1F8
100
AcDbSymbolTableRecord
100
AcDbLinetypeTableRecord
  2
DOT
 70
64
  3
. . . . . . . . . . . . . . . . . . . .
 72
65
 73
2
 40
0.2
 49
0.1
 74
0
 49
-0.1
 74
0
  0
LTYPE
  5
1F9
100
AcDbSymbolTableRecord
100
AcDbLinetypeTableRecord
  2
DASHED
 70
64
  3
- - - - - - - - - - - - - - - - - - - -
 72
65
 73
2
 40
0.2
 49
0.1
 74
0
 49
-0.1
 74
0
  0
ENDTAB
  0
TABLE
  2
LAYER
  5
2
100
AcDbSymbolTable
 70
36
  0
LAYER
  5
10
100
AcDbSymbolTableRecord
100
AcDbLayerTableRecord
  2
0
 70
0
 62
7
  6
CONTINUOUS
370
-3
390
F
  0
LAYER
  5
1FA
100
AcDbSymbolTableRecord
100
AcDbLayerTableRecord
  2
DEFAULT_1
 70
0
 62
7
  6
CENTER
370
-3
390
F
  0
LAYER
  5
1FB
100
AcDbSymbolTableRecord
100
AcDbLayerTableRecord
  2
DEFAULT_2
 70
0
 62
8
  6
HIDDEN
370
-3
390
F
  0
LAYER
  5
1FC
100
AcDbSymbolTableRecord
100
AcDbLayerTableRecord
  2
DEFAULT_3
 70
0
 62
7
  6
PHANTOM
370
-3
390
F
  0
LAYER
  5
1FD
100
AcDbSymbolTableRecord
100
AcDbLayerTableRecord
  2
DEFAULT_COORDINATE_SYSTEM
 70
0
 62
7
  6
CONTINUOUS
370
-3
390
F
  0
LAYER
  5
1FE
100
AcDbSymbolTableRecord
100
AcDbLayerTableRecord
  2
DEFAULT_DATUM_AXES
 70
0
 62
7
  6
CONTINUOUS
370
-3
390
F
  0
LAYER
  5
1FF
100
AcDbSymbolTableRecord
100
AcDbLayerTableRecord
  2
DEFAULT_DATUM_CURVES
 70
0
 62
7
  6
CONTINUOUS
370
-3
390
F
  0
LAYER
  5
200
100
AcDbSymbolTableRecord
100
AcDbLayerTableRecord
  2
DEFAULT_DATUM_PLANES
 70
0
 62
7
  6
CONTINUOUS
370
-3
390
F
  0
ENDTAB
  0
TABLE
  2
STYLE
  5
3
100
AcDbSymbolTable
 70
1
  0
STYLE
  5
11
100
AcDbSymbolTableRecord
100
AcDbTextStyleTableRecord
  2
STANDARD
 70
0
 40
0.0
 41
0.8
 50
0.0
 71
0
 42
0.2
  3
txt
  4

  0
STYLE
  5
201
100
AcDbSymbolTableRecord
100
AcDbTextStyleTableRecord
  2
TEXTSTYLE_1
 70
0
 40
0.0
 41
0.8
 50
0.0
 71
0
 42
0.2
  3
gdt
  4

  0
ENDTAB
  0
TABLE
  2
VIEW
  5
6
100
AcDbSymbolTable
 70
0
  0
ENDTAB
  0
TABLE
  2
UCS
  5
7
100
AcDbSymbolTable
 70
0
  0
ENDTAB
  0
TABLE
  2
APPID
  5
9
100
AcDbSymbolTable
 70
1
  0
APPID
  5
202
100
AcDbSymbolTableRecord
100
AcDbRegAppTableRecord
  2
ACAD
 70
0
  0
ENDTAB
  0
TABLE
  2
BLOCK_RECORD
  5
1
100
AcDbSymbolTable
 70
0
  0
BLOCK_RECORD
  5
203
100
AcDbSymbolTableRecord
100
AcDbBlockTableRecord
  2
*Model_Space
  0
BLOCK_RECORD
  5
204
100
AcDbSymbolTableRecord
100
AcDbBlockTableRecord
  2
*Paper_Space
  0
ENDTAB
  0
TABLE
  2
DIMSTYLE
  5
A
100
AcDbSymbolTable
 70
1
100
AcDbDimStyleTable
 71
0
  0
DIMSTYLE
105
205
100
AcDbSymbolTableRecord
100
AcDbDimStyleTableRecord
  2
STANDARD
 70
0
  3

  4

 40
1.0
 41
0.1
 42
0.0625
 43
0.38
 44
0.18
 45
0.0
 46
0.0
 47
0.01
 48
0.01
140
0.08
141
0.09
142
0.0
143
25.4
144
1.0
145
0.0
146
1.0
147
0.09
 71
1.0
 72
0.0
 73
1
 74
1
 75
0
 76
0
 77
0
 78
4
170
0
171
2
172
0
173
0
174
0
175
0
176
0
177
0
178
0
270
2
271
2
272
2
273
2
274
2
275
0
280
0
281
0
282
0
283
1
284
4
285
0
286
0
287
3
288
0
340
11
  0
ENDTAB
  0
ENDSEC
  0
SECTION
  2
BLOCKS
  0
BLOCK
  5
20
100
AcDbEntity
  8
0
100
AcDbBlockBegin
  2
*Model_Space
 70
0
 10
0.0
 20
0.0
 30
0.0
  3
*Model_Space
  1

  0
ENDBLK
  5
21
100
AcDbEntity
  8
0
100
AcDbBlockEnd
  0
BLOCK
  5
1C
100
AcDbEntity
  8
0
100
AcDbBlockBegin
  2
*Paper_Space
 70
0
 10
0.0
 20
0.0
 30
0.0
  3
*Paper_Space
  1

  0
ENDBLK
  5
1D
100
AcDbEntity
  8
0
100
AcDbBlockEnd
  0
ENDSEC
  0
SECTION
  2
ENTITIES
  0
LINE
  5
206
100
AcDbEntity
  8
0
100
AcDbLine
 62
7
  6
CONTINUOUS
 10
11.4778713006
 20
8.5465352973
 11
11.4778713006
 21
8.5448966794
  0
CIRCLE
  5
207
100
AcDbEntity
  8
0
100
AcDbCircle
 62
6
  6
CONTINUOUS
 10
11.4778713006
 20
8.1400352973
 40
1.1800000459
  0
CIRCLE
  5
208
100
AcDbEntity
  8
0
100
AcDbCircle
 62
6
  6
CONTINUOUS
 10
11.4778713006
 20
8.1400352973
 40
1.0000026738
  0
CIRCLE
  5
209
100
AcDbEntity
  8
0
100
AcDbCircle
 62
9
  6
CONTINUOUS
 10
11.4778713006
 20
8.1400352973
 40
0.8130026738
  0
CIRCLE
  5
20A
100
AcDbEntity
  8
0
100
AcDbCircle
 62
6
  6
CONTINUOUS
 10
11.4778713006
 20
8.1400352973
 40
0.741
  0
CIRCLE
  5
20B
100
AcDbEntity
  8
0
100
AcDbCircle
 62
7
  6
CONTINUOUS
 10
11.4778713006
 20
8.1400352973
 40
0.4225
  0
ARC
  5
20C
100
AcDbEntity
  8
0
100
AcDbCircle
 62
6
  6
CONTINUOUS
 10
11.4778713006
 20
8.1400352973
 40
0.4065
100
AcDbArc
 50
132.0702540787
 51
90.0962324832
  0
ARC
  5
20D
100
AcDbEntity
  8
0
100
AcDbCircle
 62
6
  6
CONTINUOUS
 10
11.4781927421
 20
8.1401998708
 40
0.4063309453
100
AcDbArc
 50
90.149076172
 51
121.8633836068
  0
ARC
  5
20E
100
AcDbEntity
  8
0
100
AcDbCircle
 62
6
  6
CONTINUOUS
 10
11.4780356061
 20
8.1403602982
 40
0.4061081464
100
AcDbArc
 50
121.856503201
 51
180.0478045364
  0
ARC
  5
20F
100
AcDbEntity
  8
0
100
AcDbCircle
 62
6
  6
CONTINUOUS
 10
11.4776037624
 20
8.140301381
 40
0.4056633685
100
AcDbArc
 50
180.0395341866
 51
269.9352076868
  0
ARC
  5
210
100
AcDbEntity
  8
0
100
AcDbCircle
 62
6
  6
CONTINUOUS
 10
11.4781951586
 20
8.1401915442
 40
0.4047008741
100
AcDbArc
 50
90.1219654575
 51
121.8503609462
  0
ARC
  5
211
100
AcDbEntity
  8
0
100
AcDbCircle
 62
6
  6
CONTINUOUS
 10
11.4781929245
 20
8.1401993668
 40
0.4041082814
100
AcDbArc
 50
90.1115579721
 51
121.8423067471
  0
ARC
  5
212
100
AcDbEntity
  8
0
100
AcDbCircle
 62
6
  6
CONTINUOUS
 10
11.4781947233
 20
8.1401931159
 40
0.4024760785
100
AcDbArc
 50
90.122295675
 51
121.8307463039
  0
ARC
  5
213
100
AcDbEntity
  8
0
100
AcDbCircle
 62
6
  6
CONTINUOUS
 10
11.4780934552
 20
8.1403171477
 40
0.4023166404
100
AcDbArc
 50
121.8278093596
 51
153.5560018104
  0
ARC
  5
214
100
AcDbEntity
  8
0
100
AcDbCircle
 62
6
  6
CONTINUOUS
 10
11.4776678072
 20
8.1403720663
 40
0.4018881706
100
AcDbArc
 50
153.535989625
 51
269.9544608618
  0
ARC
  5
215
100
AcDbEntity
  8
0
100
AcDbCircle
 62
6
  6
CONTINUOUS
 10
11.4781932612
 20
8.1402000735
 40
0.4018844839
100
AcDbArc
 50
90.1119154279
 51
121.8274145795
  0
ARC
  5
216
100
AcDbEntity
  8
0
100
AcDbCircle
 62
6
  6
CONTINUOUS
 10
11.4780510515
 20
8.1403531653
 40
0.4016774654
100
AcDbArc
 50
121.8216957757
 51
153.5560839199
  0
ARC
  5
217
100
AcDbEntity
  8
0
100
AcDbCircle
 62
6
  6
CONTINUOUS
 10
11.4776679708
 20
8.140372437
 40
0.4013038432
100
AcDbArc
 50
153.5341923088
 51
269.9632195306
  0
ARC
  5
218
100
AcDbEntity
  8
0
100
AcDbCircle
 62
6
  6
CONTINUOUS
 10
11.4785832793
 20
8.1396573222
 40
0.4009113198
100
AcDbArc
 50
121.6469129234
 51
122.2160999611
  0
ARC
  5
219
100
AcDbEntity
  8
0
100
AcDbCircle
 62
6
  6
CONTINUOUS
 10
11.4783963375
 20
8.1396699457
 40
0.4008140248
100
AcDbArc
 50
109.9467968642
 51
112.3233385662
  0
ARC
  5
21A
100
AcDbEntity
  8
0
100
AcDbCircle
 62
6
  6
CONTINUOUS
 10
11.4782789239
 20
8.1397296379
 40
0.4007199807
100
AcDbArc
 50
90.1726423795
 51
109.9339275369
  0
ARC
  5
21B
100
AcDbEntity
  8
0
100
AcDbCircle
 62
6
  6
CONTINUOUS
 10
11.4780879287
 20
8.1403192167
 40
0.4000881109
100
AcDbArc
 50
122.2067052369
 51
153.5595765831
  0
ARC
  5
21C
100
AcDbEntity
  8
0
100
AcDbCircle
 62
6
  6
CONTINUOUS
 10
11.4782068602
 20
8.1401624867
 40
0.3997019824
100
AcDbArc
 50
90.1290564662
 51
121.8152002359
  0
ARC
  5
21D
100
AcDbEntity
  8
0
100
AcDbCircle
 62
6
  6
CONTINUOUS
 10
11.4776681354
 20
8.1403724992
 40
0.3996654134
100
AcDbArc
 50
153.5396204564
 51
269.9149897425
  0
ARC
  5
21E
100
AcDbEntity
  8
0
100
AcDbCircle
 62
6
  6
CONTINUOUS
 10
11.4778797498
 20
8.1408408792
 40
0.3995346311
100
AcDbArc
 50
112.3185899675
 51
121.6500792499
  0
ARC
  5
21F
100
AcDbEntity
  8
0
100
AcDbCircle
 62
6
  6
CONTINUOUS
 10
11.4780530318
 20
8.1403524553
 40
0.3994564235
100
AcDbArc
 50
121.8108157453
 51
153.6110460979
  0
ARC
  5
220
100
AcDbEntity
  8
0
100
AcDbCircle
 62
6
  6
CONTINUOUS
 10
11.4776623282
 20
8.1403684622
 40
0.3990764588
100
AcDbArc
 50
153.588174443
 51
269.9299771139
  0
ARC
  5
221
100
AcDbEntity
  8
0
100
AcDbCircle
 62
6
  6
CONTINUOUS
 10
11.478206944
 20
8.1401622538
 40
0.3980636092
100
AcDbArc
 50
90.1077102536
 51
121.815400677
  0
ARC
  5
222
100
AcDbEntity
  8
0
100
AcDbCircle
 62
6
  6
CONTINUOUS
 10
11.4780501896
 20
8.1403549456
 40
0.3978140897
100
AcDbArc
 50
121.8108468747
 51
153.6031717536
  0
ARC
  5
223
100
AcDbEntity
  8
0
100
AcDbCircle
 62
6
  6
CONTINUOUS
 10
11.4781934773
 20
8.140197736
 40
0.3974402569
100
AcDbArc
 50
90.1136429461
 51
121.7933537195
  0
ARC
  5
224
100
AcDbEntity
  8
0
100
AcDbCircle
 62
6
  6
CONTINUOUS
 10
11.4776622689
 20
8.1403684578
 40
0.3974377718
100
AcDbArc
 50
153.5800549428
 51
269.9567498635
  0
ARC
  5
225
100
AcDbEntity
  8
0
100
AcDbCircle
 62
6
  6
CONTINUOUS
 10
11.4780525925
 20
8.14035184
 40
0.3972330418
100
AcDbArc
 50
121.7877927059
 51
153.57242654
  0
ARC
  5
226
100
AcDbEntity
  8
0
100
AcDbCircle
 62
6
  6
CONTINUOUS
 10
11.4776678375
 20
8.1403723257
 40
0.3968572484
100
AcDbArc
 50
153.5503535137
 51
269.9628374021
  0
ARC
  5
227
100
AcDbEntity
  8
0
100
AcDbCircle
 62
6
  6
CONTINUOUS
 10
11.4781794864
 20
8.1402315868
 40
0.3957660731
100
AcDbArc
 50
90.1223173443
 51
153.5699735425
  0
ARC
  5
228
100
AcDbEntity
  8
0
100
AcDbCircle
 62
6
  6
CONTINUOUS
 10
11.4776678633
 20
8.1403723442
 40
0.3952186899
100
AcDbArc
 50
153.55523349
 51
269.9525654224
  0
ARC
  5
229
100
AcDbEntity
  8
0
100
AcDbCircle
 62
6
  6
CONTINUOUS
 10
11.4781809508
 20
8.140230656
 40
0.3951828259
100
AcDbArc
 50
90.1123852594
 51
153.5724174511
  0
ARC
  5
22A
100
AcDbEntity
  8
0
100
AcDbCircle
 62
6
  6
CONTINUOUS
 10
11.4776677156
 20
8.1403719809
 40
0.3946337717
100
AcDbArc
 50
153.5576283816
 51
269.9636455975
  0
ARC
  5
22B
100
AcDbEntity
  8
0
100
AcDbCircle
 62
6
  6
CONTINUOUS
 10
11.4789600157
 20
8.1398632398
 40
0.3944002713
100
AcDbArc
 50
152.448260874
 51
153.5798958226
  0
ARC
  5
22C
100
AcDbEntity
  8
0
100
AcDbCircle
 62
6
  6
CONTINUOUS
 10
11.4789695254
 20
8.1401374582
 40
0.3943129777
100
AcDbArc
 50
165.4648227029
 51
167.394320542
  0
ARC
  5
22D
100
AcDbEntity
  8
0
100
AcDbCircle
 62
6
  6
CONTINUOUS
 10
11.4788273374
 20
8.139929298
 40
0.394252058
100
AcDbArc
 50
153.5799137952
 51
154.3366552966
  0
ARC
  5
22E
100
AcDbEntity
  8
0
100
AcDbCircle
 62
6
  6
CONTINUOUS
 10
11.4787180615
 20
8.1403964112
 40
0.3940331968
100
AcDbArc
 50
178.7127354565
 51
180.0763576235
  0
ARC
  5
22F
100
AcDbEntity
  8
0
100
AcDbCircle
 62
6
  6
CONTINUOUS
 10
11.4784857915
 20
8.1399502459
 40
0.3939593615
100
AcDbArc
 50
140.4623083184
 51
141.2091759147
  0
ARC
  5
230
100
AcDbEntity
  8
0
100
AcDbCircle
 62
6
  6
CONTINUOUS
 10
11.4785386198
 20
8.140570592
 40
0.3938766355
100
AcDbArc
 50
191.7532881667
 51
192.8313401637
  0
ARC
  5
231
100
AcDbEntity
  8
0
100
AcDbCircle
 62
6
  6
CONTINUOUS
 10
11.4782240907
 20
8.1406425294
 40
0.3936087257
100
AcDbArc
 50
204.9763180856
 51
205.6231372452
  0
ARC
  5
232
100
AcDbEntity
  8
0
100
AcDbCircle
 62
6
  6
CONTINUOUS
 10
11.4781908597
 20
8.1401998541
 40
0.3935753866
100
AcDbArc
 50
90.163574167
 51
140.4629998198
  0
ARC
  5
233
100
AcDbEntity
  8
0
100
AcDbCircle
 62
6
  6
CONTINUOUS
 10
11.4781815722
 20
8.1402285577
 40
0.3929623784
100
AcDbArc
 50
90.1431464319
 51
153.574801008
  0
ARC
  5
234
100
AcDbEntity
  8
0
100
AcDbCircle
 62
6
  6
CONTINUOUS
 10
11.4776627347
 20
8.1406088762
 40
0.3929052214
100
AcDbArc
 50
141.2088454588
 51
152.4571591547
  0
ARC
  5
235
100
AcDbEntity
  8
0
100
AcDbCircle
 62
6
  6
CONTINUOUS
 10
11.4775595634
 20
8.1402267912
 40
0.3928269036
100
AcDbArc
 50
205.6103781001
 51
269.9311046323
  0
ARC
  5
236
100
AcDbEntity
  8
0
100
AcDbCircle
 62
6
  6
CONTINUOUS
 10
11.4773528219
 20
8.1403358457
 40
0.3926678821
100
AcDbArc
 50
180.0677857559
 51
191.7549982867
  0
ARC
  5
237
100
AcDbEntity
  8
0
100
AcDbCircle
 62
6
  6
CONTINUOUS
 10
11.4794459781
 20
8.1398517271
 40
0.3926265135
100
AcDbArc
 50
159.1348279896
 51
159.6187011517
  0
ARC
  5
238
100
AcDbEntity
  8
0
100
AcDbCircle
 62
6
  6
CONTINUOUS
 10
11.4778771293
 20
8.1403979387
 40
0.3926089736
100
AcDbArc
 50
153.5771647843
 51
185.3531061526
  0
ARC
  5
239
100
AcDbEntity
  8
0
100
AcDbCircle
 62
6
  6
CONTINUOUS
 10
11.4772685308
 20
8.1404599654
 40
0.3925826054
100
AcDbArc
 50
167.386075794
 51
178.7172560151
  0
ARC
  5
23A
100
AcDbEntity
  8
0
100
AcDbCircle
 62
6
  6
CONTINUOUS
 10
11.4772714787
 20
8.1406330251
 40
0.3925449082
100
AcDbArc
 50
154.3308887504
 51
165.4726373138
  0
ARC
  5
23B
100
AcDbEntity
  8
0
100
AcDbCircle
 62
6
  6
CONTINUOUS
 10
11.4771737909
 20
8.1401682552
 40
0.3924561219
100
AcDbArc
 50
192.8183196662
 51
204.9782979143
  0
ARC
  5
23C
100
AcDbEntity
  8
0
100
AcDbCircle
 62
6
  6
CONTINUOUS
 10
11.4775746049
 20
8.1398164321
 40
0.3924069337
100
AcDbArc
 50
270.1219145801
 51
341.6518873627
  0
ARC
  5
23D
100
AcDbEntity
  8
0
100
AcDbCircle
 62
6
  6
CONTINUOUS
 10
11.4775915954
 20
8.1402856277
 40
0.3923062038
100
AcDbArc
 50
185.3406655516
 51
269.9416369825
  0
ARC
  5
23E
100
AcDbEntity
  8
0
100
AcDbCircle
 62
6
  6
CONTINUOUS
 10
11.478798673
 20
8.1404791441
 40
0.3918944272
100
AcDbArc
 50
185.3509210017
 51
186.9599371859
  0
ARC
  5
23F
100
AcDbEntity
  8
0
100
AcDbCircle
 62
6
  6
CONTINUOUS
 10
11.4780974697
 20
8.1397189116
 40
0.3918564771
100
AcDbArc
 50
341.64135598
 51
89.95562515
  0
ARC
  5
240
100
AcDbEntity
  8
0
100
AcDbCircle
 62
6
  6
CONTINUOUS
 10
11.4775742086
 20
8.1398164969
 40
0.3918226359
100
AcDbArc
 50
270.1107244612
 51
341.6315572631
  0
ARC
  5
241
100
AcDbEntity
  8
0
100
AcDbCircle
 62
6
  6
CONTINUOUS
 10
11.4786426223
 20
8.1404607257
 40
0.3917372946
100
AcDbArc
 50
186.9600288691
 51
187.2408756209
  0
ARC
  5
242
100
AcDbEntity
  8
0
100
AcDbCircle
 62
6
  6
CONTINUOUS
 10
11.4782898295
 20
8.1403455121
 40
0.3913869481
100
AcDbArc
 50
173.1542828131
 51
173.6757189803
  0
ARC
  5
243
100
AcDbEntity
  8
0
100
AcDbCircle
 62
6
  6
CONTINUOUS
 10
11.4781816086
 20
8.140228502
 40
0.3913238296
100
AcDbArc
 50
90.1172745226
 51
153.5749861331
  0
ARC
  5
244
100
AcDbEntity
  8
0
100
AcDbCircle
 62
6
  6
CONTINUOUS
 10
11.4780969166
 20
8.139717599
 40
0.3912717661
100
AcDbArc
 50
341.6211814079
 51
89.9657389131
  0
ARC
  5
245
100
AcDbEntity
  8
0
100
AcDbCircle
 62
6
  6
CONTINUOUS
 10
11.4781813365
 20
8.1402301208
 40
0.3907370099
100
AcDbArc
 50
90.1135713559
 51
153.5868186858
  0
ARC
  5
246
100
AcDbEntity
  8
0
100
AcDbCircle
 62
6
  6
CONTINUOUS
 10
11.4775887329
 20
8.1402812003
 40
0.3906626468
100
AcDbArc
 50
187.2342376989
 51
269.9686466813
  0
ARC
  5
247
100
AcDbEntity
  8
0
100
AcDbCircle
 62
6
  6
CONTINUOUS
 10
11.4775455033
 20
8.1404552209
 40
0.390634852
100
AcDbArc
 50
159.6045972572
 51
173.15724646
  0
ARC
  5
248
100
AcDbEntity
  8
0
100
AcDbCircle
 62
6
  6
CONTINUOUS
 10
11.4775353082
 20
8.1404089798
 40
0.3906300276
100
AcDbArc
 50
173.672780591
 51
185.3579551322
  0
ARC
  5
249
100
AcDbEntity
  8
0
100
AcDbCircle
 62
6
  6
CONTINUOUS
 10
11.4774338963
 20
8.1406742484
 40
0.3904534277
100
AcDbArc
 50
153.5847330355
 51
159.1424494572
  0
ARC
  5
24A
100
AcDbEntity
  8
0
100
AcDbCircle
 62
6
  6
CONTINUOUS
 10
11.4775741981
 20
8.1398165315
 40
0.3901840588
100
AcDbArc
 50
270.1214232065
 51
341.6138446806
  0
ARC
  5
24B
100
AcDbEntity
  8
0
100
AcDbCircle
 62
6
  6
CONTINUOUS
 10
11.4776254666
 20
8.1403329272
 40
0.3901358901
100
AcDbArc
 50
167.5421145392
 51
269.9693717917
  0
ARC
  5
24C
100
AcDbEntity
  8
0
100
AcDbCircle
 62
6
  6
CONTINUOUS
 10
11.477549879
 20
8.1405244798
 40
0.3900354361
100
AcDbArc
 50
153.5842820818
 51
167.5671955528
  0
ARC
  5
24D
100
AcDbEntity
  8
0
100
AcDbCircle
 62
6
  6
CONTINUOUS
 10
11.4780968284
 20
8.1397175346
 40
0.389633212
100
AcDbArc
 50
341.6034186477
 51
89.9553513824
  0
ARC
  5
24E
100
AcDbEntity
  8
0
100
AcDbCircle
 62
6
  6
CONTINUOUS
 10
11.477574493
 20
8.1398165132
 40
0.3895991948
100
AcDbArc
 50
270.1124143101
 51
341.6204751697
  0
ARC
  5
24F
100
AcDbEntity
  8
0
100
AcDbCircle
 62
6
  6
CONTINUOUS
 10
11.4781610792
 20
8.1402691547
 40
0.3890565434
100
AcDbArc
 50
90.1214371905
 51
167.5548086995
  0
ARC
  5
250
100
AcDbEntity
  8
0
100
AcDbCircle
 62
6
  6
CONTINUOUS
 10
11.4780978187
 20
8.1397192369
 40
0.3890481972
100
AcDbArc
 50
341.6097697063
 51
89.9660837009
  0
ARC
  5
251
100
AcDbEntity
  8
0
100
AcDbCircle
 62
6
  6
CONTINUOUS
 10
11.4778191372
 20
8.1403889517
 40
0.3886896084
100
AcDbArc
 50
167.5611902274
 51
185.3059303519
  0
ARC
  5
252
100
AcDbEntity
  8
0
100
AcDbCircle
 62
6
  6
CONTINUOUS
 10
11.4781579162
 20
8.1402724811
 40
0.3884677872
100
AcDbArc
 50
90.1109098804
 51
167.5529609409
  0
ARC
  5
253
100
AcDbEntity
  8
0
100
AcDbCircle
 62
6
  6
CONTINUOUS
 10
11.477594186
 20
8.1402892074
 40
0.3884479576
100
AcDbArc
 50
185.2943497484
 51
269.9637077605
  0
ARC
  5
254
100
AcDbEntity
  8
0
100
AcDbCircle
 62
6
  6
CONTINUOUS
 10
11.4778980408
 20
8.1403852844
 40
0.3881836617
100
AcDbArc
 50
167.5609518812
 51
185.3028317836
  0
ARC
  5
255
100
AcDbEntity
  8
0
100
AcDbCircle
 62
6
  6
CONTINUOUS
 10
11.4775744771
 20
8.1398165576
 40
0.3879606289
100
AcDbArc
 50
270.1233495829
 51
341.59935849
  0
ARC
  5
256
100
AcDbEntity
  8
0
100
AcDbCircle
 62
6
  6
CONTINUOUS
 10
11.4775943778
 20
8.1402894539
 40
0.3878634656
100
AcDbArc
 50
185.2928821197
 51
269.9728358902
  0
ARC
  5
257
100
AcDbEntity
  8
0
100
AcDbCircle
 62
6
  6
CONTINUOUS
 10
11.4780974624
 20
8.1397188512
 40
0.3874100328
100
AcDbArc
 50
341.5886552522
 51
90.0334496259
  0
ARC
  5
258
100
AcDbEntity
  8
0
100
AcDbCircle
 62
6
  6
CONTINUOUS
 10
11.4775743049
 20
8.1398163529
 40
0.3873760114
100
AcDbArc
 50
270.112069698
 51
341.5836737502
  0
ARC
  5
259
100
AcDbEntity
  8
0
100
AcDbCircle
 62
6
  6
CONTINUOUS
 10
11.4782403817
 20
8.1411867884
 40
0.3873299359
100
AcDbArc
 50
233.3639330656
 51
235.0171938644
  0
ARC
  5
25A
100
AcDbEntity
  8
0
100
AcDbCircle
 62
6
  6
CONTINUOUS
 10
11.4783922925
 20
8.1406999472
 40
0.3871149059
100
AcDbArc
 50
209.1571645772
 51
210.1448152951
  0
ARC
  5
25B
100
AcDbEntity
  8
0
100
AcDbCircle
 62
6
  6
CONTINUOUS
 10
11.4781950429
 20
8.1407876246
 40
0.3870021679
100
AcDbArc
 50
221.3112392553
 51
222.6575229781
  0
ARC
  5
25C
100
AcDbEntity
  8
0
100
AcDbCircle
 62
6
  6
CONTINUOUS
 10
11.4781581168
 20
8.140272299
 40
0.3868294179
100
AcDbArc
 50
90.0424811916
 51
167.5594433294
  0
ARC
  5
25D
100
AcDbEntity
  8
0
100
AcDbCircle
 62
6
  6
CONTINUOUS
 10
11.4780971081
 20
8.1397176908
 40
0.3868251293
100
AcDbArc
 50
341.573075787
 51
90.0334476132
  0
ARC
  5
25E
100
AcDbEntity
  8
0
100
AcDbCircle
 62
6
  6
CONTINUOUS
 10
11.4779908325
 20
8.1381776851
 40
0.3867171438
100
AcDbArc
 50
81.2641768693
 51
82.4111804288
  0
ARC
  5
25F
100
AcDbEntity
  8
0
100
AcDbCircle
 62
6
  6
CONTINUOUS
 10
11.4778993087
 20
8.1403852081
 40
0.3865463154
100
AcDbArc
 50
167.5675221751
 51
185.3263340882
  0
ARC
  5
260
100
AcDbEntity
  8
0
100
AcDbCircle
 62
6
  6
CONTINUOUS
 10
11.4784125212
 20
8.1403645543
 40
0.3864715736
100
AcDbArc
 50
167.5782758998
 51
185.3353194961
  0
ARC
  5
261
100
AcDbEntity
  8
0
100
AcDbCircle
 62
6
  6
CONTINUOUS
 10
11.4784341754
 20
8.1384281132
 40
0.3864659026
100
AcDbArc
 50
95.5741661708
 51
96.613442997
  0
ARC
  5
262
100
AcDbEntity
  8
0
100
AcDbCircle
 62
6
  6
CONTINUOUS
 10
11.4776208273
 20
8.1403786736
 40
0.3863237945
100
AcDbArc
 50
245.8936751767
 51
246.5568067169
  0
ARC
  5
263
100
AcDbEntity
  8
0
100
AcDbCircle
 62
6
  6
CONTINUOUS
 10
11.4776482816
 20
8.1403436068
 40
0.386291161
100
AcDbArc
 50
185.3236466075
 51
209.1647735315
  0
ARC
  5
264
100
AcDbEntity
  8
0
100
AcDbCircle
 62
6
  6
CONTINUOUS
 10
11.4781650865
 20
8.1402627235
 40
0.3862559971
100
AcDbArc
 50
90.0435782679
 51
167.5556288252
  0
ARC
  5
265
100
AcDbEntity
  8
0
100
AcDbCircle
 62
6
  6
CONTINUOUS
 10
11.4775436161
 20
8.1402488174
 40
0.3861759144
100
AcDbArc
 50
246.5596517981
 51
270.0486173808
  0
ARC
  5
266
100
AcDbEntity
  8
0
100
AcDbCircle
 62
6
  6
CONTINUOUS
 10
11.4779991495
 20
8.138228637
 40
0.3860813068
100
AcDbArc
 50
80.7572731118
 51
83.1951918277
  0
ARC
  5
267
100
AcDbEntity
  8
0
100
AcDbCircle
 62
6
  6
CONTINUOUS
 10
11.4784490315
 20
8.138343368
 40
0.3859665707
100
AcDbArc
 50
94.8498505403
 51
97.5970433453
  0
ARC
  5
268
100
AcDbEntity
  8
0
100
AcDbCircle
 62
6
  6
CONTINUOUS
 10
11.4774312702
 20
8.1399247136
 40
0.3858320039
100
AcDbArc
 50
235.008185659
 51
245.8918358933
  0
ARC
  5
269
100
AcDbEntity
  8
0
100
AcDbCircle
 62
6
  6
CONTINUOUS
 10
11.4777578046
 20
8.1392216975
 40
0.3857955854
100
AcDbArc
 50
52.9365689577
 51
53.4422932845
  0
ARC
  5
26A
100
AcDbEntity
  8
0
100
AcDbCircle
 62
6
  6
CONTINUOUS
 10
11.4772310855
 20
8.1400068231
 40
0.385762664
100
AcDbArc
 50
210.1424029735
 51
221.3186460289
  0
ARC
  5
26B
100
AcDbEntity
  8
0
100
AcDbCircle
 62
6
  6
CONTINUOUS
 10
11.477574073
 20
8.1398166244
 40
0.3857377412
100
AcDbArc
 50
270.0441480056
 51
341.565167331
  0
ARC
  5
26C
100
AcDbEntity
  8
0
100
AcDbCircle
 62
6
  6
CONTINUOUS
 10
11.4787444649
 20
8.1393667149
 40
0.3856807019
100
AcDbArc
 50
124.1487663288
 51
125.0598941658
  0
ARC
  5
26D
100
AcDbEntity
  8
0
100
AcDbCircle
 62
6
  6
CONTINUOUS
 10
11.4776784329
 20
8.1395058723
 40
0.385649374
100
AcDbArc
 50
24.4120470334
 51
24.7000410097
  0
ARC
  5
26E
100
AcDbEntity
  8
0
100
AcDbCircle
 62
6
  6
CONTINUOUS
 10
11.4775966434
 20
8.1402919812
 40
0.3856440071
100
AcDbArc
 50
185.3358551204
 51
270.0408071241
  0
ARC
  5
26F
100
AcDbEntity
  8
0
100
AcDbCircle
 62
6
  6
CONTINUOUS
 10
11.4781191722
 20
8.1392861149
 40
0.385601474
100
AcDbArc
 50
82.408332448
 51
90.0368307673
  0
ARC
  5
270
100
AcDbEntity
  8
0
100
AcDbCircle
 62
6
  6
CONTINUOUS
 10
11.4778207789
 20
8.1394957424
 40
0.3855441739
100
AcDbArc
 50
38.7361324238
 51
38.9391109273
  0
ARC
  5
271
100
AcDbEntity
  8
0
100
AcDbCircle
 62
6
  6
CONTINUOUS
 10
11.4789089226
 20
8.1398646672
 40
0.3854606731
100
AcDbArc
 50
152.7263797266
 51
153.5511876153
  0
ARC
  5
272
100
AcDbEntity
  8
0
100
AcDbCircle
 62
6
  6
CONTINUOUS
 10
11.4770867329
 20
8.1397132115
 40
0.3854590617
100
AcDbArc
 50
222.6517058786
 51
233.3708313645
  0
ARC
  5
273
100
AcDbEntity
  8
0
100
AcDbCircle
 62
6
  6
CONTINUOUS
 10
11.4780483018
 20
8.1395219472
 40
0.3853974371
100
AcDbArc
 50
67.0285977211
 51
68.0578868695
  0
ARC
  5
274
100
AcDbEntity
  8
0
100
AcDbCircle
 62
6
  6
CONTINUOUS
 10
11.4778912753
 20
8.1396752929
 40
0.3853867383
100
AcDbArc
 50
341.570188127
 51
24.4021890921
  0
ARC
  5
275
100
AcDbEntity
  8
0
100
AcDbCircle
 62
6
  6
CONTINUOUS
 10
11.4776555669
 20
8.1390830221
 40
0.3853828
100
AcDbArc
 50
52.3409928375
 51
54.617352706
  0
ARC
  5
276
100
AcDbEntity
  8
0
100
AcDbCircle
 62
6
  6
CONTINUOUS
 10
11.4788490395
 20
8.1392508977
 40
0.3852499552
100
AcDbArc
 50
123.3128475298
 51
126.1417624892
  0
ARC
  5
277
100
AcDbEntity
  8
0
100
AcDbCircle
 62
6
  6
CONTINUOUS
 10
11.4783648611
 20
8.1397442365
 40
0.3851708305
100
AcDbArc
 50
109.7490026518
 51
110.9495414062
  0
ARC
  5
278
100
AcDbEntity
  8
0
100
AcDbCircle
 62
6
  6
CONTINUOUS
 10
11.4785557473
 20
8.1398822375
 40
0.3851649066
100
AcDbArc
 50
138.4756568586
 51
139.2685461953
  0
ARC
  5
279
100
AcDbEntity
  8
0
100
AcDbCircle
 62
6
  6
CONTINUOUS
 10
11.4775741217
 20
8.1398169088
 40
0.3851532345
100
AcDbArc
 50
270.0442077394
 51
341.5641036142
  0
ARC
  5
27A
100
AcDbEntity
  8
0
100
AcDbCircle
 62
6
  6
CONTINUOUS
 10
11.4777357759
 20
8.1394313419
 40
0.3850662582
100
AcDbArc
 50
38.2813770919
 51
40.0051110001
  0
ARC
  5
27B
100
AcDbEntity
  8
0
100
AcDbCircle
 62
6
  6
CONTINUOUS
 10
11.4777286131
 20
8.1395320921
 40
0.3850087756
100
AcDbArc
 50
24.174809254
 51
25.410612173
  0
ARC
  5
27C
100
AcDbEntity
  8
0
100
AcDbCircle
 62
6
  6
CONTINUOUS
 10
11.4784240573
 20
8.14036437
 40
0.3848444604
100
AcDbArc
 50
167.7085318153
 51
185.3353079177
  0
ARC
  5
27D
100
AcDbEntity
  8
0
100
AcDbCircle
 62
6
  6
CONTINUOUS
 10
11.4778519601
 20
8.1396793762
 40
0.3848413074
100
AcDbArc
 50
341.5704473765
 51
10.1104625803
  0
ARC
  5
27E
100
AcDbEntity
  8
0
100
AcDbCircle
 62
6
  6
CONTINUOUS
 10
11.4783709389
 20
8.139932829
 40
0.3848410094
100
AcDbArc
 50
24.6853735809
 51
38.7366253705
  0
ARC
  5
27F
100
AcDbEntity
  8
0
100
AcDbCircle
 62
6
  6
CONTINUOUS
 10
11.4780398277
 20
8.139496528
 40
0.384839518
100
AcDbArc
 50
66.4844860122
 51
69.0309156367
  0
ARC
  5
280
100
AcDbEntity
  8
0
100
AcDbCircle
 62
6
  6
CONTINUOUS
 10
11.4787380518
 20
8.1397503834
 40
0.3848035798
100
AcDbArc
 50
137.652265747
 51
140.213592787
  0
ARC
  5
281
100
AcDbEntity
  8
0
100
AcDbCircle
 62
6
  6
CONTINUOUS
 10
11.4788410206
 20
8.1399271267
 40
0.3847885352
100
AcDbArc
 50
151.8612501533
 51
154.3822238659
  0
ARC
  5
282
100
AcDbEntity
  8
0
100
AcDbCircle
 62
6
  6
CONTINUOUS
 10
11.4783065616
 20
8.1401117685
 40
0.3847532763
100
AcDbArc
 50
53.4289859278
 51
67.0297278633
  0
ARC
  5
283
100
AcDbEntity
  8
0
100
AcDbCircle
 62
6
  6
CONTINUOUS
 10
11.4788811562
 20
8.1401513958
 40
0.3847465894
100
AcDbArc
 50
166.0667619288
 51
167.5761150455
  0
ARC
  5
284
100
AcDbEntity
  8
0
100
AcDbCircle
 62
6
  6
CONTINUOUS
 10
11.4779783268
 20
8.1396528617
 40
0.3847216434
100
AcDbArc
 50
10.1176537094
 51
24.1662276171
  0
ARC
  5
285
100
AcDbEntity
  8
0
100
AcDbCircle
 62
6
  6
CONTINUOUS
 10
11.4784649907
 20
8.1401318465
 40
0.3846427058
100
AcDbArc
 50
38.9257214452
 51
52.9389175283
  0
ARC
  5
286
100
AcDbEntity
  8
0
100
AcDbCircle
 62
6
  6
CONTINUOUS
 10
11.4783792881
 20
8.1397173885
 40
0.3846163473
100
AcDbArc
 50
108.9794710664
 51
111.9887300068
  0
ARC
  5
287
100
AcDbEntity
  8
0
100
AcDbCircle
 62
6
  6
CONTINUOUS
 10
11.4780877389
 20
8.1397616723
 40
0.384585973
100
AcDbArc
 50
25.4026762998
 51
38.2752312623
  0
ARC
  5
288
100
AcDbEntity
  8
0
100
AcDbCircle
 62
6
  6
CONTINUOUS
 10
11.4787002265
 20
8.1401915649
 40
0.3845612546
100
AcDbArc
 50
167.5761601571
 51
168.4142838056
  0
ARC
  5
289
100
AcDbEntity
  8
0
100
AcDbCircle
 62
6
  6
CONTINUOUS
 10
11.4779840253
 20
8.1403543225
 40
0.3844150055
100
AcDbArc
 50
167.270186138
 51
167.5742322223
  0
ARC
  5
28A
100
AcDbEntity
  8
0
100
AcDbCircle
 62
6
  6
CONTINUOUS
 10
11.4780465077
 20
8.1405016547
 40
0.384349656
100
AcDbArc
 50
110.9455913985
 51
124.1576321956
  0
ARC
  5
28B
100
AcDbEntity
  8
0
100
AcDbCircle
 62
6
  6
CONTINUOUS
 10
11.4780787014
 20
8.1405776546
 40
0.3842897392
100
AcDbArc
 50
96.59770666
 51
109.750834128
  0
ARC
  5
28C
100
AcDbEntity
  8
0
100
AcDbCircle
 62
6
  6
CONTINUOUS
 10
11.4782522159
 20
8.1400335117
 40
0.3842623878
100
AcDbArc
 50
54.6078224256
 51
66.4815776653
  0
ARC
  5
28D
100
AcDbEntity
  8
0
100
AcDbCircle
 62
6
  6
CONTINUOUS
 10
11.4784243714
 20
8.1406022126
 40
0.3842549023
100
AcDbArc
 50
68.0497105456
 51
81.2731644038
  0
ARC
  5
28E
100
AcDbEntity
  8
0
100
AcDbCircle
 62
6
  6
CONTINUOUS
 10
11.4778419966
 20
8.1405001047
 40
0.3842212368
100
AcDbArc
 50
139.2689148865
 51
152.7376960292
  0
ARC
  5
28F
100
AcDbEntity
  8
0
100
AcDbCircle
 62
6
  6
CONTINUOUS
 10
11.4783869894
 20
8.1400570271
 40
0.3841652746
100
AcDbArc
 50
39.9960683679
 51
52.3386005239
  0
ARC
  5
290
100
AcDbEntity
  8
0
100
AcDbCircle
 62
6
  6
CONTINUOUS
 10
11.4778417082
 20
8.1405879653
 40
0.384162474
100
AcDbArc
 50
125.0543120628
 51
138.4838592785
  0
ARC
  5
291
100
AcDbEntity
  8
0
100
AcDbCircle
 62
6
  6
CONTINUOUS
 10
11.4776816192
 20
8.1404605239
 40
0.3840966639
100
AcDbArc
 50
153.5492262242
 51
167.275698664
  0
ARC
  5
292
100
AcDbEntity
  8
0
100
AcDbCircle
 62
6
  6
CONTINUOUS
 10
11.4775966278
 20
8.1402919653
 40
0.3840053743
100
AcDbArc
 50
185.3360310715
 51
270.0409835993
  0
ARC
  5
293
100
AcDbEntity
  8
0
100
AcDbCircle
 62
6
  6
CONTINUOUS
 10
11.4782490782
 20
8.1408927343
 40
0.3839949606
100
AcDbArc
 50
90.0563681082
 51
95.5823991099
  0
ARC
  5
294
100
AcDbEntity
  8
0
100
AcDbCircle
 62
6
  6
CONTINUOUS
 10
11.4782784588
 20
8.1404620664
 40
0.383841037
100
AcDbArc
 50
83.1842976122
 51
94.8512182956
  0
ARC
  5
295
100
AcDbEntity
  8
0
100
AcDbCircle
 62
6
  6
CONTINUOUS
 10
11.4779195094
 20
8.1403848427
 40
0.38375857
100
AcDbArc
 50
168.4191429142
 51
185.3676767568
  0
ARC
  5
296
100
AcDbEntity
  8
0
100
AcDbCircle
 62
6
  6
CONTINUOUS
 10
11.478444492
 20
8.1406918662
 40
0.383578531
100
AcDbArc
 50
69.0234614225
 51
80.7638340232
  0
ARC
  5
297
100
AcDbEntity
  8
0
100
AcDbCircle
 62
6
  6
CONTINUOUS
 10
11.4780349133
 20
8.1407160887
 40
0.3835599405
100
AcDbArc
 50
97.5825838942
 51
108.979344655
  0
ARC
  5
298
100
AcDbEntity
  8
0
100
AcDbCircle
 62
6
  6
CONTINUOUS
 10
11.4779418707
 20
8.140707602
 40
0.3835343863
100
AcDbArc
 50
111.9835255032
 51
123.3191114398
  0
ARC
  5
299
100
AcDbEntity
  8
0
100
AcDbCircle
 62
6
  6
CONTINUOUS
 10
11.4775722348
 20
8.139819021
 40
0.3835171672
100
AcDbArc
 50
270.044678276
 51
341.5586813788
  0
ARC
  5
29A
100
AcDbEntity
  8
0
100
AcDbCircle
 62
6
  6
CONTINUOUS
 10
11.4775940068
 20
8.1402890971
 40
0.3834165336
100
AcDbArc
 50
185.3579822597
 51
270.0414380727
  0
ARC
  5
29B
100
AcDbEntity
  8
0
100
AcDbCircle
 62
6
  6
CONTINUOUS
 10
11.4776226435
 20
8.1406352792
 40
0.383380193
100
AcDbArc
 50
140.2085421493
 51
151.8687013594
  0
ARC
  5
29C
100
AcDbEntity
  8
0
100
AcDbCircle
 62
6
  6
CONTINUOUS
 10
11.4776598218
 20
8.140784623
 40
0.3833100008
100
AcDbArc
 50
126.1334222276
 51
137.6579532011
  0
ARC
  5
29D
100
AcDbEntity
  8
0
100
AcDbCircle
 62
6
  6
CONTINUOUS
 10
11.4774625928
 20
8.1405631136
 40
0.3832706309
100
AcDbArc
 50
154.3788578829
 51
166.0754363951
  0
ARC
  5
29E
100
AcDbEntity
  8
0
100
AcDbCircle
 62
6
  6
CONTINUOUS
 10
11.4780439388
 20
8.1396979132
 40
0.3830158904
100
AcDbArc
 50
341.5535465317
 51
72.8870622571
  0
ARC
  5
29F
100
AcDbEntity
  8
0
100
AcDbCircle
 62
6
  6
CONTINUOUS
 10
11.4775740392
 20
8.1398164714
 40
0.382929944
100
AcDbArc
 50
270.044476803
 51
341.5383984955
  0
ARC
  5
2A0
100
AcDbEntity
  8
0
100
AcDbCircle
 62
6
  6
CONTINUOUS
 10
11.47804424
 20
8.1396977805
 40
0.3824311321
100
AcDbArc
 50
341.5329578779
 51
72.8967833426
  0
ARC
  5
2A1
100
AcDbEntity
  8
0
100
AcDbCircle
 62
6
  6
CONTINUOUS
 10
11.4778713006
 20
8.1400352973
 40
0.3821502168
100
AcDbArc
 50
72.8571188975
 51
167.5227908
  0
ARC
  5
2A2
100
AcDbEntity
  8
0
100
AcDbCircle
 62
6
  6
CONTINUOUS
 10
11.4775762323
 20
8.1403385983
 40
0.344792608
100
AcDbArc
 50
268.6273871108
 51
275.3365344277
  0
ARC
  5
2A3
100
AcDbEntity
  8
0
100
AcDbCircle
 62
6
  6
CONTINUOUS
 10
11.4775523177
 20
8.1398683935
 40
0.3443247974
100
AcDbArc
 50
275.3477734822
 51
320.3728097715
  0
CIRCLE
  5
2A4
100
AcDbEntity
  8
0
100
AcDbCircle
 62
6
  6
CONTINUOUS
 10
11.4778713006
 20
8.1400352973
 40
0.34125
  0
SPLINE
  5
2A5
100
AcDbEntity
  8
0
100
AcDbSpline
 62
6
  6
CONTINUOUS
 70
0
 71
3
 72
32
 73
28
 74
26
 42
0.0000001
 43
0.0000001
 44
0.0000000001
 12
-0.1126358992
 22
-0.6748279731
 32
0.0
 13
0.6764328797
 23
0.1025582678
 33
0.0
 40
0.0
 40
0.0
 40
0.0
 40
0.0
 40
0.0624708757
 40
0.0937515118
 40
0.1250317067
 40
0.1875448626
 40
0.2188093521
 40
0.2500765191
 40
0.2813475872
 40
0.3126199478
 40
0.3438915717
 40
0.3751620001
 40
0.4064305954
 40
0.4376958706
 40
0.4689571093
 40
0.5002148504
 40
0.5626928184
 40
0.6251613658
 40
0.6564073321
 40
0.6876532551
 40
0.7501168838
 40
0.8125805844
 40
0.843823316
 40
0.8750641313
 40
0.9063070809
 40
0.9375568473
 40
1.0
 40
1.0
 40
1.0
 40
1.0
 10
11.1047466984
 20
8.2225993298
 30
0.0
 10
11.1024012107
 20
8.208546965
 30
0.0
 10
11.100067038
 20
8.1872348489
 30
0.0
 10
11.0993567317
 20
8.1587186038
 30
0.0
 10
11.1002596031
 20
8.1301965036
 30
0.0
 10
11.1035978128
 20
8.101798611
 30
0.0
 10
11.1093349231
 20
8.0738526647
 30
0.0
 10
11.114834527
 20
8.0531665656
 30
0.0
 10
11.1215138161
 20
8.0328298392
 30
0.0
 10
11.1293502002
 20
8.0129089562
 30
0.0
 10
11.1383218802
 20
7.9934729433
 30
0.0
 10
11.1484081426
 20
7.9745921156
 30
0.0
 10
11.1595747784
 20
7.9563311488
 30
0.0
 10
11.1717833105
 20
7.9387523926
 30
0.0
 10
11.1849973799
 20
7.9219184439
 30
0.0
 10
11.2038963091
 20
7.9005594542
 30
0.0
 10
11.2298225506
 20
7.8760007112
 30
0.0
 10
11.25847433
 20
7.8546872932
 30
0.0
 10
11.2827780028
 20
7.839777408
 30
0.0
 10
11.307930083
 20
7.8263505327
 30
0.0
 10
11.3408128436
 20
7.8124312633
 30
0.0
 10
11.3751376497
 20
7.8025865782
 30
0.0
 10
11.4031439517
 20
7.7972530431
 30
0.0
 10
11.4243599679
 20
7.7945434014
 30
0.0
 10
11.4457045282
 20
7.7931368112
 30
0.0
 10
11.474208458
 20
7.7930166866
 30
0.0
 10
11.4955643034
 20
7.7949057735
 30
0.0
 10
11.5096438373
 20
7.7970404607
 30
0.0
 11
11.1047466984
 21
8.2225993298
 31
0.0
 11
11.1000904066
 21
8.1801134336
 31
0.0
 11
11.0995584861
 21
8.1587189769
 31
0.0
 11
11.1002373008
 21
8.1373289789
 31
0.0
 11
11.1052315073
 21
8.0948523521
 31
0.0
 11
11.1095340877
 21
8.0738995286
 31
0.0
 11
11.1150308042
 21
8.0532259347
 31
0.0
 11
11.1217065126
 21
8.0328995849
 31
0.0
 11
11.1295394942
 21
8.012989592
 31
0.0
 11
11.1385078302
 21
7.9935651024
 31
0.0
 11
11.1485885344
 21
7.9746948546
 31
0.0
 11
11.1597490344
 21
7.956443925
 31
0.0
 11
11.1719516925
 21
7.9388754549
 31
0.0
 11
11.1851588229
 21
7.9220525665
 31
0.0
 11
11.1993300358
 21
7.9060365669
 31
0.0
 11
11.2303696623
 21
7.8766479838
 31
0.0
 11
11.2646619782
 21
7.8511404688
 31
0.0
 11
11.2828842059
 21
7.8399627478
 31
0.0
 11
11.3017428499
 21
7.8298959062
 31
0.0
 11
11.3411013515
 21
7.8132460719
 31
0.0
 11
11.3821810262
 21
7.80146587
 31
0.0
 11
11.4031789979
 21
7.797468171
 31
0.0
 11
11.4243806402
 21
7.7947606392
 31
0.0
 11
11.4457097421
 21
7.7933562897
 31
0.0
 11
11.4670895033
 21
7.7932668515
 31
0.0
 11
11.5096438373
 21
7.7970404607
 31
0.0
  0
LINE
  5
2A6
100
AcDbEntity
  8
0
100
AcDbLine
 62
6
  6
CONTINUOUS
 10
11.4778713006
 20
8.5404501966
 11
11.4770714824
 21
8.5404486836
  0
LINE
  5
2A7
100
AcDbEntity
  8
0
100
AcDbLine
 62
6
  6
CONTINUOUS
 10
11.477075185
 20
7.7407321145
 11
11.4778713006
 21
7.7407320187
  0
LINE
  5
2A8
100
AcDbEntity
  8
0
100
AcDbLine
 62
6
  6
CONTINUOUS
 10
11.4778713006
 20
8.5448966794
 11
11.4773336637
 21
8.5448958491
  0
SPLINE
  5
2A9
100
AcDbEntity
  8
0
100
AcDbSpline
 62
6
  6
CONTINUOUS
 70
0
 71
3
 72
39
 73
35
 74
33
 42
0.0000001
 43
0.0000001
 44
0.0000000001
 12
-0.8873256882
 22
-0.5514008265
 32
0.0
 13
1.0446959016
 23
-0.0004705987
 33
0.0
 40
0.0
 40
0.0
 40
0.0
 40
0.0
 40
0.031251913
 40
0.062503368
 40
0.0937525581
 40
0.1250006888
 40
0.1562478461
 40
0.1874950797
 40
0.2187433569
 40
0.2499917039
 40
0.2812405349
 40
0.3124901706
 40
0.343738984
 40
0.3749870257
 40
0.4062354945
 40
0.4374842126
 40
0.4687343557
 40
0.4999860681
 40
0.531237629
 40
0.5624890793
 40
0.5937404354
 40
0.6249898485
 40
0.6562373857
 40
0.6874849025
 40
0.718733251
 40
0.749984239
 40
0.7812364695
 40
0.8124861457
 40
0.8437330452
 40
0.8749839853
 40
0.9062464271
 40
0.93752307
 40
0.9687867869
 40
1.0
 40
1.0
 40
1.0
 40
1.0
 10
11.2646342561
 20
8.4839549792
 30
0.0
 10
11.2553907144
 20
8.4782108689
 30
0.0
 10
11.2373582033
 20
8.4659723644
 30
0.0
 10
11.2118786745
 20
8.4455060545
 30
0.0
 10
11.1881385978
 20
8.4230437807
 30
0.0
 10
11.1662877835
 20
8.398743181
 30
0.0
 10
11.1464615899
 20
8.3727646164
 30
0.0
 10
11.1288031363
 20
8.3452664096
 30
0.0
 10
11.113416413
 20
8.316435555
 30
0.0
 10
11.1003979756
 20
8.2864596885
 30
0.0
 10
11.0898501467
 20
8.2555273099
 30
0.0
 10
11.0818274641
 20
8.2238463369
 30
0.0
 10
11.0763795668
 20
8.1916224678
 30
0.0
 10
11.0735599901
 20
8.1590635268
 30
0.0
 10
11.073371627
 20
8.1263837591
 30
0.0
 10
11.0758149312
 20
8.0937937333
 30
0.0
 10
11.0808913072
 20
8.0615077522
 30
0.0
 10
11.0885508651
 20
8.0297348112
 30
0.0
 10
11.0987441893
 20
7.9986808854
 30
0.0
 10
11.1114218764
 20
7.9685558206
 30
0.0
 10
11.126484234
 20
7.9395508649
 30
0.0
 10
11.1438324818
 20
7.911853563
 30
0.0
 10
11.163367766
 20
7.8856545252
 30
0.0
 10
11.1849500179
 20
7.861115337
 30
0.0
 10
11.2084413142
 20
7.8383945605
 30
0.0
 10
11.2336992393
 20
7.8176529246
 30
0.0
 10
11.2605451356
 20
7.7990122441
 30
0.0
 10
11.2888042515
 20
7.7825946527
 30
0.0
 10
11.3183008707
 20
7.7685220815
 30
0.0
 10
11.3488402038
 20
7.7568727634
 30
0.0
 10
11.3802306538
 20
7.7477239806
 30
0.0
 10
11.4122655267
 20
7.7411553766
 30
0.0
 10
11.4447050822
 20
7.7371870844
 30
0.0
 10
11.4664712114
 20
7.7362903184
 30
0.0
 10
11.47734065
 20
7.7362854221
 30
0.0
 11
11.2646342561
 21
8.4839549792
 31
0.0
 11
11.2376195017
 21
8.4656207533
 31
0.0
 11
11.2121678241
 21
8.4451727299
 31
0.0
 11
11.1884530409
 21
8.4227369523
 31
0.0
 11
11.1666249294
 21
8.3984631734
 31
0.0
 11
11.1468228962
 21
8.3725113741
 31
0.0
 11
11.1291819769
 21
8.3450446747
 31
0.0
 11
11.1138111795
 21
8.3162448245
 31
0.0
 11
11.1008098314
 21
8.2863005012
 31
0.0
 11
11.0902710948
 21
8.255402838
 31
0.0
 11
11.08225653
 21
8.2237555283
 31
0.0
 11
11.0768175747
 21
8.191566289
 31
0.0
 11
11.0739985299
 21
8.1590435322
 31
0.0
 11
11.0738102286
 21
8.1263989247
 31
0.0
 11
11.0762536945
 21
8.0938450872
 31
0.0
 11
11.0813217023
 21
8.0615939576
 31
0.0
 11
11.0889731569
 21
8.0298546703
 31
0.0
 11
11.0991582704
 21
7.9988356401
 31
0.0
 11
11.1118193922
 21
7.9687423648
 31
0.0
 11
11.1268656679
 21
7.9397680244
 31
0.0
 11
11.144197479
 21
7.9121025479
 31
0.0
 11
11.1637089658
 21
7.8859311093
 31
0.0
 11
11.1852678492
 21
7.8614187559
 31
0.0
 11
11.2087348612
 21
7.8387252105
 31
0.0
 11
11.2339635018
 21
7.818003401
 31
0.0
 11
11.2607816282
 21
7.7993821619
 31
0.0
 11
11.2890114164
 21
7.7829849892
 31
0.0
 11
11.3184726683
 21
7.7689267724
 31
0.0
 11
11.3489766142
 21
7.7572913219
 31
0.0
 11
11.3803325501
 21
7.7481554347
 31
0.0
 11
11.4123402619
 21
7.7415877242
 31
0.0
 11
11.4447597584
 21
7.7376225746
 31
0.0
 11
11.47734065
 21
7.7362854221
 31
0.0
  0
LINE
  5
2AA
100
AcDbEntity
  8
0
100
AcDbLine
 62
6
  6
CONTINUOUS
 10
11.47734065
 20
7.7362854221
 11
11.4778713006
 21
7.7362855351
  0
LINE
  5
2AB
100
AcDbEntity
  8
0
100
AcDbLine
 62
6
  6
CONTINUOUS
 10
11.4778713006
 20
8.5426734389
 11
11.4773356447
 21
8.5426726084
  0
LINE
  5
2AC
100
AcDbEntity
  8
0
100
AcDbLine
 62
6
  6
CONTINUOUS
 10
11.4773484029
 20
7.7385086598
 11
11.4778713006
 21
7.7385087769
  0
LINE
  5
2AD
100
AcDbEntity
  8
0
100
AcDbLine
 62
6
  6
CONTINUOUS
 10
11.4778713006
 20
8.5382269559
 11
11.4774586229
 21
8.5382263741
  0
LINE
  5
2AE
100
AcDbEntity
  8
0
100
AcDbLine
 62
6
  6
CONTINUOUS
 10
11.4773622785
 20
7.7429551339
 11
11.4778713006
 21
7.7429552583
  0
LINE
  5
2AF
100
AcDbEntity
  8
0
100
AcDbLine
 62
6
  6
CONTINUOUS
 10
11.4778713006
 20
8.5337804735
 11
11.4770672247
 21
8.5337789221
  0
LINE
  5
2B0
100
AcDbEntity
  8
0
100
AcDbLine
 62
6
  6
CONTINUOUS
 10
11.4770872104
 20
7.7474018257
 11
11.4778713006
 21
7.747401742
  0
LINE
  5
2B1
100
AcDbEntity
  8
0
100
AcDbLine
 62
6
  6
CONTINUOUS
 10
11.4778713006
 20
8.5360037157
 11
11.4773345766
 21
8.5360028689
  0
LINE
  5
2B2
100
AcDbEntity
  8
0
100
AcDbLine
 62
6
  6
CONTINUOUS
 10
11.4773406863
 20
7.7451783844
 11
11.4778713006
 21
7.7451785
  0
LINE
  5
2B3
100
AcDbEntity
  8
0
100
AcDbLine
 62
6
  6
CONTINUOUS
 10
11.4778713006
 20
8.5315572325
 11
11.477380627
 21
8.5315564792
  0
LINE
  5
2B4
100
AcDbEntity
  8
0
100
AcDbLine
 62
6
  6
CONTINUOUS
 10
11.4773749585
 20
7.74962485
 11
11.4778713006
 21
7.7496249817
  0
LINE
  5
2B5
100
AcDbEntity
  8
0
100
AcDbLine
 62
6
  6
CONTINUOUS
 10
11.4778713006
 20
8.5293339925
 11
11.4773364651
 21
8.5293331355
  0
LINE
  5
2B6
100
AcDbEntity
  8
0
100
AcDbLine
 62
6
  6
CONTINUOUS
 10
11.4773481399
 20
7.7518481021
 11
11.4778713006
 21
7.7518482231
  0
LINE
  5
2B7
100
AcDbEntity
  8
0
100
AcDbLine
 62
6
  6
CONTINUOUS
 10
11.1025737083
 20
8.2230706471
 11
11.1024029012
 21
8.2222915881
  0
LINE
  5
2B8
100
AcDbEntity
  8
0
100
AcDbLine
 62
6
  6
CONTINUOUS
 10
11.4778713006
 20
7.7362855351
 11
11.4784013753
 21
7.7362863509
  0
SPLINE
  5
2B9
100
AcDbEntity
  8
0
100
AcDbSpline
 62
6
  6
CONTINUOUS
 70
0
 71
3
 72
46
 73
42
 74
40
 42
0.0000001
 43
0.0000001
 44
0.0000000001
 12
1.2651796161
 22
0.0027854527
 32
0.0
 13
-1.2651825563
 23
0.0005648671
 33
0.0
 40
0.0
 40
0.0
 40
0.0
 40
0.0
 40
0.0312167821
 40
0.0624831558
 40
0.0781221615
 40
0.0937554957
 40
0.1250011285
 40
0.1562420648
 40
0.1874883343
 40
0.2187373479
 40
0.234365972
 40
0.2499942168
 40
0.2812412392
 40
0.3124884842
 40
0.3437378146
 40
0.3593675001
 40
0.3749968529
 40
0.4062449734
 40
0.4374925107
 40
0.4687384224
 40
0.4999843805
 40
0.5312311548
 40
0.5624798839
 40
0.5937310667
 40
0.6093614634
 40
0.6249918793
 40
0.6562439296
 40
0.6718743916
 40
0.6875041876
 40
0.71875257
 40
0.7500000756
 40
0.7656281542
 40
0.7812562789
 40
0.8125036082
 40
0.84374861
 40
0.8749905671
 40
0.9062390267
 40
0.9218740205
 40
0.9375145436
 40
0.968782759
 40
1.0
 40
1.0
 40
1.0
 40
1.0
 10
11.4784013753
 20
7.7362863509
 30
0.0
 10
11.4915663208
 20
7.7363153352
 30
0.0
 10
11.5179308202
 20
7.7376742065
 30
0.0
 10
11.5505658047
 20
7.7425711473
 30
0.0
 10
11.576300237
 20
7.7483890137
 30
0.0
 10
11.6017079935
 20
7.7554649898
 30
0.0
 10
11.6327643887
 20
7.766630136
 30
0.0
 10
11.6685341944
 20
7.7836025546
 30
0.0
 10
11.7024674572
 20
7.8040026348
 30
0.0
 10
11.7289617201
 20
7.8236829541
 30
0.0
 10
11.7489164625
 20
7.8409215733
 30
0.0
 10
11.7679984852
 20
7.8591200683
 30
0.0
 10
11.7901475064
 20
7.8835879153
 30
0.0
 10
11.8137224433
 20
7.9153996421
 30
0.0
 10
11.8306748009
 20
7.9437192352
 30
0.0
 10
11.8425265993
 20
7.9672762953
 30
0.0
 10
11.8532126211
 20
7.9913842926
 30
0.0
 10
11.8643245389
 20
8.0224626135
 30
0.0
 10
11.8739448051
 20
8.0608711233
 30
0.0
 10
11.8797634139
 20
8.1000379031
 30
0.0
 10
11.881706722
 20
8.1395854476
 30
0.0
 10
11.8797829234
 20
8.179135851
 30
0.0
 10
11.8739799649
 20
8.2183062442
 30
0.0
 10
11.8659736393
 20
8.2503272244
 30
0.0
 10
11.8577160662
 20
8.2753734847
 30
0.0
 10
11.8482354359
 20
8.2999823431
 30
0.0
 10
11.8369500018
 20
8.3238638018
 30
0.0
 10
11.8239651038
 20
8.3468169241
 30
0.0
 10
11.809872513
 20
8.3691067598
 30
0.0
 10
11.7902233533
 20
8.3956243166
 30
0.0
 10
11.7680738898
 20
8.4200905856
 30
0.0
 10
11.7489891583
 20
8.438286481
 30
0.0
 10
11.729031398
 20
8.455520039
 30
0.0
 10
11.702532193
 20
8.4751915947
 30
0.0
 10
11.668589089
 20
8.4955742584
 30
0.0
 10
11.632806044
 20
8.5125217919
 30
0.0
 10
11.6017375588
 20
8.5236608346
 30
0.0
 10
11.5763198362
 20
8.5307106255
 30
0.0
 10
11.5505763933
 20
8.5364983538
 30
0.0
 10
11.517932941
 20
8.5413512794
 30
0.0
 10
11.4915650407
 20
8.5426676753
 30
0.0
 10
11.4783998711
 20
8.5426735531
 30
0.0
 11
11.4784013753
 21
7.7362863509
 31
0.0
 11
11.5178443494
 21
7.7383115553
 31
0.0
 11
11.5569638311
 21
7.7441831622
 31
0.0
 11
11.5762627718
 21
7.7485471707
 31
0.0
 11
11.5953168542
 21
7.7538529906
 31
0.0
 11
11.6325173134
 21
7.7672268482
 31
0.0
 11
11.6682259236
 21
7.7841726334
 31
0.0
 11
11.7021090737
 21
7.8045375559
 31
0.0
 11
11.7338448519
 21
7.8281153592
 31
0.0
 11
11.7488075532
 21
7.8410417529
 31
0.0
 11
11.7631167086
 21
7.8546873815
 31
0.0
 11
11.7896469719
 21
7.8839963965
 31
0.0
 11
11.8131829767
 21
7.9157604012
 31
0.0
 11
11.8334936438
 21
7.9496806152
 31
0.0
 11
11.8423809405
 21
7.9673453583
 31
0.0
 11
11.8503928062
 21
7.9854235372
 31
0.0
 11
11.8637057919
 21
8.0226491667
 31
0.0
 11
11.8733113612
 21
8.0609983229
 31
0.0
 11
11.8791175422
 21
8.100101397
 31
0.0
 11
11.8810622106
 21
8.1395853816
 31
0.0
 11
11.8791365189
 21
8.1790713301
 31
0.0
 11
11.8733462051
 21
8.2181803602
 31
0.0
 11
11.8637558336
 21
8.2565380742
 31
0.0
 11
11.8575631797
 21
8.2753187507
 31
0.0
 11
11.8504541467
 21
8.2937720807
 31
0.0
 11
11.8335634454
 21
8.3295223318
 31
0.0
 11
11.8238263764
 21
8.3467344069
 31
0.0
 11
11.8132579413
 21
8.3634479014
 31
0.0
 11
11.7897229979
 21
8.3952144832
 31
0.0
 11
11.7631909988
 21
8.4245227517
 31
0.0
 11
11.7488800219
 21
8.4381661651
 31
0.0
 11
11.7339150013
 21
8.451088907
 31
0.0
 11
11.7021734377
 21
8.4746553468
 31
0.0
 11
11.6682813842
 21
8.4950023324
 31
0.0
 11
11.6325597204
 21
8.5119236006
 31
0.0
 11
11.5953440934
 21
8.5252657935
 31
0.0
 11
11.5762823823
 21
8.5305520033
 31
0.0
 11
11.556976405
 21
8.5348935344
 31
0.0
 11
11.5178466508
 21
8.5407121509
 31
0.0
 11
11.4783998711
 21
8.5426735531
 31
0.0
  0
LINE
  5
2BA
100
AcDbEntity
  8
0
100
AcDbLine
 62
6
  6
CONTINUOUS
 10
11.4783998711
 20
8.5426735531
 11
11.4778713006
 21
8.5426734389
  0
LINE
  5
2BB
100
AcDbEntity
  8
0
100
AcDbLine
 62
6
  6
CONTINUOUS
 10
11.4778713006
 20
7.7385087769
 11
11.4784095511
 21
7.7385096154
  0
SPLINE
  5
2BC
100
AcDbEntity
  8
0
100
AcDbSpline
 62
6
  6
CONTINUOUS
 70
0
 71
3
 72
45
 73
41
 74
39
 42
0.0000001
 43
0.0000001
 44
0.0000000001
 12
1.2581772926
 22
0.0028114527
 32
0.0
 13
-1.2581803067
 23
0.0005652501
 33
0.0
 40
0.0
 40
0.0
 40
0.0
 40
0.0
 40
0.0312176635
 40
0.0624867932
 40
0.0781282156
 40
0.0937643904
 40
0.125015646
 40
0.1562606094
 40
0.1875087739
 40
0.218758773
 40
0.2343874998
 40
0.2500154228
 40
0.2812611022
 40
0.3125068468
 40
0.34375513
 40
0.3750049907
 40
0.3906344586
 40
0.4062640006
 40
0.4375138143
 40
0.4687617521
 40
0.500008345
 40
0.531254462
 40
0.5625006902
 40
0.5937480358
 40
0.6249944966
 40
0.6406223353
 40
0.6562502219
 40
0.6874959142
 40
0.7187409274
 40
0.7499870311
 40
0.7656152218
 40
0.7812440831
 40
0.8124940539
 40
0.8437420784
 40
0.874986761
 40
0.9062373982
 40
0.9218731372
 40
0.9375141146
 40
0.9687826306
 40
1.0
 40
1.0
 40
1.0
 40
1.0
 10
11.4784095511
 20
7.7385096154
 30
0.0
 10
11.4915020029
 20
7.7385388711
 30
0.0
 10
11.5177220743
 20
7.7398913184
 30
0.0
 10
11.5501787102
 20
7.7447630586
 30
0.0
 10
11.5757738363
 20
7.7505501422
 30
0.0
 10
11.601045066
 20
7.7575893502
 30
0.0
 10
11.6319335071
 20
7.7686972177
 30
0.0
 10
11.6675092826
 20
7.7855786473
 30
0.0
 10
11.7012555209
 20
7.8058704227
 30
0.0
 10
11.7276013591
 20
7.8254462037
 30
0.0
 10
11.747445544
 20
7.8425899813
 30
0.0
 10
11.7664206474
 20
7.860688314
 30
0.0
 10
11.7884430019
 20
7.8850220311
 30
0.0
 10
11.8118860555
 20
7.9166589483
 30
0.0
 10
11.8321092769
 20
7.9504467228
 30
0.0
 10
11.8461387616
 20
7.9801202321
 30
0.0
 10
11.855573559
 20
8.0045893122
 30
0.0
 10
11.8637926559
 20
8.0294929692
 30
0.0
 10
11.8717652559
 20
8.0613328123
 30
0.0
 10
11.8775507736
 20
8.1002831697
 30
0.0
 10
11.8794799551
 20
8.1396135393
 30
0.0
 10
11.8775635021
 20
8.1789431334
 30
0.0
 10
11.871792075
 20
8.2178955196
 30
0.0
 10
11.86223892
 20
8.2560943023
 30
0.0
 10
11.8511988619
 20
8.2870028687
 30
0.0
 10
11.840579772
 20
8.3109786185
 30
0.0
 10
11.8288008724
 20
8.3344057265
 30
0.0
 10
11.8119486791
 20
8.3625687961
 30
0.0
 10
11.7885078427
 20
8.3942036667
 30
0.0
 10
11.7664827854
 20
8.4185357003
 30
0.0
 10
11.7475042073
 20
8.4366308393
 30
0.0
 10
11.7276555602
 20
8.4537697647
 30
0.0
 10
11.7013018117
 20
8.473335205
 30
0.0
 10
11.667544269
 20
8.4936081987
 30
0.0
 10
11.6319562552
 20
8.5104633859
 30
0.0
 10
11.6010576043
 20
8.5215418791
 30
0.0
 10
11.5757792314
 20
8.5285531805
 30
0.0
 10
11.5501776811
 20
8.5343091366
 30
0.0
 10
11.5177145345
 20
8.5391353289
 30
0.0
 10
11.4914923905
 20
8.5404444296
 30
0.0
 10
11.4784000307
 20
8.5404503115
 30
0.0
 11
11.4784095511
 21
7.7385096154
 31
0.0
 11
11.5176352567
 21
7.7405251475
 31
0.0
 11
11.5565414229
 21
7.7463663376
 31
0.0
 11
11.575736381
 21
7.7507074686
 31
0.0
 11
11.5946881996
 21
7.7559857809
 31
0.0
 11
11.6316885073
 21
7.7692905726
 31
0.0
 11
11.6672032668
 21
7.7861464205
 31
0.0
 11
11.7008991466
 21
7.8064028296
 31
0.0
 11
11.7324578128
 21
7.8298541945
 31
0.0
 11
11.7473373108
 21
7.8427096963
 31
0.0
 11
11.7615662653
 21
7.85628027
 31
0.0
 11
11.7879458678
 21
7.8854282571
 31
0.0
 11
11.8113486676
 21
7.9170162925
 31
0.0
 11
11.8315440284
 21
7.9507489706
 31
0.0
 11
11.8483472131
 21
7.9862954924
 31
0.0
 11
11.8554215645
 21
8.0046436154
 31
0.0
 11
11.8615853815
 21
8.0233174228
 31
0.0
 11
11.8711352701
 21
8.061457916
 31
0.0
 11
11.8769081364
 21
8.1003473234
 31
0.0
 11
11.8788390211
 21
8.1396137292
 31
0.0
 11
11.8769210216
 21
8.1788801672
 31
0.0
 11
11.8711618797
 21
8.2177694349
 31
0.0
 11
11.8616231287
 21
8.2559095141
 31
0.0
 11
11.8483963518
 21
8.2929313759
 31
0.0
 11
11.8404347648
 21
8.3109100459
 31
0.0
 11
11.8316020989
 21
8.3284772264
 31
0.0
 11
11.81141196
 21
8.3622092311
 31
0.0
 11
11.788010227
 21
8.3937969116
 31
0.0
 11
11.7616274603
 21
8.4229427548
 31
0.0
 11
11.7473957914
 21
8.4365109701
 31
0.0
 11
11.7325128799
 21
8.4493627788
 31
0.0
 11
11.7009450723
 21
8.4728017774
 31
0.0
 11
11.6672380083
 21
8.4930392281
 31
0.0
 11
11.6317110873
 21
8.5098686024
 31
0.0
 11
11.5946989485
 21
8.5231381406
 31
0.0
 11
11.5757418635
 21
8.5283954564
 31
0.0
 11
11.5565421983
 21
8.5327131707
 31
0.0
 11
11.5176286488
 21
8.5384997217
 31
0.0
 11
11.4784000307
 21
8.5404503115
 31
0.0
  0
LINE
  5
2BD
100
AcDbEntity
  8
0
100
AcDbLine
 62
6
  6
CONTINUOUS
 10
11.4784000307
 20
8.5404503115
 11
11.4778713006
 21
8.5404501966
  0
LINE
  5
2BE
100
AcDbEntity
  8
0
100
AcDbLine
 62
6
  6
CONTINUOUS
 10
11.4778713006
 20
7.7407320187
 11
11.47840201
 21
7.7407328451
  0
SPLINE
  5
2BF
100
AcDbEntity
  8
0
100
AcDbSpline
 62
6
  6
CONTINUOUS
 70
0
 71
3
 72
45
 73
41
 74
39
 42
0.0000001
 43
0.0000001
 44
0.0000000001
 12
1.2512042905
 22
0.002787446
 32
0.0
 13
-1.25120727
 23
0.0005601464
 33
0.0
 40
0.0
 40
0.0
 40
0.0
 40
0.0
 40
0.03121721
 40
0.0624840754
 40
0.0781232672
 40
0.0937566894
 40
0.1250022578
 40
0.1562429973
 40
0.187489073
 40
0.2187379899
 40
0.2343666583
 40
0.2499950365
 40
0.2812425366
 40
0.312490482
 40
0.328120012
 40
0.3437501043
 40
0.375000987
 40
0.4062506951
 40
0.4374999207
 40
0.4687470047
 40
0.499993329
 40
0.5312401762
 40
0.5624890431
 40
0.5937405484
 40
0.6249922381
 40
0.6562445507
 40
0.6718751653
 40
0.6875051304
 40
0.7187538328
 40
0.7500016501
 40
0.7656298672
 40
0.7812580923
 40
0.8125055455
 40
0.8437505109
 40
0.8749919711
 40
0.9062396233
 40
0.921874229
 40
0.9375144668
 40
0.9687825432
 40
1.0
 40
1.0
 40
1.0
 40
1.0
 10
11.47840201
 20
7.7407328451
 30
0.0
 10
11.4914217123
 20
7.7407618505
 30
0.0
 10
11.5174953349
 20
7.7421064416
 30
0.0
 10
11.5497701649
 20
7.7469501351
 30
0.0
 10
11.5752205354
 20
7.752704287
 30
0.0
 10
11.600347592
 20
7.7597025865
 30
0.0
 10
11.6310606596
 20
7.7707449604
 30
0.0
 10
11.6664348682
 20
7.7875304589
 30
0.0
 10
11.6999929391
 20
7.807705371
 30
0.0
 10
11.7261943526
 20
7.8271684387
 30
0.0
 10
11.7459284319
 20
7.8442168937
 30
0.0
 10
11.7647998458
 20
7.8622148788
 30
0.0
 10
11.7867036244
 20
7.8864115374
 30
0.0
 10
11.8061367696
 20
7.9126350017
 30
0.0
 10
11.8200766508
 20
7.9346759965
 30
0.0
 10
11.8329226454
 20
7.9573728963
 30
0.0
 10
11.846879009
 20
7.9868816674
 30
0.0
 10
11.8600631582
 20
8.0237574128
 30
0.0
 10
11.8695774695
 20
8.0617453529
 30
0.0
 10
11.8753320931
 20
8.1004803046
 30
0.0
 10
11.8772532673
 20
8.1395919498
 30
0.0
 10
11.8753501263
 20
8.1787053089
 30
0.0
 10
11.8696103287
 20
8.2174444133
 30
0.0
 10
11.8601111572
 20
8.2554387789
 30
0.0
 10
11.8469380009
 20
8.2923211037
 30
0.0
 10
11.8329885626
 20
8.3218350484
 30
0.0
 10
11.8201464786
 20
8.3445353297
 30
0.0
 10
11.8062092641
 20
8.3665788843
 30
0.0
 10
11.7867769323
 20
8.3928038914
 30
0.0
 10
11.764871438
 20
8.416999689
 30
0.0
 10
11.7459972502
 20
8.434994635
 30
0.0
 10
11.7262598922
 20
8.4520380062
 30
0.0
 10
11.7000529435
 20
8.4714918147
 30
0.0
 10
11.6664847529
 20
8.4916489025
 30
0.0
 10
11.631097534
 20
8.5084091276
 30
0.0
 10
11.6003727902
 20
8.5194246015
 30
0.0
 10
11.5752364219
 20
8.5263963145
 30
0.0
 10
11.5497776859
 20
8.532120095
 30
0.0
 10
11.5174948946
 20
8.5369193696
 30
0.0
 10
11.4914182267
 20
8.5382212433
 30
0.0
 10
11.4783983904
 20
8.5382270721
 30
0.0
 11
11.47840201
 21
7.7407328451
 31
0.0
 11
11.5174097765
 21
7.742736734
 31
0.0
 11
11.5560976141
 21
7.7485444812
 31
0.0
 11
11.5751835209
 21
7.7528607061
 31
0.0
 11
11.5940271392
 21
7.7581082974
 31
0.0
 11
11.6308163556
 21
7.77133509
 31
0.0
 11
11.6661300237
 21
7.7880941759
 31
0.0
 11
11.6996384918
 21
7.808234352
 31
0.0
 11
11.731023418
 21
7.8315519098
 31
0.0
 11
11.7458207278
 21
7.8443357328
 31
0.0
 11
11.7599718343
 21
7.8578308612
 31
0.0
 11
11.7862093512
 21
7.8868166541
 31
0.0
 11
11.8094857516
 21
7.9182306037
 31
0.0
 11
11.8199396935
 21
7.9347576654
 31
0.0
 11
11.829572515
 21
7.9517772111
 31
0.0
 11
11.8462854837
 21
7.9871267672
 31
0.0
 11
11.8594516505
 21
8.023943225
 31
0.0
 11
11.8689510743
 21
8.0618709622
 31
0.0
 11
11.8746932413
 21
8.100543566
 31
0.0
 11
11.8766158908
 21
8.1395918933
 31
0.0
 11
11.8747108083
 21
8.1786417367
 31
0.0
 11
11.8689840403
 21
8.217318879
 31
0.0
 11
11.8594989115
 21
8.2552531338
 31
0.0
 11
11.846343915
 21
8.2920762173
 31
0.0
 11
11.8296392002
 21
8.3274316533
 31
0.0
 11
11.8200093294
 21
8.3444536196
 31
0.0
 11
11.8095573771
 21
8.3609825837
 31
0.0
 11
11.7862820046
 21
8.3923984737
 31
0.0
 11
11.7600424287
 21
8.4213829381
 31
0.0
 11
11.7458893271
 21
8.4348756819
 31
0.0
 11
11.7310895106
 21
8.4476557542
 31
0.0
 11
11.699698145
 21
8.4709615701
 31
0.0
 11
11.6661803184
 21
8.4910834687
 31
0.0
 11
11.6308537854
 21
8.5078175259
 31
0.0
 11
11.5940501221
 21
8.5210117947
 31
0.0
 11
11.5751994266
 21
8.5262394496
 31
0.0
 11
11.5561070585
 21
8.5305329719
 31
0.0
 11
11.5174097068
 21
8.5362872965
 31
0.0
 11
11.4783983904
 21
8.5382270721
 31
0.0
  0
LINE
  5
2C0
100
AcDbEntity
  8
0
100
AcDbLine
 62
6
  6
CONTINUOUS
 10
11.4783983904
 20
8.5382270721
 11
11.4778713006
 21
8.5382269559
  0
LINE
  5
2C1
100
AcDbEntity
  8
0
100
AcDbLine
 62
6
  6
CONTINUOUS
 10
11.4778713006
 20
7.7429552583
 11
11.4784096152
 21
7.7429561064
  0
SPLINE
  5
2C2
100
AcDbEntity
  8
0
100
AcDbSpline
 62
6
  6
CONTINUOUS
 70
0
 71
3
 72
45
 73
41
 74
39
 42
0.0000001
 43
0.0000001
 44
0.0000000001
 12
1.244216634
 22
0.002811587
 32
0.0
 13
-1.2442196874
 23
0.0005539508
 33
0.0
 40
0.0
 40
0.0
 40
0.0
 40
0.0
 40
0.0312176772
 40
0.0624868157
 40
0.078128243
 40
0.0937644242
 40
0.1250156891
 40
0.156260637
 40
0.1875087646
 40
0.2187588229
 40
0.234387663
 40
0.2500157748
 40
0.2812620393
 40
0.3125085943
 40
0.3437578643
 40
0.3750087454
 40
0.3906386337
 40
0.406268496
 40
0.4375187872
 40
0.4687670728
 40
0.5000137976
 40
0.5312598279
 40
0.5468872828
 40
0.5625149966
 40
0.593761742
 40
0.6250079691
 40
0.6562545641
 40
0.6875007392
 40
0.7187460445
 40
0.7499922494
 40
0.765620418
 40
0.7812491913
 40
0.8124989326
 40
0.8437467015
 40
0.8749907783
 40
0.906240321
 40
0.9218753366
 40
0.9375155585
 40
0.9687830035
 40
1.0
 40
1.0
 40
1.0
 40
1.0
 10
11.4784096152
 20
7.7429561064
 30
0.0
 10
11.4913567996
 20
7.7429853635
 30
0.0
 10
11.5172859112
 20
7.7443234242
 30
0.0
 10
11.5493823162
 20
7.7491418104
 30
0.0
 10
11.5746933317
 20
7.754865204
 30
0.0
 10
11.5996840251
 20
7.7618268024
 30
0.0
 10
11.6302295278
 20
7.7728119786
 30
0.0
 10
11.6654102719
 20
7.7895066486
 30
0.0
 10
11.6987817914
 20
7.8095737274
 30
0.0
 10
11.7248350858
 20
7.8289326791
 30
0.0
 10
11.7444589776
 20
7.8458865809
 30
0.0
 10
11.7632235733
 20
7.8637845917
 30
0.0
 10
11.7850016719
 20
7.8878490936
 30
0.0
 10
11.8081849372
 20
7.9191359599
 30
0.0
 10
11.8281836966
 20
7.9525502553
 30
0.0
 10
11.8420572727
 20
7.9818957192
 30
0.0
 10
11.8513876126
 20
8.0060939823
 30
0.0
 10
11.8595153224
 20
8.0307219279
 30
0.0
 10
11.86739852
 20
8.0622091162
 30
0.0
 10
11.8731194218
 20
8.1007280927
 30
0.0
 10
11.8750267964
 20
8.1396208865
 30
0.0
 10
11.8734449177
 20
8.1720380298
 30
0.0
 10
11.8702778303
 20
8.1977747378
 30
0.0
 10
11.865848632
 20
8.2233246955
 30
0.0
 10
11.8579744521
 20
8.2548109918
 30
0.0
 10
11.844875661
 20
8.2914805965
 30
0.0
 10
11.8282362981
 20
8.3266863593
 30
0.0
 10
11.8082414436
 20
8.3601003387
 30
0.0
 10
11.7850595475
 20
8.3913857228
 30
0.0
 10
11.763278213
 20
8.4154468911
 30
0.0
 10
11.7445100333
 20
8.4333411004
 30
0.0
 10
11.724881716
 20
8.4502897373
 30
0.0
 10
11.6988199625
 20
8.4696371522
 30
0.0
 10
11.6654370619
 20
8.4896843741
 30
0.0
 10
11.6302445525
 20
8.5063519873
 30
0.0
 10
11.5996894682
 20
8.5173065707
 30
0.0
 10
11.5746925927
 20
8.5242397002
 30
0.0
 10
11.5493761602
 20
8.5299316279
 30
0.0
 10
11.5172740599
 20
8.5347037881
 30
0.0
 10
11.4913434685
 20
8.5359980692
 30
0.0
 10
11.4783965346
 20
8.5360038335
 30
0.0
 11
11.4784096152
 21
7.7429561064
 31
0.0
 11
11.5172000461
 21
7.7449502055
 31
0.0
 11
11.5556743982
 21
7.7507274269
 31
0.0
 11
11.5746562889
 21
7.7550207814
 31
0.0
 11
11.593397725
 21
7.7602408986
 31
0.0
 11
11.6299872517
 21
7.7733987353
 31
0.0
 11
11.6651076587
 21
7.790068108
 31
0.0
 11
11.6984293325
 21
7.810100198
 31
0.0
 11
11.7296375794
 21
7.8332918067
 31
0.0
 11
11.7443519198
 21
7.8460049464
 31
0.0
 11
11.7584229885
 21
7.859425286
 31
0.0
 11
11.784510009
 21
7.8882507209
 31
0.0
 11
11.8076533874
 21
7.9194893265
 31
0.0
 11
11.8276246729
 21
7.9528491356
 31
0.0
 11
11.8442413394
 21
7.9880026759
 31
0.0
 11
11.8512372757
 21
8.0061477394
 31
0.0
 11
11.857332561
 21
8.0246148101
 31
0.0
 11
11.8667756579
 21
8.0623329203
 31
0.0
 11
11.8724839308
 21
8.1007913328
 31
0.0
 11
11.8743925487
 21
8.1396222489
 31
0.0
 11
11.8724949778
 21
8.1784528412
 31
0.0
 11
11.8701200654
 21
8.1977512478
 31
0.0
 11
11.866799533
 21
8.2169099352
 31
0.0
 11
11.8573660063
 21
8.2546258924
 31
0.0
 11
11.8442856093
 21
8.2912365184
 31
0.0
 11
11.8276769338
 21
8.3263879367
 31
0.0
 11
11.8077100585
 21
8.3597458979
 31
0.0
 11
11.7845674443
 21
8.3909831345
 31
0.0
 11
11.7584767002
 21
8.4198050991
 31
0.0
 11
11.7444028222
 21
8.4332225952
 31
0.0
 11
11.7296850595
 21
8.4459316455
 31
0.0
 11
11.6984672453
 21
8.4691097125
 31
0.0
 11
11.6651341098
 21
8.4891218578
 31
0.0
 11
11.6300018969
 21
8.5057638022
 31
0.0
 11
11.5934015276
 21
8.5188851004
 31
0.0
 11
11.5746556323
 21
8.5240837569
 31
0.0
 11
11.5556699227
 21
8.5283533615
 31
0.0
 11
11.5171894286
 21
8.5340752227
 31
0.0
 11
11.4783965346
 21
8.5360038335
 31
0.0
  0
LINE
  5
2C3
100
AcDbEntity
  8
0
100
AcDbLine
 62
6
  6
CONTINUOUS
 10
11.4783965346
 20
8.5360038335
 11
11.4778713006
 21
8.5360037157
  0
LINE
  5
2C4
100
AcDbEntity
  8
0
100
AcDbLine
 62
6
  6
CONTINUOUS
 10
11.4778713006
 20
7.7451785
 11
11.4784015779
 21
7.7451793346
  0
SPLINE
  5
2C5
100
AcDbEntity
  8
0
100
AcDbSpline
 62
6
  6
CONTINUOUS
 70
0
 71
3
 72
46
 73
42
 74
40
 42
0.0000001
 43
0.0000001
 44
0.0000000001
 12
1.2372511214
 22
0.0027859702
 32
0.0
 13
-1.2372541295
 23
0.0005638175
 33
0.0
 40
0.0
 40
0.0
 40
0.0
 40
0.0
 40
0.0312168347
 40
0.0624832527
 40
0.0781222574
 40
0.0937555653
 40
0.1250010943
 40
0.1562419167
 40
0.1874881006
 40
0.2187370564
 40
0.2343656678
 40
0.2499939153
 40
0.281240981
 40
0.3124883133
 40
0.3437377771
 40
0.3593675472
 40
0.3749969985
 40
0.4062453599
 40
0.4374931464
 40
0.4687392081
 40
0.4999851706
 40
0.5312319016
 40
0.562480607
 40
0.5937318045
 40
0.6093622124
 40
0.6249926328
 40
0.6562446836
 40
0.6718751507
 40
0.6875049565
 40
0.7187533591
 40
0.7500008794
 40
0.7656289549
 40
0.7812570616
 40
0.8125043253
 40
0.8437492315
 40
0.8749910236
 40
0.9062392725
 40
0.9218741657
 40
0.9375146085
 40
0.9687827523
 40
1.0
 40
1.0
 40
1.0
 40
1.0
 10
11.4784015779
 20
7.7451793346
 30
0.0
 10
11.4912759325
 20
7.7452083243
 30
0.0
 10
11.5170584174
 20
7.7465384376
 30
0.0
 10
11.5489728248
 20
7.7513286566
 30
0.0
 10
11.5741389637
 20
7.7570190772
 30
0.0
 10
11.5989855465
 20
7.7639397518
 30
0.0
 10
11.629355916
 20
7.7748594234
 30
0.0
 10
11.6643354928
 20
7.7914581921
 30
0.0
 10
11.6975191018
 20
7.8114087095
 30
0.0
 10
11.7234280642
 20
7.8306550867
 30
0.0
 10
11.7429419565
 20
7.8475135394
 30
0.0
 10
11.7616024542
 20
7.8653106386
 30
0.0
 10
11.7832622551
 20
7.8892386984
 30
0.0
 10
11.8063164814
 20
7.9203485507
 30
0.0
 10
11.8228944414
 20
7.9480432506
 30
0.0
 10
11.8344845192
 20
7.9710804921
 30
0.0
 10
11.8449345885
 20
7.994656533
 30
0.0
 10
11.8558011434
 20
8.0250490967
 30
0.0
 10
11.8652089308
 20
8.062610048
 30
0.0
 10
11.8708992139
 20
8.1009123837
 30
0.0
 10
11.8727996159
 20
8.1395869811
 30
0.0
 10
11.8709183339
 20
8.1782642948
 30
0.0
 10
11.8652436829
 20
8.2165700254
 30
0.0
 10
11.8574142011
 20
8.2478841816
 30
0.0
 10
11.84933909
 20
8.2723776256
 30
0.0
 10
11.8400679852
 20
8.2964433545
 30
0.0
 10
11.8290318146
 20
8.3197977136
 30
0.0
 10
11.8163337101
 20
8.3422442494
 30
0.0
 10
11.802552402
 20
8.364042184
 30
0.0
 10
11.783337266
 20
8.3899746056
 30
0.0
 10
11.7616769162
 20
8.4139009658
 30
0.0
 10
11.7430136718
 20
8.4316953959
 30
0.0
 10
11.72349672
 20
8.448548764
 30
0.0
 10
11.6975826914
 20
8.4677862511
 30
0.0
 10
11.6643891895
 20
8.4877192377
 30
0.0
 10
11.6293964256
 20
8.5042930195
 30
0.0
 10
11.5990140569
 20
8.5151864061
 30
0.0
 10
11.5741576534
 20
8.5220808072
 30
0.0
 10
11.548982653
 20
8.5277410371
 30
0.0
 10
11.5170598974
 20
8.5324871445
 30
0.0
 10
11.491274097
 20
8.5337747235
 30
0.0
 10
11.4783995408
 20
8.5337805905
 30
0.0
 11
11.4784015779
 21
7.7451793346
 31
0.0
 11
11.5169738337
 21
7.7471616825
 31
0.0
 11
11.5552295755
 21
7.752905326
 31
0.0
 11
11.5741023316
 21
7.757173737
 31
0.0
 11
11.59273558
 21
7.7623631098
 31
0.0
 11
11.6291142888
 21
7.7754429351
 31
0.0
 11
11.6640340196
 21
7.7920156379
 31
0.0
 11
11.6971686242
 21
7.8119317851
 31
0.0
 11
11.7282033034
 21
7.8349897297
 31
0.0
 11
11.7428354504
 21
7.8476310532
 31
0.0
 11
11.7568285093
 21
7.8609757028
 31
0.0
 11
11.7827727611
 21
7.8896381362
 31
0.0
 11
11.8057889231
 21
7.9207013151
 31
0.0
 11
11.8256510323
 21
7.9538730703
 31
0.0
 11
11.8343420751
 21
7.9711480234
 31
0.0
 11
11.8421770296
 21
7.9888272898
 31
0.0
 11
11.8551960501
 21
8.0252315252
 31
0.0
 11
11.8645895194
 21
8.0627344715
 31
0.0
 11
11.8702675866
 21
8.1009745394
 31
0.0
 11
11.8721693421
 21
8.139586935
 31
0.0
 11
11.8702862263
 21
8.1782011959
 31
0.0
 11
11.8646239034
 21
8.216446905
 31
0.0
 11
11.8552454059
 21
8.2539579483
 31
0.0
 11
11.8491895853
 21
8.272324107
 31
0.0
 11
11.8422376479
 21
8.2903701569
 31
0.0
 11
11.8257200573
 21
8.3253313558
 31
0.0
 11
11.8161980512
 21
8.3421635567
 31
0.0
 11
11.8058630524
 21
8.3585082113
 31
0.0
 11
11.782847933
 21
8.3895738108
 31
0.0
 11
11.7569018615
 21
8.4182353557
 31
0.0
 11
11.7429069431
 21
8.4315777469
 31
0.0
 11
11.7282724416
 21
8.4442153891
 31
0.0
 11
11.697231849
 21
8.4672618606
 31
0.0
 11
11.6640882536
 21
8.487159971
 31
0.0
 11
11.6291555102
 21
8.5037080302
 31
0.0
 11
11.5927617873
 21
8.5167559965
 31
0.0
 11
11.574121033
 21
8.5219256867
 31
0.0
 11
11.5552413722
 21
8.5261715695
 31
0.0
 11
11.516975538
 21
8.5318621197
 31
0.0
 11
11.4783995408
 21
8.5337805905
 31
0.0
  0
LINE
  5
2C6
100
AcDbEntity
  8
0
100
AcDbLine
 62
6
  6
CONTINUOUS
 10
11.4783995408
 20
8.5337805905
 11
11.4778713006
 21
8.5337804735
  0
LINE
  5
2C7
100
AcDbEntity
  8
0
100
AcDbLine
 62
6
  6
CONTINUOUS
 10
11.4778713006
 20
7.747401742
 11
11.4784095886
 21
7.7474025996
  0
LINE
  5
2C8
100
AcDbEntity
  8
0
100
AcDbLine
 62
6
  6
CONTINUOUS
 10
11.4784009436
 20
8.5315573495
 11
11.4778713006
 21
8.5315572325
  0
LINE
  5
2C9
100
AcDbEntity
  8
0
100
AcDbLine
 62
6
  6
CONTINUOUS
 10
11.4778713006
 20
7.7496249817
 11
11.478401105
 21
7.7496258247
  0
LINE
  5
2CA
100
AcDbEntity
  8
0
100
AcDbLine
 62
6
  6
CONTINUOUS
 10
11.4784004431
 20
8.5293341104
 11
11.4778713006
 21
8.5293339925
  0
LINE
  5
2CB
100
AcDbEntity
  8
0
100
AcDbLine
 62
6
  6
CONTINUOUS
 10
11.4778713006
 20
7.7518482231
 11
11.4784097166
 21
7.7518490908
  0
LINE
  5
2CC
100
AcDbEntity
  8
0
100
AcDbLine
 62
6
  6
CONTINUOUS
 10
11.4778713006
 20
8.5398655739
 11
11.4783290918
 21
8.5398657144
  0
SPLINE
  5
2CD
100
AcDbEntity
  8
0
100
AcDbSpline
 62
6
  6
CONTINUOUS
 70
0
 71
3
 72
46
 73
42
 74
40
 42
0.0000001
 43
0.0000001
 44
0.0000000001
 12
1.2565042605
 22
-0.0003403923
 32
0.0
 13
-1.2565016844
 23
-0.0025670183
 33
0.0
 40
0.0
 40
0.0
 40
0.0
 40
0.0
 40
0.03121703
 40
0.0624847816
 40
0.0781248906
 40
0.0937593704
 40
0.1250067526
 40
0.156247926
 40
0.1874925985
 40
0.2187397639
 40
0.2343678468
 40
0.2499959209
 40
0.28124345
 40
0.3124918638
 40
0.3281216852
 40
0.3437521565
 40
0.3750041818
 40
0.3906346086
 40
0.4062650467
 40
0.4375162649
 40
0.4687648449
 40
0.5000114047
 40
0.5312574414
 40
0.5625042382
 40
0.5937531764
 40
0.625002597
 40
0.6562531926
 40
0.6718831416
 40
0.6875125279
 40
0.7187601847
 40
0.7500073969
 40
0.7656356325
 40
0.7812641591
 40
0.8125127882
 40
0.8437585693
 40
0.8749990188
 40
0.9062443155
 40
0.9218776115
 40
0.9375166753
 40
0.968783217
 40
1.0
 40
1.0
 40
1.0
 40
1.0
 10
11.4783290918
 20
8.5398657144
 30
0.0
 10
11.4914038689
 20
8.5398621724
 30
0.0
 10
11.5175908502
 20
8.5385592467
 30
0.0
 10
11.5500107163
 20
8.5337448409
 30
0.0
 10
11.5755778691
 20
8.528000771
 30
0.0
 10
11.6008214675
 20
8.5210033032
 30
0.0
 10
11.6316775456
 20
8.5099455304
 30
0.0
 10
11.6672164081
 20
8.493119027
 30
0.0
 10
11.7009287582
 20
8.4728806985
 30
0.0
 10
11.7272484671
 20
8.4533474678
 30
0.0
 10
11.7470708732
 20
8.4362340351
 30
0.0
 10
11.7660264488
 20
8.4181648149
 30
0.0
 10
11.7880265072
 20
8.3938686036
 30
0.0
 10
11.8075428332
 20
8.3675343135
 30
0.0
 10
11.8215403733
 20
8.3453983648
 30
0.0
 10
11.8344379201
 20
8.3226036566
 30
0.0
 10
11.8456475803
 20
8.2988867543
 30
0.0
 10
11.8550640844
 20
8.2744470289
 30
0.0
 10
11.8632660937
 20
8.2495728946
 30
0.0
 10
11.8712190926
 20
8.2177719722
 30
0.0
 10
11.8769830763
 20
8.1788704967
 30
0.0
 10
11.8788946791
 20
8.1395915933
 30
0.0
 10
11.8769651247
 20
8.1003148137
 30
0.0
 10
11.8711855531
 20
8.0614162974
 30
0.0
 10
11.8616299828
 20
8.0232681461
 30
0.0
 10
11.8483886757
 20
7.9862371373
 30
0.0
 10
11.8343718534
 20
7.9566044123
 30
0.0
 10
11.8214702485
 20
7.9338123953
 30
0.0
 10
11.8074700448
 20
7.9116792017
 30
0.0
 10
11.7879528614
 20
7.8853463932
 30
0.0
 10
11.7659544937
 20
7.8610493741
 30
0.0
 10
11.7470016691
 20
7.842977133
 30
0.0
 10
11.7271825184
 20
7.8258586374
 30
0.0
 10
11.7008683163
 20
7.8063161756
 30
0.0
 10
11.6671660634
 20
7.786060054
 30
0.0
 10
11.631640197
 20
7.7692083117
 30
0.0
 10
11.600795789
 20
7.7581236712
 30
0.0
 10
11.5755615006
 20
7.7510996379
 30
0.0
 10
11.5500027096
 20
7.745325216
 30
0.0
 10
11.517590798
 20
7.7404664139
 30
0.0
 10
11.491406856
 20
7.7391207864
 30
0.0
 10
11.4783322092
 20
7.739094075
 30
0.0
 11
11.4783290918
 21
8.5398657144
 31
0.0
 11
11.5175053557
 21
8.5379244213
 31
0.0
 11
11.5563670442
 21
8.5321519712
 31
0.0
 11
11.5755407355
 21
8.5278432206
 31
0.0
 11
11.5944718508
 21
8.5225962508
 31
0.0
 11
11.6314328268
 21
8.5093513335
 31
0.0
 11
11.6669107242
 21
8.4925511006
 31
0.0
 11
11.700572477
 21
8.4723481149
 31
0.0
 11
11.7320989064
 21
8.4489471655
 31
0.0
 11
11.7469624927
 21
8.4361145551
 31
0.0
 11
11.7611766239
 21
8.4225661189
 31
0.0
 11
11.7875294644
 21
8.3934614136
 31
0.0
 11
11.8109054456
 21
8.3619145142
 31
0.0
 11
11.8214026151
 21
8.3453164024
 31
0.0
 11
11.8310741652
 21
8.3282230975
 31
0.0
 11
11.8478512301
 21
8.2927191565
 31
0.0
 11
11.8549122628
 21
8.2743926845
 31
0.0
 11
11.8610632522
 21
8.2557410452
 31
0.0
 11
11.8705895181
 21
8.2176468154
 31
0.0
 11
11.8763411381
 21
8.1788063902
 31
0.0
 11
11.8782544956
 21
8.1395916035
 31
0.0
 11
11.8763235118
 21
8.1003783389
 31
0.0
 11
11.8705564403
 21
8.0615424702
 31
0.0
 11
11.8610158258
 21
8.0234547848
 31
0.0
 11
11.8477925868
 21
7.9864833275
 31
0.0
 11
11.8310072232
 21
7.9509852964
 31
0.0
 11
11.821332701
 21
7.9338944274
 31
0.0
 11
11.8108335224
 21
7.9172982334
 31
0.0
 11
11.7874564776
 21
7.8857533059
 31
0.0
 11
11.7611056614
 21
7.856647305
 31
0.0
 11
11.7468935082
 21
7.8430964998
 31
0.0
 11
11.7320324111
 21
7.8302601541
 31
0.0
 11
11.7005123864
 21
7.8068474941
 31
0.0
 11
11.6668599663
 21
7.786626262
 31
0.0
 11
11.6313949214
 21
7.7698010364
 31
0.0
 11
11.5944483877
 21
7.7565236326
 31
0.0
 11
11.5755243486
 21
7.7512567425
 31
0.0
 11
11.5563571164
 21
7.7469253039
 31
0.0
 11
11.517504934
 21
7.7410994579
 31
0.0
 11
11.4783322092
 21
7.739094075
 31
0.0
  0
LINE
  5
2CE
100
AcDbEntity
  8
0
100
AcDbLine
 62
6
  6
CONTINUOUS
 10
11.4783322092
 20
7.739094075
 11
11.4778713006
 21
7.7390934008
  0
LINE
  5
2CF
100
AcDbEntity
  8
0
100
AcDbLine
 62
6
  6
CONTINUOUS
 10
11.4778713006
 20
7.7368701588
 11
11.47741715
 21
7.7368700184
  0
SPLINE
  5
2D0
100
AcDbEntity
  8
0
100
AcDbSpline
 62
6
  6
CONTINUOUS
 70
0
 71
3
 72
39
 73
35
 74
33
 42
0.0000001
 43
0.0000001
 44
0.0000000001
 12
-1.0433201253
 22
0.0002707069
 32
0.0
 13
0.8862489575
 23
0.5505267862
 33
0.0
 40
0.0
 40
0.0
 40
0.0
 40
0.0
 40
0.0312123261
 40
0.062473918
 40
0.0937463483
 40
0.1250030148
 40
0.1562482768
 40
0.1874909656
 40
0.2187383303
 40
0.2499891279
 40
0.2812394857
 40
0.3124885713
 40
0.3437376385
 40
0.3749869634
 40
0.4062380557
 40
0.4374903014
 40
0.4687415391
 40
0.4999918873
 40
0.5312417038
 40
0.5624899914
 40
0.5937377672
 40
0.6249861899
 40
0.656235338
 40
0.6874867377
 40
0.718740008
 40
0.7499934109
 40
0.7812472797
 40
0.8125012261
 40
0.8437532512
 40
0.8750035325
 40
0.9062531667
 40
0.9375020008
 40
0.9687511976
 40
1.0
 40
1.0
 40
1.0
 40
1.0
 10
11.47741715
 20
7.7368700184
 30
0.0
 10
11.466562334
 20
7.7368728349
 30
0.0
 10
11.4448257506
 20
7.7377642728
 30
0.0
 10
11.4124306549
 20
7.741720934
 30
0.0
 10
11.3804410043
 20
7.748274726
 30
0.0
 10
11.3490955011
 20
7.7574042161
 30
0.0
 10
11.3185991003
 20
7.7690300809
 30
0.0
 10
11.2891431788
 20
7.7830782024
 30
0.0
 10
11.2609208533
 20
7.7994677657
 30
0.0
 10
11.2341070838
 20
7.8180766198
 30
0.0
 10
11.2088799096
 20
7.838787284
 30
0.0
 10
11.18541637
 20
7.8614755919
 30
0.0
 10
11.163856905
 20
7.8859794063
 30
0.0
 10
11.1443434822
 20
7.9121433228
 30
0.0
 10
11.1270145621
 20
7.9398036826
 30
0.0
 10
11.1119676352
 20
7.9687690942
 30
0.0
 10
11.0993045361
 20
7.9988534458
 30
0.0
 10
11.08912257
 20
8.0298645303
 30
0.0
 10
11.0814699316
 20
8.0615931163
 30
0.0
 10
11.0763994858
 20
8.093834854
 30
0.0
 10
11.0739578606
 20
8.1263807877
 30
0.0
 10
11.0741428007
 20
8.1590176049
 30
0.0
 10
11.0769585665
 20
8.1915350096
 30
0.0
 10
11.0823993727
 20
8.2237189712
 30
0.0
 10
11.0904111113
 20
8.2553622092
 30
0.0
 10
11.1009472689
 20
8.2862582075
 30
0.0
 10
11.1139526765
 20
8.3161988123
 30
0.0
 10
11.1293236058
 20
8.3449955971
 30
0.0
 10
11.1469626844
 20
8.3724607368
 30
0.0
 10
11.1667676243
 20
8.3984055984
 30
0.0
 10
11.1885944609
 20
8.4226718501
 30
0.0
 10
11.2123050533
 20
8.445102052
 30
0.0
 10
11.2377520773
 20
8.4655370101
 30
0.0
 10
11.2557614709
 20
8.4777551567
 30
0.0
 10
11.2649928771
 20
8.4834895909
 30
0.0
 11
11.47741715
 21
7.7368700184
 31
0.0
 11
11.4448798395
 21
7.7381992164
 31
0.0
 11
11.4125045115
 21
7.7421529175
 31
0.0
 11
11.3805421328
 21
7.7487056056
 31
0.0
 11
11.3492316125
 21
7.7578220603
 31
0.0
 11
11.3187711801
 21
7.7694343204
 31
0.0
 11
11.2893504939
 21
7.7834675213
 31
0.0
 11
11.261157002
 21
7.7998367782
 31
0.0
 11
11.2343714806
 21
7.8184269624
 31
0.0
 11
11.2091734428
 21
7.8391172518
 31
0.0
 11
11.1857336674
 21
7.8617782218
 31
0.0
 11
11.1641980385
 21
7.8862559273
 31
0.0
 11
11.1447080156
 21
7.9123920694
 31
0.0
 11
11.1273951542
 21
7.9400207499
 31
0.0
 11
11.1123647769
 21
7.9689559427
 31
0.0
 11
11.0997178995
 21
7.9990083227
 31
0.0
 11
11.0895440287
 21
8.0299844567
 31
0.0
 11
11.0819001642
 21
8.0616793095
 31
0.0
 11
11.0768375877
 21
8.0938858099
 31
0.0
 11
11.0743956281
 21
8.1263956601
 31
0.0
 11
11.0745812466
 21
8.158997241
 31
0.0
 11
11.0773959358
 21
8.1914783803
 31
0.0
 11
11.0828276812
 21
8.2236279715
 31
0.0
 11
11.0908317971
 21
8.2552374869
 31
0.0
 11
11.101358738
 21
8.2860987875
 31
0.0
 11
11.1143469581
 21
8.3160082208
 31
0.0
 11
11.1297020779
 21
8.34477441
 31
0.0
 11
11.1473241506
 21
8.3722080602
 31
0.0
 11
11.1671048671
 21
8.3981261472
 31
0.0
 11
11.1889086567
 21
8.4223660878
 31
0.0
 11
11.2125943992
 21
8.4447694609
 31
0.0
 11
11.2380133579
 21
8.4651857959
 31
0.0
 11
11.2649928771
 21
8.4834895909
 31
0.0
  0
LINE
  5
2D1
100
AcDbEntity
  8
0
100
AcDbLine
 62
6
  6
CONTINUOUS
 10
11.4774060956
 20
8.5443113796
 11
11.4778713006
 21
8.544312057
  0
LINE
  5
2D2
100
AcDbEntity
  8
0
100
AcDbLine
 62
6
  6
CONTINUOUS
 10
11.4778713006
 20
8.5376423338
 11
11.4783274804
 21
8.5376424757
  0
SPLINE
  5
2D3
100
AcDbEntity
  8
0
100
AcDbSpline
 62
6
  6
CONTINUOUS
 70
0
 71
3
 72
45
 73
41
 74
39
 42
0.0000001
 43
0.0000001
 44
0.0000000001
 12
1.2495055437
 22
-0.0003350086
 32
0.0
 13
-1.2495029086
 23
-0.0025879634
 33
0.0
 40
0.0
 40
0.0
 40
0.0
 40
0.0
 40
0.0312168662
 40
0.0624842817
 40
0.0781245217
 40
0.0937595581
 40
0.125009125
 40
0.1562532102
 40
0.1875009821
 40
0.2187507327
 40
0.2343795127
 40
0.2500076874
 40
0.2812539015
 40
0.3124992154
 40
0.343745398
 40
0.3749920016
 40
0.4062382367
 40
0.4374849905
 40
0.4531127096
 40
0.4687401697
 40
0.4999862081
 40
0.5312329411
 40
0.5624812354
 40
0.593731535
 40
0.6093614024
 40
0.624991296
 40
0.6562421854
 40
0.6874914614
 40
0.7187380236
 40
0.7499842964
 40
0.7656124142
 40
0.7812412612
 40
0.8124913285
 40
0.8437394585
 40
0.8749844156
 40
0.9062357056
 40
0.9218719083
 40
0.9375133533
 40
0.9687824591
 40
1.0
 40
1.0
 40
1.0
 40
1.0
 10
11.4783274804
 20
8.5376424757
 30
0.0
 10
11.4913293628
 20
8.5376389897
 30
0.0
 10
11.5173702813
 20
8.5363436399
 30
0.0
 10
11.5496094709
 20
8.5315563245
 30
0.0
 10
11.5750343297
 20
8.525844085
 30
0.0
 10
11.600138447
 20
8.518885175
 30
0.0
 10
11.6308248819
 20
8.5078882584
 30
0.0
 10
11.6661690532
 20
8.4911543216
 30
0.0
 10
11.6996961254
 20
8.4710258053
 30
0.0
 10
11.7258706406
 20
8.4515989179
 30
0.0
 10
11.745584005
 20
8.4345801853
 30
0.0
 10
11.7644335649
 20
8.4166116686
 30
0.0
 10
11.7863094385
 20
8.3924500677
 30
0.0
 10
11.8095920913
 20
8.3610334298
 30
0.0
 10
11.8296739289
 20
8.3274786902
 30
0.0
 10
11.8463857303
 20
8.2921241646
 30
0.0
 10
11.8595415871
 20
8.2552992582
 30
0.0
 10
11.8674500681
 20
8.2236793892
 30
0.0
 10
11.8718985569
 20
8.1980209607
 30
0.0
 10
11.8750794315
 20
8.1721749472
 30
0.0
 10
11.8766681692
 20
8.1396200719
 30
0.0
 10
11.874752414
 20
8.1005620399
 30
0.0
 10
11.8690064883
 20
8.0618795064
 30
0.0
 10
11.861088854
 20
8.0302587662
 30
0.0
 10
11.8529256594
 20
8.0055264994
 30
0.0
 10
11.8435545988
 20
7.9812258427
 30
0.0
 10
11.8296205246
 20
7.9517564253
 30
0.0
 10
11.8095346351
 20
7.9182014479
 30
0.0
 10
11.7862504764
 20
7.88678342
 30
0.0
 10
11.7643777387
 20
7.8626185742
 30
0.0
 10
11.7455316846
 20
7.8446463373
 30
0.0
 10
11.725822674
 20
7.8276224212
 30
0.0
 10
11.6996565398
 20
7.8081840982
 30
0.0
 10
11.6661407612
 20
7.7880358596
 30
0.0
 10
11.6308082806
 20
7.7712750022
 30
0.0
 10
11.6001313732
 20
7.7602476073
 30
0.0
 10
11.5750333982
 20
7.7532603268
 30
0.0
 10
11.5496139235
 20
7.7475167177
 30
0.0
 10
11.5173804015
 20
7.7426832952
 30
0.0
 10
11.4913409499
 20
7.7413442618
 30
0.0
 10
11.4783388139
 20
7.7413173319
 30
0.0
 11
11.4783274804
 21
8.5376424757
 31
0.0
 11
11.517285344
 21
8.5357123215
 31
0.0
 11
11.5559301905
 21
8.5299723057
 31
0.0
 11
11.5749972303
 21
8.525687456
 31
0.0
 11
11.5938235529
 21
8.5204694659
 31
0.0
 11
11.6305812537
 21
8.5072974781
 31
0.0
 11
11.6658648499
 21
8.4905893118
 31
0.0
 11
11.6993419243
 21
8.4704960251
 31
0.0
 11
11.7306948059
 21
8.4472227667
 31
0.0
 11
11.7454763371
 21
8.4344611521
 31
0.0
 11
11.7596112394
 21
8.4209879392
 31
0.0
 11
11.7858152228
 21
8.3920456875
 31
0.0
 11
11.8090584099
 21
8.3606774056
 31
0.0
 11
11.8291121397
 21
8.327178935
 31
0.0
 11
11.8457931167
 21
8.2918789961
 31
0.0
 11
11.8589304899
 21
8.2551133305
 31
0.0
 11
11.86840511
 21
8.2172373895
 31
0.0
 11
11.8717401041
 21
8.1979973657
 31
0.0
 11
11.8741253546
 21
8.1786169984
 31
0.0
 11
11.8760311531
 21
8.1396214412
 31
0.0
 11
11.8741141496
 21
8.1006255644
 31
0.0
 11
11.8683809107
 21
8.0620038656
 31
0.0
 11
11.8588965643
 21
8.0241257916
 31
0.0
 11
11.852774668
 21
8.0055804978
 31
0.0
 11
11.8457482006
 21
7.9873586545
 31
0.0
 11
11.8290590757
 21
7.9520566435
 31
0.0
 11
11.8090007882
 21
7.9185563965
 31
0.0
 11
11.785756702
 21
7.8871868396
 31
0.0
 11
11.7595563218
 21
7.8582412271
 31
0.0
 11
11.7454241711
 21
7.844765231
 31
0.0
 11
11.7306460083
 21
7.831999588
 31
0.0
 11
11.6993025981
 21
7.8087129117
 31
0.0
 11
11.6658369006
 21
7.7885998138
 31
0.0
 11
11.6305650355
 21
7.771864355
 31
0.0
 11
11.5938181109
 21
7.7586559677
 31
0.0
 11
11.5749962165
 21
7.7534165895
 31
0.0
 11
11.5559329698
 21
7.7491080621
 31
0.0
 11
11.5172942293
 21
7.7433128295
 31
0.0
 11
11.4783388139
 21
7.7413173319
 31
0.0
  0
LINE
  5
2D4
100
AcDbEntity
  8
0
100
AcDbLine
 62
6
  6
CONTINUOUS
 10
11.4783388139
 20
7.7413173319
 11
11.4778713006
 21
7.7413166403
  0
LINE
  5
2D5
100
AcDbEntity
  8
0
100
AcDbLine
 62
6
  6
CONTINUOUS
 10
11.4778713006
 20
8.5354190915
 11
11.4783300913
 21
8.5354192333
  0
SPLINE
  5
2D6
100
AcDbEntity
  8
0
100
AcDbSpline
 62
6
  6
CONTINUOUS
 70
0
 71
3
 72
46
 73
42
 74
40
 42
0.0000001
 43
0.0000001
 44
0.0000000001
 12
1.2425393789
 22
-0.0003435773
 32
0.0
 13
-1.2425367774
 23
-0.0025657136
 33
0.0
 40
0.0
 40
0.0
 40
0.0
 40
0.0
 40
0.0312171142
 40
0.0624852279
 40
0.0781256897
 40
0.093760605
 40
0.1250088801
 40
0.1562506816
 40
0.1874955909
 40
0.2187428626
 40
0.2343709751
 40
0.2499990555
 40
0.2812465832
 40
0.3124949931
 40
0.328124803
 40
0.3437552748
 40
0.375007334
 40
0.3906377598
 40
0.4062681729
 40
0.437519379
 40
0.4687680933
 40
0.5000148325
 40
0.5312608032
 40
0.5625068732
 40
0.593754668
 40
0.6250030378
 40
0.6406324947
 40
0.6562622701
 40
0.6875117407
 40
0.7187590802
 40
0.7500061538
 40
0.7656344067
 40
0.7812630243
 40
0.8125119883
 40
0.8437581732
 40
0.8749990012
 40
0.906244554
 40
0.9218778837
 40
0.9375169083
 40
0.968783298
 40
1.0
 40
1.0
 40
1.0
 40
1.0
 10
11.4783300913
 20
8.5354192333
 30
0.0
 10
11.4912595892
 20
8.5354156582
 30
0.0
 10
11.5171557057
 20
8.5341270369
 30
0.0
 10
11.549215541
 20
8.5293658094
 30
0.0
 10
11.5744989638
 20
8.5236852985
 30
0.0
 10
11.5994626046
 20
8.5167651506
 30
0.0
 10
11.6299763171
 20
8.5058294726
 30
0.0
 10
11.6651207361
 20
8.4891894214
 30
0.0
 10
11.6984584086
 20
8.4691752026
 30
0.0
 10
11.7244852048
 20
8.449858297
 30
0.0
 10
11.7440872116
 20
8.4329348729
 30
0.0
 10
11.7628318515
 20
8.4150661699
 30
0.0
 10
11.7845867686
 20
8.3910394239
 30
0.0
 10
11.803885922
 20
8.364997637
 30
0.0
 10
11.8177275338
 20
8.3431074845
 30
0.0
 10
11.8304812264
 20
8.320565815
 30
0.0
 10
11.8415657467
 20
8.2971122428
 30
0.0
 10
11.8508774999
 20
8.2729441047
 30
0.0
 10
11.8589880249
 20
8.2483463248
 30
0.0
 10
11.8668518582
 20
8.2168986079
 30
0.0
 10
11.8725514285
 20
8.1784293226
 30
0.0
 10
11.8744409865
 20
8.139586778
 30
0.0
 10
11.872532264
 20
8.1007469598
 30
0.0
 10
11.8668170291
 20
8.0622810791
 30
0.0
 10
11.8573679967
 20
8.0245599186
 30
0.0
 10
11.8464538051
 20
7.9940379387
 30
0.0
 10
11.8359579527
 20
7.9703616842
 30
0.0
 10
11.824317119
 20
7.9472266516
 30
0.0
 10
11.8076665965
 20
7.9194146686
 30
0.0
 10
11.7845115526
 20
7.8881736281
 30
0.0
 10
11.7627571628
 20
7.8641451951
 30
0.0
 10
11.7440152571
 20
7.8462738355
 30
0.0
 10
11.7244162943
 20
7.8293453363
 30
0.0
 10
11.6983945442
 20
7.810019557
 30
0.0
 10
11.6650667528
 20
7.7899878207
 30
0.0
 10
11.6299355168
 20
7.7733228002
 30
0.0
 10
11.5994338057
 20
7.7623608556
 30
0.0
 10
11.5744799903
 20
7.7554144422
 30
0.0
 10
11.5492054302
 20
7.7497037469
 30
0.0
 10
11.5171539398
 20
7.7448984142
 30
0.0
 10
11.4912611339
 20
7.7435672606
 30
0.0
 10
11.4783318338
 20
7.7435405629
 30
0.0
 11
11.4783300913
 21
8.5354192333
 31
0.0
 11
11.5170710394
 21
8.5334992597
 31
0.0
 11
11.5555012165
 21
8.5277905974
 31
0.0
 11
11.574462205
 21
8.5235294926
 31
0.0
 11
11.5931833846
 21
8.5183404933
 31
0.0
 11
11.6297344319
 21
8.5052418878
 31
0.0
 11
11.6648185517
 21
8.4886276616
 31
0.0
 11
11.6981060836
 21
8.4686484721
 31
0.0
 11
11.7292817491
 21
8.4455068733
 31
0.0
 11
11.7439800257
 21
8.4328166964
 31
0.0
 11
11.7580359788
 21
8.419418616
 31
0.0
 11
11.7840953244
 21
8.3906368348
 31
0.0
 11
11.8072110631
 21
8.3594402298
 31
0.0
 11
11.8175912842
 21
8.3430264291
 31
0.0
 11
11.8271549745
 21
8.3261228907
 31
0.0
 11
11.8437449249
 21
8.2910131879
 31
0.0
 11
11.8507273409
 21
8.272890345
 31
0.0
 11
11.8568097195
 21
8.2544459523
 31
0.0
 11
11.8662293631
 21
8.2167749333
 31
0.0
 11
11.8719165475
 21
8.1783659391
 31
0.0
 11
11.8738079466
 21
8.1395867313
 31
0.0
 11
11.8718978649
 21
8.1008093954
 31
0.0
 11
11.866194903
 21
8.0624060622
 31
0.0
 11
11.8567602514
 21
8.0247431688
 31
0.0
 11
11.8436841672
 21
7.9881839334
 31
0.0
 11
11.8358148872
 21
7.9704295189
 31
0.0
 11
11.8270857835
 21
7.9530812358
 31
0.0
 11
11.8071367444
 21
7.91976902
 31
0.0
 11
11.7840199445
 21
7.8885748567
 31
0.0
 11
11.7579623983
 21
7.8597922075
 31
0.0
 11
11.7439082941
 21
7.8463918771
 31
0.0
 11
11.7292123607
 21
7.8336980265
 31
0.0
 11
11.6980425839
 21
7.8105449702
 31
0.0
 11
11.6647640269
 21
7.7905477577
 31
0.0
 11
11.6296929177
 21
7.7739089068
 31
0.0
 11
11.5931568901
 21
7.7607784627
 31
0.0
 11
11.5744432205
 21
7.7555697875
 31
0.0
 11
11.5554891386
 21
7.7512861593
 31
0.0
 11
11.5170690507
 21
7.7455244108
 31
0.0
 11
11.4783318338
 21
7.7435405629
 31
0.0
  0
LINE
  5
2D7
100
AcDbEntity
  8
0
100
AcDbLine
 62
6
  6
CONTINUOUS
 10
11.4783318338
 20
7.7435405629
 11
11.4778713006
 21
7.7435398819
  0
LINE
  5
2D8
100
AcDbEntity
  8
0
100
AcDbLine
 62
6
  6
CONTINUOUS
 10
11.4778713006
 20
8.5331958504
 11
11.4783313094
 21
8.5331959928
  0
SPLINE
  5
2D9
100
AcDbEntity
  8
0
100
AcDbSpline
 62
6
  6
CONTINUOUS
 70
0
 71
3
 72
45
 73
41
 74
39
 42
0.0000001
 43
0.0000001
 44
0.0000000001
 12
1.2355375004
 22
-0.0003474
 32
0.0
 13
-1.2355348392
 23
-0.0025878158
 33
0.0
 40
0.0
 40
0.0
 40
0.0
 40
0.0
 40
0.0312173709
 40
0.0624861684
 40
0.0781273683
 40
0.0937633157
 40
0.1250142391
 40
0.1562590604
 40
0.1875071353
 40
0.2187571586
 40
0.2343860398
 40
0.2500142308
 40
0.2812602982
 40
0.3125052537
 40
0.343750874
 40
0.3593787446
 40
0.3750065878
 40
0.4062531192
 40
0.437500601
 40
0.468746942
 40
0.4999930745
 40
0.531239632
 40
0.562487481
 40
0.5937371709
 40
0.6093666293
 40
0.6249959868
 40
0.656245577
 40
0.6874936139
 40
0.7187391946
 40
0.7499847829
 40
0.765612681
 40
0.7812413925
 40
0.8124913783
 40
0.8437395387
 40
0.8749844998
 40
0.9062357597
 40
0.9218719419
 40
0.9375133681
 40
0.9687824546
 40
1.0
 40
1.0
 40
1.0
 40
1.0
 10
11.4783313094
 20
8.5331959928
 30
0.0
 10
11.4911880536
 20
8.5331923778
 30
0.0
 10
11.5169386265
 20
8.5319109127
 30
0.0
 10
11.5488184538
 20
8.5271761916
 30
0.0
 10
11.5739603571
 20
8.5215273382
 30
0.0
 10
11.5987850244
 20
8.5146454843
 30
0.0
 10
11.6291291729
 20
8.5037699161
 30
0.0
 10
11.6640787771
 20
8.4872219133
 30
0.0
 10
11.6972308706
 20
8.4673169718
 30
0.0
 10
11.7231119932
 20
8.4481057663
 30
0.0
 10
11.7426048629
 20
8.4312768917
 30
0.0
 10
11.7612432476
 20
8.4135088268
 30
0.0
 10
11.7828733938
 20
8.3896160461
 30
0.0
 10
11.8058941345
 20
8.3585518724
 30
0.0
 10
11.8224442736
 20
8.3308964248
 30
0.0
 10
11.8340119915
 20
8.3078913611
 30
0.0
 10
11.8444407368
 20
8.2843474026
 30
0.0
 10
11.8552829677
 20
8.2539952784
 30
0.0
 10
11.8646646052
 20
8.2164838971
 30
0.0
 10
11.8703325331
 20
8.1782324534
 30
0.0
 10
11.8722141971
 20
8.1396105817
 30
0.0
 10
11.8703190976
 20
8.1009880943
 30
0.0
 10
11.8646368821
 20
8.0627389179
 30
0.0
 10
11.856806624
 20
8.0314724799
 30
0.0
 10
11.848734531
 20
8.0070174424
 30
0.0
 10
11.8394686357
 20
7.9829892675
 30
0.0
 10
11.8256902467
 20
7.9538507043
 30
0.0
 10
11.8058291319
 20
7.9206724136
 30
0.0
 10
11.7828060514
 20
7.8896065206
 30
0.0
 10
11.7611783212
 20
7.8657124087
 30
0.0
 10
11.7425433187
 20
7.847941312
 30
0.0
 10
11.7230548581
 20
7.8311077175
 30
0.0
 10
11.6971814277
 20
7.8118865633
 30
0.0
 10
11.6640405469
 20
7.7919632215
 30
0.0
 10
11.6291032468
 20
7.7753893006
 30
0.0
 10
11.5987694428
 20
7.7644847685
 30
0.0
 10
11.5739521729
 20
7.7575752094
 30
0.0
 10
11.5488169818
 20
7.7518953742
 30
0.0
 10
11.5169439012
 20
7.747115377
 30
0.0
 10
11.4911955787
 20
7.7457907518
 30
0.0
 10
11.4783387903
 20
7.7457638234
 30
0.0
 11
11.4783313094
 21
8.5331959928
 31
0.0
 11
11.5168542557
 21
8.5312866582
 31
0.0
 11
11.5550686768
 21
8.5256098222
 31
0.0
 11
11.5739236828
 21
8.5213724204
 31
0.0
 11
11.5925405482
 21
8.5162121525
 31
0.0
 11
11.6288885201
 21
8.5031857375
 31
0.0
 11
11.6637780775
 21
8.4866630509
 31
0.0
 11
11.6968805411
 21
8.4667930312
 31
0.0
 11
11.7278822695
 21
8.4437784812
 31
0.0
 11
11.7424983982
 21
8.4311591481
 31
0.0
 11
11.7564749585
 21
8.4178361748
 31
0.0
 11
11.7823847417
 21
8.3892165591
 31
0.0
 11
11.8053670306
 21
8.3581987
 31
0.0
 11
11.8251952645
 21
8.3250747244
 31
0.0
 11
11.8338695828
 21
8.307824021
 31
0.0
 11
11.8416884557
 21
8.2901691497
 31
0.0
 11
11.8546781458
 21
8.2538137995
 31
0.0
 11
11.8640457467
 21
8.2163600647
 31
0.0
 11
11.869701509
 21
8.1781705672
 31
0.0
 11
11.8715847416
 21
8.1396107578
 31
0.0
 11
11.8696879925
 21
8.1010510849
 31
0.0
 11
11.8640181385
 21
8.0628617935
 31
0.0
 11
11.8546388395
 21
8.025408174
 31
0.0
 11
11.848585268
 21
8.007070764
 31
0.0
 11
11.8416375401
 21
7.9890532562
 31
0.0
 11
11.8251351484
 21
7.9541475772
 31
0.0
 11
11.8053014276
 21
7.9210234067
 31
0.0
 11
11.7823178698
 21
7.8900055263
 31
0.0
 11
11.756410965
 21
7.8613841035
 31
0.0
 11
11.7424370371
 21
7.8480588937
 31
0.0
 11
11.7278242702
 21
7.8354359884
 31
0.0
 11
11.69683149
 21
7.8124094676
 31
0.0
 11
11.663740072
 21
7.7925208527
 31
0.0
 11
11.6288627043
 21
7.7759720477
 31
0.0
 11
11.5925267862
 21
7.7629108183
 31
0.0
 11
11.5739154062
 21
7.7577297199
 31
0.0
 11
11.5550653613
 21
7.7534690343
 31
0.0
 11
11.5168586914
 21
7.7477378557
 31
0.0
 11
11.4783387903
 21
7.7457638234
 31
0.0
  0
LINE
  5
2DA
100
AcDbEntity
  8
0
100
AcDbLine
 62
6
  6
CONTINUOUS
 10
11.4783387903
 20
7.7457638234
 11
11.4778713006
 21
7.7457631241
  0
LINE
  5
2DB
100
AcDbEntity
  8
0
100
AcDbLine
 62
6
  6
CONTINUOUS
 10
11.4778713006
 20
7.7390934008
 11
11.4774103735
 21
7.7390932615
  0
LINE
  5
2DC
100
AcDbEntity
  8
0
100
AcDbLine
 62
6
  6
CONTINUOUS
 10
11.4774082552
 20
8.5420881379
 11
11.4778713006
 21
8.5420888146
  0
LINE
  5
2DD
100
AcDbEntity
  8
0
100
AcDbLine
 62
6
  6
CONTINUOUS
 10
11.4778713006
 20
8.5309726107
 11
11.478330875
 21
8.5309727539
  0
LINE
  5
2DE
100
AcDbEntity
  8
0
100
AcDbLine
 62
6
  6
CONTINUOUS
 10
11.4783314224
 20
7.7479870514
 11
11.4778713006
 21
7.7479863636
  0
LINE
  5
2DF
100
AcDbEntity
  8
0
100
AcDbLine
 62
6
  6
CONTINUOUS
 10
11.4778713006
 20
8.5287493684
 11
11.4783281056
 21
8.5287495132
  0
LINE
  5
2E0
100
AcDbEntity
  8
0
100
AcDbLine
 62
6
  6
CONTINUOUS
 10
11.4783389013
 20
7.7502103126
 11
11.4778713006
 21
7.750209605
  0
LINE
  5
2E1
100
AcDbEntity
  8
0
100
AcDbLine
 62
6
  6
CONTINUOUS
 10
11.4783320209
 20
7.7524335443
 11
11.4778713006
 21
7.7524328473
  0
LINE
  5
2E2
100
AcDbEntity
  8
0
100
AcDbLine
 62
6
  6
CONTINUOUS
 10
11.4778713006
 20
7.7435398819
 11
11.477410448
 21
7.743539741
  0
LINE
  5
2E3
100
AcDbEntity
  8
0
100
AcDbLine
 62
6
  6
CONTINUOUS
 10
11.4774051687
 20
8.5376416432
 11
11.4778713006
 21
8.5376423338
  0
LINE
  5
2E4
100
AcDbEntity
  8
0
100
AcDbLine
 62
6
  6
CONTINUOUS
 10
11.4771997928
 20
8.5331946681
 11
11.4778713006
 21
8.5331958504
  0
LINE
  5
2E5
100
AcDbEntity
  8
0
100
AcDbLine
 62
6
  6
CONTINUOUS
 10
11.4778713006
 20
7.7479863636
 11
11.4771919887
 21
7.7479863439
  0
SPLINE
  5
2E6
100
AcDbEntity
  8
0
100
AcDbSpline
 62
6
  6
CONTINUOUS
 70
0
 71
3
 72
32
 73
28
 74
26
 42
0.0000001
 43
0.0000001
 44
0.0000000001
 12
0.4860565365
 22
0.5231200249
 32
0.0
 13
-0.6708489625
 23
0.2446777199
 33
0.0
 40
0.0
 40
0.0
 40
0.0
 40
0.0
 40
0.0624573439
 40
0.0937448456
 40
0.1250282056
 40
0.1875259742
 40
0.2187830946
 40
0.2500405951
 40
0.2813002374
 40
0.3125608508
 40
0.3438200089
 40
0.3750769661
 40
0.4063336638
 40
0.4375906183
 40
0.4688477399
 40
0.5001060113
 40
0.5625952062
 40
0.6250824504
 40
0.6875700148
 40
0.7500543018
 40
0.7813056224
 40
0.812550532
 40
0.8437932674
 40
0.8750401906
 40
0.9062966946
 40
0.9375590448
 40
1.0
 40
1.0
 40
1.0
 40
1.0
 10
11.7427545605
 20
7.9202619487
 30
0.0
 10
11.7528738272
 20
7.9311528445
 30
0.0
 10
11.7670139179
 20
7.9485198245
 30
0.0
 10
11.7835095311
 20
7.9733073016
 30
0.0
 10
11.7983853646
 20
7.9991136503
 30
0.0
 10
11.8107360776
 20
8.0262982081
 30
0.0
 10
11.8204182734
 20
8.054450851
 30
0.0
 10
11.8263271345
 20
8.0759917709
 30
0.0
 10
11.8308649321
 20
8.0978619101
 30
0.0
 10
11.8340229851
 20
8.1199741068
 30
0.0
 10
11.8357895056
 20
8.1422400521
 30
0.0
 10
11.8361564672
 20
8.1645719001
 30
0.0
 10
11.8351344902
 20
8.1868826527
 30
0.0
 10
11.8327331861
 20
8.209087154
 30
0.0
 10
11.8289595536
 20
8.2311012412
 30
0.0
 10
11.8221296279
 20
8.2600767872
 30
0.0
 10
11.8102798991
 20
8.2954334634
 30
0.0
 10
11.7909889015
 20
8.3357893203
 30
0.0
 10
11.7669670301
 20
8.373518322
 30
0.0
 10
11.7432948377
 20
8.4023215015
 30
0.0
 10
11.7224172655
 20
8.4235337421
 30
0.0
 10
11.7058327659
 20
8.4384807859
 30
0.0
 10
11.6883890917
 20
8.4524124082
 30
0.0
 10
11.6701485698
 20
8.4652875468
 30
0.0
 10
11.6511718233
 20
8.4770620732
 30
0.0
 10
11.625005981
 20
8.4912294343
 30
0.0
 10
11.6044750237
 20
8.5001149682
 30
0.0
 10
11.5905122071
 20
8.5052076051
 30
0.0
 11
11.7427545605
 21
7.9202619487
 31
0.0
 11
11.7709289484
 21
7.9548351233
 31
0.0
 11
11.7833067928
 21
7.9734345705
 31
0.0
 11
11.7944622401
 21
7.9927884931
 31
0.0
 11
11.8129334311
 21
8.0334147322
 31
0.0
 11
11.8201925947
 21
8.0545212738
 31
0.0
 11
11.8260984729
 21
8.0760460101
 31
0.0
 11
11.8306349191
 21
8.0979019613
 31
0.0
 11
11.833791109
 21
8.1200001822
 31
0.0
 11
11.8355562797
 21
8.1422517144
 31
0.0
 11
11.8359249783
 21
8.1645685334
 31
0.0
 11
11.8349046081
 21
8.1868648767
 31
0.0
 11
11.8325044799
 21
8.2090553172
 31
0.0
 11
11.8287346322
 21
8.2310546317
 31
0.0
 11
11.8236149618
 21
8.2527803588
 31
0.0
 11
11.8094342782
 21
8.2950891995
 31
0.0
 11
11.7902003623
 21
8.3353516132
 31
0.0
 11
11.7662360037
 21
8.3729911589
 31
0.0
 11
11.7379157862
 21
8.4074698816
 31
0.0
 11
11.7222618669
 21
8.4233743308
 31
0.0
 11
11.7056890506
 21
8.4383120063
 31
0.0
 11
11.6882574569
 21
8.4522354635
 31
0.0
 11
11.6700284172
 21
8.4651024238
 31
0.0
 11
11.6510634705
 21
8.4768707161
 31
0.0
 11
11.6314332993
 21
8.4875010806
 31
0.0
 11
11.5905122071
 21
8.5052076051
 31
0.0
  0
LINE
  5
2E7
100
AcDbEntity
  8
0
100
AcDbLine
 62
6
  6
CONTINUOUS
 10
11.4778713006
 20
7.7457631241
 11
11.4774173346
 21
7.7457629805
  0
LINE
  5
2E8
100
AcDbEntity
  8
0
100
AcDbLine
 62
6
  6
CONTINUOUS
 10
11.4774057919
 20
8.5354183982
 11
11.4778713006
 21
8.5354190915
  0
LINE
  5
2E9
100
AcDbEntity
  8
0
100
AcDbLine
 62
6
  6
CONTINUOUS
 10
11.4778713006
 20
7.750209605
 11
11.477416921
 21
7.7502094599
  0
LINE
  5
2EA
100
AcDbEntity
  8
0
100
AcDbLine
 62
6
  6
CONTINUOUS
 10
11.4774068094
 20
8.5309719117
 11
11.4778713006
 21
8.5309726107
  0
LINE
  5
2EB
100
AcDbEntity
  8
0
100
AcDbLine
 62
6
  6
CONTINUOUS
 10
11.4778713006
 20
7.7524328473
 11
11.4774104936
 21
7.7524327032
  0
LINE
  5
2EC
100
AcDbEntity
  8
0
100
AcDbLine
 62
6
  6
CONTINUOUS
 10
11.4774059254
 20
8.5287486635
 11
11.4778713006
 21
8.5287493684
  0
LINE
  5
2ED
100
AcDbEntity
  8
0
100
AcDbLine
 62
6
  6
CONTINUOUS
 10
11.4773065454
 20
8.5398646727
 11
11.4778713006
 21
8.5398655739
  0
LINE
  5
2EE
100
AcDbEntity
  8
0
100
AcDbLine
 62
6
  6
CONTINUOUS
 10
11.4778713006
 20
7.7413166403
 11
11.4771746348
 21
7.7413166361
  0
LINE
  5
2EF
100
AcDbEntity
  8
0
100
AcDbLine
 62
6
  6
CONTINUOUS
 10
11.4778713006
 20
7.734646917
 11
11.4771450322
 21
7.7346469398
  0
LINE
  5
2F0
100
AcDbEntity
  8
0
100
AcDbLine
 62
6
  6
CONTINUOUS
 10
11.4771355111
 20
8.5465339846
 11
11.4778713006
 21
8.5465352973
  0
LINE
  5
2F1
100
AcDbEntity
  8
0
100
AcDbLine
 62
6
  6
CONTINUOUS
 10
11.4778713006
 20
8.544312057
 11
11.4783303777
 21
8.5443121956
  0
SPLINE
  5
2F2
100
AcDbEntity
  8
0
100
AcDbSpline
 62
6
  6
CONTINUOUS
 70
0
 71
3
 72
46
 73
42
 74
40
 42
0.0000001
 43
0.0000001
 44
0.0000000001
 12
1.270467821
 22
-0.0003444882
 32
0.0
 13
-1.2704652779
 23
-0.0025652649
 33
0.0
 40
0.0
 40
0.0
 40
0.0
 40
0.0
 40
0.0312171103
 40
0.062485296
 40
0.0781258376
 40
0.0937608531
 40
0.1250093382
 40
0.1562513047
 40
0.1874963095
 40
0.2187436467
 40
0.234371777
 40
0.2499998605
 40
0.2812473734
 40
0.3124957628
 40
0.3281255629
 40
0.3437560293
 40
0.375008088
 40
0.3906385091
 40
0.4062689109
 40
0.4375201021
 40
0.4687688398
 40
0.5000156222
 40
0.5312615882
 40
0.5625075081
 40
0.5937550536
 40
0.6250031822
 40
0.6406325405
 40
0.6562622313
 40
0.6875115682
 40
0.7187588204
 40
0.7500058506
 40
0.7656341007
 40
0.781262731
 40
0.8125117526
 40
0.8437580231
 40
0.8749989648
 40
0.9062446209
 40
0.9218779763
 40
0.9375170014
 40
0.9687833475
 40
1.0
 40
1.0
 40
1.0
 40
1.0
 10
11.4783303777
 20
8.5443121956
 30
0.0
 10
11.4915504891
 20
8.544308611
 30
0.0
 10
11.518028706
 20
8.5429911757
 30
0.0
 10
11.550809239
 20
8.5381231333
 30
0.0
 10
11.5766611054
 20
8.5323151267
 30
0.0
 10
11.6021860671
 20
8.5252395914
 30
0.0
 10
11.6333858984
 20
8.5140582599
 30
0.0
 10
11.6693206013
 20
8.4970444601
 30
0.0
 10
11.703407879
 20
8.476580567
 30
0.0
 10
11.7300198537
 20
8.4568295945
 30
0.0
 10
11.7500626711
 20
8.4395259821
 30
0.0
 10
11.7692288002
 20
8.4212558154
 30
0.0
 10
11.7914728333
 20
8.3966891621
 30
0.0
 10
11.811206013
 20
8.3700622416
 30
0.0
 10
11.8253589097
 20
8.3476801891
 30
0.0
 10
11.8383993978
 20
8.3246319338
 30
0.0
 10
11.8497331835
 20
8.3006512627
 30
0.0
 10
11.8592544647
 20
8.2759399958
 30
0.0
 10
11.8675474541
 20
8.2507893999
 30
0.0
 10
11.8755881337
 20
8.2186348593
 30
0.0
 10
11.8814160151
 20
8.1793009113
 30
0.0
 10
11.8833480926
 20
8.1395852764
 30
0.0
 10
11.8813964671
 20
8.0998725108
 30
0.0
 10
11.87555291
 20
8.0605421855
 30
0.0
 10
11.8658914017
 20
8.0219734665
 30
0.0
 10
11.8547318498
 20
7.990765729
 30
0.0
 10
11.8440000472
 20
7.9665575176
 30
0.0
 10
11.8320974948
 20
7.9429026656
 30
0.0
 10
11.815072577
 20
7.9144657881
 30
0.0
 10
11.7913968249
 20
7.8825228712
 30
0.0
 10
11.7691532166
 20
7.8579546491
 30
0.0
 10
11.7499897871
 20
7.839681892
 30
0.0
 10
11.7299499751
 20
7.8223732246
 30
0.0
 10
11.7033429256
 20
7.8026135007
 30
0.0
 10
11.669265481
 20
7.7821321988
 30
0.0
 10
11.6333440163
 20
7.7650935257
 30
0.0
 10
11.6021562795
 20
7.7538861043
 30
0.0
 10
11.5766412905
 20
7.7467843876
 30
0.0
 10
11.5507984372
 20
7.7409462451
 30
0.0
 10
11.5180263698
 20
7.7360341886
 30
0.0
 10
11.4915515495
 20
7.7346742757
 30
0.0
 10
11.4783316584
 20
7.7346475827
 30
0.0
 11
11.4783303777
 21
8.5443121956
 31
0.0
 11
11.5179421088
 21
8.5423492948
 31
0.0
 11
11.5572362071
 21
8.5365125702
 31
0.0
 11
11.5766235131
 21
8.5321558189
 31
0.0
 11
11.5957656508
 21
8.526850302
 31
0.0
 11
11.6331386051
 21
8.5134574731
 31
0.0
 11
11.6690116482
 21
8.4964700409
 31
0.0
 11
11.7030476411
 21
8.4760419789
 31
0.0
 11
11.7349242804
 21
8.4523804141
 31
0.0
 11
11.7499530775
 21
8.4394051387
 31
0.0
 11
11.7643250908
 21
8.4257060373
 31
0.0
 11
11.7909703668
 21
8.3962775345
 31
0.0
 11
11.8146059325
 21
8.364379949
 31
0.0
 11
11.8252195916
 21
8.3475973092
 31
0.0
 11
11.8349983462
 21
8.3303138971
 31
0.0
 11
11.8519614105
 21
8.2944151432
 31
0.0
 11
11.8591009239
 21
8.2758850206
 31
0.0
 11
11.8653201376
 21
8.2570261104
 31
0.0
 11
11.8749516584
 21
8.2185084212
 31
0.0
 11
11.8807668371
 21
8.1792361058
 31
0.0
 11
11.8827008152
 21
8.1395852098
 31
0.0
 11
11.8807478236
 21
8.0999362841
 31
0.0
 11
11.8749167512
 21
8.0606699447
 31
0.0
 11
11.8652700028
 21
8.0221608413
 31
0.0
 11
11.8518999566
 21
7.9847802115
 31
0.0
 11
11.8438537669
 21
7.9666268841
 31
0.0
 11
11.8349284109
 21
7.9488888103
 31
0.0
 11
11.8145308166
 21
7.9148281341
 31
0.0
 11
11.7908941764
 21
7.8829331432
 31
0.0
 11
11.7642506208
 21
7.85350391
 31
0.0
 11
11.749880421
 21
7.8398025993
 31
0.0
 11
11.7348539339
 21
7.8268236773
 31
0.0
 11
11.7029830592
 21
7.8031507594
 31
0.0
 11
11.6689559574
 21
7.7827047687
 31
0.0
 11
11.633095969
 21
7.7656928328
 31
0.0
 11
11.5957381909
 21
7.7522683538
 31
0.0
 11
11.5766036875
 21
7.7469432301
 31
0.0
 11
11.5572234212
 21
7.7425640034
 31
0.0
 11
11.5179395938
 21
7.7366742892
 31
0.0
 11
11.4783316584
 21
7.7346475827
 31
0.0
  0
LINE
  5
2F3
100
AcDbEntity
  8
0
100
AcDbLine
 62
6
  6
CONTINUOUS
 10
11.4783316584
 20
7.7346475827
 11
11.4778713006
 21
7.734646917
  0
LINE
  5
2F4
100
AcDbEntity
  8
0
100
AcDbLine
 62
6
  6
CONTINUOUS
 10
11.4778713006
 20
8.5420888146
 11
11.4783305164
 21
8.542088954
  0
SPLINE
  5
2F5
100
AcDbEntity
  8
0
100
AcDbSpline
 62
6
  6
CONTINUOUS
 70
0
 71
3
 72
45
 73
41
 74
39
 42
0.0000001
 43
0.0000001
 44
0.0000000001
 12
1.2634666144
 22
-0.0003448235
 32
0.0
 13
-1.2634640112
 23
-0.0025878493
 33
0.0
 40
0.0
 40
0.0
 40
0.0
 40
0.0
 40
0.0312172384
 40
0.0624857239
 40
0.0781267191
 40
0.0937624791
 40
0.125013141
 40
0.1562578327
 40
0.1875058602
 40
0.2187558402
 40
0.2343847084
 40
0.2500129052
 40
0.2812590182
 40
0.3125040401
 40
0.3437497398
 40
0.3593776315
 40
0.3750054754
 40
0.406251944
 40
0.4374992979
 40
0.4687455344
 40
0.4999916596
 40
0.5312382606
 40
0.5624862069
 40
0.5937360289
 40
0.6093655759
 40
0.6249950491
 40
0.6562449178
 40
0.6874932072
 40
0.718738959
 40
0.7499846468
 40
0.7656125759
 40
0.7812413097
 40
0.8124913179
 40
0.8437394849
 40
0.8749844574
 40
0.9062357378
 40
0.9218719338
 40
0.9375133737
 40
0.9687824712
 40
1.0
 40
1.0
 40
1.0
 40
1.0
 10
11.4783305164
 20
8.542088954
 30
0.0
 10
11.4914778293
 20
8.5420853659
 30
0.0
 10
11.5178103124
 20
8.5407752252
 30
0.0
 10
11.5504105675
 20
8.5359339098
 30
0.0
 10
11.5761205633
 20
8.5301576663
 30
0.0
 10
11.6015061996
 20
8.5231206088
 30
0.0
 10
11.6325362278
 20
8.511999806
 30
0.0
 10
11.6682759358
 20
8.4950783209
 30
0.0
 10
11.7021776835
 20
8.474724056
 30
0.0
 10
11.7286442191
 20
8.4550791557
 30
0.0
 10
11.7485779356
 20
8.4378701449
 30
0.0
 10
11.7676379168
 20
8.4197007089
 30
0.0
 10
11.7897575392
 20
8.3952682486
 30
0.0
 10
11.8132991604
 20
8.363502138
 30
0.0
 10
11.8302238819
 20
8.335221747
 30
0.0
 10
11.8420535009
 20
8.3116968185
 30
0.0
 10
11.8527183362
 20
8.2876208247
 30
0.0
 10
11.8638059838
 20
8.2565828031
 30
0.0
 10
11.8734003207
 20
8.2182237648
 30
0.0
 10
11.8791966312
 20
8.1791077896
 30
0.0
 10
11.8811213266
 20
8.139612937
 30
0.0
 10
11.879183785
 20
8.1001173088
 30
0.0
 10
11.8733732607
 20
8.0610033808
 30
0.0
 10
11.8653662334
 20
8.0290299729
 30
0.0
 10
11.8571116608
 20
8.0040219844
 30
0.0
 10
11.8476361519
 20
7.9794505004
 30
0.0
 10
11.8335461762
 20
7.949653026
 30
0.0
 10
11.8132358319
 20
7.9157245545
 30
0.0
 10
11.7896918902
 20
7.8839564591
 30
0.0
 10
11.7675748978
 20
7.8595223847
 30
0.0
 10
11.7485183355
 20
7.8413498149
 30
0.0
 10
11.7285890297
 20
7.8241360118
 30
0.0
 10
11.7021303472
 20
7.8044808461
 30
0.0
 10
11.6682398421
 20
7.7841078962
 30
0.0
 10
11.6325123202
 20
7.7671602668
 30
0.0
 10
11.601492465
 20
7.7560101724
 30
0.0
 10
11.5761139455
 20
7.7489452769
 30
0.0
 10
11.5504103518
 20
7.7431379732
 30
0.0
 10
11.5178165876
 20
7.7382511929
 30
0.0
 10
11.491486167
 20
7.7368977714
 30
0.0
 10
11.4783387589
 20
7.7368708427
 30
0.0
 11
11.4783305164
 21
8.542088954
 31
0.0
 11
11.5177241197
 21
8.5401368644
 31
0.0
 11
11.5568020459
 21
8.5343321977
 31
0.0
 11
11.5760830563
 21
8.5299992566
 31
0.0
 11
11.5951205854
 21
8.5247226248
 31
0.0
 11
11.6322900885
 21
8.5114024265
 31
0.0
 11
11.6679684251
 21
8.4945068558
 31
0.0
 11
11.7018194598
 21
8.4741882865
 31
0.0
 11
11.7335223663
 21
8.450654113
 31
0.0
 11
11.7484690631
 21
8.4377497477
 31
0.0
 11
11.7627617733
 21
8.4241258228
 31
0.0
 11
11.7892578107
 21
8.3948597023
 31
0.0
 11
11.8127601483
 21
8.3631409839
 31
0.0
 11
11.8330371724
 21
8.3292684749
 31
0.0
 11
11.8419078718
 21
8.3116279431
 31
0.0
 11
11.8499037558
 21
8.2935741035
 31
0.0
 11
11.8631875384
 21
8.2563971966
 31
0.0
 11
11.8727674094
 21
8.2180971226
 31
0.0
 11
11.8785513773
 21
8.1790445446
 31
0.0
 11
11.8804776255
 21
8.1396131283
 31
0.0
 11
11.8785383738
 21
8.1001817474
 31
0.0
 11
11.8727405584
 21
8.0611290389
 31
0.0
 11
11.8631494331
 21
8.0228285669
 31
0.0
 11
11.8569590117
 21
8.0040765286
 31
0.0
 11
11.8498541358
 21
7.9856516183
 31
0.0
 11
11.8329785024
 21
7.9499566116
 31
0.0
 11
11.8126961468
 21
7.9160834809
 31
0.0
 11
11.7891926444
 21
7.884364478
 31
0.0
 11
11.7626996837
 21
7.8550962968
 31
0.0
 11
11.7484096466
 21
7.8414700583
 31
0.0
 11
11.7334663246
 21
7.8285620448
 31
0.0
 11
11.7017724898
 21
7.805015596
 31
0.0
 11
11.6679325784
 21
7.7846781645
 31
0.0
 11
11.6322663511
 21
7.7677562182
 31
0.0
 11
11.5951086344
 21
7.754400866
 31
0.0
 11
11.5760763513
 21
7.7491032887
 31
0.0
 11
11.5568000307
 21
7.7447469814
 31
0.0
 11
11.5177294628
 21
7.7388877753
 31
0.0
 11
11.4783387589
 21
7.7368708427
 31
0.0
  0
LINE
  5
2F6
100
AcDbEntity
  8
0
100
AcDbLine
 62
6
  6
CONTINUOUS
 10
11.4783387589
 20
7.7368708427
 11
11.4778713006
 21
7.7368701588
  0
ENDSEC
  0
SECTION
  2
OBJECTS
  0
DICTIONARY
  5
C
100
AcDbDictionary
280
0
281
1
  3
ACAD_GROUP
350
D
  3
ACAD_MLINESTYLE
350
17
  3
ACAD_LAYOUT
350
1A
  3
ACAD_PLOTSETTINGS
350
19
  3
ACAD_PLOTSTYLENAME
350
E
  0
DICTIONARY
  5
D
102
{ACAD_REACTORS
330
C
102
}
100
AcDbDictionary
280
0
281
1
  0
ACDBDICTIONARYWDFLT
  5
E
102
{ACAD_REACTORS
330
C
102
}
100
AcDbDictionary
281
1
  3
Normal
350
F
100
AcDbDictionaryWithDefault
340
F
  0
DICTIONARY
  5
17
102
{ACAD_REACTORS
330
C
102
}
100
AcDbDictionary
280
0
281
1
  3
Standard
350
18
  0
DICTIONARY
  5
19
102
{ACAD_REACTORS
330
C
102
}
100
AcDbDictionary
281
1
  0
DICTIONARY
  5
1A
102
{ACAD_REACTORS
330
C
102
}
100
AcDbDictionary
281
1
  3
Model
350
2F7
  3
Layout1
350
2F8
  0
ACDBPLACEHOLDER
  5
F
102
{ACAD_REACTORS
330
E
102
}
  0
MLINESTYLE
  5
18
102
{ACAD_REACTORS
330
17
102
}
100
AcDbMlineStyle
  2
STANDARD
 70
0
  3

 62
256
 51
90.0
 52
90.0
 71
2
 49
0.5
 62
256
  6
BYLAYER
 49
-0.5
 62
256
  6
BYLAYER
  0
LAYOUT
  5
2F7
102
{ACAD_REACTORS
330
1A
102
}
100
AcDbPlotSettings
  1

  2
none_device
  4
ISO_A2_(594.00_x_420.00_MM)
  6

 40
0.0
 41
0.0
 42
0.0
 43
0.0
 44
594.0
 45
420.0
 46
0.0
 47
0.0
 48
0.0
 49
0.0
140
0.0
141
0.0
142
1.0
143
1.0
 70
1024
 72
0
 73
0
 74
0
  7

 75
0
147
1.0
148
0.0
149
0.0
100
AcDbLayout
  1
Model
 70
0
 71
0
 10
0.0
 20
0.0
 11
23.3858267717
 21
16.5354330709
 12
0.0
 22
0.0
 32
0.0
 14
0.0
 24
0.0
 34
0.0
 15
0.0
 25
0.0
 35
0.0
146
0.0
 13
0.0
 23
0.0
 33
0.0
 16
1.0
 26
0.0
 36
0.0
 17
0.0
 27
1.0
 37
0.0
 76
0
330
203
345
0
346
0
  0
LAYOUT
  5
2F8
102
{ACAD_REACTORS
330
1A
102
}
100
AcDbPlotSettings
  1

  2
none_device
  4
ISO_A2_(594.00_x_420.00_MM)
  6

 40
0.0
 41
0.0
 42
0.0
 43
0.0
 44
594.0
 45
420.0
 46
0.0
 47
0.0
 48
0.0
 49
0.0
140
0.0
141
0.0
142
1.0
143
1.0
 70
0
 72
0
 73
0
 74
0
  7

 75
0
147
1.0
148
0.0
149
0.0
100
AcDbLayout
  1
Layout1
 70
0
 71
1
 10
0.0
 20
0.0
 11
23.3858267717
 21
16.5354330709
 12
0.0
 22
0.0
 32
0.0
 14
0.0
 24
0.0
 34
0.0
 15
0.0
 25
0.0
 35
0.0
146
0.0
 13
0.0
 23
0.0
 33
0.0
 16
1.0
 26
0.0
 36
0.0
 17
0.0
 27
1.0
 37
0.0
 76
0
330
204
345
0
346
0
  0
ENDSEC
  0
EOF
