  0
SECTION
  2
HEADER
  9
$ACADVER
  1
AC1015
  9
$DWGCODEPAGE
  3
ANSI_1252
  9
$EXTMAX
 10
11.0
 20
8.5
 30
0.0
  9
$EXTMIN
 10
0.0
 20
0.0
 30
0.0
  9
$LIMMIN
 10
0.0
 20
0.0
  9
$LIMMAX
 10
11.0
 20
8.5
  9
$VIEWCTR
 10
5.5
 20
4.25
  9
$VIEWSIZE
 40
8.5
  9
$CLAYER
  8
0
  9
$LTSCALE
 40
0.605
  9
$CELTYPE
  6
BYLAYER
  9
$DIMSCALE
 40
1.0
  9
$DIMASZ
 40
0.1
  9
$DIMEXO
 40
0.06875
  9
$DIMDLI
 40
0.418
  9
$DIMEXE
 40
0.198
  9
$DIMCEN
 40
0.099
  9
$DIMLFAC
 40
1.0
  9
$DIMBLK
  1
_FILLED
  9
$DIMTXT
 40
0.08
  9
$DIMTOL
 70
1
  9
$DIMLIM
 70
0
  9
$DIMTFAC
 40
1.0
  9
$DIMTP
 40
0.01
  9
$DIMTM
 40
0.01
  9
$PDMODE
 70
3
  9
$PDSIZE
 40
0.06
  9
$HANDSEED
  5
384
  9
$TILEMODE
 70
1
  9
$MEASUREMENT
 70
0
  9
$INSUNITS
 70
1
  0
ENDSEC
  0
SECTION
  2
CLASSES
  0
CLASS
  1
ACDBDICTIONARYWDFLT
  2
AcDbDictionaryWithDefault
  3
AutoCAD 2000
 90
0
280
0
281
0
  0
CLASS
  1
ACDBPLACEHOLDER
  2
AcDbPlaceHolder
  3
AutoCAD 2000
 90
0
280
0
281
0
  0
CLASS
  1
LAYOUT
  2
AcDbLayout
  3
AutoCAD 2000
 90
0
280
0
281
0
  0
ENDSEC
  0
SECTION
  2
TABLES
  0
TABLE
  2
VPORT
  5
8
100
AcDbSymbolTable
 70
2
  0
VPORT
  5
1F4
100
AcDbSymbolTableRecord
100
AcDbViewportTableRecord
  2
*ACTIVE
 70
0
 10
0.0
 20
0.0
 11
1.0
 21
1.0
 12
5.5
 22
4.25
 13
0.0
 23
0.0
 14
1.0
 24
1.0
 15
0.0
 25
0.0
 16
0.0
 26
0.0
 36
1.0
 17
0.0
 27
0.0
 37
0.0
 40
8.5
 41
1.2941176471
 42
50.0
 43
0.0
 44
0.0
 50
0.0
 51
0.0
 71
0
 72
100
 73
1
 74
1
 75
0
 76
0
 77
0
 78
0
  0
ENDTAB
  0
TABLE
  2
LTYPE
  5
5
100
AcDbSymbolTable
 70
6
  0
LTYPE
  5
14
100
AcDbSymbolTableRecord
100
AcDbLinetypeTableRecord
  2
BYBLOCK
 70
0
  3

 72
65
 73
0
 40
0.0
  0
LTYPE
  5
15
100
AcDbSymbolTableRecord
100
AcDbLinetypeTableRecord
  2
BYLAYER
 70
0
  3

 72
65
 73
0
 40
0.0
  0
LTYPE
  5
16
100
AcDbSymbolTableRecord
100
AcDbLinetypeTableRecord
  2
CONTINUOUS
 70
64
  3
Solid line
 72
65
 73
0
 40
0.0
  0
LTYPE
  5
1F5
100
AcDbSymbolTableRecord
100
AcDbLinetypeTableRecord
  2
CENTER
 70
64
  3
____ _ ____ _ ____ _ ____ _ ____ _ ____ _ ____
 72
65
 73
4
 40
0.6
 49
0.375
 74
0
 49
-0.075
 74
0
 49
0.075
 74
0
 49
-0.075
 74
0
  0
LTYPE
  5
1F6
100
AcDbSymbolTableRecord
100
AcDbLinetypeTableRecord
  2
HIDDEN
 70
64
  3
- - - - - - - - - - - - - - - - - - - -
 72
65
 73
2
 40
0.2
 49
0.1
 74
0
 49
-0.1
 74
0
  0
LTYPE
  5
1F7
100
AcDbSymbolTableRecord
100
AcDbLinetypeTableRecord
  2
PHANTOM
 70
64
  3
_____ _ _ _____ _ _ _____ _ _ _____
 72
65
 73
6
 40
0.8
 49
0.45
 74
0
 49
-0.05
 74
0
 49
0.1
 74
0
 49
-0.05
 74
0
 49
0.1
 74
0
 49
-0.05
 74
0
  0
LTYPE
  5
1F8
100
AcDbSymbolTableRecord
100
AcDbLinetypeTableRecord
  2
DOT
 70
64
  3
. . . . . . . . . . . . . . . . . . . .
 72
65
 73
2
 40
0.2
 49
0.1
 74
0
 49
-0.1
 74
0
  0
LTYPE
  5
1F9
100
AcDbSymbolTableRecord
100
AcDbLinetypeTableRecord
  2
DASHED
 70
64
  3
- - - - - - - - - - - - - - - - - - - -
 72
65
 73
2
 40
0.2
 49
0.1
 74
0
 49
-0.1
 74
0
  0
ENDTAB
  0
TABLE
  2
LAYER
  5
2
100
AcDbSymbolTable
 70
36
  0
LAYER
  5
10
100
AcDbSymbolTableRecord
100
AcDbLayerTableRecord
  2
0
 70
0
 62
7
  6
CONTINUOUS
370
-3
390
F
  0
LAYER
  5
1FA
100
AcDbSymbolTableRecord
100
AcDbLayerTableRecord
  2
DEFAULT_1
 70
0
 62
7
  6
CENTER
370
-3
390
F
  0
LAYER
  5
1FB
100
AcDbSymbolTableRecord
100
AcDbLayerTableRecord
  2
DEFAULT_2
 70
0
 62
8
  6
HIDDEN
370
-3
390
F
  0
LAYER
  5
1FC
100
AcDbSymbolTableRecord
100
AcDbLayerTableRecord
  2
DEFAULT_3
 70
0
 62
7
  6
PHANTOM
370
-3
390
F
  0
LAYER
  5
1FD
100
AcDbSymbolTableRecord
100
AcDbLayerTableRecord
  2
DEFAULT_COORDINATE_SYSTEM
 70
0
 62
7
  6
CONTINUOUS
370
-3
390
F
  0
LAYER
  5
1FE
100
AcDbSymbolTableRecord
100
AcDbLayerTableRecord
  2
DEFAULT_DATUM_AXES
 70
0
 62
7
  6
CONTINUOUS
370
-3
390
F
  0
LAYER
  5
1FF
100
AcDbSymbolTableRecord
100
AcDbLayerTableRecord
  2
DEFAULT_DATUM_CURVES
 70
0
 62
7
  6
CONTINUOUS
370
-3
390
F
  0
LAYER
  5
200
100
AcDbSymbolTableRecord
100
AcDbLayerTableRecord
  2
DEFAULT_DATUM_PLANES
 70
0
 62
7
  6
CONTINUOUS
370
-3
390
F
  0
ENDTAB
  0
TABLE
  2
STYLE
  5
3
100
AcDbSymbolTable
 70
1
  0
STYLE
  5
11
100
AcDbSymbolTableRecord
100
AcDbTextStyleTableRecord
  2
STANDARD
 70
0
 40
0.0
 41
0.8
 50
0.0
 71
0
 42
0.2
  3
txt
  4

  0
STYLE
  5
201
100
AcDbSymbolTableRecord
100
AcDbTextStyleTableRecord
  2
TEXTSTYLE_1
 70
0
 40
0.0
 41
0.8
 50
0.0
 71
0
 42
0.2
  3
gdt
  4

  0
ENDTAB
  0
TABLE
  2
VIEW
  5
6
100
AcDbSymbolTable
 70
0
  0
ENDTAB
  0
TABLE
  2
UCS
  5
7
100
AcDbSymbolTable
 70
0
  0
ENDTAB
  0
TABLE
  2
APPID
  5
9
100
AcDbSymbolTable
 70
1
  0
APPID
  5
202
100
AcDbSymbolTableRecord
100
AcDbRegAppTableRecord
  2
ACAD
 70
0
  0
ENDTAB
  0
TABLE
  2
BLOCK_RECORD
  5
1
100
AcDbSymbolTable
 70
0
  0
BLOCK_RECORD
  5
203
100
AcDbSymbolTableRecord
100
AcDbBlockTableRecord
  2
*Model_Space
  0
BLOCK_RECORD
  5
204
100
AcDbSymbolTableRecord
100
AcDbBlockTableRecord
  2
*Paper_Space
  0
ENDTAB
  0
TABLE
  2
DIMSTYLE
  5
A
100
AcDbSymbolTable
 70
1
100
AcDbDimStyleTable
 71
0
  0
DIMSTYLE
105
205
100
AcDbSymbolTableRecord
100
AcDbDimStyleTableRecord
  2
STANDARD
 70
0
  3

  4

 40
1.0
 41
0.1
 42
0.0625
 43
0.38
 44
0.18
 45
0.0
 46
0.0
 47
0.01
 48
0.01
140
0.08
141
0.09
142
0.0
143
25.4
144
1.0
145
0.0
146
1.0
147
0.09
 71
1.0
 72
0.0
 73
1
 74
1
 75
0
 76
0
 77
0
 78
4
170
0
171
2
172
0
173
0
174
0
175
0
176
0
177
0
178
0
270
2
271
2
272
2
273
2
274
2
275
0
280
0
281
0
282
0
283
1
284
4
285
0
286
0
287
3
288
0
340
11
  0
ENDTAB
  0
ENDSEC
  0
SECTION
  2
BLOCKS
  0
BLOCK
  5
20
100
AcDbEntity
  8
0
100
AcDbBlockBegin
  2
*Model_Space
 70
0
 10
0.0
 20
0.0
 30
0.0
  3
*Model_Space
  1

  0
ENDBLK
  5
21
100
AcDbEntity
  8
0
100
AcDbBlockEnd
  0
BLOCK
  5
1C
100
AcDbEntity
  8
0
100
AcDbBlockBegin
  2
*Paper_Space
 70
0
 10
0.0
 20
0.0
 30
0.0
  3
*Paper_Space
  1

  0
ENDBLK
  5
1D
100
AcDbEntity
  8
0
100
AcDbBlockEnd
  0
ENDSEC
  0
SECTION
  2
ENTITIES
  0
LINE
  5
206
100
AcDbEntity
  8
0
100
AcDbLine
 62
6
  6
CONTINUOUS
 10
2.9196240465
 20
4.6049580107
 11
2.9196240465
 21
4.5856946801
  0
LINE
  5
207
100
AcDbEntity
  8
0
100
AcDbLine
 62
7
  6
CONTINUOUS
 10
2.9236140465
 20
4.5899210372
 11
2.9236140465
 21
4.5828858128
  0
LINE
  5
208
100
AcDbEntity
  8
0
100
AcDbLine
 62
6
  6
CONTINUOUS
 10
2.9491483922
 20
4.5278769584
 11
2.946053757
 21
4.5043708704
  0
LINE
  5
209
100
AcDbEntity
  8
0
100
AcDbLine
 62
6
  6
CONTINUOUS
 10
2.8910165931
 20
4.2276803628
 11
2.8848802728
 21
4.2047793035
  0
LINE
  5
20A
100
AcDbEntity
  8
0
100
AcDbLine
 62
6
  6
CONTINUOUS
 10
2.8848802728
 20
4.4950127709
 11
2.8910165931
 21
4.4721117116
  0
LINE
  5
20B
100
AcDbEntity
  8
0
100
AcDbLine
 62
6
  6
CONTINUOUS
 10
2.946053757
 20
4.195421204
 11
2.9491483922
 21
4.1719151159
  0
LINE
  5
20C
100
AcDbEntity
  8
0
100
AcDbLine
 62
7
  6
CONTINUOUS
 10
3.0755740465
 20
4.5829053785
 11
3.0755740465
 21
4.5899210372
  0
LINE
  5
20D
100
AcDbEntity
  8
0
100
AcDbLine
 62
6
  6
CONTINUOUS
 10
3.0796240465
 20
4.5856946801
 11
3.0796240465
 21
4.6037781118
  0
LINE
  5
20E
100
AcDbEntity
  8
0
100
AcDbLine
 62
6
  6
CONTINUOUS
 10
3.0976240465
 20
4.1252679988
 11
3.0976240465
 21
4.1882884879
  0
LINE
  5
20F
100
AcDbEntity
  8
0
100
AcDbLine
 62
6
  6
CONTINUOUS
 10
3.0976240465
 20
4.5115035865
 11
3.0976240465
 21
4.5745240756
  0
LINE
  5
210
100
AcDbEntity
  8
0
100
AcDbLine
 62
7
  6
CONTINUOUS
 10
3.0981240465
 20
4.1254868002
 11
3.0981240465
 21
4.1885927514
  0
LINE
  5
211
100
AcDbEntity
  8
0
100
AcDbLine
 62
6
  6
CONTINUOUS
 10
3.0500997008
 20
4.1719151159
 11
3.053194336
 21
4.195421204
  0
LINE
  5
212
100
AcDbEntity
  8
0
100
AcDbLine
 62
6
  6
CONTINUOUS
 10
3.1082314999
 20
4.4721117116
 11
3.1143678202
 21
4.4950127709
  0
LINE
  5
213
100
AcDbEntity
  8
0
100
AcDbLine
 62
6
  6
CONTINUOUS
 10
2.796268579
 20
4.2131177149
 11
2.8141521076
 21
4.2467517404
  0
LINE
  5
214
100
AcDbEntity
  8
0
100
AcDbLine
 62
7
  6
CONTINUOUS
 10
2.796268579
 20
4.4866743595
 11
2.8141521076
 21
4.453040334
  0
LINE
  5
215
100
AcDbEntity
  8
0
100
AcDbLine
 62
6
  6
CONTINUOUS
 10
3.1143678202
 20
4.2047793035
 11
3.1082314999
 21
4.2276803628
  0
LINE
  5
216
100
AcDbEntity
  8
0
100
AcDbLine
 62
6
  6
CONTINUOUS
 10
3.053194336
 20
4.5043708704
 11
3.0500997008
 21
4.5278769584
  0
LINE
  5
217
100
AcDbEntity
  8
0
100
AcDbLine
 62
7
  6
CONTINUOUS
 10
3.2596490465
 20
4.3148960372
 11
3.2596490465
 21
4.3848960372
  0
LINE
  5
218
100
AcDbEntity
  8
0
100
AcDbLine
 62
6
  6
CONTINUOUS
 10
3.2706240465
 20
4.3123960372
 11
3.2706240465
 21
4.3873960372
  0
LINE
  5
219
100
AcDbEntity
  8
0
100
AcDbLine
 62
6
  6
CONTINUOUS
 10
3.0211009725
 20
4.5336451641
 11
3.0092465119
 21
4.5131126361
  0
LINE
  5
21A
100
AcDbEntity
  8
0
100
AcDbLine
 62
6
  6
CONTINUOUS
 10
2.9781471206
 20
4.1661469102
 11
2.9900015811
 21
4.1866794383
  0
LINE
  5
21B
100
AcDbEntity
  8
0
100
AcDbLine
 62
6
  6
CONTINUOUS
 10
3.0092465119
 20
4.1866794383
 11
3.0211009725
 21
4.1661469102
  0
LINE
  5
21C
100
AcDbEntity
  8
0
100
AcDbLine
 62
6
  6
CONTINUOUS
 10
2.9900015811
 20
4.5131126361
 11
2.9781471206
 21
4.5336451641
  0
LINE
  5
21D
100
AcDbEntity
  8
0
100
AcDbLine
 62
6
  6
CONTINUOUS
 10
2.8525139295
 20
4.2785457501
 11
2.8380808527
 21
4.2597361983
  0
LINE
  5
21E
100
AcDbEntity
  8
0
100
AcDbLine
 62
6
  6
CONTINUOUS
 10
3.1467341635
 20
4.4212463243
 11
3.1611672403
 21
4.4400558761
  0
LINE
  5
21F
100
AcDbEntity
  8
0
100
AcDbLine
 62
6
  6
CONTINUOUS
 10
2.8380808527
 20
4.4400558761
 11
2.8525139295
 21
4.4212463243
  0
LINE
  5
220
100
AcDbEntity
  8
0
100
AcDbLine
 62
6
  6
CONTINUOUS
 10
3.1611672403
 20
4.2597361983
 11
3.1467341635
 21
4.2785457501
  0
LINE
  5
221
100
AcDbEntity
  8
0
100
AcDbLine
 62
6
  6
CONTINUOUS
 10
4.1525725011
 20
4.6623960372
 11
4.1270541538
 21
4.5998891071
  0
LINE
  5
222
100
AcDbEntity
  8
0
100
AcDbLine
 62
6
  6
CONTINUOUS
 10
4.0251679551
 20
4.3503199086
 11
4.0249949103
 21
4.3498960372
  0
LINE
  5
223
100
AcDbEntity
  8
0
100
AcDbLine
 62
6
  6
CONTINUOUS
 10
3.0897838854
 20
4.5114392309
 11
3.0709743336
 21
4.4970061542
  0
LINE
  5
224
100
AcDbEntity
  8
0
100
AcDbLine
 62
6
  6
CONTINUOUS
 10
2.9094642076
 20
4.1883528434
 11
2.9282737594
 21
4.2027859202
  0
LINE
  5
225
100
AcDbEntity
  8
0
100
AcDbLine
 62
6
  6
CONTINUOUS
 10
3.0709743336
 20
4.2027859202
 11
3.0897838854
 21
4.1883528434
  0
LINE
  5
226
100
AcDbEntity
  8
0
100
AcDbLine
 62
6
  6
CONTINUOUS
 10
2.9282737594
 20
4.4970061542
 11
2.9094642076
 21
4.5114392309
  0
LINE
  5
227
100
AcDbEntity
  8
0
100
AcDbLine
 62
6
  6
CONTINUOUS
 10
4.0249949103
 20
4.3498960372
 11
4.0251679551
 21
4.3494721658
  0
LINE
  5
228
100
AcDbEntity
  8
0
100
AcDbLine
 62
6
  6
CONTINUOUS
 10
4.1270541538
 20
4.0999029673
 11
4.1525725011
 21
4.0373960372
  0
LINE
  5
229
100
AcDbEntity
  8
0
100
AcDbLine
 62
6
  6
CONTINUOUS
 10
2.8364074476
 20
4.3402735718
 11
2.8158749196
 21
4.3284191112
  0
LINE
  5
22A
100
AcDbEntity
  8
0
100
AcDbLine
 62
6
  6
CONTINUOUS
 10
2.8158749196
 20
4.3713729631
 11
2.8364074476
 21
4.3595185026
  0
LINE
  5
22B
100
AcDbEntity
  8
0
100
AcDbLine
 62
6
  6
CONTINUOUS
 10
3.1628406454
 20
4.3595185026
 11
3.1833731734
 21
4.3713729631
  0
LINE
  5
22C
100
AcDbEntity
  8
0
100
AcDbLine
 62
6
  6
CONTINUOUS
 10
3.1833731734
 20
4.3284191112
 11
3.1628406454
 21
4.3402735718
  0
LINE
  5
22D
100
AcDbEntity
  8
0
100
AcDbLine
 62
6
  6
CONTINUOUS
 10
4.6838766462
 20
4.1184177635
 11
4.6829449673
 21
4.1309883501
  0
LINE
  5
22E
100
AcDbEntity
  8
0
100
AcDbLine
 62
9
  6
CONTINUOUS
 10
4.6896991848
 20
4.1188493181
 11
4.6882947547
 21
4.1377984516
  0
LINE
  5
22F
100
AcDbEntity
  8
0
100
AcDbLine
 62
9
  6
CONTINUOUS
 10
4.7998929574
 20
4.5809427563
 11
4.7998929574
 21
4.4744943873
  0
LINE
  5
230
100
AcDbEntity
  8
0
100
AcDbLine
 62
9
  6
CONTINUOUS
 10
4.7998929574
 20
4.2252976857
 11
4.7998929574
 21
4.1188493181
  0
LINE
  5
231
100
AcDbEntity
  8
0
100
AcDbLine
 62
9
  6
CONTINUOUS
 10
4.828138466
 20
4.5809427563
 11
4.828138466
 21
4.4744932767
  0
LINE
  5
232
100
AcDbEntity
  8
0
100
AcDbLine
 62
9
  6
CONTINUOUS
 10
4.828138466
 20
4.2252992313
 11
4.828138466
 21
4.1188493181
  0
LINE
  5
233
100
AcDbEntity
  8
0
100
AcDbLine
 62
6
  6
CONTINUOUS
 10
4.6829353433
 20
4.5686738745
 11
4.6838766475
 21
4.5813743283
  0
LINE
  5
234
100
AcDbEntity
  8
0
100
AcDbLine
 62
9
  6
CONTINUOUS
 10
4.6883083895
 20
4.562177588
 11
4.6896991848
 21
4.5809427563
  0
LINE
  5
235
100
AcDbEntity
  8
0
100
AcDbLine
 62
6
  6
CONTINUOUS
 10
4.4077276827
 20
4.0373960372
 11
4.5353052734
 21
4.3498960372
  0
LINE
  5
236
100
AcDbEntity
  8
0
100
AcDbLine
 62
6
  6
CONTINUOUS
 10
4.5353052734
 20
4.3498960372
 11
4.4077276827
 21
4.6623960372
  0
LINE
  5
237
100
AcDbEntity
  8
0
100
AcDbLine
 62
6
  6
CONTINUOUS
 10
3.1218397209
 20
4.2412885838
 11
3.1447407802
 21
4.2351522635
  0
LINE
  5
238
100
AcDbEntity
  8
0
100
AcDbLine
 62
6
  6
CONTINUOUS
 10
2.8216431253
 20
4.2994203829
 11
2.8451492133
 21
4.2963257477
  0
LINE
  5
239
100
AcDbEntity
  8
0
100
AcDbLine
 62
6
  6
CONTINUOUS
 10
2.8774083721
 20
4.4585034906
 11
2.8545073128
 21
4.4646398109
  0
LWPOLYLINE
  5
23A
100
AcDbEntity
  8
0
100
AcDbPolyline
 62
6
  6
CONTINUOUS
 90
25
 70
0
 10
8.8569553553
 20
4.0998976375
 10
8.8679946221
 20
4.1003509415
 10
8.8798735505
 20
4.1018428602
 10
8.8917292633
 20
4.1043818422
 10
8.9035087073
 20
4.1079735051
 10
8.9151588574
 20
4.1126122382
 10
8.9266287342
 20
4.1182879443
 10
8.9378658666
 20
4.1249889154
 10
8.948816014
 20
4.132696047
 10
8.9594251379
 20
4.1413786227
 10
8.9696233016
 20
4.1509861901
 10
8.9793585773
 20
4.1614756614
 10
8.9885859961
 20
4.1727951455
 10
8.9972662127
 20
4.184890415
 10
9.0053603019
 20
4.1977064802
 10
9.0128322109
 20
4.2111827183
 10
9.0196525259
 20
4.2252529239
 10
9.0257931011
 20
4.239850565
 10
9.0312286354
 20
4.2549117316
 10
9.0359411607
 20
4.2703697178
 10
9.0399148986
 20
4.2861569078
 10
9.0431336151
 20
4.3022055319
 10
9.0455857803
 20
4.318446406
 10
9.0472655208
 20
4.3348091475
 10
9.048123027
 20
4.349895542
  0
LINE
  5
23B
100
AcDbEntity
  8
0
100
AcDbLine
 62
9
  6
CONTINUOUS
 10
8.8569553558
 20
4.0998960377
 11
8.856952245
 21
4.0998960372
  0
LINE
  5
23C
100
AcDbEntity
  8
0
100
AcDbLine
 62
6
  6
CONTINUOUS
 10
4.1525725011
 20
4.0373960372
 11
4.536706115
 21
4.0373960372
  0
LINE
  5
23D
100
AcDbEntity
  8
0
100
AcDbLine
 62
9
  6
CONTINUOUS
 10
4.7038219391
 20
4.0998960372
 11
6.9818332147
 21
4.0998960372
  0
LINE
  5
23E
100
AcDbEntity
  8
0
100
AcDbLine
 62
6
  6
CONTINUOUS
 10
6.9818332147
 20
4.0998960372
 11
8.8569522451
 21
4.0998960372
  0
LINE
  5
23F
100
AcDbEntity
  8
0
100
AcDbLine
 62
6
  6
CONTINUOUS
 10
4.2956125163
 20
4.0999063047
 11
4.3088818413
 21
4.0999063047
  0
LINE
  5
240
100
AcDbEntity
  8
0
100
AcDbLine
 62
6
  6
CONTINUOUS
 10
3.7804765334
 20
4.099901522
 11
4.2800456363
 21
4.0999063481
  0
LINE
  5
241
100
AcDbEntity
  8
0
100
AcDbLine
 62
6
  6
CONTINUOUS
 10
4.2801601773
 20
4.0999063051
 11
4.282365337
 21
4.0999063047
  0
LINE
  5
242
100
AcDbEntity
  8
0
100
AcDbLine
 62
6
  6
CONTINUOUS
 10
3.5770623303
 20
4.0999013422
 11
3.7804765942
 21
4.099901522
  0
LINE
  5
243
100
AcDbEntity
  8
0
100
AcDbLine
 62
9
  6
CONTINUOUS
 10
4.6896991848
 20
4.1188493181
 11
4.7998929574
 21
4.1188493181
  0
LINE
  5
244
100
AcDbEntity
  8
0
100
AcDbLine
 62
9
  6
CONTINUOUS
 10
4.828138466
 20
4.1188493181
 11
6.9818332147
 21
4.1188493181
  0
LINE
  5
245
100
AcDbEntity
  8
0
100
AcDbLine
 62
9
  6
CONTINUOUS
 10
7.0495618178
 20
4.1188493181
 11
7.6889399959
 21
4.1188493181
  0
LINE
  5
246
100
AcDbEntity
  8
0
100
AcDbLine
 62
9
  6
CONTINUOUS
 10
7.756668599
 20
4.1188493181
 11
8.3960467771
 21
4.1188493181
  0
LINE
  5
247
100
AcDbEntity
  8
0
100
AcDbLine
 62
9
  6
CONTINUOUS
 10
8.4637753802
 20
4.1188493181
 11
8.8710749994
 21
4.1188493181
  0
LINE
  5
248
100
AcDbEntity
  8
0
100
AcDbLine
 62
6
  6
CONTINUOUS
 10
4.3498708899
 20
4.1188516324
 11
4.3587097247
 21
4.1188516324
  0
LINE
  5
249
100
AcDbEntity
  8
0
100
AcDbLine
 62
9
  6
CONTINUOUS
 10
4.3685384395
 20
4.1333896862
 11
4.394319719
 21
4.1333896862
  0
LINE
  5
24A
100
AcDbEntity
  8
0
100
AcDbLine
 62
9
  6
CONTINUOUS
 10
4.2801601773
 20
4.0999063051
 11
4.2800456363
 21
4.0999063481
  0
LINE
  5
24B
100
AcDbEntity
  8
0
100
AcDbLine
 62
6
  6
CONTINUOUS
 10
3.1776049677
 20
4.4003716915
 11
3.1540988797
 21
4.4034663267
  0
LINE
  5
24C
100
AcDbEntity
  8
0
100
AcDbLine
 62
6
  6
CONTINUOUS
 10
4.5626800465
 20
4.0464205022
 11
4.5367028475
 21
4.0373949019
  0
LINE
  5
24D
100
AcDbEntity
  8
0
100
AcDbLine
 62
9
  6
CONTINUOUS
 10
4.6838766472
 20
4.1184177644
 11
4.6896991848
 21
4.1188493181
  0
LINE
  5
24E
100
AcDbEntity
  8
0
100
AcDbLine
 62
6
  6
CONTINUOUS
 10
3.2418940405
 20
4.2923960372
 11
3.2506240465
 21
4.2923960372
  0
LINE
  5
24F
100
AcDbEntity
  8
0
100
AcDbLine
 62
7
  6
CONTINUOUS
 10
3.238447738
 20
4.2948960372
 11
3.2396490465
 21
4.2948960372
  0
LINE
  5
250
100
AcDbEntity
  8
0
100
AcDbLine
 62
6
  6
CONTINUOUS
 10
4.8326987587
 20
4.3498960372
 11
4.8133086049
 21
4.3498960372
  0
LINE
  5
251
100
AcDbEntity
  8
0
100
AcDbLine
 62
6
  6
CONTINUOUS
 10
4.6218353624
 20
4.3498960372
 11
4.5353052734
 21
4.3498960372
  0
LINE
  5
252
100
AcDbEntity
  8
0
100
AcDbLine
 62
7
  6
CONTINUOUS
 10
4.2210645702
 20
4.3498960372
 11
4.2160392893
 21
4.3498960372
  0
LINE
  5
253
100
AcDbEntity
  8
0
100
AcDbLine
 62
6
  6
CONTINUOUS
 10
4.144604793
 20
4.3498960372
 11
4.10558445
 21
4.3498960372
  0
LINE
  5
254
100
AcDbEntity
  8
0
100
AcDbLine
 62
9
  6
CONTINUOUS
 10
4.1033733966
 20
4.3498960372
 11
4.10558445
 21
4.3498960372
  0
LINE
  5
255
100
AcDbEntity
  8
0
100
AcDbLine
 62
9
  6
CONTINUOUS
 10
4.4569267872
 20
4.3498960372
 11
4.4740607229
 21
4.3498960372
  0
LINE
  5
256
100
AcDbEntity
  8
0
100
AcDbLine
 62
6
  6
CONTINUOUS
 10
5.4555880412
 20
4.3498960372
 11
6.5347289185
 21
4.3498960372
  0
LINE
  5
257
100
AcDbEntity
  8
0
100
AcDbLine
 62
6
  6
CONTINUOUS
 10
6.8066835434
 20
4.3498960372
 11
6.9818332147
 21
4.3498960372
  0
LINE
  5
258
100
AcDbEntity
  8
0
100
AcDbLine
 62
6
  6
CONTINUOUS
 10
7.0666860284
 20
4.3498960372
 11
7.2418356997
 21
4.3498960372
  0
LINE
  5
259
100
AcDbEntity
  8
0
100
AcDbLine
 62
6
  6
CONTINUOUS
 10
7.5137903246
 20
4.3498960372
 11
7.6889399959
 21
4.3498960372
  0
LINE
  5
25A
100
AcDbEntity
  8
0
100
AcDbLine
 62
6
  6
CONTINUOUS
 10
7.7737928096
 20
4.3498960372
 11
7.9489424809
 21
4.3498960372
  0
LINE
  5
25B
100
AcDbEntity
  8
0
100
AcDbLine
 62
6
  6
CONTINUOUS
 10
8.2208971058
 20
4.3498960372
 11
8.3960467771
 21
4.3498960372
  0
LINE
  5
25C
100
AcDbEntity
  8
0
100
AcDbLine
 62
6
  6
CONTINUOUS
 10
8.4808995908
 20
4.3498960372
 11
8.6560492621
 21
4.3498960372
  0
LINE
  5
25D
100
AcDbEntity
  8
0
100
AcDbLine
 62
6
  6
CONTINUOUS
 10
8.928003887
 20
4.3498960372
 11
9.0422699802
 21
4.3498960372
  0
LINE
  5
25E
100
AcDbEntity
  8
0
100
AcDbLine
 62
6
  6
CONTINUOUS
 10
2.8430820809
 20
4.451270901
 11
2.783811628
 21
4.4548960372
  0
LINE
  5
25F
100
AcDbEntity
  8
0
100
AcDbLine
 62
6
  6
CONTINUOUS
 10
4.5626800465
 20
4.6533715721
 11
4.5366980714
 21
4.6623988319
  0
LINE
  5
260
100
AcDbEntity
  8
0
100
AcDbLine
 62
6
  6
CONTINUOUS
 10
2.783811628
 20
4.2448960372
 11
2.8430820809
 21
4.2485211734
  0
LINE
  5
261
100
AcDbEntity
  8
0
100
AcDbLine
 62
7
  6
CONTINUOUS
 10
3.2396490465
 20
4.4048960372
 11
3.238447738
 21
4.4048960372
  0
LINE
  5
262
100
AcDbEntity
  8
0
100
AcDbLine
 62
6
  6
CONTINUOUS
 10
3.2506240465
 20
4.4073960372
 11
3.2418940405
 21
4.4073960372
  0
LINE
  5
263
100
AcDbEntity
  8
0
100
AcDbLine
 62
7
  6
CONTINUOUS
 10
2.7752148096
 20
4.4483960372
 11
2.7813482738
 21
4.4483960372
  0
LINE
  5
264
100
AcDbEntity
  8
0
100
AcDbLine
 62
9
  6
CONTINUOUS
 10
4.3685384395
 20
4.5664023881
 11
4.382534606
 21
4.5664023881
  0
LINE
  5
265
100
AcDbEntity
  8
0
100
AcDbLine
 62
9
  6
CONTINUOUS
 10
8.8710749994
 20
4.5809427563
 11
8.4637753802
 21
4.5809427563
  0
LINE
  5
266
100
AcDbEntity
  8
0
100
AcDbLine
 62
9
  6
CONTINUOUS
 10
8.3960467771
 20
4.5809427563
 11
7.756668599
 21
4.5809427563
  0
LINE
  5
267
100
AcDbEntity
  8
0
100
AcDbLine
 62
9
  6
CONTINUOUS
 10
7.6889399959
 20
4.5809427563
 11
7.0495618178
 21
4.5809427563
  0
LINE
  5
268
100
AcDbEntity
  8
0
100
AcDbLine
 62
9
  6
CONTINUOUS
 10
6.9818332147
 20
4.5809427563
 11
4.828138466
 21
4.5809427563
  0
LINE
  5
269
100
AcDbEntity
  8
0
100
AcDbLine
 62
9
  6
CONTINUOUS
 10
4.7998929574
 20
4.5809427563
 11
4.6896991848
 21
4.5809427563
  0
LINE
  5
26A
100
AcDbEntity
  8
0
100
AcDbLine
 62
9
  6
CONTINUOUS
 10
8.8569522451
 20
4.5998960372
 11
8.4355298715
 21
4.5998960372
  0
LINE
  5
26B
100
AcDbEntity
  8
0
100
AcDbLine
 62
9
  6
CONTINUOUS
 10
8.3960467771
 20
4.5998960372
 11
7.7284230904
 21
4.5998960372
  0
LINE
  5
26C
100
AcDbEntity
  8
0
100
AcDbLine
 62
9
  6
CONTINUOUS
 10
7.6889399959
 20
4.5998960372
 11
7.0213163092
 21
4.5998960372
  0
LINE
  5
26D
100
AcDbEntity
  8
0
100
AcDbLine
 62
6
  6
CONTINUOUS
 10
4.7038219391
 20
4.5998960372
 11
7.0213163092
 21
4.5998960372
  0
LINE
  5
26E
100
AcDbEntity
  8
0
100
AcDbLine
 62
6
  6
CONTINUOUS
 10
7.6889399959
 20
4.5998960372
 11
7.7284230904
 21
4.5998960372
  0
LINE
  5
26F
100
AcDbEntity
  8
0
100
AcDbLine
 62
6
  6
CONTINUOUS
 10
8.3960467771
 20
4.5998960372
 11
8.4355298715
 21
4.5998960372
  0
LINE
  5
270
100
AcDbEntity
  8
0
100
AcDbLine
 62
6
  6
CONTINUOUS
 10
4.2912041718
 20
4.5998857697
 11
4.2802545474
 21
4.5998857262
  0
LINE
  5
271
100
AcDbEntity
  8
0
100
AcDbLine
 62
6
  6
CONTINUOUS
 10
4.2801500919
 20
4.5998857697
 11
3.5770623303
 21
4.5998907322
  0
LINE
  5
272
100
AcDbEntity
  8
0
100
AcDbLine
 62
9
  6
CONTINUOUS
 10
4.2801500919
 20
4.5998857697
 11
4.2802545474
 21
4.5998857262
  0
LINE
  5
273
100
AcDbEntity
  8
0
100
AcDbLine
 62
9
  6
CONTINUOUS
 10
4.6896991848
 20
4.5809427563
 11
4.6838766477
 21
4.5813743284
  0
LINE
  5
274
100
AcDbEntity
  8
0
100
AcDbLine
 62
6
  6
CONTINUOUS
 10
3.1540988797
 20
4.2963257477
 11
3.1776049677
 21
4.2994203829
  0
LINE
  5
275
100
AcDbEntity
  8
0
100
AcDbLine
 62
6
  6
CONTINUOUS
 10
2.8451492133
 20
4.4034663267
 11
2.8216431253
 21
4.4003716915
  0
LINE
  5
276
100
AcDbEntity
  8
0
100
AcDbLine
 62
7
  6
CONTINUOUS
 10
3.0555740465
 20
4.6099210372
 11
2.9436140465
 21
4.6099210372
  0
LINE
  5
277
100
AcDbEntity
  8
0
100
AcDbLine
 62
6
  6
CONTINUOUS
 10
3.0625061212
 20
4.6208960372
 11
2.935562073
 21
4.6208960372
  0
LINE
  5
278
100
AcDbEntity
  8
0
100
AcDbLine
 62
6
  6
CONTINUOUS
 10
4.1525725011
 20
4.6623960372
 11
4.5367061109
 21
4.6623960372
  0
LINE
  5
279
100
AcDbEntity
  8
0
100
AcDbLine
 62
6
  6
CONTINUOUS
 10
2.8545073128
 20
4.2351522635
 11
2.8774083721
 21
4.2412885838
  0
LINE
  5
27A
100
AcDbEntity
  8
0
100
AcDbLine
 62
6
  6
CONTINUOUS
 10
3.1447407802
 20
4.4646398109
 11
3.1218397209
 21
4.4585034906
  0
LINE
  5
27B
100
AcDbEntity
  8
0
100
AcDbLine
 62
6
  6
CONTINUOUS
 10
7.0666860284
 20
4.3498960372
 11
7.0495618178
 21
4.5809427563
  0
LINE
  5
27C
100
AcDbEntity
  8
0
100
AcDbLine
 62
6
  6
CONTINUOUS
 10
6.9818332147
 20
4.0998960372
 11
6.9818332147
 21
4.5998960372
  0
LINE
  5
27D
100
AcDbEntity
  8
0
100
AcDbLine
 62
6
  6
CONTINUOUS
 10
7.0030464181
 20
4.5998960372
 11
7.0030464181
 21
4.0998960372
  0
LINE
  5
27E
100
AcDbEntity
  8
0
100
AcDbLine
 62
6
  6
CONTINUOUS
 10
7.0495618178
 20
4.1188493181
 11
7.0666860284
 21
4.3498960372
  0
LINE
  5
27F
100
AcDbEntity
  8
0
100
AcDbLine
 62
6
  6
CONTINUOUS
 10
7.7737928096
 20
4.3498960372
 11
7.756668599
 21
4.5809427563
  0
LINE
  5
280
100
AcDbEntity
  8
0
100
AcDbLine
 62
6
  6
CONTINUOUS
 10
7.6889399959
 20
4.0998960372
 11
7.6889399959
 21
4.5998960372
  0
LINE
  5
281
100
AcDbEntity
  8
0
100
AcDbLine
 62
6
  6
CONTINUOUS
 10
7.7101531993
 20
4.5998960372
 11
7.7101531993
 21
4.0998960372
  0
LINE
  5
282
100
AcDbEntity
  8
0
100
AcDbLine
 62
6
  6
CONTINUOUS
 10
7.756668599
 20
4.1188493181
 11
7.7737928096
 21
4.3498960372
  0
LINE
  5
283
100
AcDbEntity
  8
0
100
AcDbLine
 62
6
  6
CONTINUOUS
 10
8.3960467771
 20
4.0998960372
 11
8.3960467771
 21
4.5998960372
  0
LINE
  5
284
100
AcDbEntity
  8
0
100
AcDbLine
 62
6
  6
CONTINUOUS
 10
8.4172599805
 20
4.5998960372
 11
8.4172599805
 21
4.0998960372
  0
LINE
  5
285
100
AcDbEntity
  8
0
100
AcDbLine
 62
6
  6
CONTINUOUS
 10
8.4808995908
 20
4.3498960372
 11
8.4637753802
 21
4.5809427563
  0
LINE
  5
286
100
AcDbEntity
  8
0
100
AcDbLine
 62
6
  6
CONTINUOUS
 10
8.4637753802
 20
4.1188493181
 11
8.4808995908
 21
4.3498960372
  0
LWPOLYLINE
  5
287
100
AcDbEntity
  8
0
100
AcDbPolyline
 62
6
  6
CONTINUOUS
 90
25
 70
0
 10
9.048123027
 20
4.349895542
 10
9.0472710776
 20
4.3649157917
 10
9.0455930792
 20
4.3812875079
 10
9.0431433804
 20
4.3975293148
 10
9.0399291705
 20
4.4135730695
 10
9.0359610244
 20
4.4293513091
 10
9.0312555086
 20
4.4447986394
 10
9.0258288145
 20
4.4598499807
 10
9.0196974661
 20
4.4744403717
 10
9.0128854723
 20
4.488506355
 10
9.0054214598
 20
4.5019816707
 10
8.9973348181
 20
4.5148002222
 10
8.9886604296
 20
4.5268996497
 10
8.9794379668
 20
4.5382245859
 10
8.9697077206
 20
4.5487209876
 10
8.9595136377
 20
4.5583361078
 10
8.9489081805
 20
4.5670256692
 10
8.9379571386
 20
4.5747433197
 10
8.9267147504
 20
4.5814573777
 10
8.9152381643
 20
4.587144462
 10
8.9035840089
 20
4.5917919182
 10
8.8918050876
 20
4.5953910321
 10
8.8799489147
 20
4.5979371517
 10
8.8680681856
 20
4.5994348722
 10
8.8569553046
 20
4.5998935651
  0
ARC
  5
288
100
AcDbEntity
  8
0
100
AcDbCircle
 62
9
  6
CONTINUOUS
 10
2.8598865982
 20
-54.7583621266
 40
59.3439437871
100
AcDbArc
 50
88.5432600093
 51
89.0244527091
  0
CIRCLE
  5
289
100
AcDbEntity
  8
0
100
AcDbCircle
 62
6
  6
CONTINUOUS
 10
2.9996240465
 20
4.3498960372
 40
0.63
  0
CIRCLE
  5
28A
100
AcDbEntity
  8
0
100
AcDbCircle
 62
9
  6
CONTINUOUS
 10
2.9996240465
 20
4.3498960372
 40
0.615
  0
CIRCLE
  5
28B
100
AcDbEntity
  8
0
100
AcDbCircle
 62
9
  6
CONTINUOUS
 10
2.9996240465
 20
4.3498960372
 40
0.6074217019
  0
CIRCLE
  5
28C
100
AcDbEntity
  8
0
100
AcDbCircle
 62
6
  6
CONTINUOUS
 10
2.9996240465
 20
4.3498960372
 40
0.5848764288
  0
CIRCLE
  5
28D
100
AcDbEntity
  8
0
100
AcDbCircle
 62
6
  6
CONTINUOUS
 10
2.9996240465
 20
4.3498960372
 40
0.4206016987
  0
CIRCLE
  5
28E
100
AcDbEntity
  8
0
100
AcDbCircle
 62
6
  6
CONTINUOUS
 10
2.9996240465
 20
4.3498960372
 40
0.38
  0
ARC
  5
28F
100
AcDbEntity
  8
0
100
AcDbCircle
 62
6
  6
CONTINUOUS
 10
2.9996229785
 20
4.3498951118
 40
0.3250012682
100
AcDbArc
 50
14.7273826497
 51
67.0907991678
  0
ARC
  5
290
100
AcDbEntity
  8
0
100
AcDbCircle
 62
7
  6
CONTINUOUS
 10
2.9996486862
 20
4.3498402085
 40
0.3100604418
100
AcDbArc
 50
108.713040248
 51
123.5934725693
  0
ARC
  5
291
100
AcDbEntity
  8
0
100
AcDbCircle
 62
6
  6
CONTINUOUS
 10
2.9996048166
 20
4.3497851691
 40
0.2801118514
100
AcDbArc
 50
74.3222542184
 51
76.9409883156
  0
CIRCLE
  5
292
100
AcDbEntity
  8
0
100
AcDbCircle
 62
6
  6
CONTINUOUS
 10
2.9996240465
 20
4.3498960372
 40
0.28
  0
ARC
  5
293
100
AcDbEntity
  8
0
100
AcDbCircle
 62
6
  6
CONTINUOUS
 10
2.9996240465
 20
4.3498960372
 40
0.2775
100
AcDbArc
 50
74.4459946163
 51
78.2440737246
  0
ARC
  5
294
100
AcDbEntity
  8
0
100
AcDbCircle
 62
6
  6
CONTINUOUS
 10
2.9996240465
 20
4.3498960372
 40
0.2775
100
AcDbArc
 50
101.7559262754
 51
105.7575622521
  0
ARC
  5
295
100
AcDbEntity
  8
0
100
AcDbCircle
 62
6
  6
CONTINUOUS
 10
2.9996240465
 20
4.3498960372
 40
0.2720081893
100
AcDbArc
 50
349.3616207657
 51
358.1178363863
  0
ARC
  5
296
100
AcDbEntity
  8
0
100
AcDbCircle
 62
6
  6
CONTINUOUS
 10
2.9996240465
 20
4.3498960372
 40
0.2720081893
100
AcDbArc
 50
91.8821636136
 51
107.0886282895
  0
ARC
  5
297
100
AcDbEntity
  8
0
100
AcDbCircle
 62
6
  6
CONTINUOUS
 10
2.9996240465
 20
4.3498960372
 40
0.2720081893
100
AcDbArc
 50
72.9556171742
 51
88.1178363864
  0
ARC
  5
298
100
AcDbEntity
  8
0
100
AcDbCircle
 62
6
  6
CONTINUOUS
 10
2.9996240465
 20
4.3498960372
 40
0.2720081893
100
AcDbArc
 50
1.8821636136
 51
10.6383792343
  0
ARC
  5
299
100
AcDbEntity
  8
0
100
AcDbCircle
 62
6
  6
CONTINUOUS
 10
2.9996240465
 20
4.3498960372
 40
0.249
100
AcDbArc
 50
13.3514596091
 51
71.259337449
  0
ARC
  5
29A
100
AcDbEntity
  8
0
100
AcDbCircle
 62
6
  6
CONTINUOUS
 10
2.9996240465
 20
4.3498960372
 40
0.249
100
AcDbArc
 50
108.740662551
 51
346.6485403909
  0
ARC
  5
29B
100
AcDbEntity
  8
0
100
AcDbCircle
 62
7
  6
CONTINUOUS
 10
2.9996240465
 20
4.3498960372
 40
0.245075
100
AcDbArc
 50
108.0682676502
 51
347.031161154
  0
ARC
  5
29C
100
AcDbEntity
  8
0
100
AcDbCircle
 62
7
  6
CONTINUOUS
 10
2.9996240465
 20
4.3498960372
 40
0.245075
100
AcDbArc
 50
12.968838846
 51
71.9464866557
  0
ARC
  5
29D
100
AcDbEntity
  8
0
100
AcDbCircle
 62
6
  6
CONTINUOUS
 10
2.9996240465
 20
4.3498960372
 40
0.24
100
AcDbArc
 50
154.0555202276
 51
205.9444797724
  0
ARC
  5
29E
100
AcDbEntity
  8
0
100
AcDbCircle
 62
7
  6
CONTINUOUS
 10
2.9996240465
 20
4.3498960372
 40
0.189
100
AcDbArc
 50
212.5284890431
 51
147.4595912137
  0
ARC
  5
29F
100
AcDbEntity
  8
0
100
AcDbCircle
 62
6
  6
CONTINUOUS
 10
2.9996240465
 20
4.3498960372
 40
0.1865
100
AcDbArc
 50
212.9266520187
 51
147.0733479813
  0
ARC
  5
2A0
100
AcDbEntity
  8
0
100
AcDbCircle
 62
6
  6
CONTINUOUS
 10
2.9996240465
 20
4.3498960372
 40
0.185
100
AcDbArc
 50
321.6665846093
 51
330.8334153907
  0
ARC
  5
2A1
100
AcDbEntity
  8
0
100
AcDbCircle
 62
6
  6
CONTINUOUS
 10
2.9996240465
 20
4.3498960372
 40
0.185
100
AcDbArc
 50
299.1665846093
 51
308.3334153907
  0
ARC
  5
2A2
100
AcDbEntity
  8
0
100
AcDbCircle
 62
6
  6
CONTINUOUS
 10
2.9996240465
 20
4.3498960372
 40
0.185
100
AcDbArc
 50
276.6665846093
 51
285.8334153907
  0
ARC
  5
2A3
100
AcDbEntity
  8
0
100
AcDbCircle
 62
6
  6
CONTINUOUS
 10
2.9996240465
 20
4.3498960372
 40
0.185
100
AcDbArc
 50
74.1665846093
 51
83.3334153907
  0
ARC
  5
2A4
100
AcDbEntity
  8
0
100
AcDbCircle
 62
6
  6
CONTINUOUS
 10
2.9996240465
 20
4.3498960372
 40
0.185
100
AcDbArc
 50
51.6665846093
 51
60.8334153907
  0
ARC
  5
2A5
100
AcDbEntity
  8
0
100
AcDbCircle
 62
6
  6
CONTINUOUS
 10
2.9996240465
 20
4.3498960372
 40
0.185
100
AcDbArc
 50
29.1665846093
 51
38.3334153907
  0
ARC
  5
2A6
100
AcDbEntity
  8
0
100
AcDbCircle
 62
6
  6
CONTINUOUS
 10
2.9996240465
 20
4.3498960372
 40
0.185
100
AcDbArc
 50
6.6665846093
 51
15.8334153907
  0
ARC
  5
2A7
100
AcDbEntity
  8
0
100
AcDbCircle
 62
6
  6
CONTINUOUS
 10
2.9996240465
 20
4.3498960372
 40
0.185
100
AcDbArc
 50
344.1665846093
 51
353.3334153907
  0
ARC
  5
2A8
100
AcDbEntity
  8
0
100
AcDbCircle
 62
6
  6
CONTINUOUS
 10
2.9996240465
 20
4.3498960372
 40
0.185
100
AcDbArc
 50
254.1665846093
 51
263.3334153907
  0
ARC
  5
2A9
100
AcDbEntity
  8
0
100
AcDbCircle
 62
6
  6
CONTINUOUS
 10
2.9996240465
 20
4.3498960372
 40
0.185
100
AcDbArc
 50
231.6665846093
 51
240.8334153907
  0
ARC
  5
2AA
100
AcDbEntity
  8
0
100
AcDbCircle
 62
6
  6
CONTINUOUS
 10
2.9996240465
 20
4.3498960372
 40
0.185
100
AcDbArc
 50
209.1665846093
 51
218.3334153907
  0
ARC
  5
2AB
100
AcDbEntity
  8
0
100
AcDbCircle
 62
6
  6
CONTINUOUS
 10
2.9996240465
 20
4.3498960372
 40
0.185
100
AcDbArc
 50
186.6665846093
 51
195.8334153907
  0
ARC
  5
2AC
100
AcDbEntity
  8
0
100
AcDbCircle
 62
6
  6
CONTINUOUS
 10
2.9996240465
 20
4.3498960372
 40
0.185
100
AcDbArc
 50
164.1665846093
 51
173.3334153907
  0
ARC
  5
2AD
100
AcDbEntity
  8
0
100
AcDbCircle
 62
6
  6
CONTINUOUS
 10
2.9996240465
 20
4.3498960372
 40
0.185
100
AcDbArc
 50
141.6665846093
 51
150.8334153907
  0
ARC
  5
2AE
100
AcDbEntity
  8
0
100
AcDbCircle
 62
6
  6
CONTINUOUS
 10
2.9996240465
 20
4.3498960372
 40
0.185
100
AcDbArc
 50
119.1665846093
 51
128.3334153907
  0
ARC
  5
2AF
100
AcDbEntity
  8
0
100
AcDbCircle
 62
6
  6
CONTINUOUS
 10
2.9996240465
 20
4.3498960372
 40
0.185
100
AcDbArc
 50
96.6665846093
 51
105.8334153907
  0
ARC
  5
2B0
100
AcDbEntity
  8
0
100
AcDbCircle
 62
7
  6
CONTINUOUS
 10
2.9996240465
 20
4.3498960372
 40
0.1635
100
AcDbArc
 50
334.1260218921
 51
340.8739781079
  0
ARC
  5
2B1
100
AcDbEntity
  8
0
100
AcDbCircle
 62
6
  6
CONTINUOUS
 10
2.9996240465
 20
4.3498960372
 40
0.1635
100
AcDbArc
 50
311.6260218921
 51
318.3739781079
  0
ARC
  5
2B2
100
AcDbEntity
  8
0
100
AcDbCircle
 62
7
  6
CONTINUOUS
 10
2.9996240465
 20
4.3498960372
 40
0.1635
100
AcDbArc
 50
289.1260218921
 51
295.8739781079
  0
ARC
  5
2B3
100
AcDbEntity
  8
0
100
AcDbCircle
 62
7
  6
CONTINUOUS
 10
2.9996240465
 20
4.3498960372
 40
0.1635
100
AcDbArc
 50
64.1260218921
 51
70.8739781079
  0
ARC
  5
2B4
100
AcDbEntity
  8
0
100
AcDbCircle
 62
6
  6
CONTINUOUS
 10
2.9996240465
 20
4.3498960372
 40
0.1635
100
AcDbArc
 50
41.6260218921
 51
48.3739781079
  0
ARC
  5
2B5
100
AcDbEntity
  8
0
100
AcDbCircle
 62
7
  6
CONTINUOUS
 10
2.9996240465
 20
4.3498960372
 40
0.1635
100
AcDbArc
 50
19.1260218921
 51
25.8739781079
  0
ARC
  5
2B6
100
AcDbEntity
  8
0
100
AcDbCircle
 62
7
  6
CONTINUOUS
 10
2.9996240465
 20
4.3498960372
 40
0.1635
100
AcDbArc
 50
356.6260218921
 51
3.3739781079
  0
ARC
  5
2B7
100
AcDbEntity
  8
0
100
AcDbCircle
 62
6
  6
CONTINUOUS
 10
2.9996240465
 20
4.3498960372
 40
0.1635
100
AcDbArc
 50
244.1260218921
 51
250.8739781079
  0
ARC
  5
2B8
100
AcDbEntity
  8
0
100
AcDbCircle
 62
6
  6
CONTINUOUS
 10
2.9996240465
 20
4.3498960372
 40
0.1635
100
AcDbArc
 50
221.6260218921
 51
228.3739781079
  0
ARC
  5
2B9
100
AcDbEntity
  8
0
100
AcDbCircle
 62
7
  6
CONTINUOUS
 10
2.9996240465
 20
4.3498960372
 40
0.1635
100
AcDbArc
 50
199.1260218921
 51
205.8739781079
  0
ARC
  5
2BA
100
AcDbEntity
  8
0
100
AcDbCircle
 62
7
  6
CONTINUOUS
 10
2.9996240465
 20
4.3498960372
 40
0.1635
100
AcDbArc
 50
176.6260218921
 51
183.3739781079
  0
ARC
  5
2BB
100
AcDbEntity
  8
0
100
AcDbCircle
 62
7
  6
CONTINUOUS
 10
2.9996240465
 20
4.3498960372
 40
0.1635
100
AcDbArc
 50
154.1260218921
 51
160.8739781079
  0
ARC
  5
2BC
100
AcDbEntity
  8
0
100
AcDbCircle
 62
6
  6
CONTINUOUS
 10
2.9996240465
 20
4.3498960372
 40
0.1635
100
AcDbArc
 50
131.6260218921
 51
138.3739781079
  0
ARC
  5
2BD
100
AcDbEntity
  8
0
100
AcDbCircle
 62
6
  6
CONTINUOUS
 10
2.9996240465
 20
4.3498960372
 40
0.1635
100
AcDbArc
 50
109.1260218921
 51
115.8739781079
  0
ARC
  5
2BE
100
AcDbEntity
  8
0
100
AcDbCircle
 62
7
  6
CONTINUOUS
 10
2.9996240465
 20
4.3498960372
 40
0.1635
100
AcDbArc
 50
86.6260218921
 51
93.3739781079
  0
ARC
  5
2BF
100
AcDbEntity
  8
0
100
AcDbCircle
 62
7
  6
CONTINUOUS
 10
2.9996240465
 20
4.3498960372
 40
0.1635
100
AcDbArc
 50
266.6260218921
 51
273.3739781079
  0
CIRCLE
  5
2C0
100
AcDbEntity
  8
0
100
AcDbCircle
 62
6
  6
CONTINUOUS
 10
2.9996240465
 20
4.3498960372
 40
0.155
  0
ARC
  5
2C1
100
AcDbEntity
  8
0
100
AcDbCircle
 62
6
  6
CONTINUOUS
 10
2.9996231003
 20
4.3498963167
 40
0.1305588089
100
AcDbArc
 50
112.4859708976
 51
202.4865798043
  0
ARC
  5
2C2
100
AcDbEntity
  8
0
100
AcDbCircle
 62
6
  6
CONTINUOUS
 10
2.9996240465
 20
4.3498960372
 40
0.1234968992
100
AcDbArc
 50
231.8470662187
 51
83.1255490724
  0
ARC
  5
2C3
100
AcDbEntity
  8
0
100
AcDbCircle
 62
6
  6
CONTINUOUS
 10
2.9996240465
 20
4.3498960372
 40
0.1035
100
AcDbArc
 50
216.031973183
 51
216.0187105836
  0
ARC
  5
2C4
100
AcDbEntity
  8
0
100
AcDbCircle
 62
6
  6
CONTINUOUS
 10
3.2506240465
 20
4.3123960372
 40
0.02
100
AcDbArc
 50
270.0
 51
360.0
  0
ARC
  5
2C5
100
AcDbEntity
  8
0
100
AcDbCircle
 62
7
  6
CONTINUOUS
 10
3.2396490465
 20
4.3148960372
 40
0.02
100
AcDbArc
 50
270.0
 51
360.0
  0
ARC
  5
2C6
100
AcDbEntity
  8
0
100
AcDbCircle
 62
9
  6
CONTINUOUS
 10
2.8598865722
 20
63.4581554479
 40
59.3439450342
100
AcDbArc
 50
270.9755472074
 51
271.4567399851
  0
ARC
  5
2C7
100
AcDbEntity
  8
0
100
AcDbCircle
 62
6
  6
CONTINUOUS
 10
2.9893624869
 20
4.3678890599
 40
0.2821957029
100
AcDbArc
 50
21.51977468
 51
37.5890549259
  0
ARC
  5
2C8
100
AcDbEntity
  8
0
100
AcDbCircle
 62
6
  6
CONTINUOUS
 10
3.2506240465
 20
4.3873960372
 40
0.02
100
AcDbArc
 50
0.0
 51
90.0
  0
ARC
  5
2C9
100
AcDbEntity
  8
0
100
AcDbCircle
 62
7
  6
CONTINUOUS
 10
2.9436140465
 20
4.5899210372
 40
0.02
100
AcDbArc
 50
90.0
 51
180.0
  0
ARC
  5
2CA
100
AcDbEntity
  8
0
100
AcDbCircle
 62
7
  6
CONTINUOUS
 10
3.0555740465
 20
4.5899210372
 40
0.02
100
AcDbArc
 50
0.0
 51
90.0
  0
ARC
  5
2CB
100
AcDbEntity
  8
0
100
AcDbCircle
 62
7
  6
CONTINUOUS
 10
3.2396490465
 20
4.3848960372
 40
0.02
100
AcDbArc
 50
0.0
 51
90.0
  0
ARC
  5
2CC
100
AcDbEntity
  8
0
100
AcDbCircle
 62
6
  6
CONTINUOUS
 10
3.0625061212
 20
4.6037781118
 40
0.0171179254
100
AcDbArc
 50
0.0
 51
90.0
  0
ARC
  5
2CD
100
AcDbEntity
  8
0
100
AcDbCircle
 62
6
  6
CONTINUOUS
 10
2.935562073
 20
4.6049580107
 40
0.0159380265
100
AcDbArc
 50
90.0
 51
180.0
  0
ARC
  5
2CE
100
AcDbEntity
  8
0
100
AcDbCircle
 62
9
  6
CONTINUOUS
 10
4.7312720988
 20
4.349896029
 40
0.4422829765
100
AcDbArc
 50
179.8915465582
 51
180.1084513248
  0
ARC
  5
2CF
100
AcDbEntity
  8
0
100
AcDbCircle
 62
6
  6
CONTINUOUS
 10
4.4535678419
 20
4.3498961993
 40
0.3501944454
100
AcDbArc
 50
179.7174029931
 51
180.2825969505
  0
ARC
  5
2D0
100
AcDbEntity
  8
0
100
AcDbCircle
 62
6
  6
CONTINUOUS
 10
4.4537528062
 20
4.3420592025
 40
0.3482565437
100
AcDbArc
 50
178.4280918415
 51
178.7105613172
  0
ARC
  5
2D1
100
AcDbEntity
  8
0
100
AcDbCircle
 62
6
  6
CONTINUOUS
 10
4.4535818515
 20
4.349896313
 40
0.3479974015
100
AcDbArc
 50
180.0000454115
 51
180.2826667749
  0
ARC
  5
2D2
100
AcDbEntity
  8
0
100
AcDbCircle
 62
6
  6
CONTINUOUS
 10
4.5312861541
 20
4.341921966
 40
0.3160707271
100
AcDbArc
 50
178.3380124071
 51
178.7707147406
  0
ARC
  5
2D3
100
AcDbEntity
  8
0
100
AcDbCircle
 62
6
  6
CONTINUOUS
 10
4.4870378927
 20
4.3419137106
 40
0.3160169185
100
AcDbArc
 50
178.2977121011
 51
178.5520861111
  0
ARC
  5
2D4
100
AcDbEntity
  8
0
100
AcDbCircle
 62
6
  6
CONTINUOUS
 10
4.486949823
 20
4.3419159264
 40
0.315928821
100
AcDbArc
 50
178.552084258
 51
178.8075340707
  0
ARC
  5
2D5
100
AcDbEntity
  8
0
100
AcDbCircle
 62
6
  6
CONTINUOUS
 10
4.5221637938
 20
4.3419405971
 40
0.3157870164
100
AcDbArc
 50
178.5566297104
 51
178.7806595655
  0
ARC
  5
2D6
100
AcDbEntity
  8
0
100
AcDbCircle
 62
6
  6
CONTINUOUS
 10
4.5221161709
 20
4.3419418038
 40
0.3157393782
100
AcDbArc
 50
178.3322662506
 51
178.5566309351
  0
ARC
  5
2D7
100
AcDbEntity
  8
0
100
AcDbCircle
 62
6
  6
CONTINUOUS
 10
4.4955404748
 20
4.3419433057
 40
0.3156802306
100
AcDbArc
 50
178.309160945
 51
178.8038269949
  0
ARC
  5
2D8
100
AcDbEntity
  8
0
100
AcDbCircle
 62
6
  6
CONTINUOUS
 10
4.4583658245
 20
4.3419765853
 40
0.3138609607
100
AcDbArc
 50
178.2747876235
 51
178.5541389711
  0
ARC
  5
2D9
100
AcDbEntity
  8
0
100
AcDbCircle
 62
6
  6
CONTINUOUS
 10
4.4494972798
 20
4.3419772925
 40
0.3138312424
100
AcDbArc
 50
178.2670231932
 51
178.5413050244
  0
ARC
  5
2DA
100
AcDbEntity
  8
0
100
AcDbCircle
 62
6
  6
CONTINUOUS
 10
4.4474525559
 20
4.3284034516
 40
0.3124267376
100
AcDbArc
 50
176.0553702904
 51
176.3428775432
  0
ARC
  5
2DB
100
AcDbEntity
  8
0
100
AcDbCircle
 62
6
  6
CONTINUOUS
 10
4.4562829851
 20
4.3284040173
 40
0.312418313
100
AcDbArc
 50
176.0553677475
 51
176.3351433705
  0
ARC
  5
2DC
100
AcDbEntity
  8
0
100
AcDbCircle
 62
9
  6
CONTINUOUS
 10
4.2647534081
 20
4.2601648411
 40
0.163839167
100
AcDbArc
 50
301.0229228147
 51
309.3056205873
  0
ARC
  5
2DD
100
AcDbEntity
  8
0
100
AcDbCircle
 62
7
  6
CONTINUOUS
 10
4.3475605497
 20
4.2299471408
 40
0.1367328694
100
AcDbArc
 50
252.958020939
 51
253.4728920489
  0
ARC
  5
2DE
100
AcDbEntity
  8
0
100
AcDbCircle
 62
7
  6
CONTINUOUS
 10
4.3459096589
 20
4.2213050639
 40
0.1279090268
100
AcDbArc
 50
270.0006108131
 51
271.5863694588
  0
ARC
  5
2DF
100
AcDbEntity
  8
0
100
AcDbCircle
 62
9
  6
CONTINUOUS
 10
4.2801500911
 20
4.2255745583
 40
0.1256682536
100
AcDbArc
 50
270.0045985704
 51
271.0028600899
  0
ARC
  5
2E0
100
AcDbEntity
  8
0
100
AcDbCircle
 62
6
  6
CONTINUOUS
 10
4.2823648143
 20
4.2254441787
 40
0.1255395435
100
AcDbArc
 50
269.9998543231
 51
276.0385909613
  0
ARC
  5
2E1
100
AcDbEntity
  8
0
100
AcDbCircle
 62
6
  6
CONTINUOUS
 10
4.2823688432
 20
4.2252847441
 40
0.1253801089
100
AcDbArc
 50
269.2357133119
 51
269.9980129971
  0
ARC
  5
2E2
100
AcDbEntity
  8
0
100
AcDbCircle
 62
6
  6
CONTINUOUS
 10
4.3397254292
 20
4.2188743222
 40
0.1189702159
100
AcDbArc
 50
272.1433244261
 51
282.7167474215
  0
ARC
  5
2E3
100
AcDbEntity
  8
0
100
AcDbCircle
 62
6
  6
CONTINUOUS
 10
4.3752227561
 20
4.2184525065
 40
0.1185488229
100
AcDbArc
 50
262.4289730838
 51
264.1782481776
  0
ARC
  5
2E4
100
AcDbEntity
  8
0
100
AcDbCircle
 62
6
  6
CONTINUOUS
 10
4.3442157225
 20
4.2182159175
 40
0.1183096147
100
AcDbArc
 50
270.0103917631
 51
280.176792915
  0
ARC
  5
2E5
100
AcDbEntity
  8
0
100
AcDbCircle
 62
6
  6
CONTINUOUS
 10
4.3398150855
 20
4.2179555433
 40
0.1180492389
100
AcDbArc
 50
262.4398387739
 51
269.9959252552
  0
ARC
  5
2E6
100
AcDbEntity
  8
0
100
AcDbCircle
 62
6
  6
CONTINUOUS
 10
4.3398062751
 20
4.2177031787
 40
0.117796874
100
AcDbArc
 50
270.0002018769
 51
272.1253330051
  0
ARC
  5
2E7
100
AcDbEntity
  8
0
100
AcDbCircle
 62
6
  6
CONTINUOUS
 10
4.2955405252
 20
4.2107563787
 40
0.1108553231
100
AcDbArc
 50
276.8854851443
 51
277.3356118664
  0
ARC
  5
2E8
100
AcDbEntity
  8
0
100
AcDbCircle
 62
6
  6
CONTINUOUS
 10
4.2956109178
 20
4.2100832812
 40
0.1101786416
100
AcDbArc
 50
270.0012970274
 51
276.891106436
  0
ARC
  5
2E9
100
AcDbEntity
  8
0
100
AcDbCircle
 62
6
  6
CONTINUOUS
 10
4.2956178813
 20
4.2098881531
 40
0.1099835136
100
AcDbArc
 50
266.2601827316
 51
269.9976716808
  0
ARC
  5
2EA
100
AcDbEntity
  8
0
100
AcDbCircle
 62
7
  6
CONTINUOUS
 10
4.753293197
 20
4.2968409277
 40
0.0549487261
100
AcDbArc
 50
258.8138002514
 51
265.1171139164
  0
ARC
  5
2EB
100
AcDbEntity
  8
0
100
AcDbCircle
 62
7
  6
CONTINUOUS
 10
3.9070797863
 20
4.3498960372
 40
0.0294604738
100
AcDbArc
 50
355.0806571349
 51
4.91934285
  0
ARC
  5
2EC
100
AcDbEntity
  8
0
100
AcDbCircle
 62
6
  6
CONTINUOUS
 10
4.7038219391
 20
4.1198960372
 40
0.02
100
AcDbArc
 50
184.2388078036
 51
270.0000000001
  0
ARC
  5
2ED
100
AcDbEntity
  8
0
100
AcDbCircle
 62
7
  6
CONTINUOUS
 10
4.5606851083
 20
4.3635986775
 40
0.3398968553
100
AcDbArc
 50
182.3104546745
 51
182.5070925412
  0
ARC
  5
2EE
100
AcDbEntity
  8
0
100
AcDbCircle
 62
6
  6
CONTINUOUS
 10
4.273445315
 20
4.427921609
 40
0.1762878317
100
AcDbArc
 50
51.7704580081
 51
55.5868012737
  0
ARC
  5
2EF
100
AcDbEntity
  8
0
100
AcDbCircle
 62
6
  6
CONTINUOUS
 10
4.2665818574
 20
4.4539458134
 40
0.1739147302
100
AcDbArc
 50
56.8542780864
 51
58.1506095933
  0
ARC
  5
2F0
100
AcDbEntity
  8
0
100
AcDbCircle
 62
6
  6
CONTINUOUS
 10
4.2696341817
 20
4.4589048425
 40
0.1680916679
100
AcDbArc
 50
58.1424082814
 51
62.6903954436
  0
ARC
  5
2F1
100
AcDbEntity
  8
0
100
AcDbCircle
 62
6
  6
CONTINUOUS
 10
4.3574905344
 20
4.4659075263
 40
0.1339782435
100
AcDbArc
 50
90.0026406162
 51
96.6682769145
  0
ARC
  5
2F2
100
AcDbEntity
  8
0
100
AcDbCircle
 62
6
  6
CONTINUOUS
 10
4.3221346466
 20
4.4659126944
 40
0.1339730757
100
AcDbArc
 50
90.0024058315
 51
96.6565125815
  0
ARC
  5
2F3
100
AcDbEntity
  8
0
100
AcDbCircle
 62
6
  6
CONTINUOUS
 10
4.3221286126
 20
4.4661029734
 40
0.1337827965
100
AcDbArc
 50
88.1261825222
 51
89.9998250263
  0
ARC
  5
2F4
100
AcDbEntity
  8
0
100
AcDbCircle
 62
6
  6
CONTINUOUS
 10
4.3574844978
 20
4.4661050386
 40
0.133780731
100
AcDbArc
 50
88.3427370539
 51
90.0000591627
  0
ARC
  5
2F5
100
AcDbEntity
  8
0
100
AcDbCircle
 62
7
  6
CONTINUOUS
 10
4.3459105887
 20
4.4785213972
 40
0.12787464
100
AcDbArc
 50
88.4137846371
 51
89.9998056142
  0
ARC
  5
2F6
100
AcDbEntity
  8
0
100
AcDbCircle
 62
9
  6
CONTINUOUS
 10
4.2801474893
 20
4.4740822163
 40
0.1258035555
100
AcDbArc
 50
85.0166085751
 51
89.9512415826
  0
ARC
  5
2F7
100
AcDbEntity
  8
0
100
AcDbCircle
 62
9
  6
CONTINUOUS
 10
4.2801500926
 20
4.4742175176
 40
0.125668252
100
AcDbArc
 50
90.0000003298
 51
90.247476737
  0
ARC
  5
2F8
100
AcDbEntity
  8
0
100
AcDbCircle
 62
7
  6
CONTINUOUS
 10
4.7533057736
 20
4.4028628367
 40
0.0550377842
100
AcDbArc
 50
94.8880965739
 51
101.0558924806
  0
ARC
  5
2F9
100
AcDbEntity
  8
0
100
AcDbCircle
 62
6
  6
CONTINUOUS
 10
4.7038219391
 20
4.5798960372
 40
0.02
100
AcDbArc
 50
89.9999999999
 51
175.7611421328
  0
SPLINE
  5
2FA
100
AcDbEntity
  8
0
100
AcDbSpline
 62
6
  6
CONTINUOUS
 70
0
 71
3
 72
59
 73
55
 74
53
 42
0.0000001
 43
0.0000001
 44
0.0000000001
 12
0.7275426
 22
0.2527797063
 32
0.0
 13
-0.7275425999
 23
0.2527797063
 33
0.0
 40
0.0
 40
0.0
 40
0.0
 40
0.0
 40
0.015419405
 40
0.0308382105
 40
0.0462581082
 40
0.0616791926
 40
0.077102668
 40
0.0925298024
 40
0.1079617289
 40
0.1234000194
 40
0.1388465473
 40
0.1543034464
 40
0.1697727755
 40
0.1852565663
 40
0.2162710575
 40
0.2473718555
 40
0.2629624782
 40
0.2785804895
 40
0.2942272286
 40
0.3099034994
 40
0.34134165
 40
0.3728984741
 40
0.3887208517
 40
0.4045683847
 40
0.4363237461
 40
0.4681435714
 40
0.4999970106
 40
0.5318504128
 40
0.5636701496
 40
0.595425339
 40
0.6112727889
 40
0.6270950251
 40
0.6586515721
 40
0.6900893423
 40
0.705765441
 40
0.721411909
 40
0.7370296883
 40
0.7526201248
 40
0.7681849644
 40
0.7837262683
 40
0.7992459751
 40
0.814746325
 40
0.8302298409
 40
0.8456987981
 40
0.8611553871
 40
0.8766016488
 40
0.8920396291
 40
0.9074712517
 40
0.9228980635
 40
0.9383213094
 40
0.953742186
 40
0.9691618157
 40
0.9845808494
 40
1.0
 40
1.0
 40
1.0
 40
1.0
 10
4.5626800465
 20
4.0464205022
 30
0.0
 10
4.5664194712
 20
4.0477197398
 30
0.0
 10
4.5738394643
 20
4.0504907815
 30
0.0
 10
4.5847669655
 20
4.055151649
 30
0.0
 10
4.5954723124
 20
4.0603037757
 30
0.0
 10
4.6059358482
 20
4.065933029
 30
0.0
 10
4.6161395023
 20
4.0720241927
 30
0.0
 10
4.6260665802
 20
4.078561329
 30
0.0
 10
4.6357016214
 20
4.0855280733
 30
0.0
 10
4.6450307195
 20
4.0929073508
 30
0.0
 10
4.6540413199
 20
4.1006820336
 30
0.0
 10
4.6627221315
 20
4.10883474
 30
0.0
 10
4.6710633687
 20
4.1173480663
 30
0.0
 10
4.6817247485
 20
4.1291615301
 30
0.0
 10
4.6941651133
 20
4.144751378
 30
0.0
 10
4.7053578162
 20
4.1612909929
 30
0.0
 10
4.7135536728
 20
4.1750326436
 30
0.0
 10
4.7193244613
 20
4.1855907975
 30
0.0
 10
4.7247099734
 20
4.1963750391
 30
0.0
 10
4.7313787384
 20
4.2110465333
 30
0.0
 10
4.7387364241
 20
4.2298760382
 30
0.0
 10
4.7447638525
 20
4.2492106739
 30
0.0
 10
4.7487906725
 20
4.2649386303
 30
0.0
 10
4.7522902019
 20
4.2808444119
 30
0.0
 10
4.755659051
 20
4.3009717025
 30
0.0
 10
4.7580857367
 20
4.3253687429
 30
0.0
 10
4.758895132
 20
4.3498983416
 30
0.0
 10
4.7580854367
 20
4.3744279074
 30
0.0
 10
4.7556584594
 20
4.3988248424
 30
0.0
 10
4.7522893656
 20
4.4189520021
 30
0.0
 10
4.7487896783
 20
4.4348576447
 30
0.0
 10
4.7447626891
 20
4.4505854252
 30
0.0
 10
4.738735099
 20
4.4699197926
 30
0.0
 10
4.7313772865
 20
4.4887490263
 30
0.0
 10
4.7247084339
 20
4.5034202347
 30
0.0
 10
4.7193228878
 20
4.5142043065
 30
0.0
 10
4.7135521387
 20
4.5247621232
 30
0.0
 10
4.707399455
 20
4.5350777603
 30
0.0
 10
4.7008686313
 20
4.5451349304
 30
0.0
 10
4.6939639919
 20
4.5549171165
 30
0.0
 10
4.6866906545
 20
4.5644076167
 30
0.0
 10
4.6790544064
 20
4.5735894631
 30
0.0
 10
4.6710619211
 20
4.5824455265
 30
0.0
 10
4.6627209192
 20
4.5909585513
 30
0.0
 10
4.6540401895
 20
4.5991110422
 30
0.0
 10
4.645029732
 20
4.6068855258
 30
0.0
 10
4.6357007942
 20
4.6142646465
 30
0.0
 10
4.6260659074
 20
4.6212311923
 30
0.0
 10
4.6161390066
 20
4.6277681972
 30
0.0
 10
4.6059355066
 20
4.6338592389
 30
0.0
 10
4.5954721199
 20
4.6394883857
 30
0.0
 10
4.584766839
 20
4.6446405036
 30
0.0
 10
4.5738393903
 20
4.6493013019
 30
0.0
 10
4.5664194095
 20
4.652072356
 30
0.0
 10
4.5626800465
 20
4.6533715721
 30
0.0
 11
4.5626800465
 21
4.0464205022
 31
0.0
 11
4.573805828
 21
4.0505748761
 31
0.0
 11
4.5847296197
 21
4.0552333784
 31
0.0
 11
4.5954315615
 21
4.0603830667
 31
0.0
 11
4.6058917323
 21
4.0660095564
 31
0.0
 11
4.6160922186
 21
4.0720977738
 31
0.0
 11
4.6260163745
 21
4.0786318691
 31
0.0
 11
4.6356486678
 21
4.0855953398
 31
0.0
 11
4.6449751847
 21
4.092971221
 31
0.0
 11
4.6539833915
 21
4.1007423644
 31
0.0
 11
4.6626621184
 21
4.1088914925
 31
0.0
 11
4.6710013826
 21
4.1174010932
 31
0.0
 11
4.678992239
 21
4.1262536852
 31
0.0
 11
4.6938992223
 21
4.1449190367
 31
0.0
 11
4.7073328472
 21
4.164751622
 31
0.0
 11
4.713484857
 21
4.1750639577
 31
0.0
 11
4.7192551351
 21
4.1856186933
 31
0.0
 11
4.7246403596
 21
4.1963997284
 31
0.0
 11
4.7296375322
 21
4.2073910141
 31
0.0
 11
4.7384578028
 21
4.2299412251
 31
0.0
 11
4.745698403
 21
4.2531428992
 31
0.0
 11
4.7487217765
 21
4.2649483805
 31
0.0
 11
4.7513451636
 21
4.2768689766
 31
0.0
 11
4.7553868701
 21
4.3009908588
 31
0.0
 11
4.7578152503
 21
4.3253780428
 31
0.0
 11
4.7586251886
 21
4.3498983494
 31
0.0
 11
4.7578149501
 21
4.3744186176
 31
0.0
 11
4.7553862746
 21
4.3988057037
 31
0.0
 11
4.7513442897
 21
4.4229274049
 31
0.0
 11
4.7487207764
 21
4.4348479078
 31
0.0
 11
4.7456972835
 21
4.446653246
 31
0.0
 11
4.738456475
 21
4.4698546315
 31
0.0
 11
4.7296360582
 21
4.4924044707
 31
0.0
 11
4.7246388133
 21
4.503395578
 31
0.0
 11
4.7192535782
 21
4.5141763743
 31
0.0
 11
4.7134832703
 21
4.52473089
 31
0.0
 11
4.7073312311
 21
4.5350430413
 31
0.0
 11
4.7008012458
 21
4.545096611
 31
0.0
 11
4.6938976237
 21
4.5548751937
 31
0.0
 11
4.6866255283
 21
4.564361993
 31
0.0
 11
4.6789907842
 21
4.5735400765
 31
0.0
 11
4.6709999942
 21
4.5823924433
 31
0.0
 11
4.6626608923
 21
4.5909018018
 31
0.0
 11
4.6539822815
 21
4.5990507047
 31
0.0
 11
4.6449741915
 21
4.6068216696
 31
0.0
 11
4.635647839
 21
4.6141973735
 31
0.0
 11
4.6260157044
 21
4.6211606642
 31
0.0
 11
4.6160917428
 21
4.6276946029
 31
0.0
 11
4.6058913967
 21
4.6337827101
 31
0.0
 11
4.5954313591
 21
4.6394091095
 31
0.0
 11
4.5847296049
 21
4.644558712
 31
0.0
 11
4.5738056433
 21
4.6492172636
 31
0.0
 11
4.5626800465
 21
4.6533715721
 31
0.0
  0
SPLINE
  5
2FB
100
AcDbEntity
  8
0
100
AcDbSpline
 62
6
  6
CONTINUOUS
 70
0
 71
3
 72
39
 73
35
 74
33
 42
0.0000001
 43
0.0000001
 44
0.0000000001
 12
-0.0566604565
 22
0.1236155228
 32
0.0
 13
-0.0825068234
 23
-0.1080917614
 33
0.0
 40
0.0
 40
0.0
 40
0.0
 40
0.0
 40
0.0366750194
 40
0.0727817929
 40
0.1082972401
 40
0.1432017355
 40
0.1774796358
 40
0.2111205246
 40
0.2441206309
 40
0.2764877237
 40
0.3082426565
 40
0.3394120681
 40
0.3700286562
 40
0.4001323784
 40
0.4297718118
 40
0.4590072634
 40
0.4879069447
 40
0.5165426949
 40
0.5449901878
 40
0.5733292194
 40
0.6016438523
 40
0.6300198617
 40
0.6585394684
 40
0.6872806512
 40
0.71631738
 40
0.7457199415
 40
0.7755541631
 40
0.8058749439
 40
0.8367268941
 40
0.8681466722
 40
0.9001642027
 40
0.9328038459
 40
0.9660818865
 40
1.0
 40
1.0
 40
1.0
 40
1.0
 10
6.6522579093
 20
4.404293924
 30
0.0
 10
6.6515652348
 20
4.4058051245
 30
0.0
 10
6.6501230717
 20
4.4087737496
 30
0.0
 10
6.6477727527
 20
4.4130853629
 30
0.0
 10
6.6452596597
 20
4.4172106839
 30
0.0
 10
6.6425918946
 20
4.4211379712
 30
0.0
 10
6.6397774525
 20
4.4248556331
 30
0.0
 10
6.636824385
 20
4.428352091
 30
0.0
 10
6.6337403692
 20
4.4316156706
 30
0.0
 10
6.6305337207
 20
4.4346356515
 30
0.0
 10
6.6272152167
 20
4.4374046276
 30
0.0
 10
6.6237949155
 20
4.4399151919
 30
0.0
 10
6.6202829208
 20
4.4421599828
 30
0.0
 10
6.6166893677
 20
4.4441317409
 30
0.0
 10
6.6130240549
 20
4.4458226499
 30
0.0
 10
6.609297966
 20
4.4472273534
 30
0.0
 10
6.6055228555
 20
4.4483435373
 30
0.0
 10
6.6017100219
 20
4.4491684446
 30
0.0
 10
6.5978708511
 20
4.4496994116
 30
0.0
 10
6.5940167208
 20
4.4499339158
 30
0.0
 10
6.5901592176
 20
4.4498687903
 30
0.0
 10
6.5863101809
 20
4.4495053412
 30
0.0
 10
6.5824810369
 20
4.4488465387
 30
0.0
 10
6.5786831695
 20
4.4478949545
 30
0.0
 10
6.5749279433
 20
4.4466532615
 30
0.0
 10
6.5712267206
 20
4.4451241392
 30
0.0
 10
6.567591348
 20
4.4433103845
 30
0.0
 10
6.5640319298
 20
4.4412193064
 30
0.0
 10
6.5605584747
 20
4.4388583118
 30
0.0
 10
6.5571810919
 20
4.4362347463
 30
0.0
 10
6.5539098565
 20
4.4333559893
 30
0.0
 10
6.5507550942
 20
4.4302293018
 30
0.0
 10
6.5477270954
 20
4.4268632828
 30
0.0
 10
6.5458157198
 20
4.42448965
 30
0.0
 10
6.5448828946
 20
4.4232675605
 30
0.0
 11
6.6522579093
 21
4.404293924
 31
0.0
 11
6.650076928
 21
4.408778904
 31
0.0
 11
6.6477255402
 21
4.4130891178
 31
0.0
 11
6.6452114039
 21
4.4172125804
 31
0.0
 11
6.6425426269
 21
4.421137616
 31
0.0
 11
6.6397273175
 21
4.4248525488
 31
0.0
 11
6.6367735834
 21
4.4283457029
 31
0.0
 11
6.6336895386
 21
4.4316054145
 31
0.0
 11
6.630483968
 21
4.4346214108
 31
0.0
 11
6.6271669427
 21
4.4373860854
 31
0.0
 11
6.6237486795
 21
4.4398921337
 31
0.0
 11
6.6202393951
 21
4.4421322507
 31
0.0
 11
6.616649306
 21
4.4440991317
 31
0.0
 11
6.6129886503
 21
4.4457855626
 31
0.0
 11
6.6092681871
 21
4.4471865627
 31
0.0
 11
6.6054992165
 21
4.4482994686
 31
0.0
 11
6.6016930639
 21
4.4491217246
 31
0.0
 11
6.5978610546
 21
4.4496507748
 31
0.0
 11
6.5940145138
 21
4.4498840635
 31
0.0
 11
6.5901647668
 21
4.4498193487
 31
0.0
 11
6.5863231389
 21
4.4494574447
 31
0.0
 11
6.5825009554
 21
4.4488008879
 31
0.0
 11
6.5787095416
 21
4.447852234
 31
0.0
 11
6.5749602227
 21
4.4466140388
 31
0.0
 11
6.571264324
 21
4.4450888581
 31
0.0
 11
6.5676330135
 21
4.4432799221
 31
0.0
 11
6.5640767228
 21
4.4411936141
 31
0.0
 11
6.5606056687
 21
4.4388372389
 31
0.0
 11
6.5572300678
 21
4.4362181013
 31
0.0
 11
6.5539601369
 21
4.4333435061
 31
0.0
 11
6.5508060906
 21
4.4302207623
 31
0.0
 11
6.5477775757
 21
4.4268583562
 31
0.0
 11
6.5448828946
 21
4.4232675605
 31
0.0
  0
SPLINE
  5
2FC
100
AcDbEntity
  8
0
100
AcDbSpline
 62
6
  6
CONTINUOUS
 70
0
 71
3
 72
39
 73
35
 74
33
 42
0.0000001
 43
0.0000001
 44
0.0000000001
 12
-0.0566607651
 22
-0.123616196
 32
0.0
 13
-0.0825063702
 23
0.1080930391
 33
0.0
 40
0.0
 40
0.0
 40
0.0
 40
0.0
 40
0.0366750006
 40
0.0727817526
 40
0.1082971755
 40
0.1432016436
 40
0.1774795134
 40
0.2111203687
 40
0.2441204387
 40
0.2764874928
 40
0.3082423852
 40
0.3394117551
 40
0.3700283008
 40
0.4001319806
 40
0.4297713728
 40
0.4590067857
 40
0.4879064317
 40
0.5165421507
 40
0.5449896179
 40
0.5733286302
 40
0.6016432514
 40
0.6300192573
 40
0.6585388691
 40
0.6872800661
 40
0.7163168181
 40
0.7457194124
 40
0.7755536761
 40
0.8058745071
 40
0.8367265152
 40
0.8681463583
 40
0.9001639601
 40
0.9328036806
 40
0.9660818027
 40
1.0
 40
1.0
 40
1.0
 40
1.0
 10
6.6522579093
 20
4.2954981504
 30
0.0
 10
6.6515652314
 20
4.2939869424
 30
0.0
 10
6.6501230609
 20
4.2910183029
 30
0.0
 10
6.647772729
 20
4.2867066696
 30
0.0
 10
6.6452596215
 20
4.2825813304
 30
0.0
 10
6.6425918405
 20
4.2786540271
 30
0.0
 10
6.6397773813
 20
4.2749363515
 30
0.0
 10
6.6368242954
 20
4.2714398824
 30
0.0
 10
6.6337402602
 20
4.2681762943
 30
0.0
 10
6.6305335914
 20
4.2651563075
 30
0.0
 10
6.6272150663
 20
4.2623873284
 30
0.0
 10
6.6237947435
 20
4.259876764
 30
0.0
 10
6.6202827268
 20
4.2576319759
 30
0.0
 10
6.6166891514
 20
4.2556602237
 30
0.0
 10
6.6130238162
 20
4.253969324
 30
0.0
 10
6.609297705
 20
4.2525646328
 30
0.0
 10
6.6055225726
 20
4.2514484642
 30
0.0
 10
6.6017097175
 20
4.2506235753
 30
0.0
 10
6.5978705258
 20
4.2500926299
 30
0.0
 10
6.5940163755
 20
4.2498581505
 30
0.0
 10
6.5901588533
 20
4.2499233039
 30
0.0
 10
6.5863097987
 20
4.2502867836
 30
0.0
 10
6.5824806383
 20
4.2509456194
 30
0.0
 10
6.5786827559
 20
4.2518972395
 30
0.0
 10
6.5749275164
 20
4.253138971
 30
0.0
 10
6.5712262821
 20
4.2546681344
 30
0.0
 10
6.5675909002
 20
4.2564819325
 30
0.0
 10
6.5640314744
 20
4.2585730557
 30
0.0
 10
6.5605580141
 20
4.2609340971
 30
0.0
 10
6.5571806284
 20
4.2635577112
 30
0.0
 10
6.5539093924
 20
4.2664365182
 30
0.0
 10
6.5507546323
 20
4.2695632571
 30
0.0
 10
6.5477266383
 20
4.2729293283
 30
0.0
 10
6.5458152674
 20
4.2753029958
 30
0.0
 10
6.544882445
 20
4.2765251028
 30
0.0
 11
6.6522579093
 21
4.2954981504
 31
0.0
 11
6.6500769167
 21
4.2910131485
 31
0.0
 11
6.647725516
 21
4.2867029147
 31
0.0
 11
6.6452113652
 21
4.2825794339
 31
0.0
 11
6.6425425724
 21
4.2786543823
 31
0.0
 11
6.6397272457
 21
4.2749394359
 31
0.0
 11
6.6367734933
 21
4.2714462707
 31
0.0
 11
6.6336894291
 21
4.2681865506
 31
0.0
 11
6.6304838382
 21
4.2651705486
 31
0.0
 11
6.6271667919
 21
4.2624058709
 31
0.0
 11
6.6237485072
 21
4.2598998226
 31
0.0
 11
6.6202392008
 21
4.2576597085
 31
0.0
 11
6.6166490896
 21
4.2556928336
 31
0.0
 11
6.6129884116
 21
4.2540064119
 31
0.0
 11
6.6092679262
 21
4.2526054241
 31
0.0
 11
6.6054989339
 21
4.2514925335
 31
0.0
 11
6.6016927599
 21
4.250670296
 31
0.0
 11
6.5978607299
 21
4.2501412673
 31
0.0
 11
6.5940141692
 21
4.2499080033
 31
0.0
 11
6.5901644033
 21
4.2499727458
 31
0.0
 11
6.5863227576
 21
4.2503346804
 31
0.0
 11
6.5825005577
 21
4.2509912704
 31
0.0
 11
6.5787091289
 21
4.2519399601
 31
0.0
 11
6.5749597967
 21
4.2531781937
 31
0.0
 11
6.5712638866
 21
4.2547034153
 31
0.0
 11
6.5676325665
 21
4.2565123946
 31
0.0
 11
6.5640762683
 21
4.2585987477
 31
0.0
 11
6.5606052088
 21
4.2609551697
 31
0.0
 11
6.5572296049
 21
4.2635743557
 31
0.0
 11
6.5539596735
 21
4.2664490009
 31
0.0
 11
6.5508056293
 21
4.2695717961
 31
0.0
 11
6.5477771189
 21
4.2729342544
 31
0.0
 11
6.544882445
 21
4.2765251028
 31
0.0
  0
SPLINE
  5
2FD
100
AcDbEntity
  8
0
100
AcDbSpline
 62
6
  6
CONTINUOUS
 70
0
 71
3
 72
39
 73
35
 74
33
 42
0.0000001
 43
0.0000001
 44
0.0000000001
 12
-0.0566604565
 22
0.1236155228
 32
0.0
 13
-0.0825068234
 23
-0.1080917614
 33
0.0
 40
0.0
 40
0.0
 40
0.0
 40
0.0
 40
0.0366750194
 40
0.0727817929
 40
0.1082972401
 40
0.1432017355
 40
0.1774796358
 40
0.2111205246
 40
0.2441206309
 40
0.2764877237
 40
0.3082426565
 40
0.3394120681
 40
0.3700286562
 40
0.4001323784
 40
0.4297718118
 40
0.4590072634
 40
0.4879069447
 40
0.5165426949
 40
0.5449901878
 40
0.5733292194
 40
0.6016438523
 40
0.6300198617
 40
0.6585394684
 40
0.6872806512
 40
0.71631738
 40
0.7457199415
 40
0.7755541631
 40
0.8058749439
 40
0.8367268941
 40
0.8681466722
 40
0.9001642027
 40
0.9328038459
 40
0.9660818865
 40
1.0
 40
1.0
 40
1.0
 40
1.0
 10
7.3593646905
 20
4.404293924
 30
0.0
 10
7.358672016
 20
4.4058051245
 30
0.0
 10
7.3572298529
 20
4.4087737496
 30
0.0
 10
7.3548795339
 20
4.4130853629
 30
0.0
 10
7.3523664409
 20
4.4172106839
 30
0.0
 10
7.3496986758
 20
4.4211379712
 30
0.0
 10
7.3468842337
 20
4.4248556331
 30
0.0
 10
7.3439311662
 20
4.428352091
 30
0.0
 10
7.3408471504
 20
4.4316156706
 30
0.0
 10
7.3376405019
 20
4.4346356515
 30
0.0
 10
7.3343219979
 20
4.4374046276
 30
0.0
 10
7.3309016967
 20
4.4399151919
 30
0.0
 10
7.327389702
 20
4.4421599828
 30
0.0
 10
7.3237961489
 20
4.4441317409
 30
0.0
 10
7.3201308361
 20
4.4458226499
 30
0.0
 10
7.3164047471
 20
4.4472273534
 30
0.0
 10
7.3126296367
 20
4.4483435373
 30
0.0
 10
7.3088168031
 20
4.4491684446
 30
0.0
 10
7.3049776323
 20
4.4496994116
 30
0.0
 10
7.301123502
 20
4.4499339158
 30
0.0
 10
7.2972659988
 20
4.4498687903
 30
0.0
 10
7.2934169621
 20
4.4495053412
 30
0.0
 10
7.2895878181
 20
4.4488465387
 30
0.0
 10
7.2857899507
 20
4.4478949545
 30
0.0
 10
7.2820347245
 20
4.4466532615
 30
0.0
 10
7.2783335017
 20
4.4451241392
 30
0.0
 10
7.2746981292
 20
4.4433103845
 30
0.0
 10
7.271138711
 20
4.4412193064
 30
0.0
 10
7.2676652559
 20
4.4388583118
 30
0.0
 10
7.2642878731
 20
4.4362347463
 30
0.0
 10
7.2610166377
 20
4.4333559893
 30
0.0
 10
7.2578618754
 20
4.4302293018
 30
0.0
 10
7.2548338766
 20
4.4268632828
 30
0.0
 10
7.252922501
 20
4.42448965
 30
0.0
 10
7.2519896757
 20
4.4232675605
 30
0.0
 11
7.3593646905
 21
4.404293924
 31
0.0
 11
7.3571837092
 21
4.408778904
 31
0.0
 11
7.3548323214
 21
4.4130891178
 31
0.0
 11
7.352318185
 21
4.4172125804
 31
0.0
 11
7.3496494081
 21
4.421137616
 31
0.0
 11
7.3468340986
 21
4.4248525488
 31
0.0
 11
7.3438803646
 21
4.4283457029
 31
0.0
 11
7.3407963198
 21
4.4316054145
 31
0.0
 11
7.3375907492
 21
4.4346214108
 31
0.0
 11
7.3342737239
 21
4.4373860854
 31
0.0
 11
7.3308554607
 21
4.4398921337
 31
0.0
 11
7.3273461762
 21
4.4421322507
 31
0.0
 11
7.3237560872
 21
4.4440991317
 31
0.0
 11
7.3200954315
 21
4.4457855626
 31
0.0
 11
7.3163749682
 21
4.4471865627
 31
0.0
 11
7.3126059977
 21
4.4482994686
 31
0.0
 11
7.3087998451
 21
4.4491217246
 31
0.0
 11
7.3049678358
 21
4.4496507748
 31
0.0
 11
7.301121295
 21
4.4498840635
 31
0.0
 11
7.297271548
 21
4.4498193487
 31
0.0
 11
7.2934299201
 21
4.4494574447
 31
0.0
 11
7.2896077366
 21
4.4488008879
 31
0.0
 11
7.2858163228
 21
4.447852234
 31
0.0
 11
7.2820670039
 21
4.4466140388
 31
0.0
 11
7.2783711052
 21
4.4450888581
 31
0.0
 11
7.2747397947
 21
4.4432799221
 31
0.0
 11
7.271183504
 21
4.4411936141
 31
0.0
 11
7.2677124499
 21
4.4388372389
 31
0.0
 11
7.264336849
 21
4.4362181013
 31
0.0
 11
7.2610669181
 21
4.4333435061
 31
0.0
 11
7.2579128718
 21
4.4302207623
 31
0.0
 11
7.2548843569
 21
4.4268583562
 31
0.0
 11
7.2519896757
 21
4.4232675605
 31
0.0
  0
SPLINE
  5
2FE
100
AcDbEntity
  8
0
100
AcDbSpline
 62
6
  6
CONTINUOUS
 70
0
 71
3
 72
39
 73
35
 74
33
 42
0.0000001
 43
0.0000001
 44
0.0000000001
 12
-0.0566607651
 22
-0.123616196
 32
0.0
 13
-0.0825063702
 23
0.1080930391
 33
0.0
 40
0.0
 40
0.0
 40
0.0
 40
0.0
 40
0.0366750006
 40
0.0727817526
 40
0.1082971755
 40
0.1432016436
 40
0.1774795134
 40
0.2111203687
 40
0.2441204387
 40
0.2764874928
 40
0.3082423852
 40
0.3394117551
 40
0.3700283008
 40
0.4001319806
 40
0.4297713728
 40
0.4590067857
 40
0.4879064317
 40
0.5165421507
 40
0.5449896179
 40
0.5733286302
 40
0.6016432514
 40
0.6300192573
 40
0.6585388691
 40
0.6872800661
 40
0.7163168181
 40
0.7457194124
 40
0.7755536761
 40
0.8058745071
 40
0.8367265152
 40
0.8681463583
 40
0.9001639601
 40
0.9328036806
 40
0.9660818027
 40
1.0
 40
1.0
 40
1.0
 40
1.0
 10
7.3593646905
 20
4.2954981504
 30
0.0
 10
7.3586720126
 20
4.2939869424
 30
0.0
 10
7.3572298421
 20
4.2910183029
 30
0.0
 10
7.3548795101
 20
4.2867066696
 30
0.0
 10
7.3523664027
 20
4.2825813304
 30
0.0
 10
7.3496986217
 20
4.2786540271
 30
0.0
 10
7.3468841624
 20
4.2749363515
 30
0.0
 10
7.3439310766
 20
4.2714398824
 30
0.0
 10
7.3408470414
 20
4.2681762943
 30
0.0
 10
7.3376403725
 20
4.2651563075
 30
0.0
 10
7.3343218475
 20
4.2623873284
 30
0.0
 10
7.3309015247
 20
4.259876764
 30
0.0
 10
7.327389508
 20
4.2576319759
 30
0.0
 10
7.3237959326
 20
4.2556602237
 30
0.0
 10
7.3201305974
 20
4.253969324
 30
0.0
 10
7.3164044862
 20
4.2525646328
 30
0.0
 10
7.3126293538
 20
4.2514484642
 30
0.0
 10
7.3088164987
 20
4.2506235753
 30
0.0
 10
7.304977307
 20
4.2500926299
 30
0.0
 10
7.3011231567
 20
4.2498581505
 30
0.0
 10
7.2972656345
 20
4.2499233039
 30
0.0
 10
7.2934165799
 20
4.2502867836
 30
0.0
 10
7.2895874195
 20
4.2509456194
 30
0.0
 10
7.2857895371
 20
4.2518972395
 30
0.0
 10
7.2820342975
 20
4.253138971
 30
0.0
 10
7.2783330633
 20
4.2546681344
 30
0.0
 10
7.2746976814
 20
4.2564819325
 30
0.0
 10
7.2711382556
 20
4.2585730557
 30
0.0
 10
7.2676647953
 20
4.2609340971
 30
0.0
 10
7.2642874095
 20
4.2635577112
 30
0.0
 10
7.2610161736
 20
4.2664365182
 30
0.0
 10
7.2578614135
 20
4.2695632571
 30
0.0
 10
7.2548334195
 20
4.2729293283
 30
0.0
 10
7.2529220486
 20
4.2753029958
 30
0.0
 10
7.2519892262
 20
4.2765251028
 30
0.0
 11
7.3593646905
 21
4.2954981504
 31
0.0
 11
7.3571836979
 21
4.2910131485
 31
0.0
 11
7.3548322972
 21
4.2867029147
 31
0.0
 11
7.3523181464
 21
4.2825794339
 31
0.0
 11
7.3496493536
 21
4.2786543823
 31
0.0
 11
7.3468340269
 21
4.2749394359
 31
0.0
 11
7.3438802745
 21
4.2714462707
 31
0.0
 11
7.3407962103
 21
4.2681865506
 31
0.0
 11
7.3375906194
 21
4.2651705486
 31
0.0
 11
7.3342735731
 21
4.2624058709
 31
0.0
 11
7.3308552884
 21
4.2598998226
 31
0.0
 11
7.327345982
 21
4.2576597085
 31
0.0
 11
7.3237558708
 21
4.2556928336
 31
0.0
 11
7.3200951928
 21
4.2540064119
 31
0.0
 11
7.3163747074
 21
4.2526054241
 31
0.0
 11
7.312605715
 21
4.2514925335
 31
0.0
 11
7.3087995411
 21
4.250670296
 31
0.0
 11
7.3049675111
 21
4.2501412673
 31
0.0
 11
7.3011209504
 21
4.2499080033
 31
0.0
 11
7.2972711845
 21
4.2499727458
 31
0.0
 11
7.2934295388
 21
4.2503346804
 31
0.0
 11
7.2896073389
 21
4.2509912704
 31
0.0
 11
7.2858159101
 21
4.2519399601
 31
0.0
 11
7.2820665779
 21
4.2531781937
 31
0.0
 11
7.2783706677
 21
4.2547034153
 31
0.0
 11
7.2747393477
 21
4.2565123946
 31
0.0
 11
7.2711830495
 21
4.2585987477
 31
0.0
 11
7.26771199
 21
4.2609551697
 31
0.0
 11
7.2643363861
 21
4.2635743557
 31
0.0
 11
7.2610664547
 21
4.2664490009
 31
0.0
 11
7.2579124104
 21
4.2695717961
 31
0.0
 11
7.2548839001
 21
4.2729342544
 31
0.0
 11
7.2519892262
 21
4.2765251028
 31
0.0
  0
SPLINE
  5
2FF
100
AcDbEntity
  8
0
100
AcDbSpline
 62
6
  6
CONTINUOUS
 70
0
 71
3
 72
39
 73
35
 74
33
 42
0.0000001
 43
0.0000001
 44
0.0000000001
 12
-0.0566604565
 22
0.1236155228
 32
0.0
 13
-0.0825068234
 23
-0.1080917614
 33
0.0
 40
0.0
 40
0.0
 40
0.0
 40
0.0
 40
0.0366750194
 40
0.0727817929
 40
0.1082972401
 40
0.1432017355
 40
0.1774796358
 40
0.2111205246
 40
0.2441206309
 40
0.2764877237
 40
0.3082426565
 40
0.3394120681
 40
0.3700286562
 40
0.4001323784
 40
0.4297718118
 40
0.4590072634
 40
0.4879069447
 40
0.5165426949
 40
0.5449901878
 40
0.5733292194
 40
0.6016438523
 40
0.6300198617
 40
0.6585394684
 40
0.6872806512
 40
0.71631738
 40
0.7457199415
 40
0.7755541631
 40
0.8058749439
 40
0.8367268941
 40
0.8681466722
 40
0.9001642027
 40
0.9328038459
 40
0.9660818865
 40
1.0
 40
1.0
 40
1.0
 40
1.0
 10
8.0664714716
 20
4.404293924
 30
0.0
 10
8.0657787972
 20
4.4058051245
 30
0.0
 10
8.0643366341
 20
4.4087737496
 30
0.0
 10
8.0619863151
 20
4.4130853629
 30
0.0
 10
8.0594732221
 20
4.4172106839
 30
0.0
 10
8.056805457
 20
4.4211379712
 30
0.0
 10
8.0539910149
 20
4.4248556331
 30
0.0
 10
8.0510379474
 20
4.428352091
 30
0.0
 10
8.0479539316
 20
4.4316156706
 30
0.0
 10
8.0447472831
 20
4.4346356515
 30
0.0
 10
8.0414287791
 20
4.4374046276
 30
0.0
 10
8.0380084779
 20
4.4399151919
 30
0.0
 10
8.0344964832
 20
4.4421599828
 30
0.0
 10
8.0309029301
 20
4.4441317409
 30
0.0
 10
8.0272376173
 20
4.4458226499
 30
0.0
 10
8.0235115283
 20
4.4472273534
 30
0.0
 10
8.0197364179
 20
4.4483435373
 30
0.0
 10
8.0159235843
 20
4.4491684446
 30
0.0
 10
8.0120844135
 20
4.4496994116
 30
0.0
 10
8.0082302832
 20
4.4499339158
 30
0.0
 10
8.00437278
 20
4.4498687903
 30
0.0
 10
8.0005237432
 20
4.4495053412
 30
0.0
 10
7.9966945993
 20
4.4488465387
 30
0.0
 10
7.9928967319
 20
4.4478949545
 30
0.0
 10
7.9891415057
 20
4.4466532615
 30
0.0
 10
7.9854402829
 20
4.4451241392
 30
0.0
 10
7.9818049104
 20
4.4433103845
 30
0.0
 10
7.9782454921
 20
4.4412193064
 30
0.0
 10
7.9747720371
 20
4.4388583118
 30
0.0
 10
7.9713946543
 20
4.4362347463
 30
0.0
 10
7.9681234189
 20
4.4333559893
 30
0.0
 10
7.9649686566
 20
4.4302293018
 30
0.0
 10
7.9619406578
 20
4.4268632828
 30
0.0
 10
7.9600292822
 20
4.42448965
 30
0.0
 10
7.9590964569
 20
4.4232675605
 30
0.0
 11
8.0664714716
 21
4.404293924
 31
0.0
 11
8.0642904903
 21
4.408778904
 31
0.0
 11
8.0619391026
 21
4.4130891178
 31
0.0
 11
8.0594249662
 21
4.4172125804
 31
0.0
 11
8.0567561893
 21
4.421137616
 31
0.0
 11
8.0539408798
 21
4.4248525488
 31
0.0
 11
8.0509871458
 21
4.4283457029
 31
0.0
 11
8.047903101
 21
4.4316054145
 31
0.0
 11
8.0446975304
 21
4.4346214108
 31
0.0
 11
8.0413805051
 21
4.4373860854
 31
0.0
 11
8.0379622419
 21
4.4398921337
 31
0.0
 11
8.0344529574
 21
4.4421322507
 31
0.0
 11
8.0308628684
 21
4.4440991317
 31
0.0
 11
8.0272022127
 21
4.4457855626
 31
0.0
 11
8.0234817494
 21
4.4471865627
 31
0.0
 11
8.0197127789
 21
4.4482994686
 31
0.0
 11
8.0159066263
 21
4.4491217246
 31
0.0
 11
8.012074617
 21
4.4496507748
 31
0.0
 11
8.0082280762
 21
4.4498840635
 31
0.0
 11
8.0043783292
 21
4.4498193487
 31
0.0
 11
8.0005367013
 21
4.4494574447
 31
0.0
 11
7.9967145178
 21
4.4488008879
 31
0.0
 11
7.9929231039
 21
4.447852234
 31
0.0
 11
7.9891737851
 21
4.4466140388
 31
0.0
 11
7.9854778864
 21
4.4450888581
 31
0.0
 11
7.9818465758
 21
4.4432799221
 31
0.0
 11
7.9782902852
 21
4.4411936141
 31
0.0
 11
7.9748192311
 21
4.4388372389
 31
0.0
 11
7.9714436302
 21
4.4362181013
 31
0.0
 11
7.9681736993
 21
4.4333435061
 31
0.0
 11
7.965019653
 21
4.4302207623
 31
0.0
 11
7.9619911381
 21
4.4268583562
 31
0.0
 11
7.9590964569
 21
4.4232675605
 31
0.0
  0
SPLINE
  5
300
100
AcDbEntity
  8
0
100
AcDbSpline
 62
6
  6
CONTINUOUS
 70
0
 71
3
 72
39
 73
35
 74
33
 42
0.0000001
 43
0.0000001
 44
0.0000000001
 12
-0.0566607651
 22
-0.123616196
 32
0.0
 13
-0.0825063702
 23
0.1080930391
 33
0.0
 40
0.0
 40
0.0
 40
0.0
 40
0.0
 40
0.0366750006
 40
0.0727817526
 40
0.1082971755
 40
0.1432016436
 40
0.1774795134
 40
0.2111203687
 40
0.2441204387
 40
0.2764874928
 40
0.3082423852
 40
0.3394117551
 40
0.3700283008
 40
0.4001319806
 40
0.4297713728
 40
0.4590067857
 40
0.4879064317
 40
0.5165421507
 40
0.5449896179
 40
0.5733286302
 40
0.6016432514
 40
0.6300192573
 40
0.6585388691
 40
0.6872800661
 40
0.7163168181
 40
0.7457194124
 40
0.7755536761
 40
0.8058745071
 40
0.8367265152
 40
0.8681463583
 40
0.9001639601
 40
0.9328036806
 40
0.9660818027
 40
1.0
 40
1.0
 40
1.0
 40
1.0
 10
8.0664714716
 20
4.2954981504
 30
0.0
 10
8.0657787938
 20
4.2939869424
 30
0.0
 10
8.0643366233
 20
4.2910183029
 30
0.0
 10
8.0619862913
 20
4.2867066696
 30
0.0
 10
8.0594731839
 20
4.2825813304
 30
0.0
 10
8.0568054029
 20
4.2786540271
 30
0.0
 10
8.0539909436
 20
4.2749363515
 30
0.0
 10
8.0510378578
 20
4.2714398824
 30
0.0
 10
8.0479538226
 20
4.2681762943
 30
0.0
 10
8.0447471537
 20
4.2651563075
 30
0.0
 10
8.0414286287
 20
4.2623873284
 30
0.0
 10
8.0380083059
 20
4.259876764
 30
0.0
 10
8.0344962892
 20
4.2576319759
 30
0.0
 10
8.0309027138
 20
4.2556602237
 30
0.0
 10
8.0272373786
 20
4.253969324
 30
0.0
 10
8.0235112674
 20
4.2525646328
 30
0.0
 10
8.019736135
 20
4.2514484642
 30
0.0
 10
8.0159232799
 20
4.2506235753
 30
0.0
 10
8.0120840882
 20
4.2500926299
 30
0.0
 10
8.0082299379
 20
4.2498581505
 30
0.0
 10
8.0043724157
 20
4.2499233039
 30
0.0
 10
8.0005233611
 20
4.2502867836
 30
0.0
 10
7.9966942007
 20
4.2509456194
 30
0.0
 10
7.9928963182
 20
4.2518972395
 30
0.0
 10
7.9891410787
 20
4.253138971
 30
0.0
 10
7.9854398445
 20
4.2546681344
 30
0.0
 10
7.9818044626
 20
4.2564819325
 30
0.0
 10
7.9782450368
 20
4.2585730557
 30
0.0
 10
7.9747715765
 20
4.2609340971
 30
0.0
 10
7.9713941907
 20
4.2635577112
 30
0.0
 10
7.9681229548
 20
4.2664365182
 30
0.0
 10
7.9649681947
 20
4.2695632571
 30
0.0
 10
7.9619402006
 20
4.2729293283
 30
0.0
 10
7.9600288298
 20
4.2753029958
 30
0.0
 10
7.9590960074
 20
4.2765251028
 30
0.0
 11
8.0664714716
 21
4.2954981504
 31
0.0
 11
8.0642904791
 21
4.2910131485
 31
0.0
 11
8.0619390784
 21
4.2867029147
 31
0.0
 11
8.0594249276
 21
4.2825794339
 31
0.0
 11
8.0567561347
 21
4.2786543823
 31
0.0
 11
8.0539408081
 21
4.2749394359
 31
0.0
 11
8.0509870557
 21
4.2714462707
 31
0.0
 11
8.0479029915
 21
4.2681865506
 31
0.0
 11
8.0446974006
 21
4.2651705486
 31
0.0
 11
8.0413803543
 21
4.2624058709
 31
0.0
 11
8.0379620696
 21
4.2598998226
 31
0.0
 11
8.0344527632
 21
4.2576597085
 31
0.0
 11
8.030862652
 21
4.2556928336
 31
0.0
 11
8.027201974
 21
4.2540064119
 31
0.0
 11
8.0234814886
 21
4.2526054241
 31
0.0
 11
8.0197124962
 21
4.2514925335
 31
0.0
 11
8.0159063223
 21
4.250670296
 31
0.0
 11
8.0120742922
 21
4.2501412673
 31
0.0
 11
8.0082277316
 21
4.2499080033
 31
0.0
 11
8.0043779656
 21
4.2499727458
 31
0.0
 11
8.00053632
 21
4.2503346804
 31
0.0
 11
7.99671412
 21
4.2509912704
 31
0.0
 11
7.9929226912
 21
4.2519399601
 31
0.0
 11
7.9891733591
 21
4.2531781937
 31
0.0
 11
7.9854774489
 21
4.2547034153
 31
0.0
 11
7.9818461288
 21
4.2565123946
 31
0.0
 11
7.9782898306
 21
4.2585987477
 31
0.0
 11
7.9748187712
 21
4.2609551697
 31
0.0
 11
7.9714431673
 21
4.2635743557
 31
0.0
 11
7.9681732359
 21
4.2664490009
 31
0.0
 11
7.9650191916
 21
4.2695717961
 31
0.0
 11
7.9619906813
 21
4.2729342544
 31
0.0
 11
7.9590960074
 21
4.2765251028
 31
0.0
  0
SPLINE
  5
301
100
AcDbEntity
  8
0
100
AcDbSpline
 62
6
  6
CONTINUOUS
 70
0
 71
3
 72
39
 73
35
 74
33
 42
0.0000001
 43
0.0000001
 44
0.0000000001
 12
-0.0566604565
 22
0.1236155228
 32
0.0
 13
-0.0825068234
 23
-0.1080917614
 33
0.0
 40
0.0
 40
0.0
 40
0.0
 40
0.0
 40
0.0366750194
 40
0.0727817929
 40
0.1082972401
 40
0.1432017355
 40
0.1774796358
 40
0.2111205246
 40
0.2441206309
 40
0.2764877237
 40
0.3082426565
 40
0.3394120681
 40
0.3700286562
 40
0.4001323784
 40
0.4297718118
 40
0.4590072634
 40
0.4879069447
 40
0.5165426949
 40
0.5449901878
 40
0.5733292194
 40
0.6016438523
 40
0.6300198617
 40
0.6585394684
 40
0.6872806512
 40
0.71631738
 40
0.7457199415
 40
0.7755541631
 40
0.8058749439
 40
0.8367268941
 40
0.8681466722
 40
0.9001642027
 40
0.9328038459
 40
0.9660818865
 40
1.0
 40
1.0
 40
1.0
 40
1.0
 10
8.7735782528
 20
4.404293924
 30
0.0
 10
8.7728855784
 20
4.4058051245
 30
0.0
 10
8.7714434153
 20
4.4087737496
 30
0.0
 10
8.7690930963
 20
4.4130853629
 30
0.0
 10
8.7665800033
 20
4.4172106839
 30
0.0
 10
8.7639122382
 20
4.4211379712
 30
0.0
 10
8.7610977961
 20
4.4248556331
 30
0.0
 10
8.7581447286
 20
4.428352091
 30
0.0
 10
8.7550607128
 20
4.4316156706
 30
0.0
 10
8.7518540643
 20
4.4346356515
 30
0.0
 10
8.7485355603
 20
4.4374046276
 30
0.0
 10
8.745115259
 20
4.4399151919
 30
0.0
 10
8.7416032644
 20
4.4421599828
 30
0.0
 10
8.7380097113
 20
4.4441317409
 30
0.0
 10
8.7343443984
 20
4.4458226499
 30
0.0
 10
8.7306183095
 20
4.4472273534
 30
0.0
 10
8.7268431991
 20
4.4483435373
 30
0.0
 10
8.7230303654
 20
4.4491684446
 30
0.0
 10
8.7191911947
 20
4.4496994116
 30
0.0
 10
8.7153370644
 20
4.4499339158
 30
0.0
 10
8.7114795612
 20
4.4498687903
 30
0.0
 10
8.7076305244
 20
4.4495053412
 30
0.0
 10
8.7038013805
 20
4.4488465387
 30
0.0
 10
8.7000035131
 20
4.4478949545
 30
0.0
 10
8.6962482869
 20
4.4466532615
 30
0.0
 10
8.6925470641
 20
4.4451241392
 30
0.0
 10
8.6889116916
 20
4.4433103845
 30
0.0
 10
8.6853522733
 20
4.4412193064
 30
0.0
 10
8.6818788183
 20
4.4388583118
 30
0.0
 10
8.6785014355
 20
4.4362347463
 30
0.0
 10
8.6752302001
 20
4.4333559893
 30
0.0
 10
8.6720754377
 20
4.4302293018
 30
0.0
 10
8.669047439
 20
4.4268632828
 30
0.0
 10
8.6671360634
 20
4.42448965
 30
0.0
 10
8.6662032381
 20
4.4232675605
 30
0.0
 11
8.7735782528
 21
4.404293924
 31
0.0
 11
8.7713972715
 21
4.408778904
 31
0.0
 11
8.7690458838
 21
4.4130891178
 31
0.0
 11
8.7665317474
 21
4.4172125804
 31
0.0
 11
8.7638629705
 21
4.421137616
 31
0.0
 11
8.761047661
 21
4.4248525488
 31
0.0
 11
8.758093927
 21
4.4283457029
 31
0.0
 11
8.7550098822
 21
4.4316054145
 31
0.0
 11
8.7518043116
 21
4.4346214108
 31
0.0
 11
8.7484872863
 21
4.4373860854
 31
0.0
 11
8.7450690231
 21
4.4398921337
 31
0.0
 11
8.7415597386
 21
4.4421322507
 31
0.0
 11
8.7379696496
 21
4.4440991317
 31
0.0
 11
8.7343089938
 21
4.4457855626
 31
0.0
 11
8.7305885306
 21
4.4471865627
 31
0.0
 11
8.7268195601
 21
4.4482994686
 31
0.0
 11
8.7230134075
 21
4.4491217246
 31
0.0
 11
8.7191813982
 21
4.4496507748
 31
0.0
 11
8.7153348574
 21
4.4498840635
 31
0.0
 11
8.7114851104
 21
4.4498193487
 31
0.0
 11
8.7076434825
 21
4.4494574447
 31
0.0
 11
8.703821299
 21
4.4488008879
 31
0.0
 11
8.7000298851
 21
4.447852234
 31
0.0
 11
8.6962805662
 21
4.4466140388
 31
0.0
 11
8.6925846676
 21
4.4450888581
 31
0.0
 11
8.688953357
 21
4.4432799221
 31
0.0
 11
8.6853970664
 21
4.4411936141
 31
0.0
 11
8.6819260122
 21
4.4388372389
 31
0.0
 11
8.6785504114
 21
4.4362181013
 31
0.0
 11
8.6752804805
 21
4.4333435061
 31
0.0
 11
8.6721264342
 21
4.4302207623
 31
0.0
 11
8.6690979193
 21
4.4268583562
 31
0.0
 11
8.6662032381
 21
4.4232675605
 31
0.0
  0
SPLINE
  5
302
100
AcDbEntity
  8
0
100
AcDbSpline
 62
6
  6
CONTINUOUS
 70
0
 71
3
 72
15
 73
11
 74
9
 42
0.0000001
 43
0.0000001
 44
0.0000000001
 12
0.0627824137
 22
0.0185492279
 32
0.0
 13
0.0637244607
 23
-0.0149966138
 33
0.0
 40
0.0
 40
0.0
 40
0.0
 40
0.0
 40
0.124929973
 40
0.2499584415
 40
0.3749880616
 40
0.4999805773
 40
0.624975924
 40
0.7500213868
 40
0.8750666227
 40
1.0
 40
1.0
 40
1.0
 40
1.0
 10
2.9496897248
 20
4.4705296855
 30
0.0
 10
2.9523041932
 20
4.471302137
 30
0.0
 10
2.9575856211
 20
4.4726824894
 30
0.0
 10
2.9656227293
 20
4.4742478601
 30
0.0
 10
2.9737450949
 20
4.4752978959
 30
0.0
 10
2.9819174961
 20
4.4758224998
 30
0.0
 10
2.9901071455
 20
4.4758172667
 30
0.0
 10
2.9982802703
 20
4.4752766638
 30
0.0
 10
3.0063986937
 20
4.4742017021
 30
0.0
 10
3.0117521311
 20
4.4731296201
 30
0.0
 10
3.0144059018
 20
4.4725050942
 30
0.0
 11
2.9496897248
 21
4.4705296855
 31
0.0
 11
2.957602506
 21
4.4725977838
 31
0.0
 11
2.965636692
 21
4.4741619151
 31
0.0
 11
2.9737543602
 21
4.4752104136
 31
0.0
 11
2.9819202511
 21
4.4757342001
 31
0.0
 11
2.9901031065
 21
4.4757280809
 31
0.0
 11
2.9982713807
 21
4.4751875621
 31
0.0
 11
3.0063865936
 21
4.4741124149
 31
0.0
 11
3.0144059018
 21
4.4725050942
 31
0.0
  0
SPLINE
  5
303
100
AcDbEntity
  8
0
100
AcDbSpline
 62
6
  6
CONTINUOUS
 70
0
 71
3
 72
39
 73
35
 74
33
 42
0.0000001
 43
0.0000001
 44
0.0000000001
 12
-0.0566607651
 22
-0.123616196
 32
0.0
 13
-0.0825063702
 23
0.1080930391
 33
0.0
 40
0.0
 40
0.0
 40
0.0
 40
0.0
 40
0.0366750006
 40
0.0727817526
 40
0.1082971755
 40
0.1432016436
 40
0.1774795134
 40
0.2111203687
 40
0.2441204387
 40
0.2764874928
 40
0.3082423852
 40
0.3394117551
 40
0.3700283008
 40
0.4001319806
 40
0.4297713728
 40
0.4590067857
 40
0.4879064317
 40
0.5165421507
 40
0.5449896179
 40
0.5733286302
 40
0.6016432514
 40
0.6300192573
 40
0.6585388691
 40
0.6872800661
 40
0.7163168181
 40
0.7457194124
 40
0.7755536761
 40
0.8058745071
 40
0.8367265152
 40
0.8681463583
 40
0.9001639601
 40
0.9328036806
 40
0.9660818027
 40
1.0
 40
1.0
 40
1.0
 40
1.0
 10
8.7735782528
 20
4.2954981504
 30
0.0
 10
8.772885575
 20
4.2939869424
 30
0.0
 10
8.7714434045
 20
4.2910183029
 30
0.0
 10
8.7690930725
 20
4.2867066696
 30
0.0
 10
8.7665799651
 20
4.2825813304
 30
0.0
 10
8.7639121841
 20
4.2786540271
 30
0.0
 10
8.7610977248
 20
4.2749363515
 30
0.0
 10
8.758144639
 20
4.2714398824
 30
0.0
 10
8.7550606037
 20
4.2681762943
 30
0.0
 10
8.7518539349
 20
4.2651563075
 30
0.0
 10
8.7485354099
 20
4.2623873284
 30
0.0
 10
8.7451150871
 20
4.259876764
 30
0.0
 10
8.7416030704
 20
4.2576319759
 30
0.0
 10
8.738009495
 20
4.2556602237
 30
0.0
 10
8.7343441597
 20
4.253969324
 30
0.0
 10
8.7306180486
 20
4.2525646328
 30
0.0
 10
8.7268429162
 20
4.2514484642
 30
0.0
 10
8.723030061
 20
4.2506235753
 30
0.0
 10
8.7191908694
 20
4.2500926299
 30
0.0
 10
8.7153367191
 20
4.2498581505
 30
0.0
 10
8.7114791969
 20
4.2499233039
 30
0.0
 10
8.7076301423
 20
4.2502867836
 30
0.0
 10
8.7038009819
 20
4.2509456194
 30
0.0
 10
8.7000030994
 20
4.2518972395
 30
0.0
 10
8.6962478599
 20
4.253138971
 30
0.0
 10
8.6925466257
 20
4.2546681344
 30
0.0
 10
8.6889112438
 20
4.2564819325
 30
0.0
 10
8.685351818
 20
4.2585730557
 30
0.0
 10
8.6818783577
 20
4.2609340971
 30
0.0
 10
8.6785009719
 20
4.2635577112
 30
0.0
 10
8.675229736
 20
4.2664365182
 30
0.0
 10
8.6720749758
 20
4.2695632571
 30
0.0
 10
8.6690469818
 20
4.2729293283
 30
0.0
 10
8.667135611
 20
4.2753029958
 30
0.0
 10
8.6662027886
 20
4.2765251028
 30
0.0
 11
8.7735782528
 21
4.2954981504
 31
0.0
 11
8.7713972603
 21
4.2910131485
 31
0.0
 11
8.7690458596
 21
4.2867029147
 31
0.0
 11
8.7665317087
 21
4.2825794339
 31
0.0
 11
8.7638629159
 21
4.2786543823
 31
0.0
 11
8.7610475893
 21
4.2749394359
 31
0.0
 11
8.7580938369
 21
4.2714462707
 31
0.0
 11
8.7550097727
 21
4.2681865506
 31
0.0
 11
8.7518041818
 21
4.2651705486
 31
0.0
 11
8.7484871355
 21
4.2624058709
 31
0.0
 11
8.7450688508
 21
4.2598998226
 31
0.0
 11
8.7415595444
 21
4.2576597085
 31
0.0
 11
8.7379694331
 21
4.2556928336
 31
0.0
 11
8.7343087551
 21
4.2540064119
 31
0.0
 11
8.7305882698
 21
4.2526054241
 31
0.0
 11
8.7268192774
 21
4.2514925335
 31
0.0
 11
8.7230131035
 21
4.250670296
 31
0.0
 11
8.7191810734
 21
4.2501412673
 31
0.0
 11
8.7153345127
 21
4.2499080033
 31
0.0
 11
8.7114847468
 21
4.2499727458
 31
0.0
 11
8.7076431012
 21
4.2503346804
 31
0.0
 11
8.7038209012
 21
4.2509912704
 31
0.0
 11
8.7000294724
 21
4.2519399601
 31
0.0
 11
8.6962801402
 21
4.2531781937
 31
0.0
 11
8.6925842301
 21
4.2547034153
 31
0.0
 11
8.68895291
 21
4.2565123946
 31
0.0
 11
8.6853966118
 21
4.2585987477
 31
0.0
 11
8.6819255524
 21
4.2609551697
 31
0.0
 11
8.6785499485
 21
4.2635743557
 31
0.0
 11
8.675280017
 21
4.2664490009
 31
0.0
 11
8.6721259728
 21
4.2695717961
 31
0.0
 11
8.6690974625
 21
4.2729342544
 31
0.0
 11
8.6662027886
 21
4.2765251028
 31
0.0
  0
SPLINE
  5
304
100
AcDbEntity
  8
0
100
AcDbSpline
 62
6
  6
CONTINUOUS
 70
0
 71
3
 72
19
 73
15
 74
13
 42
0.0000001
 43
0.0000001
 44
0.0000000001
 12
0.0936969794
 22
-0.0000001921
 32
0.0
 13
0.0714741514
 23
0.0605852262
 33
0.0
 40
0.0
 40
0.0
 40
0.0
 40
0.0
 40
0.059782446
 40
0.1196271996
 40
0.179606057
 40
0.2397906729
 40
0.3002525063
 40
0.361062397
 40
0.4222855426
 40
0.4839806099
 40
0.608971475
 40
0.736456473
 40
0.8667285046
 40
1.0
 40
1.0
 40
1.0
 40
1.0
 10
4.3088818413
 20
4.0999063047
 30
0.0
 10
4.3107489862
 20
4.0999063009
 30
0.0
 10
4.3144858316
 20
4.0999952105
 30
0.0
 10
4.3200830763
 20
4.1003952604
 30
0.0
 10
4.3256676325
 20
4.1010619418
 30
0.0
 10
4.3312333641
 20
4.1019952044
 30
0.0
 10
4.3367743737
 20
4.1031949088
 30
0.0
 10
4.3422843961
 20
4.1046611821
 30
0.0
 10
4.3477575656
 20
4.1063920574
 30
0.0
 10
4.3550286108
 20
4.1090597499
 30
0.0
 10
4.3640057009
 20
4.1130550471
 30
0.0
 10
4.3744823735
 20
4.1188403899
 30
0.0
 10
4.3846630209
 20
4.1256091599
 30
0.0
 10
4.3911445633
 20
4.1306982583
 30
0.0
 10
4.394319719
 20
4.1333896862
 30
0.0
 11
4.3088818413
 21
4.0999063047
 31
0.0
 11
4.314481692
 21
4.1000395042
 31
0.0
 11
4.3200747092
 21
4.1004390849
 31
0.0
 11
4.3256549558
 21
4.1011049859
 31
0.0
 11
4.3312164947
 21
4.1020371462
 31
0.0
 11
4.3367533886
 21
4.1032355048
 31
0.0
 11
4.3422596996
 21
4.1046998679
 31
0.0
 11
4.3477294793
 21
4.106428471
 31
0.0
 11
4.3531567725
 21
4.1084185224
 31
0.0
 11
4.363860078
 21
4.1131717333
 31
0.0
 11
4.3743218033
 21
4.1189366579
 31
0.0
 11
4.3844920877
 21
4.125686035
 31
0.0
 11
4.394319719
 21
4.1333896862
 31
0.0
  0
SPLINE
  5
305
100
AcDbEntity
  8
0
100
AcDbSpline
 62
6
  6
CONTINUOUS
 70
0
 71
3
 72
15
 73
11
 74
9
 42
0.0000001
 43
0.0000001
 44
0.0000000001
 12
0.0573912349
 22
0.0060678715
 32
0.0
 13
0.0498331659
 23
0.0291071897
 33
0.0
 40
0.0
 40
0.0
 40
0.0
 40
0.0
 40
0.1219041462
 40
0.2443518553
 40
0.3675331522
 40
0.4916329357
 40
0.6168236647
 40
0.7432249021
 40
0.8709253339
 40
1.0
 40
1.0
 40
1.0
 40
1.0
 10
4.2955713595
 20
4.1006012208
 30
0.0
 10
4.297903436
 20
4.100847787
 30
0.0
 10
4.3025651952
 20
4.1014728243
 30
0.0
 10
4.309513312
 20
4.1027995616
 30
0.0
 10
4.3164194212
 20
4.1045153488
 30
0.0
 10
4.3232727569
 20
4.1066182817
 30
0.0
 10
4.3300617747
 20
4.1091063359
 30
0.0
 10
4.3367750872
 20
4.1119729783
 30
0.0
 10
4.3434003597
 20
4.1152108741
 30
0.0
 10
4.3477268235
 20
4.1175992989
 30
0.0
 10
4.3498708899
 20
4.1188516324
 30
0.0
 11
4.2955713595
 21
4.1006012208
 31
0.0
 11
4.3025442841
 21
4.101535407
 31
0.0
 11
4.3094856556
 21
4.1028598357
 31
0.0
 11
4.3163851301
 21
4.1045727686
 31
0.0
 11
4.3232323653
 21
4.1066724619
 31
0.0
 11
4.3300167799
 21
4.1091565814
 31
0.0
 11
4.3367263645
 21
4.1120192632
 31
0.0
 11
4.3433485808
 21
4.1152533376
 31
0.0
 11
4.3498708899
 21
4.1188516324
 31
0.0
  0
SPLINE
  5
306
100
AcDbEntity
  8
0
100
AcDbSpline
 62
6
  6
CONTINUOUS
 70
0
 71
3
 72
56
 73
52
 74
50
 42
0.0000001
 43
0.0000001
 44
0.0000000001
 12
-0.3489430002
 22
0.6523530685
 32
0.0
 13
0.6941407576
 23
-0.2559186435
 33
0.0
 40
0.0
 40
0.0
 40
0.0
 40
0.0
 40
0.03124475
 40
0.0624910968
 40
0.0937392245
 40
0.1249865273
 40
0.156233651
 40
0.1874808373
 40
0.2187283881
 40
0.2499756279
 40
0.2812229728
 40
0.3124700566
 40
0.343717407
 40
0.3749646803
 40
0.4062121507
 40
0.4218385185
 40
0.4374648454
 40
0.4530912448
 40
0.4687176751
 40
0.4843440543
 40
0.499970484
 40
0.5155970178
 40
0.5312235495
 40
0.5468499185
 40
0.5624761964
 40
0.5781025196
 40
0.593728864
 40
0.6093551297
 40
0.6249813678
 40
0.6406077056
 40
0.656234111
 40
0.6718604632
 40
0.6874867454
 40
0.7031130753
 40
0.7187394185
 40
0.7343656348
 40
0.7499916557
 40
0.7812386776
 40
0.7968650188
 40
0.8124914984
 40
0.8281180713
 40
0.843744512
 40
0.8593704512
 40
0.8749955065
 40
0.8906201338
 40
0.9062454111
 40
0.9218723175
 40
0.9375017597
 40
0.9531331742
 40
0.9687633208
 40
1.0
 40
1.0
 40
1.0
 40
1.0
 10
2.738466547
 20
4.2273709892
 30
0.0
 10
2.7348323347
 20
4.234165192
 30
0.0
 10
2.7281056101
 20
4.248051904
 30
0.0
 10
2.7197153101
 20
4.269617034
 30
0.0
 10
2.7130622802
 20
4.2917818962
 30
0.0
 10
2.7081884444
 20
4.3144042568
 30
0.0
 10
2.7051114544
 20
4.3373398669
 30
0.0
 10
2.7038480754
 20
4.3604462796
 30
0.0
 10
2.7043933335
 20
4.3835806311
 30
0.0
 10
2.7067422681
 20
4.406601732
 30
0.0
 10
2.7108680867
 20
4.4293712893
 30
0.0
 10
2.7167442625
 20
4.4517529004
 30
0.0
 10
2.7243240085
 20
4.4736163956
 30
0.0
 10
2.7335605045
 20
4.4948323692
 30
0.0
 10
2.7425856292
 20
4.5118757013
 30
0.0
 10
2.7505670912
 20
4.5250645662
 30
0.0
 10
2.7569259092
 20
4.534722756
 30
0.0
 10
2.7636461552
 20
4.5441328294
 30
0.0
 10
2.7707176999
 20
4.5532819172
 30
0.0
 10
2.7781305282
 20
4.562156731
 30
0.0
 10
2.785873148
 20
4.5707453497
 30
0.0
 10
2.7939334149
 20
4.5790366162
 30
0.0
 10
2.8022993538
 20
4.5870193281
 30
0.0
 10
2.8109592013
 20
4.594682106
 30
0.0
 10
2.8199002011
 20
4.6020147747
 30
0.0
 10
2.8291088082
 20
4.6090083799
 30
0.0
 10
2.8385717151
 20
4.6156538443
 30
0.0
 10
2.8482757328
 20
4.6219419569
 30
0.0
 10
2.858207124
 20
4.6278644038
 30
0.0
 10
2.8683513112
 20
4.6334145158
 30
0.0
 10
2.8786939653
 20
4.6385854243
 30
0.0
 10
2.8892207996
 20
4.6433702228
 30
0.0
 10
2.899917338
 20
4.6477624629
 30
0.0
 10
2.9107683572
 20
4.6517578277
 30
0.0
 10
2.921758767
 20
4.6553517851
 30
0.0
 10
2.9328738342
 20
4.6585399312
 30
0.0
 10
2.9478375987
 20
4.6622432425
 30
0.0
 10
2.9629955953
 20
4.6651228368
 30
0.0
 10
2.9782746306
 20
4.6671680324
 30
0.0
 10
2.9897841447
 20
4.6682832816
 30
0.0
 10
3.0013263713
 20
4.6689794556
 30
0.0
 10
3.0128861542
 20
4.6692570414
 30
0.0
 10
3.024448022
 20
4.6691163893
 30
0.0
 10
3.0359967907
 20
4.6685576135
 30
0.0
 10
3.0475176667
 20
4.6675821063
 30
0.0
 10
3.0589963832
 20
4.6661923561
 30
0.0
 10
3.0704189066
 20
4.6643906484
 30
0.0
 10
3.0817706933
 20
4.6621792138
 30
0.0
 10
3.0930367789
 20
4.6595613252
 30
0.0
 10
3.107917078
 20
4.6555382765
 30
0.0
 10
3.1189092803
 20
4.6519259073
 30
0.0
 10
3.1261368311
 20
4.6492612244
 30
0.0
 11
2.738466547
 21
4.2273709892
 31
0.0
 11
2.7283891038
 21
4.2481739544
 31
0.0
 11
2.7200050359
 21
4.2697164761
 31
0.0
 11
2.7133587729
 21
4.2918583129
 31
0.0
 11
2.708487903
 21
4.3144565465
 31
0.0
 11
2.7054137244
 21
4.3373683084
 31
0.0
 11
2.704149517
 21
4.3604508414
 31
0.0
 11
2.704693951
 21
4.383561826
 31
0.0
 11
2.7070384144
 21
4.4065598014
 31
0.0
 11
2.7111598256
 21
4.42930669
 31
0.0
 11
2.7170281723
 21
4.4516664877
 31
0.0
 11
2.7246001347
 21
4.4735084782
 31
0.0
 11
2.73382603
 21
4.4947048784
 31
0.0
 11
2.7446439196
 21
4.5151348694
 31
0.0
 11
2.7506291323
 21
4.5250255253
 31
0.0
 11
2.7569861356
 21
4.5346813864
 31
0.0
 11
2.7637046993
 21
4.5440893239
 31
0.0
 11
2.7707745876
 21
4.5532362137
 31
0.0
 11
2.7781854824
 21
4.5621090193
 31
0.0
 11
2.7859260674
 21
4.5706957676
 31
0.0
 11
2.7939843625
 21
4.5789851924
 31
0.0
 11
2.8023483759
 21
4.58696604
 31
0.0
 11
2.8110060836
 21
4.5946271081
 31
0.0
 11
2.8199447943
 21
4.6019582579
 31
0.0
 11
2.8291511878
 21
4.6089503536
 31
0.0
 11
2.8386119192
 21
4.6155942985
 31
0.0
 11
2.8483136344
 21
4.6218810165
 31
0.0
 11
2.8582425636
 21
4.627802333
 31
0.0
 11
2.8683843701
 21
4.6333513052
 31
0.0
 11
2.878724676
 21
4.6385210792
 31
0.0
 11
2.8892491023
 21
4.6433048046
 31
0.0
 11
2.8999430742
 21
4.647696313
 31
0.0
 11
2.9107915885
 21
4.6516909261
 31
0.0
 11
2.9217795853
 21
4.6552841626
 31
0.0
 11
2.9328920051
 21
4.658471541
 31
0.0
 11
2.9441137572
 21
4.6612489844
 31
0.0
 11
2.9668243872
 21
4.6655644461
 31
0.0
 11
2.9782827858
 21
4.6670982295
 31
0.0
 11
2.9897895698
 21
4.6682134334
 31
0.0
 11
3.0013293521
 21
4.6689096928
 31
0.0
 11
3.0128866877
 21
4.6691873357
 31
0.0
 11
3.0244461312
 21
4.6690466932
 31
0.0
 11
3.0359922745
 21
4.6684881506
 31
0.0
 11
3.0475104051
 21
4.6675130915
 31
0.0
 11
3.058986424
 21
4.6661237807
 31
0.0
 11
3.0704062529
 21
4.6643225132
 31
0.0
 11
3.0817558033
 21
4.6621115981
 31
0.0
 11
3.0930201255
 21
4.6594944949
 31
0.0
 11
3.1041827889
 21
4.6564766422
 31
0.0
 11
3.1261368311
 21
4.6492612244
 31
0.0
  0
SPLINE
  5
307
100
AcDbEntity
  8
0
100
AcDbSpline
 62
6
  6
CONTINUOUS
 70
0
 71
3
 72
63
 73
59
 74
57
 42
0.0000001
 43
0.0000001
 44
0.0000000001
 12
0.2033683157
 22
-0.3104465369
 32
0.0
 13
-0.2557194223
 23
0.2689671005
 33
0.0
 40
0.0
 40
0.0
 40
0.0
 40
0.0
 40
0.0312158595
 40
0.0468504244
 40
0.0624864549
 40
0.078116754
 40
0.0937422144
 40
0.1249758501
 40
0.156212672
 40
0.1718387389
 40
0.1874649405
 40
0.2030905668
 40
0.2187160565
 40
0.2343417089
 40
0.2499673416
 40
0.2655927394
 40
0.2812183106
 40
0.3124592163
 40
0.3280849959
 40
0.3437107645
 40
0.3593368644
 40
0.3749631137
 40
0.3905891451
 40
0.4062150661
 40
0.4218412976
 40
0.4374677436
 40
0.4530940491
 40
0.4687201379
 40
0.4843464747
 40
0.4999730823
 40
0.5155996482
 40
0.5312259458
 40
0.5468523851
 40
0.5624791311
 40
0.5781059365
 40
0.5937324854
 40
0.6093590227
 40
0.6249858659
 40
0.65622964
 40
0.6874732527
 40
0.7187176226
 40
0.7343444407
 40
0.7499713813
 40
0.7655986054
 40
0.7812258938
 40
0.7968529461
 40
0.8124799388
 40
0.8281072105
 40
0.8437346665
 40
0.8593620116
 40
0.8749891505
 40
0.8906164757
 40
0.9062440408
 40
0.9218715818
 40
0.9374988097
 40
0.9531259894
 40
0.9687534823
 40
1.0
 40
1.0
 40
1.0
 40
1.0
 10
2.9159106587
 20
4.2890329228
 30
0.0
 10
2.9180267643
 20
4.2858026376
 30
0.0
 10
2.9214805805
 20
4.2811284398
 30
0.0
 10
2.9265771096
 20
4.2753128669
 30
0.0
 10
2.9306395501
 20
4.2711657923
 30
0.0
 10
2.934925973
 20
4.2672526063
 30
0.0
 10
2.9409175999
 20
4.2623625927
 30
0.0
 10
2.9488983519
 20
4.2568808064
 30
0.0
 10
2.9574331289
 20
4.2523096254
 30
0.0
 10
2.9645256409
 20
4.2492265594
 30
0.0
 10
2.9699647171
 20
4.2472060844
 30
0.0
 10
2.9755056503
 20
4.2454852863
 30
0.0
 10
2.9811316851
 20
4.244067531
 30
0.0
 10
2.9868259797
 20
4.242955286
 30
0.0
 10
2.9925718087
 20
4.242151066
 30
0.0
 10
2.998352871
 20
4.2416578707
 30
0.0
 10
3.0060826492
 20
4.2414152029
 30
0.0
 10
3.0138219367
 20
4.2417923321
 30
0.0
 10
3.0214916061
 20
4.2427849339
 30
0.0
 10
3.0271979276
 20
4.2438348616
 30
0.0
 10
3.0328405342
 20
4.2451850583
 30
0.0
 10
3.0384041761
 20
4.2468309588
 30
0.0
 10
3.0438731954
 20
4.2487681192
 30
0.0
 10
3.0492323382
 20
4.2509912067
 30
0.0
 10
3.0544676567
 20
4.2534920386
 30
0.0
 10
3.0595652429
 20
4.2562629198
 30
0.0
 10
3.0645112474
 20
4.259296091
 30
0.0
 10
3.0692918204
 20
4.2625837808
 30
0.0
 10
3.0738951572
 20
4.2661153664
 30
0.0
 10
3.0783096272
 20
4.2698804395
 30
0.0
 10
3.0825237067
 20
4.2738685331
 30
0.0
 10
3.0865255723
 20
4.2780695036
 30
0.0
 10
3.0903055972
 20
4.282471137
 30
0.0
 10
3.0938550017
 20
4.2870608156
 30
0.0
 10
3.0971649684
 20
4.2918260908
 30
0.0
 10
3.100226374
 20
4.2967546611
 30
0.0
 10
3.1030316757
 20
4.3018335275
 30
0.0
 10
3.1064223026
 20
4.3087848541
 30
0.0
 10
3.1099932888
 20
4.3177839455
 30
0.0
 10
3.11316095
 20
4.3289578695
 30
0.0
 10
3.1148542317
 20
4.3384899867
 30
0.0
 10
3.1156292767
 20
4.3461853031
 30
0.0
 10
3.1159209988
 20
4.3519801056
 30
0.0
 10
3.115923693
 20
4.3577821333
 30
0.0
 10
3.1156379945
 20
4.3635771774
 30
0.0
 10
3.1150642312
 20
4.3693507888
 30
0.0
 10
3.1142040185
 20
4.3750886966
 30
0.0
 10
3.1130613371
 20
4.3807771152
 30
0.0
 10
3.1116397163
 20
4.3864023474
 30
0.0
 10
3.1099428142
 20
4.3919507424
 30
0.0
 10
3.1079741194
 20
4.3974085923
 30
0.0
 10
3.1057399931
 20
4.4027632677
 30
0.0
 10
3.1032468593
 20
4.4080024008
 30
0.0
 10
3.1005011478
 20
4.4131137011
 30
0.0
 10
3.0975090253
 20
4.4180846413
 30
0.0
 10
3.0942778346
 20
4.4229038823
 30
0.0
 10
3.0896645591
 20
4.4291113144
 30
0.0
 10
3.0858694381
 20
4.4335115008
 30
0.0
 10
3.083205991
 20
4.4363129292
 30
0.0
 11
2.9159106587
 21
4.2890329228
 31
0.0
 11
2.9227923399
 21
4.2797132517
 31
0.0
 11
2.9266165078
 21
4.2753493305
 31
0.0
 11
2.9306775283
 21
4.2712041534
 31
0.0
 11
2.934961365
 21
4.2672928313
 31
0.0
 11
2.9394539265
 21
4.2636259855
 31
0.0
 11
2.9490087956
 21
4.2570631213
 31
0.0
 11
2.9592269116
 21
4.2515873356
 31
0.0
 11
2.9645453648
 21
4.2492752947
 31
0.0
 11
2.969981772
 21
4.2472560039
 31
0.0
 11
2.975519861
 21
4.2455357854
 31
0.0
 11
2.981143042
 21
4.2441184537
 31
0.0
 11
2.9868345731
 21
4.243006623
 31
0.0
 11
2.9925777115
 21
4.2422028999
 31
0.0
 11
2.9983557201
 21
4.2417097326
 31
0.0
 11
3.0041519378
 21
4.2415275097
 31
0.0
 11
3.0157325679
 21
4.2420916654
 31
0.0
 11
3.0214837825
 21
4.2428358245
 31
0.0
 11
3.0271872589
 21
4.2438848959
 31
0.0
 11
3.0328273502
 21
4.2452343363
 31
0.0
 11
3.0383884348
 21
4.2468795117
 31
0.0
 11
3.0438548958
 21
4.2488157785
 31
0.0
 11
3.049211658
 21
4.2510374782
 31
0.0
 11
3.0544446705
 21
4.2535370314
 31
0.0
 11
3.0595399967
 21
4.2563066452
 31
0.0
 11
3.0644836999
 21
4.2593385264
 31
0.0
 11
3.0692622514
 21
4.2626244082
 31
0.0
 11
3.0738636456
 21
4.2661542538
 31
0.0
 11
3.078276233
 21
4.2699176138
 31
0.0
 11
3.0824883637
 21
4.2739040384
 31
0.0
 11
3.0864885848
 21
4.2781029314
 31
0.0
 11
3.0902671298
 21
4.2825024403
 31
0.0
 11
3.0938150895
 21
4.2870900741
 31
0.0
 11
3.0971235613
 21
4.2918533367
 31
0.0
 11
3.1001836906
 21
4.2967797108
 31
0.0
 11
3.1029880001
 21
4.301856063
 31
0.0
 11
3.1055305639
 21
4.3070685662
 31
0.0
 11
3.1098070834
 21
4.3178465685
 31
0.0
 11
3.1129716197
 21
4.3290017589
 31
0.0
 11
3.1149995801
 21
4.3404186962
 31
0.0
 11
3.1155810004
 21
4.3461890222
 31
0.0
 11
3.1158728264
 21
4.351981265
 31
0.0
 11
3.1158756276
 21
4.3577809591
 31
0.0
 11
3.1155899811
 21
4.3635736392
 31
0.0
 11
3.115016489
 21
4.3693448459
 31
0.0
 11
3.1141569479
 21
4.3750804063
 31
0.0
 11
3.1130148537
 21
4.3807665548
 31
0.0
 11
3.1115938315
 21
4.386389557
 31
0.0
 11
3.1098975067
 21
4.3919356784
 31
0.0
 11
3.107929891
 21
4.3973913709
 31
0.0
 11
3.1056968406
 21
4.402743976
 31
0.0
 11
3.1032047605
 21
4.4079810997
 31
0.0
 11
3.1004600562
 21
4.4130903483
 31
0.0
 11
3.0974691772
 21
4.4180593641
 31
0.0
 11
3.0942396553
 21
4.4228766722
 31
0.0
 11
3.0907801456
 21
4.4275317135
 31
0.0
 11
3.083205991
 21
4.4363129292
 31
0.0
  0
LINE
  5
308
100
AcDbEntity
  8
0
100
AcDbLine
 62
7
  6
CONTINUOUS
 10
3.9364348587
 20
4.3524223677
 11
4.4569267872
 21
4.3498960372
  0
LINE
  5
309
100
AcDbEntity
  8
0
100
AcDbLine
 62
7
  6
CONTINUOUS
 10
3.9365235424
 20
4.3507990048
 11
4.0249908551
 21
4.3503276247
  0
LINE
  5
30A
100
AcDbEntity
  8
0
100
AcDbLine
 62
7
  6
CONTINUOUS
 10
4.0249908551
 20
4.3503276247
 11
4.1033733966
 21
4.3498960372
  0
LINE
  5
30B
100
AcDbEntity
  8
0
100
AcDbLine
 62
7
  6
CONTINUOUS
 10
3.9365235424
 20
4.3489930696
 11
4.0249908551
 21
4.3494644497
  0
LINE
  5
30C
100
AcDbEntity
  8
0
100
AcDbLine
 62
7
  6
CONTINUOUS
 10
4.0249908551
 20
4.3494644497
 11
4.1033733966
 21
4.3498960372
  0
LINE
  5
30D
100
AcDbEntity
  8
0
100
AcDbLine
 62
7
  6
CONTINUOUS
 10
3.9364348588
 20
4.3473697067
 11
4.4569267872
 21
4.3498960372
  0
SPLINE
  5
30E
100
AcDbEntity
  8
0
100
AcDbSpline
 62
6
  6
CONTINUOUS
 70
0
 71
3
 72
12
 73
8
 74
6
 42
0.0000001
 43
0.0000001
 44
0.0000000001
 12
0.0452217721
 22
0.0383323375
 32
0.0
 13
0.0318609416
 23
0.0499925712
 33
0.0
 40
0.0
 40
0.0
 40
0.0
 40
0.0
 40
0.239690778
 40
0.3621721212
 40
0.486375852
 40
0.739820244
 40
1.0
 40
1.0
 40
1.0
 40
1.0
 10
4.394319719
 20
4.1333896862
 30
0.0
 10
4.3979327996
 20
4.1364523222
 30
0.0
 10
4.4031976086
 20
4.141315466
 30
0.0
 10
4.4098638888
 20
4.1482410548
 30
0.0
 10
4.4164413541
 20
4.1556204134
 30
0.0
 10
4.4242916666
 20
4.1654959511
 30
0.0
 10
4.4300338914
 20
4.1738761991
 30
0.0
 10
4.4327970821
 20
4.1782118841
 30
0.0
 11
4.394319719
 21
4.1333896862
 31
0.0
 11
4.404769674
 21
4.1430180428
 31
0.0
 11
4.4098065608
 21
4.1482478923
 31
0.0
 11
4.4147071804
 21
4.1537432263
 31
0.0
 11
4.424067692
 21
4.1654958222
 31
0.0
 11
4.4327970821
 21
4.1782118841
 31
0.0
  0
SPLINE
  5
30F
100
AcDbEntity
  8
0
100
AcDbSpline
 62
6
  6
CONTINUOUS
 70
0
 71
3
 72
14
 73
10
 74
8
 42
0.0000001
 43
0.0000001
 44
0.0000000001
 12
-0.0448685719
 22
0.0163079524
 32
0.0
 13
-0.047740319
 23
0.0000002254
 33
0.0
 40
0.0
 40
0.0
 40
0.0
 40
0.0
 40
0.2531911537
 40
0.3787204023
 40
0.5036646998
 40
0.6281441574
 40
0.7522793921
 40
0.8761910883
 40
1.0
 40
1.0
 40
1.0
 40
1.0
 10
4.373324317
 20
4.5915403098
 30
0.0
 10
4.3695375419
 20
4.5929166529
 30
0.0
 10
4.3637834865
 20
4.5947411485
 30
0.0
 10
4.3560003075
 20
4.5966624117
 30
0.0
 10
4.3501484287
 20
4.5978383119
 30
0.0
 10
4.3442727272
 20
4.5987530174
 30
0.0
 10
4.3383787077
 20
4.599406469
 30
0.0
 10
4.3324723785
 20
4.5997985959
 30
0.0
 10
4.3285297362
 20
4.5998857614
 30
0.0
 10
4.3265595106
 20
4.5998857707
 30
0.0
 11
4.373324317
 21
4.5915403098
 31
0.0
 11
4.3617999101
 21
4.595186393
 31
0.0
 11
4.355981588
 21
4.5966219615
 31
0.0
 11
4.3501335374
 21
4.5977967399
 31
0.0
 11
4.3442615309
 21
4.5987105739
 31
0.0
 11
4.338371342
 21
4.5993633998
 31
0.0
 11
4.3324687441
 21
4.5997551534
 31
0.0
 11
4.3265595106
 21
4.5998857707
 31
0.0
  0
SPLINE
  5
310
100
AcDbEntity
  8
0
100
AcDbSpline
 62
6
  6
CONTINUOUS
 70
0
 71
3
 72
15
 73
11
 74
9
 42
0.0000001
 43
0.0000001
 44
0.0000000001
 12
-0.0720960261
 22
0.0493480568
 32
0.0
 13
-0.0873674292
 23
0.0000001563
 33
0.0
 40
0.0
 40
0.0
 40
0.0
 40
0.0
 40
0.1307463299
 40
0.2593701469
 40
0.3860398244
 40
0.510996887
 40
0.6345257797
 40
0.7569533123
 40
0.8786514906
 40
1.0
 40
1.0
 40
1.0
 40
1.0
 10
4.3730756281
 20
4.5733561314
 30
0.0
 10
4.3699335312
 20
4.5755068238
 30
0.0
 10
4.3635559837
 20
4.5795671814
 30
0.0
 10
4.3536692502
 20
4.5849379413
 30
0.0
 10
4.3435759105
 20
4.5895176188
 30
0.0
 10
4.3333110594
 20
4.5932887701
 30
0.0
 10
4.3229076377
 20
4.5962353363
 30
0.0
 10
4.312398302
 20
4.5983410433
 30
0.0
 10
4.3018194616
 20
4.5996047746
 30
0.0
 10
4.2947381408
 20
4.5998857633
 30
0.0
 10
4.2912041717
 20
4.5998857696
 30
0.0
 11
4.3730756281
 21
4.5733561314
 31
0.0
 11
4.3634364319
 21
4.5794855813
 31
0.0
 11
4.3535587241
 21
4.5848440345
 31
0.0
 11
4.343478312
 21
4.5894112484
 31
0.0
 11
4.3332288426
 21
4.5931706551
 31
0.0
 11
4.3228434493
 21
4.5961065609
 31
0.0
 11
4.3123553071
 21
4.5982058735
 31
0.0
 11
4.3017977548
 21
4.5994657273
 31
0.0
 11
4.2912041717
 21
4.5998857696
 31
0.0
  0
SPLINE
  5
311
100
AcDbEntity
  8
0
100
AcDbSpline
 62
6
  6
CONTINUOUS
 70
0
 71
3
 72
21
 73
17
 74
15
 42
0.0000001
 43
0.0000001
 44
0.0000000001
 12
-0.0348094937
 22
0.1819570862
 32
0.0
 13
-0.1455409343
 23
0.1146207595
 33
0.0
 40
0.0
 40
0.0
 40
0.0
 40
0.0
 40
0.0677795451
 40
0.13512858
 40
0.2682225765
 40
0.3338587272
 40
0.398795021
 40
0.462971513
 40
0.5263302298
 40
0.5888181659
 40
0.6503921188
 40
0.7110339473
 40
0.7707375211
 40
0.8872824643
 40
0.944131987
 40
1.0
 40
1.0
 40
1.0
 40
1.0
 10
4.4706973608
 20
4.4077667947
 30
0.0
 10
4.4699109035
 20
4.4118777842
 30
0.0
 10
4.4681921201
 20
4.4200458496
 30
0.0
 10
4.4641776233
 20
4.4361180323
 30
0.0
 10
4.4592891366
 20
4.4518257276
 30
0.0
 10
4.4535379323
 20
4.4670617072
 30
0.0
 10
4.4488407603
 20
4.4781364629
 30
0.0
 10
4.4437517067
 20
4.4888811658
 30
0.0
 10
4.4382838354
 20
4.4992677864
 30
0.0
 10
4.4324500385
 20
4.5092680112
 30
0.0
 10
4.4262621883
 20
4.5188540922
 30
0.0
 10
4.4197360296
 20
4.5280035317
 30
0.0
 10
4.4106805913
 20
4.5394972202
 30
0.0
 10
4.4009476324
 20
4.5501430673
 30
0.0
 10
4.3905906014
 20
4.5598028071
 30
0.0
 10
4.3852449669
 20
4.5642678434
 30
0.0
 10
4.382534606
 20
4.5664023881
 30
0.0
 11
4.4706973608
 21
4.4077667947
 31
0.0
 11
4.4681102369
 21
4.420054005
 31
0.0
 11
4.4650845716
 21
4.4321584485
 31
0.0
 11
4.4577431419
 21
4.45569671
 31
0.0
 11
4.4534465599
 21
4.4670718528
 31
0.0
 11
4.4487466181
 21
4.4781456418
 31
0.0
 11
4.4436547033
 21
4.4888891911
 31
0.0
 11
4.4381837535
 21
4.4992738307
 31
0.0
 11
4.4323468466
 21
4.5092709098
 31
0.0
 11
4.4261573641
 21
4.5188526532
 31
0.0
 11
4.4196304884
 21
4.5279964839
 31
0.0
 11
4.4127820641
 21
4.5366817352
 31
0.0
 11
4.3981871094
 21
4.5525923446
 31
0.0
 11
4.3904817596
 21
4.5597718688
 31
0.0
 11
4.382534606
 21
4.5664023881
 31
0.0
  0
SPLINE
  5
312
100
AcDbEntity
  8
0
100
AcDbSpline
 62
7
  6
CONTINUOUS
 70
0
 71
3
 72
11
 73
7
 74
5
 42
0.0000001
 43
0.0000001
 44
0.0000000001
 12
-0.0377689083
 22
-0.0000000003
 32
0.0
 13
-0.0362085111
 23
0.0107440287
 33
0.0
 40
0.0
 40
0.0
 40
0.0
 40
0.0
 40
0.2482497146
 40
0.4973105374
 40
0.7477109962
 40
1.0
 40
1.0
 40
1.0
 40
1.0
 10
4.3459110225
 20
4.0933960372
 30
0.0
 10
4.342785649
 20
4.0933960372
 30
0.0
 10
4.3365223271
 20
4.0936261237
 30
0.0
 10
4.3271575145
 20
4.0946568994
 30
0.0
 10
4.3178416725
 20
4.0963707682
 30
0.0
 10
4.3117092966
 20
4.0979598218
 30
0.0
 10
4.3086642936
 20
4.0988633552
 30
0.0
 11
4.3459110225
 21
4.0933960372
 31
0.0
 11
4.3365411856
 21
4.0937392506
 31
0.0
 11
4.3271907415
 21
4.0947669862
 31
0.0
 11
4.3178891572
 21
4.0964763828
 31
0.0
 11
4.3086642936
 21
4.0988633552
 31
0.0
  0
SPLINE
  5
313
100
AcDbEntity
  8
0
100
AcDbSpline
 62
7
  6
CONTINUOUS
 70
0
 71
3
 72
12
 73
8
 74
6
 42
0.0000001
 43
0.0000001
 44
0.0000000001
 12
0.041337632
 22
0.0142342415
 32
0.0
 13
0.0437197147
 23
-0.0000000004
 33
0.0
 40
0.0
 40
0.0
 40
0.0
 40
0.0
 40
0.2529854873
 40
0.378516706
 40
0.5035253922
 40
0.7522778553
 40
1.0
 40
1.0
 40
1.0
 40
1.0
 10
4.302995866
 20
4.5991121515
 30
0.0
 10
4.3064818064
 20
4.6003125037
 30
0.0
 10
4.3117723405
 20
4.6019020443
 30
0.0
 10
4.3189181122
 20
4.6035772732
 30
0.0
 10
4.3260668542
 20
4.6049440609
 30
0.0
 10
4.3350622169
 20
4.6060887494
 30
0.0
 10
4.3423009087
 20
4.6063960372
 30
0.0
 10
4.3459110225
 20
4.6063960372
 30
0.0
 11
4.302995866
 21
4.5991121515
 31
0.0
 11
4.313590034
 21
4.6022897659
 31
0.0
 11
4.3189334694
 21
4.603541931
 31
0.0
 11
4.324301656
 21
4.6045678736
 31
0.0
 11
4.3350903614
 21
4.6059382286
 31
0.0
 11
4.3459110225
 21
4.6063960372
 31
0.0
  0
SPLINE
  5
314
100
AcDbEntity
  8
0
100
AcDbSpline
 62
6
  6
CONTINUOUS
 70
0
 71
3
 72
15
 73
11
 74
9
 42
0.0000001
 43
0.0000001
 44
0.0000000001
 12
0.0692987747
 22
0.0
 32
0.0
 13
0.0615930653
 23
0.0317586914
 33
0.0
 40
0.0
 40
0.0
 40
0.0
 40
0.0
 40
0.1225790195
 40
0.2454644249
 40
0.3688426834
 40
0.4928979677
 40
0.6178344418
 40
0.7438654935
 40
0.8711927365
 40
1.0
 40
1.0
 40
1.0
 40
1.0
 10
4.2801500919
 20
4.0748960372
 30
0.0
 10
4.2829816172
 20
4.0748960372
 30
0.0
 10
4.2886532936
 20
4.0750719814
 30
0.0
 10
4.297141919
 20
4.0758609467
 30
0.0
 10
4.3056003261
 20
4.0771732763
 30
0.0
 10
4.3140093799
 20
4.0790078007
 30
0.0
 10
4.3223518967
 20
4.0813607676
 30
0.0
 10
4.330612422
 20
4.0842264847
 30
0.0
 10
4.3387754123
 20
4.0875996963
 30
0.0
 10
4.3441098434
 20
4.0901674213
 30
0.0
 10
4.3467543882
 20
4.0915310047
 30
0.0
 11
4.2801500919
 21
4.0748960372
 31
0.0
 11
4.2886406021
 21
4.0751588219
 31
0.0
 11
4.2971199468
 21
4.0759460315
 31
0.0
 11
4.3055689685
 21
4.0772559495
 31
0.0
 11
4.313968641
 21
4.0790867508
 31
0.0
 11
4.3223021003
 21
4.0814348266
 31
0.0
 11
4.330554252
 21
4.0842951083
 31
0.0
 11
4.3387100533
 21
4.0876624824
 31
0.0
 11
4.3467543882
 21
4.0915310047
 31
0.0
  0
SPLINE
  5
315
100
AcDbEntity
  8
0
100
AcDbSpline
 62
6
  6
CONTINUOUS
 70
0
 71
3
 72
69
 73
65
 74
63
 42
0.0000001
 43
0.0000001
 44
0.0000000001
 12
0.5216611998
 22
0.2689795837
 32
0.0
 13
-0.4914268782
 23
0.320905044
 33
0.0
 40
0.0
 40
0.0
 40
0.0
 40
0.0
 40
0.0260997219
 40
0.0393824323
 40
0.0528288693
 40
0.0802317438
 40
0.0942039605
 40
0.10835963
 40
0.1227005957
 40
0.1372277484
 40
0.1519412189
 40
0.1668401932
 40
0.1819224894
 40
0.1971851194
 40
0.2126244883
 40
0.2282362567
 40
0.2440149089
 40
0.2599542731
 40
0.2760477231
 40
0.2922880953
 40
0.3086672907
 40
0.3251766974
 40
0.3418073832
 40
0.358550065
 40
0.3753947835
 40
0.3923312019
 40
0.4093487786
 40
0.4264367828
 40
0.4435840797
 40
0.4607792913
 40
0.478010936
 40
0.4952674831
 40
0.512537273
 40
0.5298085452
 40
0.54706953
 40
0.5643085315
 40
0.5815139975
 40
0.598674432
 40
0.6157784241
 40
0.6328147514
 40
0.6497725975
 40
0.6666413809
 40
0.6834107058
 40
0.7000704805
 40
0.7166112666
 40
0.733024063
 40
0.7493001689
 40
0.7654313113
 40
0.7814101006
 40
0.7972298069
 40
0.8128841347
 40
0.8283673549
 40
0.8436748323
 40
0.8588028281
 40
0.8737481908
 40
0.8885084889
 40
0.9030825553
 40
0.9174703347
 40
0.9316725156
 40
0.9456906575
 40
0.9595277381
 40
0.973188049
 40
0.9866767556
 40
1.0
 40
1.0
 40
1.0
 40
1.0
 10
4.3467543882
 20
4.0915310047
 30
0.0
 10
4.3512927923
 20
4.0938711021
 30
0.0
 10
4.3579791339
 20
4.0977277255
 30
0.0
 10
4.3665706363
 20
4.1034771116
 30
0.0
 10
4.375109452
 20
4.1097467652
 30
0.0
 10
4.3833417487
 20
4.1166442632
 30
0.0
 10
4.3912363299
 20
4.1241107592
 30
0.0
 10
4.3970450587
 20
4.1300546899
 30
0.0
 10
4.4026947461
 20
4.1362967886
 30
0.0
 10
4.4081780166
 20
4.142828693
 30
0.0
 10
4.4134871357
 20
4.1496417579
 30
0.0
 10
4.4186145788
 20
4.1567270074
 30
0.0
 10
4.4235539533
 20
4.1640743585
 30
0.0
 10
4.4282986531
 20
4.1716737634
 30
0.0
 10
4.4328420236
 20
4.1795151152
 30
0.0
 10
4.4371774953
 20
4.1875880154
 30
0.0
 10
4.4412997702
 20
4.1958811545
 30
0.0
 10
4.4452033665
 20
4.2043832008
 30
0.0
 10
4.4488827815
 20
4.2130827648
 30
0.0
 10
4.4523325493
 20
4.2219682507
 30
0.0
 10
4.4555485719
 20
4.2310273425
 30
0.0
 10
4.4585266239
 20
4.2402476739
 30
0.0
 10
4.461262479
 20
4.2496168298
 30
0.0
 10
4.4637518997
 20
4.2591222574
 30
0.0
 10
4.4659920715
 20
4.2687508859
 30
0.0
 10
4.4679801253
 20
4.2784895885
 30
0.0
 10
4.4697132007
 20
4.2883252042
 30
0.0
 10
4.4711883826
 20
4.2982444888
 30
0.0
 10
4.4724041991
 20
4.3082338856
 30
0.0
 10
4.4733592074
 20
4.3182797997
 30
0.0
 10
4.4740519735
 20
4.3283686195
 30
0.0
 10
4.4744809692
 20
4.3384866923
 30
0.0
 10
4.4746460966
 20
4.3486202556
 30
0.0
 10
4.4745473762
 20
4.3587555505
 30
0.0
 10
4.4741848292
 20
4.3688788194
 30
0.0
 10
4.4735583464
 20
4.3789762934
 30
0.0
 10
4.472669206
 20
4.3890342895
 30
0.0
 10
4.4715188965
 20
4.3990391931
 30
0.0
 10
4.4701088903
 20
4.4089774078
 30
0.0
 10
4.4684404978
 20
4.4188353435
 30
0.0
 10
4.4665163456
 20
4.4285996799
 30
0.0
 10
4.4643393619
 20
4.4382572527
 30
0.0
 10
4.461912434
 20
4.4477949301
 30
0.0
 10
4.459238261
 20
4.4571995908
 30
0.0
 10
4.4563207612
 20
4.4664585519
 30
0.0
 10
4.4531642404
 20
4.4755593962
 30
0.0
 10
4.4497729329
 20
4.4844897486
 30
0.0
 10
4.446150865
 20
4.493237236
 30
0.0
 10
4.4423031627
 20
4.5017900706
 30
0.0
 10
4.4382354173
 20
4.5101368645
 30
0.0
 10
4.4339531125
 20
4.5182662726
 30
0.0
 10
4.4294615149
 20
4.5261669327
 30
0.0
 10
4.4247668456
 20
4.5338281861
 30
0.0
 10
4.4198758542
 20
4.5412399331
 30
0.0
 10
4.414795144
 20
4.5483921076
 30
0.0
 10
4.4095311058
 20
4.5552745932
 30
0.0
 10
4.4040909335
 20
4.5618780645
 30
0.0
 10
4.3984823993
 20
4.568193944
 30
0.0
 10
4.392713092
 20
4.5742136579
 30
0.0
 10
4.3867904049
 20
4.57992856
 30
0.0
 10
4.3807223535
 20
4.5853308177
 30
0.0
 10
4.37451746
 20
4.5904135969
 30
0.0
 10
4.3681842486
 20
4.5951698744
 30
0.0
 10
4.3638557308
 20
4.5981364362
 30
0.0
 10
4.361673264
 20
4.5995616017
 30
0.0
 11
4.3467543882
 21
4.0915310047
 31
0.0
 11
4.3600315154
 21
4.0991714499
 31
0.0
 11
4.3665117431
 21
4.1035054395
 31
0.0
 11
4.3728744266
 21
4.1081745525
 31
0.0
 11
4.3852133859
 21
4.1184908732
 31
0.0
 11
4.3911728417
 21
4.1241242854
 31
0.0
 11
4.3969813154
 21
4.1300647943
 31
0.0
 11
4.4026311192
 21
4.1363039207
 31
0.0
 11
4.4081146197
 21
4.142833066
 31
0.0
 11
4.4134241849
 21
4.1496436299
 31
0.0
 11
4.4185524617
 21
4.1567265916
 31
0.0
 11
4.423492732
 21
4.1640719739
 31
0.0
 11
4.4282383653
 21
4.1716696674
 31
0.0
 11
4.4327827319
 21
4.179509562
 31
0.0
 11
4.437119477
 21
4.1875812366
 31
0.0
 11
4.441242984
 21
4.1958734351
 31
0.0
 11
4.445147759
 21
4.204374763
 31
0.0
 11
4.4488283082
 21
4.2130738255
 31
0.0
 11
4.4522794004
 21
4.2219590136
 31
0.0
 11
4.4554966391
 21
4.2310180372
 31
0.0
 11
4.4584757935
 21
4.2402384709
 31
0.0
 11
4.4612126327
 21
4.2496078897
 31
0.0
 11
4.4637031651
 21
4.2591137354
 31
0.0
 11
4.4659443029
 21
4.2687429483
 31
0.0
 11
4.4679331717
 21
4.2784823501
 31
0.0
 11
4.4696668972
 21
4.2883187625
 31
0.0
 11
4.4711428151
 21
4.2982389395
 31
0.0
 11
4.4723592066
 21
4.3082293298
 31
0.0
 11
4.4733146184
 21
4.3182762966
 31
0.0
 11
4.4740075969
 21
4.3283662029
 31
0.0
 11
4.4744368673
 21
4.3384853929
 31
0.0
 11
4.4746021106
 21
4.3486201095
 31
0.0
 11
4.4745033264
 21
4.3587565618
 31
0.0
 11
4.474140515
 21
4.3688809588
 31
0.0
 11
4.4735138223
 21
4.3789795251
 31
0.0
 11
4.4726243315
 21
4.3890385846
 31
0.0
 11
4.4714734951
 21
4.3990445002
 31
0.0
 11
4.4700627665
 21
4.4089836351
 31
0.0
 11
4.4683937145
 21
4.4188423896
 31
0.0
 11
4.4664687979
 21
4.4286074513
 31
0.0
 11
4.4642908888
 21
4.4382656413
 31
0.0
 11
4.4618628616
 21
4.4478037812
 31
0.0
 11
4.4591876783
 21
4.4572087415
 31
0.0
 11
4.4562691193
 21
4.4664678469
 31
0.0
 11
4.453111411
 21
4.4755686697
 31
0.0
 11
4.4497187844
 21
4.4844987846
 31
0.0
 11
4.4460955339
 21
4.4932458184
 31
0.0
 11
4.442246682
 21
4.5017979918
 31
0.0
 11
4.4381777153
 21
4.510143904
 31
0.0
 11
4.4338941276
 21
4.5182721605
 31
0.0
 11
4.4294014566
 21
4.5261714159
 31
0.0
 11
4.4247058604
 21
4.5338310268
 31
0.0
 11
4.4198139584
 21
4.5412408712
 31
0.0
 11
4.4147323808
 21
4.5483908397
 31
0.0
 11
4.4094677868
 21
4.5552708658
 31
0.0
 11
4.4040273495
 21
4.561871658
 31
0.0
 11
4.3984186875
 21
4.5681845957
 31
0.0
 11
4.3926494342
 21
4.5742010803
 31
0.0
 11
4.3867272389
 21
4.5799125483
 31
0.0
 11
4.3806601219
 21
4.5853112488
 31
0.0
 11
4.3744564779
 21
4.5903902505
 31
0.0
 11
4.3681247179
 21
4.5951426579
 31
0.0
 11
4.361673264
 21
4.5995616017
 31
0.0
  0
SPLINE
  5
316
100
AcDbEntity
  8
0
100
AcDbSpline
 62
6
  6
CONTINUOUS
 70
0
 71
3
 72
15
 73
11
 74
9
 42
0.0000001
 43
0.0000001
 44
0.0000000001
 12
-0.0615930653
 22
0.0317586914
 32
0.0
 13
-0.0692987747
 23
0.0
 33
0.0
 40
0.0
 40
0.0
 40
0.0
 40
0.0
 40
0.1288072635
 40
0.2561345065
 40
0.3821655582
 40
0.5071020323
 40
0.6311573166
 40
0.7545355751
 40
0.8774209805
 40
1.0
 40
1.0
 40
1.0
 40
1.0
 10
4.3467543882
 20
4.6082610697
 30
0.0
 10
4.3441098434
 20
4.609624653
 30
0.0
 10
4.3387754123
 20
4.6121923781
 30
0.0
 10
4.330612422
 20
4.6155655897
 30
0.0
 10
4.3223518967
 20
4.6184313067
 30
0.0
 10
4.3140093799
 20
4.6207842737
 30
0.0
 10
4.3056003261
 20
4.622618798
 30
0.0
 10
4.297141919
 20
4.6239311277
 30
0.0
 10
4.2886532936
 20
4.624720093
 30
0.0
 10
4.2829816172
 20
4.6248960372
 30
0.0
 10
4.2801500919
 20
4.6248960372
 30
0.0
 11
4.3467543882
 21
4.6082610697
 31
0.0
 11
4.3387100533
 21
4.6121295919
 31
0.0
 11
4.330554252
 21
4.6154969661
 31
0.0
 11
4.3223021003
 21
4.6183572478
 31
0.0
 11
4.313968641
 21
4.6207053236
 31
0.0
 11
4.3055689685
 21
4.6225361248
 31
0.0
 11
4.2971199468
 21
4.6238460428
 31
0.0
 11
4.2886406021
 21
4.6246332525
 31
0.0
 11
4.2801500919
 21
4.6248960372
 31
0.0
  0
LINE
  5
317
100
AcDbEntity
  8
0
100
AcDbLine
 62
7
  6
CONTINUOUS
 10
4.4339459618
 20
4.3497826522
 11
4.4339459618
 21
4.3500094222
  0
SPLINE
  5
318
100
AcDbEntity
  8
0
100
AcDbSpline
 62
6
  6
CONTINUOUS
 70
0
 71
3
 72
39
 73
35
 74
33
 42
0.0000001
 43
0.0000001
 44
0.0000000001
 12
-0.1772482767
 22
0.397751506
 32
0.0
 13
0.3906509724
 23
0.1923929049
 33
0.0
 40
0.0
 40
0.0
 40
0.0
 40
0.0
 40
0.0312500481
 40
0.0624999686
 40
0.0937500122
 40
0.1250001021
 40
0.1562500524
 40
0.1875000271
 40
0.2187501271
 40
0.2500001349
 40
0.2812500596
 40
0.3125001355
 40
0.3437501955
 40
0.3750001086
 40
0.4062501146
 40
0.4375001959
 40
0.4687501591
 40
0.5000001428
 40
0.5312502697
 40
0.5625002702
 40
0.5937500631
 40
0.6249999345
 40
0.6562499351
 40
0.6875001482
 40
0.7187508856
 40
0.7500014818
 40
0.781250815
 40
0.812498244
 40
0.8437456137
 40
0.8749961703
 40
0.9062533963
 40
0.9375150259
 40
0.9687684382
 40
1.0
 40
1.0
 40
1.0
 40
1.0
 10
2.7384129171
 20
4.2274168037
 30
0.0
 10
2.736566578
 20
4.2315600549
 30
0.0
 10
2.7330685909
 20
4.2399348924
 30
0.0
 10
2.7284207545
 20
4.2527297375
 30
0.0
 10
2.7243836599
 20
4.2657305485
 30
0.0
 10
2.7209653282
 20
4.2789074823
 30
0.0
 10
2.718173842
 20
4.2922313498
 30
0.0
 10
2.7160178382
 20
4.3056726996
 30
0.0
 10
2.7145016942
 20
4.3192011624
 30
0.0
 10
2.7136284546
 20
4.3327862885
 30
0.0
 10
2.7134020199
 20
4.3463975976
 30
0.0
 10
2.7138239252
 20
4.360004251
 30
0.0
 10
2.7148921154
 20
4.3735754603
 30
0.0
 10
2.7166052634
 20
4.3870804475
 30
0.0
 10
2.7189616893
 20
4.4004881736
 30
0.0
 10
2.7219548897
 20
4.4137682437
 30
0.0
 10
2.7255783272
 20
4.4268903994
 30
0.0
 10
2.7298260373
 20
4.4398240011
 30
0.0
 10
2.7346881324
 20
4.4525393778
 30
0.0
 10
2.7401528944
 20
4.4650076035
 30
0.0
 10
2.7462094245
 20
4.4771993506
 30
0.0
 10
2.7528449692
 20
4.4890858851
 30
0.0
 10
2.7600432619
 20
4.5006403695
 30
0.0
 10
2.7677886359
 20
4.5118356931
 30
0.0
 10
2.7760650757
 20
4.5226444505
 30
0.0
 10
2.7848521779
 20
4.5330421135
 30
0.0
 10
2.7941293866
 20
4.5430043231
 30
0.0
 10
2.803876756
 20
4.5525063764
 30
0.0
 10
2.8140721933
 20
4.5615262333
 30
0.0
 10
2.8246926897
 20
4.57004381
 30
0.0
 10
2.8357152363
 20
4.5780378244
 30
0.0
 10
2.8471131865
 20
4.585487706
 30
0.0
 10
2.8588547124
 20
4.5923753448
 30
0.0
 10
2.8668949316
 20
4.5965817461
 30
0.0
 10
2.8709618116
 20
4.5985846564
 30
0.0
 11
2.7384129171
 21
4.2274168037
 31
0.0
 11
2.7331684421
 21
4.2399736731
 31
0.0
 11
2.7285225507
 21
4.2527640472
 31
0.0
 11
2.7244867892
 21
4.2657598952
 31
0.0
 11
2.7210697975
 21
4.2789319926
 31
0.0
 11
2.7182797563
 21
4.2922509264
 31
0.0
 11
2.7161244842
 21
4.305687199
 31
0.0
 11
2.7146088438
 21
4.3192106208
 31
0.0
 11
2.7137362548
 21
4.3327906649
 31
0.0
 11
2.7135100764
 21
4.3463967985
 31
0.0
 11
2.7139316396
 21
4.3599983462
 31
0.0
 11
2.7149996106
 21
4.3735644462
 31
0.0
 11
2.7167124741
 21
4.3870642235
 31
0.0
 11
2.7190678161
 21
4.4004668856
 31
0.0
 11
2.7220599336
 21
4.4137419418
 31
0.0
 11
2.7256823713
 21
4.4268589699
 31
0.0
 11
2.7299284276
 21
4.4397876098
 31
0.0
 11
2.7347885858
 21
4.4524982071
 31
0.0
 11
2.7402515377
 21
4.4649615567
 31
0.0
 11
2.7463059214
 21
4.4771484718
 31
0.0
 11
2.7529387457
 21
4.4890305186
 31
0.0
 11
2.7601344135
 21
4.5005804662
 31
0.0
 11
2.7678770938
 21
4.5117711921
 31
0.0
 11
2.7761502131
 21
4.5225759667
 31
0.0
 11
2.7849340379
 21
4.5329697343
 31
0.0
 11
2.794207994
 21
4.5429278844
 31
0.0
 11
2.8039514166
 21
4.5524259983
 31
0.0
 11
2.8141424989
 21
4.5614420721
 31
0.0
 11
2.8247586536
 21
4.5699557537
 31
0.0
 11
2.8357772251
 21
4.5779467265
 31
0.0
 11
2.847171999
 21
4.5853949411
 31
0.0
 11
2.85891102
 21
4.5922807779
 31
0.0
 11
2.8709618116
 21
4.5985846564
 31
0.0
  0
SPLINE
  5
319
100
AcDbEntity
  8
0
100
AcDbSpline
 62
6
  6
CONTINUOUS
 70
0
 71
3
 72
17
 73
13
 74
11
 42
0.0000001
 43
0.0000001
 44
0.0000000001
 12
-0.0545065065
 22
0.0573302446
 32
0.0
 13
-0.078085102
 23
0.0126662168
 33
0.0
 40
0.0
 40
0.0
 40
0.0
 40
0.0
 40
0.1249951626
 40
0.2499896238
 40
0.3124951811
 40
0.3749953392
 40
0.4999693426
 40
0.6249751109
 40
0.6875133699
 40
0.7500644861
 40
0.8751136708
 40
1.0
 40
1.0
 40
1.0
 40
1.0
 10
3.083205991
 20
4.4363129292
 30
0.0
 10
3.0809349744
 20
4.4387015969
 30
0.0
 10
3.07619337
 20
4.4432932505
 30
0.0
 10
3.0698175884
 20
4.4485281522
 30
0.0
 10
3.0644750384
 20
4.452392758
 30
0.0
 10
3.0589793784
 20
4.4560353139
 30
0.0
 10
3.0518375014
 20
4.4601638338
 30
0.0
 10
3.0443837048
 20
4.4637004459
 30
0.0
 10
3.038263262
 20
4.4661602163
 30
0.0
 10
3.0320470246
 20
4.4683702309
 30
0.0
 10
3.0241221134
 20
4.4706596765
 30
0.0
 10
3.017656489
 20
4.4719778151
 30
0.0
 10
3.0144059018
 20
4.4725050942
 30
0.0
 11
3.083205991
 21
4.4363129292
 31
0.0
 11
3.0761036342
 21
4.4431923025
 31
0.0
 11
3.0684620319
 21
4.4494671781
 31
0.0
 11
3.0644557255
 21
4.4523651188
 31
0.0
 11
3.0603346804
 21
4.4550966595
 31
0.0
 11
3.051776042
 21
4.4600449784
 31
0.0
 11
3.0428420067
 21
4.4642839468
 31
0.0
 11
3.0382517356
 21
4.4661288184
 31
0.0
 11
3.0335895462
 21
4.4677865861
 31
0.0
 11
3.024086177
 21
4.4705324465
 31
0.0
 11
3.0144059018
 21
4.4725050942
 31
0.0
  0
SPLINE
  5
31A
100
AcDbEntity
  8
0
100
AcDbSpline
 62
6
  6
CONTINUOUS
 70
0
 71
3
 72
34
 73
30
 74
28
 42
0.0000001
 43
0.0000001
 44
0.0000000001
 12
-0.2128585757
 22
0.2767957355
 32
0.0
 13
-0.3374523907
 23
-0.0897247818
 33
0.0
 40
0.0
 40
0.0
 40
0.0
 40
0.0
 40
0.0312431618
 40
0.0624876599
 40
0.0937340433
 40
0.1249819751
 40
0.1562307036
 40
0.1874793097
 40
0.2187277664
 40
0.2499765898
 40
0.3124644569
 40
0.3749536992
 40
0.4374451162
 40
0.4999370526
 40
0.5311891625
 40
0.5624419397
 40
0.5936951646
 40
0.624948799
 40
0.6562027597
 40
0.6874565309
 40
0.718709304
 40
0.7499606999
 40
0.781212519
 40
0.8124668028
 40
0.843725303
 40
0.8749894569
 40
0.9062568358
 40
0.9375208538
 40
1.0
 40
1.0
 40
1.0
 40
1.0
 10
3.2129772992
 20
4.5400276079
 30
0.0
 10
3.2107605076
 20
4.5429102659
 30
0.0
 10
3.2062160522
 20
4.5485914862
 30
0.0
 10
3.1990788239
 20
4.5568462687
 30
0.0
 10
3.191632161
 20
4.564823979
 30
0.0
 10
3.1838881733
 20
4.5725140139
 30
0.0
 10
3.1758587744
 20
4.5799059533
 30
0.0
 10
3.1675556998
 20
4.5869891193
 30
0.0
 10
3.1589913293
 20
4.5937542527
 30
0.0
 10
3.1472433675
 20
4.6023385925
 30
0.0
 10
3.1319675214
 20
4.6122361324
 30
0.0
 10
3.1128041116
 20
4.6227114803
 30
0.0
 10
3.0929184429
 20
4.6317415598
 30
0.0
 10
3.0758343609
 20
4.6380237159
 30
0.0
 10
3.0619217835
 20
4.6422876423
 30
0.0
 10
3.0513757041
 20
4.6451025229
 30
0.0
 10
3.0407337883
 20
4.6475301621
 30
0.0
 10
3.0300102726
 20
4.6495681728
 30
0.0
 10
3.0192198443
 20
4.6512157852
 30
0.0
 10
3.008376982
 20
4.6524719471
 30
0.0
 10
2.9974961288
 20
4.6533356988
 30
0.0
 10
2.9865914204
 20
4.6538060097
 30
0.0
 10
2.9756766944
 20
4.6538838615
 30
0.0
 10
2.9647653853
 20
4.653570304
 30
0.0
 10
2.9538708333
 20
4.6528664587
 30
0.0
 10
2.94300699
 20
4.6517731838
 30
0.0
 10
2.932188177
 20
4.6502930545
 30
0.0
 10
2.9178492051
 20
4.6478104632
 30
0.0
 10
2.9072002434
 20
4.6453789783
 30
0.0
 10
2.900172331
 20
4.6435103357
 30
0.0
 11
3.2129772992
 21
4.5400276079
 31
0.0
 11
3.2061627599
 21
4.5485468211
 31
0.0
 11
3.19902746
 21
4.556799858
 31
0.0
 11
3.1915827892
 21
4.5647758445
 31
0.0
 11
3.1838407026
 21
4.572464237
 31
0.0
 11
3.1758131585
 21
4.5798544935
 31
0.0
 11
3.1675121386
 21
4.5869361239
 31
0.0
 11
3.158950153
 21
4.5936998276
 31
0.0
 11
3.150140241
 21
4.6001374923
 31
0.0
 11
3.1318288864
 21
4.6120024647
 31
0.0
 11
3.112684032
 21
4.6224704533
 31
0.0
 11
3.0928161407
 21
4.6314928848
 31
0.0
 11
3.0723368904
 21
4.6390258518
 31
0.0
 11
3.0619034453
 21
4.6422237177
 31
0.0
 11
3.0513598107
 21
4.6450379629
 31
0.0
 11
3.0407202574
 21
4.6474652095
 31
0.0
 11
3.0299991684
 21
4.649503098
 31
0.0
 11
3.0192110668
 21
4.6511505481
 31
0.0
 11
3.008370485
 21
4.6524065611
 31
0.0
 11
2.9974919551
 21
4.6532701379
 31
0.0
 11
2.9865898294
 21
4.6537405992
 31
0.0
 11
2.9756776886
 21
4.6538186325
 31
0.0
 11
2.9647689074
 21
4.6535052911
 31
0.0
 11
2.9538768605
 21
4.6528016285
 31
0.0
 11
2.9430149745
 21
4.6517087618
 31
0.0
 11
2.932197835
 21
4.6502292333
 31
0.0
 11
2.9214411663
 21
4.6483669852
 31
0.0
 11
2.900172331
 21
4.6435103357
 31
0.0
  0
SPLINE
  5
31B
100
AcDbEntity
  8
0
100
AcDbSpline
 62
9
  6
CONTINUOUS
 70
0
 71
3
 72
15
 73
11
 74
9
 42
0.0000001
 43
0.0000001
 44
0.0000000001
 12
0.0845664984
 22
0.0000068176
 32
0.0
 13
0.0785246084
 23
0.0313907404
 33
0.0
 40
0.0
 40
0.0
 40
0.0
 40
0.0
 40
0.1247587025
 40
0.2495420556
 40
0.3743763787
 40
0.4992900817
 40
0.6243045012
 40
0.7494292192
 40
0.8746638561
 40
1.0
 40
1.0
 40
1.0
 40
1.0
 10
3.7804765942
 20
4.099901522
 30
0.0
 10
3.7839933964
 20
4.0999018055
 30
0.0
 10
3.7910288685
 20
4.1000724971
 30
0.0
 10
3.8015581845
 20
4.1008387436
 30
0.0
 10
3.8120425392
 20
4.1021156597
 30
0.0
 10
3.8224587581
 20
4.1039015353
 30
0.0
 10
3.8327856788
 20
4.106184477
 30
0.0
 10
3.8430022627
 20
4.1089538266
 30
0.0
 10
3.8530871771
 20
4.1121984967
 30
0.0
 10
3.8597068739
 20
4.1146706019
 30
0.0
 10
3.8629875311
 20
4.1159820667
 30
0.0
 11
3.7804765942
 21
4.099901522
 31
0.0
 11
3.7910238956
 21
4.1001574767
 31
0.0
 11
3.8015485365
 21
4.1009236395
 31
0.0
 11
3.8120278956
 21
4.1021999988
 31
0.0
 11
3.8224397506
 21
4.1039835672
 31
0.0
 11
3.8327628057
 21
4.1062644413
 31
0.0
 11
3.842975897
 21
4.1090317382
 31
0.0
 11
3.8530578602
 21
4.1122745743
 31
0.0
 11
3.8629875311
 21
4.1159820667
 31
0.0
  0
LINE
  5
31C
100
AcDbEntity
  8
0
100
AcDbLine
 62
6
  6
CONTINUOUS
 10
4.428642759
 20
4.3500352808
 11
4.428642759
 21
4.3497567936
  0
SPLINE
  5
31D
100
AcDbEntity
  8
0
100
AcDbSpline
 62
9
  6
CONTINUOUS
 70
0
 71
3
 72
23
 73
19
 74
17
 42
0.0000001
 43
0.0000001
 44
0.0000000001
 12
0.1967601761
 22
-0.0683624198
 32
0.0
 13
0.0787275156
 23
-0.1928470006
 33
0.0
 40
0.0
 40
0.0
 40
0.0
 40
0.0
 40
0.0552664663
 40
0.1112474323
 40
0.1680366667
 40
0.2257138669
 40
0.2843485893
 40
0.3439972331
 40
0.4047040732
 40
0.4665024145
 40
0.5294085084
 40
0.5934263049
 40
0.6585519307
 40
0.7247754349
 40
0.7920797729
 40
0.8604342597
 40
0.9297692557
 40
1.0
 40
1.0
 40
1.0
 40
1.0
 10
4.5626800468
 20
4.6533715739
 30
0.0
 10
4.5663047933
 20
4.6521121907
 30
0.0
 10
4.5735173987
 20
4.6493289043
 30
0.0
 10
4.5841088029
 20
4.6444168525
 30
0.0
 10
4.5945113183
 20
4.6387569918
 30
0.0
 10
4.6046980422
 20
4.6323645187
 30
0.0
 10
4.6146420321
 20
4.6252541593
 30
0.0
 10
4.6243189307
 20
4.6174455177
 30
0.0
 10
4.6337047748
 20
4.6089587009
 30
0.0
 10
4.6427746465
 20
4.5998140828
 30
0.0
 10
4.6515067476
 20
4.590036433
 30
0.0
 10
4.6598792161
 20
4.5796510141
 30
0.0
 10
4.6678697942
 20
4.5686830206
 30
0.0
 10
4.6754597935
 20
4.5571601762
 30
0.0
 10
4.6826306008
 20
4.54511052
 30
0.0
 10
4.6893622772
 20
4.5325646019
 30
0.0
 10
4.6956380664
 20
4.5195590759
 30
0.0
 10
4.6994831513
 20
4.5106606333
 30
0.0
 10
4.7013261819
 20
4.5061460372
 30
0.0
 11
4.5626800468
 21
4.6533715739
 31
0.0
 11
4.573421556
 21
4.6492311053
 31
0.0
 11
4.584002287
 21
4.6443300461
 31
0.0
 11
4.5943956414
 21
4.6386815785
 31
0.0
 11
4.6045748874
 21
4.6323003555
 31
0.0
 11
4.614513557
 21
4.6252016176
 31
0.0
 11
4.6241867267
 21
4.6174040192
 31
0.0
 11
4.6335700333
 21
4.6089274519
 31
0.0
 11
4.642639364
 21
4.5997924925
 31
0.0
 11
4.6513719336
 21
4.5900233493
 31
0.0
 11
4.6597453959
 21
4.5796454317
 31
0.0
 11
4.6677379277
 21
4.5686844577
 31
0.0
 11
4.6753302305
 21
4.5571676336
 31
0.0
 11
4.6825037666
 21
4.5451226143
 31
0.0
 11
4.6892399913
 21
4.5325788299
 31
0.0
 11
4.6955203257
 21
4.5195735126
 31
0.0
 11
4.7013261819
 21
4.5061460372
 31
0.0
  0
SPLINE
  5
31E
100
AcDbEntity
  8
0
100
AcDbSpline
 62
9
  6
CONTINUOUS
 70
0
 71
3
 72
13
 73
9
 74
7
 42
0.0000001
 43
0.0000001
 44
0.0000000001
 12
0.000250229
 22
-0.0140283623
 32
0.0
 13
0.008078011
 23
-0.0114718483
 33
0.0
 40
0.0
 40
0.0
 40
0.0
 40
0.0
 40
0.1318430704
 40
0.2628750759
 40
0.5194959623
 40
0.7660906124
 40
0.8848567406
 40
1.0
 40
1.0
 40
1.0
 40
1.0
 10
4.8281385415
 20
4.4744943983
 30
0.0
 10
4.8281495385
 20
4.4738778842
 30
0.0
 10
4.828212313
 20
4.4726489308
 30
0.0
 10
4.8284968528
 20
4.4702346596
 30
0.0
 10
4.8291411075
 20
4.4673288891
 30
0.0
 10
4.8301783811
 20
4.4645980298
 30
0.0
 10
4.8312243312
 20
4.4626066847
 30
0.0
 10
4.8318133001
 20
4.4616827939
 30
0.0
 10
4.8321233429
 20
4.4612424919
 30
0.0
 11
4.8281385415
 21
4.4744943983
 31
0.0
 11
4.8282329342
 21
4.4726469716
 31
0.0
 11
4.8284487954
 21
4.4708212313
 31
0.0
 11
4.8292366059
 21
4.4673079326
 31
0.0
 11
4.8304762894
 21
4.4640777808
 31
0.0
 11
4.8312527902
 21
4.4626033996
 31
0.0
 11
4.8321233429
 21
4.4612424919
 31
0.0
  0
SPLINE
  5
31F
100
AcDbEntity
  8
0
100
AcDbSpline
 62
9
  6
CONTINUOUS
 70
0
 71
3
 72
19
 73
15
 74
13
 42
0.0000001
 43
0.0000001
 44
0.0000000001
 12
0.0281877353
 22
0.0020777428
 32
0.0
 13
0.0281877353
 23
-0.002077743
 33
0.0
 40
0.0
 40
0.0
 40
0.0
 40
0.0
 40
0.0513593773
 40
0.1071721827
 40
0.1668044
 40
0.2296208156
 40
0.3622610588
 40
0.5000000573
 40
0.6377390423
 40
0.7703792505
 40
0.8331956437
 40
0.8928278396
 40
0.948640629
 40
1.0
 40
1.0
 40
1.0
 40
1.0
 10
4.7998929574
 20
4.4744943927
 30
0.0
 10
4.8003755255
 20
4.4745299632
 30
0.0
 10
4.8013830736
 20
4.4745965724
 30
0.0
 10
4.802952325
 20
4.4746817091
 30
0.0
 10
4.8046302005
 20
4.4747555656
 30
0.0
 10
4.8070320704
 20
4.4748391331
 30
0.0
 10
4.8101706388
 20
4.4749076411
 30
0.0
 10
4.8140157132
 20
4.4749352541
 30
0.0
 10
4.8178607873
 20
4.4749076411
 30
0.0
 10
4.820999355
 20
4.474839133
 30
0.0
 10
4.8234012241
 20
4.4747555656
 30
0.0
 10
4.825079099
 20
4.4746817091
 30
0.0
 10
4.82664835
 20
4.4745965724
 30
0.0
 10
4.8276558979
 20
4.4745299632
 30
0.0
 10
4.828138466
 20
4.4744943926
 30
0.0
 11
4.7998929574
 21
4.4744943927
 31
0.0
 11
4.8013413666
 21
4.4745910697
 31
0.0
 11
4.8029165201
 21
4.4746771671
 31
0.0
 11
4.8046003274
 21
4.4747517281
 31
0.0
 11
4.8063746984
 21
4.4748137959
 31
0.0
 11
4.8101227326
 21
4.4748976164
 31
0.0
 11
4.8140157133
 21
4.4749259348
 31
0.0
 11
4.8179086936
 21
4.4748976164
 31
0.0
 11
4.8216567268
 21
4.4748137959
 31
0.0
 11
4.8234310972
 21
4.4747517281
 31
0.0
 11
4.8251149039
 21
4.4746771671
 31
0.0
 11
4.8266900569
 21
4.4745910696
 31
0.0
 11
4.828138466
 21
4.4744943926
 31
0.0
  0
SPLINE
  5
320
100
AcDbEntity
  8
0
100
AcDbSpline
 62
9
  6
CONTINUOUS
 70
0
 71
3
 72
13
 73
9
 74
7
 42
0.0000001
 43
0.0000001
 44
0.0000000001
 12
-0.0080779506
 22
-0.0114719127
 32
0.0
 13
-0.0002502861
 23
-0.0140283792
 33
0.0
 40
0.0
 40
0.0
 40
0.0
 40
0.0
 40
0.1151424912
 40
0.2339074844
 40
0.4805001142
 40
0.73712326
 40
0.8681565255
 40
1.0
 40
1.0
 40
1.0
 40
1.0
 10
4.8321233155
 20
4.2385496163
 30
0.0
 10
4.831813277
 20
4.2381093148
 30
0.0
 10
4.8312243145
 20
4.2371854291
 30
0.0
 10
4.8301783741
 20
4.2351940962
 30
0.0
 10
4.8291411194
 20
4.2324632293
 30
0.0
 10
4.8284968886
 20
4.229557443
 30
0.0
 10
4.8282123523
 20
4.22714315
 30
0.0
 10
4.8281495743
 20
4.2259141876
 30
0.0
 10
4.8281385747
 20
4.2252976709
 30
0.0
 11
4.8321233155
 21
4.2385496163
 31
0.0
 11
4.8312527722
 21
4.237188713
 31
0.0
 11
4.8304762809
 21
4.2357143424
 31
0.0
 11
4.8292366247
 21
4.2324842057
 31
0.0
 11
4.8284488309
 21
4.2289708661
 31
0.0
 11
4.8282329718
 21
4.2271451054
 31
0.0
 11
4.8281385747
 21
4.2252976709
 31
0.0
  0
SPLINE
  5
321
100
AcDbEntity
  8
0
100
AcDbSpline
 62
9
  6
CONTINUOUS
 70
0
 71
3
 72
24
 73
20
 74
18
 42
0.0000001
 43
0.0000001
 44
0.0000000001
 12
-0.0009609855
 22
0.0259320024
 32
0.0
 13
-0.025949801
 23
0.0000083091
 33
0.0
 40
0.0
 40
0.0
 40
0.0
 40
0.0
 40
0.0723730602
 40
0.1446296884
 40
0.2163390305
 40
0.2870735755
 40
0.3564267867
 40
0.4240444245
 40
0.4897504183
 40
0.553477567
 40
0.6151920802
 40
0.674910586
 40
0.7040561138
 40
0.7327434324
 40
0.7888125581
 40
0.8433316603
 40
0.8965177665
 40
0.9486323096
 40
1.0
 40
1.0
 40
1.0
 40
1.0
 10
8.8710749994
 20
4.5809427563
 30
0.0
 10
8.8710518162
 20
4.5815683491
 30
0.0
 10
8.8709620196
 20
4.5828173243
 30
0.0
 10
8.8707015168
 20
4.5846717833
 30
0.0
 10
8.8703190089
 20
4.586490608
 30
0.0
 10
8.8698183603
 20
4.5882544732
 30
0.0
 10
8.8692036221
 20
4.5899444631
 30
0.0
 10
8.8684772945
 20
4.5915421334
 30
0.0
 10
8.8676462939
 20
4.5930325803
 30
0.0
 10
8.8667194895
 20
4.5944044143
 30
0.0
 10
8.8657048566
 20
4.5956465899
 30
0.0
 10
8.8647850491
 20
4.5965722434
 30
0.0
 10
8.8640129205
 20
4.5972345498
 30
0.0
 10
8.8632306124
 20
4.5978341555
 30
0.0
 10
8.8622139532
 20
4.5984858106
 30
0.0
 10
8.8609373082
 20
4.5991073757
 30
0.0
 10
8.8596265438
 20
4.5995580588
 30
0.0
 10
8.8582958339
 20
4.5998329312
 30
0.0
 10
8.8573996324
 20
4.5998958944
 30
0.0
 10
8.8569553053
 20
4.5998960367
 30
0.0
 11
8.8710749994
 21
4.5809427563
 31
0.0
 11
8.8709408239
 21
4.5828160238
 31
0.0
 11
8.8706799163
 21
4.584672828
 31
0.0
 11
8.8702962539
 21
4.5864936906
 31
0.0
 11
8.8697938136
 21
4.5882591334
 31
0.0
 11
8.8691765726
 21
4.5899496781
 31
0.0
 11
8.8684487182
 21
4.5915462604
 31
0.0
 11
8.8676168868
 21
4.5930346413
 31
0.0
 11
8.8666892983
 21
4.5944037016
 31
0.0
 11
8.8656741991
 21
4.5956423743
 31
0.0
 11
8.8645798357
 21
4.5967395923
 31
0.0
 11
8.8640055069
 21
4.5972316974
 31
0.0
 11
8.8634144893
 21
4.597684328
 31
0.0
 11
8.8621885522
 21
4.5984679434
 31
0.0
 11
8.8609157028
 21
4.5990855193
 31
0.0
 11
8.8596099035
 21
4.5995324584
 31
0.0
 11
8.8582851168
 21
4.5998041633
 31
0.0
 11
8.8569553053
 21
4.5998960367
 31
0.0
  0
SPLINE
  5
322
100
AcDbEntity
  8
0
100
AcDbSpline
 62
9
  6
CONTINUOUS
 70
0
 71
3
 72
23
 73
19
 74
17
 42
0.0000001
 43
0.0000001
 44
0.0000000001
 12
0.0171581144
 22
-0.0234852142
 32
0.0
 13
0.0289675502
 23
0.0026148068
 33
0.0
 40
0.0
 40
0.0
 40
0.0
 40
0.0
 40
0.0611785869
 40
0.1247677051
 40
0.190255398
 40
0.2571125491
 40
0.3248205831
 40
0.3929134962
 40
0.4609293522
 40
0.5284041194
 40
0.5948858169
 40
0.6599518617
 40
0.7231957046
 40
0.784233126
 40
0.8427176391
 40
0.8983430697
 40
0.9508399409
 40
1.0
 40
1.0
 40
1.0
 40
1.0
 10
4.807360545
 20
4.2517467487
 30
0.0
 10
4.807710448
 20
4.251267818
 30
0.0
 10
4.8084584285
 20
4.2503158589
 30
0.0
 10
4.8096862628
 20
4.2489379897
 30
0.0
 10
4.8110305666
 20
4.2475944001
 30
0.0
 10
4.8124771171
 20
4.2463009163
 30
0.0
 10
4.8140121677
 20
4.2450729941
 30
0.0
 10
4.8156191153
 20
4.2439214895
 30
0.0
 10
4.8172820333
 20
4.2428565975
 30
0.0
 10
4.8189851427
 20
4.2418883999
 30
0.0
 10
4.8207128065
 20
4.2410269542
 30
0.0
 10
4.8224482233
 20
4.2402794738
 30
0.0
 10
4.8241749309
 20
4.2396529479
 30
0.0
 10
4.8258766115
 20
4.2391543048
 30
0.0
 10
4.827536774
 20
4.2387906443
 30
0.0
 10
4.8291376512
 20
4.2385632513
 30
0.0
 10
4.8306616248
 20
4.2384732164
 30
0.0
 10
4.8316486333
 20
4.2385067683
 30
0.0
 10
4.8321233155
 20
4.2385496163
 30
0.0
 11
4.807360545
 21
4.2517467487
 31
0.0
 11
4.8084577354
 21
4.2503458796
 31
0.0
 11
4.8096867725
 21
4.2489637957
 31
0.0
 11
4.8110331553
 21
4.2476164824
 31
0.0
 11
4.8124823827
 21
4.2463199248
 31
0.0
 11
4.814019707
 21
4.245089146
 31
0.0
 11
4.8156293962
 21
4.2439353266
 31
0.0
 11
4.8172954723
 21
4.2428686888
 31
0.0
 11
4.8190019576
 21
4.2418994549
 31
0.0
 11
4.8207327677
 21
4.2410373253
 31
0.0
 11
4.8224713919
 21
4.2402899181
 31
0.0
 11
4.8242012135
 21
4.2396643313
 31
0.0
 11
4.8259056158
 21
4.2391676631
 31
0.0
 11
4.8275677726
 21
4.238806034
 31
0.0
 11
4.829170022
 21
4.238581658
 31
0.0
 11
4.8306944933
 21
4.2384957728
 31
0.0
 11
4.8321233155
 21
4.2385496163
 31
0.0
  0
SPLINE
  5
323
100
AcDbEntity
  8
0
100
AcDbSpline
 62
6
  6
CONTINUOUS
 70
0
 71
3
 72
13
 73
9
 74
7
 42
0.0000001
 43
0.0000001
 44
0.0000000001
 12
-0.0445851188
 22
-0.027960851
 32
0.0
 13
-0.0521966523
 23
-0.0067194866
 33
0.0
 40
0.0
 40
0.0
 40
0.0
 40
0.0
 40
0.2579342609
 40
0.509750082
 40
0.6337333503
 40
0.7566369344
 40
0.8786581191
 40
1.0
 40
1.0
 40
1.0
 40
1.0
 10
4.3587097247
 20
4.1188516324
 30
0.0
 10
4.3548763814
 20
4.116447612
 30
0.0
 10
4.3470649293
 20
4.1120598024
 30
0.0
 10
4.3368404023
 20
4.1076383413
 30
0.0
 10
4.3285479202
 20
4.1048385883
 30
0.0
 10
4.322307525
 20
4.1031111246
 30
0.0
 10
4.3160253928
 20
4.1017473754
 30
0.0
 10
4.311805867
 20
4.1010801611
 30
0.0
 10
4.3096946537
 20
4.100808376
 30
0.0
 11
4.3587097247
 21
4.1188516324
 31
0.0
 11
4.3468654895
 21
4.1122199958
 31
0.0
 11
4.3346945694
 21
4.1069764236
 31
0.0
 11
4.3285120511
 21
4.1048905204
 31
0.0
 11
4.3222780471
 21
4.1031661534
 31
0.0
 11
4.3160023252
 21
4.1018049096
 31
0.0
 11
4.3096946537
 21
4.100808376
 31
0.0
  0
SPLINE
  5
324
100
AcDbEntity
  8
0
100
AcDbSpline
 62
6
  6
CONTINUOUS
 70
0
 71
3
 72
15
 73
11
 74
9
 42
0.0000001
 43
0.0000001
 44
0.0000000001
 12
0.052014986
 22
-0.0017015119
 32
0.0
 13
0.0477841059
 23
-0.020618757
 33
0.0
 40
0.0
 40
0.0
 40
0.0
 40
0.0
 40
0.1233004642
 40
0.246831922
 40
0.3707204638
 40
0.4950923744
 40
0.6200750524
 40
0.7458018638
 40
0.8724030508
 40
1.0
 40
1.0
 40
1.0
 40
1.0
 10
4.3265031033
 20
4.5998142313
 30
0.0
 10
4.3286409273
 20
4.5997442989
 30
0.0
 10
4.332917928
 20
4.5995016514
 30
0.0
 10
4.3393162547
 20
4.5988303951
 30
0.0
 10
4.3456937643
 20
4.5978516776
 30
0.0
 10
4.3520421318
 20
4.5965656936
 30
0.0
 10
4.3583532295
 20
4.5949721317
 30
0.0
 10
4.3646197548
 20
4.5930735737
 30
0.0
 10
4.3708349476
 20
4.5908739073
 30
0.0
 10
4.3749229641
 20
4.5892158598
 30
0.0
 10
4.3769553328
 20
4.5883388963
 30
0.0
 11
4.3265031033
 21
4.5998142313
 31
0.0
 11
4.3329097116
 21
4.5994509025
 31
0.0
 11
4.3393035707
 21
4.5987803587
 31
0.0
 11
4.3456765225
 21
4.5978026875
 31
0.0
 11
4.3520204084
 21
4.596517976
 31
0.0
 11
4.3583271545
 21
4.5949264928
 31
0.0
 11
4.3645896094
 21
4.5930304929
 31
0.0
 11
4.3708011928
 21
4.5908334601
 31
0.0
 11
4.3769553328
 21
4.5883388963
 31
0.0
  0
LINE
  5
325
100
AcDbEntity
  8
0
100
AcDbLine
 62
6
  6
CONTINUOUS
 10
4.8617227361
 20
4.3498960372
 11
4.8326987587
 21
4.3498960372
  0
SPLINE
  5
326
100
AcDbEntity
  8
0
100
AcDbSpline
 62
9
  6
CONTINUOUS
 70
0
 71
3
 72
23
 73
19
 74
17
 42
0.0000001
 43
0.0000001
 44
0.0000000001
 12
-0.0289669187
 22
0.0026075424
 32
0.0
 13
-0.0171627051
 23
-0.0234802727
 33
0.0
 40
0.0
 40
0.0
 40
0.0
 40
0.0
 40
0.0491529907
 40
0.1016438736
 40
0.1572646383
 40
0.215745946
 40
0.2767815574
 40
0.3400245364
 40
0.4050903554
 40
0.4715724047
 40
0.5390483203
 40
0.6070665249
 40
0.6751630854
 40
0.7428757702
 40
0.8097378598
 40
0.8752298457
 40
0.9388216001
 40
1.0
 40
1.0
 40
1.0
 40
1.0
 10
4.832123324
 20
4.461242468
 30
0.0
 10
4.8316487205
 20
4.4612851908
 30
0.0
 10
4.830661873
 20
4.4613184825
 30
0.0
 10
4.8291381622
 20
4.4612280595
 30
0.0
 10
4.8275375479
 20
4.4610002819
 30
0.0
 10
4.8258776397
 20
4.4606362535
 30
0.0
 10
4.8241761989
 20
4.4601372753
 30
0.0
 10
4.8224497296
 20
4.4595104113
 30
0.0
 10
4.8207145718
 20
4.4587625558
 30
0.0
 10
4.8189872097
 20
4.4579006635
 30
0.0
 10
4.8172844677
 20
4.4569319156
 30
0.0
 10
4.8156219459
 20
4.455866438
 30
0.0
 10
4.8140153798
 20
4.4547143754
 30
0.0
 10
4.8124806529
 20
4.4534859861
 30
0.0
 10
4.811034321
 20
4.4521921894
 30
0.0
 10
4.8096901201
 20
4.4508484581
 30
0.0
 10
4.8084622651
 20
4.4494706342
 30
0.0
 10
4.8077141586
 20
4.4485188173
 30
0.0
 10
4.8073641629
 20
4.4480399888
 30
0.0
 11
4.832123324
 21
4.461242468
 31
0.0
 11
4.8306947566
 21
4.4612959372
 31
0.0
 11
4.8291705489
 21
4.4612096669
 31
0.0
 11
4.827568562
 21
4.4609849086
 31
0.0
 11
4.825906657
 21
4.4606229135
 31
0.0
 11
4.8242024911
 21
4.4601259019
 31
0.0
 11
4.8224729074
 21
4.4594999696
 31
0.0
 11
4.820734545
 21
4.458752181
 31
0.0
 11
4.8190040435
 21
4.4578896005
 31
0.0
 11
4.8172979243
 21
4.4569198294
 31
0.0
 11
4.8156322391
 21
4.4558526161
 31
0.0
 11
4.8140229218
 21
4.4546982459
 31
0.0
 11
4.8124859062
 21
4.4534670038
 31
0.0
 11
4.8110368861
 21
4.4521701276
 31
0.0
 11
4.809690594
 21
4.4508226658
 31
0.0
 11
4.8084615222
 21
4.4494406193
 31
0.0
 11
4.8073641629
 21
4.4480399888
 31
0.0
  0
LINE
  5
327
100
AcDbEntity
  8
0
100
AcDbLine
 62
6
  6
CONTINUOUS
 10
5.4542034132
 20
4.3498960372
 11
5.4555880411
 21
4.3498960372
  0
SPLINE
  5
328
100
AcDbEntity
  8
0
100
AcDbSpline
 62
9
  6
CONTINUOUS
 70
0
 71
3
 72
75
 73
71
 74
69
 42
0.0000001
 43
0.0000001
 44
0.0000000001
 12
0.6415826706
 22
0.0662091211
 32
0.0
 13
-0.4000403494
 23
0.5059443545
 33
0.0
 40
0.0
 40
0.0
 40
0.0
 40
0.0
 40
0.0618317098
 40
0.0927481779
 40
0.1236658724
 40
0.1545842757
 40
0.1855031229
 40
0.2473434458
 40
0.3091889764
 40
0.3710419513
 40
0.4329055642
 40
0.4947842625
 40
0.5257311991
 40
0.5566845251
 40
0.5876455479
 40
0.6186159009
 40
0.6495976602
 40
0.6805935146
 40
0.711607024
 40
0.7426430371
 40
0.7581715532
 40
0.7737084791
 40
0.7892551845
 40
0.8048133752
 40
0.8203852131
 40
0.8359734959
 40
0.8515819355
 40
0.8672156091
 40
0.8750441
 40
0.8828818494
 40
0.8907303223
 40
0.8985913651
 40
0.9064673427
 40
0.9143613523
 40
0.9222775676
 40
0.9302218074
 40
0.9382025366
 40
0.9422105085
 40
0.9462330376
 40
0.9502731356
 40
0.9543348061
 40
0.9563754414
 40
0.9584237041
 40
0.9625477368
 40
0.9646266915
 40
0.9667194755
 40
0.9688286577
 40
0.9709579569
 40
0.9731127504
 40
0.9752995381
 40
0.977526503
 40
0.9798069357
 40
0.9809747466
 40
0.9821664196
 40
0.9833855335
 40
0.9846337139
 40
0.9859167557
 40
0.9865749747
 40
0.9872455003
 40
0.9886111583
 40
0.9899883079
 40
0.9906741467
 40
0.9913547824
 40
0.9926967623
 40
0.9940118794
 40
0.9952912097
 40
0.9965224556
 40
0.9977105223
 40
0.998867099
 40
1.0
 40
1.0
 40
1.0
 40
1.0
 10
4.8321237892
 20
4.2385516907
 30
0.0
 10
4.8453471737
 20
4.2399162984
 30
0.0
 10
4.8651807989
 20
4.2419786354
 30
0.0
 10
4.891621881
 20
4.2447674765
 30
0.0
 10
4.9114511503
 20
4.2468801133
 30
0.0
 10
4.9312786279
 20
4.2490142883
 30
0.0
 10
4.9577129438
 20
4.2518899113
 30
0.0
 10
4.9907508656
 20
4.2555453366
 30
0.0
 10
5.0303867161
 20
4.2600435558
 30
0.0
 10
5.070012703
 20
4.2646714399
 30
0.0
 10
5.1096277657
 20
4.2694520164
 30
0.0
 10
5.1426274665
 20
4.2735875744
 30
0.0
 10
5.1690189078
 20
4.2770074296
 30
0.0
 10
5.1888101553
 20
4.2796349347
 30
0.0
 10
5.2085970673
 20
4.2823324843
 30
0.0
 10
5.2283791856
 20
4.28510939
 30
0.0
 10
5.2481559373
 20
4.2879770491
 30
0.0
 10
5.2679265978
 20
4.290949674
 30
0.0
 10
5.2876902003
 20
4.2940453644
 30
0.0
 10
5.3041492227
 20
4.2967466545
 30
0.0
 10
5.3173099153
 20
4.2989966914
 30
0.0
 10
5.3271796004
 20
4.3007344507
 30
0.0
 10
5.3370457801
 20
4.3025280831
 30
0.0
 10
5.3469079118
 20
4.3043849413
 30
0.0
 10
5.3567652977
 20
4.3063140474
 30
0.0
 10
5.3666170328
 20
4.3083266898
 30
0.0
 10
5.3764618784
 20
4.3104373141
 30
0.0
 10
5.3846547345
 20
4.3122926298
 30
0.0
 10
5.391202006
 20
4.3138477772
 30
0.0
 10
5.3961114893
 20
4.3150546328
 30
0.0
 10
5.4010169826
 20
4.3163062783
 30
0.0
 10
5.4059177416
 20
4.3176087966
 30
0.0
 10
5.410812805
 20
4.3189696989
 30
0.0
 10
5.4157008982
 20
4.3203984618
 30
0.0
 10
5.4205803037
 20
4.3219073441
 30
0.0
 10
5.4254485373
 20
4.3235127286
 30
0.0
 10
5.4294872853
 20
4.324947565
 30
0.0
 10
5.4327053549
 20
4.3261701551
 30
0.0
 10
5.4351158493
 20
4.327131922
 30
0.0
 10
5.43751805
 20
4.3281444145
 30
0.0
 10
5.4395082078
 20
4.3290361973
 30
0.0
 10
5.4410925613
 20
4.3297850254
 30
0.0
 10
5.4426778093
 20
4.3305628511
 30
0.0
 10
5.4442509031
 20
4.3313839028
 30
0.0
 10
5.4458062834
 20
4.3322570201
 30
0.0
 10
5.4469678999
 20
4.3329459009
 30
0.0
 10
5.4481200649
 20
4.3336710723
 30
0.0
 10
5.4492602149
 20
4.3344392795
 30
0.0
 10
5.4503845257
 20
4.3352592769
 30
0.0
 10
5.4514888394
 20
4.3361404687
 30
0.0
 10
5.4525628599
 20
4.3370997079
 30
0.0
 10
5.4534180867
 20
4.3379718519
 30
0.0
 10
5.4540684588
 20
4.3387287057
 30
0.0
 10
5.4545414342
 20
4.3393359358
 30
0.0
 10
5.4549910509
 20
4.3399820712
 30
0.0
 10
5.4554028206
 20
4.3406762971
 30
0.0
 10
5.4556994642
 20
4.3412958219
 30
0.0
 10
5.4559026651
 20
4.3418195482
 30
0.0
 10
5.456083012
 20
4.3423703002
 30
0.0
 10
5.4562557599
 20
4.3430850196
 30
0.0
 10
5.4563506375
 20
4.3438177575
 30
0.0
 10
5.4563737988
 20
4.3444075208
 30
0.0
 10
5.4563590418
 20
4.3449900282
 30
0.0
 10
5.4562697053
 20
4.3457041256
 30
0.0
 10
5.4560676535
 20
4.3465276218
 30
0.0
 10
5.4557902209
 20
4.3473033382
 30
0.0
 10
5.4554535195
 20
4.3480248891
 30
0.0
 10
5.4550702772
 20
4.3486922796
 30
0.0
 10
5.4546522045
 20
4.3493127289
 30
0.0
 10
5.4543544818
 20
4.3497049756
 30
0.0
 10
5.4542034131
 20
4.3498960372
 30
0.0
 11
4.8321237892
 21
4.2385516907
 31
0.0
 11
4.8717904654
 21
4.2426790699
 31
0.0
 11
4.8916212491
 21
4.2447709378
 31
0.0
 11
4.9114506154
 21
4.2468836777
 31
0.0
 11
4.9312781276
 21
4.2490180226
 31
0.0
 11
4.951103478
 21
4.2511750045
 31
0.0
 11
4.9907476741
 21
4.2555637771
 31
0.0
 11
5.0303826532
 21
4.2600648878
 31
0.0
 11
5.070007431
 21
4.2646964783
 31
0.0
 11
5.1096208449
 21
4.2694818306
 31
0.0
 11
5.1492213761
 21
4.2744514045
 31
0.0
 11
5.1690161953
 21
4.2770175608
 31
0.0
 11
5.1888069612
 21
4.2796462761
 31
0.0
 11
5.2085932722
 21
4.2823452955
 31
0.0
 11
5.2283746279
 21
4.2851239924
 31
0.0
 11
5.2481503945
 21
4.2879938742
 31
0.0
 11
5.2679197482
 21
4.2909693132
 31
0.0
 11
5.2876815858
 21
4.2940686352
 31
0.0
 11
5.307434375
 21
4.297315825
 31
0.0
 11
5.3173067217
 21
4.299004534
 31
0.0
 11
5.3271758998
 21
4.300743205
 31
0.0
 11
5.3370414473
 21
4.3025379434
 31
0.0
 11
5.3469027763
 21
4.3043961479
 31
0.0
 11
5.3567591236
 21
4.3063269227
 31
0.0
 11
5.3666094744
 21
4.3083416767
 31
0.0
 11
5.3764524423
 21
4.310455022
 31
0.0
 11
5.3862860662
 21
4.3126861774
 31
0.0
 11
5.3911985237
 21
4.3138537252
 31
0.0
 11
5.3961074565
 21
4.3150612537
 31
0.0
 11
5.4010122529
 21
4.3163137299
 31
0.0
 11
5.4059121196
 21
4.3176172557
 31
0.0
 11
5.4108060143
 21
4.3189794022
 31
0.0
 11
5.4156925367
 21
4.3204097329
 31
0.0
 11
5.4205697436
 21
4.321920644
 31
0.0
 11
5.4254348346
 21
4.3235286859
 31
0.0
 11
5.4302835809
 21
4.3252567802
 31
0.0
 11
5.4326998514
 21
4.3261756851
 31
0.0
 11
5.435109193
 21
4.3271382103
 31
0.0
 11
5.4375099286
 21
4.3281515114
 31
0.0
 11
5.4398998152
 21
4.3292245727
 31
0.0
 11
5.4410896864
 21
4.3297872099
 31
0.0
 11
5.4422755367
 21
4.3303695221
 31
0.0
 11
5.4446321356
 21
4.3316031451
 31
0.0
 11
5.4458010517
 21
4.3322601541
 31
0.0
 11
5.4469617783
 21
4.3329491678
 31
0.0
 11
5.4481125789
 21
4.3336746673
 31
0.0
 11
5.4492508143
 21
4.3344431613
 31
0.0
 11
5.450372948
 21
4.3352631709
 31
0.0
 11
5.4514737632
 21
4.3361449827
 31
0.0
 11
5.4525435586
 21
4.337103469
 31
0.0
 11
5.4535698785
 21
4.3381570748
 31
0.0
 11
5.4540604894
 21
4.3387286085
 31
0.0
 11
5.4545323369
 21
4.3393353474
 31
0.0
 11
5.4549795969
 21
4.3399820711
 31
0.0
 11
5.4553886604
 21
4.3406754647
 31
0.0
 11
5.4557446826
 21
4.341422516
 31
0.0
 11
5.4558981641
 21
4.3418183461
 31
0.0
 11
5.4560328796
 21
4.3422293116
 31
0.0
 11
5.4562395814
 21
4.3430855509
 31
0.0
 11
5.4563520889
 21
4.3439666445
 31
0.0
 11
5.4563690613
 21
4.3444086778
 31
0.0
 11
5.4563577626
 21
4.3448475356
 31
0.0
 11
5.4562523381
 21
4.3457066548
 31
0.0
 11
5.4560516911
 21
4.3465308193
 31
0.0
 11
5.4557746633
 21
4.3473080816
 31
0.0
 11
5.4554394751
 21
4.3480280184
 31
0.0
 11
5.4550590481
 21
4.348693208
 31
0.0
 11
5.4546436213
 21
4.3493128105
 31
0.0
 11
5.4542034131
 21
4.3498960372
 31
0.0
  0
SPLINE
  5
329
100
AcDbEntity
  8
0
100
AcDbSpline
 62
9
  6
CONTINUOUS
 70
0
 71
3
 72
68
 73
64
 74
62
 42
0.0000001
 43
0.0000001
 44
0.0000000001
 12
0.4003349142
 22
0.50571077
 32
0.0
 13
-0.6415822527
 23
0.0662090583
 33
0.0
 40
0.0
 40
0.0
 40
0.0
 40
0.0
 40
0.0022897415
 40
0.0034755378
 40
0.0046952369
 40
0.0059535975
 40
0.0072525851
 40
0.0085883247
 40
0.0099478231
 40
0.0113107016
 40
0.0126564083
 40
0.0139718663
 40
0.0152529729
 40
0.0165003252
 40
0.0177176815
 40
0.0189090163
 40
0.0200781977
 40
0.0223624344
 40
0.0245914421
 40
0.0267790599
 40
0.0289348117
 40
0.0310654046
 40
0.0331756868
 40
0.0373486016
 40
0.041473865
 40
0.0455637464
 40
0.0496263431
 40
0.0536672666
 40
0.0576905607
 40
0.0616992338
 40
0.0696812399
 40
0.0776266395
 40
0.085543934
 40
0.093438965
 40
0.101315921
 40
0.1091779086
 40
0.117027299
 40
0.1248659436
 40
0.1326953154
 40
0.1483307139
 40
0.1639408436
 40
0.1795307929
 40
0.195104279
 40
0.2106641037
 40
0.2262124321
 40
0.2417509721
 40
0.2572810949
 40
0.2883202985
 40
0.3193369752
 40
0.3503359816
 40
0.3813208835
 40
0.4122943729
 40
0.4432585287
 40
0.474214986
 40
0.5051650523
 40
0.567050006
 40
0.62891987
 40
0.6907790921
 40
0.7526308614
 40
0.8144774501
 40
0.8763208388
 40
0.9381615055
 40
1.0
 40
1.0
 40
1.0
 40
1.0
 10
5.4542034131
 20
4.3498960372
 30
0.0
 10
5.4545089676
 20
4.3502820195
 30
0.0
 10
5.4549437641
 20
4.3508924711
 30
0.0
 10
5.455445508
 20
4.3517692366
 30
0.0
 10
5.4557829715
 20
4.3524820556
 30
0.0
 10
5.4560631555
 20
4.3532455878
 30
0.0
 10
5.4562689205
 20
4.3540586602
 30
0.0
 10
5.4563817044
 20
4.354912114
 30
0.0
 10
5.4563871581
 20
4.3557869409
 30
0.0
 10
5.4562818883
 20
4.356657505
 30
0.0
 10
5.4560749969
 20
4.3574995285
 30
0.0
 10
5.4557844904
 20
4.3582973087
 30
0.0
 10
5.4554291007
 20
4.3590445942
 30
0.0
 10
5.455024969
 20
4.3597420554
 30
0.0
 10
5.4545844962
 20
4.3603937293
 30
0.0
 10
5.4541162609
 20
4.3610045297
 30
0.0
 10
5.4534688674
 20
4.3617653049
 30
0.0
 10
5.4526162796
 20
4.3626422835
 30
0.0
 10
5.4515431125
 20
4.3636046551
 30
0.0
 10
5.4504407741
 20
4.3644896193
 30
0.0
 10
5.4493174145
 20
4.3653120692
 30
0.0
 10
5.4481781833
 20
4.3660829222
 30
0.0
 10
5.4466486046
 20
4.3670490895
 30
0.0
 10
5.4447092785
 20
4.3681675285
 30
0.0
 10
5.4423486449
 20
4.369402012
 30
0.0
 10
5.4399701632
 20
4.3705477766
 30
0.0
 10
5.4375783216
 20
4.3716215164
 30
0.0
 10
5.4351760961
 20
4.3726353685
 30
0.0
 10
5.4327656097
 20
4.3735984735
 30
0.0
 10
5.4295474485
 20
4.3748224832
 30
0.0
 10
5.425508528
 20
4.3762588467
 30
0.0
 10
5.4206399818
 20
4.3778656927
 30
0.0
 10
5.4157602221
 20
4.3793757944
 30
0.0
 10
5.4108717418
 20
4.380805583
 30
0.0
 10
5.4059762707
 20
4.3821673711
 30
0.0
 10
5.401075091
 20
4.3834706725
 30
0.0
 10
5.3961691656
 20
4.3847230105
 30
0.0
 10
5.3912592354
 20
4.3859304603
 30
0.0
 10
5.3847113728
 20
4.3874863576
 30
0.0
 10
5.3765177533
 20
4.3893424625
 30
0.0
 10
5.3666719701
 20
4.3914538952
 30
0.0
 10
5.3568192874
 20
4.3934672434
 30
0.0
 10
5.3469609441
 20
4.3953969644
 30
0.0
 10
5.3370978487
 20
4.397254368
 30
0.0
 10
5.3272307
 20
4.3990484899
 30
0.0
 10
5.3173600424
 20
4.4007866934
 30
0.0
 10
5.3041980526
 20
4.403037271
 30
0.0
 10
5.2877374029
 20
4.405739153
 30
0.0
 10
5.2679718419
 20
4.4088354691
 30
0.0
 10
5.2481992193
 20
4.4118086391
 30
0.0
 10
5.2284205034
 20
4.4146767911
 30
0.0
 10
5.208636418
 20
4.4174541464
 30
0.0
 10
5.1888475364
 20
4.4201521137
 30
0.0
 10
5.1690543152
 20
4.4227800003
 30
0.0
 10
5.1426602399
 20
4.4262003336
 30
0.0
 10
5.1096572413
 20
4.4303364366
 30
0.0
 10
5.0700382164
 20
4.435117617
 30
0.0
 10
5.0304082631
 20
4.4397460394
 30
0.0
 10
4.9907684398
 20
4.4442447817
 30
0.0
 10
4.9511195184
 20
4.448631643
 30
0.0
 10
4.9114623974
 20
4.4529215126
 30
0.0
 10
4.8717978433
 20
4.4571255585
 30
0.0
 10
4.8453498795
 20
4.4598760754
 30
0.0
 10
4.8321250526
 20
4.4612408315
 30
0.0
 11
5.4542034131
 21
4.3498960372
 31
0.0
 11
5.455054355
 21
4.3511031042
 31
0.0
 11
5.4554332595
 21
4.3517674764
 31
0.0
 11
5.4557686493
 21
4.3524790941
 31
0.0
 11
5.4560469365
 21
4.3532415234
 31
0.0
 11
5.4562512124
 21
4.3540540725
 31
0.0
 11
5.456363231
 21
4.354908297
 31
0.0
 11
5.4563686732
 21
4.3557851423
 31
0.0
 11
5.4562639318
 21
4.3566579221
 31
0.0
 11
5.4560582826
 21
4.3575011744
 31
0.0
 11
5.4557694535
 21
4.3582989566
 31
0.0
 11
5.4554159619
 21
4.3590458272
 31
0.0
 11
5.4550137857
 21
4.3597426209
 31
0.0
 11
5.4545749676
 21
4.3603937349
 31
0.0
 11
5.4541082438
 21
4.3610041487
 31
0.0
 11
5.453620067
 21
4.3615789225
 31
0.0
 11
5.4525963001
 21
4.3626384222
 31
0.0
 11
5.4515279686
 21
4.3636005086
 31
0.0
 11
5.4504290424
 21
4.3644855258
 31
0.0
 11
5.4493080842
 21
4.3653081852
 31
0.0
 11
5.4481706103
 21
4.3660792922
 31
0.0
 11
5.4470203702
 21
4.3668070062
 31
0.0
 11
5.4446915129
 21
4.3681562733
 31
0.0
 11
5.4423353445
 21
4.3693924239
 31
0.0
 11
5.4399598802
 21
4.3705395276
 31
0.0
 11
5.4375701325
 21
4.3716143514
 31
0.0
 11
5.4351694268
 21
4.3726290872
 31
0.0
 11
5.4327600736
 21
4.3735929081
 31
0.0
 11
5.430343738
 21
4.3745129089
 31
0.0
 11
5.4254947764
 21
4.3762428414
 31
0.0
 11
5.4206293902
 21
4.3778523625
 31
0.0
 11
5.4157518374
 21
4.3793644977
 31
0.0
 11
5.4108649344
 21
4.3807958612
 31
0.0
 11
5.4059706361
 21
4.3821588984
 31
0.0
 11
5.401070351
 21
4.3834632085
 31
0.0
 11
5.3961651236
 21
4.3847163753
 31
0.0
 11
5.3912557483
 21
4.3859245086
 31
0.0
 11
5.3863428431
 21
4.3870926149
 31
0.0
 11
5.3765083038
 21
4.3893247342
 31
0.0
 11
5.3666644024
 21
4.3914388932
 31
0.0
 11
5.3568131058
 21
4.3934543544
 31
0.0
 11
5.3469558032
 21
4.3953857473
 31
0.0
 11
5.3370935115
 21
4.3972444992
 31
0.0
 11
5.327226996
 21
4.3990397287
 31
0.0
 11
5.3173568459
 21
4.4007788449
 31
0.0
 11
5.307483524
 21
4.4024679606
 31
0.0
 11
5.2877287809
 21
4.4057158693
 31
0.0
 11
5.2679649868
 21
4.4088158173
 31
0.0
 11
5.2481936731
 21
4.4117918058
 31
0.0
 11
5.2284159432
 21
4.4146621817
 31
0.0
 11
5.2086326213
 21
4.4174413301
 31
0.0
 11
5.188844341
 21
4.4201407664
 31
0.0
 11
5.1690516018
 21
4.4227698655
 31
0.0
 11
5.1492548068
 21
4.4253363807
 31
0.0
 11
5.1096503185
 21
4.4303066143
 31
0.0
 11
5.0700329422
 21
4.4350925678
 31
0.0
 11
5.0304041978
 21
4.439724705
 31
0.0
 11
4.9907652528
 21
4.4442263223
 31
0.0
 11
4.9511170724
 21
4.4486155959
 31
0.0
 11
4.9114602883
 21
4.4529073019
 31
0.0
 11
4.8717960112
 21
4.4571125765
 31
0.0
 11
4.8321250526
 21
4.4612408315
 31
0.0
  0
SPLINE
  5
32A
100
AcDbEntity
  8
0
100
AcDbSpline
 62
6
  6
CONTINUOUS
 70
0
 71
3
 72
11
 73
7
 74
5
 42
0.0000001
 43
0.0000001
 44
0.0000000001
 12
-0.0499123066
 22
-0.0121835068
 32
0.0
 13
-0.0433049967
 23
-0.0276469428
 33
0.0
 40
0.0
 40
0.0
 40
0.0
 40
0.0
 40
0.2443056698
 40
0.4919058957
 40
0.7435880853
 40
1.0
 40
1.0
 40
1.0
 40
1.0
 10
4.3128337022
 20
4.6208883623
 30
0.0
 10
4.3087690824
 20
4.6198961957
 30
0.0
 10
4.3006685956
 20
4.6175383966
 30
0.0
 10
4.2887742129
 20
4.6129494208
 30
0.0
 10
4.2771126136
 20
4.6073050361
 30
0.0
 10
4.2695974674
 20
4.6028982221
 30
0.0
 10
4.2658961617
 20
4.6005352203
 30
0.0
 11
4.3128337022
 21
4.6208883623
 31
0.0
 11
4.3007800733
 21
4.6173869641
 31
0.0
 11
4.2889087963
 21
4.612815265
 31
0.0
 11
4.2772654869
 21
4.6071902499
 31
0.0
 11
4.2658961617
 21
4.6005352203
 31
0.0
  0
SPLINE
  5
32B
100
AcDbEntity
  8
0
100
AcDbSpline
 62
6
  6
CONTINUOUS
 70
0
 71
3
 72
11
 73
7
 74
5
 42
0.0000001
 43
0.0000001
 44
0.0000000001
 12
0.0433049967
 22
-0.0276469428
 32
0.0
 13
0.0499123066
 23
-0.0121835068
 33
0.0
 40
0.0
 40
0.0
 40
0.0
 40
0.0
 40
0.2564119147
 40
0.5080941043
 40
0.7556943302
 40
1.0
 40
1.0
 40
1.0
 40
1.0
 10
4.2658961617
 20
4.0992568541
 30
0.0
 10
4.2695974674
 20
4.0968938522
 30
0.0
 10
4.2771126136
 20
4.0924870383
 30
0.0
 10
4.2887742129
 20
4.0868426536
 30
0.0
 10
4.3006685956
 20
4.0822536777
 30
0.0
 10
4.3087690824
 20
4.0798958787
 30
0.0
 10
4.3128337022
 20
4.0789037121
 30
0.0
 11
4.2658961617
 21
4.0992568541
 31
0.0
 11
4.2772654869
 21
4.0926018244
 31
0.0
 11
4.2889087963
 21
4.0869768093
 31
0.0
 11
4.3007800733
 21
4.0824051103
 31
0.0
 11
4.3128337022
 21
4.0789037121
 31
0.0
  0
SPLINE
  5
32C
100
AcDbEntity
  8
0
100
AcDbSpline
 62
9
  6
CONTINUOUS
 70
0
 71
3
 72
20
 73
16
 74
14
 42
0.0000001
 43
0.0000001
 44
0.0000000001
 12
0.0664614063
 22
-0.0963923505
 32
0.0
 13
-0.0035888959
 23
-0.1170287297
 33
0.0
 40
0.0
 40
0.0
 40
0.0
 40
0.0
 40
0.0567319817
 40
0.1144702221
 40
0.1731697262
 40
0.2327797892
 40
0.2932488728
 40
0.3545341835
 40
0.4793464962
 40
0.5427964373
 40
0.606857999
 40
0.7365427456
 40
0.8020510605
 40
0.8678723741
 40
1.0
 40
1.0
 40
1.0
 40
1.0
 10
4.8321250526
 20
4.4612408315
 30
0.0
 10
4.8333818817
 20
4.4594179885
 30
0.0
 10
4.8358277065
 20
4.4556770151
 30
0.0
 10
4.8392582383
 20
4.4498513349
 30
0.0
 10
4.8424744111
 20
4.4437771572
 30
0.0
 10
4.8454664646
 20
4.4374715117
 30
0.0
 10
4.8482250519
 20
4.4309505053
 30
0.0
 10
4.8516041225
 20
4.4219380449
 30
0.0
 10
4.854466442
 20
4.4126161919
 30
0.0
 10
4.8568113289
 20
4.4030499163
 30
0.0
 10
4.8588318543
 20
4.3932155063
 30
0.0
 10
4.8603144223
 20
4.383195734
 30
0.0
 10
4.8612592592
 20
4.37305103
 30
0.0
 10
4.8618478768
 20
4.36278411
 30
0.0
 10
4.8618820694
 20
4.35505028
 30
0.0
 10
4.8617240053
 20
4.3498960373
 30
0.0
 11
4.8321250526
 21
4.4612408315
 31
0.0
 11
4.83576245
 21
4.455682889
 31
0.0
 11
4.8391950616
 21
4.4498590063
 31
0.0
 11
4.8424131391
 21
4.4437862163
 31
0.0
 11
4.8454069341
 21
4.4374815521
 31
0.0
 11
4.848167418
 21
4.4309619374
 31
0.0
 11
4.8506884209
 21
4.4242438616
 31
0.0
 11
4.8549901414
 21
4.4102778534
 31
0.0
 11
4.8567602686
 21
4.4030628656
 31
0.0
 11
4.8582710471
 21
4.3957160252
 31
0.0
 11
4.8605005919
 21
4.3806966291
 31
0.0
 11
4.8612128482
 21
4.3730598129
 31
0.0
 11
4.8616546161
 21
4.3653658791
 31
0.0
 11
4.8617240053
 21
4.3498960373
 31
0.0
  0
SPLINE
  5
32D
100
AcDbEntity
  8
0
100
AcDbSpline
 62
9
  6
CONTINUOUS
 70
0
 71
3
 72
20
 73
16
 74
14
 42
0.0000001
 43
0.0000001
 44
0.0000000001
 12
0.0035849823
 22
-0.1170290539
 32
0.0
 13
-0.0664601111
 23
-0.0963934914
 33
0.0
 40
0.0
 40
0.0
 40
0.0
 40
0.0
 40
0.1321264769
 40
0.1979472024
 40
0.2634549291
 40
0.3931386923
 40
0.4571997795
 40
0.5206491094
 40
0.64545971
 40
0.7067444933
 40
0.767213867
 40
0.8268254081
 40
0.8855270905
 40
0.9432673193
 40
1.0
 40
1.0
 40
1.0
 40
1.0
 10
4.8617240053
 20
4.3498960373
 30
0.0
 10
4.8618818956
 20
4.3447418251
 30
0.0
 10
4.8618476769
 20
4.3370080589
 30
0.0
 10
4.8612591803
 20
4.3267412044
 30
0.0
 10
4.8603144608
 20
4.3165965555
 30
0.0
 10
4.8588318518
 20
4.3065768493
 30
0.0
 10
4.8568113177
 20
4.2967425066
 30
0.0
 10
4.8544665098
 20
4.2871763087
 30
0.0
 10
4.8516044738
 20
4.2778544681
 30
0.0
 10
4.8482254898
 20
4.2688420351
 30
0.0
 10
4.8454667502
 20
4.2623210232
 30
0.0
 10
4.8424742485
 20
4.2560154029
 30
0.0
 10
4.8392575288
 20
4.2499412521
 30
0.0
 10
4.8358265589
 20
4.2441155987
 30
0.0
 10
4.8333806092
 20
4.2403745778
 30
0.0
 10
4.8321237892
 20
4.2385516907
 30
0.0
 11
4.8617240053
 21
4.3498960373
 31
0.0
 11
4.8616544596
 21
4.3344263037
 31
0.0
 11
4.8612127692
 21
4.3267324209
 31
0.0
 11
4.8605005888
 21
4.3190956534
 31
0.0
 11
4.8582710448
 21
4.3040763469
 31
0.0
 11
4.8567602665
 21
4.2967295498
 31
0.0
 11
4.8549902034
 21
4.2895146066
 31
0.0
 11
4.8506887888
 21
4.2755486873
 31
0.0
 11
4.8481678379
 21
4.2688306446
 31
0.0
 11
4.8454071946
 21
4.262311047
 31
0.0
 11
4.8424129739
 21
4.25600638
 31
0.0
 11
4.8391943607
 21
4.2499335717
 31
0.0
 11
4.8357613131
 21
4.244109662
 31
0.0
 11
4.8321237892
 21
4.2385516907
 31
0.0
  0
SPLINE
  5
32E
100
AcDbEntity
  8
0
100
AcDbSpline
 62
9
  6
CONTINUOUS
 70
0
 71
3
 72
23
 73
19
 74
17
 42
0.0000001
 43
0.0000001
 44
0.0000000001
 12
0.0009611752
 22
-0.0259371218
 32
0.0
 13
0.0259549253
 23
-0.000000004
 33
0.0
 40
0.0
 40
0.0
 40
0.0
 40
0.0
 40
0.0726436419
 40
0.1450337158
 40
0.216737349
 40
0.2873357271
 40
0.3564803508
 40
0.4239683103
 40
0.4896377058
 40
0.5533597672
 40
0.6150685219
 40
0.6747817886
 40
0.7325731309
 40
0.7885858887
 40
0.843049084
 40
0.8962355907
 40
0.9484410999
 40
1.0
 40
1.0
 40
1.0
 40
1.0
 10
4.7998929574
 20
4.1188493181
 30
0.0
 10
4.7999162318
 20
4.1182212624
 30
0.0
 10
4.8000054658
 20
4.1169685226
 30
0.0
 10
4.8002644632
 20
4.1151099938
 30
0.0
 10
4.8006457681
 20
4.113290588
 30
0.0
 10
4.8011467177
 20
4.1115294839
 30
0.0
 10
4.8017648464
 20
4.1098446938
 30
0.0
 10
4.8024925807
 20
4.1082509536
 30
0.0
 10
4.8033229556
 20
4.1067615272
 30
0.0
 10
4.8042492496
 20
4.1053894415
 30
0.0
 10
4.8052646659
 20
4.1041475526
 30
0.0
 10
4.8063593019
 20
4.1030458341
 30
0.0
 10
4.8075238275
 20
4.1020939391
 30
0.0
 10
4.808749033
 20
4.1013016388
 30
0.0
 10
4.8100247829
 20
4.1006792319
 30
0.0
 10
4.8113367864
 20
4.100230168
 30
0.0
 10
4.8126708024
 20
4.0999577732
 30
0.0
 10
4.8135696426
 20
4.0998960373
 30
0.0
 10
4.8140157117
 20
4.0998960372
 30
0.0
 11
4.7998929574
 21
4.1188493181
 31
0.0
 11
4.8000267151
 21
4.1169686082
 31
0.0
 11
4.8002864156
 21
4.1151077639
 31
0.0
 11
4.8006691599
 21
4.113286484
 31
0.0
 11
4.8011720484
 21
4.1115244671
 31
0.0
 11
4.801791289
 21
4.1098400424
 31
0.0
 11
4.8025203437
 21
4.108247328
 31
0.0
 11
4.8033521487
 21
4.106759635
 31
0.0
 11
4.8042796395
 21
4.1053902736
 31
0.0
 11
4.8052951652
 21
4.104151735
 31
0.0
 11
4.8063893478
 21
4.1030540967
 31
0.0
 11
4.8075524925
 21
4.1021069935
 31
0.0
 11
4.8087749045
 21
4.1013200606
 31
0.0
 11
4.8100460994
 21
4.1007017604
 31
0.0
 11
4.8113526787
 21
4.1002562298
 31
0.0
 11
4.8126805728
 21
4.0999866088
 31
0.0
 11
4.8140157117
 21
4.0998960372
 31
0.0
  0
SPLINE
  5
32F
100
AcDbEntity
  8
0
100
AcDbSpline
 62
9
  6
CONTINUOUS
 70
0
 71
3
 72
23
 73
19
 74
17
 42
0.0000001
 43
0.0000001
 44
0.0000000001
 12
0.0009611752
 22
-0.0259371219
 32
0.0
 13
0.0259549253
 23
0.0000000039
 33
0.0
 40
0.0
 40
0.0
 40
0.0
 40
0.0
 40
0.0726436415
 40
0.1450337147
 40
0.216737347
 40
0.2873357244
 40
0.3564803477
 40
0.4239683072
 40
0.4896377026
 40
0.5533597634
 40
0.6150685173
 40
0.6747817835
 40
0.7325731263
 40
0.7885858858
 40
0.8430490835
 40
0.8962355916
 40
0.9484411007
 40
1.0
 40
1.0
 40
1.0
 40
1.0
 10
4.6896991848
 20
4.1188493181
 30
0.0
 10
4.6897224592
 20
4.1182212624
 30
0.0
 10
4.6898116932
 20
4.1169685226
 30
0.0
 10
4.6900706906
 20
4.1151099938
 30
0.0
 10
4.6904519955
 20
4.113290588
 30
0.0
 10
4.6909529451
 20
4.111529484
 30
0.0
 10
4.6915710737
 20
4.1098446938
 30
0.0
 10
4.692298808
 20
4.1082509536
 30
0.0
 10
4.693129183
 20
4.1067615272
 30
0.0
 10
4.694055477
 20
4.1053894415
 30
0.0
 10
4.6950708933
 20
4.1041475527
 30
0.0
 10
4.6961655293
 20
4.1030458342
 30
0.0
 10
4.6973300549
 20
4.1020939392
 30
0.0
 10
4.6985552604
 20
4.1013016388
 30
0.0
 10
4.6998310103
 20
4.1006792318
 30
0.0
 10
4.7011430137
 20
4.1002301677
 30
0.0
 10
4.7024770298
 20
4.0999577729
 30
0.0
 10
4.70337587
 20
4.0998960371
 30
0.0
 10
4.7038219391
 20
4.0998960372
 30
0.0
 11
4.6896991848
 21
4.1188493181
 31
0.0
 11
4.6898329425
 21
4.1169686082
 31
0.0
 11
4.690092643
 21
4.1151077639
 31
0.0
 11
4.6904753873
 21
4.1132864841
 31
0.0
 11
4.6909782758
 21
4.1115244672
 31
0.0
 11
4.6915975163
 21
4.1098400425
 31
0.0
 11
4.6923265711
 21
4.1082473281
 31
0.0
 11
4.6931583761
 21
4.106759635
 31
0.0
 11
4.6940858668
 21
4.1053902736
 31
0.0
 11
4.6951013926
 21
4.1041517351
 31
0.0
 11
4.6961955752
 21
4.1030540968
 31
0.0
 11
4.6973587198
 21
4.1021069936
 31
0.0
 11
4.6985811319
 21
4.1013200606
 31
0.0
 11
4.6998523268
 21
4.1007017603
 31
0.0
 11
4.7011589061
 21
4.1002562295
 31
0.0
 11
4.7024868002
 21
4.0999866085
 31
0.0
 11
4.7038219391
 21
4.0998960372
 31
0.0
  0
SPLINE
  5
330
100
AcDbEntity
  8
0
100
AcDbSpline
 62
9
  6
CONTINUOUS
 70
0
 71
3
 72
23
 73
19
 74
17
 42
0.0000001
 43
0.0000001
 44
0.0000000001
 12
-0.0009611752
 22
0.0259371218
 32
0.0
 13
-0.0259549253
 23
0.0000000039
 33
0.0
 40
0.0
 40
0.0
 40
0.0
 40
0.0
 40
0.0726436418
 40
0.1450337155
 40
0.2167373483
 40
0.2873357263
 40
0.3564803498
 40
0.4239683095
 40
0.4896377052
 40
0.5533597669
 40
0.6150685218
 40
0.6747817887
 40
0.7325731311
 40
0.788585889
 40
0.8430490843
 40
0.8962355908
 40
0.9484410999
 40
1.0
 40
1.0
 40
1.0
 40
1.0
 10
4.828138466
 20
4.5809427563
 30
0.0
 10
4.8281151916
 20
4.581570812
 30
0.0
 10
4.8280259576
 20
4.5828235517
 30
0.0
 10
4.8277669602
 20
4.5846820806
 30
0.0
 10
4.8273856553
 20
4.5865014864
 30
0.0
 10
4.8268847057
 20
4.5882625904
 30
0.0
 10
4.826266577
 20
4.5899473806
 30
0.0
 10
4.8255388427
 20
4.5915411208
 30
0.0
 10
4.8247084678
 20
4.5930305472
 30
0.0
 10
4.8237821737
 20
4.5944026329
 30
0.0
 10
4.8227667574
 20
4.5956445218
 30
0.0
 10
4.8216721214
 20
4.5967462403
 30
0.0
 10
4.8205075958
 20
4.5976981353
 30
0.0
 10
4.8192823904
 20
4.5984904355
 30
0.0
 10
4.8180066405
 20
4.5991128424
 30
0.0
 10
4.816694637
 20
4.5995619064
 30
0.0
 10
4.8153606209
 20
4.5998343012
 30
0.0
 10
4.8144617808
 20
4.5998960371
 30
0.0
 10
4.8140157117
 20
4.5998960372
 30
0.0
 11
4.828138466
 21
4.5809427563
 31
0.0
 11
4.8280047083
 21
4.5828234661
 31
0.0
 11
4.8277450078
 21
4.5846843105
 31
0.0
 11
4.8273622635
 21
4.5865055903
 31
0.0
 11
4.826859375
 21
4.5882676072
 31
0.0
 11
4.8262401344
 21
4.5899520319
 31
0.0
 11
4.8255110797
 21
4.5915447463
 31
0.0
 11
4.8246792747
 21
4.5930324394
 31
0.0
 11
4.8237517839
 21
4.5944018008
 31
0.0
 11
4.8227362582
 21
4.5956403393
 31
0.0
 11
4.8216420756
 21
4.5967379777
 31
0.0
 11
4.8204789309
 21
4.5976850809
 31
0.0
 11
4.8192565188
 21
4.5984720137
 31
0.0
 11
4.817985324
 21
4.599090314
 31
0.0
 11
4.8166787446
 21
4.5995358446
 31
0.0
 11
4.8153508506
 21
4.5998054656
 31
0.0
 11
4.8140157117
 21
4.5998960372
 31
0.0
  0
SPLINE
  5
331
100
AcDbEntity
  8
0
100
AcDbSpline
 62
6
  6
CONTINUOUS
 70
0
 71
3
 72
13
 73
9
 74
7
 42
0.0000001
 43
0.0000001
 44
0.0000000001
 12
0.0348037641
 22
0.0068706002
 32
0.0
 13
0.0315725802
 23
0.0161765052
 33
0.0
 40
0.0
 40
0.0
 40
0.0
 40
0.0
 40
0.1226730952
 40
0.24589631
 40
0.3697345674
 40
0.4942463939
 40
0.7454691231
 40
1.0
 40
1.0
 40
1.0
 40
1.0
 10
4.3253425408
 20
4.1071331823
 30
0.0
 10
4.3267657026
 20
4.1074141282
 30
0.0
 10
4.3296083646
 20
4.1080295827
 30
0.0
 10
4.3338460294
 20
4.109109313
 30
0.0
 10
4.3380633007
 20
4.1103460764
 30
0.0
 10
4.3436708801
 20
4.1122078484
 30
0.0
 10
4.3506172849
 20
4.1149256258
 30
0.0
 10
4.3560309925
 20
4.1174791591
 30
0.0
 10
4.3587097247
 20
4.1188516324
 30
0.0
 11
4.3253425408
 21
4.1071331823
 31
0.0
 11
4.3295959439
 21
4.1080537493
 31
0.0
 11
4.3338321214
 21
4.1091326021
 31
0.0
 11
4.3380479357
 21
4.1103684286
 31
0.0
 11
4.3422401915
 21
4.111759785
 31
0.0
 11
4.3505412466
 21
4.1150033122
 31
0.0
 11
4.3587097247
 21
4.1188516324
 31
0.0
  0
SPLINE
  5
332
100
AcDbEntity
  8
0
100
AcDbSpline
 62
9
  6
CONTINUOUS
 70
0
 71
3
 72
23
 73
19
 74
17
 42
0.0000001
 43
0.0000001
 44
0.0000000001
 12
0.0009611752
 22
0.0259371219
 32
0.0
 13
0.0259549253
 23
-0.0000000039
 33
0.0
 40
0.0
 40
0.0
 40
0.0
 40
0.0
 40
0.0726436415
 40
0.1450337147
 40
0.216737347
 40
0.2873357244
 40
0.3564803477
 40
0.4239683072
 40
0.4896377026
 40
0.5533597634
 40
0.6150685173
 40
0.6747817835
 40
0.7325731263
 40
0.7885858858
 40
0.8430490835
 40
0.8962355916
 40
0.9484411007
 40
1.0
 40
1.0
 40
1.0
 40
1.0
 10
4.7998929574
 20
4.5809427563
 30
0.0
 10
4.7999162318
 20
4.581570812
 30
0.0
 10
4.8000054658
 20
4.5828235517
 30
0.0
 10
4.8002644632
 20
4.5846820806
 30
0.0
 10
4.8006457681
 20
4.5865014864
 30
0.0
 10
4.8011467176
 20
4.5882625904
 30
0.0
 10
4.8017648463
 20
4.5899473806
 30
0.0
 10
4.8024925806
 20
4.5915411207
 30
0.0
 10
4.8033229555
 20
4.5930305472
 30
0.0
 10
4.8042492496
 20
4.5944026328
 30
0.0
 10
4.8052646659
 20
4.5956445217
 30
0.0
 10
4.8063593019
 20
4.5967462402
 30
0.0
 10
4.8075238275
 20
4.5976981352
 30
0.0
 10
4.808749033
 20
4.5984904355
 30
0.0
 10
4.8100247829
 20
4.5991128426
 30
0.0
 10
4.8113367863
 20
4.5995619067
 30
0.0
 10
4.8126708024
 20
4.5998343014
 30
0.0
 10
4.8135696426
 20
4.5998960372
 30
0.0
 10
4.8140157117
 20
4.5998960372
 30
0.0
 11
4.7998929574
 21
4.5809427563
 31
0.0
 11
4.8000267151
 21
4.5828234661
 31
0.0
 11
4.8002864156
 21
4.5846843105
 31
0.0
 11
4.8006691599
 21
4.5865055903
 31
0.0
 11
4.8011720484
 21
4.5882676072
 31
0.0
 11
4.8017912889
 21
4.5899520319
 31
0.0
 11
4.8025203437
 21
4.5915447463
 31
0.0
 11
4.8033521487
 21
4.5930324394
 31
0.0
 11
4.8042796394
 21
4.5944018007
 31
0.0
 11
4.8052951652
 21
4.5956403393
 31
0.0
 11
4.8063893478
 21
4.5967379776
 31
0.0
 11
4.8075524924
 21
4.5976850808
 31
0.0
 11
4.8087749045
 21
4.5984720137
 31
0.0
 11
4.8100460994
 21
4.5990903141
 31
0.0
 11
4.8113526787
 21
4.5995358448
 31
0.0
 11
4.8126805728
 21
4.5998054659
 31
0.0
 11
4.8140157117
 21
4.5998960372
 31
0.0
  0
SPLINE
  5
333
100
AcDbEntity
  8
0
100
AcDbSpline
 62
9
  6
CONTINUOUS
 70
0
 71
3
 72
23
 73
19
 74
17
 42
0.0000001
 43
0.0000001
 44
0.0000000001
 12
0.0009611752
 22
0.0259371218
 32
0.0
 13
0.0259549253
 23
0.000000004
 33
0.0
 40
0.0
 40
0.0
 40
0.0
 40
0.0
 40
0.0726436419
 40
0.1450337158
 40
0.216737349
 40
0.2873357271
 40
0.3564803508
 40
0.4239683103
 40
0.4896377058
 40
0.5533597672
 40
0.6150685219
 40
0.6747817886
 40
0.7325731309
 40
0.7885858887
 40
0.843049084
 40
0.8962355907
 40
0.9484410999
 40
1.0
 40
1.0
 40
1.0
 40
1.0
 10
4.6896991848
 20
4.5809427563
 30
0.0
 10
4.6897224592
 20
4.581570812
 30
0.0
 10
4.6898116932
 20
4.5828235518
 30
0.0
 10
4.6900706906
 20
4.5846820806
 30
0.0
 10
4.6904519955
 20
4.5865014864
 30
0.0
 10
4.6909529451
 20
4.5882625904
 30
0.0
 10
4.6915710738
 20
4.5899473806
 30
0.0
 10
4.6922988081
 20
4.5915411208
 30
0.0
 10
4.693129183
 20
4.5930305472
 30
0.0
 10
4.694055477
 20
4.5944026329
 30
0.0
 10
4.6950708934
 20
4.5956445218
 30
0.0
 10
4.6961655293
 20
4.5967462403
 30
0.0
 10
4.6973300549
 20
4.5976981353
 30
0.0
 10
4.6985552604
 20
4.5984904355
 30
0.0
 10
4.6998310103
 20
4.5991128424
 30
0.0
 10
4.7011430138
 20
4.5995619064
 30
0.0
 10
4.7024770298
 20
4.5998343012
 30
0.0
 10
4.70337587
 20
4.5998960371
 30
0.0
 10
4.7038219391
 20
4.5998960372
 30
0.0
 11
4.6896991848
 21
4.5809427563
 31
0.0
 11
4.6898329425
 21
4.5828234661
 31
0.0
 11
4.690092643
 21
4.5846843105
 31
0.0
 11
4.6904753873
 21
4.5865055903
 31
0.0
 11
4.6909782758
 21
4.5882676072
 31
0.0
 11
4.6915975164
 21
4.5899520319
 31
0.0
 11
4.6923265711
 21
4.5915447463
 31
0.0
 11
4.6931583761
 21
4.5930324394
 31
0.0
 11
4.6940858669
 21
4.5944018008
 31
0.0
 11
4.6951013926
 21
4.5956403393
 31
0.0
 11
4.6961955752
 21
4.5967379777
 31
0.0
 11
4.6973587199
 21
4.5976850808
 31
0.0
 11
4.6985811319
 21
4.5984720137
 31
0.0
 11
4.6998523268
 21
4.599090314
 31
0.0
 11
4.7011589061
 21
4.5995358446
 31
0.0
 11
4.7024868002
 21
4.5998054656
 31
0.0
 11
4.7038219391
 21
4.5998960372
 31
0.0
  0
SPLINE
  5
334
100
AcDbEntity
  8
0
100
AcDbSpline
 62
9
  6
CONTINUOUS
 70
0
 71
3
 72
18
 73
14
 74
12
 42
0.0000001
 43
0.0000001
 44
0.0000000001
 12
-0.0281877163
 22
0.0020777416
 32
0.0
 13
-0.0281877163
 23
-0.0020777416
 33
0.0
 40
0.0
 40
0.0
 40
0.0
 40
0.0
 40
0.0514666194
 40
0.1072308412
 40
0.1667253184
 40
0.2293963925
 40
0.3618936013
 40
0.4996921083
 40
0.637550987
 40
0.7701745116
 40
0.8925982422
 40
0.9484839969
 40
1.0
 40
1.0
 40
1.0
 40
1.0
 10
4.828138466
 20
4.5809427563
 30
0.0
 10
4.8276548905
 20
4.5809784011
 30
0.0
 10
4.8266468033
 20
4.5810452129
 30
0.0
 10
4.8250783043
 20
4.581130465
 30
0.0
 10
4.8234035445
 20
4.5812040377
 30
0.0
 10
4.8210056801
 20
4.5812871947
 30
0.0
 10
4.8178692775
 20
4.5813559751
 30
0.0
 10
4.8140238651
 20
4.5813835784
 30
0.0
 10
4.8101772472
 20
4.581356282
 30
0.0
 10
4.806476273
 20
4.5812753531
 30
0.0
 10
4.8035488187
 20
4.5811627929
 30
0.0
 10
4.8013866952
 20
4.5810452959
 30
0.0
 10
4.8003769969
 20
4.5809784353
 30
0.0
 10
4.7998929574
 20
4.5809427563
 30
0.0
 11
4.828138466
 21
4.5809427563
 31
0.0
 11
4.8266870427
 21
4.5810397752
 31
0.0
 11
4.825113268
 21
4.5811259179
 31
0.0
 11
4.8234333466
 21
4.5812002048
 31
0.0
 11
4.8216630771
 21
4.5812619795
 31
0.0
 11
4.8179190904
 21
4.581345856
 31
0.0
 11
4.8140244313
 21
4.5813743103
 31
0.0
 11
4.8101280637
 21
4.5813461571
 31
0.0
 11
4.8063805012
 21
4.5812624916
 31
0.0
 11
4.8029229805
 21
4.5811261617
 31
0.0
 11
4.8013457762
 21
4.5810398258
 31
0.0
 11
4.7998929574
 21
4.5809427563
 31
0.0
  0
SPLINE
  5
335
100
AcDbEntity
  8
0
100
AcDbSpline
 62
9
  6
CONTINUOUS
 70
0
 71
3
 72
19
 73
15
 74
13
 42
0.0000001
 43
0.0000001
 44
0.0000000001
 12
-0.0281877353
 22
-0.002077743
 32
0.0
 13
-0.0281877353
 23
0.002077743
 33
0.0
 40
0.0
 40
0.0
 40
0.0
 40
0.0
 40
0.0513593698
 40
0.1071721561
 40
0.1668043481
 40
0.2296207373
 40
0.3622609401
 40
0.499999924
 40
0.6377389258
 40
0.770379175
 40
0.8331955939
 40
0.8928278143
 40
0.9486406219
 40
1.0
 40
1.0
 40
1.0
 40
1.0
 10
4.828138466
 20
4.225297679
 30
0.0
 10
4.8276558979
 20
4.2252621084
 30
0.0
 10
4.8266483501
 20
4.2251954992
 30
0.0
 10
4.8250790992
 20
4.2251103625
 30
0.0
 10
4.8234012243
 20
4.225036506
 30
0.0
 10
4.8209993553
 20
4.2249529386
 30
0.0
 10
4.8178607877
 20
4.2248844305
 30
0.0
 10
4.8140157137
 20
4.2248568175
 30
0.0
 10
4.8101706392
 20
4.2248844305
 30
0.0
 10
4.8070320707
 20
4.2249529385
 30
0.0
 10
4.8046302007
 20
4.2250365059
 30
0.0
 10
4.8029523251
 20
4.2251103625
 30
0.0
 10
4.8013830737
 20
4.2251954992
 30
0.0
 10
4.8003755256
 20
4.2252621084
 30
0.0
 10
4.7998929574
 20
4.2252976789
 30
0.0
 11
4.828138466
 21
4.225297679
 31
0.0
 11
4.826690057
 21
4.2252010019
 31
0.0
 11
4.8251149041
 21
4.2251149045
 31
0.0
 11
4.8234310974
 21
4.2250403435
 31
0.0
 11
4.8216567272
 21
4.2249782757
 31
0.0
 11
4.8179086941
 21
4.2248944552
 31
0.0
 11
4.8140157138
 21
4.2248661368
 31
0.0
 11
4.8101227331
 21
4.2248944551
 31
0.0
 11
4.8063746987
 21
4.2249782757
 31
0.0
 11
4.8046003276
 21
4.2250403435
 31
0.0
 11
4.8029165201
 21
4.2251149045
 31
0.0
 11
4.8013413666
 21
4.2252010019
 31
0.0
 11
4.7998929574
 21
4.2252976789
 31
0.0
  0
SPLINE
  5
336
100
AcDbEntity
  8
0
100
AcDbSpline
 62
9
  6
CONTINUOUS
 70
0
 71
3
 72
18
 73
14
 74
12
 42
0.0000001
 43
0.0000001
 44
0.0000000001
 12
0.0281877096
 22
-0.0020777411
 32
0.0
 13
0.0281877096
 23
0.0020777411
 33
0.0
 40
0.0
 40
0.0
 40
0.0
 40
0.0
 40
0.0514649864
 40
0.1072263963
 40
0.1667180703
 40
0.2293871139
 40
0.3618799546
 40
0.4996752605
 40
0.6375333323
 40
0.7701594984
 40
0.8925931998
 40
0.9484828701
 40
1.0
 40
1.0
 40
1.0
 40
1.0
 10
4.7998929574
 20
4.1188493181
 30
0.0
 10
4.8003765174
 20
4.1188136744
 30
0.0
 10
4.8013845655
 20
4.1187469069
 30
0.0
 10
4.802952999
 20
4.1186617173
 30
0.0
 10
4.8046276856
 20
4.1185881329
 30
0.0
 10
4.8070254611
 20
4.118504934
 30
0.0
 10
4.8101617716
 20
4.1184360988
 30
0.0
 10
4.814007104
 20
4.118408478
 30
0.0
 10
4.8178537087
 20
4.1184357576
 30
0.0
 10
4.8215547907
 20
4.1185168311
 30
0.0
 10
4.8244823974
 20
4.1186294245
 30
0.0
 10
4.8266446679
 20
4.1187468114
 30
0.0
 10
4.827654416
 20
4.1188136383
 30
0.0
 10
4.828138466
 20
4.1188493181
 30
0.0
 11
4.7998929574
 21
4.1188493181
 31
0.0
 11
4.8013443369
 21
4.1187523413
 31
0.0
 11
4.8029180345
 21
4.1186662512
 31
0.0
 11
4.8045978762
 21
4.1185919636
 31
0.0
 11
4.8063680869
 21
4.1185301608
 31
0.0
 11
4.8101119479
 21
4.1184462268
 31
0.0
 11
4.8140065154
 21
4.1184177461
 31
0.0
 11
4.8179028592
 21
4.1184459103
 31
0.0
 11
4.8216504933
 21
4.1185296758
 31
0.0
 11
4.8251082949
 21
4.1186660143
 31
0.0
 11
4.8266856131
 21
4.1187522859
 31
0.0
 11
4.828138466
 21
4.1188493181
 31
0.0
  0
SPLINE
  5
337
100
AcDbEntity
  8
0
100
AcDbSpline
 62
9
  6
CONTINUOUS
 70
0
 71
3
 72
71
 73
67
 74
65
 42
0.0000001
 43
0.0000001
 44
0.0000000001
 12
0.6494737846
 22
0.0708565454
 32
0.0
 13
-0.3225192053
 23
0.5681709329
 33
0.0
 40
0.0
 40
0.0
 40
0.0
 40
0.0
 40
0.0615830507
 40
0.1231798448
 40
0.1539840101
 40
0.1847923283
 40
0.2464227532
 40
0.3080741766
 40
0.3697504253
 40
0.4314565089
 40
0.4931991549
 40
0.5240870221
 40
0.5549878249
 40
0.5859034048
 40
0.6168360351
 40
0.6477885724
 40
0.6787646792
 40
0.7097691635
 40
0.7408085232
 40
0.7563440499
 40
0.7718920018
 40
0.7874541939
 40
0.8030328825
 40
0.8186309226
 40
0.8342520035
 40
0.849901014
 40
0.8655846339
 40
0.8734423117
 40
0.8813125159
 40
0.8891971734
 40
0.8970987063
 40
0.9050202081
 40
0.9129657266
 40
0.9209407065
 40
0.9289527123
 40
0.9370126934
 40
0.94513734
 40
0.9492320869
 40
0.953354611
 40
0.9575118279
 40
0.96171351
 40
0.9638354177
 40
0.9659743284
 40
0.9681333827
 40
0.9703165638
 40
0.9725289134
 40
0.9747772874
 40
0.9759176617
 40
0.9770703108
 40
0.9782367954
 40
0.9794190714
 40
0.9806191591
 40
0.9818392395
 40
0.983082714
 40
0.9843544168
 40
0.9856564668
 40
0.9869811296
 40
0.9883209732
 40
0.9896714437
 40
0.9910294479
 40
0.9923863007
 40
0.9937302344
 40
0.9950483157
 40
0.9963317077
 40
0.9975835367
 40
1.0
 40
1.0
 40
1.0
 40
1.0
 10
4.828138466
 20
4.2252992313
 30
0.0
 10
4.8414706583
 20
4.226753752
 30
0.0
 10
4.8681350866
 20
4.2296900942
 30
0.0
 10
4.9014585526
 20
4.2334421987
 30
0.0
 10
4.9281158881
 20
4.2364988857
 30
0.0
 10
4.9547761173
 20
4.2395943822
 30
0.0
 10
4.9881003717
 20
4.2435413251
 30
0.0
 10
5.0280833957
 20
4.2484194126
 30
0.0
 10
5.0680626315
 20
4.2534621718
 30
0.0
 10
5.1080370601
 20
4.258698415
 30
0.0
 10
5.141338014
 20
4.2632533999
 30
0.0
 10
5.1679727104
 20
4.2670376798
 30
0.0
 10
5.1879496405
 20
4.2699548761
 30
0.0
 10
5.2079234042
 20
4.2729600016
 30
0.0
 10
5.2278933812
 20
4.2760645379
 30
0.0
 10
5.247858774
 20
4.2792824995
 30
0.0
 10
5.2678185463
 20
4.2826313317
 30
0.0
 10
5.2877712805
 20
4.2861332064
 30
0.0
 10
5.3043854849
 20
4.2892018528
 30
0.0
 10
5.3176690519
 20
4.2917667104
 30
0.0
 10
5.3276314334
 20
4.2937525173
 30
0.0
 10
5.3375894619
 20
4.2958071511
 30
0.0
 10
5.3475423132
 20
4.2979395345
 30
0.0
 10
5.3574889238
 20
4.3001606051
 30
0.0
 10
5.3674279096
 20
4.3024840284
 30
0.0
 10
5.3773573707
 20
4.3049272786
 30
0.0
 10
5.3856163204
 20
4.3070806991
 30
0.0
 10
5.3922135495
 20
4.3088896704
 30
0.0
 10
5.3971598932
 20
4.3102957992
 30
0.0
 10
5.4021004295
 20
4.3117563255
 30
0.0
 10
5.4070340267
 20
4.3132785656
 30
0.0
 10
5.411959234
 20
4.3148714936
 30
0.0
 10
5.4168741274
 20
4.3165464405
 30
0.0
 10
5.4217760661
 20
4.318318068
 30
0.0
 10
5.4266613841
 20
4.320205847
 30
0.0
 10
5.4315245455
 20
4.3222366552
 30
0.0
 10
5.4355413494
 20
4.324075289
 30
0.0
 10
5.4387267656
 20
4.3256630236
 30
0.0
 10
5.4411070356
 20
4.3269273794
 30
0.0
 10
5.443467495
 20
4.3282761456
 30
0.0
 10
5.4454065051
 20
4.3294816621
 30
0.0
 10
5.4469371785
 20
4.3305083156
 30
0.0
 10
5.4480780782
 20
4.3313167272
 30
0.0
 10
5.4492047588
 20
4.3321672602
 30
0.0
 10
5.4503147014
 20
4.3330653116
 30
0.0
 10
5.4514026739
 20
4.3340197857
 30
0.0
 10
5.452281589
 20
4.3348664108
 30
0.0
 10
5.4529656206
 20
4.3355808857
 30
0.0
 10
5.4534696698
 20
4.3361410169
 30
0.0
 10
5.4539603136
 20
4.3367249251
 30
0.0
 10
5.4544356486
 20
4.3373345511
 30
0.0
 10
5.454892891
 20
4.3379723614
 30
0.0
 10
5.4553263778
 20
4.3386425965
 30
0.0
 10
5.4557306429
 20
4.3393489919
 30
0.0
 10
5.4560996398
 20
4.3400945126
 30
0.0
 10
5.4564263705
 20
4.3408788043
 30
0.0
 10
5.4567015021
 20
4.3416984808
 30
0.0
 10
5.4569141853
 20
4.342547603
 30
0.0
 10
5.4570529528
 20
4.343419552
 30
0.0
 10
5.4571074087
 20
4.3443045118
 30
0.0
 10
5.4570833826
 20
4.3451891741
 30
0.0
 10
5.4569854877
 20
4.3460599275
 30
0.0
 10
5.4568182096
 20
4.3469037582
 30
0.0
 10
5.4565850124
 20
4.3477108957
 30
0.0
 10
5.4562056569
 20
4.3487211858
 30
0.0
 10
5.4558478265
 20
4.3494383824
 30
0.0
 10
5.4555880412
 20
4.3498960372
 30
0.0
 11
4.828138466
 21
4.2252992313
 31
0.0
 11
4.8681302998
 21
4.2297060534
 31
0.0
 11
4.9081202719
 21
4.2342106697
 31
0.0
 11
4.9281144419
 21
4.2365035283
 31
0.0
 11
4.948108003
 21
4.2388253302
 31
0.0
 11
4.9880930199
 21
4.2435641878
 31
0.0
 11
5.028074674
 21
4.2484458535
 31
0.0
 11
5.0680521021
 21
4.2534931674
 31
0.0
 11
5.1080241141
 21
4.2587352697
 31
0.0
 11
5.1479890183
 21
4.264210155
 31
0.0
 11
5.16796807
 21
4.2670501549
 31
0.0
 11
5.1879443224
 21
4.2699688205
 31
0.0
 11
5.2079172465
 21
4.2729757243
 31
0.0
 11
5.2278861655
 21
4.27608242
 31
0.0
 11
5.2478501991
 21
4.2793030539
 31
0.0
 11
5.2678081768
 21
4.2826552587
 31
0.0
 11
5.2877585008
 21
4.2861614619
 31
0.0
 11
5.3076989192
 21
4.2898509325
 31
0.0
 11
5.3176644403
 21
4.2917761772
 31
0.0
 11
5.3276261333
 21
4.2937630601
 31
0.0
 11
5.3375833044
 21
4.2958189953
 31
0.0
 11
5.3475350683
 21
4.2979529572
 31
0.0
 11
5.3574802734
 21
4.3001759759
 31
0.0
 11
5.3674173876
 21
4.3025018536
 31
0.0
 11
5.3773443164
 21
4.3049482413
 31
0.0
 11
5.3872580991
 21
4.3075383193
 31
0.0
 11
5.3922087737
 21
4.3088966459
 31
0.0
 11
5.3971543736
 21
4.3103035449
 31
0.0
 11
5.4020939729
 21
4.3117650089
 31
0.0
 11
5.4070263758
 21
4.3132883695
 31
0.0
 11
5.411950022
 21
4.3148826723
 31
0.0
 11
5.4168628163
 21
4.3165593365
 31
0.0
 11
5.421761854
 21
4.3183331411
 31
0.0
 11
5.4266429612
 21
4.3202237506
 31
0.0
 11
5.4314998615
 21
4.3222582648
 31
0.0
 11
5.4363225469
 21
4.3244757307
 31
0.0
 11
5.4387161072
 21
4.3256705623
 31
0.0
 11
5.4410937216
 21
4.3269359195
 31
0.0
 11
5.443450584
 21
4.3282857296
 31
0.0
 11
5.4457797492
 21
4.3297384594
 31
0.0
 11
5.4469307602
 21
4.3305111193
 31
0.0
 11
5.4480703747
 21
4.3313198413
 31
0.0
 11
5.4491957323
 21
4.3321702982
 31
0.0
 11
5.4503037077
 21
4.3330685266
 31
0.0
 11
5.4513892733
 21
4.3340228307
 31
0.0
 11
5.452446061
 21
4.3350430951
 31
0.0
 11
5.4529609805
 21
4.3355815553
 31
0.0
 11
5.4534644617
 21
4.336141557
 31
0.0
 11
5.4539545166
 21
4.3367251985
 31
0.0
 11
5.454429147
 21
4.3373345822
 31
0.0
 11
5.4548852331
 21
4.3379723285
 31
0.0
 11
5.4553175119
 21
4.3386420469
 31
0.0
 11
5.4557204792
 21
4.339347458
 31
0.0
 11
5.4560886287
 21
4.3400922791
 31
0.0
 11
5.4564151501
 21
4.340877782
 31
0.0
 11
5.4566896551
 21
4.3416985324
 31
0.0
 11
5.4569011479
 21
4.3425479558
 31
0.0
 11
5.4570386331
 21
4.3434194776
 31
0.0
 11
5.4570943038
 21
4.3443049508
 31
0.0
 11
5.4570707366
 21
4.3451911067
 31
0.0
 11
5.4569726184
 21
4.3460636361
 31
0.0
 11
5.4568046373
 21
4.3469082321
 31
0.0
 11
5.4565726471
 21
4.3477139748
 31
0.0
 11
5.4562859376
 21
4.3484799274
 31
0.0
 11
5.4555880412
 21
4.3498960372
 31
0.0
  0
SPLINE
  5
338
100
AcDbEntity
  8
0
100
AcDbSpline
 62
6
  6
CONTINUOUS
 70
0
 71
3
 72
8
 73
4
 74
2
 42
0.0000001
 43
0.0000001
 44
0.0000000001
 12
-0.0000017805
 22
-0.0000702313
 32
0.0
 13
-0.0000017805
 23
-0.0000702313
 33
0.0
 40
0.0
 40
0.0
 40
0.0
 40
0.0
 40
1.0
 40
1.0
 40
1.0
 40
1.0
 10
4.1357677387
 20
4.3499662685
 30
0.0
 10
4.1357671452
 20
4.349942858
 30
0.0
 10
4.1357665517
 20
4.3499194476
 30
0.0
 10
4.1357659582
 20
4.3498960372
 30
0.0
 11
4.1357677387
 21
4.3499662685
 31
0.0
 11
4.1357659582
 21
4.3498960372
 31
0.0
  0
SPLINE
  5
339
100
AcDbEntity
  8
0
100
AcDbSpline
 62
9
  6
CONTINUOUS
 70
0
 71
3
 72
39
 73
35
 74
33
 42
0.0000001
 43
0.0000001
 44
0.0000000001
 12
0.315298224
 22
0.0000945957
 32
0.0
 13
0.0106670997
 23
0.3151177431
 33
0.0
 40
0.0
 40
0.0
 40
0.0
 40
0.0
 40
0.0254138188
 40
0.0509831078
 40
0.0767542158
 40
0.1027711261
 40
0.1158867418
 40
0.1290795895
 40
0.1557167241
 40
0.1827299812
 40
0.2101581335
 40
0.2380351165
 40
0.2663897037
 40
0.2952408687
 40
0.3246005392
 40
0.3544761807
 40
0.384871582
 40
0.4157856866
 40
0.4472107052
 40
0.4791347838
 40
0.5115430323
 40
0.5777215334
 40
0.6114535408
 40
0.6455691706
 40
0.6800360149
 40
0.7148209323
 40
0.7498904433
 40
0.7852098192
 40
0.8207433989
 40
0.8564543721
 40
0.8922943607
 40
0.9282049018
 40
0.9641266042
 40
1.0
 40
1.0
 40
1.0
 40
1.0
 10
8.8710749994
 20
4.1188493181
 30
0.0
 10
8.8737459767
 20
4.1188501194
 30
0.0
 10
8.8791060199
 20
4.119039504
 30
0.0
 10
8.8871349976
 20
4.1198799215
 30
0.0
 10
8.895150899
 20
4.1212746406
 30
0.0
 10
8.9017831759
 20
4.1228925124
 30
0.0
 10
8.9070558955
 20
4.1244579829
 30
0.0
 10
8.9123364254
 20
4.1262158012
 30
0.0
 10
8.9188912425
 20
4.1287575092
 30
0.0
 10
8.9266327157
 20
4.1323312565
 30
0.0
 10
8.934258131
 20
4.1364291828
 30
0.0
 10
8.9417495494
 20
4.1410416121
 30
0.0
 10
8.9490884991
 20
4.1461587745
 30
0.0
 10
8.9562583066
 20
4.1517665326
 30
0.0
 10
8.9632421143
 20
4.1578502038
 30
0.0
 10
8.9700228784
 20
4.1643950453
 30
0.0
 10
8.9765830883
 20
4.1713864683
 30
0.0
 10
8.9829061682
 20
4.1788080697
 30
0.0
 10
8.9889785476
 20
4.1866401448
 30
0.0
 10
8.9947860625
 20
4.1948636569
 30
0.0
 10
9.0022080204
 20
4.2064027918
 30
0.0
 10
9.0089797128
 20
4.2185707641
 30
0.0
 10
9.0150899745
 20
4.2312653149
 30
0.0
 10
9.0193752342
 20
4.2411308956
 30
0.0
 10
9.0233218399
 20
4.2512552418
 30
0.0
 10
9.0269193628
 20
4.2616150145
 30
0.0
 10
9.0301608037
 20
4.272185313
 30
0.0
 10
9.033038885
 20
4.2829417018
 30
0.0
 10
9.0355465708
 20
4.29385958
 30
0.0
 10
9.037675876
 20
4.3049132243
 30
0.0
 10
9.0394222403
 20
4.31607384
 30
0.0
 10
9.0407831298
 20
4.3273103044
 30
0.0
 10
9.0417552091
 20
4.3385904384
 30
0.0
 10
9.0421424252
 20
4.3461279227
 30
0.0
 10
9.0422699802
 20
4.3498960372
 30
0.0
 11
8.8710749994
 21
4.1188493181
 31
0.0
 11
8.879082994
 21
4.1191305782
 31
0.0
 11
8.8871013482
 21
4.1199678725
 31
0.0
 11
8.8951070223
 21
4.121358668
 31
0.0
 11
8.9030769768
 21
4.1233004316
 31
0.0
 11
8.9070413592
 21
4.1244771349
 31
0.0
 11
8.9109882507
 21
4.1257905268
 31
0.0
 11
8.9188202198
 21
4.1288232552
 31
0.0
 11
8.9265549278
 21
4.1323894212
 31
0.0
 11
8.9341745641
 21
4.1364796387
 31
0.0
 11
8.9416613181
 21
4.1410845212
 31
0.0
 11
8.9489974414
 21
4.146194081
 31
0.0
 11
8.9561655438
 21
4.1517948532
 31
0.0
 11
8.9631483637
 21
4.1578721261
 31
0.0
 11
8.9699286397
 21
4.164411186
 31
0.0
 11
8.9764891245
 21
4.1713972968
 31
0.0
 11
8.9828136076
 21
4.178814041
 31
0.0
 11
8.9888876109
 21
4.1866421929
 31
0.0
 11
8.9946968204
 21
4.19486226
 31
0.0
 11
9.0002269226
 21
4.2034547499
 31
0.0
 11
9.0103953219
 21
4.2216754015
 31
0.0
 11
9.0150103188
 21
4.2312576087
 31
0.0
 11
9.0192976853
 21
4.241122845
 31
0.0
 11
9.023246305
 21
4.2512474378
 31
0.0
 11
9.0268460617
 21
4.2616074817
 31
0.0
 11
9.0300893585
 21
4.2721784857
 31
0.0
 11
9.032968989
 21
4.2829358681
 31
0.0
 11
9.0354777466
 21
4.2938550471
 31
0.0
 11
9.0376085538
 21
4.3049111951
 31
0.0
 11
9.0393564325
 21
4.3160754849
 31
0.0
 11
9.0407181111
 21
4.3273158374
 31
0.0
 11
9.0416903677
 21
4.3386000793
 31
0.0
 11
9.0422699802
 21
4.3498960372
 31
0.0
  0
SPLINE
  5
33A
100
AcDbEntity
  8
0
100
AcDbSpline
 62
6
  6
CONTINUOUS
 70
0
 71
3
 72
16
 73
12
 74
10
 42
0.0000001
 43
0.0000001
 44
0.0000000001
 12
0.0
 22
0.0559909773
 32
0.0
 13
-0.0233300416
 23
0.0508989067
 33
0.0
 40
0.0
 40
0.0
 40
0.0
 40
0.0
 40
0.1279941202
 40
0.2559556133
 40
0.3834351708
 40
0.5099881908
 40
0.5727877698
 40
0.6352036218
 40
0.758753475
 40
0.8804229494
 40
1.0
 40
1.0
 40
1.0
 40
1.0
 10
6.6636351632
 20
4.3498960372
 30
0.0
 10
6.6636351632
 20
4.3522848758
 30
0.0
 10
6.6635122338
 20
4.3570628174
 30
0.0
 10
6.6629649359
 20
4.3642011109
 30
0.0
 10
6.6620586545
 20
4.3712757763
 30
0.0
 10
6.6610049669
 20
4.3770973782
 30
0.0
 10
6.6599837993
 20
4.3816845136
 30
0.0
 10
6.6588526021
 20
4.3861879603
 30
0.0
 10
6.657227732
 20
4.3916981549
 30
0.0
 10
6.6549410406
 20
4.3981146306
 30
0.0
 10
6.6531878218
 20
4.4022651436
 30
0.0
 10
6.6522579093
 20
4.404293924
 30
0.0
 11
6.6636351632
 21
4.3498960372
 31
0.0
 11
6.6634516001
 21
4.3570602018
 31
0.0
 11
6.6629036627
 21
4.3642039077
 31
0.0
 11
6.6619954782
 21
4.3712835993
 31
0.0
 11
6.6607311741
 21
4.3782557212
 31
0.0
 11
6.6599667699
 21
4.3816878368
 31
0.0
 11
6.6591152054
 21
4.3850772228
 31
0.0
 11
6.6571563859
 21
4.391711775
 31
0.0
 11
6.6548666278
 21
4.3981278254
 31
0.0
 11
6.6522579093
 21
4.404293924
 31
0.0
  0
SPLINE
  5
33B
100
AcDbEntity
  8
0
100
AcDbSpline
 62
9
  6
CONTINUOUS
 70
0
 71
3
 72
64
 73
60
 74
58
 42
0.0000001
 43
0.0000001
 44
0.0000000001
 12
0.319761017
 22
0.5697240372
 32
0.0
 13
-0.6494705378
 23
0.070856242
 33
0.0
 40
0.0
 40
0.0
 40
0.0
 40
0.0
 40
0.0024119034
 40
0.0049315698
 40
0.006234567
 40
0.0075619469
 40
0.0089067109
 40
0.0102587504
 40
0.0116068015
 40
0.0129414057
 40
0.0155444516
 40
0.0180521465
 40
0.0204732257
 40
0.0228234753
 40
0.0251174519
 40
0.0273667189
 40
0.0295800873
 40
0.0317642164
 40
0.0339241897
 40
0.0381861935
 40
0.0423891126
 40
0.0465474115
 40
0.0506708994
 40
0.054766503
 40
0.0588392815
 40
0.0628930368
 40
0.0709543276
 40
0.0789675153
 40
0.0869435892
 40
0.0948901373
 40
0.1028126187
 40
0.1107150925
 40
0.1186006615
 40
0.1264717518
 40
0.1343302962
 40
0.1500156105
 40
0.1656662754
 40
0.1812889831
 40
0.1968886294
 40
0.2124689081
 40
0.2280326774
 40
0.2435821958
 40
0.2591192801
 40
0.2901617304
 40
0.3211692728
 40
0.3521484176
 40
0.3831039802
 40
0.4140396277
 40
0.4449582201
 40
0.4758620325
 40
0.5067529069
 40
0.568501561
 40
0.6302136457
 40
0.6918958868
 40
0.7535532965
 40
0.8151897056
 40
0.8768081416
 40
0.9384109359
 40
1.0
 40
1.0
 40
1.0
 40
1.0
 10
5.4555880412
 20
4.3498960372
 30
0.0
 10
5.4558451188
 20
4.350354077
 30
0.0
 10
5.4563207226
 20
4.3513200369
 30
0.0
 10
5.4567557375
 20
4.3526117996
 30
0.0
 10
5.4569852924
 20
4.353710799
 30
0.0
 10
5.4570889523
 20
4.3545714235
 30
0.0
 10
5.4571148309
 20
4.355448636
 30
0.0
 10
5.4570596121
 20
4.3563290085
 30
0.0
 10
5.4569254729
 20
4.3571985579
 30
0.0
 10
5.4566525133
 20
4.3583180462
 30
0.0
 10
5.4561581031
 20
4.3596377075
 30
0.0
 10
5.4553845405
 20
4.3610880928
 30
0.0
 10
5.4544951329
 20
4.362403064
 30
0.0
 10
5.4535285989
 20
4.3636020706
 30
0.0
 10
5.4525087333
 20
4.3647049638
 30
0.0
 10
5.4514505219
 20
4.3657282545
 30
0.0
 10
5.450363702
 20
4.3666849951
 30
0.0
 10
5.4492548858
 20
4.3675854339
 30
0.0
 10
5.4477601924
 20
4.3687166147
 30
0.0
 10
5.4458540821
 20
4.3700304392
 30
0.0
 10
5.4435202613
 20
4.3714845194
 30
0.0
 10
5.4411601009
 20
4.3728353272
 30
0.0
 10
5.4387801639
 20
4.3741015928
 30
0.0
 10
5.4363848327
 20
4.37529714
 30
0.0
 10
5.4339772381
 20
4.3764324899
 30
0.0
 10
5.4307599864
 20
4.3778741076
 30
0.0
 10
5.4267148978
 20
4.3795647428
 30
0.0
 10
5.42182943
 20
4.3814540911
 30
0.0
 10
5.4169272092
 20
4.3832270239
 30
0.0
 10
5.4120120085
 20
4.3849030751
 30
0.0
 10
5.4070864559
 20
4.386496944
 30
0.0
 10
5.4021524954
 20
4.3880200114
 30
0.0
 10
5.3972115867
 20
4.3894812923
 30
0.0
 10
5.3922648532
 20
4.3908880786
 30
0.0
 10
5.3856670945
 20
4.3926978289
 30
0.0
 10
5.3774074667
 20
4.394852121
 30
0.0
 10
5.367477156
 20
4.3972962425
 30
0.0
 10
5.3575373065
 20
4.3996204244
 30
0.0
 10
5.34758982
 20
4.4018421595
 30
0.0
 10
5.3376360832
 20
4.4039751306
 30
0.0
 10
5.3276771622
 20
4.4060302902
 30
0.0
 10
5.3177138829
 20
4.4080165714
 30
0.0
 10
5.3044291175
 20
4.4105820056
 30
0.0
 10
5.2878134114
 20
4.4136512991
 30
0.0
 10
5.2678588634
 20
4.4171538289
 30
0.0
 10
5.2478972762
 20
4.4205032389
 30
0.0
 10
5.2279300664
 20
4.4237217212
 30
0.0
 10
5.2079582692
 20
4.4268267302
 30
0.0
 10
5.1879826832
 20
4.4298322971
 30
0.0
 10
5.1680039266
 20
4.432749897
 30
0.0
 10
5.1413667912
 20
4.4365346726
 30
0.0
 10
5.1080627821
 20
4.4410902153
 30
0.0
 10
5.0680846843
 20
4.4463270829
 30
0.0
 10
5.0281017729
 20
4.4513703813
 30
0.0
 10
4.9881150729
 20
4.4562489916
 30
0.0
 10
4.9481252938
 20
4.4609853899
 30
0.0
 10
4.9081330523
 20
4.4655981335
 30
0.0
 10
4.8681387542
 20
4.4701016751
 30
0.0
 10
4.8414718935
 20
4.4730386201
 30
0.0
 10
4.828138466
 20
4.4744932767
 30
0.0
 11
5.4555880412
 21
4.3498960372
 31
0.0
 11
5.4562788747
 21
4.3513122833
 31
0.0
 11
5.4567987756
 21
4.3528741869
 31
0.0
 11
5.4569722669
 21
4.3537076003
 31
0.0
 11
5.4570755448
 21
4.354568638
 31
0.0
 11
5.4571013175
 21
4.3554468268
 31
0.0
 11
5.4570462916
 21
4.3563284315
 31
0.0
 11
5.4569125652
 21
4.3571989344
 31
0.0
 11
5.4567066782
 21
4.3580462072
 31
0.0
 11
5.4561163208
 21
4.3596410837
 31
0.0
 11
5.4553507881
 21
4.3610895693
 31
0.0
 11
5.4544685271
 21
4.3624024089
 31
0.0
 11
5.453507644
 21
4.363600068
 31
0.0
 11
5.4524920735
 21
4.364702225
 31
0.0
 11
5.4514370856
 21
4.3657251781
 31
0.0
 11
5.4503527036
 21
4.3666818224
 31
0.0
 11
5.449245765
 21
4.3675822987
 31
0.0
 11
5.4481211124
 21
4.3684346702
 31
0.0
 11
5.445831717
 21
4.3700195818
 31
0.0
 11
5.443503221
 21
4.3714748834
 31
0.0
 11
5.4411467619
 21
4.3728267912
 31
0.0
 11
5.4387694438
 21
4.374094016
 31
0.0
 11
5.4363760411
 21
4.3752903854
 31
0.0
 11
5.4339699008
 21
4.3764264246
 31
0.0
 11
5.4315534524
 21
4.377510347
 31
0.0
 11
5.4266964686
 21
4.3795468076
 31
0.0
 11
5.4218151696
 21
4.3814389871
 31
0.0
 11
5.4169158744
 21
4.3832141034
 31
0.0
 11
5.4120027751
 21
4.3848918756
 31
0.0
 11
5.4070787902
 21
4.3864871259
 31
0.0
 11
5.4021460281
 21
4.3880113194
 31
0.0
 11
5.3972060565
 21
4.3894735332
 31
0.0
 11
5.3922600695
 21
4.3908810933
 31
0.0
 11
5.3873089963
 21
4.39224001
 31
0.0
 11
5.3773943953
 21
4.3948311328
 31
0.0
 11
5.3674666229
 21
4.3972784012
 31
0.0
 11
5.3575286476
 21
4.3996050398
 31
0.0
 11
5.3475825684
 21
4.4018287253
 31
0.0
 11
5.3376299205
 21
4.4039632772
 31
0.0
 11
5.3276718579
 21
4.4060197396
 31
0.0
 11
5.3177092679
 21
4.4080070984
 31
0.0
 11
5.307742846
 21
4.4099327779
 31
0.0
 11
5.2878006207
 21
4.4136230252
 31
0.0
 11
5.2678484871
 21
4.4171298903
 31
0.0
 11
5.2478886968
 21
4.4204826757
 31
0.0
 11
5.2279228475
 21
4.4237038316
 31
0.0
 11
5.2079521096
 21
4.4268110026
 31
0.0
 11
5.1879773634
 21
4.4298183466
 31
0.0
 11
5.1679992849
 21
4.4327374168
 31
0.0
 11
5.1480184035
 21
4.4355777897
 31
0.0
 11
5.1080498335
 21
4.4410533534
 31
0.0
 11
5.0680741513
 21
4.4462960734
 31
0.0
 11
5.0280930492
 21
4.451343938
 31
0.0
 11
4.9881077198
 21
4.4562261124
 31
0.0
 11
4.9481190269
 21
4.4609654657
 31
0.0
 11
4.9081276177
 21
4.4655805137
 31
0.0
 11
4.8681339719
 21
4.4700857435
 31
0.0
 11
4.828138466
 21
4.4744932767
 31
0.0
  0
SPLINE
  5
33C
100
AcDbEntity
  8
0
100
AcDbSpline
 62
6
  6
CONTINUOUS
 70
0
 71
3
 72
15
 73
11
 74
9
 42
0.0000001
 43
0.0000001
 44
0.0000000001
 12
-0.0556477249
 22
0.0344823881
 32
0.0
 13
-0.0312500914
 23
0.0575250916
 33
0.0
 40
0.0
 40
0.0
 40
0.0
 40
0.0
 40
0.124922144
 40
0.2499391218
 40
0.3749479901
 40
0.4999302047
 40
0.6249382423
 40
0.7500029547
 40
0.8750595681
 40
1.0
 40
1.0
 40
1.0
 40
1.0
 10
2.9233322765
 20
4.2527824442
 30
0.0
 10
2.9210150654
 20
4.2542183155
 30
0.0
 10
2.9164736146
 20
4.2572472387
 30
0.0
 10
2.9099763953
 20
4.2622295499
 30
0.0
 10
2.9038188424
 20
4.2676285141
 30
0.0
 10
2.8980271659
 20
4.2734176804
 30
0.0
 10
2.8926215364
 20
4.2795704152
 30
0.0
 10
2.8876228753
 20
4.286060169
 30
0.0
 10
2.8830486864
 20
4.2928534349
 30
0.0
 10
2.8802918648
 20
4.2975659789
 30
0.0
 10
2.8789903982
 20
4.2999617155
 30
0.0
 11
2.9233322765
 21
4.2527824442
 31
0.0
 11
2.9165279042
 21
4.2573191014
 31
0.0
 11
2.9100330477
 21
4.262298977
 31
0.0
 11
2.9038793707
 21
4.2676939647
 31
0.0
 11
2.8980920244
 21
4.2734777091
 31
0.0
 11
2.8926903255
 21
4.2796254235
 31
0.0
 11
2.8876933898
 21
4.286111109
 31
0.0
 11
2.8831203622
 21
4.292901707
 31
0.0
 11
2.8789903982
 21
4.2999617155
 31
0.0
  0
SPLINE
  5
33D
100
AcDbEntity
  8
0
100
AcDbSpline
 62
9
  6
CONTINUOUS
 70
0
 71
3
 72
12
 73
8
 74
6
 42
0.0000001
 43
0.0000001
 44
0.0000000001
 12
0.0094400279
 22
-0.0037469082
 32
0.0
 13
0.0049560836
 23
-0.0088651387
 33
0.0
 40
0.0
 40
0.0
 40
0.0
 40
0.0
 40
0.2313723682
 40
0.4741201129
 40
0.7301560993
 40
0.8634756272
 40
1.0
 40
1.0
 40
1.0
 40
1.0
 10
3.8629875489
 20
4.5838099864
 30
0.0
 10
3.8637156027
 20
4.5835210094
 30
0.0
 10
3.8651481636
 20
4.5827695988
 30
0.0
 10
3.867092181
 20
4.5812230058
 30
0.0
 10
3.8685236728
 20
4.5796187244
 30
0.0
 10
3.869552939
 20
4.5781647207
 30
0.0
 10
3.8700262773
 20
4.5773822214
 30
0.0
 10
3.8702518194
 20
4.5769787856
 30
0.0
 11
3.8629875489
 21
4.5838099864
 31
0.0
 11
3.8650732526
 21
4.5827274102
 31
0.0
 11
3.867009803
 21
4.5812015528
 31
0.0
 11
3.8687498229
 21
4.5792690684
 31
0.0
 11
3.8695332881
 21
4.5781646945
 31
0.0
 11
3.8702518194
 21
4.5769787856
 31
0.0
  0
SPLINE
  5
33E
100
AcDbEntity
  8
0
100
AcDbSpline
 62
6
  6
CONTINUOUS
 70
0
 71
3
 72
16
 73
12
 74
10
 42
0.0000001
 43
0.0000001
 44
0.0000000001
 12
0.0
 22
-0.0559909773
 32
0.0
 13
-0.0233300416
 23
-0.0508989067
 33
0.0
 40
0.0
 40
0.0
 40
0.0
 40
0.0
 40
0.1279941202
 40
0.2559556133
 40
0.3834351708
 40
0.5099881908
 40
0.5727877698
 40
0.6352036218
 40
0.758753475
 40
0.8804229494
 40
1.0
 40
1.0
 40
1.0
 40
1.0
 10
6.6636351632
 20
4.3498960372
 30
0.0
 10
6.6636351632
 20
4.3475071986
 30
0.0
 10
6.6635122338
 20
4.3427292569
 30
0.0
 10
6.6629649359
 20
4.3355909635
 30
0.0
 10
6.6620586545
 20
4.328516298
 30
0.0
 10
6.6610049669
 20
4.3226946961
 30
0.0
 10
6.6599837993
 20
4.3181075608
 30
0.0
 10
6.6588526021
 20
4.313604114
 30
0.0
 10
6.657227732
 20
4.3080939195
 30
0.0
 10
6.6549410406
 20
4.3016774438
 30
0.0
 10
6.6531878218
 20
4.2975269308
 30
0.0
 10
6.6522579093
 20
4.2954981504
 30
0.0
 11
6.6636351632
 21
4.3498960372
 31
0.0
 11
6.6634516001
 21
4.3427318726
 31
0.0
 11
6.6629036627
 21
4.3355881667
 31
0.0
 11
6.6619954782
 21
4.328508475
 31
0.0
 11
6.6607311741
 21
4.3215363532
 31
0.0
 11
6.6599667699
 21
4.3181042375
 31
0.0
 11
6.6591152054
 21
4.3147148515
 31
0.0
 11
6.6571563859
 21
4.3080802994
 31
0.0
 11
6.6548666278
 21
4.301664249
 31
0.0
 11
6.6522579093
 21
4.2954981504
 31
0.0
  0
SPLINE
  5
33F
100
AcDbEntity
  8
0
100
AcDbSpline
 62
9
  6
CONTINUOUS
 70
0
 71
3
 72
12
 73
8
 74
6
 42
0.0000001
 43
0.0000001
 44
0.0000000001
 12
-0.0049560836
 22
-0.0088651386
 32
0.0
 13
-0.0094400279
 23
-0.0037469082
 33
0.0
 40
0.0
 40
0.0
 40
0.0
 40
0.0
 40
0.1365243728
 40
0.2698439007
 40
0.5258798871
 40
0.7686276318
 40
1.0
 40
1.0
 40
1.0
 40
1.0
 10
3.8702518194
 20
4.1228132888
 30
0.0
 10
3.8700262773
 20
4.1224098529
 30
0.0
 10
3.8695529389
 20
4.1216273537
 30
0.0
 10
3.8685236728
 20
4.12017335
 30
0.0
 10
3.867092181
 20
4.1185690686
 30
0.0
 10
3.8651481636
 20
4.1170224756
 30
0.0
 10
3.8637156027
 20
4.116271065
 30
0.0
 10
3.8629875488
 20
4.115982088
 30
0.0
 11
3.8702518194
 21
4.1228132888
 31
0.0
 11
3.869533288
 21
4.1216273799
 31
0.0
 11
3.8687498229
 21
4.1205230059
 31
0.0
 11
3.8670098029
 21
4.1185905216
 31
0.0
 11
3.8650732526
 21
4.1170646642
 31
0.0
 11
3.8629875488
 21
4.115982088
 31
0.0
  0
SPLINE
  5
340
100
AcDbEntity
  8
0
100
AcDbSpline
 62
6
  6
CONTINUOUS
 70
0
 71
3
 72
16
 73
12
 74
10
 42
0.0000001
 43
0.0000001
 44
0.0000000001
 12
0.0
 22
0.0559909773
 32
0.0
 13
-0.0233300416
 23
0.0508989067
 33
0.0
 40
0.0
 40
0.0
 40
0.0
 40
0.0
 40
0.1279941202
 40
0.2559556133
 40
0.3834351708
 40
0.5099881908
 40
0.5727877698
 40
0.6352036218
 40
0.758753475
 40
0.8804229494
 40
1.0
 40
1.0
 40
1.0
 40
1.0
 10
7.3707419443
 20
4.3498960372
 30
0.0
 10
7.3707419443
 20
4.3522848758
 30
0.0
 10
7.3706190149
 20
4.3570628174
 30
0.0
 10
7.370071717
 20
4.3642011109
 30
0.0
 10
7.3691654357
 20
4.3712757763
 30
0.0
 10
7.3681117481
 20
4.3770973782
 30
0.0
 10
7.3670905805
 20
4.3816845136
 30
0.0
 10
7.3659593832
 20
4.3861879603
 30
0.0
 10
7.3643345132
 20
4.3916981549
 30
0.0
 10
7.3620478217
 20
4.3981146306
 30
0.0
 10
7.360294603
 20
4.4022651436
 30
0.0
 10
7.3593646905
 20
4.404293924
 30
0.0
 11
7.3707419443
 21
4.3498960372
 31
0.0
 11
7.3705583813
 21
4.3570602018
 31
0.0
 11
7.3700104439
 21
4.3642039077
 31
0.0
 11
7.3691022594
 21
4.3712835993
 31
0.0
 11
7.3678379553
 21
4.3782557212
 31
0.0
 11
7.3670735511
 21
4.3816878368
 31
0.0
 11
7.3662219866
 21
4.3850772228
 31
0.0
 11
7.3642631671
 21
4.391711775
 31
0.0
 11
7.361973409
 21
4.3981278254
 31
0.0
 11
7.3593646905
 21
4.404293924
 31
0.0
  0
SPLINE
  5
341
100
AcDbEntity
  8
0
100
AcDbSpline
 62
9
  6
CONTINUOUS
 70
0
 71
3
 72
39
 73
35
 74
33
 42
0.0000001
 43
0.0000001
 44
0.0000000001
 12
-0.0106527962
 22
0.3151179895
 32
0.0
 13
-0.3152979876
 23
0.0000914431
 33
0.0
 40
0.0
 40
0.0
 40
0.0
 40
0.0
 40
0.0358733284
 40
0.0717950145
 40
0.1077056126
 40
0.1435457159
 40
0.1792568085
 40
0.2147904551
 40
0.2501098412
 40
0.2851793161
 40
0.3199641727
 40
0.3544309615
 40
0.3885465586
 40
0.4222785616
 40
0.4884571359
 40
0.5208654369
 40
0.552789554
 40
0.5842145847
 40
0.615128667
 40
0.6455240078
 40
0.675399566
 40
0.7047591591
 40
0.7336102707
 40
0.7619648344
 40
0.7898418064
 40
0.8172699447
 40
0.8442831847
 40
0.8709203086
 40
0.8841131591
 40
0.8972287855
 40
0.9232457299
 40
0.9490168731
 40
0.9745861832
 40
1.0
 40
1.0
 40
1.0
 40
1.0
 10
9.0422699802
 20
4.3498960372
 30
0.0
 10
9.0421425965
 20
4.3536641476
 30
0.0
 10
9.0417555855
 20
4.3612016312
 30
0.0
 10
9.0407835193
 20
4.3724817574
 30
0.0
 10
9.0394224646
 20
4.3837182112
 30
0.0
 10
9.0376758685
 20
4.394878813
 30
0.0
 10
9.0355463926
 20
4.4059324467
 30
0.0
 10
9.033038647
 20
4.4168503227
 30
0.0
 10
9.0301605712
 20
4.4276067081
 30
0.0
 10
9.0269191729
 20
4.4381770012
 30
0.0
 10
9.0233216983
 20
4.4485367652
 30
0.0
 10
9.0193751113
 20
4.4586610935
 30
0.0
 10
9.0150898431
 20
4.4685266514
 30
0.0
 10
9.0089795494
 20
4.4812211794
 30
0.0
 10
9.0022078294
 20
4.4933891376
 30
0.0
 10
8.9947858783
 20
4.5049282847
 30
0.0
 10
8.9889783723
 20
4.5131518071
 30
0.0
 10
8.9829060026
 20
4.5209838843
 30
0.0
 10
8.976582928
 20
4.5284054712
 30
0.0
 10
8.9700227089
 20
4.5353968526
 30
0.0
 10
8.9632419198
 20
4.5419416249
 30
0.0
 10
8.9562580876
 20
4.5480252229
 30
0.0
 10
8.9490882653
 20
4.5536329239
 30
0.0
 10
8.9417493247
 20
4.5587500695
 30
0.0
 10
8.9342579431
 20
4.5633625344
 30
0.0
 10
8.9266325775
 20
4.5674605288
 30
0.0
 10
8.9188911567
 20
4.5710343635
 30
0.0
 10
8.9123363776
 20
4.5735761478
 30
0.0
 10
8.9070558702
 20
4.5753340216
 30
0.0
 10
8.9017831646
 20
4.5768995425
 30
0.0
 10
8.8951508963
 20
4.5785174654
 30
0.0
 10
8.8871349965
 20
4.5799122178
 30
0.0
 10
8.8791060178
 20
4.5807526312
 30
0.0
 10
8.8737459745
 20
4.5809419817
 30
0.0
 10
8.8710749994
 20
4.5809427563
 30
0.0
 11
9.0422699802
 21
4.3498960372
 31
0.0
 11
9.0416906954
 21
4.3611919821
 31
0.0
 11
9.0407184719
 21
4.3724762131
 31
0.0
 11
9.0393566466
 21
4.3837165573
 31
0.0
 11
9.0376085562
 21
4.394880842
 31
0.0
 11
9.0354775851
 21
4.4059369881
 31
0.0
 11
9.0329687597
 21
4.4168561646
 31
0.0
 11
9.0300891304
 21
4.4276135419
 31
0.0
 11
9.0268458718
 21
4.438184537
 31
0.0
 11
9.0232461587
 21
4.4485445671
 31
0.0
 11
9.0192975591
 21
4.4586691401
 31
0.0
 11
9.0150101868
 21
4.4685343538
 31
0.0
 11
9.0103951702
 21
4.4781165411
 31
0.0
 11
9.0002267375
 21
4.4963371825
 31
0.0
 11
8.9946966359
 21
4.5049296833
 31
0.0
 11
8.9888874334
 21
4.5131497609
 31
0.0
 11
8.982813438
 21
4.5209779143
 31
0.0
 11
8.9764889579
 21
4.5283946422
 31
0.0
 11
8.969928465
 21
4.5353807093
 31
0.0
 11
8.9631481695
 21
4.541919701
 31
0.0
 11
8.9561653288
 21
4.5479969022
 31
0.0
 11
8.9489972149
 21
4.5535976213
 31
0.0
 11
8.9416610999
 21
4.5587071682
 31
0.0
 11
8.9341743785
 21
4.5633120845
 31
0.0
 11
8.9265547901
 21
4.5674023681
 31
0.0
 11
8.918820134
 21
4.5709686185
 31
0.0
 11
8.9109882096
 21
4.5740014354
 31
0.0
 11
8.9070413342
 21
4.5753148687
 31
0.0
 11
8.9030769628
 21
4.5764916098
 31
0.0
 11
8.8951070183
 21
4.5784334336
 31
0.0
 11
8.8871013446
 21
4.5798242609
 31
0.0
 11
8.8790829891
 21
4.5806615493
 31
0.0
 11
8.8710749994
 21
4.5809427563
 31
0.0
  0
SPLINE
  5
342
100
AcDbEntity
  8
0
100
AcDbSpline
 62
9
  6
CONTINUOUS
 70
0
 71
3
 72
19
 73
15
 74
13
 42
0.0000001
 43
0.0000001
 44
0.0000000001
 12
0.0582353302
 22
-0.0850127402
 32
0.0
 13
-0.0041832494
 23
-0.1029612554
 33
0.0
 40
0.0
 40
0.0
 40
0.0
 40
0.0
 40
0.1142831615
 40
0.1729253084
 40
0.2324911868
 40
0.2929291475
 40
0.3541962104
 40
0.4790078957
 40
0.5424743233
 40
0.6065622758
 40
0.7363254614
 40
0.8018838248
 40
0.8677595627
 40
1.0
 40
1.0
 40
1.0
 40
1.0
 10
4.8073603861
 20
4.4480455421
 30
0.0
 10
4.8095788253
 20
4.4448070338
 30
0.0
 10
4.8126918964
 20
4.4397346143
 30
0.0
 10
4.8163973846
 20
4.4326587921
 30
0.0
 10
4.8190005467
 20
4.4270996462
 30
0.0
 10
4.8213946258
 20
4.4213497951
 30
0.0
 10
4.8243190687
 20
4.4134012413
 30
0.0
 10
4.8267819545
 20
4.4051798082
 30
0.0
 10
4.8287834928
 20
4.3967439357
 30
0.0
 10
4.8304951824
 20
4.3880709068
 30
0.0
 10
4.8317276112
 20
4.379236486
 30
0.0
 10
4.8324816206
 20
4.3702948473
 30
0.0
 10
4.8329181649
 20
4.3612470602
 30
0.0
 10
4.8328831569
 20
4.3544345843
 30
0.0
 10
4.8326987587
 20
4.3498960372
 30
0.0
 11
4.8073603861
 21
4.4480455421
 31
0.0
 11
4.8135376631
 21
4.4380192804
 31
0.0
 11
4.816342906
 21
4.4326670235
 31
0.0
 11
4.8189474975
 21
4.4271090015
 31
0.0
 11
4.8213433342
 21
4.4213603727
 31
0.0
 11
4.82352502
 21
4.4154359753
 31
0.0
 11
4.8272270194
 21
4.4031189123
 31
0.0
 11
4.8287381731
 21
4.3967559194
 31
0.0
 11
4.8300180263
 21
4.3902771034
 31
0.0
 11
4.8318719346
 21
4.3770346413
 31
0.0
 11
4.8324404466
 21
4.370303065
 31
0.0
 11
4.8327681544
 21
4.3635227352
 31
0.0
 11
4.8326987587
 21
4.3498960372
 31
0.0
  0
SPLINE
  5
343
100
AcDbEntity
  8
0
100
AcDbSpline
 62
9
  6
CONTINUOUS
 70
0
 71
3
 72
15
 73
11
 74
9
 42
0.0000001
 43
0.0000001
 44
0.0000000001
 12
0.0000015332
 22
-0.0278809177
 32
0.0
 13
0.0157541853
 23
-0.0230032872
 33
0.0
 40
0.0
 40
0.0
 40
0.0
 40
0.0
 40
0.1323465861
 40
0.2637189427
 40
0.393361757
 40
0.5206859824
 40
0.6453400317
 40
0.7670250667
 40
0.8853760424
 40
1.0
 40
1.0
 40
1.0
 40
1.0
 10
4.7998929574
 20
4.4744943873
 30
0.0
 10
4.799893025
 20
4.4732644059
 30
0.0
 10
4.7999744803
 20
4.4708127254
 30
0.0
 10
4.8003381923
 20
4.4671724893
 30
0.0
 10
4.8009405522
 20
4.4636110579
 30
0.0
 10
4.8017779548
 20
4.4601615646
 30
0.0
 10
4.8028422528
 20
4.4568525819
 30
0.0
 10
4.8041267783
 20
4.4537122576
 30
0.0
 10
4.8056177885
 20
4.4507687557
 30
0.0
 10
4.8067584504
 20
4.4489244514
 30
0.0
 10
4.8073603861
 20
4.4480455421
 30
0.0
 11
4.7998929574
 21
4.4744943873
 31
0.0
 11
4.8000156782
 21
4.4708064843
 31
0.0
 11
4.8003812161
 21
4.467161988
 31
0.0
 11
4.8009862188
 21
4.4635984195
 31
0.0
 11
4.8018258871
 21
4.4601492367
 31
0.0
 11
4.8028932215
 21
4.4568417173
 31
0.0
 11
4.8041805813
 21
4.45370276
 31
0.0
 11
4.8056750626
 21
4.4507608611
 31
0.0
 11
4.8073603861
 21
4.4480455421
 31
0.0
  0
SPLINE
  5
344
100
AcDbEntity
  8
0
100
AcDbSpline
 62
6
  6
CONTINUOUS
 70
0
 71
3
 72
16
 73
12
 74
10
 42
0.0000001
 43
0.0000001
 44
0.0000000001
 12
0.0
 22
-0.0559909773
 32
0.0
 13
-0.0233300416
 23
-0.0508989067
 33
0.0
 40
0.0
 40
0.0
 40
0.0
 40
0.0
 40
0.1279941202
 40
0.2559556133
 40
0.3834351708
 40
0.5099881908
 40
0.5727877698
 40
0.6352036218
 40
0.758753475
 40
0.8804229494
 40
1.0
 40
1.0
 40
1.0
 40
1.0
 10
7.3707419443
 20
4.3498960372
 30
0.0
 10
7.3707419443
 20
4.3475071986
 30
0.0
 10
7.3706190149
 20
4.3427292569
 30
0.0
 10
7.370071717
 20
4.3355909635
 30
0.0
 10
7.3691654357
 20
4.328516298
 30
0.0
 10
7.3681117481
 20
4.3226946961
 30
0.0
 10
7.3670905805
 20
4.3181075608
 30
0.0
 10
7.3659593832
 20
4.313604114
 30
0.0
 10
7.3643345132
 20
4.3080939195
 30
0.0
 10
7.3620478217
 20
4.3016774438
 30
0.0
 10
7.360294603
 20
4.2975269308
 30
0.0
 10
7.3593646905
 20
4.2954981504
 30
0.0
 11
7.3707419443
 21
4.3498960372
 31
0.0
 11
7.3705583813
 21
4.3427318726
 31
0.0
 11
7.3700104439
 21
4.3355881667
 31
0.0
 11
7.3691022594
 21
4.328508475
 31
0.0
 11
7.3678379553
 21
4.3215363532
 31
0.0
 11
7.3670735511
 21
4.3181042375
 31
0.0
 11
7.3662219866
 21
4.3147148515
 31
0.0
 11
7.3642631671
 21
4.3080802994
 31
0.0
 11
7.361973409
 21
4.301664249
 31
0.0
 11
7.3593646905
 21
4.2954981504
 31
0.0
  0
SPLINE
  5
345
100
AcDbEntity
  8
0
100
AcDbSpline
 62
9
  6
CONTINUOUS
 70
0
 71
3
 72
15
 73
11
 74
9
 42
0.0000001
 43
0.0000001
 44
0.0000000001
 12
-0.0157774429
 22
-0.0230369311
 32
0.0
 13
-0.0000012446
 23
-0.0279218176
 33
0.0
 40
0.0
 40
0.0
 40
0.0
 40
0.0
 40
0.1146275747
 40
0.2329712028
 40
0.354645392
 40
0.4792911939
 40
0.6066117779
 40
0.7362584235
 40
0.8676410035
 40
1.0
 40
1.0
 40
1.0
 40
1.0
 10
4.8073793784
 20
4.251782662
 30
0.0
 10
4.8067765351
 20
4.2509024394
 30
0.0
 10
4.8056338403
 20
4.2490557217
 30
0.0
 10
4.8041394228
 20
4.2461086853
 30
0.0
 10
4.8028514608
 20
4.2429646593
 30
0.0
 10
4.8017839799
 20
4.2396515626
 30
0.0
 10
4.8009438623
 20
4.2361974377
 30
0.0
 10
4.8003395526
 20
4.2326308512
 30
0.0
 10
4.7999747041
 20
4.228985078
 30
0.0
 10
4.7998930123
 20
4.2265295869
 30
0.0
 10
4.7998929574
 20
4.2252976857
 30
0.0
 11
4.8073793784
 21
4.251782662
 31
0.0
 11
4.8056910415
 21
4.2490635768
 31
0.0
 11
4.8041932477
 21
4.2461181618
 31
0.0
 11
4.8029025227
 21
4.2429755332
 31
0.0
 11
4.8018320396
 21
4.2396639151
 31
0.0
 11
4.8009896972
 21
4.2362101286
 31
0.0
 11
4.8003827337
 21
4.2326414064
 31
0.0
 11
4.8000160376
 21
4.2289913393
 31
0.0
 11
4.7998929574
 21
4.2252976857
 31
0.0
  0
SPLINE
  5
346
100
AcDbEntity
  8
0
100
AcDbSpline
 62
9
  6
CONTINUOUS
 70
0
 71
3
 72
19
 73
15
 74
13
 42
0.0000001
 43
0.0000001
 44
0.0000000001
 12
0.0041711267
 22
-0.1029210504
 32
0.0
 13
-0.0582318104
 23
-0.0849658589
 33
0.0
 40
0.0
 40
0.0
 40
0.0
 40
0.0
 40
0.1322364349
 40
0.1981102137
 40
0.2636671574
 40
0.3934302469
 40
0.4575187031
 40
0.520985344
 40
0.6457966847
 40
0.7070646255
 40
0.7675050536
 40
0.82707487
 40
0.8857202669
 40
1.0
 40
1.0
 40
1.0
 40
1.0
 10
4.8326987587
 20
4.3498960372
 30
0.0
 10
4.832882617
 20
4.3453593996
 30
0.0
 10
4.8329176067
 20
4.3385498498
 30
0.0
 10
4.8324819874
 20
4.3295058517
 30
0.0
 10
4.831729305
 20
4.3205677776
 30
0.0
 10
4.8304985473
 20
4.3117367158
 30
0.0
 10
4.8287886931
 20
4.3030668583
 30
0.0
 10
4.8267889948
 20
4.2946340499
 30
0.0
 10
4.8243278685
 20
4.2864155966
 30
0.0
 10
4.8214054688
 20
4.2784697455
 30
0.0
 10
4.8190130886
 20
4.2727215841
 30
0.0
 10
4.8164119435
 20
4.2671638026
 30
0.0
 10
4.8127092109
 20
4.2600899573
 30
0.0
 10
4.809597617
 20
4.2550192872
 30
0.0
 10
4.8073793784
 20
4.251782662
 30
0.0
 11
4.8326987587
 21
4.3498960372
 31
0.0
 11
4.8327679082
 21
4.3362751275
 31
0.0
 11
4.8324408689
 21
4.3294976494
 31
0.0
 11
4.8318733404
 21
4.3227688121
 31
0.0
 11
4.8300218796
 21
4.3095313456
 31
0.0
 11
4.8287433805
 21
4.3030548657
 31
0.0
 11
4.8272336023
 21
4.2966941761
 31
0.0
 11
4.8235343964
 21
4.2843816102
 31
0.0
 11
4.8213542483
 21
4.278459205
 31
0.0
 11
4.8189601325
 21
4.2727122462
 31
0.0
 11
4.8163574641
 21
4.2671555502
 31
0.0
 11
4.8135541215
 21
4.2618046117
 31
0.0
 11
4.8073793784
 21
4.251782662
 31
0.0
  0
SPLINE
  5
347
100
AcDbEntity
  8
0
100
AcDbSpline
 62
6
  6
CONTINUOUS
 70
0
 71
3
 72
26
 73
22
 74
20
 42
0.0000001
 43
0.0000001
 44
0.0000000001
 12
-0.0836060097
 22
0.0890965904
 32
0.0
 13
0.0404193815
 23
0.1153015216
 33
0.0
 40
0.0
 40
0.0
 40
0.0
 40
0.0
 40
0.0625534411
 40
0.1251675916
 40
0.1877941258
 40
0.2191033826
 40
0.2504032239
 40
0.3129678516
 40
0.3755040363
 40
0.4067703434
 40
0.4380359486
 40
0.4693005645
 40
0.5005621953
 40
0.5630613951
 40
0.6255362437
 40
0.6879897936
 40
0.7504280042
 40
0.8128656387
 40
0.8753110836
 40
0.9377099478
 40
1.0
 40
1.0
 40
1.0
 40
1.0
 10
2.9233322765
 20
4.2527824442
 30
0.0
 10
2.9215889953
 20
4.2546402103
 30
0.0
 10
2.9182168997
 20
4.2584685825
 30
0.0
 10
2.9135305738
 20
4.2645189487
 30
0.0
 10
2.9099519571
 20
4.2698015407
 30
0.0
 10
2.9072987179
 20
4.2741584807
 30
0.0
 10
2.9047898553
 20
4.2785972551
 30
0.0
 10
2.901928145
 20
4.2842933325
 30
0.0
 10
2.8994472998
 20
4.290163987
 30
0.0
 10
2.8977006993
 20
4.2949496652
 30
0.0
 10
2.8965117639
 20
4.2985807593
 30
0.0
 10
2.8954456398
 20
4.3022496035
 30
0.0
 10
2.894190196
 20
4.3071851279
 30
0.0
 10
2.8929355375
 20
4.3134286707
 30
0.0
 10
2.8919472524
 20
4.3210037781
 30
0.0
 10
2.8914885684
 20
4.3286271216
 30
0.0
 10
2.8915655159
 20
4.3362624166
 30
0.0
 10
2.8921848543
 20
4.3438728181
 30
0.0
 10
2.8933518762
 20
4.3514172832
 30
0.0
 10
2.8950612515
 20
4.3588511005
 30
0.0
 10
2.8965615138
 20
4.3637084344
 30
0.0
 10
2.8974007556
 20
4.3661024803
 30
0.0
 11
2.9233322765
 21
4.2527824442
 31
0.0
 11
2.9182806223
 21
4.2585177479
 31
0.0
 11
2.9135964749
 21
4.2645663113
 31
0.0
 11
2.9093059316
 21
4.2709019837
 31
0.0
 11
2.9073164132
 21
4.2741693137
 31
0.0
 11
2.9054347174
 21
4.2774985851
 31
0.0
 11
2.9020037138
 21
4.284329546
 31
0.0
 11
2.8990304144
 21
4.2913680249
 31
0.0
 11
2.8977208488
 21
4.2949566939
 31
0.0
 11
2.8965322114
 21
4.2985871199
 31
0.0
 11
2.895466326
 21
4.302255337
 31
0.0
 11
2.8945248289
 21
4.3059570562
 31
0.0
 11
2.8930215345
 21
4.313443829
 31
0.0
 11
2.8920353957
 21
4.3210130931
 31
0.0
 11
2.8915778134
 21
4.3286299906
 31
0.0
 11
2.8916559124
 21
4.3362583463
 31
0.0
 11
2.8922761401
 21
4.3438617767
 31
0.0
 11
2.8934428435
 21
4.3514016839
 31
0.0
 11
2.8951527266
 21
4.3588314136
 31
0.0
 11
2.8974007556
 21
4.3661024803
 31
0.0
  0
SPLINE
  5
348
100
AcDbEntity
  8
0
100
AcDbSpline
 62
6
  6
CONTINUOUS
 70
0
 71
3
 72
16
 73
12
 74
10
 42
0.0000001
 43
0.0000001
 44
0.0000000001
 12
0.0
 22
0.0559909773
 32
0.0
 13
-0.0233300416
 23
0.0508989067
 33
0.0
 40
0.0
 40
0.0
 40
0.0
 40
0.0
 40
0.1279941202
 40
0.2559556133
 40
0.3834351708
 40
0.5099881908
 40
0.5727877698
 40
0.6352036218
 40
0.758753475
 40
0.8804229494
 40
1.0
 40
1.0
 40
1.0
 40
1.0
 10
8.0778487255
 20
4.3498960372
 30
0.0
 10
8.0778487255
 20
4.3522848758
 30
0.0
 10
8.0777257961
 20
4.3570628174
 30
0.0
 10
8.0771784982
 20
4.3642011109
 30
0.0
 10
8.0762722168
 20
4.3712757763
 30
0.0
 10
8.0752185292
 20
4.3770973782
 30
0.0
 10
8.0741973617
 20
4.3816845136
 30
0.0
 10
8.0730661644
 20
4.3861879603
 30
0.0
 10
8.0714412944
 20
4.3916981549
 30
0.0
 10
8.0691546029
 20
4.3981146306
 30
0.0
 10
8.0674013842
 20
4.4022651436
 30
0.0
 10
8.0664714716
 20
4.404293924
 30
0.0
 11
8.0778487255
 21
4.3498960372
 31
0.0
 11
8.0776651625
 21
4.3570602018
 31
0.0
 11
8.0771172251
 21
4.3642039077
 31
0.0
 11
8.0762090406
 21
4.3712835993
 31
0.0
 11
8.0749447365
 21
4.3782557212
 31
0.0
 11
8.0741803323
 21
4.3816878368
 31
0.0
 11
8.0733287677
 21
4.3850772228
 31
0.0
 11
8.0713699483
 21
4.391711775
 31
0.0
 11
8.0690801902
 21
4.3981278254
 31
0.0
 11
8.0664714716
 21
4.404293924
 31
0.0
  0
SPLINE
  5
349
100
AcDbEntity
  8
0
100
AcDbSpline
 62
9
  6
CONTINUOUS
 70
0
 71
3
 72
9
 73
5
 74
3
 42
0.0000001
 43
0.0000001
 44
0.0000000001
 12
0.0221541661
 22
-0.0180888009
 32
0.0
 13
0.0191548377
 23
-0.0212392087
 33
0.0
 40
0.0
 40
0.0
 40
0.0
 40
0.0
 40
0.4937631674
 40
1.0
 40
1.0
 40
1.0
 40
1.0
 10
4.3685384395
 20
4.5664023881
 30
0.0
 10
4.3721847433
 20
4.5634251936
 30
0.0
 10
4.3793258078
 20
4.5570921117
 30
0.0
 10
4.3859645579
 20
4.5502364862
 30
0.0
 10
4.3891968527
 20
4.5466524629
 30
0.0
 11
4.3685384395
 21
4.5664023881
 31
0.0
 11
4.3791142672
 21
4.5570437112
 31
0.0
 11
4.3891968527
 21
4.5466524629
 31
0.0
  0
SPLINE
  5
34A
100
AcDbEntity
  8
0
100
AcDbSpline
 62
6
  6
CONTINUOUS
 70
0
 71
3
 72
16
 73
12
 74
10
 42
0.0000001
 43
0.0000001
 44
0.0000000001
 12
0.0
 22
-0.0559909773
 32
0.0
 13
-0.0233300416
 23
-0.0508989067
 33
0.0
 40
0.0
 40
0.0
 40
0.0
 40
0.0
 40
0.1279941202
 40
0.2559556133
 40
0.3834351708
 40
0.5099881908
 40
0.5727877698
 40
0.6352036218
 40
0.758753475
 40
0.8804229494
 40
1.0
 40
1.0
 40
1.0
 40
1.0
 10
8.0778487255
 20
4.3498960372
 30
0.0
 10
8.0778487255
 20
4.3475071986
 30
0.0
 10
8.0777257961
 20
4.3427292569
 30
0.0
 10
8.0771784982
 20
4.3355909635
 30
0.0
 10
8.0762722168
 20
4.328516298
 30
0.0
 10
8.0752185292
 20
4.3226946961
 30
0.0
 10
8.0741973617
 20
4.3181075608
 30
0.0
 10
8.0730661644
 20
4.313604114
 30
0.0
 10
8.0714412944
 20
4.3080939195
 30
0.0
 10
8.0691546029
 20
4.3016774438
 30
0.0
 10
8.0674013842
 20
4.2975269308
 30
0.0
 10
8.0664714716
 20
4.2954981504
 30
0.0
 11
8.0778487255
 21
4.3498960372
 31
0.0
 11
8.0776651625
 21
4.3427318726
 31
0.0
 11
8.0771172251
 21
4.3355881667
 31
0.0
 11
8.0762090406
 21
4.328508475
 31
0.0
 11
8.0749447365
 21
4.3215363532
 31
0.0
 11
8.0741803323
 21
4.3181042375
 31
0.0
 11
8.0733287677
 21
4.3147148515
 31
0.0
 11
8.0713699483
 21
4.3080802994
 31
0.0
 11
8.0690801902
 21
4.301664249
 31
0.0
 11
8.0664714716
 21
4.2954981504
 31
0.0
  0
SPLINE
  5
34B
100
AcDbEntity
  8
0
100
AcDbSpline
 62
9
  6
CONTINUOUS
 70
0
 71
3
 72
31
 73
27
 74
25
 42
0.0000001
 43
0.0000001
 44
0.0000000001
 12
0.1209471087
 22
-0.2962677315
 32
0.0
 13
-0.1209533328
 23
-0.2962651905
 33
0.0
 40
0.0
 40
0.0
 40
0.0
 40
0.0
 40
0.060226963
 40
0.0906934106
 40
0.1213686602
 40
0.152233753
 40
0.1832722705
 40
0.2144707976
 40
0.2458157671
 40
0.2772933452
 40
0.3088892462
 40
0.3723663361
 40
0.4361157869
 40
0.5000007523
 40
0.563885693
 40
0.6276350697
 40
0.6911120361
 40
0.7227078572
 40
0.7541853435
 40
0.7855302101
 40
0.8167286234
 40
0.8477670163
 40
0.8786319738
 40
0.9093070774
 40
0.9397733694
 40
1.0
 40
1.0
 40
1.0
 40
1.0
 10
4.7013288203
 20
4.5061395739
 30
0.0
 10
4.7037569126
 20
4.5001918054
 30
0.0
 10
4.707174835
 20
4.491135451
 30
0.0
 10
4.7112801515
 20
4.4788565166
 30
0.0
 10
4.7141564391
 20
4.4694720815
 30
0.0
 10
4.7168137761
 20
4.4599600942
 30
0.0
 10
4.7192489594
 20
4.4503312224
 30
0.0
 10
4.7214599172
 20
4.4405959321
 30
0.0
 10
4.7234445034
 20
4.4307642281
 30
0.0
 10
4.7252006619
 20
4.4208460686
 30
0.0
 10
4.7272376425
 20
4.4075006784
 30
0.0
 10
4.729200374
 20
4.3906666513
 30
0.0
 10
4.7306162473
 20
4.3703231993
 30
0.0
 10
4.7310878289
 20
4.349892307
 30
0.0
 10
4.7306159024
 20
4.3294614305
 30
0.0
 10
4.7291996869
 20
4.3091180261
 30
0.0
 10
4.7272366713
 20
4.2922840619
 30
0.0
 10
4.725199464
 20
4.2789387381
 30
0.0
 10
4.7234431364
 20
4.2690206383
 30
0.0
 10
4.7214583828
 20
4.2591890017
 30
0.0
 10
4.7192472601
 20
4.2494537862
 30
0.0
 10
4.7168119157
 20
4.2398249962
 30
0.0
 10
4.7141544228
 20
4.2303130974
 30
0.0
 10
4.7112779832
 20
4.2209287577
 30
0.0
 10
4.7071724655
 20
4.2086499619
 30
0.0
 10
4.7037543858
 20
4.1995937219
 30
0.0
 10
4.7013261819
 20
4.1936460372
 30
0.0
 11
4.7013288203
 21
4.5061395739
 31
0.0
 11
4.7081419703
 21
4.4881111176
 31
0.0
 11
4.7112341719
 21
4.4788650917
 31
0.0
 11
4.7141113887
 21
4.4694800155
 31
0.0
 11
4.7167695946
 21
4.4599674792
 31
0.0
 11
4.719205609
 21
4.4503383777
 31
0.0
 11
4.7214172705
 21
4.440602768
 31
0.0
 11
4.7234024784
 21
4.4307706572
 31
0.0
 11
4.7251591321
 21
4.4208520526
 31
0.0
 11
4.7266852252
 21
4.4108570626
 31
0.0
 11
4.7290402577
 21
4.3906810991
 31
0.0
 11
4.7304577486
 21
4.3703303052
 31
0.0
 11
4.7309304663
 21
4.3498923057
 31
0.0
 11
4.7304574034
 21
4.3294543221
 31
0.0
 11
4.7290395695
 21
4.3091035758
 31
0.0
 11
4.7266841963
 21
4.2889276919
 31
0.0
 11
4.7251579336
 21
4.2789327536
 31
0.0
 11
4.723401111
 21
4.2690142088
 31
0.0
 11
4.7214157357
 21
4.2591821654
 31
0.0
 11
4.7192039095
 21
4.2494466305
 31
0.0
 11
4.7167677342
 21
4.2398176108
 31
0.0
 11
4.7141093721
 21
4.2303051631
 31
0.0
 11
4.7112320025
 21
4.2209201826
 31
0.0
 11
4.7081396485
 21
4.2116742601
 31
0.0
 11
4.7013261819
 21
4.1936460372
 31
0.0
  0
SPLINE
  5
34C
100
AcDbEntity
  8
0
100
AcDbSpline
 62
9
  6
CONTINUOUS
 70
0
 71
3
 72
23
 73
19
 74
17
 42
0.0000001
 43
0.0000001
 44
0.0000000001
 12
-0.0787284847
 22
-0.192837575
 32
0.0
 13
-0.1967522792
 23
-0.0683596756
 33
0.0
 40
0.0
 40
0.0
 40
0.0
 40
0.0
 40
0.0702305626
 40
0.1395653864
 40
0.2079197135
 40
0.2752239015
 40
0.3414472705
 40
0.4065727844
 40
0.4705905019
 40
0.5334965535
 40
0.5952948913
 40
0.6560017667
 40
0.7156504854
 40
0.7742853228
 40
0.8319626766
 40
0.8887521005
 40
0.9447332876
 40
1.0
 40
1.0
 40
1.0
 40
1.0
 10
4.7013230206
 20
4.1936382946
 30
0.0
 10
4.6994799721
 20
4.1891239308
 30
0.0
 10
4.6956348558
 20
4.1802259522
 30
0.0
 10
4.6893590449
 20
4.1672211199
 30
0.0
 10
4.6826273832
 20
4.1546758806
 30
0.0
 10
4.6754566372
 20
4.1426268792
 30
0.0
 10
4.6678667408
 20
4.1311046635
 30
0.0
 10
4.6598763026
 20
4.1201372702
 30
0.0
 10
4.6515040068
 20
4.1097524209
 30
0.0
 10
4.6427721097
 20
4.0999753063
 30
0.0
 10
4.6337024723
 20
4.0908311854
 30
0.0
 10
4.6243168912
 20
4.0823448244
 30
0.0
 10
4.6146402817
 20
4.0745365951
 30
0.0
 10
4.6046966045
 20
4.0674266016
 30
0.0
 10
4.5945102141
 20
4.0610344461
 30
0.0
 10
4.5841080502
 20
4.0553748528
 30
0.0
 10
4.5735170131
 20
4.0504630162
 30
0.0
 10
4.566304664
 20
4.0476798387
 30
0.0
 10
4.5626800467
 20
4.0464205005
 30
0.0
 11
4.7013230206
 21
4.1936382946
 31
0.0
 11
4.6955171195
 21
4.1802115195
 31
0.0
 11
4.6892367655
 21
4.1672068952
 31
0.0
 11
4.6825005576
 21
4.1546637882
 31
0.0
 11
4.6753270825
 21
4.1426194237
 31
0.0
 11
4.6677348828
 21
4.1311032286
 31
0.0
 11
4.6597424911
 21
4.1201428551
 31
0.0
 11
4.6513692021
 21
4.1097655065
 31
0.0
 11
4.642636837
 21
4.0999968977
 31
0.0
 11
4.6335677408
 21
4.0908624345
 31
0.0
 11
4.6241846973
 21
4.0823863222
 31
0.0
 11
4.6145118165
 21
4.074589135
 31
0.0
 11
4.6045734593
 21
4.0674907619
 31
0.0
 11
4.5943945463
 21
4.0611098553
 31
0.0
 11
4.5840015426
 21
4.0554616538
 31
0.0
 11
4.5734211776
 21
4.0505608086
 31
0.0
 11
4.5626800467
 21
4.0464205005
 31
0.0
  0
SPLINE
  5
34D
100
AcDbEntity
  8
0
100
AcDbSpline
 62
6
  6
CONTINUOUS
 70
0
 71
3
 72
23
 73
19
 74
17
 42
0.0000001
 43
0.0000001
 44
0.0000000001
 12
0.1423858686
 22
-0.1578798651
 32
0.0
 13
0.0
 23
-0.2126024163
 33
0.0
 40
0.0
 40
0.0
 40
0.0
 40
0.0
 40
0.0558680594
 40
0.1128319341
 40
0.170881395
 40
0.2003104546
 40
0.230003783
 40
0.2901580587
 40
0.3512960658
 40
0.4133544623
 40
0.4762629119
 40
0.6042956361
 40
0.6692886768
 40
0.7348007745
 40
0.8007317729
 40
0.8669784307
 40
0.9334360426
 40
1.0
 40
1.0
 40
1.0
 40
1.0
 10
4.3891968527
 20
4.5466524629
 30
0.0
 10
4.3918484601
 20
4.5437123157
 30
0.0
 10
4.3970317618
 20
4.537617008
 30
0.0
 10
4.4043566872
 20
4.5279666303
 30
0.0
 10
4.4101033281
 20
4.5194893828
 30
0.0
 10
4.4144933409
 20
4.512440176
 30
0.0
 10
4.4187769131
 20
4.5051521554
 30
0.0
 10
4.4238481915
 20
4.4957249123
 30
0.0
 10
4.429447613
 20
4.4839945806
 30
0.0
 10
4.4345714024
 20
4.4718364488
 30
0.0
 10
4.4407827581
 20
4.455012378
 30
0.0
 10
4.44592767
 20
4.4375913905
 30
0.0
 10
4.4499874628
 20
4.4197209585
 30
0.0
 10
4.452504407
 20
4.4060251139
 30
0.0
 10
4.4544718111
 20
4.392150384
 30
0.0
 10
4.4558843101
 20
4.3781407625
 30
0.0
 10
4.4567362749
 20
4.3640412529
 30
0.0
 10
4.4569267872
 20
4.3546132566
 30
0.0
 10
4.4569267872
 20
4.3498960372
 30
0.0
 11
4.3891968527
 21
4.5466524629
 31
0.0
 11
4.3968964227
 21
4.5376083483
 31
0.0
 11
4.404223241
 21
4.5279654361
 31
0.0
 11
4.4111526783
 21
4.5177529718
 31
0.0
 11
4.4144606823
 21
4.5124422969
 31
0.0
 11
4.4176601553
 21
4.507000262
 31
0.0
 11
4.4237242061
 21
4.4957404048
 31
0.0
 11
4.4293282501
 21
4.4840124475
 31
0.0
 11
4.4344561338
 21
4.4718559577
 31
0.0
 11
4.4390917039
 21
4.4593105031
 31
0.0
 11
4.4468212968
 21
4.4332109741
 31
0.0
 11
4.4498857754
 21
4.4197374006
 31
0.0
 11
4.4524056212
 21
4.4060392108
 31
0.0
 11
4.4543752396
 21
4.3921611921
 31
0.0
 11
4.4557890364
 21
4.3781481319
 31
0.0
 11
4.4566414171
 21
4.3640448178
 31
0.0
 11
4.4569267872
 21
4.3498960372
 31
0.0
  0
SPLINE
  5
34E
100
AcDbEntity
  8
0
100
AcDbSpline
 62
9
  6
CONTINUOUS
 70
0
 71
3
 72
12
 73
8
 74
6
 42
0.0000001
 43
0.0000001
 44
0.0000000001
 12
0.505598036
 22
-0.0159951636
 32
0.0
 13
0.5055083354
 23
-0.0186156428
 33
0.0
 40
0.0
 40
0.0
 40
0.0
 40
0.0
 40
0.2502716171
 40
0.5003562772
 40
0.6253310277
 40
0.7502623745
 40
1.0
 40
1.0
 40
1.0
 40
1.0
 10
3.8629875887
 20
4.5838099847
 30
0.0
 10
3.9051665347
 20
4.5824756062
 30
0.0
 10
3.9894907054
 20
4.5797375536
 30
0.0
 10
4.0948716212
 20
4.5761645824
 30
0.0
 10
4.1791274076
 20
4.5732280533
 30
0.0
 10
4.2633229622
 20
4.5702437603
 30
0.0
 10
4.3264569558
 20
4.5679520636
 30
0.0
 10
4.3685384395
 20
4.5664023881
 30
0.0
 11
3.8629875887
 21
4.5838099847
 31
0.0
 11
3.9895212057
 21
4.5797062962
 31
0.0
 11
4.1159542486
 21
4.5754231515
 31
0.0
 11
4.1791345027
 21
4.5732215689
 31
0.0
 11
4.2422914953
 21
4.5709832203
 31
0.0
 11
4.3685384395
 21
4.5664023881
 31
0.0
  0
SPLINE
  5
34F
100
AcDbEntity
  8
0
100
AcDbSpline
 62
6
  6
CONTINUOUS
 70
0
 71
3
 72
16
 73
12
 74
10
 42
0.0000001
 43
0.0000001
 44
0.0000000001
 12
0.0
 22
0.0559909773
 32
0.0
 13
-0.0233300416
 23
0.0508989067
 33
0.0
 40
0.0
 40
0.0
 40
0.0
 40
0.0
 40
0.1279941202
 40
0.2559556133
 40
0.3834351708
 40
0.5099881908
 40
0.5727877698
 40
0.6352036218
 40
0.758753475
 40
0.8804229494
 40
1.0
 40
1.0
 40
1.0
 40
1.0
 10
8.7849555067
 20
4.3498960372
 30
0.0
 10
8.7849555067
 20
4.3522848758
 30
0.0
 10
8.7848325773
 20
4.3570628174
 30
0.0
 10
8.7842852794
 20
4.3642011109
 30
0.0
 10
8.783378998
 20
4.3712757763
 30
0.0
 10
8.7823253104
 20
4.3770973782
 30
0.0
 10
8.7813041428
 20
4.3816845136
 30
0.0
 10
8.7801729456
 20
4.3861879603
 30
0.0
 10
8.7785480756
 20
4.3916981549
 30
0.0
 10
8.7762613841
 20
4.3981146306
 30
0.0
 10
8.7745081654
 20
4.4022651436
 30
0.0
 10
8.7735782528
 20
4.404293924
 30
0.0
 11
8.7849555067
 21
4.3498960372
 31
0.0
 11
8.7847719437
 21
4.3570602018
 31
0.0
 11
8.7842240062
 21
4.3642039077
 31
0.0
 11
8.7833158218
 21
4.3712835993
 31
0.0
 11
8.7820515177
 21
4.3782557212
 31
0.0
 11
8.7812871135
 21
4.3816878368
 31
0.0
 11
8.7804355489
 21
4.3850772228
 31
0.0
 11
8.7784767295
 21
4.391711775
 31
0.0
 11
8.7761869714
 21
4.3981278254
 31
0.0
 11
8.7735782528
 21
4.404293924
 31
0.0
  0
SPLINE
  5
350
100
AcDbEntity
  8
0
100
AcDbSpline
 62
6
  6
CONTINUOUS
 70
0
 71
3
 72
60
 73
56
 74
54
 42
0.0000001
 43
0.0000001
 44
0.0000000001
 12
0.1682563778
 22
-0.7877762844
 32
0.0
 13
-0.5233868949
 23
0.6123461775
 33
0.0
 40
0.0
 40
0.0
 40
0.0
 40
0.0
 40
0.0156166764
 40
0.0312430235
 40
0.0468746024
 40
0.0625071149
 40
0.0781371287
 40
0.0937645769
 40
0.1250099059
 40
0.1562568757
 40
0.1718841147
 40
0.1875114083
 40
0.2031386899
 40
0.2187659247
 40
0.2343930247
 40
0.2500200095
 40
0.2656470827
 40
0.2812742687
 40
0.2969014211
 40
0.3125285061
 40
0.3281556874
 40
0.3437829776
 40
0.3750309838
 40
0.3906582237
 40
0.4062855382
 40
0.4219127546
 40
0.4375398203
 40
0.453166891
 40
0.4687939974
 40
0.5000414718
 40
0.5156687292
 40
0.5312961787
 40
0.5625444373
 40
0.5937932316
 40
0.6250421836
 40
0.6562915434
 40
0.6875395839
 40
0.7031663254
 40
0.7187924491
 40
0.7344178274
 40
0.750042532
 40
0.7656667016
 40
0.7812902963
 40
0.796913391
 40
0.8125362408
 40
0.8281589442
 40
0.8437816379
 40
0.8594046224
 40
0.8750277063
 40
0.8906504539
 40
0.9062726777
 40
0.9375112229
 40
0.9531376799
 40
0.9687661222
 40
1.0
 40
1.0
 40
1.0
 40
1.0
 10
3.3139467743
 20
4.4325169958
 30
0.0
 10
3.3148226428
 20
4.42841618
 30
0.0
 10
3.3164154809
 20
4.4201770248
 30
0.0
 10
3.3183236257
 20
4.4077329439
 30
0.0
 10
3.3197477028
 20
4.3952197197
 30
0.0
 10
3.3206836283
 20
4.3826596289
 30
0.0
 10
3.3211270782
 20
4.3700734163
 30
0.0
 10
3.3210609485
 20
4.3532870617
 30
0.0
 10
3.3197454542
 20
4.3323290066
 30
0.0
 10
3.3167838283
 20
4.3115394494
 30
0.0
 10
3.3134381525
 20
4.2950900332
 30
0.0
 10
3.3104427408
 20
4.2828595992
 30
0.0
 10
3.3069639931
 20
4.2707579407
 30
0.0
 10
3.3030072195
 20
4.258804045
 30
0.0
 10
3.2985785018
 20
4.2470169344
 30
0.0
 10
3.2936838111
 20
4.2354155906
 30
0.0
 10
3.2883288749
 20
4.2240193235
 30
0.0
 10
3.2825220183
 20
4.2128465164
 30
0.0
 10
3.2762723736
 20
4.2019151885
 30
0.0
 10
3.2695890549
 20
4.1912435483
 30
0.0
 10
3.2624806581
 20
4.1808497849
 30
0.0
 10
3.2524533704
 20
4.1673875958
 30
0.0
 10
3.2416179396
 20
4.1545424626
 30
0.0
 10
3.2300329172
 20
4.1423946859
 30
0.0
 10
3.2209791934
 20
4.1336429869
 30
0.0
 10
3.2115771515
 20
4.1252670726
 30
0.0
 10
3.2018414364
 20
4.1172815102
 30
0.0
 10
3.1917865117
 20
4.1097013544
 30
0.0
 10
3.1779797708
 20
4.100154226
 30
0.0
 10
3.1635957949
 20
4.0914639972
 30
0.0
 10
3.1487179136
 20
4.0836898188
 30
0.0
 10
3.1335311634
 20
4.0765364443
 30
0.0
 10
3.1140116534
 20
4.0687810432
 30
0.0
 10
3.0898987682
 20
4.0614570622
 30
0.0
 10
3.0652581383
 20
4.0561662325
 30
0.0
 10
3.0402615536
 20
4.0529616601
 30
0.0
 10
3.0192766706
 20
4.0520499202
 30
0.0
 10
3.0024935222
 20
4.0523877631
 30
0.0
 10
2.9899266423
 20
4.0531739016
 30
0.0
 10
2.9774051509
 20
4.054492185
 30
0.0
 10
2.9649515599
 20
4.0563422504
 30
0.0
 10
2.9525887705
 20
4.0587221257
 30
0.0
 10
2.9403392432
 20
4.0616274313
 30
0.0
 10
2.9282255981
 20
4.0650542704
 30
0.0
 10
2.9162706302
 20
4.0689984751
 30
0.0
 10
2.9044963607
 20
4.0734529047
 30
0.0
 10
2.8929248305
 20
4.0784103849
 30
0.0
 10
2.8815784944
 20
4.083863945
 30
0.0
 10
2.8704789631
 20
4.0898035687
 30
0.0
 10
2.859647181
 20
4.0962188012
 30
0.0
 10
2.845593692
 20
4.1053908163
 30
0.0
 10
2.8321519442
 20
4.1154755112
 30
0.0
 10
2.8194165685
 20
4.1264091211
 30
0.0
 10
2.8071753364
 20
4.1378905723
 30
0.0
 10
2.7985692346
 20
4.1470999484
 30
0.0
 10
2.7931201005
 20
4.1534752636
 30
0.0
 11
3.3139467743
 21
4.4325169958
 31
0.0
 11
3.3163347839
 21
4.4201658043
 31
0.0
 11
3.3182426605
 21
4.4077235141
 31
0.0
 11
3.3196662986
 21
4.3952123209
 31
0.0
 11
3.3206015929
 21
4.3826544205
 31
0.0
 11
3.3210449188
 21
4.3700715587
 31
0.0
 11
3.320995248
 21
4.3574830543
 31
0.0
 11
3.3194162897
 21
4.3323631315
 31
0.0
 11
3.3158663428
 21
4.3074439013
 31
0.0
 11
3.3133571807
 21
4.2951080684
 31
0.0
 11
3.3103621838
 21
4.2828810585
 31
0.0
 11
3.3068843157
 21
4.2707825476
 31
0.0
 11
3.3029285457
 21
4.2588317959
 31
0.0
 11
3.2985008257
 21
4.24704786
 31
0.0
 11
3.293607115
 21
4.2354497951
 31
0.0
 11
3.2882535715
 21
4.2240566007
 31
0.0
 11
3.2824482161
 21
4.2128867555
 31
0.0
 11
3.2762000853
 21
4.201958454
 31
0.0
 11
3.2695182262
 21
4.1912898878
 31
0.0
 11
3.2624118711
 21
4.1808991605
 31
0.0
 11
3.2548920446
 21
4.170803522
 31
0.0
 11
3.2386601067
 21
4.1515645931
 31
0.0
 11
3.2299722549
 21
4.1424547129
 31
0.0
 11
3.2209211152
 21
4.1337055946
 31
0.0
 11
3.2115215003
 21
4.1253320978
 31
0.0
 11
3.2017882321
 21
4.1173490756
 31
0.0
 11
3.1917363133
 21
4.1097712008
 31
0.0
 11
3.1813822301
 21
4.1026116659
 31
0.0
 11
3.15983643
 21
4.0895974767
 31
0.0
 11
3.1486793706
 21
4.0837674625
 31
0.0
 11
3.1372908354
 21
4.0784033033
 31
0.0
 11
3.1138967361
 21
4.0691114497
 31
0.0
 11
3.0898108994
 21
4.061795944
 31
0.0
 11
3.0651988867
 21
4.0565139576
 31
0.0
 11
3.0402304387
 21
4.0533133814
 31
0.0
 11
3.0150823704
 21
4.0522233164
 31
0.0
 11
3.0024968848
 21
4.0524765623
 31
0.0
 11
2.9899339167
 21
4.0532626168
 31
0.0
 11
2.9774162013
 21
4.0545808489
 31
0.0
 11
2.9649664731
 21
4.0564305895
 31
0.0
 11
2.9526074261
 21
4.0588097449
 31
0.0
 11
2.940361703
 21
4.0617144019
 31
0.0
 11
2.9282519431
 21
4.0651405286
 31
0.0
 11
2.9163006925
 21
4.0690835315
 31
0.0
 11
2.9045301536
 21
4.0735367448
 31
0.0
 11
2.8929624494
 21
4.0784930255
 31
0.0
 11
2.8816196548
 21
4.083944943
 31
0.0
 11
2.87052348
 21
4.0898828984
 31
0.0
 11
2.8596954688
 21
4.0962963035
 31
0.0
 11
2.8491570949
 21
4.1031745044
 31
0.0
 11
2.8290294031
 21
4.1182776363
 31
0.0
 11
2.8194786351
 21
4.1264773703
 31
0.0
 11
2.8102962005
 21
4.1350899175
 31
0.0
 11
2.7931201005
 21
4.1534752636
 31
0.0
  0
SPLINE
  5
351
100
AcDbEntity
  8
0
100
AcDbSpline
 62
9
  6
CONTINUOUS
 70
0
 71
3
 72
18
 73
14
 74
12
 42
0.0000001
 43
0.0000001
 44
0.0000000001
 12
0.0851435354
 22
-0.0074214261
 32
0.0
 13
0.06620196
 23
-0.054053674
 33
0.0
 40
0.0
 40
0.0
 40
0.0
 40
0.0
 40
0.0598622532
 40
0.1198765249
 40
0.1800912263
 40
0.2405548016
 40
0.3623926911
 40
0.4857589609
 40
0.5481214384
 40
0.6109753278
 40
0.738261768
 40
0.8678693768
 40
1.0
 40
1.0
 40
1.0
 40
1.0
 10
4.2910756627
 20
4.5994102243
 30
0.0
 10
4.292774624
 20
4.5992621366
 30
0.0
 10
4.2961712472
 20
4.5988965177
 30
0.0
 10
4.3012472771
 20
4.5981413727
 30
0.0
 10
4.306305704
 20
4.5971789106
 30
0.0
 10
4.3130370868
 20
4.5956154677
 30
0.0
 10
4.3213949552
 20
4.5931362814
 30
0.0
 10
4.3295852661
 20
4.5899975555
 30
0.0
 10
4.3360468619
 20
4.5870958751
 30
0.0
 10
4.3424970796
 20
4.5839081639
 30
0.0
 10
4.3504379863
 20
4.5794274873
 30
0.0
 10
4.3596907099
 20
4.5733120811
 30
0.0
 10
4.3656226708
 20
4.5687831033
 30
0.0
 10
4.3685384395
 20
4.5664023881
 30
0.0
 11
4.2910756627
 21
4.5994102243
 31
0.0
 11
4.2961625017
 21
4.5988628086
 31
0.0
 11
4.3012358994
 21
4.5981082599
 31
0.0
 11
4.3062915791
 21
4.5971465784
 31
0.0
 11
4.3113252638
 21
4.5959777641
 31
0.0
 11
4.321309964
 21
4.5930218901
 31
0.0
 11
4.3311576738
 21
4.5892547277
 31
0.0
 11
4.3360201546
 21
4.587072057
 31
0.0
 11
4.3408363847
 21
4.5846927366
 31
0.0
 11
4.3503140883
 21
4.5793523765
 31
0.0
 11
4.3595587761
 21
4.5732501071
 31
0.0
 11
4.3685384395
 21
4.5664023881
 31
0.0
  0
SPLINE
  5
352
100
AcDbEntity
  8
0
100
AcDbSpline
 62
9
  6
CONTINUOUS
 70
0
 71
3
 72
12
 73
8
 74
6
 42
0.0000001
 43
0.0000001
 44
0.0000000001
 12
0.505598036
 22
0.0159951643
 32
0.0
 13
0.5055083354
 23
0.0186156432
 33
0.0
 40
0.0
 40
0.0
 40
0.0
 40
0.0
 40
0.250271617
 40
0.5003562772
 40
0.6253310277
 40
0.7502623745
 40
1.0
 40
1.0
 40
1.0
 40
1.0
 10
3.8629875887
 20
4.1159820897
 30
0.0
 10
3.9051665347
 20
4.1173164682
 30
0.0
 10
3.9894907054
 20
4.1200545207
 30
0.0
 10
4.0948716212
 20
4.1236274919
 30
0.0
 10
4.1791274076
 20
4.1265640211
 30
0.0
 10
4.2633229622
 20
4.129548314
 30
0.0
 10
4.3264569558
 20
4.1318400107
 30
0.0
 10
4.3685384395
 20
4.1333896862
 30
0.0
 11
3.8629875887
 21
4.1159820897
 31
0.0
 11
3.9895212057
 21
4.1200857781
 31
0.0
 11
4.1159542486
 21
4.1243689229
 31
0.0
 11
4.1791345027
 21
4.1265705055
 31
0.0
 11
4.2422914953
 21
4.1288088541
 31
0.0
 11
4.3685384395
 21
4.1333896862
 31
0.0
  0
SPLINE
  5
353
100
AcDbEntity
  8
0
100
AcDbSpline
 62
9
  6
CONTINUOUS
 70
0
 71
3
 72
16
 73
12
 74
10
 42
0.0000001
 43
0.0000001
 44
0.0000000001
 12
-0.0604840458
 22
-0.0362671901
 32
0.0
 13
-0.070513157
 23
-0.001234327
 33
0.0
 40
0.0
 40
0.0
 40
0.0
 40
0.0
 40
0.1298034183
 40
0.2578013356
 40
0.3841807158
 40
0.5091509475
 40
0.5711883936
 40
0.6329636535
 40
0.7558475222
 40
0.8780995867
 40
1.0
 40
1.0
 40
1.0
 40
1.0
 10
4.3491929966
 20
4.1197610358
 30
0.0
 10
4.3465759846
 20
4.1181918341
 30
0.0
 10
4.3412849796
 20
4.1152277357
 30
0.0
 10
4.3331459467
 20
4.1113007402
 30
0.0
 10
4.3248813008
 20
4.1079351851
 30
0.0
 10
4.3178876989
 20
4.1056010726
 30
0.0
 10
4.3122538424
 20
4.1040280029
 30
0.0
 10
4.3066180335
 20
4.1026566002
 30
0.0
 10
4.2995244008
 20
4.101306593
 30
0.0
 10
4.2909520346
 20
4.1002726934
 30
0.0
 10
4.2852148609
 20
4.0999757104
 30
0.0
 10
4.2823496666
 20
4.0999255554
 30
0.0
 11
4.3491929966
 21
4.1197610358
 31
0.0
 11
4.3412046681
 21
4.1152903626
 31
0.0
 11
4.3330729461
 21
4.1113711303
 31
0.0
 11
4.324816941
 21
4.1080131659
 31
0.0
 11
4.3164557628
 21
4.1052262965
 31
0.0
 11
4.3122417058
 21
4.1040500934
 31
0.0
 11
4.3080085301
 21
4.1030202875
 31
0.0
 11
4.2994948505
 21
4.1014012535
 31
0.0
 11
4.2909350869
 21
4.1003696761
 31
0.0
 11
4.2823496666
 21
4.0999255554
 31
0.0
  0
SPLINE
  5
354
100
AcDbEntity
  8
0
100
AcDbSpline
 62
6
  6
CONTINUOUS
 70
0
 71
3
 72
23
 73
19
 74
17
 42
0.0000001
 43
0.0000001
 44
0.0000000001
 12
0.0
 22
-0.2126024163
 32
0.0
 13
-0.1423858686
 23
-0.1578798651
 33
0.0
 40
0.0
 40
0.0
 40
0.0
 40
0.0
 40
0.0665639574
 40
0.1330215693
 40
0.1992682271
 40
0.2651992255
 40
0.3307113232
 40
0.3957043639
 40
0.5237370881
 40
0.5866455377
 40
0.6487039342
 40
0.7098419413
 40
0.769996217
 40
0.7996895454
 40
0.829118605
 40
0.8871680659
 40
0.9441319406
 40
1.0
 40
1.0
 40
1.0
 40
1.0
 10
4.4569267872
 20
4.3498960372
 30
0.0
 10
4.4569267872
 20
4.3451788178
 30
0.0
 10
4.4567362749
 20
4.3357508215
 30
0.0
 10
4.4558843101
 20
4.3216513118
 30
0.0
 10
4.4544718111
 20
4.3076416904
 30
0.0
 10
4.452504407
 20
4.2937669604
 30
0.0
 10
4.4499874628
 20
4.2800711159
 30
0.0
 10
4.44592767
 20
4.2622006838
 30
0.0
 10
4.4407827581
 20
4.2447796964
 30
0.0
 10
4.4345714024
 20
4.2279556255
 30
0.0
 10
4.429447613
 20
4.2157974938
 30
0.0
 10
4.4238481915
 20
4.2040671621
 30
0.0
 10
4.4187769131
 20
4.194639919
 30
0.0
 10
4.4144933409
 20
4.1873518984
 30
0.0
 10
4.4101033281
 20
4.1803026916
 30
0.0
 10
4.4043566872
 20
4.1718254441
 30
0.0
 10
4.3970317618
 20
4.1621750663
 30
0.0
 10
4.3918484601
 20
4.1560797587
 30
0.0
 10
4.3891968527
 20
4.1531396114
 30
0.0
 11
4.4569267872
 21
4.3498960372
 31
0.0
 11
4.4566414171
 21
4.3357472565
 31
0.0
 11
4.4557890364
 21
4.3216439424
 31
0.0
 11
4.4543752396
 21
4.3076308823
 31
0.0
 11
4.4524056212
 21
4.2937528636
 31
0.0
 11
4.4498857754
 21
4.2800546738
 31
0.0
 11
4.4468212968
 21
4.2665811003
 31
0.0
 11
4.4390917039
 21
4.2404815713
 31
0.0
 11
4.4344561338
 21
4.2279361167
 31
0.0
 11
4.4293282501
 21
4.2157796269
 31
0.0
 11
4.4237242061
 21
4.2040516696
 31
0.0
 11
4.4176601553
 21
4.1927918123
 31
0.0
 11
4.4144606823
 21
4.1873497775
 31
0.0
 11
4.4111526783
 21
4.1820391025
 31
0.0
 11
4.404223241
 21
4.1718266382
 31
0.0
 11
4.3968964227
 21
4.162183726
 31
0.0
 11
4.3891968527
 21
4.1531396114
 31
0.0
  0
SPLINE
  5
355
100
AcDbEntity
  8
0
100
AcDbSpline
 62
9
  6
CONTINUOUS
 70
0
 71
3
 72
9
 73
5
 74
3
 42
0.0000001
 43
0.0000001
 44
0.0000000001
 12
-0.0191548377
 22
-0.0212392087
 32
0.0
 13
-0.0221541661
 23
-0.0180888009
 33
0.0
 40
0.0
 40
0.0
 40
0.0
 40
0.0
 40
0.5062368326
 40
1.0
 40
1.0
 40
1.0
 40
1.0
 10
4.3891968527
 20
4.1531396114
 30
0.0
 10
4.3859645579
 20
4.1495555882
 30
0.0
 10
4.3793258078
 20
4.1426999627
 30
0.0
 10
4.3721847433
 20
4.1363668808
 30
0.0
 10
4.3685384395
 20
4.1333896862
 30
0.0
 11
4.3891968527
 21
4.1531396114
 31
0.0
 11
4.3791142672
 21
4.1427483631
 31
0.0
 11
4.3685384395
 21
4.1333896862
 31
0.0
  0
SPLINE
  5
356
100
AcDbEntity
  8
0
100
AcDbSpline
 62
9
  6
CONTINUOUS
 70
0
 71
3
 72
14
 73
10
 74
8
 42
0.0000001
 43
0.0000001
 44
0.0000000001
 12
0.2855731632
 22
-0.0023849146
 32
0.0
 13
0.2855445273
 23
-0.0046949196
 33
0.0
 40
0.0
 40
0.0
 40
0.0
 40
0.0
 40
0.2771284812
 40
0.4110409107
 40
0.5406877898
 40
0.6651995658
 40
0.7837827424
 40
0.8956593883
 40
1.0
 40
1.0
 40
1.0
 40
1.0
 10
3.5846883242
 20
4.5796605023
 30
0.0
 10
3.6110684765
 20
4.579440193
 30
0.0
 10
3.650196091
 20
4.5791373336
 30
0.0
 10
3.7016650161
 20
4.5787431371
 30
0.0
 10
3.7386060319
 20
4.5784491707
 30
0.0
 10
3.7740876359
 20
4.5781424438
 30
0.0
 10
3.8078773106
 20
4.5778097724
 30
0.0
 10
3.8397462815
 20
4.5774380778
 30
0.0
 10
3.8603268648
 20
4.5771419334
 30
0.0
 10
3.8702581617
 20
4.5769786431
 30
0.0
 11
3.5846883242
 21
4.5796605023
 31
0.0
 11
3.6638290553
 21
4.5790332578
 31
0.0
 11
3.7020710459
 21
4.5787380921
 31
0.0
 11
3.739094814
 21
4.5784409565
 31
0.0
 11
3.7746519184
 21
4.5781302768
 31
0.0
 11
3.8085155919
 21
4.57779293
 31
0.0
 11
3.8404634347
 21
4.5774146915
 31
0.0
 11
3.8702581617
 21
4.5769786431
 31
0.0
  0
SPLINE
  5
357
100
AcDbEntity
  8
0
100
AcDbSpline
 62
9
  6
CONTINUOUS
 70
0
 71
3
 72
17
 73
13
 74
11
 42
0.0000001
 43
0.0000001
 44
0.0000000001
 12
-0.020487881
 22
0.2348756155
 32
0.0
 13
-0.1157897049
 23
0.2053753936
 33
0.0
 40
0.0
 40
0.0
 40
0.0
 40
0.0
 40
0.1296610716
 40
0.2585910666
 40
0.3864183847
 40
0.512860764
 40
0.5754873047
 40
0.6376722655
 40
0.7605922897
 40
0.8212874178
 40
0.881435603
 40
1.0
 40
1.0
 40
1.0
 40
1.0
 10
3.9364348586
 20
4.3524223699
 30
0.0
 10
3.9355493651
 20
4.3625737779
 30
0.0
 10
3.9332622267
 20
4.3827775265
 30
0.0
 10
3.9283431567
 20
4.412756618
 30
0.0
 10
3.9220191305
 20
4.4422125986
 30
0.0
 10
3.9155997994
 20
4.4662870361
 30
0.0
 10
3.909801355
 20
4.4851642889
 30
0.0
 10
3.9036119394
 20
4.5036249525
 30
0.0
 10
3.8967562833
 20
4.5216965396
 30
0.0
 10
3.8892184171
 20
4.5393109538
 30
0.0
 10
3.8813152022
 20
4.5563872969
 30
0.0
 10
3.8748343405
 20
4.5688619066
 30
0.0
 10
3.8702581617
 20
4.5769786431
 30
0.0
 11
3.9364348586
 21
4.3524223699
 31
0.0
 11
3.933003163
 21
4.3827990075
 31
0.0
 11
3.9280848289
 21
4.4127959749
 31
0.0
 11
3.9217550568
 21
4.4422612839
 31
0.0
 11
3.9140685333
 21
4.4710642907
 31
0.0
 11
3.9097312593
 21
4.4851781917
 31
0.0
 11
3.9050686412
 21
4.4990782112
 31
0.0
 11
3.8947712843
 21
4.5261676269
 31
0.0
 11
3.8891378319
 21
4.5393220382
 31
0.0
 11
3.8831777655
 21
4.5521897491
 31
0.0
 11
3.8702581617
 21
4.5769786431
 31
0.0
  0
SPLINE
  5
358
100
AcDbEntity
  8
0
100
AcDbSpline
 62
9
  6
CONTINUOUS
 70
0
 71
3
 72
14
 73
10
 74
8
 42
0.0000001
 43
0.0000001
 44
0.0000000001
 12
0.3067774148
 22
-0.0006046957
 32
0.0
 13
0.3067744677
 23
-0.0014744139
 33
0.0
 40
0.0
 40
0.0
 40
0.0
 40
0.0
 40
0.2747758919
 40
0.407449847
 40
0.5360878449
 40
0.6601241113
 40
0.7790867542
 40
0.8925219937
 40
1.0
 40
1.0
 40
1.0
 40
1.0
 10
3.6296577741
 20
4.3531326628
 30
0.0
 10
3.65775612
 20
4.3530772775
 30
0.0
 10
3.6994216139
 20
4.3530075456
 30
0.0
 10
3.7542415282
 20
4.3529180587
 30
0.0
 10
3.7936469213
 20
4.3528489589
 30
0.0
 10
3.8316501869
 20
4.352771506
 30
0.0
 10
3.868098794
 20
4.3526800643
 30
0.0
 10
3.9028541026
 20
4.3525689322
 30
0.0
 10
3.9254443559
 20
4.3524751922
 30
0.0
 10
3.9364348586
 20
4.3524223699
 30
0.0
 11
3.6296577741
 21
4.3531326628
 31
0.0
 11
3.7139528445
 21
4.3529840073
 31
0.0
 11
3.7546542407
 21
4.3529165502
 31
0.0
 11
3.7941174871
 21
4.3528462284
 31
0.0
 11
3.8321690045
 21
4.352767401
 31
0.0
 11
3.8686640089
 21
4.3526743572
 31
0.0
 11
3.9034632624
 21
4.3525613139
 31
0.0
 11
3.9364348586
 21
4.3524223699
 31
0.0
  0
SPLINE
  5
359
100
AcDbEntity
  8
0
100
AcDbSpline
 62
9
  6
CONTINUOUS
 70
0
 71
3
 72
17
 73
13
 74
11
 42
0.0000001
 43
0.0000001
 44
0.0000000001
 12
0.2817785065
 22
-0.0048061923
 32
0.0
 13
0.2816767212
 23
-0.0089694454
 33
0.0
 40
0.0
 40
0.0
 40
0.0
 40
0.0
 40
0.1393770138
 40
0.2763231215
 40
0.4099689695
 40
0.5394524059
 40
0.6639311652
 40
0.782661414
 40
0.8396490885
 40
0.8949300816
 40
0.948411345
 40
1.0
 40
1.0
 40
1.0
 40
1.0
 10
3.581217702
 20
4.5889608375
 30
0.0
 10
3.5943088509
 20
4.5887375465
 30
0.0
 10
3.6202632056
 20
4.58831723
 30
0.0
 10
3.6587712081
 20
4.5877341075
 30
0.0
 10
3.6963501071
 20
4.5871779712
 30
0.0
 10
3.7327577149
 20
4.5866229149
 30
0.0
 10
3.7677635862
 20
4.5860426511
 30
0.0
 10
3.7959589914
 20
4.5855078725
 30
0.0
 10
3.8176538644
 20
4.5850355708
 30
0.0
 10
3.8332199108
 20
4.5846616528
 30
0.0
 10
3.8482778956
 20
4.5842593826
 30
0.0
 10
3.8581437567
 20
4.5839642482
 30
0.0
 10
3.8629875311
 20
4.5838100077
 30
0.0
 11
3.581217702
 21
4.5889608375
 31
0.0
 11
3.620491641
 21
4.5883204744
 31
0.0
 11
3.6590812315
 21
4.5877316505
 31
0.0
 11
3.6967410387
 21
4.5871693392
 31
0.0
 11
3.7332276695
 21
4.5866074995
 31
0.0
 11
3.7683032804
 21
4.5860193995
 31
0.0
 11
3.8017576072
 21
4.5853767693
 31
0.0
 11
3.817814013
 21
4.5850259687
 31
0.0
 11
3.833388749
 21
4.5846504905
 31
0.0
 11
3.8484553952
 21
4.5842464613
 31
0.0
 11
3.8629875311
 21
4.5838100077
 31
0.0
  0
SPLINE
  5
35A
100
AcDbEntity
  8
0
100
AcDbSpline
 62
9
  6
CONTINUOUS
 70
0
 71
3
 72
15
 73
11
 74
9
 42
0.0000001
 43
0.0000001
 44
0.0000000001
 12
-0.0785246084
 22
0.0313907404
 32
0.0
 13
-0.0845664984
 23
0.0000068176
 33
0.0
 40
0.0
 40
0.0
 40
0.0
 40
0.0
 40
0.1253361439
 40
0.2505707808
 40
0.3756954988
 40
0.5007099183
 40
0.6256236213
 40
0.7504579444
 40
0.8752412975
 40
1.0
 40
1.0
 40
1.0
 40
1.0
 10
3.8629875311
 20
4.5838100077
 30
0.0
 10
3.8597068739
 20
4.5851214725
 30
0.0
 10
3.8530871771
 20
4.5875935776
 30
0.0
 10
3.8430022627
 20
4.5908382478
 30
0.0
 10
3.8327856788
 20
4.5936075974
 30
0.0
 10
3.8224587581
 20
4.595890539
 30
0.0
 10
3.8120425392
 20
4.5976764147
 30
0.0
 10
3.8015581845
 20
4.5989533307
 30
0.0
 10
3.7910288685
 20
4.5997195773
 30
0.0
 10
3.7839933964
 20
4.5998902688
 30
0.0
 10
3.7804765942
 20
4.5998905523
 30
0.0
 11
3.8629875311
 21
4.5838100077
 31
0.0
 11
3.8530578602
 21
4.5875175
 31
0.0
 11
3.842975897
 21
4.5907603362
 31
0.0
 11
3.8327628057
 21
4.593527633
 31
0.0
 11
3.8224397506
 21
4.5958085072
 31
0.0
 11
3.8120278956
 21
4.5975920756
 31
0.0
 11
3.8015485365
 21
4.5988684349
 31
0.0
 11
3.7910238956
 21
4.5996345977
 31
0.0
 11
3.7804765942
 21
4.5998905523
 31
0.0
  0
SPLINE
  5
35B
100
AcDbEntity
  8
0
100
AcDbSpline
 62
6
  6
CONTINUOUS
 70
0
 71
3
 72
46
 73
42
 74
40
 42
0.0000001
 43
0.0000001
 44
0.0000000001
 12
0.1501201593
 22
0.1152220081
 32
0.0
 13
-0.0715141178
 23
0.1752081742
 33
0.0
 40
0.0
 40
0.0
 40
0.0
 40
0.0
 40
0.0572099056
 40
0.0858122343
 40
0.1144153003
 40
0.1430220097
 40
0.171635625
 40
0.2288978625
 40
0.2575592877
 40
0.2862495924
 40
0.3149765817
 40
0.3437503228
 40
0.3725835537
 40
0.4014910303
 40
0.4304902322
 40
0.459603741
 40
0.4888593272
 40
0.5182894936
 40
0.5479360496
 40
0.5778515266
 40
0.6080983412
 40
0.6387571051
 40
0.6699280295
 40
0.685743092
 40
0.7017334347
 40
0.7179196348
 40
0.7343237054
 40
0.75096661
 40
0.7678721927
 40
0.7850682456
 40
0.8025858102
 40
0.8204500174
 40
0.8386829039
 40
0.8573109377
 40
0.8763634649
 40
0.895856089
 40
0.9157970085
 40
0.9361974316
 40
0.9570555156
 40
0.9783362703
 40
1.0
 40
1.0
 40
1.0
 40
1.0
 10
4.6218353624
 20
4.3498960372
 30
0.0
 10
4.6246981491
 20
4.3520933172
 30
0.0
 10
4.6289596443
 20
4.3554319979
 30
0.0
 10
4.6345649869
 20
4.3599786637
 30
0.0
 10
4.6387279928
 20
4.3634387331
 30
0.0
 10
4.6428476401
 20
4.3669514533
 30
0.0
 10
4.6482797825
 20
4.3717101765
 30
0.0
 10
4.6536112119
 20
4.3765884018
 30
0.0
 10
4.6588238819
 20
4.3815987357
 30
0.0
 10
4.6626727035
 20
4.3854293338
 30
0.0
 10
4.6664531343
 20
4.3893373625
 30
0.0
 10
4.6701589311
 20
4.3933286243
 30
0.0
 10
4.6737840499
 20
4.3974086233
 30
0.0
 10
4.6773211282
 20
4.4015839555
 30
0.0
 10
4.6807597402
 20
4.405863601
 30
0.0
 10
4.684089679
 20
4.4102560552
 30
0.0
 10
4.6873010163
 20
4.4147695424
 30
0.0
 10
4.6903777842
 20
4.4194164741
 30
0.0
 10
4.6933026416
 20
4.4242095678
 30
0.0
 10
4.6960595245
 20
4.4291605724
 30
0.0
 10
4.698622676
 20
4.4342866116
 30
0.0
 10
4.7009632479
 20
4.4396049935
 30
0.0
 10
4.7026961222
 20
4.4441891074
 30
0.0
 10
4.7039346657
 20
4.4479642287
 30
0.0
 10
4.7047885599
 20
4.4508691843
 30
0.0
 10
4.7055571332
 20
4.4538362897
 30
0.0
 10
4.7062346144
 20
4.4568677706
 30
0.0
 10
4.7068126692
 20
4.4599660221
 30
0.0
 10
4.7072829098
 20
4.4631330478
 30
0.0
 10
4.7076368691
 20
4.4663707447
 30
0.0
 10
4.7078662271
 20
4.4696803318
 30
0.0
 10
4.7079617675
 20
4.4730619896
 30
0.0
 10
4.7079134788
 20
4.4765147848
 30
0.0
 10
4.7077115077
 20
4.4800371678
 30
0.0
 10
4.7073459105
 20
4.4836262895
 30
0.0
 10
4.706808754
 20
4.4872775343
 30
0.0
 10
4.7060928238
 20
4.4909846502
 30
0.0
 10
4.7051906318
 20
4.4947395752
 30
0.0
 10
4.7040975741
 20
4.498531474
 30
0.0
 10
4.7028156732
 20
4.5023477955
 30
0.0
 10
4.7018441749
 20
4.5048775784
 30
0.0
 10
4.701327754
 20
4.5061427992
 30
0.0
 11
4.6218353624
 21
4.3498960372
 31
0.0
 11
4.6303547811
 21
4.3565767401
 31
0.0
 11
4.6345581127
 21
4.3599869746
 31
0.0
 11
4.6387205
 21
4.3634472835
 31
0.0
 11
4.6428394151
 21
4.3669602893
 31
0.0
 11
4.6469118198
 21
4.3705290905
 31
0.0
 11
4.6549017794
 21
4.3778494298
 31
0.0
 11
4.6588115763
 21
4.381608735
 31
0.0
 11
4.6626588527
 21
4.3854397489
 31
0.0
 11
4.6664376348
 21
4.3893480018
 31
0.0
 11
4.6701416881
 21
4.3933392292
 31
0.0
 11
4.6737647567
 21
4.3974191814
 31
0.0
 11
4.6772991635
 21
4.4015946014
 31
0.0
 11
4.6807349451
 21
4.4058738286
 31
0.0
 11
4.6840619314
 21
4.4102653467
 31
0.0
 11
4.6872691935
 21
4.4147780761
 31
0.0
 11
4.6903414335
 21
4.4194234509
 31
0.0
 11
4.6932617934
 21
4.4242138029
 31
0.0
 11
4.6960125333
 21
4.4291618353
 31
0.0
 11
4.6985689587
 21
4.4342831793
 31
0.0
 11
4.7009030729
 21
4.4395948565
 31
0.0
 11
4.7029840103
 21
4.4451144359
 31
0.0
 11
4.7039164796
 21
4.4479583251
 31
0.0
 11
4.7047694046
 21
4.4508616631
 31
0.0
 11
4.7055371267
 21
4.4538269867
 31
0.0
 11
4.7062135067
 21
4.4568567284
 31
0.0
 11
4.7067905966
 21
4.4599529273
 31
0.0
 11
4.7072600229
 21
4.4631175303
 31
0.0
 11
4.7076134122
 21
4.4663524843
 31
0.0
 11
4.7078423363
 21
4.4696596128
 31
0.0
 11
4.7079375552
 21
4.4730389128
 31
0.0
 11
4.707889208
 21
4.4764889846
 31
0.0
 11
4.7076874181
 21
4.480008393
 31
0.0
 11
4.7073224518
 21
4.4835953939
 31
0.0
 11
4.7067860756
 21
4.4872449938
 31
0.0
 11
4.7060709536
 21
4.4909502553
 31
0.0
 11
4.7051697793
 21
4.4947041995
 31
0.0
 11
4.7040779761
 21
4.4984974037
 31
0.0
 11
4.7027966823
 21
4.5023153304
 31
0.0
 11
4.701327754
 21
4.5061427992
 31
0.0
  0
SPLINE
  5
35C
100
AcDbEntity
  8
0
100
AcDbSpline
 62
6
  6
CONTINUOUS
 70
0
 71
3
 72
41
 73
37
 74
35
 42
0.0000001
 43
0.0000001
 44
0.0000000001
 12
-0.0998655476
 22
0.2446196344
 32
0.0
 13
-0.2389555296
 23
0.1127481619
 33
0.0
 40
0.0
 40
0.0
 40
0.0
 40
0.0
 40
0.0157839333
 40
0.0318177296
 40
0.0480566256
 40
0.064455673
 40
0.0809816565
 40
0.097604588
 40
0.1142917113
 40
0.1310155826
 40
0.1644978194
 40
0.1979009972
 40
0.2311399194
 40
0.2476822215
 40
0.2641634869
 40
0.2969403103
 40
0.3294687459
 40
0.361743804
 40
0.3937765187
 40
0.4255778214
 40
0.4571579004
 40
0.4885311682
 40
0.519710378
 40
0.5507069097
 40
0.5815327212
 40
0.6121988894
 40
0.6427153725
 40
0.6730913397
 40
0.7033353926
 40
0.7334555503
 40
0.7634592214
 40
0.8231427519
 40
0.8528350749
 40
0.8824351531
 40
0.9413765406
 40
1.0
 40
1.0
 40
1.0
 40
1.0
 10
4.701327754
 20
4.5061427992
 30
0.0
 10
4.7008023303
 20
4.5074298192
 30
0.0
 10
4.6996880098
 20
4.5100020414
 30
0.0
 10
4.6978520073
 20
4.5138166934
 30
0.0
 10
4.6958472579
 20
4.5176068457
 30
0.0
 10
4.6936830284
 20
4.5213582671
 30
0.0
 10
4.6913724802
 20
4.5250611878
 30
0.0
 10
4.688929147
 20
4.5287083291
 30
0.0
 10
4.6863654036
 20
4.5322932436
 30
0.0
 10
4.6828012947
 20
4.536985231
 30
0.0
 10
4.6781121537
 20
4.5426674371
 30
0.0
 10
4.6721857657
 20
4.5492009331
 30
0.0
 10
4.6670425753
 20
4.5544212093
 30
0.0
 10
4.6628354757
 20
4.5584661011
 30
0.0
 10
4.6585909583
 20
4.5624122078
 30
0.0
 10
4.6531992317
 20
4.5671905557
 30
0.0
 10
4.6466080011
 20
4.5727071207
 30
0.0
 10
4.6399336423
 20
4.578017929
 30
0.0
 10
4.6331922904
 20
4.5831379879
 30
0.0
 10
4.626398557
 20
4.5880848157
 30
0.0
 10
4.6195643577
 20
4.5928749449
 30
0.0
 10
4.6126966438
 20
4.5975196775
 30
0.0
 10
4.6058024729
 20
4.6020317405
 30
0.0
 10
4.5988879549
 20
4.606423186
 30
0.0
 10
4.5919563469
 20
4.610702142
 30
0.0
 10
4.5850109468
 20
4.6148771246
 30
0.0
 10
4.578055149
 20
4.6189569475
 30
0.0
 10
4.5710909334
 20
4.6229481002
 30
0.0
 10
4.5641197657
 20
4.6268561687
 30
0.0
 10
4.5571432157
 20
4.6306869285
 30
0.0
 10
4.5478529451
 20
4.6356902721
 30
0.0
 10
4.5385386883
 20
4.6405688874
 30
0.0
 10
4.5292067279
 20
4.6453350486
 30
0.0
 10
4.5199029075
 20
4.6500121682
 30
0.0
 10
4.5082699324
 20
4.6557285053
 30
0.0
 10
4.4989272382
 20
4.6601928081
 30
0.0
 10
4.4942577716
 20
4.6623960372
 30
0.0
 11
4.701327754
 21
4.5061427992
 31
0.0
 11
4.6996718378
 21
4.5099703776
 31
0.0
 11
4.6978360711
 21
4.5137884118
 31
0.0
 11
4.695830977
 21
4.5175817107
 31
0.0
 11
4.6936672826
 21
4.5213357554
 31
0.0
 11
4.6913572701
 21
4.525041162
 31
0.0
 11
4.6889139391
 21
4.5286909133
 31
0.0
 11
4.6863502806
 21
4.5322780404
 31
0.0
 11
4.6836785726
 21
4.5357976308
 31
0.0
 11
4.6780556552
 21
4.5426274283
 31
0.0
 11
4.6721318676
 21
4.5491698221
 31
0.0
 11
4.6659733437
 21
4.5554310179
 31
0.0
 11
4.6628231935
 21
4.558460939
 31
0.0
 11
4.6596342971
 21
4.5614264224
 31
0.0
 11
4.6531561683
 21
4.5671739584
 31
0.0
 11
4.646568395
 21
4.5726938449
 31
0.0
 11
4.6398972011
 21
4.5780057918
 31
0.0
 11
4.6331590213
 21
4.5831273692
 31
0.0
 11
4.6263680842
 21
4.5880756554
 31
0.0
 11
4.61953625
 21
4.5928662231
 31
0.0
 11
4.6126708744
 21
4.5975117805
 31
0.0
 11
4.6057788067
 21
4.6020247125
 31
0.0
 11
4.5988659811
 21
4.606416416
 31
0.0
 11
4.5919360235
 21
4.6106957955
 31
0.0
 11
4.5849922015
 21
4.6148713683
 31
0.0
 11
4.57803768
 21
4.6189514856
 31
0.0
 11
4.5710746069
 21
4.6229428517
 31
0.0
 11
4.5641045489
 21
4.6268512301
 31
0.0
 11
4.557129066
 21
4.630682373
 31
0.0
 11
4.5501496163
 21
4.6344418098
 31
0.0
 11
4.5361822284
 21
4.6417623753
 31
0.0
 11
4.5291957109
 21
4.6453312848
 31
0.0
 11
4.5222082416
 21
4.648844401
 31
0.0
 11
4.5082323534
 21
4.655715147
 31
0.0
 11
4.4942577716
 21
4.6623960372
 31
0.0
  0
SPLINE
  5
35D
100
AcDbEntity
  8
0
100
AcDbSpline
 62
6
  6
CONTINUOUS
 70
0
 71
3
 72
41
 73
37
 74
35
 42
0.0000001
 43
0.0000001
 44
0.0000000001
 12
0.2389485962
 22
0.1127448905
 32
0.0
 13
0.099883177
 23
0.2446041556
 33
0.0
 40
0.0
 40
0.0
 40
0.0
 40
0.0
 40
0.058623364
 40
0.117564631
 40
0.1471646367
 40
0.1768568865
 40
0.2365402641
 40
0.2665438466
 40
0.2966639091
 40
0.3269078629
 40
0.3572837232
 40
0.3878000854
 40
0.4184661146
 40
0.4492917821
 40
0.480288175
 40
0.5114672187
 40
0.5428402831
 40
0.5744201959
 40
0.6062213161
 40
0.6382537439
 40
0.6705286691
 40
0.7030568603
 40
0.735833353
 40
0.7523146412
 40
0.7688569115
 40
0.8020954108
 40
0.8354988797
 40
0.8689810272
 40
0.8857049941
 40
0.9023925045
 40
0.9190157855
 40
0.9355421552
 40
0.9519417367
 40
0.9681812087
 40
0.9842155474
 40
1.0
 40
1.0
 40
1.0
 40
1.0
 10
4.4942577716
 20
4.0373960372
 30
0.0
 10
4.4989270951
 20
4.0395991988
 30
0.0
 10
4.5082695006
 20
4.0440633648
 30
0.0
 10
4.5199021173
 20
4.0497795208
 30
0.0
 10
4.5292056545
 20
4.0544564787
 30
0.0
 10
4.5385373245
 20
4.0592224826
 30
0.0
 10
4.5478512875
 20
4.064100941
 30
0.0
 10
4.5571412818
 20
4.0691040893
 30
0.0
 10
4.5641176172
 20
4.0729347086
 30
0.0
 10
4.5710885645
 20
4.0768426419
 30
0.0
 10
4.5780525623
 20
4.0808336481
 30
0.0
 10
4.5850081634
 20
4.0849132799
 30
0.0
 10
4.5919533453
 20
4.0890881003
 30
0.0
 10
4.5988847295
 20
4.093366898
 30
0.0
 10
4.6057990504
 20
4.0977581362
 30
0.0
 10
4.6126930353
 20
4.1022699655
 30
0.0
 10
4.6195605222
 20
4.1069145203
 30
0.0
 10
4.6263945318
 20
4.1117044123
 30
0.0
 10
4.6331881185
 20
4.116650933
 30
0.0
 10
4.6399292525
 20
4.1217707852
 30
0.0
 10
4.646603478
 20
4.1270812678
 30
0.0
 10
4.6531945932
 20
4.1325974863
 30
0.0
 10
4.6585861809
 20
4.1373756016
 30
0.0
 10
4.6628306745
 20
4.1413214423
 30
0.0
 10
4.6670377642
 20
4.1453660456
 30
0.0
 10
4.6721809077
 20
4.1505860493
 30
0.0
 10
4.6781073544
 20
4.1571191172
 30
0.0
 10
4.6827966376
 20
4.1628009625
 30
0.0
 10
4.6863608693
 20
4.1674926856
 30
0.0
 10
4.6889247484
 20
4.1710774354
 30
0.0
 10
4.6913682802
 20
4.1747244088
 30
0.0
 10
4.6936790535
 20
4.1784271718
 30
0.0
 10
4.6958435041
 20
4.1821784727
 30
0.0
 10
4.6978485187
 20
4.1859685079
 30
0.0
 10
4.6996848261
 20
4.1897830365
 30
0.0
 10
4.7007993644
 20
4.1923551774
 30
0.0
 10
4.7013248981
 20
4.1936421583
 30
0.0
 11
4.4942577716
 21
4.0373960372
 31
0.0
 11
4.5082319252
 21
4.0440767226
 31
0.0
 11
4.5222073832
 21
4.0509472474
 31
0.0
 11
4.5291946374
 21
4.0544602435
 31
0.0
 11
4.536180938
 21
4.0580290346
 31
0.0
 11
4.5501478935
 21
4.0653493527
 31
0.0
 11
4.5571271322
 21
4.0691086465
 31
0.0
 11
4.5641024003
 21
4.0729396486
 31
0.0
 11
4.5710722397
 21
4.0768478893
 31
0.0
 11
4.5780350987
 21
4.0808391038
 31
0.0
 11
4.5849894167
 21
4.0849190424
 31
0.0
 11
4.5919330221
 21
4.0890944482
 31
0.0
 11
4.5988627606
 21
4.0933736602
 31
0.0
 11
4.6057753893
 21
4.0977651622
 31
0.0
 11
4.6126672627
 21
4.1022778744
 31
0.0
 11
4.6195324188
 21
4.106923231
 31
0.0
 11
4.6263640688
 21
4.1117135633
 31
0.0
 11
4.633154845
 21
4.1166615744
 31
0.0
 11
4.6398928159
 21
4.1217828956
 31
0.0
 11
4.6465638832
 21
4.1270945479
 31
0.0
 11
4.6531515269
 21
4.1326141002
 31
0.0
 11
4.6596295031
 21
4.138361298
 31
0.0
 11
4.6628183982
 21
4.141326606
 31
0.0
 11
4.6659685491
 21
4.1443563314
 31
0.0
 11
4.6721269858
 21
4.1506170988
 31
0.0
 11
4.6780508907
 21
4.1571591447
 31
0.0
 11
4.683673931
 21
4.1639884779
 31
0.0
 11
4.6863457337
 21
4.1675078672
 31
0.0
 11
4.6889095506
 21
4.1710948494
 31
0.0
 11
4.6913530721
 21
4.1747444311
 31
0.0
 11
4.6936632993
 21
4.1784496748
 31
0.0
 11
4.6958272285
 21
4.1822036019
 31
0.0
 11
4.697832592
 21
4.1859967896
 31
0.0
 11
4.6996686604
 21
4.1898147014
 31
0.0
 11
4.7013248981
 21
4.1936421583
 31
0.0
  0
SPLINE
  5
35E
100
AcDbEntity
  8
0
100
AcDbSpline
 62
6
  6
CONTINUOUS
 70
0
 71
3
 72
16
 73
12
 74
10
 42
0.0000001
 43
0.0000001
 44
0.0000000001
 12
0.0
 22
-0.0559909773
 32
0.0
 13
-0.0233300416
 23
-0.0508989067
 33
0.0
 40
0.0
 40
0.0
 40
0.0
 40
0.0
 40
0.1279941202
 40
0.2559556133
 40
0.3834351708
 40
0.5099881908
 40
0.5727877698
 40
0.6352036218
 40
0.758753475
 40
0.8804229494
 40
1.0
 40
1.0
 40
1.0
 40
1.0
 10
8.7849555067
 20
4.3498960372
 30
0.0
 10
8.7849555067
 20
4.3475071986
 30
0.0
 10
8.7848325773
 20
4.3427292569
 30
0.0
 10
8.7842852794
 20
4.3355909635
 30
0.0
 10
8.783378998
 20
4.328516298
 30
0.0
 10
8.7823253104
 20
4.3226946961
 30
0.0
 10
8.7813041428
 20
4.3181075608
 30
0.0
 10
8.7801729456
 20
4.313604114
 30
0.0
 10
8.7785480756
 20
4.3080939195
 30
0.0
 10
8.7762613841
 20
4.3016774438
 30
0.0
 10
8.7745081654
 20
4.2975269308
 30
0.0
 10
8.7735782528
 20
4.2954981504
 30
0.0
 11
8.7849555067
 21
4.3498960372
 31
0.0
 11
8.7847719437
 21
4.3427318726
 31
0.0
 11
8.7842240062
 21
4.3355881667
 31
0.0
 11
8.7833158218
 21
4.328508475
 31
0.0
 11
8.7820515177
 21
4.3215363532
 31
0.0
 11
8.7812871135
 21
4.3181042375
 31
0.0
 11
8.7804355489
 21
4.3147148515
 31
0.0
 11
8.7784767295
 21
4.3080802994
 31
0.0
 11
8.7761869714
 21
4.301664249
 31
0.0
 11
8.7735782528
 21
4.2954981504
 31
0.0
  0
SPLINE
  5
35F
100
AcDbEntity
  8
0
100
AcDbSpline
 62
9
  6
CONTINUOUS
 70
0
 71
3
 72
24
 73
20
 74
18
 42
0.0000001
 43
0.0000001
 44
0.0000000001
 12
-0.0009609831
 22
-0.025931952
 32
0.0
 13
-0.0259497505
 23
-0.0000084465
 33
0.0
 40
0.0
 40
0.0
 40
0.0
 40
0.0
 40
0.072373022
 40
0.1446296016
 40
0.2163388891
 40
0.2870733787
 40
0.3564265395
 40
0.4240441422
 40
0.4897501286
 40
0.5534772913
 40
0.6151918335
 40
0.6749103785
 40
0.7040559286
 40
0.7327432711
 40
0.788812446
 40
0.8433315945
 40
0.8965177383
 40
0.948632305
 40
1.0
 40
1.0
 40
1.0
 40
1.0
 10
8.8710749994
 20
4.1188493181
 30
0.0
 10
8.8710518163
 20
4.1182237268
 30
0.0
 10
8.8709620202
 20
4.1169747548
 30
0.0
 10
8.8707015188
 20
4.1151203005
 30
0.0
 10
8.870319013
 20
4.1133014805
 30
0.0
 10
8.869818367
 20
4.1115376196
 30
0.0
 10
8.8692036318
 20
4.1098476337
 30
0.0
 10
8.8684773074
 20
4.1082499666
 30
0.0
 10
8.8676463106
 20
4.1067595216
 30
0.0
 10
8.8667195103
 20
4.1053876884
 30
0.0
 10
8.8657048818
 20
4.1041455124
 30
0.0
 10
8.8647850778
 20
4.1032198579
 30
0.0
 10
8.8640129519
 20
4.1025575502
 30
0.0
 10
8.8632306463
 20
4.1019579431
 30
0.0
 10
8.8622139904
 20
4.1013062855
 30
0.0
 10
8.8609373491
 20
4.1006847163
 30
0.0
 10
8.8596265883
 20
4.1002340283
 30
0.0
 10
8.8582958817
 20
4.09995915
 30
0.0
 10
8.8573996821
 20
4.0998961823
 30
0.0
 10
8.8569553558
 20
4.0998960377
 30
0.0
 11
8.8710749994
 21
4.1188493181
 31
0.0
 11
8.8709408245
 21
4.1169760552
 31
0.0
 11
8.8706799184
 21
4.1151192557
 31
0.0
 11
8.8702962581
 21
4.1132983978
 31
0.0
 11
8.8697938204
 21
4.1115329595
 31
0.0
 11
8.8691765825
 21
4.1098424188
 31
0.0
 11
8.8684487314
 21
4.1082458398
 31
0.0
 11
8.8676169038
 21
4.1067574607
 31
0.0
 11
8.8666893194
 21
4.1053884011
 31
0.0
 11
8.8656742245
 21
4.104149728
 31
0.0
 11
8.8645798652
 21
4.1030525087
 31
0.0
 11
8.8640055383
 21
4.1025604027
 31
0.0
 11
8.8634145226
 21
4.1021077709
 31
0.0
 11
8.8621885893
 21
4.1013241525
 31
0.0
 11
8.8609157436
 21
4.1007065725
 31
0.0
 11
8.8596099478
 21
4.1002596284
 31
0.0
 11
8.8582851644
 21
4.0999879177
 31
0.0
 11
8.8569553558
 21
4.0998960377
 31
0.0
  0
SPLINE
  5
360
100
AcDbEntity
  8
0
100
AcDbSpline
 62
6
  6
CONTINUOUS
 70
0
 71
3
 72
46
 73
42
 74
40
 42
0.0000001
 43
0.0000001
 44
0.0000000001
 12
0.0715289202
 22
0.1752093563
 32
0.0
 13
-0.1501254652
 23
0.1152260806
 33
0.0
 40
0.0
 40
0.0
 40
0.0
 40
0.0
 40
0.0216642554
 40
0.0429454772
 40
0.0638038765
 40
0.0842045798
 40
0.104145988
 40
0.1236390694
 40
0.1426918399
 40
0.1613203569
 40
0.1795538916
 40
0.1974186082
 40
0.2321258079
 40
0.249031801
 40
0.2656751139
 40
0.2820794306
 40
0.2982657688
 40
0.3142562975
 40
0.3300715667
 40
0.3612427758
 40
0.3919016408
 40
0.4221485981
 40
0.4371444728
 40
0.4520657723
 40
0.4817123221
 40
0.5111424961
 40
0.5403980415
 40
0.5695114747
 40
0.5985106152
 40
0.6274180189
 40
0.6562511399
 40
0.6850247768
 40
0.7137516651
 40
0.7424418556
 40
0.7711031512
 40
0.8283651481
 40
0.8569786431
 40
0.8855852248
 40
0.9141881621
 40
0.9427903612
 40
1.0
 40
1.0
 40
1.0
 40
1.0
 10
4.7013248981
 20
4.1936421583
 30
0.0
 10
4.7018414384
 20
4.1949074184
 30
0.0
 10
4.7028131816
 20
4.1974372766
 30
0.0
 10
4.704095455
 20
4.2012537101
 30
0.0
 10
4.7051888599
 20
4.2050457242
 30
0.0
 10
4.70609137
 20
4.2088007831
 30
0.0
 10
4.7068076519
 20
4.2125080456
 30
0.0
 10
4.7073451481
 20
4.2161594473
 30
0.0
 10
4.7077110204
 20
4.2197487494
 30
0.0
 10
4.7079132514
 20
4.2232713124
 30
0.0
 10
4.7079617839
 20
4.2267243905
 30
0.0
 10
4.707835997
 20
4.2311902053
 30
0.0
 10
4.7074458105
 20
4.2355612026
 30
0.0
 10
4.7068134768
 20
4.2398210587
 30
0.0
 10
4.7062355453
 20
4.2429195715
 30
0.0
 10
4.7055582365
 20
4.2459512393
 30
0.0
 10
4.704789812
 20
4.2489185369
 30
0.0
 10
4.7039359876
 20
4.2518236595
 30
0.0
 10
4.7026974957
 20
4.255598989
 30
0.0
 10
4.7009647676
 20
4.260183393
 30
0.0
 10
4.6986243214
 20
4.2655020474
 30
0.0
 10
4.6964822134
 20
4.2697863477
 30
0.0
 10
4.6946722648
 20
4.2731225436
 30
0.0
 10
4.6928116479
 20
4.2763872346
 30
0.0
 10
4.6903794561
 20
4.2803730006
 30
0.0
 10
4.6873026521
 20
4.2850200929
 30
0.0
 10
4.6840913071
 20
4.2895338189
 30
0.0
 10
4.6807613422
 20
4.2939264812
 30
0.0
 10
4.6773226358
 20
4.2982062843
 30
0.0
 10
4.6737854733
 20
4.3023817774
 30
0.0
 10
4.6701603104
 20
4.3064619713
 30
0.0
 10
4.6664544163
 20
4.3104533788
 30
0.0
 10
4.6626738767
 20
4.3143615415
 30
0.0
 10
4.6588249551
 20
4.3181922802
 30
0.0
 10
4.6536121643
 20
4.3232028132
 30
0.0
 10
4.6482805715
 20
4.3280811932
 30
0.0
 10
4.6428482681
 20
4.3328400729
 30
0.0
 10
4.6387285056
 20
4.3363529163
 30
0.0
 10
4.6345653763
 20
4.3398130986
 30
0.0
 10
4.6289598641
 20
4.3443599077
 30
0.0
 10
4.6246982369
 20
4.3476986897
 30
0.0
 10
4.6218353624
 20
4.3498960372
 30
0.0
 11
4.7013248981
 21
4.1936421583
 31
0.0
 11
4.702794196
 21
4.1974697471
 31
0.0
 11
4.7040758598
 21
4.201287793
 31
0.0
 11
4.7051680066
 21
4.2050811055
 31
0.0
 11
4.706069506
 21
4.2088351665
 31
0.0
 11
4.7067849756
 21
4.212540591
 31
0.0
 11
4.7073216838
 21
4.2161903614
 31
0.0
 11
4.70768693
 21
4.2197775081
 31
0.0
 11
4.70788898
 21
4.223297118
 31
0.0
 11
4.707937582
 21
4.2267474308
 31
0.0
 11
4.7078426097
 21
4.2301269538
 31
0.0
 11
4.707260697
 21
4.2366693847
 31
0.0
 11
4.7067914042
 21
4.2398342004
 31
0.0
 11
4.7062144443
 21
4.2429306154
 31
0.0
 11
4.7055382251
 21
4.245960553
 31
0.0
 11
4.704770645
 21
4.2489260522
 31
0.0
 11
4.703917797
 21
4.251829561
 31
0.0
 11
4.7029853747
 21
4.2546736181
 31
0.0
 11
4.7009045804
 21
4.2601935319
 31
0.0
 11
4.6985705802
 21
4.2655055041
 31
0.0
 11
4.6960141553
 21
4.2706271046
 31
0.0
 11
4.6946613478
 21
4.2731218569
 31
0.0
 11
4.6932634792
 21
4.2755754124
 31
0.0
 11
4.6903431272
 21
4.280366
 31
0.0
 11
4.6872708318
 21
4.285011576
 31
0.0
 11
4.6840635547
 21
4.2895245253
 31
0.0
 11
4.6807365359
 21
4.2939162451
 31
0.0
 11
4.6773006719
 21
4.29819564
 31
0.0
 11
4.6737661849
 21
4.3023712273
 31
0.0
 11
4.6701430585
 21
4.3064513584
 31
0.0
 11
4.6664389148
 21
4.3104427376
 31
0.0
 11
4.6626600264
 21
4.3143511284
 31
0.0
 11
4.6588126502
 21
4.3181822833
 31
0.0
 11
4.6549027588
 21
4.3219417314
 31
0.0
 11
4.6469125686
 21
4.3292623186
 31
0.0
 11
4.6428400435
 21
4.3328312383
 31
0.0
 11
4.6387210113
 21
4.3363443643
 31
0.0
 11
4.6345585013
 21
4.3398047869
 31
0.0
 11
4.6303550424
 21
4.3432151292
 31
0.0
 11
4.6218353624
 21
4.3498960372
 31
0.0
  0
SPLINE
  5
361
100
AcDbEntity
  8
0
100
AcDbSpline
 62
9
  6
CONTINUOUS
 70
0
 71
3
 72
17
 73
13
 74
11
 42
0.0000001
 43
0.0000001
 44
0.0000000001
 12
0.2817788242
 22
0.0048061527
 32
0.0
 13
0.2816770389
 23
0.008969427
 33
0.0
 40
0.0
 40
0.0
 40
0.0
 40
0.0
 40
0.1393768255
 40
0.2763230032
 40
0.4099691769
 40
0.539452947
 40
0.6639316806
 40
0.7826616462
 40
0.8396492184
 40
0.8949301536
 40
0.9484113811
 40
1.0
 40
1.0
 40
1.0
 40
1.0
 10
3.5812173851
 20
4.1108312303
 30
0.0
 10
3.5943085311
 20
4.111054519
 30
0.0
 10
3.6202629038
 20
4.1114748355
 30
0.0
 10
3.6587709691
 20
4.112057966
 30
0.0
 10
3.6963499789
 20
4.112614103
 30
0.0
 10
3.7327576872
 20
4.1131691571
 30
0.0
 10
3.7677636002
 20
4.113749422
 30
0.0
 10
3.7959589984
 20
4.1142842021
 30
0.0
 10
3.8176538542
 20
4.1147565047
 30
0.0
 10
3.8332198996
 20
4.1151304228
 30
0.0
 10
3.8482778891
 20
4.1155326928
 30
0.0
 10
3.8581437546
 20
4.1158278265
 30
0.0
 10
3.8629875311
 20
4.1159820667
 30
0.0
 11
3.5812173851
 21
4.1108312303
 31
0.0
 11
3.6204913153
 21
4.111471592
 31
0.0
 11
3.6590809688
 21
4.1120604213
 31
0.0
 11
3.6967409102
 21
4.1126227345
 31
0.0
 11
3.7332276761
 21
4.1131845738
 31
0.0
 11
3.7683033191
 21
4.1137726744
 31
0.0
 11
3.8017576037
 21
4.1144153054
 31
0.0
 11
3.8178139988
 21
4.1147661066
 31
0.0
 11
3.833388736
 21
4.115141585
 31
0.0
 11
3.848455389
 21
4.115545614
 31
0.0
 11
3.8629875311
 21
4.1159820667
 31
0.0
  0
SPLINE
  5
362
100
AcDbEntity
  8
0
100
AcDbSpline
 62
9
  6
CONTINUOUS
 70
0
 71
3
 72
14
 73
10
 74
8
 42
0.0000001
 43
0.0000001
 44
0.0000000001
 12
0.2855734474
 22
0.002384739
 32
0.0
 13
0.2855448115
 23
0.0046948343
 33
0.0
 40
0.0
 40
0.0
 40
0.0
 40
0.0
 40
0.2771283519
 40
0.4110411192
 40
0.5406883315
 40
0.6652000656
 40
0.7837829539
 40
0.8956594451
 40
1.0
 40
1.0
 40
1.0
 40
1.0
 10
3.5846879502
 20
4.1201315668
 30
0.0
 10
3.6110681165
 20
4.1203518597
 30
0.0
 10
3.6501957893
 20
4.1206547443
 30
0.0
 10
3.701664817
 20
4.1210489415
 30
0.0
 10
3.7386059293
 20
4.1213428989
 30
0.0
 10
3.7740875687
 20
4.1216496262
 30
0.0
 10
3.8078772307
 20
4.1219823022
 30
0.0
 10
3.8397461855
 20
4.1223540004
 30
0.0
 10
3.8603267691
 20
4.1226501424
 30
0.0
 10
3.8702580704
 20
4.1228134296
 30
0.0
 11
3.5846879502
 21
4.1201315668
 31
0.0
 11
3.6638287227
 21
4.1207588173
 31
0.0
 11
3.7020708476
 21
4.1210539848
 31
0.0
 11
3.7390947476
 21
4.1213511149
 31
0.0
 11
3.7746518752
 21
4.1216617942
 31
0.0
 11
3.8085154999
 21
4.1219991444
 31
0.0
 11
3.8404633301
 21
4.1223773854
 31
0.0
 11
3.8702580704
 21
4.1228134296
 31
0.0
  0
SPLINE
  5
363
100
AcDbEntity
  8
0
100
AcDbSpline
 62
9
  6
CONTINUOUS
 70
0
 71
3
 72
14
 73
10
 74
8
 42
0.0000001
 43
0.0000001
 44
0.0000000001
 12
0.306777415
 22
0.0006047049
 32
0.0
 13
0.3067744681
 23
0.0014743736
 33
0.0
 40
0.0
 40
0.0
 40
0.0
 40
0.0
 40
0.2747758921
 40
0.4074498472
 40
0.5360878449
 40
0.6601241112
 40
0.7790867542
 40
0.8925219939
 40
1.0
 40
1.0
 40
1.0
 40
1.0
 10
3.6296577739
 20
4.3466594101
 30
0.0
 10
3.6577561199
 20
4.3467147963
 30
0.0
 10
3.6994216139
 20
4.3467845302
 30
0.0
 10
3.7542415282
 20
4.3468740162
 30
0.0
 10
3.7936469213
 20
4.3469431151
 30
0.0
 10
3.8316501869
 20
4.3470205673
 30
0.0
 10
3.8680987941
 20
4.34711201
 30
0.0
 10
3.9028541027
 20
4.3472231442
 30
0.0
 10
3.925444356
 20
4.3473168836
 30
0.0
 10
3.9364348587
 20
4.3473697045
 30
0.0
 11
3.6296577739
 21
4.3466594101
 31
0.0
 11
3.7139528445
 21
4.346808068
 31
0.0
 11
3.7546542407
 21
4.3468755246
 31
0.0
 11
3.7941174871
 21
4.3469458456
 31
0.0
 11
3.8321690045
 21
4.3470246726
 31
0.0
 11
3.8686640089
 21
4.3471177173
 31
0.0
 11
3.9034632625
 21
4.347230762
 31
0.0
 11
3.9364348587
 21
4.3473697045
 31
0.0
  0
SPLINE
  5
364
100
AcDbEntity
  8
0
100
AcDbSpline
 62
9
  6
CONTINUOUS
 70
0
 71
3
 72
17
 73
13
 74
11
 42
0.0000001
 43
0.0000001
 44
0.0000000001
 12
0.1157897082
 22
0.2053754392
 32
0.0
 13
0.0204878846
 23
0.2348756568
 33
0.0
 40
0.0
 40
0.0
 40
0.0
 40
0.0
 40
0.1185644525
 40
0.1787126828
 40
0.2394078411
 40
0.3623278587
 40
0.4245128008
 40
0.487139323
 40
0.613581678
 40
0.7414089772
 40
0.8703389507
 40
1.0
 40
1.0
 40
1.0
 40
1.0
 10
3.8702580704
 20
4.1228134296
 30
0.0
 10
3.8748342515
 20
4.1309301717
 30
0.0
 10
3.8813151381
 20
4.1434047792
 30
0.0
 10
3.8892183951
 20
4.160481118
 30
0.0
 10
3.8967562942
 20
4.1780955277
 30
0.0
 10
3.9036119533
 20
4.1961671184
 30
0.0
 10
3.9098013606
 20
4.2146277848
 30
0.0
 10
3.9155997959
 20
4.2335050389
 30
0.0
 10
3.9220191264
 20
4.2575794759
 30
0.0
 10
3.9283431575
 20
4.2870354557
 30
0.0
 10
3.9332622276
 20
4.3170145477
 30
0.0
 10
3.9355493651
 20
4.3372182964
 30
0.0
 10
3.9364348587
 20
4.3473697045
 30
0.0
 11
3.8702580704
 21
4.1228134296
 31
0.0
 11
3.8831777117
 21
4.1476023243
 31
0.0
 11
3.8891378093
 21
4.1604700353
 31
0.0
 11
3.8947712862
 21
4.1736244466
 31
0.0
 11
3.9050686528
 21
4.2007138623
 31
0.0
 11
3.9097312649
 21
4.2146138819
 31
0.0
 11
3.9140685325
 21
4.228727783
 31
0.0
 11
3.9217550535
 21
4.25753079
 31
0.0
 11
3.9280848289
 21
4.2869960991
 31
0.0
 11
3.9330031636
 21
4.3169930667
 31
0.0
 11
3.9364348587
 21
4.3473697045
 31
0.0
  0
SPLINE
  5
365
100
AcDbEntity
  8
0
100
AcDbSpline
 62
9
  6
CONTINUOUS
 70
0
 71
3
 72
23
 73
19
 74
17
 42
0.0000001
 43
0.0000001
 44
0.0000000001
 12
-0.0009611752
 22
-0.0259371219
 32
0.0
 13
-0.0259549253
 23
0.000000004
 33
0.0
 40
0.0
 40
0.0
 40
0.0
 40
0.0
 40
0.0726436415
 40
0.1450337147
 40
0.2167373469
 40
0.2873357244
 40
0.3564803477
 40
0.4239683072
 40
0.4896377026
 40
0.5533597634
 40
0.6150685172
 40
0.6747817835
 40
0.7325731262
 40
0.7885858858
 40
0.8430490835
 40
0.8962355916
 40
0.9484411007
 40
1.0
 40
1.0
 40
1.0
 40
1.0
 10
4.828138466
 20
4.1188493181
 30
0.0
 10
4.8281151916
 20
4.1182212624
 30
0.0
 10
4.8280259576
 20
4.1169685226
 30
0.0
 10
4.8277669602
 20
4.1151099938
 30
0.0
 10
4.8273856553
 20
4.113290588
 30
0.0
 10
4.8268847057
 20
4.111529484
 30
0.0
 10
4.826266577
 20
4.1098446938
 30
0.0
 10
4.8255388427
 20
4.1082509536
 30
0.0
 10
4.8247084678
 20
4.1067615272
 30
0.0
 10
4.8237821738
 20
4.1053894415
 30
0.0
 10
4.8227667575
 20
4.1041475527
 30
0.0
 10
4.8216721215
 20
4.1030458342
 30
0.0
 10
4.8205075958
 20
4.1020939392
 30
0.0
 10
4.8192823904
 20
4.1013016388
 30
0.0
 10
4.8180066405
 20
4.1006792318
 30
0.0
 10
4.816694637
 20
4.1002301677
 30
0.0
 10
4.8153606209
 20
4.0999577729
 30
0.0
 10
4.8144617808
 20
4.0998960371
 30
0.0
 10
4.8140157117
 20
4.0998960372
 30
0.0
 11
4.828138466
 21
4.1188493181
 31
0.0
 11
4.8280047083
 21
4.1169686082
 31
0.0
 11
4.8277450078
 21
4.1151077639
 31
0.0
 11
4.8273622635
 21
4.1132864841
 31
0.0
 11
4.826859375
 21
4.1115244672
 31
0.0
 11
4.8262401344
 21
4.1098400425
 31
0.0
 11
4.8255110797
 21
4.1082473281
 31
0.0
 11
4.8246792747
 21
4.106759635
 31
0.0
 11
4.8237517839
 21
4.1053902736
 31
0.0
 11
4.8227362582
 21
4.1041517351
 31
0.0
 11
4.8216420756
 21
4.1030540968
 31
0.0
 11
4.8204789309
 21
4.1021069936
 31
0.0
 11
4.8192565189
 21
4.1013200606
 31
0.0
 11
4.817985324
 21
4.1007017603
 31
0.0
 11
4.8166787446
 21
4.1002562295
 31
0.0
 11
4.8153508506
 21
4.0999866085
 31
0.0
 11
4.8140157117
 21
4.0998960372
 31
0.0
  0
SPLINE
  5
366
100
AcDbEntity
  8
0
100
AcDbSpline
 62
6
  6
CONTINUOUS
 70
0
 71
3
 72
15
 73
11
 74
9
 42
0.0000001
 43
0.0000001
 44
0.0000000001
 12
-0.0853197758
 22
0.0
 32
0.0
 13
-0.0717691501
 23
-0.0461373302
 33
0.0
 40
0.0
 40
0.0
 40
0.0
 40
0.0
 40
0.1215325336
 40
0.2434858449
 40
0.3661334241
 40
0.4897612078
 40
0.6146832171
 40
0.7411970623
 40
0.8695642047
 40
1.0
 40
1.0
 40
1.0
 40
1.0
 10
4.2801500919
 20
4.6248960372
 30
0.0
 10
4.2766937157
 20
4.6248960372
 30
0.0
 10
4.2697661936
 20
4.6246336206
 30
0.0
 10
4.2594106496
 20
4.6234580899
 30
0.0
 10
4.2491124133
 20
4.6215031158
 30
0.0
 10
4.2389051731
 20
4.6187724363
 30
0.0
 10
4.2288179007
 20
4.6152766917
 30
0.0
 10
4.2188786491
 20
4.6110250655
 30
0.0
 10
4.209115863
 20
4.6060301652
 30
0.0
 10
4.2027952625
 20
4.602246562
 30
0.0
 10
4.1996748405
 20
4.6002405755
 30
0.0
 11
4.2801500919
 21
4.6248960372
 31
0.0
 11
4.2697883511
 21
4.6245046889
 31
0.0
 11
4.2594495343
 21
4.6233327245
 31
0.0
 11
4.2491684615
 21
4.6213832727
 31
0.0
 11
4.2389778612
 21
4.6186611871
 31
0.0
 11
4.2289057313
 21
4.6151752242
 31
0.0
 11
4.2189794245
 21
4.6109347361
 31
0.0
 11
4.2092265092
 21
4.6059515092
 31
0.0
 11
4.1996748405
 21
4.6002405755
 31
0.0
  0
LINE
  5
367
100
AcDbEntity
  8
0
100
AcDbLine
 62
6
  6
CONTINUOUS
 10
4.0856959933
 20
4.3499891627
 11
4.0856959933
 21
4.3498029117
  0
SPLINE
  5
368
100
AcDbEntity
  8
0
100
AcDbSpline
 62
6
  6
CONTINUOUS
 70
0
 71
3
 72
15
 73
11
 74
9
 42
0.0000001
 43
0.0000001
 44
0.0000000001
 12
0.0717691501
 22
-0.0461373302
 32
0.0
 13
0.0853197758
 23
0.0
 33
0.0
 40
0.0
 40
0.0
 40
0.0
 40
0.0
 40
0.1304357953
 40
0.2588029377
 40
0.3853167829
 40
0.5102387922
 40
0.6338665759
 40
0.7565141551
 40
0.8784674664
 40
1.0
 40
1.0
 40
1.0
 40
1.0
 10
4.1996748405
 20
4.0995514989
 30
0.0
 10
4.2027952625
 20
4.0975455124
 30
0.0
 10
4.209115863
 20
4.0937619092
 30
0.0
 10
4.2188786491
 20
4.0887670089
 30
0.0
 10
4.2288179007
 20
4.0845153826
 30
0.0
 10
4.2389051731
 20
4.0810196381
 30
0.0
 10
4.2491124133
 20
4.0782889586
 30
0.0
 10
4.2594106496
 20
4.0763339845
 30
0.0
 10
4.2697661936
 20
4.0751584538
 30
0.0
 10
4.2766937157
 20
4.0748960372
 30
0.0
 10
4.2801500919
 20
4.0748960372
 30
0.0
 11
4.1996748405
 21
4.0995514989
 31
0.0
 11
4.2092265092
 21
4.0938405651
 31
0.0
 11
4.2189794245
 21
4.0888573383
 31
0.0
 11
4.2289057313
 21
4.0846168501
 31
0.0
 11
4.2389778612
 21
4.0811308873
 31
0.0
 11
4.2491684615
 21
4.0784088017
 31
0.0
 11
4.2594495343
 21
4.0764593498
 31
0.0
 11
4.2697883511
 21
4.0752873855
 31
0.0
 11
4.2801500919
 21
4.0748960372
 31
0.0
  0
LINE
  5
369
100
AcDbEntity
  8
0
100
AcDbLine
 62
6
  6
CONTINUOUS
 10
9.0422699802
 20
4.3498960372
 11
9.0481230269
 21
4.3498955424
  0
ELLIPSE
  5
36A
100
AcDbEntity
  8
0
100
AcDbEllipse
 62
6
  6
CONTINUOUS
 10
4.7362339658
 20
4.3498960372
 30
0.0
 11
-0.0080456923
 21
0.1088522393
 31
0.0
 40
0.7051752405
 41
3.1130382087
 42
4.6603138603
  0
ELLIPSE
  5
36B
100
AcDbEntity
  8
0
100
AcDbEllipse
 62
6
  6
CONTINUOUS
 10
6.5148287517
 20
4.3414231504
 30
0.0
 11
0.0141948298
 21
0.1924138653
 31
0.0
 40
0.7044967497
 41
-1.4748811062
 42
-1.082166106
  0
ELLIPSE
  5
36C
100
AcDbEntity
  8
0
100
AcDbEllipse
 62
6
  6
CONTINUOUS
 10
7.2219355329
 20
4.3414231504
 30
0.0
 11
0.0141948298
 21
0.1924138653
 31
0.0
 40
0.7044967497
 41
-1.4748811062
 42
-1.082166106
  0
ELLIPSE
  5
36D
100
AcDbEntity
  8
0
100
AcDbEllipse
 62
6
  6
CONTINUOUS
 10
7.9290423141
 20
4.3414231504
 30
0.0
 11
0.0141948298
 21
0.1924138653
 31
0.0
 40
0.7044967497
 41
-1.4748811062
 42
-1.082166106
  0
ELLIPSE
  5
36E
100
AcDbEntity
  8
0
100
AcDbEllipse
 62
6
  6
CONTINUOUS
 10
8.6361490953
 20
4.3414231504
 30
0.0
 11
0.0141948298
 21
0.1924138653
 31
0.0
 40
0.7044967497
 41
-1.4748811062
 42
-1.082166106
  0
ELLIPSE
  5
36F
100
AcDbEntity
  8
0
100
AcDbEllipse
 62
6
  6
CONTINUOUS
 10
4.7362339658
 20
4.3498960372
 30
0.0
 11
0.0080456923
 21
0.1088522393
 31
0.0
 40
0.7051752405
 41
4.7644641004
 42
6.3102596987
  0
ELLIPSE
  5
370
100
AcDbEntity
  8
0
100
AcDbEllipse
 62
6
  6
CONTINUOUS
 10
6.5148287517
 20
4.358368924
 30
0.0
 11
-0.0141948298
 21
0.1924138653
 31
0.0
 40
0.7044967497
 41
-2.0594308235
 42
-1.6667115474
  0
ELLIPSE
  5
371
100
AcDbEntity
  8
0
100
AcDbEllipse
 62
6
  6
CONTINUOUS
 10
7.2219355329
 20
4.358368924
 30
0.0
 11
-0.0141948298
 21
0.1924138653
 31
0.0
 40
0.7044967497
 41
-2.0594308235
 42
-1.6667115474
  0
ELLIPSE
  5
372
100
AcDbEntity
  8
0
100
AcDbEllipse
 62
6
  6
CONTINUOUS
 10
7.9290423141
 20
4.358368924
 30
0.0
 11
-0.0141948298
 21
0.1924138653
 31
0.0
 40
0.7044967497
 41
-2.0594308235
 42
-1.6667115474
  0
ELLIPSE
  5
373
100
AcDbEntity
  8
0
100
AcDbEllipse
 62
6
  6
CONTINUOUS
 10
8.6361490953
 20
4.358368924
 30
0.0
 11
-0.0141948298
 21
0.1924138653
 31
0.0
 40
0.7044967497
 41
-2.0594308235
 42
-1.6667115474
  0
ELLIPSE
  5
374
100
AcDbEntity
  8
0
100
AcDbEllipse
 62
6
  6
CONTINUOUS
 10
7.0213163092
 20
4.5798960372
 30
0.0
 11
0.0282842712
 21
0.0
 31
-0.0
 40
0.7071067812
 41
0.0523598776
 42
1.5707963268
  0
ELLIPSE
  5
375
100
AcDbEntity
  8
0
100
AcDbEllipse
 62
6
  6
CONTINUOUS
 10
7.7284230904
 20
4.5798960372
 30
0.0
 11
0.0282842712
 21
0.0
 31
-0.0
 40
0.7071067812
 41
0.0523598776
 42
1.5707963268
  0
ELLIPSE
  5
376
100
AcDbEntity
  8
0
100
AcDbEllipse
 62
6
  6
CONTINUOUS
 10
6.6710202183
 20
4.3414231504
 30
0.0
 11
-0.0141948298
 21
0.1924138653
 31
0.0
 40
0.7044967497
 41
-1.5787324792
 42
1.4748811062
  0
ELLIPSE
  5
377
100
AcDbEntity
  8
0
100
AcDbEllipse
 62
6
  6
CONTINUOUS
 10
8.4355298715
 20
4.5798960372
 30
0.0
 11
0.0282842712
 21
0.0
 31
-0.0
 40
0.7071067812
 41
0.0523598776
 42
1.5707963268
  0
ELLIPSE
  5
378
100
AcDbEntity
  8
0
100
AcDbEllipse
 62
6
  6
CONTINUOUS
 10
8.7923405619
 20
4.3414231504
 30
0.0
 11
-0.0141948298
 21
0.1924138653
 31
0.0
 40
0.7044967497
 41
-1.5787324792
 42
1.4748811062
  0
ELLIPSE
  5
379
100
AcDbEntity
  8
0
100
AcDbEllipse
 62
6
  6
CONTINUOUS
 10
7.3781269995
 20
4.358368924
 30
0.0
 11
0.0141948298
 21
0.1924138653
 31
0.0
 40
0.7044967497
 41
1.6667115474
 42
4.7203251328
  0
ELLIPSE
  5
37A
100
AcDbEntity
  8
0
100
AcDbEllipse
 62
6
  6
CONTINUOUS
 10
8.0852337807
 20
4.3414231504
 30
0.0
 11
-0.0141948298
 21
0.1924138653
 31
0.0
 40
0.7044967497
 41
-1.5787324792
 42
1.4748811062
  0
ELLIPSE
  5
37B
100
AcDbEntity
  8
0
100
AcDbEllipse
 62
6
  6
CONTINUOUS
 10
6.6710202183
 20
4.358368924
 30
0.0
 11
0.0141948298
 21
0.1924138653
 31
0.0
 40
0.7044967497
 41
1.6667115474
 42
4.7203251328
  0
ELLIPSE
  5
37C
100
AcDbEntity
  8
0
100
AcDbEllipse
 62
6
  6
CONTINUOUS
 10
8.0852337807
 20
4.358368924
 30
0.0
 11
0.0141948298
 21
0.1924138653
 31
0.0
 40
0.7044967497
 41
1.6667115474
 42
4.7203251328
  0
ELLIPSE
  5
37D
100
AcDbEntity
  8
0
100
AcDbEllipse
 62
6
  6
CONTINUOUS
 10
8.7923405619
 20
4.358368924
 30
0.0
 11
0.0141948298
 21
0.1924138653
 31
0.0
 40
0.7044967497
 41
1.6667115474
 42
4.7203251328
  0
ELLIPSE
  5
37E
100
AcDbEntity
  8
0
100
AcDbEllipse
 62
6
  6
CONTINUOUS
 10
7.3781269995
 20
4.3414231504
 30
0.0
 11
-0.0141948298
 21
0.1924138653
 31
0.0
 40
0.7044967497
 41
-1.5787324792
 42
1.4748811062
  0
ELLIPSE
  5
37F
100
AcDbEntity
  8
0
100
AcDbEllipse
 62
6
  6
CONTINUOUS
 10
7.0213163092
 20
4.1198960372
 30
0.0
 11
0.0282842712
 21
-0.0
 31
0.0
 40
0.7071067812
 41
-1.5707963268
 42
-0.0523598776
  0
ELLIPSE
  5
380
100
AcDbEntity
  8
0
100
AcDbEllipse
 62
6
  6
CONTINUOUS
 10
7.7284230904
 20
4.1198960372
 30
0.0
 11
0.0282842712
 21
0.0
 31
0.0
 40
0.7071067812
 41
-1.5707963268
 42
-0.0523598776
  0
ELLIPSE
  5
381
100
AcDbEntity
  8
0
100
AcDbEllipse
 62
6
  6
CONTINUOUS
 10
8.4355298715
 20
4.1198960372
 30
0.0
 11
0.0282842712
 21
0.0
 31
0.0
 40
0.7071067812
 41
-1.5707963268
 42
-0.0523598776
  0
ENDSEC
  0
SECTION
  2
OBJECTS
  0
DICTIONARY
  5
C
100
AcDbDictionary
280
0
281
1
  3
ACAD_GROUP
350
D
  3
ACAD_MLINESTYLE
350
17
  3
ACAD_LAYOUT
350
1A
  3
ACAD_PLOTSETTINGS
350
19
  3
ACAD_PLOTSTYLENAME
350
E
  0
DICTIONARY
  5
D
102
{ACAD_REACTORS
330
C
102
}
100
AcDbDictionary
280
0
281
1
  0
ACDBDICTIONARYWDFLT
  5
E
102
{ACAD_REACTORS
330
C
102
}
100
AcDbDictionary
281
1
  3
Normal
350
F
100
AcDbDictionaryWithDefault
340
F
  0
DICTIONARY
  5
17
102
{ACAD_REACTORS
330
C
102
}
100
AcDbDictionary
280
0
281
1
  3
Standard
350
18
  0
DICTIONARY
  5
19
102
{ACAD_REACTORS
330
C
102
}
100
AcDbDictionary
281
1
  0
DICTIONARY
  5
1A
102
{ACAD_REACTORS
330
C
102
}
100
AcDbDictionary
281
1
  3
Model
350
382
  3
Layout1
350
383
  0
ACDBPLACEHOLDER
  5
F
102
{ACAD_REACTORS
330
E
102
}
  0
MLINESTYLE
  5
18
102
{ACAD_REACTORS
330
17
102
}
100
AcDbMlineStyle
  2
STANDARD
 70
0
  3

 62
256
 51
90.0
 52
90.0
 71
2
 49
0.5
 62
256
  6
BYLAYER
 49
-0.5
 62
256
  6
BYLAYER
  0
LAYOUT
  5
382
102
{ACAD_REACTORS
330
1A
102
}
100
AcDbPlotSettings
  1

  2
none_device
  4
ANSI_A_(11.00_x_8.50_Inches)
  6

 40
0.0
 41
0.0
 42
0.0
 43
0.0
 44
279.4
 45
215.9
 46
0.0
 47
0.0
 48
0.0
 49
0.0
140
0.0
141
0.0
142
1.0
143
1.0
 70
1024
 72
0
 73
0
 74
0
  7

 75
0
147
1.0
148
0.0
149
0.0
100
AcDbLayout
  1
Model
 70
0
 71
0
 10
0.0
 20
0.0
 11
11.0
 21
8.5
 12
0.0
 22
0.0
 32
0.0
 14
0.0
 24
0.0
 34
0.0
 15
0.0
 25
0.0
 35
0.0
146
0.0
 13
0.0
 23
0.0
 33
0.0
 16
1.0
 26
0.0
 36
0.0
 17
0.0
 27
1.0
 37
0.0
 76
0
330
203
345
0
346
0
  0
LAYOUT
  5
383
102
{ACAD_REACTORS
330
1A
102
}
100
AcDbPlotSettings
  1

  2
none_device
  4
ANSI_A_(11.00_x_8.50_Inches)
  6

 40
0.0
 41
0.0
 42
0.0
 43
0.0
 44
279.4
 45
215.9
 46
0.0
 47
0.0
 48
0.0
 49
0.0
140
0.0
141
0.0
142
1.0
143
1.0
 70
0
 72
0
 73
0
 74
0
  7

 75
0
147
1.0
148
0.0
149
0.0
100
AcDbLayout
  1
Layout1
 70
0
 71
1
 10
0.0
 20
0.0
 11
11.0
 21
8.5
 12
0.0
 22
0.0
 32
0.0
 14
0.0
 24
0.0
 34
0.0
 15
0.0
 25
0.0
 35
0.0
146
0.0
 13
0.0
 23
0.0
 33
0.0
 16
1.0
 26
0.0
 36
0.0
 17
0.0
 27
1.0
 37
0.0
 76
0
330
204
345
0
346
0
  0
ENDSEC
  0
EOF
