  0
SECTION
  2
HEADER
  9
$ACADVER
  1
AC1015
  9
$DWGCODEPAGE
  3
ANSI_1252
  9
$EXTMAX
 10
11.6929133858
 20
8.2677165354
 30
0.0
  9
$EXTMIN
 10
0.0
 20
0.0
 30
0.0
  9
$LIMMIN
 10
0.0
 20
0.0
  9
$LIMMAX
 10
11.6929133858
 20
8.2677165354
  9
$VIEWCTR
 10
5.8464566929
 20
4.1338582677
  9
$VIEWSIZE
 40
8.2677165354
  9
$CLAYER
  8
0
  9
$LTSCALE
 40
0.6431102362
  9
$CELTYPE
  6
BYLAYER
  9
$DIMSCALE
 40
1.0
  9
$DIMASZ
 40
0.1875
  9
$DIMEXO
 40
0.0730807087
  9
$DIMDLI
 40
0.4443307087
  9
$DIMEXE
 40
0.2104724409
  9
$DIMCEN
 40
0.1052362205
  9
$DIMLFAC
 40
1.0
  9
$DIMBLK
  1
_CLOSED
  9
$DIMTXT
 40
0.15625
  9
$DIMTOL
 70
0
  9
$DIMLIM
 70
0
  9
$DIMTFAC
 40
1.0
  9
$PDMODE
 70
3
  9
$PDSIZE
 40
0.3125
  9
$HANDSEED
  5
487
  9
$TILEMODE
 70
1
  9
$MEASUREMENT
 70
0
  9
$INSUNITS
 70
1
  0
ENDSEC
  0
SECTION
  2
CLASSES
  0
CLASS
  1
ACDBDICTIONARYWDFLT
  2
AcDbDictionaryWithDefault
  3
AutoCAD 2000
 90
0
280
0
281
0
  0
CLASS
  1
ACDBPLACEHOLDER
  2
AcDbPlaceHolder
  3
AutoCAD 2000
 90
0
280
0
281
0
  0
CLASS
  1
LAYOUT
  2
AcDbLayout
  3
AutoCAD 2000
 90
0
280
0
281
0
  0
ENDSEC
  0
SECTION
  2
TABLES
  0
TABLE
  2
VPORT
  5
8
100
AcDbSymbolTable
 70
2
  0
VPORT
  5
1F4
100
AcDbSymbolTableRecord
100
AcDbViewportTableRecord
  2
*ACTIVE
 70
0
 10
0.0
 20
0.0
 11
1.0
 21
1.0
 12
5.8464566929
 22
4.1338582677
 13
0.0
 23
0.0
 14
1.0
 24
1.0
 15
0.0
 25
0.0
 16
0.0
 26
0.0
 36
1.0
 17
0.0
 27
0.0
 37
0.0
 40
8.2677165354
 41
1.4142857143
 42
50.0
 43
0.0
 44
0.0
 50
0.0
 51
0.0
 71
0
 72
100
 73
1
 74
1
 75
0
 76
0
 77
0
 78
0
  0
ENDTAB
  0
TABLE
  2
LTYPE
  5
5
100
AcDbSymbolTable
 70
6
  0
LTYPE
  5
14
100
AcDbSymbolTableRecord
100
AcDbLinetypeTableRecord
  2
BYBLOCK
 70
0
  3

 72
65
 73
0
 40
0.0
  0
LTYPE
  5
15
100
AcDbSymbolTableRecord
100
AcDbLinetypeTableRecord
  2
BYLAYER
 70
0
  3

 72
65
 73
0
 40
0.0
  0
LTYPE
  5
16
100
AcDbSymbolTableRecord
100
AcDbLinetypeTableRecord
  2
CONTINUOUS
 70
64
  3
Solid line
 72
65
 73
0
 40
0.0
  0
LTYPE
  5
1F5
100
AcDbSymbolTableRecord
100
AcDbLinetypeTableRecord
  2
CENTER
 70
64
  3
____ _ ____ _ ____ _ ____ _ ____ _ ____ _ ____
 72
65
 73
4
 40
0.6
 49
0.375
 74
0
 49
-0.075
 74
0
 49
0.075
 74
0
 49
-0.075
 74
0
  0
LTYPE
  5
1F6
100
AcDbSymbolTableRecord
100
AcDbLinetypeTableRecord
  2
HIDDEN
 70
64
  3
- - - - - - - - - - - - - - - - - - - -
 72
65
 73
2
 40
0.2
 49
0.1
 74
0
 49
-0.1
 74
0
  0
LTYPE
  5
1F7
100
AcDbSymbolTableRecord
100
AcDbLinetypeTableRecord
  2
PHANTOM
 70
64
  3
_____ _ _ _____ _ _ _____ _ _ _____
 72
65
 73
6
 40
0.8
 49
0.45
 74
0
 49
-0.05
 74
0
 49
0.1
 74
0
 49
-0.05
 74
0
 49
0.1
 74
0
 49
-0.05
 74
0
  0
LTYPE
  5
1F8
100
AcDbSymbolTableRecord
100
AcDbLinetypeTableRecord
  2
DOT
 70
64
  3
. . . . . . . . . . . . . . . . . . . .
 72
65
 73
2
 40
0.2
 49
0.1
 74
0
 49
-0.1
 74
0
  0
LTYPE
  5
1F9
100
AcDbSymbolTableRecord
100
AcDbLinetypeTableRecord
  2
DASHED
 70
64
  3
- - - - - - - - - - - - - - - - - - - -
 72
65
 73
2
 40
0.2
 49
0.1
 74
0
 49
-0.1
 74
0
  0
ENDTAB
  0
TABLE
  2
LAYER
  5
2
100
AcDbSymbolTable
 70
36
  0
LAYER
  5
10
100
AcDbSymbolTableRecord
100
AcDbLayerTableRecord
  2
0
 70
0
 62
7
  6
CONTINUOUS
370
-3
390
F
  0
LAYER
  5
1FA
100
AcDbSymbolTableRecord
100
AcDbLayerTableRecord
  2
DEFAULT_1
 70
0
 62
7
  6
CENTER
370
-3
390
F
  0
LAYER
  5
1FB
100
AcDbSymbolTableRecord
100
AcDbLayerTableRecord
  2
DEFAULT_2
 70
0
 62
8
  6
HIDDEN
370
-3
390
F
  0
LAYER
  5
1FC
100
AcDbSymbolTableRecord
100
AcDbLayerTableRecord
  2
DEFAULT_3
 70
0
 62
7
  6
PHANTOM
370
-3
390
F
  0
LAYER
  5
1FD
100
AcDbSymbolTableRecord
100
AcDbLayerTableRecord
  2
DEFAULT_COORDINATE_SYSTEM
 70
0
 62
7
  6
CONTINUOUS
370
-3
390
F
  0
LAYER
  5
1FE
100
AcDbSymbolTableRecord
100
AcDbLayerTableRecord
  2
DEFAULT_DATUM_AXES
 70
0
 62
7
  6
CONTINUOUS
370
-3
390
F
  0
LAYER
  5
1FF
100
AcDbSymbolTableRecord
100
AcDbLayerTableRecord
  2
DEFAULT_DATUM_CURVES
 70
0
 62
7
  6
CONTINUOUS
370
-3
390
F
  0
LAYER
  5
200
100
AcDbSymbolTableRecord
100
AcDbLayerTableRecord
  2
DEFAULT_DATUM_PLANES
 70
0
 62
7
  6
CONTINUOUS
370
-3
390
F
  0
ENDTAB
  0
TABLE
  2
STYLE
  5
3
100
AcDbSymbolTable
 70
1
  0
STYLE
  5
11
100
AcDbSymbolTableRecord
100
AcDbTextStyleTableRecord
  2
STANDARD
 70
0
 40
0.0
 41
0.8
 50
0.0
 71
0
 42
0.2
  3
txt
  4

  0
STYLE
  5
201
100
AcDbSymbolTableRecord
100
AcDbTextStyleTableRecord
  2
TEXTSTYLE_1
 70
0
 40
0.0
 41
0.8
 50
0.0
 71
0
 42
0.2
  3
gdt
  4

  0
ENDTAB
  0
TABLE
  2
VIEW
  5
6
100
AcDbSymbolTable
 70
0
  0
ENDTAB
  0
TABLE
  2
UCS
  5
7
100
AcDbSymbolTable
 70
0
  0
ENDTAB
  0
TABLE
  2
APPID
  5
9
100
AcDbSymbolTable
 70
1
  0
APPID
  5
202
100
AcDbSymbolTableRecord
100
AcDbRegAppTableRecord
  2
ACAD
 70
0
  0
ENDTAB
  0
TABLE
  2
BLOCK_RECORD
  5
1
100
AcDbSymbolTable
 70
0
  0
BLOCK_RECORD
  5
203
100
AcDbSymbolTableRecord
100
AcDbBlockTableRecord
  2
*Model_Space
  0
BLOCK_RECORD
  5
204
100
AcDbSymbolTableRecord
100
AcDbBlockTableRecord
  2
*Paper_Space
  0
ENDTAB
  0
TABLE
  2
DIMSTYLE
  5
A
100
AcDbSymbolTable
 70
1
100
AcDbDimStyleTable
 71
0
  0
DIMSTYLE
105
205
100
AcDbSymbolTableRecord
100
AcDbDimStyleTableRecord
  2
STANDARD
 70
0
  3

  4

 40
1.0
 41
0.1875
 42
0.0625
 43
0.38
 44
0.18
 45
0.0
 46
0.0
 47
0.01
 48
0.01
140
0.15625
141
0.09
142
0.0
143
25.4
144
1.0
145
0.0
146
1.0
147
0.09
 71
0.0
 72
0.0
 73
1
 74
1
 75
0
 76
0
 77
0
 78
4
170
0
171
2
172
0
173
0
174
0
175
0
176
0
177
0
178
0
270
2
271
2
272
2
273
2
274
2
275
0
280
0
281
0
282
0
283
1
284
4
285
0
286
0
287
3
288
0
340
11
  0
ENDTAB
  0
ENDSEC
  0
SECTION
  2
BLOCKS
  0
BLOCK
  5
20
100
AcDbEntity
  8
0
100
AcDbBlockBegin
  2
*Model_Space
 70
0
 10
0.0
 20
0.0
 30
0.0
  3
*Model_Space
  1

  0
ENDBLK
  5
21
100
AcDbEntity
  8
0
100
AcDbBlockEnd
  0
BLOCK
  5
1C
100
AcDbEntity
  8
0
100
AcDbBlockBegin
  2
*Paper_Space
 70
0
 10
0.0
 20
0.0
 30
0.0
  3
*Paper_Space
  1

  0
ENDBLK
  5
1D
100
AcDbEntity
  8
0
100
AcDbBlockEnd
  0
ENDSEC
  0
SECTION
  2
ENTITIES
  0
LINE
  5
206
100
AcDbEntity
  8
0
100
AcDbLine
 62
9
  6
CONTINUOUS
 10
1.613937044
 20
5.8135506452
 11
1.613937044
 21
6.2039727906
  0
LINE
  5
207
100
AcDbEntity
  8
0
100
AcDbLine
 62
9
  6
CONTINUOUS
 10
1.74214469
 20
5.7802296078
 11
1.74214469
 21
6.237293828
  0
LINE
  5
208
100
AcDbEntity
  8
0
100
AcDbLine
 62
9
  6
CONTINUOUS
 10
1.7898373541
 20
5.7741178226
 11
1.7898373541
 21
6.2434056133
  0
LINE
  5
209
100
AcDbEntity
  8
0
100
AcDbLine
 62
9
  6
CONTINUOUS
 10
2.1386774405
 20
5.6374538788
 11
2.1386774405
 21
6.380069557
  0
LINE
  5
20A
100
AcDbEntity
  8
0
100
AcDbLine
 62
9
  6
CONTINUOUS
 10
2.6034099772
 20
5.7651857383
 11
2.6034099772
 21
6.2523376975
  0
LINE
  5
20B
100
AcDbEntity
  8
0
100
AcDbLine
 62
6
  6
CONTINUOUS
 10
6.5878027236
 20
1.1637695657
 11
6.5721277666
 21
1.1602332917
  0
LINE
  5
20C
100
AcDbEntity
  8
0
100
AcDbLine
 62
6
  6
CONTINUOUS
 10
5.7285885785
 20
0.9699306498
 11
5.7079614976
 21
0.9652771754
  0
LINE
  5
20D
100
AcDbEntity
  8
0
100
AcDbLine
 62
6
  6
CONTINUOUS
 10
6.5615253959
 20
1.124822338
 11
6.5438918384
 21
1.1221978882
  0
LINE
  5
20E
100
AcDbEntity
  8
0
100
AcDbLine
 62
6
  6
CONTINUOUS
 10
5.6887754524
 20
0.9949286164
 11
5.6678234187
 21
0.9918102689
  0
LINE
  5
20F
100
AcDbEntity
  8
0
100
AcDbLine
 62
6
  6
CONTINUOUS
 10
6.5615253959
 20
1.1470536474
 11
6.5405733622
 21
1.1439352998
  0
LINE
  5
210
100
AcDbEntity
  8
0
100
AcDbLine
 62
6
  6
CONTINUOUS
 10
5.6887754524
 20
1.0171599257
 11
5.6678234187
 21
1.0140415782
  0
LINE
  5
211
100
AcDbEntity
  8
0
100
AcDbLine
 62
6
  6
CONTINUOUS
 10
6.5320771961
 20
1.0879325316
 11
6.5127582032
 21
1.0865037875
  0
LINE
  5
212
100
AcDbEntity
  8
0
100
AcDbLine
 62
6
  6
CONTINUOUS
 10
5.6511722477
 20
1.0227848422
 11
5.6300244375
 21
1.0212208471
  0
LINE
  5
213
100
AcDbEntity
  8
0
100
AcDbLine
 62
6
  6
CONTINUOUS
 10
6.5320771961
 20
1.1101638409
 11
6.5109293859
 21
1.1085998459
  0
LINE
  5
214
100
AcDbEntity
  8
0
100
AcDbLine
 62
6
  6
CONTINUOUS
 10
5.6511722477
 20
1.0450161515
 11
5.6300244375
 21
1.0434521565
  0
LINE
  5
215
100
AcDbEntity
  8
0
100
AcDbLine
 62
6
  6
CONTINUOUS
 10
6.4996396821
 20
1.0533275843
 11
6.4784264787
 21
1.0533275843
  0
LINE
  5
216
100
AcDbEntity
  8
0
100
AcDbLine
 62
6
  6
CONTINUOUS
 10
5.6160108007
 20
1.0533275843
 11
5.5947975973
 21
1.0533275843
  0
LINE
  5
217
100
AcDbEntity
  8
0
100
AcDbLine
 62
6
  6
CONTINUOUS
 10
6.4996396821
 20
1.0755588936
 11
6.4784264787
 21
1.0755588936
  0
LINE
  5
218
100
AcDbEntity
  8
0
100
AcDbLine
 62
6
  6
CONTINUOUS
 10
5.6160108007
 20
1.0755588936
 11
5.5947975973
 21
1.0755588936
  0
LINE
  5
219
100
AcDbEntity
  8
0
100
AcDbLine
 62
6
  6
CONTINUOUS
 10
6.4644128419
 20
1.0212208471
 11
6.4432650317
 21
1.0227848422
  0
LINE
  5
21A
100
AcDbEntity
  8
0
100
AcDbLine
 62
6
  6
CONTINUOUS
 10
5.5816790762
 20
1.0865037875
 11
5.5623600833
 21
1.0879325316
  0
LINE
  5
21B
100
AcDbEntity
  8
0
100
AcDbLine
 62
6
  6
CONTINUOUS
 10
6.4644128419
 20
1.0434521565
 11
6.4432650317
 21
1.0450161515
  0
LINE
  5
21C
100
AcDbEntity
  8
0
100
AcDbLine
 62
6
  6
CONTINUOUS
 10
5.5835078935
 20
1.1085998459
 11
5.5623600833
 21
1.1101638409
  0
LINE
  5
21D
100
AcDbEntity
  8
0
100
AcDbLine
 62
6
  6
CONTINUOUS
 10
6.4266138607
 20
0.9918102689
 11
6.405661827
 21
0.9949286164
  0
LINE
  5
21E
100
AcDbEntity
  8
0
100
AcDbLine
 62
6
  6
CONTINUOUS
 10
5.550545441
 20
1.1221978882
 11
5.5329118835
 21
1.124822338
  0
LINE
  5
21F
100
AcDbEntity
  8
0
100
AcDbLine
 62
6
  6
CONTINUOUS
 10
6.4266138607
 20
1.0140415782
 11
6.405661827
 21
1.0171599257
  0
LINE
  5
220
100
AcDbEntity
  8
0
100
AcDbLine
 62
6
  6
CONTINUOUS
 10
5.5538639172
 20
1.1439352998
 11
5.5329118835
 21
1.1470536474
  0
LINE
  5
221
100
AcDbEntity
  8
0
100
AcDbLine
 62
6
  6
CONTINUOUS
 10
6.3864757818
 20
0.9652771754
 11
6.3658487009
 21
0.9699306498
  0
LINE
  5
222
100
AcDbEntity
  8
0
100
AcDbLine
 62
6
  6
CONTINUOUS
 10
5.5223095128
 20
1.1602332917
 11
5.5066345558
 21
1.1637695657
  0
LINE
  5
223
100
AcDbEntity
  8
0
100
AcDbLine
 62
9
  6
CONTINUOUS
 10
3.289696879
 20
5.8135597057
 11
3.289696879
 21
6.2039637301
  0
LINE
  5
224
100
AcDbEntity
  8
0
100
AcDbLine
 62
6
  6
CONTINUOUS
 10
6.5878027236
 20
1.186000875
 11
6.5671756426
 21
1.1813474007
  0
LINE
  5
225
100
AcDbEntity
  8
0
100
AcDbLine
 62
6
  6
CONTINUOUS
 10
5.7285885785
 20
0.9921619591
 11
5.7079614976
 21
0.9875084848
  0
LINE
  5
226
100
AcDbEntity
  8
0
100
AcDbLine
 62
6
  6
CONTINUOUS
 10
6.3864757818
 20
0.9875084848
 11
6.3658487009
 21
0.9921619591
  0
LINE
  5
227
100
AcDbEntity
  8
0
100
AcDbLine
 62
6
  6
CONTINUOUS
 10
5.5272616368
 20
1.1813474007
 11
5.5066345558
 21
1.186000875
  0
LINE
  5
228
100
AcDbEntity
  8
0
100
AcDbLine
 62
6
  6
CONTINUOUS
 10
6.3442460698
 20
0.9417851522
 11
6.3240711145
 21
0.9479450632
  0
LINE
  5
229
100
AcDbEntity
  8
0
100
AcDbLine
 62
6
  6
CONTINUOUS
 10
5.4973098239
 20
1.2003756574
 11
5.4836901089
 21
1.204534092
  0
LINE
  5
22A
100
AcDbEntity
  8
0
100
AcDbLine
 62
6
  6
CONTINUOUS
 10
6.3442460698
 20
0.9640164616
 11
6.3240711145
 21
0.9701763726
  0
LINE
  5
22B
100
AcDbEntity
  8
0
100
AcDbLine
 62
6
  6
CONTINUOUS
 10
5.5038650642
 20
1.2206054903
 11
5.4836901089
 21
1.2267654013
  0
LINE
  5
22C
100
AcDbEntity
  8
0
100
AcDbLine
 62
6
  6
CONTINUOUS
 10
6.300185085
 20
0.9214790354
 11
6.2805866405
 21
0.9291074051
  0
LINE
  5
22D
100
AcDbEntity
  8
0
100
AcDbLine
 62
6
  6
CONTINUOUS
 10
5.4757005056
 20
1.2423959945
 11
5.4642200027
 21
1.24686459
  0
LINE
  5
22E
100
AcDbEntity
  8
0
100
AcDbLine
 62
6
  6
CONTINUOUS
 10
6.300185085
 20
0.9437103447
 11
6.2805866405
 21
0.9513387144
  0
LINE
  5
22F
100
AcDbEntity
  8
0
100
AcDbLine
 62
6
  6
CONTINUOUS
 10
5.4838184471
 20
1.2614675296
 11
5.4642200027
 21
1.2690958994
  0
LINE
  5
230
100
AcDbEntity
  8
0
100
AcDbLine
 62
6
  6
CONTINUOUS
 10
6.2545644779
 20
0.9044840188
 11
6.2356633752
 21
0.9135338158
  0
LINE
  5
231
100
AcDbEntity
  8
0
100
AcDbLine
 62
6
  6
CONTINUOUS
 10
5.4576697144
 20
1.2860350839
 11
5.4483442769
 21
1.2905000782
  0
LINE
  5
232
100
AcDbEntity
  8
0
100
AcDbLine
 62
6
  6
CONTINUOUS
 10
6.2545644779
 20
0.9267153281
 11
6.2356633752
 21
0.9357651251
  0
LINE
  5
233
100
AcDbEntity
  8
0
100
AcDbLine
 62
6
  6
CONTINUOUS
 10
5.4672453796
 20
1.3036815905
 11
5.4483442769
 21
1.3127313876
  0
LINE
  5
234
100
AcDbEntity
  8
0
100
AcDbLine
 62
6
  6
CONTINUOUS
 10
6.2076655147
 20
0.8909048825
 11
6.1895782854
 21
0.9013203118
  0
LINE
  5
235
100
AcDbEntity
  8
0
100
AcDbLine
 62
6
  6
CONTINUOUS
 10
5.4436604948
 20
1.3308528784
 11
5.4361608108
 21
1.3351715293
  0
LINE
  5
236
100
AcDbEntity
  8
0
100
AcDbLine
 62
6
  6
CONTINUOUS
 10
6.2076655147
 20
0.9131361918
 11
6.1895782854
 21
0.9235516211
  0
LINE
  5
237
100
AcDbEntity
  8
0
100
AcDbLine
 62
6
  6
CONTINUOUS
 10
5.4542480401
 20
1.3469874093
 11
5.4361608108
 21
1.3574028386
  0
LINE
  5
238
100
AcDbEntity
  8
0
100
AcDbLine
 62
6
  6
CONTINUOUS
 10
6.1597773432
 20
0.8808253463
 11
6.1426155011
 21
0.8925421932
  0
LINE
  5
239
100
AcDbEntity
  8
0
100
AcDbLine
 62
6
  6
CONTINUOUS
 10
5.4335592434
 20
1.3766337983
 11
5.4277447194
 21
1.3806035289
  0
LINE
  5
23A
100
AcDbEntity
  8
0
100
AcDbLine
 62
9
  6
CONTINUOUS
 10
3.6391843726
 20
5.7687617179
 11
3.6391843726
 21
6.2487617179
  0
LINE
  5
23B
100
AcDbEntity
  8
0
100
AcDbLine
 62
6
  6
CONTINUOUS
 10
3.6572186397
 20
6.0087617179
 11
3.6572186397
 21
5.78491954
  0
LWPOLYLINE
  5
23C
100
AcDbEntity
  8
0
100
AcDbPolyline
 62
6
  6
CONTINUOUS
 90
7
 70
0
 10
5.3261743876
 20
6.5881043229
 10
5.2876748625
 20
6.5366155314
 10
5.2523437906
 20
6.48178514
 10
5.2211966175
 20
6.4250702711
 10
5.1948873297
 20
6.3681281578
 10
5.1736431749
 20
6.312786267
 10
5.1573207982
 20
6.2609901233
  0
LINE
  5
23D
100
AcDbEntity
  8
0
100
AcDbLine
 62
6
  6
CONTINUOUS
 10
6.1597773432
 20
0.9030566556
 11
6.1426155011
 21
0.9147735026
  0
LINE
  5
23E
100
AcDbEntity
  8
0
100
AcDbLine
 62
6
  6
CONTINUOUS
 10
5.4449065614
 20
1.3911179912
 11
5.4277447194
 21
1.4028348382
  0
LINE
  5
23F
100
AcDbEntity
  8
0
100
AcDbLine
 62
6
  6
CONTINUOUS
 10
6.1111952099
 20
0.8743075539
 11
6.0950645634
 21
0.8872535803
  0
LINE
  5
240
100
AcDbEntity
  8
0
100
AcDbLine
 62
6
  6
CONTINUOUS
 10
5.4274461908
 20
1.4230662726
 11
5.4231478906
 21
1.4265159736
  0
LINE
  5
241
100
AcDbEntity
  8
0
100
AcDbLine
 62
6
  6
CONTINUOUS
 10
6.1111952099
 20
0.8965388632
 11
6.0950645634
 21
0.9094848896
  0
LINE
  5
242
100
AcDbEntity
  8
0
100
AcDbLine
 62
6
  6
CONTINUOUS
 10
5.4392785371
 20
1.4358012565
 11
5.4231478906
 21
1.4487472829
  0
LINE
  5
243
100
AcDbEntity
  8
0
100
AcDbLine
 62
6
  6
CONTINUOUS
 10
6.0622186397
 20
0.8713916896
 11
6.0472186397
 21
0.8854870789
  0
LINE
  5
244
100
AcDbEntity
  8
0
100
AcDbLine
 62
6
  6
CONTINUOUS
 10
5.425569633
 20
1.4696460633
 11
5.4223986656
 21
1.4726257979
  0
LINE
  5
245
100
AcDbEntity
  8
0
100
AcDbLine
 62
6
  6
CONTINUOUS
 10
6.0622186397
 20
0.893622999
 11
6.0472186397
 21
0.9077183883
  0
LINE
  5
246
100
AcDbEntity
  8
0
100
AcDbLine
 62
6
  6
CONTINUOUS
 10
5.4373986656
 20
1.4807617179
 11
5.4223986656
 21
1.4948571072
  0
LINE
  5
247
100
AcDbEntity
  8
0
100
AcDbLine
 62
9
  6
CONTINUOUS
 10
4.0472186397
 20
4.9437617179
 11
4.0472186397
 21
5.3027694633
  0
LINE
  5
248
100
AcDbEntity
  8
0
100
AcDbLine
 62
9
  6
CONTINUOUS
 10
4.0472186397
 20
6.7147539726
 11
4.0472186397
 21
7.0737617179
  0
LINE
  5
249
100
AcDbEntity
  8
0
100
AcDbLine
 62
6
  6
CONTINUOUS
 10
5.5066345558
 20
1.7755225608
 11
5.5272616368
 21
1.7801760352
  0
LINE
  5
24A
100
AcDbEntity
  8
0
100
AcDbLine
 62
6
  6
CONTINUOUS
 10
5.5329118835
 20
1.8144697885
 11
5.5538639172
 21
1.817588136
  0
LINE
  5
24B
100
AcDbEntity
  8
0
100
AcDbLine
 62
6
  6
CONTINUOUS
 10
5.5623600833
 20
1.8513595949
 11
5.5716495881
 21
1.8520466041
  0
LINE
  5
24C
100
AcDbEntity
  8
0
100
AcDbLine
 62
6
  6
CONTINUOUS
 10
6.5227876913
 20
1.8520466041
 11
6.5320771961
 21
1.8513595949
  0
LINE
  5
24D
100
AcDbEntity
  8
0
100
AcDbLine
 62
6
  6
CONTINUOUS
 10
6.5405733622
 20
1.817588136
 11
6.5615253959
 21
1.8144697885
  0
LINE
  5
24E
100
AcDbEntity
  8
0
100
AcDbLine
 62
6
  6
CONTINUOUS
 10
6.5671756426
 20
1.7801760352
 11
6.5878027236
 21
1.7755225608
  0
LINE
  5
24F
100
AcDbEntity
  8
0
100
AcDbLine
 62
6
  6
CONTINUOUS
 10
6.5905722152
 20
1.7409179455
 11
6.6107471705
 21
1.7347580345
  0
LINE
  5
250
100
AcDbEntity
  8
0
100
AcDbLine
 62
6
  6
CONTINUOUS
 10
6.6106188323
 20
1.7000559062
 11
6.6302172767
 21
1.6924275365
  0
LINE
  5
251
100
AcDbEntity
  8
0
100
AcDbLine
 62
6
  6
CONTINUOUS
 10
6.6271918998
 20
1.6578418453
 11
6.6460930025
 21
1.6487920483
  0
LINE
  5
252
100
AcDbEntity
  8
0
100
AcDbLine
 62
6
  6
CONTINUOUS
 10
6.0131495895
 20
0.8720957309
 11
5.999372716
 21
0.8872535803
  0
LINE
  5
253
100
AcDbEntity
  8
0
100
AcDbLine
 62
6
  6
CONTINUOUS
 10
5.4275951395
 20
1.5163453962
 11
5.4255016635
 21
1.5186487195
  0
LINE
  5
254
100
AcDbEntity
  8
0
100
AcDbLine
 62
6
  6
CONTINUOUS
 10
6.0131495895
 20
0.8943270402
 11
5.999372716
 21
0.9094848896
  0
LINE
  5
255
100
AcDbEntity
  8
0
100
AcDbLine
 62
6
  6
CONTINUOUS
 10
5.4392785371
 20
1.5257221794
 11
5.4255016635
 21
1.5408800288
  0
LINE
  5
256
100
AcDbEntity
  8
0
100
AcDbLine
 62
6
  6
CONTINUOUS
 10
5.9642905864
 20
0.8764153369
 11
5.9518217783
 21
0.8925421932
  0
LINE
  5
257
100
AcDbEntity
  8
0
100
AcDbLine
 62
6
  6
CONTINUOUS
 10
5.4336564829
 20
1.5627247162
 11
5.4324377533
 21
1.5643009917
  0
LINE
  5
258
100
AcDbEntity
  8
0
100
AcDbLine
 62
6
  6
CONTINUOUS
 10
5.9642905864
 20
0.8986466462
 11
5.9518217783
 21
0.9147735026
  0
LINE
  5
259
100
AcDbEntity
  8
0
100
AcDbLine
 62
6
  6
CONTINUOUS
 10
5.4449065614
 20
1.5704054446
 11
5.4324377533
 21
1.586532301
  0
LINE
  5
25A
100
AcDbEntity
  8
0
100
AcDbLine
 62
6
  6
CONTINUOUS
 10
5.9159428623
 20
0.8843238759
 11
5.904858994
 21
0.9013203118
  0
LINE
  5
25B
100
AcDbEntity
  8
0
100
AcDbLine
 62
6
  6
CONTINUOUS
 10
5.4437082948
 20
1.6084667735
 11
5.4431641717
 21
1.6093011531
  0
LINE
  5
25C
100
AcDbEntity
  8
0
100
AcDbLine
 62
6
  6
CONTINUOUS
 10
5.9159428623
 20
0.9065551852
 11
5.904858994
 21
0.9235516211
  0
LINE
  5
25D
100
AcDbEntity
  8
0
100
AcDbLine
 62
6
  6
CONTINUOUS
 10
5.4542480401
 20
1.6145360265
 11
5.4431641717
 21
1.6315324624
  0
LINE
  5
25E
100
AcDbEntity
  8
0
100
AcDbLine
 62
6
  6
CONTINUOUS
 10
6.6401892393
 20
1.6145360265
 11
6.6582764686
 21
1.6041205972
  0
LINE
  5
25F
100
AcDbEntity
  8
0
100
AcDbLine
 62
6
  6
CONTINUOUS
 10
6.6495307179
 20
1.5704054446
 11
6.66669256
 21
1.5586885976
  0
LINE
  5
260
100
AcDbEntity
  8
0
100
AcDbLine
 62
6
  6
CONTINUOUS
 10
6.6551587423
 20
1.5257221794
 11
6.6712893887
 21
1.5127761529
  0
LINE
  5
261
100
AcDbEntity
  8
0
100
AcDbLine
 62
6
  6
CONTINUOUS
 10
5.868404497
 20
0.8957725891
 11
5.8587739042
 21
0.9135338158
  0
LINE
  5
262
100
AcDbEntity
  8
0
100
AcDbLine
 62
6
  6
CONTINUOUS
 10
5.868404497
 20
0.9180038984
 11
5.8587739042
 21
0.9357651251
  0
LINE
  5
263
100
AcDbEntity
  8
0
100
AcDbLine
 62
6
  6
CONTINUOUS
 10
5.4672453796
 20
1.6578418453
 11
5.4576147868
 21
1.675603072
  0
LINE
  5
264
100
AcDbEntity
  8
0
100
AcDbLine
 62
6
  6
CONTINUOUS
 10
5.8219685804
 20
0.9106908914
 11
5.8138506389
 21
0.9291074051
  0
LINE
  5
265
100
AcDbEntity
  8
0
100
AcDbLine
 62
6
  6
CONTINUOUS
 10
5.8219685804
 20
0.9329222008
 11
5.8138506389
 21
0.9513387144
  0
LINE
  5
266
100
AcDbEntity
  8
0
100
AcDbLine
 62
6
  6
CONTINUOUS
 10
5.4838184471
 20
1.7000559062
 11
5.4757005056
 21
1.7184724198
  0
LINE
  5
267
100
AcDbEntity
  8
0
100
AcDbLine
 62
9
  6
CONTINUOUS
 10
5.6217186397
 20
2.8837617179
 11
6.4727186397
 21
2.8837617179
  0
LINE
  5
268
100
AcDbEntity
  8
0
100
AcDbLine
 62
6
  6
CONTINUOUS
 10
6.6570386138
 20
1.4807617179
 11
6.6720386138
 21
1.4666663286
  0
LINE
  5
269
100
AcDbEntity
  8
0
100
AcDbLine
 62
6
  6
CONTINUOUS
 10
6.6551587423
 20
1.4358012565
 11
6.6689356159
 21
1.420643407
  0
LINE
  5
26A
100
AcDbEntity
  8
0
100
AcDbLine
 62
6
  6
CONTINUOUS
 10
6.6495307179
 20
1.3911179912
 11
6.6619995261
 21
1.3749911348
  0
LINE
  5
26B
100
AcDbEntity
  8
0
100
AcDbLine
 62
6
  6
CONTINUOUS
 10
5.7769214053
 20
0.9289868066
 11
5.7703661649
 21
0.9479450632
  0
LINE
  5
26C
100
AcDbEntity
  8
0
100
AcDbLine
 62
6
  6
CONTINUOUS
 10
5.7769214053
 20
0.9512181159
 11
5.7703661649
 21
0.9701763726
  0
LINE
  5
26D
100
AcDbEntity
  8
0
100
AcDbLine
 62
6
  6
CONTINUOUS
 10
5.5038650642
 20
1.7409179455
 11
5.4973098239
 21
1.7598762022
  0
LINE
  5
26E
100
AcDbEntity
  8
0
100
AcDbLine
 62
6
  6
CONTINUOUS
 10
5.7335407025
 20
0.9505475341
 11
5.7285885785
 21
0.9699306498
  0
LINE
  5
26F
100
AcDbEntity
  8
0
100
AcDbLine
 62
6
  6
CONTINUOUS
 10
5.7335407025
 20
0.9727788434
 11
5.7285885785
 21
0.9921619591
  0
LINE
  5
270
100
AcDbEntity
  8
0
100
AcDbLine
 62
6
  6
CONTINUOUS
 10
5.5272616368
 20
1.7801760352
 11
5.5223095128
 21
1.7995591509
  0
LINE
  5
271
100
AcDbEntity
  8
0
100
AcDbLine
 62
6
  6
CONTINUOUS
 10
5.1241244626
 20
5.7643973759
 11
5.1316355216
 21
5.6787172734
  0
LINE
  5
272
100
AcDbEntity
  8
0
100
AcDbLine
 62
6
  6
CONTINUOUS
 10
5.1241696449
 20
5.763731714
 11
5.1241243649
 21
5.7643988178
  0
LWPOLYLINE
  5
273
100
AcDbEntity
  8
0
100
AcDbPolyline
 62
6
  6
CONTINUOUS
 90
3
 70
0
 10
5.1244718934
 20
6.0732864561
 10
5.1198769776
 20
5.9802701464
 10
5.1191733443
 20
5.9450341566
  0
LINE
  5
274
100
AcDbEntity
  8
0
100
AcDbLine
 62
6
  6
CONTINUOUS
 10
6.6401892393
 20
1.3469874093
 11
6.6512731077
 21
1.3299909734
  0
LINE
  5
275
100
AcDbEntity
  8
0
100
AcDbLine
 62
6
  6
CONTINUOUS
 10
6.6271918998
 20
1.3036815905
 11
6.6368224926
 21
1.2859203638
  0
LINE
  5
276
100
AcDbEntity
  8
0
100
AcDbLine
 62
6
  6
CONTINUOUS
 10
5.6920939285
 20
0.9752401449
 11
5.6887754524
 21
0.9949286164
  0
LINE
  5
277
100
AcDbEntity
  8
0
100
AcDbLine
 62
6
  6
CONTINUOUS
 10
5.6920939285
 20
0.9974714543
 11
5.6887754524
 21
1.0171599257
  0
LINE
  5
278
100
AcDbEntity
  8
0
100
AcDbLine
 62
6
  6
CONTINUOUS
 10
5.5538639172
 20
1.817588136
 11
5.550545441
 21
1.8372766075
  0
LINE
  5
279
100
AcDbEntity
  8
0
100
AcDbLine
 62
6
  6
CONTINUOUS
 10
5.1316355216
 20
5.6787172734
 11
5.1427543508
 21
5.5902652712
  0
LINE
  5
27A
100
AcDbEntity
  8
0
100
AcDbLine
 62
6
  6
CONTINUOUS
 10
5.6528366165
 20
1.002912401
 11
5.6511722477
 21
1.0227848422
  0
LINE
  5
27B
100
AcDbEntity
  8
0
100
AcDbLine
 62
6
  6
CONTINUOUS
 10
5.6528366165
 20
1.0251437103
 11
5.6511722477
 21
1.0450161515
  0
LWPOLYLINE
  5
27C
100
AcDbEntity
  8
0
100
AcDbPolyline
 62
6
  6
CONTINUOUS
 90
3
 70
0
 10
5.6036770471
 20
3.2809354505
 10
5.6080003455
 20
3.2151853692
 10
5.6140966256
 20
3.1042003133
  0
LINE
  5
27D
100
AcDbEntity
  8
0
100
AcDbLine
 62
9
  6
CONTINUOUS
 10
5.6140966256
 20
3.1042003133
 11
5.6141003079
 21
3.1041382686
  0
LINE
  5
27E
100
AcDbEntity
  8
0
100
AcDbLine
 62
9
  6
CONTINUOUS
 10
5.6167037951
 20
3.0455869641
 11
5.6167068833
 21
3.0455336899
  0
LWPOLYLINE
  5
27F
100
AcDbEntity
  8
0
100
AcDbPolyline
 62
6
  6
CONTINUOUS
 90
3
 70
0
 10
5.614096607
 20
3.1042007
 10
5.6159270548
 20
3.0640703397
 10
5.6167037951
 20
3.0455869641
  0
LWPOLYLINE
  5
280
100
AcDbEntity
  8
0
100
AcDbPolyline
 62
6
  6
CONTINUOUS
 90
4
 70
0
 10
5.6167037943
 20
3.0455869823
 10
5.6186729841
 20
2.9933588039
 10
5.6203949278
 20
2.9380172326
 10
5.6217184285
 20
2.883771736
  0
LWPOLYLINE
  5
281
100
AcDbEntity
  8
0
100
AcDbPolyline
 62
6
  6
CONTINUOUS
 90
13
 70
0
 10
5.6217186397
 20
2.8837617179
 10
5.6227349253
 20
2.8248169057
 10
5.6233147392
 20
2.7627215004
 10
5.6233884515
 20
2.7004754941
 10
5.6229522068
 20
2.6382671752
 10
5.6220086455
 20
2.576282983
 10
5.6205610317
 20
2.5147075788
 10
5.6186169148
 20
2.4536974056
 10
5.6162009498
 20
2.393312392
 10
5.6133314636
 20
2.333616722
 10
5.6100185704
 20
2.2747235792
 10
5.6062846249
 20
2.2167531757
 10
5.6023642796
 20
2.1624807148
  0
LINE
  5
282
100
AcDbEntity
  8
0
100
AcDbLine
 62
6
  6
CONTINUOUS
 10
5.4223986656
 20
1.4948571072
 11
5.4223986656
 21
1.4726257979
  0
LINE
  5
283
100
AcDbEntity
  8
0
100
AcDbLine
 62
6
  6
CONTINUOUS
 10
5.4223986656
 20
1.4666663286
 11
5.4223986656
 21
1.4444350193
  0
LINE
  5
284
100
AcDbEntity
  8
0
100
AcDbLine
 62
6
  6
CONTINUOUS
 10
5.4231478906
 20
1.4487472829
 11
5.4231478906
 21
1.4265159736
  0
LINE
  5
285
100
AcDbEntity
  8
0
100
AcDbLine
 62
6
  6
CONTINUOUS
 10
5.4255016635
 20
1.5408800288
 11
5.4255016635
 21
1.5186487195
  0
LINE
  5
286
100
AcDbEntity
  8
0
100
AcDbLine
 62
6
  6
CONTINUOUS
 10
5.4255016635
 20
1.420643407
 11
5.4255016635
 21
1.3984120977
  0
LINE
  5
287
100
AcDbEntity
  8
0
100
AcDbLine
 62
6
  6
CONTINUOUS
 10
5.4277447194
 20
1.4028348382
 11
5.4277447194
 21
1.3806035289
  0
LINE
  5
288
100
AcDbEntity
  8
0
100
AcDbLine
 62
6
  6
CONTINUOUS
 10
5.4324377533
 20
1.586532301
 11
5.4324377533
 21
1.5643009917
  0
LINE
  5
289
100
AcDbEntity
  8
0
100
AcDbLine
 62
6
  6
CONTINUOUS
 10
5.4324377533
 20
1.3749911348
 11
5.4324377533
 21
1.3527598255
  0
LINE
  5
28A
100
AcDbEntity
  8
0
100
AcDbLine
 62
6
  6
CONTINUOUS
 10
5.4361608108
 20
1.3574028386
 11
5.4361608108
 21
1.3351715293
  0
LINE
  5
28B
100
AcDbEntity
  8
0
100
AcDbLine
 62
6
  6
CONTINUOUS
 10
5.4431641717
 20
1.6315324624
 11
5.4431641717
 21
1.6093011531
  0
LINE
  5
28C
100
AcDbEntity
  8
0
100
AcDbLine
 62
6
  6
CONTINUOUS
 10
5.4431641717
 20
1.3299909734
 11
5.4431641717
 21
1.3077596641
  0
LINE
  5
28D
100
AcDbEntity
  8
0
100
AcDbLine
 62
6
  6
CONTINUOUS
 10
5.4483442769
 20
1.3127313876
 11
5.4483442769
 21
1.2905000782
  0
LINE
  5
28E
100
AcDbEntity
  8
0
100
AcDbLine
 62
6
  6
CONTINUOUS
 10
5.4576147868
 20
1.675603072
 11
5.4576147868
 21
1.6533717627
  0
LINE
  5
28F
100
AcDbEntity
  8
0
100
AcDbLine
 62
6
  6
CONTINUOUS
 10
5.4576147868
 20
1.2859203638
 11
5.4576147868
 21
1.2636890545
  0
LINE
  5
290
100
AcDbEntity
  8
0
100
AcDbLine
 62
6
  6
CONTINUOUS
 10
5.4642200027
 20
1.2690958994
 11
5.4642200027
 21
1.24686459
  0
LINE
  5
291
100
AcDbEntity
  8
0
100
AcDbLine
 62
6
  6
CONTINUOUS
 10
5.4757005056
 20
1.7184724198
 11
5.4757005056
 21
1.696896132
  0
LINE
  5
292
100
AcDbEntity
  8
0
100
AcDbLine
 62
6
  6
CONTINUOUS
 10
5.4757005056
 20
1.243051016
 11
5.4757005056
 21
1.2208197067
  0
LINE
  5
293
100
AcDbEntity
  8
0
100
AcDbLine
 62
6
  6
CONTINUOUS
 10
5.4836901089
 20
1.2267654013
 11
5.4836901089
 21
1.204534092
  0
LINE
  5
294
100
AcDbEntity
  8
0
100
AcDbLine
 62
6
  6
CONTINUOUS
 10
5.4973098239
 20
1.7598762022
 11
5.4973098239
 21
1.7389164691
  0
LINE
  5
295
100
AcDbEntity
  8
0
100
AcDbLine
 62
6
  6
CONTINUOUS
 10
5.4973098239
 20
1.2016472336
 11
5.4973098239
 21
1.1794159243
  0
LINE
  5
296
100
AcDbEntity
  8
0
100
AcDbLine
 62
6
  6
CONTINUOUS
 10
5.5066345558
 20
1.186000875
 11
5.5066345558
 21
1.1637695657
  0
LINE
  5
297
100
AcDbEntity
  8
0
100
AcDbLine
 62
6
  6
CONTINUOUS
 10
5.5223095128
 20
1.7995591509
 11
5.5223095128
 21
1.7790588348
  0
LINE
  5
298
100
AcDbEntity
  8
0
100
AcDbLine
 62
6
  6
CONTINUOUS
 10
5.5223095128
 20
1.1619642849
 11
5.5223095128
 21
1.1397329756
  0
LINE
  5
299
100
AcDbEntity
  8
0
100
AcDbLine
 62
6
  6
CONTINUOUS
 10
5.5329118835
 20
1.1470536474
 11
5.5329118835
 21
1.124822338
  0
LINE
  5
29A
100
AcDbEntity
  8
0
100
AcDbLine
 62
6
  6
CONTINUOUS
 10
5.550545441
 20
1.8372766075
 11
5.550545441
 21
1.8170942383
  0
LINE
  5
29B
100
AcDbEntity
  8
0
100
AcDbLine
 62
6
  6
CONTINUOUS
 10
5.550545441
 20
1.1242468284
 11
5.550545441
 21
1.102015519
  0
LINE
  5
29C
100
AcDbEntity
  8
0
100
AcDbLine
 62
6
  6
CONTINUOUS
 10
5.5623600833
 20
1.1101638409
 11
5.5623600833
 21
1.0879325316
  0
LINE
  5
29D
100
AcDbEntity
  8
0
100
AcDbLine
 62
6
  6
CONTINUOUS
 10
5.5818435247
 20
1.0887274047
 11
5.5818435247
 21
1.0664960953
  0
LINE
  5
29E
100
AcDbEntity
  8
0
100
AcDbLine
 62
6
  6
CONTINUOUS
 10
5.5947975973
 20
1.0755588936
 11
5.5947975973
 21
1.0533275843
  0
LINE
  5
29F
100
AcDbEntity
  8
0
100
AcDbLine
 62
6
  6
CONTINUOUS
 10
5.6160108007
 20
1.0333936936
 11
5.6160108007
 21
1.0755588936
  0
LINE
  5
2A0
100
AcDbEntity
  8
0
100
AcDbLine
 62
6
  6
CONTINUOUS
 10
5.6300244375
 20
1.0434521565
 11
5.6300244375
 21
1.0212208471
  0
LINE
  5
2A1
100
AcDbEntity
  8
0
100
AcDbLine
 62
6
  6
CONTINUOUS
 10
5.6511722477
 20
1.0450161515
 11
5.6511722477
 21
1.0227848422
  0
LINE
  5
2A2
100
AcDbEntity
  8
0
100
AcDbLine
 62
6
  6
CONTINUOUS
 10
5.6528366165
 20
1.0251437103
 11
5.6528366165
 21
1.002912401
  0
LINE
  5
2A3
100
AcDbEntity
  8
0
100
AcDbLine
 62
6
  6
CONTINUOUS
 10
5.6678234187
 20
1.0140415782
 11
5.6678234187
 21
0.9918102689
  0
LINE
  5
2A4
100
AcDbEntity
  8
0
100
AcDbLine
 62
6
  6
CONTINUOUS
 10
5.6887754524
 20
1.0171599257
 11
5.6887754524
 21
0.9949286164
  0
LINE
  5
2A5
100
AcDbEntity
  8
0
100
AcDbLine
 62
6
  6
CONTINUOUS
 10
5.6920939285
 20
0.9974714543
 11
5.6920939285
 21
0.9752401449
  0
LINE
  5
2A6
100
AcDbEntity
  8
0
100
AcDbLine
 62
6
  6
CONTINUOUS
 10
5.7079614976
 20
0.9875084848
 11
5.7079614976
 21
0.9652771754
  0
LINE
  5
2A7
100
AcDbEntity
  8
0
100
AcDbLine
 62
6
  6
CONTINUOUS
 10
5.7285885785
 20
0.9921619591
 11
5.7285885785
 21
0.9699306498
  0
LINE
  5
2A8
100
AcDbEntity
  8
0
100
AcDbLine
 62
9
  6
CONTINUOUS
 10
5.6020398384
 20
2.147374619
 11
5.6023642796
 21
2.1624807148
  0
LINE
  5
2A9
100
AcDbEntity
  8
0
100
AcDbLine
 62
6
  6
CONTINUOUS
 10
5.5322195327
 20
1.5389182966
 11
5.5376020194
 21
1.6084729348
  0
LINE
  5
2AA
100
AcDbEntity
  8
0
100
AcDbLine
 62
6
  6
CONTINUOUS
 10
6.6106188323
 20
1.2614675296
 11
6.6187367738
 21
1.243051016
  0
LINE
  5
2AB
100
AcDbEntity
  8
0
100
AcDbLine
 62
9
  6
CONTINUOUS
 10
5.2278126505
 20
5.2250636407
 11
5.2267875538
 21
5.2279187149
  0
LINE
  5
2AC
100
AcDbEntity
  8
0
100
AcDbLine
 62
6
  6
CONTINUOUS
 10
6.5905722152
 20
1.2206054903
 11
6.5971274555
 21
1.2016472336
  0
LINE
  5
2AD
100
AcDbEntity
  8
0
100
AcDbLine
 62
9
  6
CONTINUOUS
 10
5.2267875538
 20
5.2279187149
 11
5.2267858004
 21
5.2279241611
  0
LWPOLYLINE
  5
2AE
100
AcDbEntity
  8
0
100
AcDbPolyline
 62
6
  6
CONTINUOUS
 90
4
 70
0
 10
5.2267858004
 20
5.2279241611
 10
5.2405677837
 20
5.1847007653
 10
5.2549698514
 20
5.1386958847
 10
5.2674237951
 20
5.098222644
  0
LINE
  5
2AF
100
AcDbEntity
  8
0
100
AcDbLine
 62
9
  6
CONTINUOUS
 10
5.2674300472
 20
5.0982193421
 11
5.2674687133
 21
5.0980922659
  0
LWPOLYLINE
  5
2B0
100
AcDbEntity
  8
0
100
AcDbPolyline
 62
6
  6
CONTINUOUS
 90
7
 70
0
 10
5.2674687133
 20
5.0980922659
 10
5.3452356215
 20
4.8266711107
 10
5.4139524281
 20
4.5510727668
 10
5.4729720465
 20
4.2735010555
 10
5.5222963826
 20
3.9943802903
 10
5.561867838
 20
3.7140253945
 10
5.5914888167
 20
3.4347926593
  0
LWPOLYLINE
  5
2B1
100
AcDbEntity
  8
0
100
AcDbPolyline
 62
6
  6
CONTINUOUS
 90
5
 70
0
 10
5.1427543508
 20
5.5902652712
 10
5.1575577957
 20
5.5009679923
 10
5.1767480294
 20
5.4092807829
 10
5.2002435363
 20
5.316735825
 10
5.2267875543
 20
5.2279187135
  0
LINE
  5
2B2
100
AcDbEntity
  8
0
100
AcDbLine
 62
6
  6
CONTINUOUS
 10
5.7335407025
 20
0.9727788434
 11
5.7335407025
 21
0.9505475341
  0
LINE
  5
2B3
100
AcDbEntity
  8
0
100
AcDbLine
 62
6
  6
CONTINUOUS
 10
5.7501912096
 20
0.9640164616
 11
5.7501912096
 21
0.9417851522
  0
LINE
  5
2B4
100
AcDbEntity
  8
0
100
AcDbLine
 62
6
  6
CONTINUOUS
 10
5.7703661649
 20
0.9701763726
 11
5.7703661649
 21
0.9479450632
  0
LINE
  5
2B5
100
AcDbEntity
  8
0
100
AcDbLine
 62
6
  6
CONTINUOUS
 10
5.7769214053
 20
0.9512181159
 11
5.7769214053
 21
0.9289868066
  0
LINE
  5
2B6
100
AcDbEntity
  8
0
100
AcDbLine
 62
6
  6
CONTINUOUS
 10
5.7942521944
 20
0.9437103447
 11
5.7942521944
 21
0.9214790354
  0
LINE
  5
2B7
100
AcDbEntity
  8
0
100
AcDbLine
 62
6
  6
CONTINUOUS
 10
5.8138506389
 20
0.9513387144
 11
5.8138506389
 21
0.9291074051
  0
LINE
  5
2B8
100
AcDbEntity
  8
0
100
AcDbLine
 62
6
  6
CONTINUOUS
 10
5.8219685804
 20
0.9329222008
 11
5.8219685804
 21
0.9106908914
  0
LINE
  5
2B9
100
AcDbEntity
  8
0
100
AcDbLine
 62
6
  6
CONTINUOUS
 10
5.8398728015
 20
0.9267153281
 11
5.8398728015
 21
0.9044840188
  0
LINE
  5
2BA
100
AcDbEntity
  8
0
100
AcDbLine
 62
6
  6
CONTINUOUS
 10
5.8587739042
 20
0.9357651251
 11
5.8587739042
 21
0.9135338158
  0
LINE
  5
2BB
100
AcDbEntity
  8
0
100
AcDbLine
 62
6
  6
CONTINUOUS
 10
5.868404497
 20
0.9180038984
 11
5.868404497
 21
0.8957725891
  0
LINE
  5
2BC
100
AcDbEntity
  8
0
100
AcDbLine
 62
6
  6
CONTINUOUS
 10
5.8867717647
 20
0.9131361918
 11
5.8867717647
 21
0.8909048825
  0
LINE
  5
2BD
100
AcDbEntity
  8
0
100
AcDbLine
 62
6
  6
CONTINUOUS
 10
5.904858994
 20
0.9235516211
 11
5.904858994
 21
0.9013203118
  0
LINE
  5
2BE
100
AcDbEntity
  8
0
100
AcDbLine
 62
6
  6
CONTINUOUS
 10
5.9159428623
 20
0.9065551852
 11
5.9159428623
 21
0.8843238759
  0
LINE
  5
2BF
100
AcDbEntity
  8
0
100
AcDbLine
 62
6
  6
CONTINUOUS
 10
5.9346599362
 20
0.9030566556
 11
5.9346599362
 21
0.8808253463
  0
LINE
  5
2C0
100
AcDbEntity
  8
0
100
AcDbLine
 62
6
  6
CONTINUOUS
 10
5.9518217783
 20
0.9147735026
 11
5.9518217783
 21
0.8925421932
  0
LINE
  5
2C1
100
AcDbEntity
  8
0
100
AcDbLine
 62
6
  6
CONTINUOUS
 10
5.9642905864
 20
0.8986466462
 11
5.9642905864
 21
0.8764153369
  0
LINE
  5
2C2
100
AcDbEntity
  8
0
100
AcDbLine
 62
6
  6
CONTINUOUS
 10
5.9832420695
 20
0.8965388632
 11
5.9832420695
 21
0.8743075539
  0
LINE
  5
2C3
100
AcDbEntity
  8
0
100
AcDbLine
 62
6
  6
CONTINUOUS
 10
5.999372716
 20
0.9094848896
 11
5.999372716
 21
0.8872535803
  0
LINE
  5
2C4
100
AcDbEntity
  8
0
100
AcDbLine
 62
6
  6
CONTINUOUS
 10
6.0131495895
 20
0.8943270402
 11
6.0131495895
 21
0.8720957309
  0
LINE
  5
2C5
100
AcDbEntity
  8
0
100
AcDbLine
 62
6
  6
CONTINUOUS
 10
6.0322186397
 20
0.893622999
 11
6.0322186397
 21
0.8713916896
  0
LINE
  5
2C6
100
AcDbEntity
  8
0
100
AcDbLine
 62
6
  6
CONTINUOUS
 10
6.0472186397
 20
0.9077183883
 11
6.0472186397
 21
0.8854870789
  0
LINE
  5
2C7
100
AcDbEntity
  8
0
100
AcDbLine
 62
9
  6
CONTINUOUS
 10
6.0472186397
 20
1.0549682262
 11
6.0472186397
 21
6.0762617179
  0
LINE
  5
2C8
100
AcDbEntity
  8
0
100
AcDbLine
 62
6
  6
CONTINUOUS
 10
6.0622186397
 20
0.893622999
 11
6.0622186397
 21
0.8713916896
  0
LINE
  5
2C9
100
AcDbEntity
  8
0
100
AcDbLine
 62
6
  6
CONTINUOUS
 10
6.0812876898
 20
0.8943270402
 11
6.0812876898
 21
0.8720957309
  0
LINE
  5
2CA
100
AcDbEntity
  8
0
100
AcDbLine
 62
6
  6
CONTINUOUS
 10
6.0950645634
 20
0.9094848896
 11
6.0950645634
 21
0.8872535803
  0
LWPOLYLINE
  5
2CB
100
AcDbEntity
  8
0
100
AcDbPolyline
 62
6
  6
CONTINUOUS
 90
11
 70
0
 10
5.6023643622
 20
2.1624818016
 10
5.5971344955
 20
2.0976630025
 10
5.5912752449
 20
2.0326934322
 10
5.5850268681
 20
1.9700245119
 10
5.5784368404
 20
1.9095657628
 10
5.5715669252
 20
1.8513460701
 10
5.5644938911
 20
1.7955133544
 10
5.5573529628
 20
1.7425449849
 10
5.5503261504
 20
1.6930754182
 10
5.543616362
 20
1.6477890682
 10
5.5376015191
 20
1.6084727088
  0
LINE
  5
2CC
100
AcDbEntity
  8
0
100
AcDbLine
 62
6
  6
CONTINUOUS
 10
5.5818435247
 20
1.0887274047
 11
5.5835078935
 21
1.1085998459
  0
LINE
  5
2CD
100
AcDbEntity
  8
0
100
AcDbLine
 62
6
  6
CONTINUOUS
 10
5.550545441
 20
1.1242468284
 11
5.5538639172
 21
1.1439352998
  0
LINE
  5
2CE
100
AcDbEntity
  8
0
100
AcDbLine
 62
6
  6
CONTINUOUS
 10
6.5671756426
 20
1.1813474007
 11
6.5721277666
 21
1.1619642849
  0
LINE
  5
2CF
100
AcDbEntity
  8
0
100
AcDbLine
 62
6
  6
CONTINUOUS
 10
6.5405733622
 20
1.1439352998
 11
6.5438918384
 21
1.1242468284
  0
LINE
  5
2D0
100
AcDbEntity
  8
0
100
AcDbLine
 62
6
  6
CONTINUOUS
 10
6.5109293859
 20
1.1085998459
 11
6.5125937547
 21
1.0887274047
  0
LINE
  5
2D1
100
AcDbEntity
  8
0
100
AcDbLine
 62
6
  6
CONTINUOUS
 10
6.4973027838
 20
2.097663004
 11
6.4920729172
 21
2.1624818016
  0
LINE
  5
2D2
100
AcDbEntity
  8
0
100
AcDbLine
 62
6
  6
CONTINUOUS
 10
6.5568350979
 20
1.6084730081
 11
6.5622177475
 21
1.5389235783
  0
LWPOLYLINE
  5
2D3
100
AcDbEntity
  8
0
100
AcDbPolyline
 62
6
  6
CONTINUOUS
 90
13
 70
0
 10
6.4920729998
 20
2.1624807148
 10
6.4881526545
 20
2.2167531757
 10
6.484418709
 20
2.2747235792
 10
6.4811058158
 20
2.333616722
 10
6.4782363296
 20
2.393312392
 10
6.4758203646
 20
2.4536974056
 10
6.4738762477
 20
2.5147075788
 10
6.4724286339
 20
2.576282983
 10
6.4714850726
 20
2.6382671752
 10
6.4710488279
 20
2.7004754941
 10
6.4711225402
 20
2.7627215004
 10
6.4717023541
 20
2.8248169057
 10
6.4727186393
 20
2.8837616968
  0
LINE
  5
2D4
100
AcDbEntity
  8
0
100
AcDbLine
 62
9
  6
CONTINUOUS
 10
6.492397441
 20
2.147374619
 11
6.4920729998
 21
2.1624807148
  0
LINE
  5
2D5
100
AcDbEntity
  8
0
100
AcDbLine
 62
6
  6
CONTINUOUS
 10
6.1111952099
 20
0.8965388632
 11
6.1111952099
 21
0.8743075539
  0
LINE
  5
2D6
100
AcDbEntity
  8
0
100
AcDbLine
 62
6
  6
CONTINUOUS
 10
6.130146693
 20
0.8986466462
 11
6.130146693
 21
0.8764153369
  0
LINE
  5
2D7
100
AcDbEntity
  8
0
100
AcDbLine
 62
6
  6
CONTINUOUS
 10
6.1426155011
 20
0.9147735026
 11
6.1426155011
 21
0.8925421932
  0
LINE
  5
2D8
100
AcDbEntity
  8
0
100
AcDbLine
 62
6
  6
CONTINUOUS
 10
6.1597773432
 20
0.9030566556
 11
6.1597773432
 21
0.8808253463
  0
LINE
  5
2D9
100
AcDbEntity
  8
0
100
AcDbLine
 62
6
  6
CONTINUOUS
 10
6.1784944171
 20
0.9065551852
 11
6.1784944171
 21
0.8843238759
  0
LINE
  5
2DA
100
AcDbEntity
  8
0
100
AcDbLine
 62
6
  6
CONTINUOUS
 10
6.1895782854
 20
0.9235516211
 11
6.1895782854
 21
0.9013203118
  0
LINE
  5
2DB
100
AcDbEntity
  8
0
100
AcDbLine
 62
6
  6
CONTINUOUS
 10
6.2076655147
 20
0.9131361918
 11
6.2076655147
 21
0.8909048825
  0
LINE
  5
2DC
100
AcDbEntity
  8
0
100
AcDbLine
 62
6
  6
CONTINUOUS
 10
6.2260327824
 20
0.9180038984
 11
6.2260327824
 21
0.8957725891
  0
LINE
  5
2DD
100
AcDbEntity
  8
0
100
AcDbLine
 62
6
  6
CONTINUOUS
 10
6.2356633752
 20
0.9357651251
 11
6.2356633752
 21
0.9135338158
  0
LINE
  5
2DE
100
AcDbEntity
  8
0
100
AcDbLine
 62
6
  6
CONTINUOUS
 10
6.2545644779
 20
0.9267153281
 11
6.2545644779
 21
0.9044840188
  0
LINE
  5
2DF
100
AcDbEntity
  8
0
100
AcDbLine
 62
6
  6
CONTINUOUS
 10
6.272468699
 20
0.9329222008
 11
6.272468699
 21
0.9106908914
  0
LINE
  5
2E0
100
AcDbEntity
  8
0
100
AcDbLine
 62
6
  6
CONTINUOUS
 10
6.2805866405
 20
0.9513387144
 11
6.2805866405
 21
0.9291074051
  0
LINE
  5
2E1
100
AcDbEntity
  8
0
100
AcDbLine
 62
6
  6
CONTINUOUS
 10
6.300185085
 20
0.9437103447
 11
6.300185085
 21
0.9214790354
  0
LINE
  5
2E2
100
AcDbEntity
  8
0
100
AcDbLine
 62
6
  6
CONTINUOUS
 10
6.3175158741
 20
0.9512181159
 11
6.3175158741
 21
0.9289868066
  0
LINE
  5
2E3
100
AcDbEntity
  8
0
100
AcDbLine
 62
6
  6
CONTINUOUS
 10
6.3240711145
 20
0.9701763726
 11
6.3240711145
 21
0.9479450632
  0
LINE
  5
2E4
100
AcDbEntity
  8
0
100
AcDbLine
 62
6
  6
CONTINUOUS
 10
6.3442460698
 20
0.9640164616
 11
6.3442460698
 21
0.9417851522
  0
LINE
  5
2E5
100
AcDbEntity
  8
0
100
AcDbLine
 62
6
  6
CONTINUOUS
 10
6.3608965769
 20
0.9727788434
 11
6.3608965769
 21
0.9505475341
  0
LINE
  5
2E6
100
AcDbEntity
  8
0
100
AcDbLine
 62
6
  6
CONTINUOUS
 10
6.3658487009
 20
0.9921619591
 11
6.3658487009
 21
0.9699306498
  0
LINE
  5
2E7
100
AcDbEntity
  8
0
100
AcDbLine
 62
6
  6
CONTINUOUS
 10
6.3864757818
 20
0.9875084848
 11
6.3864757818
 21
0.9652771754
  0
LINE
  5
2E8
100
AcDbEntity
  8
0
100
AcDbLine
 62
6
  6
CONTINUOUS
 10
6.4023433509
 20
0.9974714543
 11
6.4023433509
 21
0.9752401449
  0
LINE
  5
2E9
100
AcDbEntity
  8
0
100
AcDbLine
 62
6
  6
CONTINUOUS
 10
6.405661827
 20
1.0171599257
 11
6.405661827
 21
0.9949286164
  0
LINE
  5
2EA
100
AcDbEntity
  8
0
100
AcDbLine
 62
6
  6
CONTINUOUS
 10
6.4266138607
 20
1.0140415782
 11
6.4266138607
 21
0.9918102689
  0
LINE
  5
2EB
100
AcDbEntity
  8
0
100
AcDbLine
 62
6
  6
CONTINUOUS
 10
6.4416006629
 20
1.0251437103
 11
6.4416006629
 21
1.002912401
  0
LINE
  5
2EC
100
AcDbEntity
  8
0
100
AcDbLine
 62
6
  6
CONTINUOUS
 10
6.4432650317
 20
1.0450161515
 11
6.4432650317
 21
1.0227848422
  0
LINE
  5
2ED
100
AcDbEntity
  8
0
100
AcDbLine
 62
6
  6
CONTINUOUS
 10
5.5223095128
 20
1.1619642849
 11
5.5272616368
 21
1.1813474007
  0
LINE
  5
2EE
100
AcDbEntity
  8
0
100
AcDbLine
 62
6
  6
CONTINUOUS
 10
6.8538694957
 20
5.1847007653
 11
6.867651479
 21
5.2279241611
  0
LINE
  5
2EF
100
AcDbEntity
  8
0
100
AcDbLine
 62
9
  6
CONTINUOUS
 10
6.8676497256
 20
5.2279187149
 11
6.867651479
 21
5.2279241611
  0
LINE
  5
2F0
100
AcDbEntity
  8
0
100
AcDbLine
 62
6
  6
CONTINUOUS
 10
5.4973098239
 20
1.2016472336
 11
5.5038650642
 21
1.2206054903
  0
LINE
  5
2F1
100
AcDbEntity
  8
0
100
AcDbLine
 62
9
  6
CONTINUOUS
 10
6.8666246289
 20
5.2250636407
 11
6.8676497256
 21
5.2279187149
  0
LWPOLYLINE
  5
2F2
100
AcDbEntity
  8
0
100
AcDbPolyline
 62
6
  6
CONTINUOUS
 90
10
 70
0
 10
6.5568357603
 20
1.6084727089
 10
6.5508209159
 20
1.6477890779
 10
6.5441111276
 20
1.6930754276
 10
6.5370843153
 20
1.7425449938
 10
6.5299433872
 20
1.7955133626
 10
6.5228703533
 20
1.8513460774
 10
6.5160004383
 20
1.909565769
 10
6.5094104108
 20
1.9700245166
 10
6.5031620342
 20
2.0326934353
 10
6.4973027838
 20
2.097663004
  0
LINE
  5
2F3
100
AcDbEntity
  8
0
100
AcDbLine
 62
6
  6
CONTINUOUS
 10
6.4644128419
 20
1.0434521565
 11
6.4644128419
 21
1.0212208471
  0
LINE
  5
2F4
100
AcDbEntity
  8
0
100
AcDbLine
 62
6
  6
CONTINUOUS
 10
6.4784264787
 20
1.0755588936
 11
6.4784264787
 21
1.0333936936
  0
LINE
  5
2F5
100
AcDbEntity
  8
0
100
AcDbLine
 62
6
  6
CONTINUOUS
 10
6.4996396821
 20
1.0755588936
 11
6.4996396821
 21
1.0533275843
  0
LINE
  5
2F6
100
AcDbEntity
  8
0
100
AcDbLine
 62
6
  6
CONTINUOUS
 10
6.5125937547
 20
1.0887274047
 11
6.5125937547
 21
1.0664960953
  0
LINE
  5
2F7
100
AcDbEntity
  8
0
100
AcDbLine
 62
6
  6
CONTINUOUS
 10
6.5320771961
 20
1.1101638409
 11
6.5320771961
 21
1.0879325316
  0
LINE
  5
2F8
100
AcDbEntity
  8
0
100
AcDbLine
 62
6
  6
CONTINUOUS
 10
6.5438918384
 20
1.8372766075
 11
6.5438918384
 21
1.8170942383
  0
LINE
  5
2F9
100
AcDbEntity
  8
0
100
AcDbLine
 62
6
  6
CONTINUOUS
 10
6.5438918384
 20
1.1242468284
 11
6.5438918384
 21
1.102015519
  0
LINE
  5
2FA
100
AcDbEntity
  8
0
100
AcDbLine
 62
6
  6
CONTINUOUS
 10
6.5615253959
 20
1.1470536474
 11
6.5615253959
 21
1.124822338
  0
LINE
  5
2FB
100
AcDbEntity
  8
0
100
AcDbLine
 62
6
  6
CONTINUOUS
 10
6.5721277666
 20
1.7995591509
 11
6.5721277666
 21
1.7790588348
  0
LINE
  5
2FC
100
AcDbEntity
  8
0
100
AcDbLine
 62
6
  6
CONTINUOUS
 10
6.5721277666
 20
1.1619642849
 11
6.5721277666
 21
1.1397329756
  0
LINE
  5
2FD
100
AcDbEntity
  8
0
100
AcDbLine
 62
6
  6
CONTINUOUS
 10
6.5878027236
 20
1.186000875
 11
6.5878027236
 21
1.1637695657
  0
LINE
  5
2FE
100
AcDbEntity
  8
0
100
AcDbLine
 62
6
  6
CONTINUOUS
 10
6.5971274555
 20
1.7598762022
 11
6.5971274555
 21
1.7389164691
  0
LINE
  5
2FF
100
AcDbEntity
  8
0
100
AcDbLine
 62
6
  6
CONTINUOUS
 10
6.5971274555
 20
1.2016472336
 11
6.5971274555
 21
1.1794159243
  0
LINE
  5
300
100
AcDbEntity
  8
0
100
AcDbLine
 62
6
  6
CONTINUOUS
 10
6.6107471705
 20
1.2267654013
 11
6.6107471705
 21
1.204534092
  0
LINE
  5
301
100
AcDbEntity
  8
0
100
AcDbLine
 62
6
  6
CONTINUOUS
 10
6.6187367738
 20
1.7184724198
 11
6.6187367738
 21
1.696896132
  0
LINE
  5
302
100
AcDbEntity
  8
0
100
AcDbLine
 62
6
  6
CONTINUOUS
 10
6.6187367738
 20
1.243051016
 11
6.6187367738
 21
1.2208197067
  0
LINE
  5
303
100
AcDbEntity
  8
0
100
AcDbLine
 62
6
  6
CONTINUOUS
 10
6.6302172767
 20
1.2690958994
 11
6.6302172767
 21
1.24686459
  0
LINE
  5
304
100
AcDbEntity
  8
0
100
AcDbLine
 62
6
  6
CONTINUOUS
 10
6.6368224926
 20
1.675603072
 11
6.6368224926
 21
1.6533717627
  0
LINE
  5
305
100
AcDbEntity
  8
0
100
AcDbLine
 62
6
  6
CONTINUOUS
 10
6.6368224926
 20
1.2859203638
 11
6.6368224926
 21
1.2636890545
  0
LINE
  5
306
100
AcDbEntity
  8
0
100
AcDbLine
 62
6
  6
CONTINUOUS
 10
6.6460930025
 20
1.3127313876
 11
6.6460930025
 21
1.2905000782
  0
LINE
  5
307
100
AcDbEntity
  8
0
100
AcDbLine
 62
6
  6
CONTINUOUS
 10
6.6512731077
 20
1.6315324624
 11
6.6512731077
 21
1.6093011531
  0
LINE
  5
308
100
AcDbEntity
  8
0
100
AcDbLine
 62
6
  6
CONTINUOUS
 10
6.6512731077
 20
1.3299909734
 11
6.6512731077
 21
1.3077596641
  0
LINE
  5
309
100
AcDbEntity
  8
0
100
AcDbLine
 62
6
  6
CONTINUOUS
 10
6.6582764686
 20
1.3574028386
 11
6.6582764686
 21
1.3351715293
  0
LINE
  5
30A
100
AcDbEntity
  8
0
100
AcDbLine
 62
6
  6
CONTINUOUS
 10
6.6619995261
 20
1.586532301
 11
6.6619995261
 21
1.5643009917
  0
LINE
  5
30B
100
AcDbEntity
  8
0
100
AcDbLine
 62
6
  6
CONTINUOUS
 10
6.6619995261
 20
1.3749911348
 11
6.6619995261
 21
1.3527598255
  0
LINE
  5
30C
100
AcDbEntity
  8
0
100
AcDbLine
 62
6
  6
CONTINUOUS
 10
6.66669256
 20
1.4028348382
 11
6.66669256
 21
1.3806035289
  0
LINE
  5
30D
100
AcDbEntity
  8
0
100
AcDbLine
 62
6
  6
CONTINUOUS
 10
6.6689356159
 20
1.5408800288
 11
6.6689356159
 21
1.5186487195
  0
LINE
  5
30E
100
AcDbEntity
  8
0
100
AcDbLine
 62
6
  6
CONTINUOUS
 10
6.6689356159
 20
1.420643407
 11
6.6689356159
 21
1.3984120977
  0
LINE
  5
30F
100
AcDbEntity
  8
0
100
AcDbLine
 62
6
  6
CONTINUOUS
 10
6.6712893887
 20
1.4487472829
 11
6.6712893887
 21
1.4265159736
  0
LINE
  5
310
100
AcDbEntity
  8
0
100
AcDbLine
 62
6
  6
CONTINUOUS
 10
6.6720386138
 20
1.4948571072
 11
6.6720386138
 21
1.4726257979
  0
LINE
  5
311
100
AcDbEntity
  8
0
100
AcDbLine
 62
6
  6
CONTINUOUS
 10
6.6720386138
 20
1.4666663286
 11
6.6720386138
 21
1.4444350193
  0
LINE
  5
312
100
AcDbEntity
  8
0
100
AcDbLine
 62
6
  6
CONTINUOUS
 10
6.4727186397
 20
2.8837617179
 11
6.4740423516
 21
2.9380172326
  0
LINE
  5
313
100
AcDbEntity
  8
0
100
AcDbLine
 62
6
  6
CONTINUOUS
 10
6.4740423516
 20
2.9380172326
 11
6.4757642953
 21
2.9933588039
  0
LINE
  5
314
100
AcDbEntity
  8
0
100
AcDbLine
 62
6
  6
CONTINUOUS
 10
6.4757642953
 20
2.9933588039
 11
6.477733485
 21
3.0455869823
  0
LWPOLYLINE
  5
315
100
AcDbEntity
  8
0
100
AcDbPolyline
 62
6
  6
CONTINUOUS
 90
3
 70
0
 10
6.4777334843
 20
3.0455869641
 10
6.4794335642
 20
3.0848529343
 10
6.4803406724
 20
3.1042007
  0
LWPOLYLINE
  5
316
100
AcDbEntity
  8
0
100
AcDbPolyline
 62
6
  6
CONTINUOUS
 90
3
 70
0
 10
6.4803406538
 20
3.1042003133
 10
6.4864369339
 20
3.2151853692
 10
6.4907602323
 20
3.2809354505
  0
LINE
  5
317
100
AcDbEntity
  8
0
100
AcDbLine
 62
9
  6
CONTINUOUS
 10
6.4777334843
 20
3.0455869641
 11
6.4777303961
 21
3.0455336899
  0
LINE
  5
318
100
AcDbEntity
  8
0
100
AcDbLine
 62
9
  6
CONTINUOUS
 10
6.4803406538
 20
3.1042003133
 11
6.4803369714
 21
3.1041382686
  0
LINE
  5
319
100
AcDbEntity
  8
0
100
AcDbLine
 62
6
  6
CONTINUOUS
 10
6.4432650317
 20
1.0450161515
 11
6.4416006629
 21
1.0251437103
  0
LINE
  5
31A
100
AcDbEntity
  8
0
100
AcDbLine
 62
6
  6
CONTINUOUS
 10
6.4432650317
 20
1.0227848422
 11
6.4416006629
 21
1.002912401
  0
LINE
  5
31B
100
AcDbEntity
  8
0
100
AcDbLine
 62
6
  6
CONTINUOUS
 10
6.9628017578
 20
5.6787172734
 11
6.9703128168
 21
5.7643973759
  0
LWPOLYLINE
  5
31C
100
AcDbEntity
  8
0
100
AcDbPolyline
 62
6
  6
CONTINUOUS
 90
6
 70
0
 10
6.5029484626
 20
3.4347926593
 10
6.5325694414
 20
3.7140253945
 10
6.5721408968
 20
3.9943802903
 10
6.6214652329
 20
4.2735010555
 10
6.6804848513
 20
4.5510727668
 10
6.7492016579
 20
4.8266711107
  0
LWPOLYLINE
  5
31D
100
AcDbEntity
  8
0
100
AcDbPolyline
 62
6
  6
CONTINUOUS
 90
3
 70
0
 10
6.9368794837
 20
5.5009679923
 10
6.9516829286
 20
5.5902652712
 10
6.9628017578
 20
5.6787172734
  0
LINE
  5
31E
100
AcDbEntity
  8
0
100
AcDbLine
 62
6
  6
CONTINUOUS
 10
6.7492016579
 20
4.8266711107
 11
6.8269685661
 21
5.0980922659
  0
LWPOLYLINE
  5
31F
100
AcDbEntity
  8
0
100
AcDbPolyline
 62
6
  6
CONTINUOUS
 90
4
 70
0
 10
6.8676497251
 20
5.2279187135
 10
6.8941937431
 20
5.316735825
 10
6.91768925
 20
5.4092807829
 10
6.9368794837
 20
5.5009679923
  0
LINE
  5
320
100
AcDbEntity
  8
0
100
AcDbLine
 62
9
  6
CONTINUOUS
 10
6.8270072322
 20
5.0982193421
 11
6.8269685661
 21
5.0980922659
  0
LWPOLYLINE
  5
321
100
AcDbEntity
  8
0
100
AcDbPolyline
 62
6
  6
CONTINUOUS
 90
3
 70
0
 10
6.8270134843
 20
5.098222644
 10
6.839467428
 20
5.1386958847
 10
6.8538694957
 20
5.1847007653
  0
LINE
  5
322
100
AcDbEntity
  8
0
100
AcDbLine
 62
6
  6
CONTINUOUS
 10
5.4757005056
 20
1.243051016
 11
5.4838184471
 21
1.2614675296
  0
LINE
  5
323
100
AcDbEntity
  8
0
100
AcDbLine
 62
6
  6
CONTINUOUS
 10
5.4576147868
 20
1.2859203638
 11
5.4672453796
 21
1.3036815905
  0
LWPOLYLINE
  5
324
100
AcDbEntity
  8
0
100
AcDbPolyline
 62
6
  6
CONTINUOUS
 90
3
 70
0
 10
6.975263935
 20
5.9450341566
 10
6.9745603018
 20
5.9802701464
 10
6.969965386
 20
6.0732864561
  0
LINE
  5
325
100
AcDbEntity
  8
0
100
AcDbLine
 62
6
  6
CONTINUOUS
 10
6.9702676345
 20
5.763731714
 11
6.9703129145
 21
5.7643988178
  0
LINE
  5
326
100
AcDbEntity
  8
0
100
AcDbLine
 62
6
  6
CONTINUOUS
 10
6.5438918384
 20
1.8372766075
 11
6.5405733622
 21
1.817588136
  0
LINE
  5
327
100
AcDbEntity
  8
0
100
AcDbLine
 62
6
  6
CONTINUOUS
 10
6.405661827
 20
1.0171599257
 11
6.4023433509
 21
0.9974714543
  0
LINE
  5
328
100
AcDbEntity
  8
0
100
AcDbLine
 62
6
  6
CONTINUOUS
 10
6.405661827
 20
0.9949286164
 11
6.4023433509
 21
0.9752401449
  0
LINE
  5
329
100
AcDbEntity
  8
0
100
AcDbLine
 62
6
  6
CONTINUOUS
 10
6.5721277666
 20
1.7995591509
 11
6.5671756426
 21
1.7801760352
  0
LINE
  5
32A
100
AcDbEntity
  8
0
100
AcDbLine
 62
6
  6
CONTINUOUS
 10
6.3658487009
 20
0.9921619591
 11
6.3608965769
 21
0.9727788434
  0
LINE
  5
32B
100
AcDbEntity
  8
0
100
AcDbLine
 62
6
  6
CONTINUOUS
 10
6.3658487009
 20
0.9699306498
 11
6.3608965769
 21
0.9505475341
  0
LINE
  5
32C
100
AcDbEntity
  8
0
100
AcDbLine
 62
6
  6
CONTINUOUS
 10
5.4431641717
 20
1.3299909734
 11
5.4542480401
 21
1.3469874093
  0
LINE
  5
32D
100
AcDbEntity
  8
0
100
AcDbLine
 62
6
  6
CONTINUOUS
 10
5.4324377533
 20
1.3749911348
 11
5.4449065614
 21
1.3911179912
  0
LINE
  5
32E
100
AcDbEntity
  8
0
100
AcDbLine
 62
9
  6
CONTINUOUS
 10
8.0472186397
 20
4.9437617179
 11
6.7827501649
 21
4.9437617179
  0
LINE
  5
32F
100
AcDbEntity
  8
0
100
AcDbLine
 62
9
  6
CONTINUOUS
 10
5.3116871145
 20
4.9437617179
 11
4.0472186397
 21
4.9437617179
  0
LINE
  5
330
100
AcDbEntity
  8
0
100
AcDbLine
 62
9
  6
CONTINUOUS
 10
8.0472186397
 20
5.0617026808
 11
6.8165423136
 21
5.0617026808
  0
LINE
  5
331
100
AcDbEntity
  8
0
100
AcDbLine
 62
9
  6
CONTINUOUS
 10
5.2778949658
 20
5.0617026808
 11
4.0472186397
 21
5.0617026808
  0
LINE
  5
332
100
AcDbEntity
  8
0
100
AcDbLine
 62
9
  6
CONTINUOUS
 10
8.0472186397
 20
5.0846775705
 11
6.8231250213
 21
5.0846775705
  0
LINE
  5
333
100
AcDbEntity
  8
0
100
AcDbLine
 62
9
  6
CONTINUOUS
 10
5.2713122581
 20
5.0846775705
 11
4.0472186397
 21
5.0846775705
  0
LINE
  5
334
100
AcDbEntity
  8
0
100
AcDbLine
 62
6
  6
CONTINUOUS
 10
6.5971274555
 20
1.7598762022
 11
6.5905722152
 21
1.7409179455
  0
LINE
  5
335
100
AcDbEntity
  8
0
100
AcDbLine
 62
6
  6
CONTINUOUS
 10
6.3240711145
 20
0.9701763726
 11
6.3175158741
 21
0.9512181159
  0
LINE
  5
336
100
AcDbEntity
  8
0
100
AcDbLine
 62
6
  6
CONTINUOUS
 10
6.3240711145
 20
0.9479450632
 11
6.3175158741
 21
0.9289868066
  0
LINE
  5
337
100
AcDbEntity
  8
0
100
AcDbLine
 62
6
  6
CONTINUOUS
 10
6.6187367738
 20
1.7184724198
 11
6.6106188323
 21
1.7000559062
  0
LINE
  5
338
100
AcDbEntity
  8
0
100
AcDbLine
 62
6
  6
CONTINUOUS
 10
6.2805866405
 20
0.9513387144
 11
6.272468699
 21
0.9329222008
  0
LINE
  5
339
100
AcDbEntity
  8
0
100
AcDbLine
 62
6
  6
CONTINUOUS
 10
6.2805866405
 20
0.9291074051
 11
6.272468699
 21
0.9106908914
  0
LINE
  5
33A
100
AcDbEntity
  8
0
100
AcDbLine
 62
6
  6
CONTINUOUS
 10
5.4255016635
 20
1.420643407
 11
5.4392785371
 21
1.4358012565
  0
LINE
  5
33B
100
AcDbEntity
  8
0
100
AcDbLine
 62
6
  6
CONTINUOUS
 10
5.4223986656
 20
1.4666663286
 11
5.4373986656
 21
1.4807617179
  0
LINE
  5
33C
100
AcDbEntity
  8
0
100
AcDbLine
 62
6
  6
CONTINUOUS
 10
9.9557598389
 20
6.380069557
 11
9.4910273022
 21
6.2523376975
  0
LINE
  5
33D
100
AcDbEntity
  8
0
100
AcDbLine
 62
6
  6
CONTINUOUS
 10
8.8047404004
 20
5.8135597057
 11
8.4552529068
 21
5.7687617179
  0
LINE
  5
33E
100
AcDbEntity
  8
0
100
AcDbLine
 62
9
  6
CONTINUOUS
 10
8.0472186397
 20
5.2067186018
 11
6.8608899865
 21
5.2067186018
  0
LINE
  5
33F
100
AcDbEntity
  8
0
100
AcDbLine
 62
9
  6
CONTINUOUS
 10
5.2335472929
 20
5.2067186018
 11
4.0472186397
 21
5.2067186018
  0
LINE
  5
340
100
AcDbEntity
  8
0
100
AcDbLine
 62
9
  6
CONTINUOUS
 10
8.0472186397
 20
5.2278029593
 11
6.867651479
 21
5.2278029593
  0
LINE
  5
341
100
AcDbEntity
  8
0
100
AcDbLine
 62
9
  6
CONTINUOUS
 10
5.2267858004
 20
5.2278029593
 11
4.0472186397
 21
5.2278029593
  0
LINE
  5
342
100
AcDbEntity
  8
0
100
AcDbLine
 62
9
  6
CONTINUOUS
 10
8.0472186397
 20
5.3027694633
 11
6.8900197348
 21
5.3027694633
  0
LINE
  5
343
100
AcDbEntity
  8
0
100
AcDbLine
 62
9
  6
CONTINUOUS
 10
5.2044175445
 20
5.3027694633
 11
4.0472186397
 21
5.3027694633
  0
LINE
  5
344
100
AcDbEntity
  8
0
100
AcDbLine
 62
6
  6
CONTINUOUS
 10
3.289696879
 20
5.8135597057
 11
3.6391843726
 21
5.7687617179
  0
LINE
  5
345
100
AcDbEntity
  8
0
100
AcDbLine
 62
6
  6
CONTINUOUS
 10
2.1386774405
 20
6.380069557
 11
2.6034099772
 21
6.2523376975
  0
LINE
  5
346
100
AcDbEntity
  8
0
100
AcDbLine
 62
6
  6
CONTINUOUS
 10
6.6368224926
 20
1.675603072
 11
6.6271918998
 21
1.6578418453
  0
LINE
  5
347
100
AcDbEntity
  8
0
100
AcDbLine
 62
6
  6
CONTINUOUS
 10
6.2356633752
 20
0.9357651251
 11
6.2260327824
 21
0.9180038984
  0
LINE
  5
348
100
AcDbEntity
  8
0
100
AcDbLine
 62
6
  6
CONTINUOUS
 10
6.2356633752
 20
0.9135338158
 11
6.2260327824
 21
0.8957725891
  0
LINE
  5
349
100
AcDbEntity
  8
0
100
AcDbLine
 62
6
  6
CONTINUOUS
 10
6.6512731077
 20
1.6315324624
 11
6.6401892393
 21
1.6145360265
  0
LINE
  5
34A
100
AcDbEntity
  8
0
100
AcDbLine
 62
6
  6
CONTINUOUS
 10
6.1895782854
 20
0.9235516211
 11
6.1784944171
 21
0.9065551852
  0
LINE
  5
34B
100
AcDbEntity
  8
0
100
AcDbLine
 62
6
  6
CONTINUOUS
 10
6.6512731077
 20
1.6093011531
 11
6.6507289846
 21
1.6084667735
  0
LINE
  5
34C
100
AcDbEntity
  8
0
100
AcDbLine
 62
6
  6
CONTINUOUS
 10
6.1895782854
 20
0.9013203118
 11
6.1784944171
 21
0.8843238759
  0
LINE
  5
34D
100
AcDbEntity
  8
0
100
AcDbLine
 62
6
  6
CONTINUOUS
 10
5.4231478906
 20
1.5127761529
 11
5.4392785371
 21
1.5257221794
  0
LINE
  5
34E
100
AcDbEntity
  8
0
100
AcDbLine
 62
6
  6
CONTINUOUS
 10
5.4277447194
 20
1.5586885976
 11
5.4449065614
 21
1.5704054446
  0
LINE
  5
34F
100
AcDbEntity
  8
0
100
AcDbLine
 62
6
  6
CONTINUOUS
 10
5.4361608108
 20
1.6041205972
 11
5.4542480401
 21
1.6145360265
  0
LINE
  5
350
100
AcDbEntity
  8
0
100
AcDbLine
 62
6
  6
CONTINUOUS
 10
5.4483442769
 20
1.6487920483
 11
5.4672453796
 21
1.6578418453
  0
LWPOLYLINE
  5
351
100
AcDbEntity
  8
0
100
AcDbPolyline
 62
6
  6
CONTINUOUS
 90
7
 70
0
 10
6.9371240348
 20
6.2609634597
 10
6.9208046743
 20
6.312755854
 10
6.8995611727
 20
6.3681015102
 10
6.87324985
 20
6.4250520505
 10
6.8420981512
 20
6.4817773134
 10
6.8067609621
 20
6.536617624
 10
6.7682551871
 20
6.5881139169
  0
LINE
  5
352
100
AcDbEntity
  8
0
100
AcDbLine
 62
9
  6
CONTINUOUS
 10
8.0472186397
 20
4.9437617179
 11
8.0472186397
 21
5.3027694633
  0
LINE
  5
353
100
AcDbEntity
  8
0
100
AcDbLine
 62
9
  6
CONTINUOUS
 10
8.0472186397
 20
6.7147539726
 11
8.0472186397
 21
7.0737617179
  0
LINE
  5
354
100
AcDbEntity
  8
0
100
AcDbLine
 62
6
  6
CONTINUOUS
 10
6.6619995261
 20
1.586532301
 11
6.6495307179
 21
1.5704054446
  0
LINE
  5
355
100
AcDbEntity
  8
0
100
AcDbLine
 62
6
  6
CONTINUOUS
 10
6.1426155011
 20
0.9147735026
 11
6.130146693
 21
0.8986466462
  0
LINE
  5
356
100
AcDbEntity
  8
0
100
AcDbLine
 62
6
  6
CONTINUOUS
 10
6.6619995261
 20
1.5643009917
 11
6.6607807965
 21
1.5627247162
  0
LINE
  5
357
100
AcDbEntity
  8
0
100
AcDbLine
 62
6
  6
CONTINUOUS
 10
6.1426155011
 20
0.8925421932
 11
6.130146693
 21
0.8764153369
  0
LINE
  5
358
100
AcDbEntity
  8
0
100
AcDbLine
 62
6
  6
CONTINUOUS
 10
6.6689356159
 20
1.5408800288
 11
6.6551587423
 21
1.5257221794
  0
LINE
  5
359
100
AcDbEntity
  8
0
100
AcDbLine
 62
6
  6
CONTINUOUS
 10
6.0950645634
 20
0.9094848896
 11
6.0812876898
 21
0.8943270402
  0
LINE
  5
35A
100
AcDbEntity
  8
0
100
AcDbLine
 62
6
  6
CONTINUOUS
 10
6.6689356159
 20
1.5186487195
 11
6.6668421399
 21
1.5163453962
  0
LINE
  5
35B
100
AcDbEntity
  8
0
100
AcDbLine
 62
6
  6
CONTINUOUS
 10
6.0950645634
 20
0.8872535803
 11
6.0812876898
 21
0.8720957309
  0
LINE
  5
35C
100
AcDbEntity
  8
0
100
AcDbLine
 62
6
  6
CONTINUOUS
 10
5.4642200027
 20
1.6924275365
 11
5.4838184471
 21
1.7000559062
  0
LINE
  5
35D
100
AcDbEntity
  8
0
100
AcDbLine
 62
6
  6
CONTINUOUS
 10
5.4836901089
 20
1.7347580345
 11
5.5038650642
 21
1.7409179455
  0
LINE
  5
35E
100
AcDbEntity
  8
0
100
AcDbLine
 62
6
  6
CONTINUOUS
 10
8.4372186397
 20
6.0087617179
 11
8.4372186397
 21
6.2326038958
  0
LINE
  5
35F
100
AcDbEntity
  8
0
100
AcDbLine
 62
9
  6
CONTINUOUS
 10
8.4552529068
 20
5.7687617179
 11
8.4552529068
 21
6.2487617179
  0
LINE
  5
360
100
AcDbEntity
  8
0
100
AcDbLine
 62
6
  6
CONTINUOUS
 10
6.6720386138
 20
1.4948571072
 11
6.6570386138
 21
1.4807617179
  0
LINE
  5
361
100
AcDbEntity
  8
0
100
AcDbLine
 62
6
  6
CONTINUOUS
 10
6.0472186397
 20
0.9077183883
 11
6.0322186397
 21
0.893622999
  0
LINE
  5
362
100
AcDbEntity
  8
0
100
AcDbLine
 62
6
  6
CONTINUOUS
 10
6.6720386138
 20
1.4726257979
 11
6.6688676464
 21
1.4696460633
  0
LINE
  5
363
100
AcDbEntity
  8
0
100
AcDbLine
 62
6
  6
CONTINUOUS
 10
6.0472186397
 20
0.8854870789
 11
6.0322186397
 21
0.8713916896
  0
LINE
  5
364
100
AcDbEntity
  8
0
100
AcDbLine
 62
6
  6
CONTINUOUS
 10
6.6712893887
 20
1.4487472829
 11
6.6551587423
 21
1.4358012565
  0
LINE
  5
365
100
AcDbEntity
  8
0
100
AcDbLine
 62
6
  6
CONTINUOUS
 10
5.999372716
 20
0.9094848896
 11
5.9832420695
 21
0.8965388632
  0
LINE
  5
366
100
AcDbEntity
  8
0
100
AcDbLine
 62
6
  6
CONTINUOUS
 10
6.6712893887
 20
1.4265159736
 11
6.6669910886
 21
1.4230662726
  0
LINE
  5
367
100
AcDbEntity
  8
0
100
AcDbLine
 62
6
  6
CONTINUOUS
 10
5.999372716
 20
0.8872535803
 11
5.9832420695
 21
0.8743075539
  0
LINE
  5
368
100
AcDbEntity
  8
0
100
AcDbLine
 62
6
  6
CONTINUOUS
 10
6.66669256
 20
1.4028348382
 11
6.6495307179
 21
1.3911179912
  0
LINE
  5
369
100
AcDbEntity
  8
0
100
AcDbLine
 62
6
  6
CONTINUOUS
 10
5.9518217783
 20
0.9147735026
 11
5.9346599362
 21
0.9030566556
  0
LINE
  5
36A
100
AcDbEntity
  8
0
100
AcDbLine
 62
6
  6
CONTINUOUS
 10
6.66669256
 20
1.3806035289
 11
6.6608780359
 21
1.3766337983
  0
LINE
  5
36B
100
AcDbEntity
  8
0
100
AcDbLine
 62
6
  6
CONTINUOUS
 10
5.9518217783
 20
0.8925421932
 11
5.9346599362
 21
0.8808253463
  0
LINE
  5
36C
100
AcDbEntity
  8
0
100
AcDbLine
 62
6
  6
CONTINUOUS
 10
6.6582764686
 20
1.3574028386
 11
6.6401892393
 21
1.3469874093
  0
LINE
  5
36D
100
AcDbEntity
  8
0
100
AcDbLine
 62
6
  6
CONTINUOUS
 10
5.904858994
 20
0.9235516211
 11
5.8867717647
 21
0.9131361918
  0
LINE
  5
36E
100
AcDbEntity
  8
0
100
AcDbLine
 62
6
  6
CONTINUOUS
 10
3.289696879
 20
6.2039637301
 11
3.6391843726
 21
6.2487617179
  0
LINE
  5
36F
100
AcDbEntity
  8
0
100
AcDbLine
 62
6
  6
CONTINUOUS
 10
8.8047404004
 20
6.2039637301
 11
8.4552529068
 21
6.2487617179
  0
LINE
  5
370
100
AcDbEntity
  8
0
100
AcDbLine
 62
9
  6
CONTINUOUS
 10
8.8047404004
 20
5.8135597057
 11
8.8047404004
 21
6.2039637301
  0
LINE
  5
371
100
AcDbEntity
  8
0
100
AcDbLine
 62
6
  6
CONTINUOUS
 10
6.6582764686
 20
1.3351715293
 11
6.6507767846
 21
1.3308528784
  0
LINE
  5
372
100
AcDbEntity
  8
0
100
AcDbLine
 62
6
  6
CONTINUOUS
 10
5.904858994
 20
0.9013203118
 11
5.8867717647
 21
0.8909048825
  0
LINE
  5
373
100
AcDbEntity
  8
0
100
AcDbLine
 62
6
  6
CONTINUOUS
 10
6.6460930025
 20
1.3127313876
 11
6.6271918998
 21
1.3036815905
  0
LINE
  5
374
100
AcDbEntity
  8
0
100
AcDbLine
 62
6
  6
CONTINUOUS
 10
5.8587739042
 20
0.9357651251
 11
5.8398728015
 21
0.9267153281
  0
LINE
  5
375
100
AcDbEntity
  8
0
100
AcDbLine
 62
6
  6
CONTINUOUS
 10
6.6460930025
 20
1.2905000782
 11
6.636767565
 21
1.2860350839
  0
LINE
  5
376
100
AcDbEntity
  8
0
100
AcDbLine
 62
6
  6
CONTINUOUS
 10
5.8587739042
 20
0.9135338158
 11
5.8398728015
 21
0.9044840188
  0
LINE
  5
377
100
AcDbEntity
  8
0
100
AcDbLine
 62
6
  6
CONTINUOUS
 10
6.6302172767
 20
1.2690958994
 11
6.6106188323
 21
1.2614675296
  0
LINE
  5
378
100
AcDbEntity
  8
0
100
AcDbLine
 62
6
  6
CONTINUOUS
 10
5.8138506389
 20
0.9513387144
 11
5.7942521944
 21
0.9437103447
  0
LINE
  5
379
100
AcDbEntity
  8
0
100
AcDbLine
 62
6
  6
CONTINUOUS
 10
6.6302172767
 20
1.24686459
 11
6.6187367738
 21
1.2423959945
  0
LINE
  5
37A
100
AcDbEntity
  8
0
100
AcDbLine
 62
6
  6
CONTINUOUS
 10
5.8138506389
 20
0.9291074051
 11
5.7942521944
 21
0.9214790354
  0
LINE
  5
37B
100
AcDbEntity
  8
0
100
AcDbLine
 62
6
  6
CONTINUOUS
 10
6.6107471705
 20
1.2267654013
 11
6.5905722152
 21
1.2206054903
  0
LINE
  5
37C
100
AcDbEntity
  8
0
100
AcDbLine
 62
6
  6
CONTINUOUS
 10
5.7703661649
 20
0.9701763726
 11
5.7501912096
 21
0.9640164616
  0
LINE
  5
37D
100
AcDbEntity
  8
0
100
AcDbLine
 62
6
  6
CONTINUOUS
 10
6.6107471705
 20
1.204534092
 11
6.5971274555
 21
1.2003756574
  0
LINE
  5
37E
100
AcDbEntity
  8
0
100
AcDbLine
 62
6
  6
CONTINUOUS
 10
5.7703661649
 20
0.9479450632
 11
5.7501912096
 21
0.9417851522
  0
LINE
  5
37F
100
AcDbEntity
  8
0
100
AcDbLine
 62
6
  6
CONTINUOUS
 10
2.1386774405
 20
5.6374538788
 11
2.6034099772
 21
5.7651857383
  0
LINE
  5
380
100
AcDbEntity
  8
0
100
AcDbLine
 62
9
  6
CONTINUOUS
 10
4.0472186397
 20
6.7147539726
 11
5.4527456971
 21
6.7147539726
  0
LINE
  5
381
100
AcDbEntity
  8
0
100
AcDbLine
 62
9
  6
CONTINUOUS
 10
6.6416915823
 20
6.7147539726
 11
8.0472186397
 21
6.7147539726
  0
LINE
  5
382
100
AcDbEntity
  8
0
100
AcDbLine
 62
9
  6
CONTINUOUS
 10
4.0472186397
 20
6.7897204765
 11
5.5571534662
 21
6.7897204765
  0
LINE
  5
383
100
AcDbEntity
  8
0
100
AcDbLine
 62
9
  6
CONTINUOUS
 10
6.5372838132
 20
6.7897204765
 11
8.0472186397
 21
6.7897204765
  0
LINE
  5
384
100
AcDbEntity
  8
0
100
AcDbLine
 62
9
  6
CONTINUOUS
 10
4.0472186397
 20
6.810804834
 11
5.5890953516
 21
6.810804834
  0
LINE
  5
385
100
AcDbEntity
  8
0
100
AcDbLine
 62
9
  6
CONTINUOUS
 10
6.5053419278
 20
6.810804834
 11
8.0472186397
 21
6.810804834
  0
LINE
  5
386
100
AcDbEntity
  8
0
100
AcDbLine
 62
6
  6
CONTINUOUS
 10
9.9557598389
 20
5.6374538788
 11
9.4910273022
 21
5.7651857383
  0
LINE
  5
387
100
AcDbEntity
  8
0
100
AcDbLine
 62
9
  6
CONTINUOUS
 10
4.0472186397
 20
6.9328458653
 11
5.8024110105
 21
6.9328458653
  0
LINE
  5
388
100
AcDbEntity
  8
0
100
AcDbLine
 62
9
  6
CONTINUOUS
 10
6.2920262689
 20
6.9328458653
 11
8.0472186397
 21
6.9328458653
  0
LINE
  5
389
100
AcDbEntity
  8
0
100
AcDbLine
 62
9
  6
CONTINUOUS
 10
4.0472186397
 20
6.955820755
 11
5.8436230579
 21
6.955820755
  0
LINE
  5
38A
100
AcDbEntity
  8
0
100
AcDbLine
 62
9
  6
CONTINUOUS
 10
6.2508142215
 20
6.955820755
 11
8.0472186397
 21
6.955820755
  0
LINE
  5
38B
100
AcDbEntity
  8
0
100
AcDbLine
 62
9
  6
CONTINUOUS
 10
4.0472186397
 20
7.0737617179
 11
8.0472186397
 21
7.0737617179
  0
LINE
  5
38C
100
AcDbEntity
  8
0
100
AcDbLine
 62
9
  6
CONTINUOUS
 10
9.4910273022
 20
5.7651857383
 11
9.4910273022
 21
6.2523376975
  0
LINE
  5
38D
100
AcDbEntity
  8
0
100
AcDbLine
 62
9
  6
CONTINUOUS
 10
9.9557598389
 20
5.6374538788
 11
9.9557598389
 21
6.380069557
  0
LINE
  5
38E
100
AcDbEntity
  8
0
100
AcDbLine
 62
9
  6
CONTINUOUS
 10
10.3045999253
 20
5.7741178226
 11
10.3045999253
 21
6.2434056133
  0
LINE
  5
38F
100
AcDbEntity
  8
0
100
AcDbLine
 62
9
  6
CONTINUOUS
 10
10.3522925894
 20
5.7802296078
 11
10.3522925894
 21
6.237293828
  0
LINE
  5
390
100
AcDbEntity
  8
0
100
AcDbLine
 62
9
  6
CONTINUOUS
 10
10.4805002354
 20
5.8135506452
 11
10.4805002354
 21
6.2039727906
  0
ARC
  5
391
100
AcDbEntity
  8
0
100
AcDbCircle
 62
9
  6
CONTINUOUS
 10
-2.6811529796
 20
2.6729906676
 40
8.3105248272
100
AcDbArc
 50
16.9676553566
 51
17.8839046456
  0
ARC
  5
392
100
AcDbEntity
  8
0
100
AcDbCircle
 62
6
  6
CONTINUOUS
 10
-2.5788016843
 20
2.7098231015
 40
8.2023854765
100
AcDbArc
 50
2.7554552324
 51
3.9925976185
  0
ARC
  5
393
100
AcDbEntity
  8
0
100
AcDbCircle
 62
9
  6
CONTINUOUS
 10
-2.5692415888
 20
2.7107908788
 40
8.1927899258
100
AcDbArc
 50
2.4726970224
 51
2.7519090433
  0
ARC
  5
394
100
AcDbEntity
  8
0
100
AcDbCircle
 62
6
  6
CONTINUOUS
 10
-2.5532312884
 20
2.712174459
 40
8.1767134388
100
AcDbArc
 50
3.9886368349
 51
5.070114585
  0
ARC
  5
395
100
AcDbEntity
  8
0
100
AcDbCircle
 62
6
  6
CONTINUOUS
 10
-2.5480173721
 20
2.7116238544
 40
8.1715492989
100
AcDbArc
 50
1.207124429
 51
2.3419001417
  0
ARC
  5
396
100
AcDbEntity
  8
0
100
AcDbCircle
 62
9
  6
CONTINUOUS
 10
-2.099643543
 20
2.7217840904
 40
7.7230782904
100
AcDbArc
 50
355.8423799855
 51
0.0289885166
  0
ARC
  5
397
100
AcDbEntity
  8
0
100
AcDbCircle
 62
9
  6
CONTINUOUS
 10
-2.0843473112
 20
2.7213171957
 40
7.7077779328
100
AcDbArc
 50
0.1413335756
 51
1.2076210238
  0
ARC
  5
398
100
AcDbEntity
  8
0
100
AcDbCircle
 62
9
  6
CONTINUOUS
 10
-2.0826274251
 20
2.7209267375
 40
7.7060392993
100
AcDbArc
 50
351.1766693712
 51
355.7315914849
  0
ARC
  5
399
100
AcDbEntity
  8
0
100
AcDbCircle
 62
6
  6
CONTINUOUS
 10
6.0054116181
 20
1.4672689393
 40
0.5863483852
100
AcDbArc
 50
143.6909207776
 51
145.4787936003
  0
ARC
  5
39A
100
AcDbEntity
  8
0
100
AcDbCircle
 62
6
  6
CONTINUOUS
 10
6.0054116072
 20
1.4720231795
 40
0.586348372
100
AcDbArc
 50
214.5212063794
 51
216.3090792426
  0
ARC
  5
39B
100
AcDbEntity
  8
0
100
AcDbCircle
 62
6
  6
CONTINUOUS
 10
6.0049828885
 20
1.4939496437
 40
0.5858223844
100
AcDbArc
 50
214.5204036828
 51
216.3098819393
  0
ARC
  5
39C
100
AcDbEntity
  8
0
100
AcDbCircle
 62
6
  6
CONTINUOUS
 10
5.9988722045
 20
1.4715627801
 40
0.5785235095
100
AcDbArc
 50
148.3044142962
 51
150.1083914094
  0
ARC
  5
39D
100
AcDbEntity
  8
0
100
AcDbCircle
 62
6
  6
CONTINUOUS
 10
5.9988721933
 20
1.4677293397
 40
0.5785234964
100
AcDbArc
 50
209.8916085702
 51
211.6955857243
  0
ARC
  5
39E
100
AcDbEntity
  8
0
100
AcDbCircle
 62
6
  6
CONTINUOUS
 10
5.9984570106
 20
1.4897132133
 40
0.5780402334
100
AcDbArc
 50
209.8908544121
 51
211.6963398824
  0
ARC
  5
39F
100
AcDbEntity
  8
0
100
AcDbCircle
 62
6
  6
CONTINUOUS
 10
5.9926592466
 20
1.4749588771
 40
0.5714413228
100
AcDbArc
 50
152.9583306071
 51
154.7772082158
  0
ARC
  5
3A0
100
AcDbEntity
  8
0
100
AcDbCircle
 62
6
  6
CONTINUOUS
 10
5.992659235
 20
1.4643332437
 40
0.5714413099
100
AcDbArc
 50
205.2227917636
 51
207.0416694135
  0
ARC
  5
3A1
100
AcDbEntity
  8
0
100
AcDbCircle
 62
6
  6
CONTINUOUS
 10
5.9922738379
 20
1.48637548
 40
0.571012086
100
AcDbArc
 50
205.2221080904
 51
207.0423530867
  0
ARC
  5
3A2
100
AcDbEntity
  8
0
100
AcDbCircle
 62
6
  6
CONTINUOUS
 10
5.9870196417
 20
1.4774697152
 40
0.5652665986
100
AcDbArc
 50
157.6491654013
 51
159.4812972211
  0
ARC
  5
3A3
100
AcDbEntity
  8
0
100
AcDbCircle
 62
6
  6
CONTINUOUS
 10
5.9870196298
 20
1.4618224066
 40
0.5652665858
100
AcDbArc
 50
200.5187027582
 51
202.3508346194
  0
ARC
  5
3A4
100
AcDbEntity
  8
0
100
AcDbCircle
 62
6
  6
CONTINUOUS
 10
5.9866795801
 20
1.4839202138
 40
0.5649013154
100
AcDbArc
 50
200.518110371
 51
202.3514270066
  0
ARC
  5
3A5
100
AcDbEntity
  8
0
100
AcDbCircle
 62
6
  6
CONTINUOUS
 10
5.9821836567
 20
1.4791641339
 40
0.5601411543
100
AcDbArc
 50
162.3723013975
 51
164.2156307714
  0
ARC
  5
3A6
100
AcDbEntity
  8
0
100
AcDbCircle
 62
6
  6
CONTINUOUS
 10
5.9821836445
 20
1.460127989
 40
0.5601411416
100
AcDbArc
 50
195.7843692077
 51
197.6276986233
  0
ARC
  5
3A7
100
AcDbEntity
  8
0
100
AcDbCircle
 62
6
  6
CONTINUOUS
 10
5.9819029923
 20
1.4822750663
 40
0.5598481595
100
AcDbArc
 50
195.7838868367
 51
197.6281809943
  0
ARC
  5
3A8
100
AcDbEntity
  8
0
100
AcDbCircle
 62
6
  6
CONTINUOUS
 10
5.9783527055
 20
1.4801622432
 40
0.5561813771
100
AcDbArc
 50
167.1221083655
 51
168.9742194735
  0
ARC
  5
3A9
100
AcDbEntity
  8
0
100
AcDbCircle
 62
6
  6
CONTINUOUS
 10
5.9783526932
 20
1.4591298807
 40
0.5561813645
100
AcDbArc
 50
191.0257805055
 51
192.8778916555
  0
ARC
  5
3AA
100
AcDbEntity
  8
0
100
AcDbCircle
 62
6
  6
CONTINUOUS
 10
5.978143229
 20
1.481316851
 40
0.5559672869
100
AcDbArc
 50
191.0254238928
 51
192.8782482682
  0
ARC
  5
3AB
100
AcDbEntity
  8
0
100
AcDbCircle
 62
6
  6
CONTINUOUS
 10
5.9756886247
 20
1.4806274686
 40
0.5534763439
100
AcDbArc
 50
171.8920917912
 51
173.75027906
  0
ARC
  5
3AC
100
AcDbEntity
  8
0
100
AcDbCircle
 62
6
  6
CONTINUOUS
 10
5.9756886122
 20
1.4586646563
 40
0.5534763313
100
AcDbArc
 50
186.249720919
 51
188.1079082298
  0
ARC
  5
3AD
100
AcDbEntity
  8
0
100
AcDbCircle
 62
6
  6
CONTINUOUS
 10
5.975559239
 20
1.4808796706
 40
0.5533459531
100
AcDbArc
 50
186.2495019886
 51
188.1081271602
  0
ARC
  5
3AE
100
AcDbEntity
  8
0
100
AcDbCircle
 62
6
  6
CONTINUOUS
 10
5.9743050374
 20
1.4807561725
 40
0.5520864783
100
AcDbArc
 50
176.6750864033
 51
178.5364395846
  0
ARC
  5
3AF
100
AcDbEntity
  8
0
100
AcDbCircle
 62
6
  6
CONTINUOUS
 10
5.9743050249
 20
1.4585359535
 40
0.5520864658
100
AcDbArc
 50
181.4635603943
 51
183.3249136178
  0
ARC
  5
3B0
100
AcDbEntity
  8
0
100
AcDbCircle
 62
6
  6
CONTINUOUS
 10
5.9742612822
 20
1.4807654339
 40
0.5520426907
100
AcDbArc
 50
181.4634865882
 51
183.3249874239
  0
ARC
  5
3B1
100
AcDbEntity
  8
0
100
AcDbCircle
 62
6
  6
CONTINUOUS
 10
6.0348276308
 20
1.5034792848
 40
0.6296848256
100
AcDbArc
 50
237.0235655097
 51
238.7284464069
  0
ARC
  5
3B2
100
AcDbEntity
  8
0
100
AcDbCircle
 62
6
  6
CONTINUOUS
 10
6.0300418595
 20
1.4964364849
 40
0.6211681067
100
AcDbArc
 50
232.6089697532
 51
234.3293839997
  0
ARC
  5
3B3
100
AcDbEntity
  8
0
100
AcDbCircle
 62
6
  6
CONTINUOUS
 10
6.0245442255
 20
1.4895531431
 40
0.6123569241
100
AcDbArc
 50
228.1525827639
 51
229.8894522571
  0
ARC
  5
3B4
100
AcDbEntity
  8
0
100
AcDbCircle
 62
6
  6
CONTINUOUS
 10
6.0184774651
 20
1.483063989
 40
0.6034716297
100
AcDbArc
 50
223.6527362708
 51
225.4066106887
  0
ARC
  5
3B5
100
AcDbEntity
  8
0
100
AcDbCircle
 62
6
  6
CONTINUOUS
 10
6.0180689036
 20
1.5048933899
 40
0.6028985889
100
AcDbArc
 50
223.6519026975
 51
225.407444262
  0
ARC
  5
3B6
100
AcDbEntity
  8
0
100
AcDbCircle
 62
6
  6
CONTINUOUS
 10
6.0120270088
 20
1.4621231479
 40
0.5947313306
100
AcDbArc
 50
139.1201897434
 51
140.8912106128
  0
ARC
  5
3B7
100
AcDbEntity
  8
0
100
AcDbCircle
 62
6
  6
CONTINUOUS
 10
6.0120269985
 20
1.4771689699
 40
0.5947313171
100
AcDbArc
 50
219.1087893672
 51
220.8798102767
  0
ARC
  5
3B8
100
AcDbEntity
  8
0
100
AcDbCircle
 62
6
  6
CONTINUOUS
 10
6.0116008237
 20
1.4990427484
 40
0.5941750984
100
AcDbArc
 50
219.1079603578
 51
220.8806392861
  0
ARC
  5
3B9
100
AcDbEntity
  8
0
100
AcDbCircle
 62
6
  6
CONTINUOUS
 10
6.04721526
 20
1.5361730453
 40
0.6649504865
100
AcDbArc
 50
267.0634295789
 51
268.7076994055
  0
ARC
  5
3BA
100
AcDbEntity
  8
0
100
AcDbCircle
 62
6
  6
CONTINUOUS
 10
6.0472135414
 20
1.5583578055
 40
0.6649039105
100
AcDbArc
 50
267.063371985
 51
268.7077569994
  0
ARC
  5
3BB
100
AcDbEntity
  8
0
100
AcDbCircle
 62
6
  6
CONTINUOUS
 10
6.0471081363
 20
1.5347917697
 40
0.6635648227
100
AcDbArc
 50
262.8303882744
 51
264.476908355
  0
ARC
  5
3BC
100
AcDbEntity
  8
0
100
AcDbCircle
 62
6
  6
CONTINUOUS
 10
6.0470928241
 20
1.556885404
 40
0.663426313
100
AcDbArc
 50
262.8302163829
 51
264.4770802465
  0
ARC
  5
3BD
100
AcDbEntity
  8
0
100
AcDbCircle
 62
6
  6
CONTINUOUS
 10
6.0466975427
 20
1.5320419076
 40
0.6607839549
100
AcDbArc
 50
258.5870959417
 51
260.2381954353
  0
ARC
  5
3BE
100
AcDbEntity
  8
0
100
AcDbCircle
 62
6
  6
CONTINUOUS
 10
6.0466558779
 20
1.5540503108
 40
0.6605572119
100
AcDbArc
 50
258.5868125437
 51
260.2384788333
  0
ARC
  5
3BF
100
AcDbEntity
  8
0
100
AcDbCircle
 62
6
  6
CONTINUOUS
 10
6.045797333
 20
1.5280407954
 40
0.656682041
100
AcDbArc
 50
254.3276967352
 51
255.9856297316
  0
ARC
  5
3C0
100
AcDbEntity
  8
0
100
AcDbCircle
 62
6
  6
CONTINUOUS
 10
6.0457181811
 20
1.5499734418
 40
0.6563730999
100
AcDbArc
 50
254.3273065308
 51
255.9860199359
  0
ARC
  5
3C1
100
AcDbEntity
  8
0
100
AcDbCircle
 62
6
  6
CONTINUOUS
 10
6.0442516134
 20
1.5229575831
 40
0.6513679823
100
AcDbArc
 50
250.0466037826
 51
251.7135094439
  0
ARC
  5
3C2
100
AcDbEntity
  8
0
100
AcDbCircle
 62
6
  6
CONTINUOUS
 10
6.0441261628
 20
1.54482702
 40
0.6509850222
100
AcDbArc
 50
250.0461134461
 51
251.7139997804
  0
ARC
  5
3C3
100
AcDbEntity
  8
0
100
AcDbCircle
 62
6
  6
CONTINUOUS
 10
6.0419446252
 20
1.517004207
 40
0.6449819922
100
AcDbArc
 50
245.7386044322
 51
247.4164656829
  0
ARC
  5
3C4
100
AcDbEntity
  8
0
100
AcDbCircle
 62
6
  6
CONTINUOUS
 10
6.041766955
 20
1.538825386
 40
0.6445350798
100
AcDbArc
 50
245.7380226867
 51
247.4170474284
  0
ARC
  5
3C5
100
AcDbEntity
  8
0
100
AcDbCircle
 62
6
  6
CONTINUOUS
 10
6.0388083818
 20
1.5104241036
 40
0.6376912491
100
AcDbArc
 50
241.39896943
 51
243.0895701286
  0
ARC
  5
3C6
100
AcDbEntity
  8
0
100
AcDbCircle
 62
6
  6
CONTINUOUS
 10
6.0385758686
 20
1.5322135854
 40
0.63719203
100
AcDbArc
 50
241.3983071168
 51
243.0902324418
  0
ARC
  5
3C7
100
AcDbEntity
  8
0
100
AcDbCircle
 62
6
  6
CONTINUOUS
 10
6.0345411703
 20
1.5252543616
 40
0.6291461759
100
AcDbArc
 50
237.0228356305
 51
238.7291762861
  0
ARC
  5
3C8
100
AcDbEntity
  8
0
100
AcDbCircle
 62
6
  6
CONTINUOUS
 10
6.0297058905
 20
1.5182142688
 40
0.6206037588
100
AcDbArc
 50
232.6081874623
 51
234.3301662906
  0
ARC
  5
3C9
100
AcDbEntity
  8
0
100
AcDbCircle
 62
6
  6
CONTINUOUS
 10
6.0241665552
 20
1.5113496704
 40
0.6117810822
100
AcDbArc
 50
228.1517652828
 51
229.8902697382
  0
ARC
  5
3CA
100
AcDbEntity
  8
0
100
AcDbCircle
 62
6
  6
CONTINUOUS
 10
3.0671989113
 20
4.0777617179
 40
1.75
100
AcDbArc
 50
82.695547113
 51
105.3682747844
  0
ARC
  5
3CB
100
AcDbEntity
  8
0
100
AcDbCircle
 62
6
  6
CONTINUOUS
 10
2.2402186397
 20
6.0087617179
 40
0.656
100
AcDbArc
 50
162.687818607
 51
197.312181393
  0
ARC
  5
3CC
100
AcDbEntity
  8
0
100
AcDbCircle
 62
6
  6
CONTINUOUS
 10
2.0557254769
 20
5.9392617179
 40
0.313
100
AcDbArc
 50
211.8445374421
 51
285.3682747844
  0
ARC
  5
3CD
100
AcDbEntity
  8
0
100
AcDbCircle
 62
6
  6
CONTINUOUS
 10
2.0557254769
 20
6.0782617179
 40
0.313
100
AcDbArc
 50
74.6317252156
 51
148.1554625579
  0
ARC
  5
3CE
100
AcDbEntity
  8
0
100
AcDbCircle
 62
6
  6
CONTINUOUS
 10
1.6884034532
 20
5.8367617179
 40
0.078
100
AcDbArc
 50
197.312181393
 51
313.5502286876
  0
ARC
  5
3CF
100
AcDbEntity
  8
0
100
AcDbCircle
 62
6
  6
CONTINUOUS
 10
1.6884034532
 20
6.1807617179
 40
0.078
100
AcDbArc
 50
46.4497713124
 51
162.687818607
  0
ARC
  5
3D0
100
AcDbEntity
  8
0
100
AcDbCircle
 62
6
  6
CONTINUOUS
 10
1.7635033867
 20
5.7577617179
 40
0.031
100
AcDbArc
 50
31.8445374421
 51
133.5502286876
  0
ARC
  5
3D1
100
AcDbEntity
  8
0
100
AcDbCircle
 62
6
  6
CONTINUOUS
 10
1.7635033867
 20
6.2597617179
 40
0.031
100
AcDbArc
 50
226.4497713124
 51
328.1554625579
  0
ARC
  5
3D2
100
AcDbEntity
  8
0
100
AcDbCircle
 62
6
  6
CONTINUOUS
 10
3.6412186397
 20
5.7846318709
 40
0.016
100
AcDbArc
 50
262.695547113
 51
333.7920316389
  0
ARC
  5
3D3
100
AcDbEntity
  8
0
100
AcDbCircle
 62
6
  6
CONTINUOUS
 10
3.6412186397
 20
6.2328915649
 40
0.016
100
AcDbArc
 50
26.2079683611
 51
97.304452887
  0
ARC
  5
3D4
100
AcDbEntity
  8
0
100
AcDbCircle
 62
6
  6
CONTINUOUS
 10
3.0671989113
 20
7.9397617179
 40
1.75
100
AcDbArc
 50
254.6317252156
 51
277.304452887
  0
ARC
  5
3D5
100
AcDbEntity
  8
0
100
AcDbCircle
 62
6
  6
CONTINUOUS
 10
4.7662164935
 20
5.9150220797
 40
2.2092444077
100
AcDbArc
 50
356.09060684
 51
0.7783713792
  0
ARC
  5
3D6
100
AcDbEntity
  8
0
100
AcDbCircle
 62
6
  6
CONTINUOUS
 10
4.7914311295
 20
5.9190031966
 40
2.1839877328
100
AcDbArc
 50
0.6829246551
 51
4.0509096677
  0
ARC
  5
3D7
100
AcDbEntity
  8
0
100
AcDbCircle
 62
6
  6
CONTINUOUS
 10
4.0472186397
 20
6.0087617179
 40
0.615
100
AcDbArc
 50
90.0
 51
159.1571373637
  0
ARC
  5
3D8
100
AcDbEntity
  8
0
100
AcDbCircle
 62
6
  6
CONTINUOUS
 10
4.0472186397
 20
6.0087617179
 40
0.485
100
AcDbArc
 50
150.4825894621
 51
150.5543700995
  0
ARC
  5
3D9
100
AcDbEntity
  8
0
100
AcDbCircle
 62
6
  6
CONTINUOUS
 10
4.0472186397
 20
6.0087617179
 40
1.065
100
AcDbArc
 50
189.8675948772
 51
270.0
  0
ARC
  5
3DA
100
AcDbEntity
  8
0
100
AcDbCircle
 62
6
  6
CONTINUOUS
 10
4.0472186397
 20
6.0087617179
 40
1.065
100
AcDbArc
 50
90.0
 51
170.1324051228
  0
ARC
  5
3DB
100
AcDbEntity
  8
0
100
AcDbCircle
 62
9
  6
CONTINUOUS
 10
4.0472186397
 20
6.0087617179
 40
0.947059035
100
AcDbArc
 50
191.134011608
 51
270.0000000009
  0
ARC
  5
3DC
100
AcDbEntity
  8
0
100
AcDbCircle
 62
9
  6
CONTINUOUS
 10
4.0472186397
 20
6.0087617179
 40
0.947059035
100
AcDbArc
 50
89.9999999989
 51
168.8659609848
  0
ARC
  5
3DD
100
AcDbEntity
  8
0
100
AcDbCircle
 62
9
  6
CONTINUOUS
 10
4.0472186397
 20
6.0087617179
 40
0.9240841474
100
AcDbArc
 50
191.4752969046
 51
270.0000000014
  0
ARC
  5
3DE
100
AcDbEntity
  8
0
100
AcDbCircle
 62
9
  6
CONTINUOUS
 10
4.0472186397
 20
6.0087617179
 40
0.9240841474
100
AcDbArc
 50
89.9999999983
 51
168.5246783907
  0
ARC
  5
3DF
100
AcDbEntity
  8
0
100
AcDbCircle
 62
9
  6
CONTINUOUS
 10
4.0472186397
 20
6.0087617179
 40
0.8020431117
100
AcDbArc
 50
194.0102823466
 51
270.000000001
  0
ARC
  5
3E0
100
AcDbEntity
  8
0
100
AcDbCircle
 62
9
  6
CONTINUOUS
 10
4.0472186397
 20
6.0087617179
 40
0.8020431117
100
AcDbArc
 50
89.9999999988
 51
165.9897089398
  0
ARC
  5
3E1
100
AcDbEntity
  8
0
100
AcDbCircle
 62
9
  6
CONTINUOUS
 10
4.0472186397
 20
6.0087617179
 40
0.7809587582
100
AcDbArc
 50
194.5763790534
 51
270.0000000022
  0
ARC
  5
3E2
100
AcDbEntity
  8
0
100
AcDbCircle
 62
9
  6
CONTINUOUS
 10
4.0472186397
 20
6.0087617179
 40
0.7809587582
100
AcDbArc
 50
89.9999999974
 51
165.4236143184
  0
ARC
  5
3E3
100
AcDbEntity
  8
0
100
AcDbCircle
 62
9
  6
CONTINUOUS
 10
4.0472186397
 20
6.0087617179
 40
0.7059922547
100
AcDbArc
 50
197.0673134305
 51
270.0
  0
ARC
  5
3E4
100
AcDbEntity
  8
0
100
AcDbCircle
 62
9
  6
CONTINUOUS
 10
4.0472186397
 20
6.0087617179
 40
0.7059922547
100
AcDbArc
 50
90.0
 51
162.9326865695
  0
ARC
  5
3E5
100
AcDbEntity
  8
0
100
AcDbCircle
 62
7
  6
CONTINUOUS
 10
4.0472186397
 20
6.0087617179
 40
0.615
100
AcDbArc
 50
270.0
 51
90.0
  0
ARC
  5
3E6
100
AcDbEntity
  8
0
100
AcDbCircle
 62
6
  6
CONTINUOUS
 10
4.0472186397
 20
6.0087617179
 40
0.615
100
AcDbArc
 50
200.8428626363
 51
270.0
  0
ARC
  5
3E7
100
AcDbEntity
  8
0
100
AcDbCircle
 62
9
  6
CONTINUOUS
 10
4.0472186397
 20
6.0087617179
 40
0.552
100
AcDbArc
 50
204.4705562638
 51
155.5294437362
  0
ARC
  5
3E8
100
AcDbEntity
  8
0
100
AcDbCircle
 62
7
  6
CONTINUOUS
 10
4.0472186397
 20
6.0087617179
 40
0.485
100
AcDbArc
 50
209.5174105379
 51
150.4825894621
  0
ARC
  5
3E9
100
AcDbEntity
  8
0
100
AcDbCircle
 62
6
  6
CONTINUOUS
 10
4.0472186397
 20
6.0087617179
 40
0.485
100
AcDbArc
 50
209.4456299005
 51
209.5174105379
  0
ARC
  5
3EA
100
AcDbEntity
  8
0
100
AcDbCircle
 62
6
  6
CONTINUOUS
 10
4.0472186397
 20
6.0087617179
 40
0.455
100
AcDbArc
 50
210.5473325646
 51
149.4526674354
  0
CIRCLE
  5
3EB
100
AcDbEntity
  8
0
100
AcDbCircle
 62
6
  6
CONTINUOUS
 10
4.0472186397
 20
6.0087617179
 40
0.3305
  0
CIRCLE
  5
3EC
100
AcDbEntity
  8
0
100
AcDbCircle
 62
9
  6
CONTINUOUS
 10
4.0472186397
 20
6.0087617179
 40
0.2835
  0
CIRCLE
  5
3ED
100
AcDbEntity
  8
0
100
AcDbCircle
 62
6
  6
CONTINUOUS
 10
4.0472186397
 20
6.0087617179
 40
0.272
  0
CIRCLE
  5
3EE
100
AcDbEntity
  8
0
100
AcDbCircle
 62
7
  6
CONTINUOUS
 10
4.0472186397
 20
6.0087617179
 40
0.236
  0
CIRCLE
  5
3EF
100
AcDbEntity
  8
0
100
AcDbCircle
 62
6
  6
CONTINUOUS
 10
4.0472186397
 20
6.0087617179
 40
0.18
  0
CIRCLE
  5
3F0
100
AcDbEntity
  8
0
100
AcDbCircle
 62
6
  6
CONTINUOUS
 10
4.0472186397
 20
6.0087617179
 40
0.17
  0
ARC
  5
3F1
100
AcDbEntity
  8
0
100
AcDbCircle
 62
6
  6
CONTINUOUS
 10
6.0459445534
 20
6.0083052034
 40
0.9263029
100
AcDbArc
 50
4.0226712405
 51
15.8285614471
  0
ARC
  5
3F2
100
AcDbEntity
  8
0
100
AcDbCircle
 62
9
  6
CONTINUOUS
 10
6.0456405887
 20
9.7724942499
 40
3.7637328628
100
AcDbArc
 50
270.0240228699
 51
271.3194411563
  0
ARC
  5
3F3
100
AcDbEntity
  8
0
100
AcDbCircle
 62
6
  6
CONTINUOUS
 10
6.0598961157
 20
1.5030230418
 40
0.6291461635
100
AcDbArc
 50
301.2708236971
 51
302.9771643862
  0
ARC
  5
3F4
100
AcDbEntity
  8
0
100
AcDbCircle
 62
6
  6
CONTINUOUS
 10
6.0647313952
 20
1.4959829509
 40
0.6206037481
100
AcDbArc
 50
305.6698336946
 51
307.3918125525
  0
ARC
  5
3F5
100
AcDbEntity
  8
0
100
AcDbCircle
 62
6
  6
CONTINUOUS
 10
6.0702707253
 20
1.4891183599
 40
0.6117810805
100
AcDbArc
 50
310.1097302594
 51
311.8482347196
  0
ARC
  5
3F6
100
AcDbEntity
  8
0
100
AcDbCircle
 62
6
  6
CONTINUOUS
 10
6.0759597999
 20
1.5052953125
 40
0.60347165
100
AcDbArc
 50
314.5933893407
 51
316.3472636998
  0
ARC
  5
3F7
100
AcDbEntity
  8
0
100
AcDbCircle
 62
6
  6
CONTINUOUS
 10
6.0763683902
 20
1.4826620664
 40
0.6028985687
100
AcDbArc
 50
314.5925557086
 51
316.3480973319
  0
ARC
  5
3F8
100
AcDbEntity
  8
0
100
AcDbCircle
 62
6
  6
CONTINUOUS
 10
6.0824102664
 20
1.4994002915
 40
0.5947313361
100
AcDbArc
 50
319.1201897516
 51
320.8912106045
  0
ARC
  5
3F9
100
AcDbEntity
  8
0
100
AcDbCircle
 62
6
  6
CONTINUOUS
 10
6.0828364534
 20
1.4624806855
 40
0.5941751014
100
AcDbArc
 50
39.1079603621
 51
40.8806392817
  0
ARC
  5
3FA
100
AcDbEntity
  8
0
100
AcDbCircle
 62
6
  6
CONTINUOUS
 10
6.0828364702
 20
1.4768114269
 40
0.5941750794
100
AcDbArc
 50
319.1193606856
 51
320.8920396706
  0
ARC
  5
3FB
100
AcDbEntity
  8
0
100
AcDbCircle
 62
6
  6
CONTINUOUS
 10
6.0472220188
 20
1.5584043688
 40
0.6649505007
100
AcDbArc
 50
271.2923006121
 51
272.9365704035
  0
ARC
  5
3FC
100
AcDbEntity
  8
0
100
AcDbCircle
 62
6
  6
CONTINUOUS
 10
6.0472237385
 20
1.536126482
 40
0.6649038963
100
AcDbArc
 50
271.2922429831
 51
272.9366280326
  0
ARC
  5
3FD
100
AcDbEntity
  8
0
100
AcDbCircle
 62
6
  6
CONTINUOUS
 10
6.0473291415
 20
1.5570230931
 40
0.6635648368
100
AcDbArc
 50
275.5230916626
 51
277.1696117081
  0
ARC
  5
3FE
100
AcDbEntity
  8
0
100
AcDbCircle
 62
6
  6
CONTINUOUS
 10
6.0473444569
 20
1.5346540806
 40
0.6634262988
100
AcDbArc
 50
275.5229197359
 51
277.1697836347
  0
ARC
  5
3FF
100
AcDbEntity
  8
0
100
AcDbCircle
 62
6
  6
CONTINUOUS
 10
6.0477397341
 20
1.5542732308
 40
0.660783969
100
AcDbArc
 50
279.7618045823
 51
281.4129040407
  0
ARC
  5
400
100
AcDbEntity
  8
0
100
AcDbCircle
 62
6
  6
CONTINUOUS
 10
6.0477814041
 20
1.5318189877
 40
0.6605571978
100
AcDbArc
 50
279.7615211491
 51
281.4131874739
  0
ARC
  5
401
100
AcDbEntity
  8
0
100
AcDbCircle
 62
6
  6
CONTINUOUS
 10
6.0486399429
 20
1.5502721182
 40
0.6566820549
100
AcDbArc
 50
284.014370286
 51
285.6723032473
  0
ARC
  5
402
100
AcDbEntity
  8
0
100
AcDbCircle
 62
6
  6
CONTINUOUS
 10
6.0487191019
 20
1.5277421191
 40
0.656373086
100
AcDbArc
 50
284.0139800465
 51
285.6726934868
  0
ARC
  5
403
100
AcDbEntity
  8
0
100
AcDbCircle
 62
6
  6
CONTINUOUS
 10
6.0501856615
 20
1.5451889053
 40
0.651367996
100
AcDbArc
 50
288.2864905735
 51
289.9533961999
  0
ARC
  5
404
100
AcDbEntity
  8
0
100
AcDbCircle
 62
6
  6
CONTINUOUS
 10
6.0503111211
 20
1.5225956977
 40
0.6509850086
100
AcDbArc
 50
288.286000202
 51
289.9538865714
  0
ARC
  5
405
100
AcDbEntity
  8
0
100
AcDbCircle
 62
6
  6
CONTINUOUS
 10
6.0524926489
 20
1.5392355285
 40
0.6449820056
100
AcDbArc
 50
292.5835343344
 51
294.2613955504
  0
ARC
  5
406
100
AcDbEntity
  8
0
100
AcDbCircle
 62
6
  6
CONTINUOUS
 10
6.0526703297
 20
1.5165940644
 40
0.6445350664
100
AcDbArc
 50
292.5829525542
 51
294.2619773307
  0
ARC
  5
407
100
AcDbEntity
  8
0
100
AcDbCircle
 62
6
  6
CONTINUOUS
 10
6.0556288916
 20
1.5326554244
 40
0.6376912621
100
AcDbArc
 50
296.9104298886
 51
298.6010305528
  0
ARC
  5
408
100
AcDbEntity
  8
0
100
AcDbCircle
 62
6
  6
CONTINUOUS
 10
6.0558614168
 20
1.5099822646
 40
0.6371920171
100
AcDbArc
 50
296.909767541
 51
298.6016929005
  0
ARC
  5
409
100
AcDbEntity
  8
0
100
AcDbCircle
 62
6
  6
CONTINUOUS
 10
6.0596096421
 20
1.5257106046
 40
0.6296848379
100
AcDbArc
 50
301.2715536098
 51
302.9764344736
  0
ARC
  5
40A
100
AcDbEntity
  8
0
100
AcDbCircle
 62
6
  6
CONTINUOUS
 10
6.0643954136
 20
1.5186678029
 40
0.6211681174
100
AcDbArc
 50
305.6706160151
 51
307.391030232
  0
ARC
  5
40B
100
AcDbEntity
  8
0
100
AcDbCircle
 62
6
  6
CONTINUOUS
 10
6.0698930528
 20
1.5117844537
 40
0.6123569258
100
AcDbArc
 50
310.1105477453
 51
311.8474172337
  0
ARC
  5
40C
100
AcDbEntity
  8
0
100
AcDbCircle
 62
6
  6
CONTINUOUS
 10
6.0890256573
 20
1.4942544994
 40
0.5863483902
100
AcDbArc
 50
323.6909207852
 51
325.4787935927
  0
ARC
  5
40D
100
AcDbEntity
  8
0
100
AcDbCircle
 62
6
  6
CONTINUOUS
 10
6.0894543885
 20
1.4675737903
 40
0.5858223874
100
AcDbArc
 50
34.5204036874
 51
36.3098819346
  0
ARC
  5
40E
100
AcDbEntity
  8
0
100
AcDbCircle
 62
6
  6
CONTINUOUS
 10
6.0894544058
 20
1.4717183238
 40
0.5858223661
100
AcDbArc
 50
323.6901180328
 51
325.4795963451
  0
ARC
  5
40F
100
AcDbEntity
  8
0
100
AcDbCircle
 62
6
  6
CONTINUOUS
 10
6.0955650708
 20
1.4899606581
 40
0.5785235142
100
AcDbArc
 50
328.3044143035
 51
330.1083914021
  0
ARC
  5
410
100
AcDbEntity
  8
0
100
AcDbCircle
 62
6
  6
CONTINUOUS
 10
6.0959802661
 20
1.4718102209
 40
0.5780402366
100
AcDbArc
 50
29.890854417
 51
31.6963398775
  0
ARC
  5
411
100
AcDbEntity
  8
0
100
AcDbCircle
 62
6
  6
CONTINUOUS
 10
6.0959802841
 20
1.4674818949
 40
0.5780402156
100
AcDbArc
 50
328.3036600898
 51
330.1091456157
  0
ARC
  5
412
100
AcDbEntity
  8
0
100
AcDbCircle
 62
6
  6
CONTINUOUS
 10
6.1017780287
 20
1.4865645607
 40
0.5714413273
100
AcDbArc
 50
332.9583306142
 51
334.7772082086
  0
ARC
  5
413
100
AcDbEntity
  8
0
100
AcDbCircle
 62
6
  6
CONTINUOUS
 10
6.1021634386
 20
1.4751479544
 40
0.5710120893
100
AcDbArc
 50
25.2221080956
 51
27.0423530815
  0
ARC
  5
414
100
AcDbEntity
  8
0
100
AcDbCircle
 62
6
  6
CONTINUOUS
 10
6.1021634572
 20
1.464144163
 40
0.5710120686
100
AcDbArc
 50
332.9576468855
 51
334.7778919374
  0
ARC
  5
415
100
AcDbEntity
  8
0
100
AcDbCircle
 62
6
  6
CONTINUOUS
 10
6.1074176336
 20
1.4840537222
 40
0.565266603
100
AcDbArc
 50
337.6491654084
 51
339.481297214
  0
ARC
  5
416
100
AcDbEntity
  8
0
100
AcDbCircle
 62
6
  6
CONTINUOUS
 10
6.1077576962
 20
1.4776032208
 40
0.5649013187
100
AcDbArc
 50
20.5181103764
 51
22.3514270012
  0
ARC
  5
417
100
AcDbEntity
  8
0
100
AcDbCircle
 62
6
  6
CONTINUOUS
 10
6.1077577152
 20
1.4616888983
 40
0.5649012983
100
AcDbArc
 50
337.6485729656
 51
339.4818896568
  0
ARC
  5
418
100
AcDbEntity
  8
0
100
AcDbCircle
 62
6
  6
CONTINUOUS
 10
6.1122536187
 20
1.4823593031
 40
0.5601411585
100
AcDbArc
 50
342.3723014045
 51
344.2156307645
  0
ARC
  5
419
100
AcDbEntity
  8
0
100
AcDbCircle
 62
6
  6
CONTINUOUS
 10
6.1125342839
 20
1.4792483685
 40
0.5598481629
100
AcDbArc
 50
15.7838868422
 51
17.6281809888
  0
ARC
  5
41A
100
AcDbEntity
  8
0
100
AcDbCircle
 62
6
  6
CONTINUOUS
 10
6.1125343033
 20
1.4600437522
 40
0.5598481426
100
AcDbArc
 50
342.3718189778
 51
344.2161131912
  0
ARC
  5
41B
100
AcDbEntity
  8
0
100
AcDbCircle
 62
6
  6
CONTINUOUS
 10
6.1160845699
 20
1.4813611934
 40
0.5561813812
100
AcDbArc
 50
347.1221083723
 51
348.9742194667
  0
ARC
  5
41C
100
AcDbEntity
  8
0
100
AcDbCircle
 62
6
  6
CONTINUOUS
 10
6.116294047
 20
1.4802065841
 40
0.5559672904
100
AcDbArc
 50
11.0254238986
 51
12.8782482624
  0
ARC
  5
41D
100
AcDbEntity
  8
0
100
AcDbCircle
 62
6
  6
CONTINUOUS
 10
6.1162940667
 20
1.4590855382
 40
0.5559672703
100
AcDbArc
 50
347.121751704
 51
348.974576135
  0
ARC
  5
41E
100
AcDbEntity
  8
0
100
AcDbCircle
 62
6
  6
CONTINUOUS
 10
6.1187486508
 20
1.4808959677
 40
0.5534763478
100
AcDbArc
 50
351.8920917978
 51
353.7502790534
  0
ARC
  5
41F
100
AcDbEntity
  8
0
100
AcDbCircle
 62
6
  6
CONTINUOUS
 10
6.1188780368
 20
1.4806437648
 40
0.5533459567
100
AcDbArc
 50
6.2495019947
 51
8.1081271541
  0
ARC
  5
420
100
AcDbEntity
  8
0
100
AcDbCircle
 62
6
  6
CONTINUOUS
 10
6.1188780567
 20
1.4586483592
 40
0.5533459366
100
AcDbArc
 50
351.8918728121
 51
353.7504980391
  0
ARC
  5
421
100
AcDbEntity
  8
0
100
AcDbCircle
 62
6
  6
CONTINUOUS
 10
6.1201322382
 20
1.4807672635
 40
0.5520864822
100
AcDbArc
 50
356.6750864098
 51
358.5364395782
  0
ARC
  5
422
100
AcDbEntity
  8
0
100
AcDbCircle
 62
6
  6
CONTINUOUS
 10
6.1201759935
 20
1.4807580018
 40
0.5520426943
100
AcDbArc
 50
1.4634865944
 51
3.3249874176
  0
ARC
  5
423
100
AcDbEntity
  8
0
100
AcDbCircle
 62
6
  6
CONTINUOUS
 10
6.1201760135
 20
1.4585341239
 40
0.5520426743
100
AcDbArc
 50
356.6750125486
 51
358.5365134394
  0
ARC
  5
424
100
AcDbEntity
  8
0
100
AcDbCircle
 62
6
  6
CONTINUOUS
 10
9.0272383681
 20
4.0777617179
 40
1.75
100
AcDbArc
 50
74.6317252156
 51
97.304452887
  0
ARC
  5
425
100
AcDbEntity
  8
0
100
AcDbCircle
 62
9
  6
CONTINUOUS
 10
14.775590259
 20
2.6729906676
 40
8.3105248272
100
AcDbArc
 50
162.1160953544
 51
163.0323446434
  0
ARC
  5
426
100
AcDbEntity
  8
0
100
AcDbCircle
 62
6
  6
CONTINUOUS
 10
14.6882248196
 20
2.7098779774
 40
8.2173525806
100
AcDbArc
 50
177.6589774504
 51
177.8125729704
  0
ARC
  5
427
100
AcDbEntity
  8
0
100
AcDbCircle
 62
6
  6
CONTINUOUS
 10
14.6732389637
 20
2.7098231015
 40
8.2023854765
100
AcDbArc
 50
176.0074023815
 51
177.2445447676
  0
ARC
  5
428
100
AcDbEntity
  8
0
100
AcDbCircle
 62
6
  6
CONTINUOUS
 10
14.6668718372
 20
2.7110210125
 40
8.1959737662
100
AcDbArc
 50
178.4104053854
 51
178.7923282154
  0
ARC
  5
429
100
AcDbEntity
  8
0
100
AcDbCircle
 62
9
  6
CONTINUOUS
 10
14.6636788685
 20
2.7107908788
 40
8.1927899261
100
AcDbArc
 50
177.2480909567
 51
177.5273029776
  0
ARC
  5
42A
100
AcDbEntity
  8
0
100
AcDbCircle
 62
6
  6
CONTINUOUS
 10
14.6508704705
 20
2.7112929438
 40
8.1799714439
100
AcDbArc
 50
177.8124901412
 51
178.0254331083
  0
ARC
  5
42B
100
AcDbEntity
  8
0
100
AcDbCircle
 62
6
  6
CONTINUOUS
 10
14.6476685678
 20
2.712174459
 40
8.1767134387
100
AcDbArc
 50
174.929885415
 51
176.0113631651
  0
ARC
  5
42C
100
AcDbEntity
  8
0
100
AcDbCircle
 62
9
  6
CONTINUOUS
 10
14.642844693
 20
2.7126078437
 40
8.1718692054
100
AcDbArc
 50
170.9895588217
 51
174.9299231385
  0
ARC
  5
42D
100
AcDbEntity
  8
0
100
AcDbCircle
 62
6
  6
CONTINUOUS
 10
14.6316757482
 20
2.7119541705
 40
8.160765336
100
AcDbArc
 50
178.0254293394
 51
178.4100996667
  0
ARC
  5
42E
100
AcDbEntity
  8
0
100
AcDbCircle
 62
9
  6
CONTINUOUS
 10
14.1940808224
 20
2.7217840905
 40
7.7230782904
100
AcDbArc
 50
179.9710114839
 51
184.157620015
  0
ARC
  5
42F
100
AcDbEntity
  8
0
100
AcDbCircle
 62
9
  6
CONTINUOUS
 10
14.1787845905
 20
2.7213171957
 40
7.7077779328
100
AcDbArc
 50
178.7923789762
 51
179.8586664244
  0
ARC
  5
430
100
AcDbEntity
  8
0
100
AcDbCircle
 62
9
  6
CONTINUOUS
 10
14.1770647045
 20
2.7209267376
 40
7.7060392993
100
AcDbArc
 50
184.2684085156
 51
188.8233306264
  0
ARC
  5
431
100
AcDbEntity
  8
0
100
AcDbCircle
 62
6
  6
CONTINUOUS
 10
6.0484936713
 20
6.008305067
 40
0.9263038526
100
AcDbArc
 50
164.1697324025
 51
175.9773244476
  0
CIRCLE
  5
432
100
AcDbEntity
  8
0
100
AcDbCircle
 62
6
  6
CONTINUOUS
 10
6.0472186397
 20
6.5397617179
 40
0.4635
  0
CIRCLE
  5
433
100
AcDbEntity
  8
0
100
AcDbCircle
 62
9
  6
CONTINUOUS
 10
6.0472186397
 20
6.5397617179
 40
0.3465
  0
CIRCLE
  5
434
100
AcDbEntity
  8
0
100
AcDbCircle
 62
7
  6
CONTINUOUS
 10
6.0472186397
 20
6.5397617179
 40
0.3125
  0
CIRCLE
  5
435
100
AcDbEntity
  8
0
100
AcDbCircle
 62
9
  6
CONTINUOUS
 10
6.0472186397
 20
6.5397617179
 40
0.1279789985
  0
ARC
  5
436
100
AcDbEntity
  8
0
100
AcDbCircle
 62
6
  6
CONTINUOUS
 10
7.3282207859
 20
5.9150220797
 40
2.2092444077
100
AcDbArc
 50
179.2216286207
 51
183.9093931598
  0
ARC
  5
437
100
AcDbEntity
  8
0
100
AcDbCircle
 62
6
  6
CONTINUOUS
 10
7.3030061499
 20
5.9190031965
 40
2.1839877328
100
AcDbArc
 50
175.9490903318
 51
179.3170753443
  0
ARC
  5
438
100
AcDbEntity
  8
0
100
AcDbCircle
 62
6
  6
CONTINUOUS
 10
8.0472186397
 20
6.0087617179
 40
0.485
100
AcDbArc
 50
330.4825894621
 51
330.5543700995
  0
ARC
  5
439
100
AcDbEntity
  8
0
100
AcDbCircle
 62
6
  6
CONTINUOUS
 10
8.0472186397
 20
6.0087617179
 40
1.065
100
AcDbArc
 50
9.867041934
 51
90.0000000001
  0
ARC
  5
43A
100
AcDbEntity
  8
0
100
AcDbCircle
 62
6
  6
CONTINUOUS
 10
8.0472186397
 20
6.0087617179
 40
1.065
100
AcDbArc
 50
270.0
 51
350.132958066
  0
ARC
  5
43B
100
AcDbEntity
  8
0
100
AcDbCircle
 62
9
  6
CONTINUOUS
 10
8.0472186397
 20
6.0087617179
 40
0.947059035
100
AcDbArc
 50
11.134011608
 51
90.0000000009
  0
ARC
  5
43C
100
AcDbEntity
  8
0
100
AcDbCircle
 62
9
  6
CONTINUOUS
 10
8.0472186397
 20
6.0087617179
 40
0.947059035
100
AcDbArc
 50
269.9999999989
 51
348.8659609848
  0
ARC
  5
43D
100
AcDbEntity
  8
0
100
AcDbCircle
 62
9
  6
CONTINUOUS
 10
8.0472186397
 20
6.0087617179
 40
0.9240841474
100
AcDbArc
 50
11.4752969046
 51
90.0000000014
  0
ARC
  5
43E
100
AcDbEntity
  8
0
100
AcDbCircle
 62
9
  6
CONTINUOUS
 10
8.0472186397
 20
6.0087617179
 40
0.9240841474
100
AcDbArc
 50
269.9999999983
 51
348.5246783907
  0
ARC
  5
43F
100
AcDbEntity
  8
0
100
AcDbCircle
 62
9
  6
CONTINUOUS
 10
8.0472186397
 20
6.0087617179
 40
0.8020431117
100
AcDbArc
 50
14.0102823466
 51
90.000000001
  0
ARC
  5
440
100
AcDbEntity
  8
0
100
AcDbCircle
 62
9
  6
CONTINUOUS
 10
8.0472186397
 20
6.0087617179
 40
0.8020431117
100
AcDbArc
 50
269.9999999988
 51
345.9897089398
  0
ARC
  5
441
100
AcDbEntity
  8
0
100
AcDbCircle
 62
9
  6
CONTINUOUS
 10
8.0472186397
 20
6.0087617179
 40
0.7809587582
100
AcDbArc
 50
14.5763790535
 51
90.0000000022
  0
ARC
  5
442
100
AcDbEntity
  8
0
100
AcDbCircle
 62
9
  6
CONTINUOUS
 10
8.0472186397
 20
6.0087617179
 40
0.7809587582
100
AcDbArc
 50
269.9999999974
 51
345.4236143184
  0
ARC
  5
443
100
AcDbEntity
  8
0
100
AcDbCircle
 62
9
  6
CONTINUOUS
 10
8.0472186397
 20
6.0087617179
 40
0.7059922547
100
AcDbArc
 50
17.0673134305
 51
90.0
  0
ARC
  5
444
100
AcDbEntity
  8
0
100
AcDbCircle
 62
9
  6
CONTINUOUS
 10
8.0472186397
 20
6.0087617179
 40
0.7059922547
100
AcDbArc
 50
270.0
 51
342.9326865695
  0
ARC
  5
445
100
AcDbEntity
  8
0
100
AcDbCircle
 62
6
  6
CONTINUOUS
 10
8.0472186397
 20
6.0087617179
 40
0.615
100
AcDbArc
 50
20.8428626363
 51
339.1571373637
  0
ARC
  5
446
100
AcDbEntity
  8
0
100
AcDbCircle
 62
9
  6
CONTINUOUS
 10
8.0472186397
 20
6.0087617179
 40
0.552
100
AcDbArc
 50
24.4705562638
 51
335.5294437362
  0
ARC
  5
447
100
AcDbEntity
  8
0
100
AcDbCircle
 62
7
  6
CONTINUOUS
 10
8.0472186397
 20
6.0087617179
 40
0.485
100
AcDbArc
 50
29.5174105379
 51
330.4825894621
  0
ARC
  5
448
100
AcDbEntity
  8
0
100
AcDbCircle
 62
6
  6
CONTINUOUS
 10
8.0472186397
 20
6.0087617179
 40
0.485
100
AcDbArc
 50
29.4456299005
 51
29.5174105379
  0
ARC
  5
449
100
AcDbEntity
  8
0
100
AcDbCircle
 62
6
  6
CONTINUOUS
 10
8.0472186397
 20
6.0087617179
 40
0.455
100
AcDbArc
 50
30.5473325646
 51
329.4526674354
  0
CIRCLE
  5
44A
100
AcDbEntity
  8
0
100
AcDbCircle
 62
6
  6
CONTINUOUS
 10
8.0472186397
 20
6.0087617179
 40
0.3305
  0
CIRCLE
  5
44B
100
AcDbEntity
  8
0
100
AcDbCircle
 62
9
  6
CONTINUOUS
 10
8.0472186397
 20
6.0087617179
 40
0.2835
  0
CIRCLE
  5
44C
100
AcDbEntity
  8
0
100
AcDbCircle
 62
6
  6
CONTINUOUS
 10
8.0472186397
 20
6.0087617179
 40
0.272
  0
CIRCLE
  5
44D
100
AcDbEntity
  8
0
100
AcDbCircle
 62
7
  6
CONTINUOUS
 10
8.0472186397
 20
6.0087617179
 40
0.236
  0
CIRCLE
  5
44E
100
AcDbEntity
  8
0
100
AcDbCircle
 62
6
  6
CONTINUOUS
 10
8.0472186397
 20
6.0087617179
 40
0.18
  0
CIRCLE
  5
44F
100
AcDbEntity
  8
0
100
AcDbCircle
 62
6
  6
CONTINUOUS
 10
8.0472186397
 20
6.0087617179
 40
0.17
  0
ARC
  5
450
100
AcDbEntity
  8
0
100
AcDbCircle
 62
9
  6
CONTINUOUS
 10
6.0487966907
 20
9.7724942498
 40
3.7637328628
100
AcDbArc
 50
268.6805588437
 51
269.9759771304
  0
ARC
  5
451
100
AcDbEntity
  8
0
100
AcDbCircle
 62
6
  6
CONTINUOUS
 10
9.8542186397
 20
6.0087617179
 40
0.656
100
AcDbArc
 50
342.687818607
 51
17.312181393
  0
ARC
  5
452
100
AcDbEntity
  8
0
100
AcDbCircle
 62
6
  6
CONTINUOUS
 10
10.0387118025
 20
6.0782617179
 40
0.313
100
AcDbArc
 50
31.8445374421
 51
105.3682747844
  0
ARC
  5
453
100
AcDbEntity
  8
0
100
AcDbCircle
 62
6
  6
CONTINUOUS
 10
10.0387118025
 20
5.9392617179
 40
0.313
100
AcDbArc
 50
254.6317252156
 51
328.1554625579
  0
ARC
  5
454
100
AcDbEntity
  8
0
100
AcDbCircle
 62
6
  6
CONTINUOUS
 10
10.4060338261
 20
6.1807617179
 40
0.078
100
AcDbArc
 50
17.312181393
 51
133.5502286876
  0
ARC
  5
455
100
AcDbEntity
  8
0
100
AcDbCircle
 62
6
  6
CONTINUOUS
 10
10.4060338261
 20
5.8367617179
 40
0.078
100
AcDbArc
 50
226.4497713124
 51
342.687818607
  0
ARC
  5
456
100
AcDbEntity
  8
0
100
AcDbCircle
 62
6
  6
CONTINUOUS
 10
10.3309338927
 20
6.2597617179
 40
0.031
100
AcDbArc
 50
211.8445374421
 51
313.5502286876
  0
ARC
  5
457
100
AcDbEntity
  8
0
100
AcDbCircle
 62
6
  6
CONTINUOUS
 10
10.3309338927
 20
5.7577617179
 40
0.031
100
AcDbArc
 50
46.4497713124
 51
148.1554625579
  0
ARC
  5
458
100
AcDbEntity
  8
0
100
AcDbCircle
 62
6
  6
CONTINUOUS
 10
8.4532186397
 20
6.2328915649
 40
0.016
100
AcDbArc
 50
82.695547113
 51
153.7920316389
  0
ARC
  5
459
100
AcDbEntity
  8
0
100
AcDbCircle
 62
6
  6
CONTINUOUS
 10
8.4532186397
 20
5.7846318709
 40
0.016
100
AcDbArc
 50
206.2079683611
 51
277.304452887
  0
ARC
  5
45A
100
AcDbEntity
  8
0
100
AcDbCircle
 62
6
  6
CONTINUOUS
 10
9.0272383681
 20
7.9397617179
 40
1.75
100
AcDbArc
 50
262.695547113
 51
285.3682747844
  0
SPLINE
  5
45B
100
AcDbEntity
  8
0
100
AcDbSpline
 62
6
  6
CONTINUOUS
 70
0
 71
3
 72
16
 73
12
 74
10
 42
0.0000001
 43
0.0000001
 44
0.0000000001
 12
-0.101011806
 22
0.3565789648
 32
0.0
 13
-0.2320595592
 23
0.2889641917
 33
0.0
 40
0.0
 40
0.0
 40
0.0
 40
0.0
 40
0.1250035591
 40
0.2499998581
 40
0.3749887918
 40
0.4374869395
 40
0.4999857861
 40
0.6249791293
 40
0.7499813819
 40
0.8749900513
 40
1.0
 40
1.0
 40
1.0
 40
1.0
 10
6.9371240341
 20
6.2609634624
 30
0.0
 10
6.932915089
 20
6.2758213423
 30
0.0
 10
6.9237559186
 20
6.3053320554
 30
0.0
 10
6.9078282128
 20
6.3488517258
 30
0.0
 10
6.8927533549
 20
6.3844093023
 30
0.0
 10
6.879629434
 20
6.4123675362
 30
0.0
 10
6.8658014703
 20
6.4399849847
 30
0.0
 10
6.8472172522
 20
6.4738419859
 30
0.0
 10
6.8229111383
 20
6.5133027442
 30
0.0
 10
6.7966681177
 20
6.5515043928
 30
0.0
 10
6.777925105
 20
6.576072784
 30
0.0
 10
6.7682551871
 20
6.5881139169
 30
0.0
 11
6.9371240341
 21
6.2609634624
 31
0.0
 11
6.9233907285
 21
6.305208718
 31
0.0
 11
6.907467465
 21
6.348710979
 31
0.0
 11
6.8893839952
 21
6.3913575761
 31
0.0
 11
6.879541494
 21
6.4123247981
 31
0.0
 11
6.869171695
 21
6.433036594
 31
0.0
 11
6.8468837485
 21
6.4736462355
 31
0.0
 11
6.8225889362
 21
6.5130919394
 31
0.0
 11
6.7963563763
 21
6.5512793013
 31
0.0
 11
6.7682551871
 21
6.5881139169
 31
0.0
  0
SPLINE
  5
45C
100
AcDbEntity
  8
0
100
AcDbSpline
 62
6
  6
CONTINUOUS
 70
0
 71
3
 72
19
 73
15
 74
13
 42
0.0000001
 43
0.0000001
 44
0.0000000001
 12
-0.3135842987
 22
0.3904800721
 32
0.0
 13
-0.4700649271
 23
0.1727679468
 33
0.0
 40
0.0
 40
0.0
 40
0.0
 40
0.0
 40
0.1249960003
 40
0.1874991441
 40
0.2500002007
 40
0.3125007495
 40
0.3750027738
 40
0.4999964607
 40
0.6249974098
 40
0.7499964248
 40
0.8125012508
 40
0.87500301
 40
0.9375021069
 40
1.0
 40
1.0
 40
1.0
 40
1.0
 10
6.7682551871
 20
6.5881139169
 30
0.0
 10
6.7551895927
 20
6.6043833994
 30
0.0
 10
6.7347599861
 20
6.6281387757
 30
0.0
 10
6.7059729018
 20
6.6583627923
 30
0.0
 10
6.6836223376
 20
6.6802862166
 30
0.0
 10
6.6605348595
 20
6.7014315293
 30
0.0
 10
6.6288104782
 20
6.7285571344
 30
0.0
 10
6.5874539477
 20
6.7604255498
 30
0.0
 10
6.5353703484
 20
6.7952348567
 30
0.0
 10
6.4901094436
 20
6.8212640262
 30
0.0
 10
6.4529189437
 20
6.8402170572
 30
0.0
 10
6.4245594833
 20
6.8534807241
 30
0.0
 10
6.3957674623
 20
6.8657725332
 30
0.0
 10
6.3763031593
 20
6.8733061441
 30
0.0
 10
6.3665104702
 20
6.876905355
 30
0.0
 11
6.7682551871
 21
6.5881139169
 31
0.0
 11
6.7274350747
 21
6.6355730652
 31
0.0
 11
6.705846036
 21
6.6582388488
 31
0.0
 11
6.6834994357
 21
6.6801566123
 31
0.0
 11
6.6604172731
 21
6.7012979641
 31
0.0
 11
6.6366272307
 21
6.7216406072
 31
0.0
 11
6.587045589
 21
6.7598527529
 31
0.0
 11
6.5349987787
 21
6.7946391318
 31
0.0
 11
6.4807310889
 21
6.8258458489
 31
0.0
 11
6.4528407544
 21
6.8400587419
 31
0.0
 11
6.4244868084
 21
6.8533190088
 31
0.0
 11
6.395699787
 21
6.8656074125
 31
0.0
 11
6.3665104702
 21
6.876905355
 31
0.0
  0
SPLINE
  5
45D
100
AcDbEntity
  8
0
100
AcDbSpline
 62
6
  6
CONTINUOUS
 70
0
 71
3
 72
15
 73
11
 74
9
 42
0.0000001
 43
0.0000001
 44
0.0000000001
 12
0.0439787134
 22
0.2446639092
 32
0.0
 13
0.0168757784
 23
0.2480116203
 33
0.0
 40
0.0
 40
0.0
 40
0.0
 40
0.0
 40
0.1425264894
 40
0.2814010331
 40
0.4159549644
 40
0.5455114646
 40
0.6693866868
 40
0.786890713
 40
0.8973283784
 40
1.0
 40
1.0
 40
1.0
 40
1.0
 10
6.9397625022
 20
5.5171450353
 30
0.0
 10
6.9418518794
 20
5.5287687313
 30
0.0
 10
6.9457862866
 20
5.5517530186
 30
0.0
 10
6.9510670193
 20
5.5858140843
 30
0.0
 10
6.9556947248
 20
5.6188850607
 30
0.0
 10
6.9597045461
 20
5.6507841685
 30
0.0
 10
6.9631316816
 20
5.6813297488
 30
0.0
 10
6.9660113714
 20
5.7103401025
 30
0.0
 10
6.9683788881
 20
5.7376334482
 30
0.0
 10
6.9696900817
 20
5.7552438209
 30
0.0
 10
6.9702676362
 20
5.7637317393
 30
0.0
 11
6.9397625022
 21
5.5171450353
 31
0.0
 11
6.9457445087
 21
5.5520663448
 31
0.0
 11
6.9510363924
 21
5.5861804819
 31
0.0
 11
6.955673377
 21
5.6193056083
 31
0.0
 11
6.9596906859
 21
5.6512598858
 31
0.0
 11
6.9631235428
 21
5.6818614759
 31
0.0
 11
6.9660071711
 21
5.7109285404
 31
0.0
 11
6.9683767944
 21
5.738279241
 31
0.0
 11
6.9702676362
 21
5.7637317393
 31
0.0
  0
SPLINE
  5
45E
100
AcDbEntity
  8
0
100
AcDbSpline
 62
6
  6
CONTINUOUS
 70
0
 71
3
 72
19
 73
15
 74
13
 42
0.0000001
 43
0.0000001
 44
0.0000000001
 12
0.3135868324
 22
0.3904938132
 32
0.0
 13
0.4700764724
 23
0.1727721902
 33
0.0
 40
0.0
 40
0.0
 40
0.0
 40
0.0
 40
0.1249960013
 40
0.1874991461
 40
0.2500002032
 40
0.312500752
 40
0.3750027758
 40
0.4999964609
 40
0.6249974091
 40
0.7499964239
 40
0.8125012502
 40
0.8750030097
 40
0.9375021068
 40
1.0
 40
1.0
 40
1.0
 40
1.0
 10
5.3261743876
 20
6.5881043229
 30
0.0
 10
5.3392400877
 20
6.6043743779
 30
0.0
 10
5.3596699019
 20
6.628130593
 30
0.0
 10
5.3884573537
 20
6.6583556764
 30
0.0
 10
5.4108082376
 20
6.6802798736
 30
0.0
 10
5.4338960784
 20
6.7014259293
 30
0.0
 10
5.4656210011
 20
6.7285524786
 30
0.0
 10
5.5069783108
 20
6.7604219866
 30
0.0
 10
5.5590629895
 20
6.7952324506
 30
0.0
 10
5.6043249
 20
6.8212624474
 30
0.0
 10
5.6415162586
 20
6.8402160522
 30
0.0
 10
5.6698763883
 20
6.8534801041
 30
0.0
 10
5.6986691014
 20
6.8657722515
 30
0.0
 10
5.7181338795
 20
6.8733060557
 30
0.0
 10
5.7279268092
 20
6.876905355
 30
0.0
 11
5.3261743876
 21
6.5881043229
 31
0.0
 11
5.3669949127
 21
6.6355651448
 31
0.0
 11
5.388584227
 21
6.6582317284
 31
0.0
 11
5.4109311468
 21
6.6801502644
 31
0.0
 11
5.4340136721
 21
6.7012923584
 31
0.0
 11
5.4578041202
 21
6.7216357096
 31
0.0
 11
5.5073866934
 21
6.7598491639
 31
0.0
 11
5.5594345802
 21
6.7946366982
 31
0.0
 11
5.6137034738
 21
6.8258444061
 31
0.0
 11
5.6415944521
 21
6.8400577294
 31
0.0
 11
5.669949067
 21
6.853318381
 31
0.0
 11
5.6987367801
 21
6.8656071227
 31
0.0
 11
5.7279268092
 21
6.876905355
 31
0.0
  0
SPLINE
  5
45F
100
AcDbEntity
  8
0
100
AcDbSpline
 62
6
  6
CONTINUOUS
 70
0
 71
3
 72
16
 73
12
 74
10
 42
0.0000001
 43
0.0000001
 44
0.0000000001
 12
0.1010115221
 22
0.3565374673
 32
0.0
 13
0.2320306866
 23
0.288936072
 33
0.0
 40
0.0
 40
0.0
 40
0.0
 40
0.0
 40
0.1250035571
 40
0.2499998537
 40
0.3749887866
 40
0.4374869339
 40
0.4999857805
 40
0.6249791259
 40
0.7499813796
 40
0.8749900498
 40
1.0
 40
1.0
 40
1.0
 40
1.0
 10
5.1573207982
 20
6.2609901233
 30
0.0
 10
5.1615297314
 20
6.2758462738
 30
0.0
 10
5.1706887121
 20
6.3053535496
 30
0.0
 10
5.1866156464
 20
6.3488681709
 30
0.0
 10
5.2016894626
 20
6.3844216565
 30
0.0
 10
5.2148123168
 20
6.4123767075
 30
0.0
 10
5.2286390573
 20
6.4399910397
 30
0.0
 10
5.2472214583
 20
6.4738442788
 30
0.0
 10
5.271524955
 20
6.5133007695
 30
0.0
 10
5.2977649437
 20
6.5514984272
 30
0.0
 10
5.3165056728
 20
6.5760643615
 30
0.0
 10
5.3261743876
 20
6.5881043229
 30
0.0
 11
5.1573207982
 21
6.2609901233
 31
0.0
 11
5.171053821
 21
6.3052302299
 31
0.0
 11
5.1869763143
 21
6.3487274471
 31
0.0
 11
5.2050585362
 21
6.3913691422
 31
0.0
 11
5.2149002372
 21
6.4123339776
 31
0.0
 11
5.2252691191
 21
6.4330434368
 31
0.0
 11
5.2475548893
 21
6.4736485698
 31
0.0
 11
5.271847088
 21
6.513090011
 31
0.0
 11
5.2980766195
 21
6.5512733866
 31
0.0
 11
5.3261743876
 21
6.5881043229
 31
0.0
  0
SPLINE
  5
460
100
AcDbEntity
  8
0
100
AcDbSpline
 62
6
  6
CONTINUOUS
 70
0
 71
3
 72
15
 73
11
 74
9
 42
0.0000001
 43
0.0000001
 44
0.0000000001
 12
-0.0439787134
 22
0.2446639092
 32
0.0
 13
-0.0168757784
 23
0.2480116203
 33
0.0
 40
0.0
 40
0.0
 40
0.0
 40
0.0
 40
0.1425264894
 40
0.2814010331
 40
0.4159549644
 40
0.5455114646
 40
0.6693866868
 40
0.786890713
 40
0.8973283784
 40
1.0
 40
1.0
 40
1.0
 40
1.0
 10
5.1546747772
 20
5.5171450353
 30
0.0
 10
5.1525854
 20
5.5287687313
 30
0.0
 10
5.1486509927
 20
5.5517530186
 30
0.0
 10
5.1433702601
 20
5.5858140843
 30
0.0
 10
5.1387425546
 20
5.6188850607
 30
0.0
 10
5.1347327333
 20
5.6507841685
 30
0.0
 10
5.1313055978
 20
5.6813297488
 30
0.0
 10
5.128425908
 20
5.7103401025
 30
0.0
 10
5.1260583912
 20
5.7376334482
 30
0.0
 10
5.1247471977
 20
5.7552438209
 30
0.0
 10
5.1241696432
 20
5.7637317393
 30
0.0
 11
5.1546747772
 21
5.5171450353
 31
0.0
 11
5.1486927707
 21
5.5520663448
 31
0.0
 11
5.143400887
 21
5.5861804819
 31
0.0
 11
5.1387639024
 21
5.6193056083
 31
0.0
 11
5.1347465934
 21
5.6512598858
 31
0.0
 11
5.1313137366
 21
5.6818614759
 31
0.0
 11
5.1284301083
 21
5.7109285404
 31
0.0
 11
5.126060485
 21
5.738279241
 31
0.0
 11
5.1241696432
 21
5.7637317393
 31
0.0
  0
SPLINE
  5
461
100
AcDbEntity
  8
0
100
AcDbSpline
 62
6
  6
CONTINUOUS
 70
0
 71
3
 72
41
 73
37
 74
35
 42
0.0000001
 43
0.0000001
 44
0.0000000001
 12
0.6425728361
 22
-0.9803942148
 32
0.0
 13
-1.1722084567
 23
0.0
 33
0.0
 40
0.0
 40
0.0
 40
0.0
 40
0.0
 40
0.0310226419
 40
0.0465039789
 40
0.0619651161
 40
0.0928266164
 40
0.1236214168
 40
0.1389995074
 40
0.1543650918
 40
0.1850601299
 40
0.2157238562
 40
0.2463694595
 40
0.2770104465
 40
0.3076604093
 40
0.3383327866
 40
0.3690406198
 40
0.3997963132
 40
0.4306114303
 40
0.4614965039
 40
0.4924608194
 40
0.5235122543
 40
0.554657167
 40
0.5859002356
 40
0.617244421
 40
0.6486909082
 40
0.6802390644
 40
0.7118864535
 40
0.7436289222
 40
0.7754606169
 40
0.8073741438
 40
0.8393606604
 40
0.8714100307
 40
0.9035112565
 40
0.9356513279
 40
0.9678198837
 40
1.0
 40
1.0
 40
1.0
 40
1.0
 10
6.5316458001
 20
1.7854967413
 30
0.0
 10
6.5382905691
 20
1.7753586017
 30
0.0
 10
6.5477390684
 20
1.7598157418
 30
0.0
 10
6.559236773
 20
1.7385040207
 30
0.0
 10
6.5699681858
 20
1.7168655629
 30
0.0
 10
6.581953185
 20
1.689191311
 30
0.0
 10
6.5919801273
 20
1.6607829722
 30
0.0
 10
6.5987883934
 20
1.6377171711
 30
0.0
 10
6.6047773452
 20
1.6144655646
 30
0.0
 10
6.6107277546
 20
1.5850558377
 30
0.0
 10
6.6153711748
 20
1.5493783744
 30
0.0
 10
6.6174946192
 20
1.5134829643
 30
0.0
 10
6.6170877971
 20
1.4775326889
 30
0.0
 10
6.6141527446
 20
1.441689595
 30
0.0
 10
6.608703301
 20
1.4061154803
 30
0.0
 10
6.6007651234
 20
1.3709705586
 30
0.0
 10
6.5903754875
 20
1.3364127116
 30
0.0
 10
6.5775831481
 20
1.3025965564
 30
0.0
 10
6.5624477534
 20
1.269672725
 30
0.0
 10
6.5450394616
 20
1.237787148
 30
0.0
 10
6.5254384395
 20
1.2070804176
 30
0.0
 10
6.5037343839
 20
1.1776872009
 30
0.0
 10
6.4800261185
 20
1.1497355846
 30
0.0
 10
6.4544208655
 20
1.1233467109
 30
0.0
 10
6.427033689
 20
1.0986343607
 30
0.0
 10
6.397986936
 20
1.0757045893
 30
0.0
 10
6.3674096619
 20
1.0546553972
 30
0.0
 10
6.3354371641
 20
1.0355762665
 30
0.0
 10
6.3022102737
 20
1.018548004
 30
0.0
 10
6.2678747584
 20
1.0036425685
 30
0.0
 10
6.2325807796
 20
0.9909227986
 30
0.0
 10
6.196482149
 20
0.9804421767
 30
0.0
 10
6.1597363477
 20
0.972244922
 30
0.0
 10
6.1225019197
 20
0.9663646595
 30
0.0
 10
6.0849430311
 20
0.9628270727
 30
0.0
 10
6.0597925745
 20
0.9620396899
 30
0.0
 10
6.0472186397
 20
0.9620396899
 30
0.0
 11
6.5316458001
 21
1.7854967413
 31
0.0
 11
6.5505319418
 21
1.7544205912
 31
0.0
 11
6.5591482312
 21
1.7384491786
 31
0.0
 11
6.5672000796
 21
1.7222123266
 31
0.0
 11
6.5815734966
 21
1.6890141951
 31
0.0
 11
6.5935857289
 21
1.6549735357
 31
0.0
 11
6.5986885801
 21
1.6376845389
 31
0.0
 11
6.6031809317
 21
1.6202420919
 31
0.0
 11
6.6103142661
 21
1.5849752988
 31
0.0
 11
6.6149522376
 21
1.5493314995
 31
0.0
 11
6.6170730347
 21
1.5134711217
 31
0.0
 11
6.6166667315
 21
1.4775557958
 31
0.0
 11
6.6137352686
 21
1.4417474424
 31
0.0
 11
6.608292427
 21
1.4062073833
 31
0.0
 11
6.6003637197
 21
1.3710954723
 31
0.0
 11
6.5899862468
 21
1.3365692386
 31
0.0
 11
6.5772084776
 21
1.3027830169
 31
0.0
 11
6.5620897737
 21
1.2698871827
 31
0.0
 11
6.5446999739
 21
1.2380274841
 31
0.0
 11
6.5251189268
 21
1.2073443955
 31
0.0
 11
6.5034360119
 21
1.177972481
 31
0.0
 11
6.4797497146
 21
1.1500398485
 31
0.0
 11
6.4541669597
 21
1.1236676798
 31
0.0
 11
6.4268025372
 21
1.0989698358
 31
0.0
 11
6.3977785624
 21
1.0760524975
 31
0.0
 11
6.3672239303
 21
1.055013798
 31
0.0
 11
6.3352737525
 21
1.0359433963
 31
0.0
 11
6.302068772
 21
1.0189223002
 31
0.0
 11
6.2677546919
 21
1.0040226325
 31
0.0
 11
6.2324816447
 21
0.9913074028
 31
0.0
 11
6.196403593
 21
0.9808303041
 31
0.0
 11
6.1596774403
 21
0.9726354239
 31
0.0
 11
6.1224639784
 21
0.9667571937
 31
0.0
 11
6.0849219639
 21
0.9632203169
 31
0.0
 11
6.0472186397
 21
0.9620396899
 31
0.0
  0
SPLINE
  5
462
100
AcDbEntity
  8
0
100
AcDbSpline
 62
6
  6
CONTINUOUS
 70
0
 71
3
 72
41
 73
37
 74
35
 42
0.0000001
 43
0.0000001
 44
0.0000000001
 12
-1.1722290719
 22
0.0
 32
0.0
 13
0.6426218054
 23
0.9803867667
 33
0.0
 40
0.0
 40
0.0
 40
0.0
 40
0.0
 40
0.0321801268
 40
0.0643486881
 40
0.0964887627
 40
0.1285899869
 40
0.1606393511
 40
0.1926258575
 40
0.2245393695
 40
0.2563710448
 40
0.2881134899
 40
0.3197608516
 40
0.3513089773
 40
0.3827554315
 40
0.4140995818
 40
0.4453426142
 40
0.4764874905
 40
0.5075388901
 40
0.5385031727
 40
0.5693882162
 40
0.6002033073
 40
0.6309589797
 40
0.6616667985
 40
0.6923391691
 40
0.7229891328
 40
0.753630129
 40
0.7842757506
 40
0.8149395052
 40
0.8456345815
 40
0.8610001883
 40
0.8763783044
 40
0.9071731614
 40
0.9380347273
 40
0.9534959011
 40
0.9689772761
 40
1.0
 40
1.0
 40
1.0
 40
1.0
 10
6.0472186397
 20
0.9620396899
 30
0.0
 10
6.0346444796
 20
0.9620396899
 30
0.0
 10
6.0094935742
 20
0.9628271008
 30
0.0
 10
5.9719340227
 20
0.9663648137
 30
0.0
 10
5.9346989527
 20
0.9722452842
 30
0.0
 10
5.8979525382
 20
0.9804428271
 30
0.0
 10
5.8618533315
 20
0.9909238137
 30
0.0
 10
5.826558821
 20
1.0036440208
 30
0.0
 10
5.7922228261
 20
1.0185499635
 30
0.0
 10
5.7589955155
 20
1.0355787981
 30
0.0
 10
5.7270226631
 20
1.0546585606
 30
0.0
 10
5.6964451047
 20
1.0757084363
 30
0.0
 10
5.6673981431
 20
1.0986389382
 30
0.0
 10
5.640010842
 20
1.1233520626
 30
0.0
 10
5.6144055515
 20
1.1497417456
 30
0.0
 10
5.5906973395
 20
1.1776941985
 30
0.0
 10
5.5689934274
 20
1.2070882687
 30
0.0
 10
5.5493926434
 20
1.237795864
 30
0.0
 10
5.5319846928
 20
1.2696823127
 30
0.0
 10
5.5168497412
 20
1.3026070121
 30
0.0
 10
5.5040579459
 20
1.3364240218
 30
0.0
 10
5.4936689505
 20
1.3709827
 30
0.0
 10
5.4857315086
 20
1.4061284218
 30
0.0
 10
5.4802829077
 20
1.4417032992
 30
0.0
 10
5.4773487969
 20
1.4775471072
 30
0.0
 10
5.4769430097
 20
1.5134980387
 30
0.0
 10
5.479067574
 20
1.5493940389
 30
0.0
 10
5.4837121933
 20
1.5850720184
 30
0.0
 10
5.489663668
 20
1.6144821051
 30
0.0
 10
5.4956535235
 20
1.6377339496
 30
0.0
 10
5.5024626973
 20
1.6607999664
 30
0.0
 10
5.5124908334
 20
1.6892085081
 30
0.0
 10
5.5244770628
 20
1.7168828733
 30
0.0
 10
5.5352094804
 20
1.7385213683
 30
0.0
 10
5.5467082086
 20
1.7598330908
 30
0.0
 10
5.5561574918
 20
1.7753759041
 30
0.0
 10
5.5628027847
 20
1.7855139934
 30
0.0
 11
6.0472186397
 21
0.9620396899
 31
0.0
 11
6.0095146408
 21
0.9632203591
 31
0.0
 11
5.9719719655
 21
0.9667573618
 31
0.0
 11
5.9347578619
 21
0.9726358001
 31
0.0
 11
5.8980310974
 21
0.9808309682
 31
0.0
 11
5.8619524708
 21
0.9913084312
 31
0.0
 11
5.826678893
 21
1.004024098
 31
0.0
 11
5.7923643348
 21
1.0189242723
 31
0.0
 11
5.7591589352
 21
1.0359459399
 31
0.0
 11
5.7272084041
 21
1.0550169722
 31
0.0
 11
5.6966534889
 21
1.0760563545
 31
0.0
 11
5.6676293075
 21
1.0989744228
 31
0.0
 11
5.6402647612
 21
1.1236730395
 31
0.0
 11
5.61468197
 21
1.1500460159
 31
0.0
 11
5.5909957265
 21
1.1779794828
 31
0.0
 11
5.5693129564
 21
1.2073522493
 31
0.0
 11
5.5497321493
 21
1.2380362013
 31
0.0
 11
5.5323426907
 21
1.2698967694
 31
0.0
 11
5.5172244301
 21
1.3027934692
 31
0.0
 11
5.5044472042
 21
1.3365805429
 31
0.0
 11
5.4940703716
 21
1.3711076053
 31
0.0
 11
5.4861424017
 21
1.4062203147
 31
0.0
 11
5.4807004011
 21
1.4417611342
 31
0.0
 11
5.4777698784
 21
1.4775701996
 31
0.0
 11
5.4773646081
 21
1.5134861797
 31
0.0
 11
5.4794865234
 21
1.5493471457
 31
0.0
 11
5.4841256936
 21
1.58499146
 31
0.0
 11
5.4912603106
 21
1.6202586849
 31
0.0
 11
5.4957533363
 21
1.6377013125
 31
0.0
 11
5.5008568714
 21
1.654990469
 31
0.0
 11
5.5128705262
 21
1.6890313701
 31
0.0
 11
5.5272454199
 21
1.7222296393
 31
0.0
 11
5.5352980233
 21
1.7384665205
 31
0.0
 11
5.5439150792
 21
1.7544379328
 31
0.0
 11
5.5628027847
 21
1.7855139934
 31
0.0
  0
SPLINE
  5
463
100
AcDbEntity
  8
0
100
AcDbSpline
 62
9
  6
CONTINUOUS
 70
0
 71
3
 72
25
 73
21
 74
19
 42
0.0000001
 43
0.0000001
 44
0.0000000001
 12
-0.9214439769
 22
0.0707851107
 32
0.0
 13
-0.9241588253
 23
-0.0000067253
 33
0.0
 40
0.0
 40
0.0
 40
0.0
 40
0.0
 40
0.0065331291
 40
0.0254274534
 40
0.0556481525
 40
0.0961527612
 40
0.1458915034
 40
0.2038083148
 40
0.2688255463
 40
0.339868416
 40
0.4158726388
 40
0.4957804016
 40
0.5785430691
 40
0.6631405184
 40
0.7485596145
 40
0.8338028265
 40
0.8760626797
 40
0.9179261719
 40
0.9592772191
 40
1.0
 40
1.0
 40
1.0
 40
1.0
 10
6.9703129145
 20
5.7643988178
 30
0.0
 10
6.968306277
 20
5.7645529672
 30
0.0
 10
6.9604956105
 20
5.7651441182
 30
0.0
 10
6.9433997006
 20
5.7664083186
 30
0.0
 10
6.9158631325
 20
5.7683876515
 30
0.0
 10
6.8788432401
 20
5.7709626909
 30
0.0
 10
6.8333041158
 20
5.7740139054
 30
0.0
 10
6.7802208987
 20
5.7774208656
 30
0.0
 10
6.7205767626
 20
5.7810634993
 30
0.0
 10
6.6553576673
 20
5.7848199193
 30
0.0
 10
6.5855440588
 20
5.7885709078
 30
0.0
 10
6.5121089792
 20
5.7921997259
 30
0.0
 10
6.4360125203
 20
5.7955898017
 30
0.0
 10
6.358201868
 20
5.7986253681
 30
0.0
 10
6.2796096538
 20
5.8011915333
 30
0.0
 10
6.214038502
 20
5.802848657
 30
0.0
 10
6.161873633
 20
5.8038260428
 30
0.0
 10
6.123224496
 20
5.804366872
 30
0.0
 10
6.0850465511
 20
5.8047034871
 30
0.0
 10
6.0597634122
 20
5.8047829601
 30
0.0
 10
6.0472186397
 20
5.8047828689
 30
0.0
 11
6.9703129145
 21
5.7643988178
 31
0.0
 11
6.9642925883
 21
5.7648558476
 31
0.0
 11
6.94687899
 21
5.7661464166
 31
0.0
 11
6.9190223221
 21
5.7681513543
 31
0.0
 11
6.8816800163
 21
5.7707510859
 31
0.0
 11
6.8358164582
 21
5.7738256473
 31
0.0
 11
6.7824020863
 21
5.7772547921
 31
0.0
 11
6.7224275616
 21
5.7809172539
 31
0.0
 11
6.6568812297
 21
5.7846913247
 31
0.0
 11
6.5867422902
 21
5.7884573582
 31
0.0
 11
6.5129846057
 21
5.7920976802
 31
0.0
 11
6.4365742444
 21
5.7954950136
 31
0.0
 11
6.3584518196
 21
5.7985331809
 31
0.0
 11
6.2795526277
 21
5.8010962345
 31
0.0
 11
6.2007990541
 21
5.8030685262
 31
0.0
 11
6.1617510384
 21
5.8037973233
 31
0.0
 11
6.123066266
 21
5.8043355045
 31
0.0
 11
6.0848527842
 21
5.8046687823
 31
0.0
 11
6.0472186397
 21
5.8047828689
 31
0.0
  0
SPLINE
  5
464
100
AcDbEntity
  8
0
100
AcDbSpline
 62
9
  6
CONTINUOUS
 70
0
 71
3
 72
15
 73
11
 74
9
 42
0.0000001
 43
0.0000001
 44
0.0000000001
 12
-0.0627804454
 22
0.2207549272
 32
0.0
 13
-0.1451886381
 23
0.1777480846
 33
0.0
 40
0.0
 40
0.0
 40
0.0
 40
0.0
 40
0.1178290805
 40
0.2382499752
 40
0.3610324453
 40
0.4859055459
 40
0.612567958
 40
0.7406968101
 40
0.8699553776
 40
1.0
 40
1.0
 40
1.0
 40
1.0
 10
6.4990539307
 20
6.0282129498
 30
0.0
 10
6.4965881433
 20
6.0368833999
 30
0.0
 10
6.4910522628
 20
6.0542627693
 30
0.0
 10
6.4811612262
 20
6.0800654123
 30
0.0
 10
6.4696660626
 20
6.1057857079
 30
0.0
 10
6.4566459335
 20
6.1313044835
 30
0.0
 10
6.44217944
 20
6.1565040035
 30
0.0
 10
6.4263450922
 20
6.1812660556
 30
0.0
 10
6.409221995
 20
6.2054715967
 30
0.0
 10
6.3970246644
 20
6.2211265987
 30
0.0
 10
6.3907309972
 20
6.2288316595
 30
0.0
 11
6.4990539307
 21
6.0282129498
 31
0.0
 11
6.4908700124
 21
6.0539876425
 31
0.0
 11
6.4809973296
 21
6.0798017411
 31
0.0
 11
6.4695150576
 21
6.1055359207
 31
0.0
 11
6.4565023717
 21
6.1310708563
 31
0.0
 11
6.4420384474
 21
6.156287223
 31
0.0
 11
6.42620246
 21
6.1810656957
 31
0.0
 11
6.4090735848
 21
6.2052869496
 31
0.0
 11
6.3907309972
 21
6.2288316595
 31
0.0
  0
SPLINE
  5
465
100
AcDbEntity
  8
0
100
AcDbSpline
 62
9
  6
CONTINUOUS
 70
0
 71
3
 72
48
 73
44
 74
42
 42
0.0000001
 43
0.0000001
 44
0.0000000001
 12
0.5985582099
 22
-0.9653929232
 32
0.0
 13
-1.135894109
 23
0.0
 33
0.0
 40
0.0
 40
0.0
 40
0.0
 40
0.0
 40
0.0309185027
 40
0.0617332236
 40
0.0771071145
 40
0.0924590925
 40
0.1077907824
 40
0.1231040346
 40
0.1536781724
 40
0.1842010132
 40
0.1994504206
 40
0.2146931731
 40
0.2451629501
 40
0.2756319778
 40
0.2908737742
 40
0.3061218176
 40
0.3366408002
 40
0.3672097121
 40
0.3978435085
 40
0.4285570253
 40
0.4593629094
 40
0.4902716741
 40
0.5212930652
 40
0.5524342681
 40
0.5836995906
 40
0.599381957
 40
0.6150964465
 40
0.6466175055
 40
0.6782651948
 40
0.6941376301
 40
0.7100404394
 40
0.7259726984
 40
0.7419332344
 40
0.7739297639
 40
0.7899668775
 40
0.8060267075
 40
0.8382072029
 40
0.8704685156
 40
0.8866291231
 40
0.9028071647
 40
0.9351992853
 40
0.9676109179
 40
1.0
 40
1.0
 40
1.0
 40
1.0
 10
6.5325966197
 20
1.7773990839
 30
0.0
 10
6.5387654609
 20
1.7674495827
 30
0.0
 10
6.5504140322
 20
1.7471609921
 30
0.0
 10
6.5632087719
 20
1.7208926514
 30
0.0
 10
6.5723269382
 20
1.6994453525
 30
0.0
 10
6.5785968751
 20
1.6831688646
 30
0.0
 10
6.5842941749
 20
1.6667074377
 30
0.0
 10
6.5911145947
 20
1.6445500864
 30
0.0
 10
6.5981888037
 20
1.6164716413
 30
0.0
 10
6.6032975603
 20
1.5879944132
 30
0.0
 10
6.606183731
 20
1.5650690525
 30
0.0
 10
6.6082649543
 20
1.5420768425
 30
0.0
 10
6.6093606208
 20
1.5132281007
 30
0.0
 10
6.6084456465
 20
1.4843734473
 30
0.0
 10
6.606508922
 20
1.4613697665
 30
0.0
 10
6.6037671901
 20
1.4384291124
 30
0.0
 10
6.5988367305
 20
1.4099238624
 30
0.0
 10
6.5905557174
 20
1.3761690563
 30
0.0
 10
6.5799394778
 20
1.3429960777
 30
0.0
 10
6.5670259343
 20
1.3105520557
 30
0.0
 10
6.5518822384
 20
1.2789720687
 30
0.0
 10
6.534572133
 20
1.2483916555
 30
0.0
 10
6.515160465
 20
1.2189481308
 30
0.0
 10
6.4937411038
 20
1.1907631583
 30
0.0
 10
6.4743133906
 20
1.1684437473
 30
0.0
 10
6.45786613
 20
1.1513388038
 30
0.0
 10
6.4407950902
 20
1.1347170909
 30
0.0
 10
6.4183819632
 20
1.1149416117
 30
0.0
 10
6.3946880511
 20
1.0966227897
 30
0.0
 10
6.3749998382
 20
1.0828674549
 30
0.0
 10
6.3598641643
 20
1.0730024253
 30
0.0
 10
6.3443923177
 20
1.0636089671
 30
0.0
 10
6.3233231344
 20
1.0517170101
 30
0.0
 10
6.3016628322
 20
1.0408143471
 30
0.0
 10
6.279492369
 20
1.0309376421
 30
0.0
 10
6.256956791
 20
1.0217378656
 30
0.0
 10
6.2282062931
 20
1.0115519834
 30
0.0
 10
6.1988409278
 20
1.0031653977
 30
0.0
 10
6.1750311618
 20
0.9975497892
 30
0.0
 10
6.1510098128
 20
0.9926675184
 30
0.0
 10
6.1206889236
 20
0.9879625671
 30
0.0
 10
6.0840245085
 20
0.9845633225
 30
0.0
 10
6.0594821622
 20
0.9838028549
 30
0.0
 10
6.0472186397
 20
0.9838028549
 30
0.0
 11
6.5325966197
 21
1.7773990839
 31
0.0
 11
6.55008121
 21
1.7469406911
 31
0.0
 11
6.5654056333
 21
1.7154713369
 31
0.0
 11
6.5722376262
 21
1.6994001155
 31
0.0
 11
6.5785053903
 21
1.6831272333
 31
0.0
 11
6.5842009415
 21
1.6666697407
 31
0.0
 11
6.5893181629
 21
1.6500452592
 31
0.0
 11
6.5978008585
 21
1.616368173
 31
0.0
 11
6.6039203916
 21
1.5822417933
 31
0.0
 11
6.6060836605
 21
1.5650556948
 31
0.0
 11
6.6076446877
 21
1.547812056
 31
0.0
 11
6.6089585337
 21
1.5132265623
 31
0.0
 11
6.6078614354
 21
1.4786343662
 31
0.0
 11
6.606408782
 21
1.4613823495
 31
0.0
 11
6.6043536451
 21
1.444184546
 31
0.0
 11
6.5984481808
 21
1.4100249192
 31
0.0
 11
6.5901765872
 21
1.3763014744
 31
0.0
 11
6.5795718872
 21
1.3431600491
 31
0.0
 11
6.5666752911
 21
1.3107439774
 31
0.0
 11
6.5515482302
 21
1.2791904095
 31
0.0
 11
6.5342552028
 21
1.2486355578
 31
0.0
 11
6.5148651059
 21
1.2192132636
 31
0.0
 11
6.4934660877
 21
1.1910469919
 31
0.0
 11
6.4701515618
 21
1.1642573696
 31
0.0
 11
6.4578052591
 21
1.1514164247
 31
0.0
 11
6.445016807
 21
1.138963399
 31
0.0
 11
6.4181720012
 21
1.1152711065
 31
0.0
 11
6.3897344619
 21
1.0932803007
 31
0.0
 11
6.374955095
 21
1.0829541308
 31
0.0
 11
6.3598222783
 21
1.0730899222
 31
0.0
 11
6.344353178
 21
1.0636973006
 31
0.0
 11
6.3285652291
 21
1.0547855849
 31
0.0
 11
6.296102527
 21
1.0384421472
 31
0.0
 11
6.2794626441
 21
1.0310290631
 31
0.0
 11
6.2625736897
 21
1.0241338835
 31
0.0
 11
6.2281197433
 21
1.0119234854
 31
0.0
 11
6.1928837354
 21
1.0018581163
 31
0.0
 11
6.175017205
 21
0.9976442161
 31
0.0
 11
6.1570089081
 21
0.9939838144
 31
0.0
 11
6.1206506089
 21
0.9883381161
 31
0.0
 11
6.0839916518
 21
0.9849392678
 31
0.0
 11
6.0472186397
 21
0.9838028549
 31
0.0
  0
SPLINE
  5
466
100
AcDbEntity
  8
0
100
AcDbSpline
 62
9
  6
CONTINUOUS
 70
0
 71
3
 72
48
 73
44
 74
42
 42
0.0000001
 43
0.0000001
 44
0.0000000001
 12
-0.5985582099
 22
-0.9653929232
 32
0.0
 13
1.135894109
 23
0.0
 33
0.0
 40
0.0
 40
0.0
 40
0.0
 40
0.0
 40
0.0309185027
 40
0.0617332236
 40
0.0771071145
 40
0.0924590925
 40
0.1077907824
 40
0.1231040346
 40
0.1536781724
 40
0.1842010132
 40
0.1994504206
 40
0.2146931731
 40
0.2451629501
 40
0.2756319778
 40
0.2908737742
 40
0.3061218176
 40
0.3366408002
 40
0.3672097121
 40
0.3978435085
 40
0.4285570253
 40
0.4593629094
 40
0.4902716741
 40
0.5212930652
 40
0.5524342681
 40
0.5836995906
 40
0.599381957
 40
0.6150964465
 40
0.6466175055
 40
0.6782651948
 40
0.6941376301
 40
0.7100404394
 40
0.7259726984
 40
0.7419332344
 40
0.7739297639
 40
0.7899668775
 40
0.8060267075
 40
0.8382072029
 40
0.8704685156
 40
0.8866291231
 40
0.9028071647
 40
0.9351992853
 40
0.9676109179
 40
1.0
 40
1.0
 40
1.0
 40
1.0
 10
5.5618406597
 20
1.7773990839
 30
0.0
 10
5.5556718185
 20
1.7674495827
 30
0.0
 10
5.5440232472
 20
1.7471609921
 30
0.0
 10
5.5312285075
 20
1.7208926514
 30
0.0
 10
5.5221103412
 20
1.6994453525
 30
0.0
 10
5.5158404043
 20
1.6831688646
 30
0.0
 10
5.5101431045
 20
1.6667074377
 30
0.0
 10
5.5033226847
 20
1.6445500864
 30
0.0
 10
5.4962484757
 20
1.6164716413
 30
0.0
 10
5.4911397191
 20
1.5879944132
 30
0.0
 10
5.4882535484
 20
1.5650690525
 30
0.0
 10
5.4861723251
 20
1.5420768425
 30
0.0
 10
5.4850766586
 20
1.5132281007
 30
0.0
 10
5.4859916329
 20
1.4843734473
 30
0.0
 10
5.4879283574
 20
1.4613697665
 30
0.0
 10
5.4906700893
 20
1.4384291125
 30
0.0
 10
5.4956005488
 20
1.4099238624
 30
0.0
 10
5.503881562
 20
1.3761690563
 30
0.0
 10
5.5144978016
 20
1.3429960777
 30
0.0
 10
5.5274113451
 20
1.3105520557
 30
0.0
 10
5.542555041
 20
1.2789720687
 30
0.0
 10
5.5598651464
 20
1.2483916555
 30
0.0
 10
5.5792768144
 20
1.2189481308
 30
0.0
 10
5.6006961756
 20
1.1907631583
 30
0.0
 10
5.6201238887
 20
1.1684437473
 30
0.0
 10
5.6365711494
 20
1.1513388038
 30
0.0
 10
5.6536421892
 20
1.1347170909
 30
0.0
 10
5.6760553162
 20
1.1149416117
 30
0.0
 10
5.6997492283
 20
1.0966227897
 30
0.0
 10
5.7194374412
 20
1.0828674549
 30
0.0
 10
5.7345731151
 20
1.0730024253
 30
0.0
 10
5.7500449617
 20
1.0636089671
 30
0.0
 10
5.771114145
 20
1.0517170101
 30
0.0
 10
5.7927744472
 20
1.0408143471
 30
0.0
 10
5.8149449104
 20
1.0309376421
 30
0.0
 10
5.8374804884
 20
1.0217378656
 30
0.0
 10
5.8662309862
 20
1.0115519834
 30
0.0
 10
5.8955963516
 20
1.0031653977
 30
0.0
 10
5.9194061176
 20
0.9975497892
 30
0.0
 10
5.9434274665
 20
0.9926675184
 30
0.0
 10
5.9737483558
 20
0.9879625671
 30
0.0
 10
6.0104127709
 20
0.9845633225
 30
0.0
 10
6.0349551172
 20
0.9838028549
 30
0.0
 10
6.0472186397
 20
0.9838028549
 30
0.0
 11
5.5618406597
 21
1.7773990839
 31
0.0
 11
5.5443560694
 21
1.7469406911
 31
0.0
 11
5.5290316461
 21
1.7154713369
 31
0.0
 11
5.5221996532
 21
1.6994001155
 31
0.0
 11
5.5159318891
 21
1.6831272333
 31
0.0
 11
5.5102363379
 21
1.6666697407
 31
0.0
 11
5.5051191165
 21
1.6500452592
 31
0.0
 11
5.4966364209
 21
1.616368173
 31
0.0
 11
5.4905168878
 21
1.5822417933
 31
0.0
 11
5.4883536189
 21
1.5650556949
 31
0.0
 11
5.4867925917
 21
1.547812056
 31
0.0
 11
5.4854787457
 21
1.5132265623
 31
0.0
 11
5.486575844
 21
1.4786343662
 31
0.0
 11
5.4880284973
 21
1.4613823495
 31
0.0
 11
5.4900836343
 21
1.444184546
 31
0.0
 11
5.4959890986
 21
1.4100249192
 31
0.0
 11
5.5042606922
 21
1.3763014744
 31
0.0
 11
5.5148653922
 21
1.3431600492
 31
0.0
 11
5.5277619883
 21
1.3107439775
 31
0.0
 11
5.5428890491
 21
1.2791904095
 31
0.0
 11
5.5601820766
 21
1.2486355578
 31
0.0
 11
5.5795721735
 21
1.2192132636
 31
0.0
 11
5.6009711917
 21
1.1910469919
 31
0.0
 11
5.6242857176
 21
1.1642573696
 31
0.0
 11
5.6366320203
 21
1.1514164247
 31
0.0
 11
5.6494204724
 21
1.138963399
 31
0.0
 11
5.6762652782
 21
1.1152711065
 31
0.0
 11
5.7047028175
 21
1.0932803007
 31
0.0
 11
5.7194821844
 21
1.0829541308
 31
0.0
 11
5.7346150011
 21
1.0730899222
 31
0.0
 11
5.7500841014
 21
1.0636973006
 31
0.0
 11
5.7658720502
 21
1.0547855849
 31
0.0
 11
5.7983347524
 21
1.0384421473
 31
0.0
 11
5.8149746353
 21
1.0310290631
 31
0.0
 11
5.8318635897
 21
1.0241338835
 31
0.0
 11
5.8663175361
 21
1.0119234854
 31
0.0
 11
5.901553544
 21
1.0018581163
 31
0.0
 11
5.9194200744
 21
0.9976442161
 31
0.0
 11
5.9374283713
 21
0.9939838144
 31
0.0
 11
5.9737866705
 21
0.9883381161
 31
0.0
 11
6.0104456275
 21
0.9849392678
 31
0.0
 11
6.0472186397
 21
0.9838028549
 31
0.0
  0
SPLINE
  5
467
100
AcDbEntity
  8
0
100
AcDbSpline
 62
9
  6
CONTINUOUS
 70
0
 71
3
 72
49
 73
45
 74
43
 42
0.0000001
 43
0.0000001
 44
0.0000000001
 12
1.0196067617
 22
0.0000000021
 32
0.0
 13
-0.296002154
 23
-0.9756949694
 33
0.0
 40
0.0
 40
0.0
 40
0.0
 40
0.0
 40
0.0342799368
 40
0.0692337222
 40
0.1048409765
 40
0.1410616295
 40
0.1778392217
 40
0.2151037285
 40
0.2527739529
 40
0.2907595463
 40
0.3289614642
 40
0.3672673613
 40
0.4055562377
 40
0.4437017602
 40
0.4815733912
 40
0.5190373937
 40
0.5559577611
 40
0.592197113
 40
0.6276197387
 40
0.6621050792
 40
0.6955394677
 40
0.7278106693
 40
0.7588091274
 40
0.7737987874
 40
0.7884312942
 40
0.8026945251
 40
0.8165769374
 40
0.8300676859
 40
0.8431567628
 40
0.8558352627
 40
0.868098336
 40
0.8799456595
 40
0.8913784486
 40
0.9023995206
 40
0.9130135861
 40
0.9232275926
 40
0.9330511243
 40
0.9424968649
 40
0.9515811192
 40
0.9687421335
 40
0.9768847218
 40
0.9847789223
 40
0.9924676079
 40
1.0
 40
1.0
 40
1.0
 40
1.0
 10
6.0472186397
 20
5.6403843905
 30
0.0
 10
6.0588693248
 20
5.6403843905
 30
0.0
 10
6.0824051711
 20
5.6396192997
 30
0.0
 10
6.1179056615
 20
5.636357339
 30
0.0
 10
6.15382771
 20
5.631073092
 30
0.0
 10
6.1900441109
 20
5.6238690317
 30
0.0
 10
6.2264299051
 20
5.6148472107
 30
0.0
 10
6.2628591504
 20
5.6041094121
 30
0.0
 10
6.2992057958
 20
5.5917571816
 30
0.0
 10
6.335343271
 20
5.5778923741
 30
0.0
 10
6.3711416192
 20
5.5626170526
 30
0.0
 10
6.406474942
 20
5.5460524599
 30
0.0
 10
6.4412156466
 20
5.528321941
 30
0.0
 10
6.4752351995
 20
5.5095487827
 30
0.0
 10
6.5084050541
 20
5.4898563931
 30
0.0
 10
6.5405966424
 20
5.4693682134
 30
0.0
 10
6.5716813387
 20
5.4482076372
 30
0.0
 10
6.601531408
 20
5.426497969
 30
0.0
 10
6.6300227033
 20
5.4043578111
 30
0.0
 10
6.6570436302
 20
5.3819093241
 30
0.0
 10
6.6824906946
 20
5.3592722298
 30
0.0
 10
6.7062614541
 20
5.3365646523
 30
0.0
 10
6.7247913965
 20
5.3174728842
 30
0.0
 10
6.7386757272
 20
5.3022490257
 30
0.0
 10
6.7484883311
 20
5.2910144615
 30
0.0
 10
6.7578040523
 20
5.2798504005
 30
0.0
 10
6.7666101085
 20
5.2687715084
 30
0.0
 10
6.7748936911
 20
5.2577925106
 30
0.0
 10
6.7826421125
 20
5.2469281246
 30
0.0
 10
6.789842931
 20
5.2361920016
 30
0.0
 10
6.7964860322
 20
5.2255968652
 30
0.0
 10
6.8025644063
 20
5.2151548033
 30
0.0
 10
6.8080714097
 20
5.2048766583
 30
0.0
 10
6.8130005007
 20
5.1947732254
 30
0.0
 10
6.8173450882
 20
5.1848552737
 30
0.0
 10
6.8210985708
 20
5.1751334039
 30
0.0
 10
6.824254206
 20
5.1656185825
 30
0.0
 10
6.8268054469
 20
5.1563202353
 30
0.0
 10
6.8293431405
 20
5.1444544276
 30
0.0
 10
6.8307392601
 20
5.132807368
 30
0.0
 10
6.8308235828
 20
5.1215152797
 30
0.0
 10
6.8302446278
 20
5.1134630476
 30
0.0
 10
6.829017068
 20
5.1056938432
 30
0.0
 10
6.8277504242
 20
5.1006690836
 30
0.0
 10
6.8270072227
 20
5.0982193112
 30
0.0
 11
6.0472186397
 21
5.6403843905
 31
0.0
 11
6.0821534389
 21
5.6392862213
 31
0.0
 11
6.1176461863
 21
5.6360595408
 31
0.0
 11
6.1535694813
 21
5.6308060897
 31
0.0
 11
6.189795923
 21
5.6236276088
 31
0.0
 11
6.2261981106
 21
5.6146258388
 31
0.0
 11
6.2626486434
 21
5.6039025204
 31
0.0
 11
6.2990201206
 21
5.5915593944
 31
0.0
 11
6.3351851414
 21
5.5776982015
 31
0.0
 11
6.3710160814
 21
5.562423419
 31
0.0
 11
6.4063841345
 21
5.5458539805
 31
0.0
 11
6.441160106
 21
5.5281135757
 31
0.0
 11
6.4752148008
 21
5.509325897
 31
0.0
 11
6.508419024
 21
5.4896146373
 31
0.0
 11
6.5406435805
 21
5.469103489
 31
0.0
 11
6.5717592754
 21
5.4479161447
 31
0.0
 11
6.6016369136
 21
5.426176297
 31
0.0
 11
6.6301496687
 21
5.4040071468
 31
0.0
 11
6.6571873763
 21
5.3815284349
 31
0.0
 11
6.682647022
 21
5.3588584178
 31
0.0
 11
6.7064256186
 21
5.3361153462
 31
0.0
 11
6.7284201791
 21
5.3134174706
 31
0.0
 11
6.7387162624
 21
5.3021224348
 31
0.0
 11
6.7485277166
 21
5.2908830419
 31
0.0
 11
6.7578416681
 21
5.2797140735
 31
0.0
 11
6.7666452438
 21
5.2686303107
 31
0.0
 11
6.7749255702
 21
5.257646535
 31
0.0
 11
6.7826697738
 21
5.2467775276
 31
0.0
 11
6.7898650743
 21
5.2360380138
 31
0.0
 11
6.7965014788
 21
5.225441035
 31
0.0
 11
6.8025722008
 21
5.2149976955
 31
0.0
 11
6.8080706308
 21
5.2047189929
 31
0.0
 11
6.8129901597
 21
5.1946159245
 31
0.0
 11
6.817324178
 21
5.1846994879
 31
0.0
 11
6.8210660764
 21
5.1749806806
 31
0.0
 11
6.8242092456
 21
5.1654704999
 31
0.0
 11
6.8267470761
 21
5.1561799434
 31
0.0
 11
6.8286729586
 21
5.1471200085
 31
0.0
 11
6.8306624424
 21
5.1297359935
 31
0.0
 11
6.8307128249
 21
5.1214339082
 31
0.0
 11
6.830124822
 21
5.1134064345
 31
0.0
 11
6.8288918244
 21
5.1056645696
 31
0.0
 11
6.8270072227
 21
5.0982193112
 31
0.0
  0
LINE
  5
468
100
AcDbEntity
  8
0
100
AcDbLine
 62
9
  6
CONTINUOUS
 10
6.5718183251
 20
3.9924405844
 11
6.5721118741
 21
3.9942902538
  0
SPLINE
  5
469
100
AcDbEntity
  8
0
100
AcDbSpline
 62
6
  6
CONTINUOUS
 70
0
 71
3
 72
36
 73
32
 74
30
 42
0.0000001
 43
0.0000001
 44
0.0000000001
 12
-0.7846100133
 22
-0.0
 32
0.0
 13
-0.0000014822
 23
0.7846100133
 33
0.0
 40
0.0
 40
0.0
 40
0.0
 40
0.0
 40
0.0643819694
 40
0.0965844182
 40
0.1287575901
 40
0.1608858712
 40
0.1929639322
 40
0.224988277
 40
0.2569564269
 40
0.2888625181
 40
0.3206984787
 40
0.3524558923
 40
0.3841281686
 40
0.4157118008
 40
0.4472044538
 40
0.4786051276
 40
0.5099128413
 40
0.5411261971
 40
0.5722442726
 40
0.6032677208
 40
0.6341989292
 40
0.6650406678
 40
0.6957964577
 40
0.7264710303
 40
0.7570700193
 40
0.7876001974
 40
0.8180700512
 40
0.8484887501
 40
0.8788646964
 40
0.9394946657
 40
1.0
 40
1.0
 40
1.0
 40
1.0
 10
6.0472186397
 20
1.0549682253
 30
0.0
 10
6.0303803937
 20
1.0549682253
 30
0.0
 10
6.0050998872
 20
1.056153571
 30
0.0
 10
5.9716429568
 20
1.0600454424
 30
0.0
 10
5.9467231207
 20
1.064109053
 30
0.0
 10
5.9220490947
 20
1.0693064938
 30
0.0
 10
5.8976792293
 20
1.0756301758
 30
0.0
 10
5.8736709054
 20
1.0830719427
 30
0.0
 10
5.8500832441
 20
1.091624603
 30
0.0
 10
5.8269705232
 20
1.1012606063
 30
0.0
 10
5.8043867727
 20
1.1119501894
 30
0.0
 10
5.7823863302
 20
1.1236644312
 30
0.0
 10
5.7610222687
 20
1.1363741937
 30
0.0
 10
5.7403458615
 20
1.1500495029
 30
0.0
 10
5.7204075653
 20
1.1646606279
 30
0.0
 10
5.7012593535
 20
1.1801787108
 30
0.0
 10
5.6829457508
 20
1.196564122
 30
0.0
 10
5.6655088809
 20
1.213774634
 30
0.0
 10
5.6489918842
 20
1.2317691933
 30
0.0
 10
5.6334359763
 20
1.2505050504
 30
0.0
 10
5.6188749172
 20
1.2699339028
 30
0.0
 10
5.6053426886
 20
1.2900086317
 30
0.0
 10
5.5928738117
 20
1.3106823622
 30
0.0
 10
5.5814986576
 20
1.3319055653
 30
0.0
 10
5.5712452132
 20
1.3536277255
 30
0.0
 10
5.5621424149
 20
1.3757990333
 30
0.0
 10
5.5542175374
 20
1.3983680466
 30
0.0
 10
5.5474807205
 20
1.4212781275
 30
0.0
 10
5.54010337
 20
1.4521786658
 30
0.0
 10
5.5338983708
 20
1.4913898962
 30
0.0
 10
5.5322195626
 20
1.5230939329
 30
0.0
 10
5.5322195327
 20
1.5389182966
 30
0.0
 11
6.0472186397
 21
1.0549682253
 31
0.0
 11
5.9967586299
 21
1.0573190038
 31
0.0
 11
5.9716614152
 21
1.0602377276
 31
0.0
 11
5.9467472204
 21
1.0643011964
 31
0.0
 11
5.9220806869
 21
1.0694986975
 31
0.0
 11
5.8977192602
 21
1.0758222853
 31
0.0
 11
5.8737199799
 21
1.0832641704
 31
0.0
 11
5.8501396284
 21
1.0918140456
 31
0.0
 11
5.8270335381
 21
1.1014474077
 31
0.0
 11
5.8044565331
 21
1.1121347821
 31
0.0
 11
5.7824634125
 21
1.1238466879
 31
0.0
 11
5.7611074673
 21
1.1365535854
 31
0.0
 11
5.7404396395
 21
1.1502258432
 31
0.0
 11
5.7205106674
 21
1.1648338217
 31
0.0
 11
5.7013706766
 21
1.180346928
 31
0.0
 11
5.683064913
 21
1.1967269798
 31
0.0
 11
5.6656362913
 21
1.213932168
 31
0.0
 11
5.6491276949
 21
1.2319206506
 31
0.0
 11
5.6335793729
 21
1.2506489437
 31
0.0
 11
5.6190260597
 21
1.270070126
 31
0.0
 11
5.6055017967
 21
1.2901368442
 31
0.0
 11
5.5930403483
 21
1.3108015963
 31
0.0
 11
5.5816722813
 21
1.3320151605
 31
0.0
 11
5.5714261096
 21
1.3537272112
 31
0.0
 11
5.562330309
 21
1.3758874031
 31
0.0
 11
5.5544093606
 21
1.3984440197
 31
0.0
 11
5.547676335
 21
1.4213414269
 31
0.0
 11
5.5421422785
 21
1.4445232961
 31
0.0
 11
5.5347154991
 21
1.4915108653
 31
0.0
 11
5.5322195327
 21
1.5389182966
 31
0.0
  0
SPLINE
  5
46A
100
AcDbEntity
  8
0
100
AcDbSpline
 62
9
  6
CONTINUOUS
 70
0
 71
3
 72
36
 73
32
 74
30
 42
0.0000001
 43
0.0000001
 44
0.0000000001
 12
-0.541833962
 22
-0.0
 32
0.0
 13
-0.0178164726
 23
0.541540964
 33
0.0
 40
0.0
 40
0.0
 40
0.0
 40
0.0
 40
0.0743617421
 40
0.1488374135
 40
0.2230172507
 40
0.2964814973
 40
0.3688144739
 40
0.4044362834
 40
0.4396272311
 40
0.4743392084
 40
0.5085252025
 40
0.5421397447
 40
0.575139416
 40
0.6074822665
 40
0.6391247949
 40
0.6700259069
 40
0.7001489697
 40
0.7294629142
 40
0.7579435527
 40
0.785575156
 40
0.8123523374
 40
0.8382803837
 40
0.8633726509
 40
0.8876602213
 40
0.9111977402
 40
0.934067518
 40
0.9563834461
 40
0.9673824392
 40
0.9783017027
 40
0.9891654294
 40
1.0
 40
1.0
 40
1.0
 40
1.0
 10
6.0472186397
 20
1.9107662386
 30
0.0
 10
6.0337880673
 20
1.9107662386
 30
0.0
 10
6.0069000671
 20
1.9115759183
 30
0.0
 10
5.9667554597
 20
1.9151120056
 30
0.0
 10
5.9270345313
 20
1.9208910678
 30
0.0
 10
5.8880843434
 20
1.928831487
 30
0.0
 10
5.8563903284
 20
1.9372257456
 30
0.0
 10
5.8317137521
 20
1.9449488393
 30
0.0
 10
5.8137008443
 20
1.9511854378
 30
0.0
 10
5.7961299411
 20
1.9578788741
 30
0.0
 10
5.7790411974
 20
1.9650129125
 30
0.0
 10
5.762474979
 20
1.9725712074
 30
0.0
 10
5.7464717555
 20
1.9805373807
 30
0.0
 10
5.7310729455
 20
1.9888945026
 30
0.0
 10
5.7163197379
 20
1.9976226229
 30
0.0
 10
5.7022541678
 20
2.0067014535
 30
0.0
 10
5.6889184245
 20
2.0161106703
 30
0.0
 10
5.6763546697
 20
2.0258300403
 30
0.0
 10
5.6646050545
 20
2.0358394508
 30
0.0
 10
5.6537117269
 20
2.0461189388
 30
0.0
 10
5.6437171636
 20
2.0566485049
 30
0.0
 10
5.6346647904
 20
2.06740701
 30
0.0
 10
5.6266018776
 20
2.0783742179
 30
0.0
 10
5.6195775527
 20
2.0895289153
 30
0.0
 10
5.6136417074
 20
2.1008502003
 30
0.0
 10
5.608845293
 20
2.1123159916
 30
0.0
 10
5.6058260682
 20
2.1220230344
 30
0.0
 10
5.6040466126
 20
2.1298147015
 30
0.0
 10
5.6030344086
 20
2.1356513589
 30
0.0
 10
5.6023448249
 20
2.1415047884
 30
0.0
 10
5.602104183
 20
2.1454188311
 30
0.0
 10
5.6020398384
 20
2.147374619
 30
0.0
 11
6.0472186397
 21
1.9107662386
 31
0.0
 11
6.0069446778
 21
1.9119622646
 31
0.0
 11
5.9667462394
 21
1.9154958643
 31
0.0
 11
5.9269722288
 21
1.9212853196
 31
0.0
 11
5.88797155
 21
1.9292489129
 31
0.0
 11
5.8500889567
 21
1.9392967138
 31
0.0
 11
5.8316697486
 21
1.9450643367
 31
0.0
 11
5.8136525996
 21
1.9513059425
 31
0.0
 11
5.7960780098
 21
1.9580051572
 31
0.0
 11
5.7789864791
 21
1.9651456068
 31
0.0
 11
5.7624185075
 21
1.9727109173
 31
0.0
 11
5.7464145952
 21
1.9806847145
 31
0.0
 11
5.7310155772
 21
1.9890499259
 31
0.0
 11
5.7162636296
 21
1.9977866843
 31
0.0
 11
5.7022012632
 21
2.0068744238
 31
0.0
 11
5.6888709894
 21
2.0162925786
 31
0.0
 11
5.676315319
 21
2.0260205828
 31
0.0
 11
5.6645767633
 21
2.0360378706
 31
0.0
 11
5.6536978331
 21
2.0463238762
 31
0.0
 11
5.6437210398
 21
2.0568580337
 31
0.0
 11
5.634689978
 21
2.0676193432
 31
0.0
 11
5.6266525778
 21
2.0785850686
 31
0.0
 11
5.6196578528
 21
2.0897320395
 31
0.0
 11
5.6137548169
 21
2.1010370858
 31
0.0
 11
5.6089924838
 21
2.1124770372
 31
0.0
 11
5.6054198671
 21
2.1240287233
 31
0.0
 11
5.6040950193
 21
2.1298392262
 31
0.0
 11
5.6030859808
 21
2.135668974
 31
0.0
 11
5.6023988782
 21
2.1415150704
 31
0.0
 11
5.6020398384
 21
2.147374619
 31
0.0
  0
LINE
  5
46B
100
AcDbEntity
  8
0
100
AcDbLine
 62
9
  6
CONTINUOUS
 10
5.6020398384
 20
2.147374619
 11
5.6031073809
 21
2.1618573324
  0
LINE
  5
46C
100
AcDbEntity
  8
0
100
AcDbLine
 62
9
  6
CONTINUOUS
 10
5.6234293847
 20
2.7256915413
 11
5.6234071716
 21
2.7403302316
  0
SPLINE
  5
46D
100
AcDbEntity
  8
0
100
AcDbSpline
 62
9
  6
CONTINUOUS
 70
0
 71
3
 72
43
 73
39
 74
37
 42
0.0000001
 43
0.0000001
 44
0.0000000001
 12
-0.4347271621
 22
0.0
 32
0.0
 13
0.0177652497
 23
-0.4343640195
 33
0.0
 40
0.0
 40
0.0
 40
0.0
 40
0.0
 40
0.0829678086
 40
0.1674559744
 40
0.2525697201
 40
0.3374122214
 40
0.4210854105
 40
0.5026902962
 40
0.5813271691
 40
0.6560962323
 40
0.691747517
 40
0.7260824567
 40
0.7589763823
 40
0.7903048522
 40
0.8199437473
 40
0.8477694074
 40
0.8736588343
 40
0.8974900054
 40
0.9191383419
 40
0.9291006459
 40
0.9384646339
 40
0.9472129891
 40
0.9553288863
 40
0.9627961893
 40
0.9695997565
 40
0.9757259336
 40
0.981163386
 40
0.9859045847
 40
0.9880138069
 40
0.989949525
 40
0.9917136591
 40
0.9933096249
 40
0.9947430297
 40
0.9960227413
 40
0.997162497
 40
0.9981831474
 40
0.9991151784
 40
1.0
 40
1.0
 40
1.0
 40
1.0
 10
6.0472186397
 20
3.0849420361
 30
0.0
 10
6.035195853
 20
3.0849420361
 30
0.0
 10
6.0109297176
 20
3.0847685167
 30
0.0
 10
5.9743364298
 20
3.0840432466
 30
0.0
 10
5.9374826512
 20
3.0828806452
 30
0.0
 10
5.9007621926
 20
3.081312102
 30
0.0
 10
5.8645688636
 20
3.0793691151
 30
0.0
 10
5.8292959315
 20
3.0770947908
 30
0.0
 10
5.7953365918
 20
3.0745324533
 30
0.0
 10
5.7680428641
 20
3.072157737
 30
0.0
 10
5.7471637844
 20
3.0701386077
 30
0.0
 10
5.7323346556
 20
3.0686033434
 30
0.0
 10
5.7181396907
 20
3.0670291371
 30
0.0
 10
5.7046334544
 20
3.0654220696
 30
0.0
 10
5.6918704925
 20
3.0637883066
 30
0.0
 10
5.6799053314
 20
3.0621340404
 30
0.0
 10
5.6687924144
 20
3.0604656188
 30
0.0
 10
5.6585867973
 20
3.0587893841
 30
0.0
 10
5.6506812269
 20
3.0573554122
 30
0.0
 10
5.6448570101
 20
3.0561999999
 30
0.0
 10
5.6408764374
 20
3.055359265
 30
0.0
 10
5.6371691717
 20
3.0545209891
 30
0.0
 10
5.6337434159
 20
3.0536859674
 30
0.0
 10
5.6306073167
 20
3.0528550669
 30
0.0
 10
5.6277689778
 20
3.0520291712
 30
0.0
 10
5.6252362876
 20
3.0512092606
 30
0.0
 10
5.6230171874
 20
3.0503962352
 30
0.0
 10
5.6213766154
 20
3.0497009296
 30
0.0
 10
5.6202323418
 20
3.0491420044
 30
0.0
 10
5.6194917047
 20
3.0487413169
 30
0.0
 10
5.6188354844
 20
3.0483427109
 30
0.0
 10
5.6182645374
 20
3.047946154
 30
0.0
 10
5.6177796494
 20
3.0475515384
 30
0.0
 10
5.6173815867
 20
3.0471585166
 30
0.0
 10
5.6170712435
 20
3.0467664136
 30
0.0
 10
5.6168500807
 20
3.0463739975
 30
0.0
 10
5.6167208437
 20
3.0459804807
 30
0.0
 10
5.6166985547
 20
3.0457150939
 30
0.0
 10
5.6167037943
 20
3.0455869823
 30
0.0
 11
6.0472186397
 21
3.0849420361
 31
0.0
 11
6.0111511281
 21
3.0846946457
 31
0.0
 11
5.9744289059
 21
3.0839735934
 31
0.0
 11
5.9374459318
 21
3.0828105577
 31
0.0
 11
5.9005961644
 21
3.081237217
 31
0.0
 11
5.8642734665
 21
3.0792871336
 31
0.0
 11
5.8288713117
 21
3.0770015038
 31
0.0
 11
5.7947830751
 21
3.0744234579
 31
0.0
 11
5.7624021319
 21
3.0715961261
 31
0.0
 11
5.7469756845
 21
3.0701025529
 31
0.0
 11
5.7321289184
 21
3.0685634333
 31
0.0
 11
5.7179164423
 21
3.0669847707
 31
0.0
 11
5.7043928652
 21
3.0653725683
 31
0.0
 11
5.6916127959
 21
3.0637328294
 31
0.0
 11
5.6796308433
 21
3.0620715572
 31
0.0
 11
5.6685016164
 21
3.0603947552
 31
0.0
 11
5.658279724
 21
3.0587084264
 31
0.0
 11
5.649021564
 21
3.0570185593
 31
0.0
 11
5.6447737961
 21
3.0561741509
 31
0.0
 11
5.6407912748
 21
3.055331077
 31
0.0
 11
5.6370822792
 21
3.0544900757
 31
0.0
 11
5.6336550881
 21
3.0536518852
 31
0.0
 11
5.6305179805
 21
3.0528172438
 31
0.0
 11
5.6276792353
 21
3.0519868896
 31
0.0
 11
5.6251471315
 21
3.0511615609
 31
0.0
 11
5.6229299479
 21
3.0503419958
 31
0.0
 11
5.6210359637
 21
3.0495289327
 31
0.0
 11
5.6202127585
 21
3.04912507
 31
0.0
 11
5.6194734577
 21
3.0487231096
 31
0.0
 11
5.6188190961
 21
3.0483231438
 31
0.0
 11
5.6182507088
 21
3.0479252648
 31
0.0
 11
5.6177693304
 21
3.047529565
 31
0.0
 11
5.6173759959
 21
3.0471361365
 31
0.0
 11
5.6170717402
 21
3.0467450718
 31
0.0
 11
5.6168575982
 21
3.046356463
 31
0.0
 11
5.6167346046
 21
3.0459704024
 31
0.0
 11
5.6167037943
 21
3.0455869823
 31
0.0
  0
LINE
  5
46E
100
AcDbEntity
  8
0
100
AcDbLine
 62
9
  6
CONTINUOUS
 10
5.6167068833
 20
3.0455336899
 11
5.6161887935
 21
3.0579738997
  0
LINE
  5
46F
100
AcDbEntity
  8
0
100
AcDbLine
 62
9
  6
CONTINUOUS
 10
5.6161887935
 20
3.0579738997
 11
5.6159199808
 21
3.0642549472
  0
SPLINE
  5
470
100
AcDbEntity
  8
0
100
AcDbSpline
 62
9
  6
CONTINUOUS
 70
0
 71
3
 72
45
 73
41
 74
39
 42
0.0000001
 43
0.0000001
 44
0.0000000001
 12
-0.4407065935
 22
0.0035549446
 32
0.0
 13
0.0211498701
 23
-0.4402131554
 33
0.0
 40
0.0
 40
0.0
 40
0.0
 40
0.0
 40
0.0822030959
 40
0.1659765927
 40
0.2504431122
 40
0.3347191045
 40
0.417916202
 40
0.4991399609
 40
0.5774926196
 40
0.6153116978
 40
0.652075885
 40
0.6876709219
 40
0.7219744832
 40
0.7548623288
 40
0.7862105731
 40
0.8158958492
 40
0.8437955428
 40
0.8697881343
 40
0.8937537265
 40
0.9049393117
 40
0.9155714351
 40
0.9256329695
 40
0.9351072325
 40
0.9439781328
 40
0.9522303791
 40
0.9598497895
 40
0.9668237597
 40
0.9731419997
 40
0.9787977364
 40
0.9837897606
 40
0.9860394186
 40
0.9881273299
 40
0.990057092
 40
0.9918340464
 40
0.9934659003
 40
0.9949635561
 40
0.9963421531
 40
0.9976222065
 40
0.9988304899
 40
1.0
 40
1.0
 40
1.0
 40
1.0
 10
6.0472186397
 20
3.1593563806
 30
0.0
 10
6.0351428242
 20
3.1594537897
 30
0.0
 10
6.0107576232
 20
3.1593708583
 30
0.0
 10
5.9739738395
 20
3.1585076601
 30
0.0
 10
5.9369078586
 20
3.1569586803
 30
0.0
 10
5.8999586653
 20
3.1547791987
 30
0.0
 10
5.8635257077
 20
3.1520247856
 30
0.0
 10
5.8280082339
 20
3.1487668755
 30
0.0
 10
5.7991752813
 20
3.1456569891
 30
0.0
 10
5.7768693022
 20
3.142967101
 30
0.0
 10
5.7608167687
 20
3.1408914235
 30
0.0
 10
5.7452950207
 20
3.1387430224
 30
0.0
 10
5.7303575571
 20
3.1365315062
 30
0.0
 10
5.7160593854
 20
3.1342667203
 30
0.0
 10
5.7024557993
 20
3.1319585833
 30
0.0
 10
5.689602071
 20
3.1296170532
 30
0.0
 10
5.6775533921
 20
3.1272521875
 30
0.0
 10
5.6663649769
 20
3.1248740305
 30
0.0
 10
5.6576137747
 20
3.1228459147
 30
0.0
 10
5.6510881538
 20
3.1212162723
 30
0.0
 10
5.6465587771
 20
3.1200249781
 30
0.0
 10
5.6422887643
 20
3.1188375479
 30
0.0
 10
5.6382864037
 20
3.1176552092
 30
0.0
 10
5.6345599538
 20
3.1164792328
 30
0.0
 10
5.6311176381
 20
3.1153108978
 30
0.0
 10
5.627967609
 20
3.1141515042
 30
0.0
 10
5.6251179543
 20
3.113002365
 30
0.0
 10
5.622576492
 20
3.11186481
 30
0.0
 10
5.6203511139
 20
3.1107400916
 30
0.0
 10
5.6187131575
 20
3.1097840799
 30
0.0
 10
5.6175747361
 20
3.1090201085
 30
0.0
 10
5.6168352754
 20
3.1084708622
 30
0.0
 10
5.6161810423
 20
3.1079253937
 30
0.0
 10
5.6156129807
 20
3.1073836631
 30
0.0
 10
5.6151320342
 20
3.1068455693
 30
0.0
 10
5.6147392337
 20
3.106310857
 30
0.0
 10
5.6144358194
 20
3.1057791615
 30
0.0
 10
5.6142234348
 20
3.1052500097
 30
0.0
 10
5.6141042135
 20
3.1047235572
 30
0.0
 10
5.614088362
 20
3.1043723113
 30
0.0
 10
5.614096607
 20
3.1042007
 30
0.0
 11
6.0472186397
 21
3.1593563806
 31
0.0
 11
6.0109901661
 21
3.1592516617
 31
0.0
 11
5.9740793042
 21
3.1583979418
 31
0.0
 11
5.9368852923
 21
3.1568511063
 31
0.0
 11
5.8998073687
 21
3.1546670405
 31
0.0
 11
5.8632449013
 21
3.1519042461
 31
0.0
 11
5.8275977817
 21
3.1486318096
 31
0.0
 11
5.7932660344
 21
3.1449214944
 31
0.0
 11
5.7767184329
 21
3.1429245582
 31
0.0
 11
5.7606496835
 21
3.1408450636
 31
0.0
 11
5.7451106439
 21
3.1386921103
 31
0.0
 11
5.7301557502
 21
3.1364753393
 31
0.0
 11
5.7158403749
 21
3.1342045336
 31
0.0
 11
5.7022198906
 21
3.131889476
 31
0.0
 11
5.6893496696
 21
3.1295399492
 31
0.0
 11
5.6772850847
 21
3.1271657362
 31
0.0
 11
5.6660815083
 21
3.1247766197
 31
0.0
 11
5.6557943129
 21
3.1223823826
 31
0.0
 11
5.6510118685
 21
3.1211863972
 31
0.0
 11
5.6464806454
 21
3.1199927757
 31
0.0
 11
5.6422089914
 21
3.1188027153
 31
0.0
 11
5.6382052545
 21
3.1176174131
 31
0.0
 11
5.6344777826
 21
3.1164380664
 31
0.0
 11
5.6310349238
 21
3.1152658722
 31
0.0
 11
5.6278850261
 21
3.1141020278
 31
0.0
 11
5.6250364372
 21
3.1129477303
 31
0.0
 11
5.6224975054
 21
3.1118041768
 31
0.0
 11
5.6202765785
 21
3.1106725647
 31
0.0
 11
5.6183820045
 21
3.109554091
 31
0.0
 11
5.6175597086
 21
3.1090001552
 31
0.0
 11
5.6168221313
 21
3.1084499529
 31
0.0
 11
5.6161703163
 21
3.1079036338
 31
0.0
 11
5.6156053071
 21
3.1073613476
 31
0.0
 11
5.615128147
 21
3.1068232438
 31
0.0
 11
5.6147398796
 21
3.1062894722
 31
0.0
 11
5.6144415484
 21
3.1057601824
 31
0.0
 11
5.6142341969
 21
3.105235524
 31
0.0
 11
5.6141188686
 21
3.1047156466
 31
0.0
 11
5.614096607
 21
3.1042007
 31
0.0
  0
SPLINE
  5
471
100
AcDbEntity
  8
0
100
AcDbSpline
 62
9
  6
CONTINUOUS
 70
0
 71
3
 72
48
 73
44
 74
42
 42
0.0000001
 43
0.0000001
 44
0.0000000001
 12
-0.4932659424
 22
0.0044831603
 32
0.0
 13
0.0436893591
 23
-0.4913477674
 33
0.0
 40
0.0
 40
0.0
 40
0.0
 40
0.0
 40
0.0383589827
 40
0.0772675367
 40
0.1166394204
 40
0.1563846003
 40
0.196409875
 40
0.2366194001
 40
0.2769151315
 40
0.317197207
 40
0.3573636269
 40
0.397308372
 40
0.4369233204
 40
0.4760991375
 40
0.5147255265
 40
0.5526914654
 40
0.5898854397
 40
0.6261956812
 40
0.6615089355
 40
0.6957062784
 40
0.7286679341
 40
0.7602752159
 40
0.7904111157
 40
0.8048917329
 40
0.8189618367
 40
0.8458149741
 40
0.8708655666
 40
0.8826843
 40
0.8940149431
 40
0.9048456216
 40
0.9151657093
 40
0.9249661581
 40
0.934239934
 40
0.9429826019
 40
0.9511931144
 40
0.9588748842
 40
0.9660372434
 40
0.9726974201
 40
0.978883162
 40
0.9846360695
 40
0.9900154643
 40
0.9951020768
 40
1.0
 40
1.0
 40
1.0
 40
1.0
 10
6.0472186397
 20
3.5794529454
 30
0.0
 10
6.0409115798
 20
3.5795102685
 30
0.0
 10
6.0282047762
 20
3.5794396063
 30
0.0
 10
6.0090340659
 20
3.5788133157
 30
0.0
 10
5.9896579688
 20
3.577686926
 30
0.0
 10
5.970131664
 20
3.5760814643
 30
0.0
 10
5.9505100858
 20
3.5740179599
 30
0.0
 10
5.9308482697
 20
3.5715174476
 30
0.0
 10
5.9112012524
 20
3.5686009702
 30
0.0
 10
5.8916241897
 20
3.5652895946
 30
0.0
 10
5.872172832
 20
3.5616045198
 30
0.0
 10
5.8529026704
 20
3.557571957
 30
0.0
 10
5.8338696422
 20
3.5532181862
 30
0.0
 10
5.8151297951
 20
3.5485695202
 30
0.0
 10
5.7967391755
 20
3.5436522831
 30
0.0
 10
5.7787538265
 20
3.5384928114
 30
0.0
 10
5.7612297825
 20
3.5331174574
 30
0.0
 10
5.7442232995
 20
3.5275526593
 30
0.0
 10
5.7277917539
 20
3.5218253176
 30
0.0
 10
5.7119938268
 20
3.5159630056
 30
0.0
 10
5.6968892869
 20
3.5099936683
 30
0.0
 10
5.682538197
 20
3.5039453561
 30
0.0
 10
5.6711095524
 20
3.4987965571
 30
0.0
 10
5.6623943751
 20
3.4946529555
 30
0.0
 10
5.6542236822
 20
3.4906235118
 30
0.0
 10
5.6446027819
 20
3.485607696
 30
0.0
 10
5.6354829938
 20
3.4804432082
 30
0.0
 10
5.6287112618
 20
3.4763243005
 30
0.0
 10
5.6240038605
 20
3.4733136186
 30
0.0
 10
5.6195770518
 20
3.4703244951
 30
0.0
 10
5.6154393228
 20
3.4673601572
 30
0.0
 10
5.6115991195
 20
3.4644238622
 30
0.0
 10
5.6080648516
 20
3.4615188193
 30
0.0
 10
5.6048448821
 20
3.4586481841
 30
0.0
 10
5.6019475253
 20
3.4558150204
 30
0.0
 10
5.5993810524
 20
3.4530222503
 30
0.0
 10
5.5971537245
 20
3.4502725748
 30
0.0
 10
5.5952738777
 20
3.4475683881
 30
0.0
 10
5.5937501199
 20
3.4449116393
 30
0.0
 10
5.5925916694
 20
3.4423039627
 30
0.0
 10
5.5918089369
 20
3.4397464924
 30
0.0
 10
5.5914137587
 20
3.437242307
 30
0.0
 10
5.5914177708
 20
3.4355916667
 30
0.0
 10
5.5914890998
 20
3.4347894721
 30
0.0
 11
6.0472186397
 21
3.5794529454
 31
0.0
 11
6.0282969305
 21
3.579355273
 31
0.0
 11
6.0091138963
 21
3.5787350792
 31
0.0
 11
5.9897246994
 21
3.5776134574
 31
0.0
 11
5.9701845024
 21
3.5760115012
 31
0.0
 11
5.9505484678
 21
3.5739503041
 31
0.0
 11
5.9308717581
 21
3.5714509596
 31
0.0
 11
5.9112095359
 21
3.5685345613
 31
0.0
 11
5.8916169636
 21
3.5652222027
 31
0.0
 11
5.8721493654
 21
3.5615358499
 31
0.0
 11
5.8528627119
 21
3.5575009593
 31
0.0
 11
5.8338131352
 21
3.5531438598
 31
0.0
 11
5.8150567676
 21
3.5484908804
 31
0.0
 11
5.7966497411
 21
3.54356835
 31
0.0
 11
5.7786481881
 21
3.5384025976
 31
0.0
 11
5.7611082407
 21
3.5330199521
 31
0.0
 11
5.744086031
 21
3.5274467423
 31
0.0
 11
5.7276383772
 21
3.5217095622
 31
0.0
 11
5.7118248411
 21
3.5158360643
 31
0.0
 11
5.6967056702
 21
3.5098541661
 31
0.0
 11
5.6823411121
 21
3.5037917853
 31
0.0
 11
5.6687914147
 21
3.4976768393
 31
0.0
 11
5.662340966
 21
3.4946083786
 31
0.0
 11
5.6561168254
 21
3.4915372457
 31
0.0
 11
5.6443775919
 21
3.4854009218
 31
0.0
 11
5.6336339619
 21
3.4792957853
 31
0.0
 11
5.6286545045
 21
3.4762636028
 31
0.0
 11
5.6239476142
 21
3.473249484
 31
0.0
 11
5.6195218953
 21
3.4702567163
 31
0.0
 11
5.615385952
 21
3.4672885871
 31
0.0
 11
5.6115483887
 21
3.4643483838
 31
0.0
 11
5.6080178096
 21
3.4614393941
 31
0.0
 11
5.6048028192
 21
3.4585649051
 31
0.0
 11
5.6019120216
 21
3.4557282045
 31
0.0
 11
5.5993540212
 21
3.4529325797
 31
0.0
 11
5.5971374222
 21
3.450181318
 31
0.0
 11
5.595270829
 21
3.447477707
 31
0.0
 11
5.5937628458
 21
3.4448250341
 31
0.0
 11
5.5926220771
 21
3.4422265867
 31
0.0
 11
5.5918571269
 21
3.4396856523
 31
0.0
 11
5.5914765998
 21
3.4372055183
 31
0.0
 11
5.5914890998
 21
3.4347894721
 31
0.0
  0
SPLINE
  5
472
100
AcDbEntity
  8
0
100
AcDbSpline
 62
9
  6
CONTINUOUS
 70
0
 71
3
 72
25
 73
21
 74
19
 42
0.0000001
 43
0.0000001
 44
0.0000000001
 12
0.9214439769
 22
0.0707851107
 32
0.0
 13
0.9241588253
 23
-0.0000067253
 33
0.0
 40
0.0
 40
0.0
 40
0.0
 40
0.0
 40
0.0065331291
 40
0.0254274534
 40
0.0556481525
 40
0.0961527612
 40
0.1458915034
 40
0.2038083148
 40
0.2688255463
 40
0.339868416
 40
0.4158726388
 40
0.4957804016
 40
0.5785430691
 40
0.6631405184
 40
0.7485596145
 40
0.8338028265
 40
0.8760626797
 40
0.9179261719
 40
0.9592772191
 40
1.0
 40
1.0
 40
1.0
 40
1.0
 10
5.1241243649
 20
5.7643988178
 30
0.0
 10
5.1261310023
 20
5.7645529672
 30
0.0
 10
5.1339416689
 20
5.7651441182
 30
0.0
 10
5.1510375788
 20
5.7664083186
 30
0.0
 10
5.1785741469
 20
5.7683876515
 30
0.0
 10
5.2155940393
 20
5.7709626909
 30
0.0
 10
5.2611331636
 20
5.7740139054
 30
0.0
 10
5.3142163807
 20
5.7774208656
 30
0.0
 10
5.3738605168
 20
5.7810634993
 30
0.0
 10
5.4390796121
 20
5.7848199193
 30
0.0
 10
5.5088932206
 20
5.7885709078
 30
0.0
 10
5.5823283002
 20
5.7921997259
 30
0.0
 10
5.6584247591
 20
5.7955898017
 30
0.0
 10
5.7362354114
 20
5.7986253681
 30
0.0
 10
5.8148276256
 20
5.8011915333
 30
0.0
 10
5.8803987774
 20
5.802848657
 30
0.0
 10
5.9325636464
 20
5.8038260428
 30
0.0
 10
5.9712127833
 20
5.804366872
 30
0.0
 10
6.0093907283
 20
5.8047034871
 30
0.0
 10
6.0346738672
 20
5.8047829601
 30
0.0
 10
6.0472186397
 20
5.8047828689
 30
0.0
 11
5.1241243649
 21
5.7643988178
 31
0.0
 11
5.1301446911
 21
5.7648558476
 31
0.0
 11
5.1475582894
 21
5.7661464166
 31
0.0
 11
5.1754149573
 21
5.7681513543
 31
0.0
 11
5.212757263
 21
5.7707510859
 31
0.0
 11
5.2586208212
 21
5.7738256473
 31
0.0
 11
5.3120351931
 21
5.7772547921
 31
0.0
 11
5.3720097178
 21
5.7809172539
 31
0.0
 11
5.4375560497
 21
5.7846913247
 31
0.0
 11
5.5076949892
 21
5.7884573582
 31
0.0
 11
5.5814526736
 21
5.7920976802
 31
0.0
 11
5.657863035
 21
5.7954950136
 31
0.0
 11
5.7359854598
 21
5.7985331809
 31
0.0
 11
5.8148846517
 21
5.8010962345
 31
0.0
 11
5.8936382253
 21
5.8030685262
 31
0.0
 11
5.932686241
 21
5.8037973233
 31
0.0
 11
5.9713710133
 21
5.8043355045
 31
0.0
 11
6.0095844952
 21
5.8046687823
 31
0.0
 11
6.0472186397
 21
5.8047828689
 31
0.0
  0
SPLINE
  5
473
100
AcDbEntity
  8
0
100
AcDbSpline
 62
9
  6
CONTINUOUS
 70
0
 71
3
 72
15
 73
11
 74
9
 42
0.0000001
 43
0.0000001
 44
0.0000000001
 12
0.0627804454
 22
0.2207549272
 32
0.0
 13
0.1451886381
 23
0.1777480846
 33
0.0
 40
0.0
 40
0.0
 40
0.0
 40
0.0
 40
0.1178290805
 40
0.2382499752
 40
0.3610324453
 40
0.4859055459
 40
0.612567958
 40
0.7406968101
 40
0.8699553776
 40
1.0
 40
1.0
 40
1.0
 40
1.0
 10
5.5953833487
 20
6.0282129498
 30
0.0
 10
5.597849136
 20
6.0368833999
 30
0.0
 10
5.6033850166
 20
6.0542627693
 30
0.0
 10
5.6132760532
 20
6.0800654123
 30
0.0
 10
5.6247712168
 20
6.1057857079
 30
0.0
 10
5.6377913459
 20
6.1313044835
 30
0.0
 10
5.6522578394
 20
6.1565040035
 30
0.0
 10
5.6680921872
 20
6.1812660556
 30
0.0
 10
5.6852152844
 20
6.2054715967
 30
0.0
 10
5.697412615
 20
6.2211265987
 30
0.0
 10
5.7037062822
 20
6.2288316595
 30
0.0
 11
5.5953833487
 21
6.0282129498
 31
0.0
 11
5.603567267
 21
6.0539876425
 31
0.0
 11
5.6134399498
 21
6.0798017411
 31
0.0
 11
5.6249222218
 21
6.1055359207
 31
0.0
 11
5.6379349077
 21
6.1310708563
 31
0.0
 11
5.652398832
 21
6.156287223
 31
0.0
 11
5.6682348194
 21
6.1810656957
 31
0.0
 11
5.6853636946
 21
6.2052869496
 31
0.0
 11
5.7037062822
 21
6.2288316595
 31
0.0
  0
SPLINE
  5
474
100
AcDbEntity
  8
0
100
AcDbSpline
 62
9
  6
CONTINUOUS
 70
0
 71
3
 72
49
 73
45
 74
43
 42
0.0000001
 43
0.0000001
 44
0.0000000001
 12
-1.0196067617
 22
0.0000000021
 32
0.0
 13
0.296002154
 23
-0.9756949694
 33
0.0
 40
0.0
 40
0.0
 40
0.0
 40
0.0
 40
0.0342799368
 40
0.0692337222
 40
0.1048409765
 40
0.1410616295
 40
0.1778392217
 40
0.2151037285
 40
0.2527739529
 40
0.2907595463
 40
0.3289614642
 40
0.3672673613
 40
0.4055562377
 40
0.4437017602
 40
0.4815733912
 40
0.5190373937
 40
0.5559577611
 40
0.592197113
 40
0.6276197387
 40
0.6621050792
 40
0.6955394677
 40
0.7278106693
 40
0.7588091274
 40
0.7737987874
 40
0.7884312942
 40
0.8026945251
 40
0.8165769374
 40
0.8300676859
 40
0.8431567628
 40
0.8558352627
 40
0.868098336
 40
0.8799456595
 40
0.8913784486
 40
0.9023995206
 40
0.9130135861
 40
0.9232275926
 40
0.9330511243
 40
0.9424968649
 40
0.9515811192
 40
0.9687421335
 40
0.9768847218
 40
0.9847789223
 40
0.9924676079
 40
1.0
 40
1.0
 40
1.0
 40
1.0
 10
6.0472186397
 20
5.6403843905
 30
0.0
 10
6.0355679546
 20
5.6403843905
 30
0.0
 10
6.0120321083
 20
5.6396192997
 30
0.0
 10
5.9765316179
 20
5.636357339
 30
0.0
 10
5.9406095694
 20
5.631073092
 30
0.0
 10
5.9043931684
 20
5.6238690317
 30
0.0
 10
5.8680073743
 20
5.6148472107
 30
0.0
 10
5.831578129
 20
5.6041094121
 30
0.0
 10
5.7952314836
 20
5.5917571816
 30
0.0
 10
5.7590940084
 20
5.5778923741
 30
0.0
 10
5.7232956602
 20
5.5626170526
 30
0.0
 10
5.6879623374
 20
5.5460524599
 30
0.0
 10
5.6532216328
 20
5.528321941
 30
0.0
 10
5.6192020799
 20
5.5095487827
 30
0.0
 10
5.5860322253
 20
5.4898563931
 30
0.0
 10
5.553840637
 20
5.4693682134
 30
0.0
 10
5.5227559407
 20
5.4482076372
 30
0.0
 10
5.4929058714
 20
5.426497969
 30
0.0
 10
5.4644145761
 20
5.4043578111
 30
0.0
 10
5.4373936492
 20
5.3819093241
 30
0.0
 10
5.4119465848
 20
5.3592722298
 30
0.0
 10
5.3881758253
 20
5.3365646523
 30
0.0
 10
5.3696458829
 20
5.3174728842
 30
0.0
 10
5.3557615522
 20
5.3022490257
 30
0.0
 10
5.3459489483
 20
5.2910144615
 30
0.0
 10
5.3366332271
 20
5.2798504005
 30
0.0
 10
5.3278271709
 20
5.2687715084
 30
0.0
 10
5.3195435883
 20
5.2577925106
 30
0.0
 10
5.3117951669
 20
5.2469281246
 30
0.0
 10
5.3045943484
 20
5.2361920016
 30
0.0
 10
5.2979512472
 20
5.2255968652
 30
0.0
 10
5.2918728731
 20
5.2151548033
 30
0.0
 10
5.2863658697
 20
5.2048766583
 30
0.0
 10
5.2814367787
 20
5.1947732254
 30
0.0
 10
5.2770921912
 20
5.1848552737
 30
0.0
 10
5.2733387086
 20
5.1751334039
 30
0.0
 10
5.2701830733
 20
5.1656185825
 30
0.0
 10
5.2676318325
 20
5.1563202353
 30
0.0
 10
5.2650941389
 20
5.1444544276
 30
0.0
 10
5.2636980193
 20
5.132807368
 30
0.0
 10
5.2636136966
 20
5.1215152797
 30
0.0
 10
5.2641926516
 20
5.1134630476
 30
0.0
 10
5.2654202114
 20
5.1056938432
 30
0.0
 10
5.2666868552
 20
5.1006690836
 30
0.0
 10
5.2674300567
 20
5.0982193112
 30
0.0
 11
6.0472186397
 21
5.6403843905
 31
0.0
 11
6.0122838405
 21
5.6392862213
 31
0.0
 11
5.976791093
 21
5.6360595408
 31
0.0
 11
5.9408677981
 21
5.6308060897
 31
0.0
 11
5.9046413564
 21
5.6236276088
 31
0.0
 11
5.8682391688
 21
5.6146258388
 31
0.0
 11
5.831788636
 21
5.6039025204
 31
0.0
 11
5.7954171588
 21
5.5915593944
 31
0.0
 11
5.759252138
 21
5.5776982015
 31
0.0
 11
5.723421198
 21
5.562423419
 31
0.0
 11
5.6880531449
 21
5.5458539805
 31
0.0
 11
5.6532771734
 21
5.5281135757
 31
0.0
 11
5.6192224786
 21
5.509325897
 31
0.0
 11
5.5860182554
 21
5.4896146373
 31
0.0
 11
5.5537936988
 21
5.469103489
 31
0.0
 11
5.522678004
 21
5.4479161447
 31
0.0
 11
5.4928003658
 21
5.426176297
 31
0.0
 11
5.4642876107
 21
5.4040071468
 31
0.0
 11
5.437249903
 21
5.3815284349
 31
0.0
 11
5.4117902574
 21
5.3588584178
 31
0.0
 11
5.3880116608
 21
5.3361153462
 31
0.0
 11
5.3660171003
 21
5.3134174706
 31
0.0
 11
5.355721017
 21
5.3021224348
 31
0.0
 11
5.3459095628
 21
5.2908830419
 31
0.0
 11
5.3365956113
 21
5.2797140735
 31
0.0
 11
5.3277920356
 21
5.2686303107
 31
0.0
 11
5.3195117092
 21
5.257646535
 31
0.0
 11
5.3117675055
 21
5.2467775276
 31
0.0
 11
5.3045722051
 21
5.2360380138
 31
0.0
 11
5.2979358006
 21
5.225441035
 31
0.0
 11
5.2918650786
 21
5.2149976955
 31
0.0
 11
5.2863666485
 21
5.2047189929
 31
0.0
 11
5.2814471197
 21
5.1946159245
 31
0.0
 11
5.2771131013
 21
5.1846994879
 31
0.0
 11
5.2733712029
 21
5.1749806806
 31
0.0
 11
5.2702280338
 21
5.1654704999
 31
0.0
 11
5.2676902033
 21
5.1561799434
 31
0.0
 11
5.2657643208
 21
5.1471200085
 31
0.0
 11
5.263774837
 21
5.1297359935
 31
0.0
 11
5.2637244545
 21
5.1214339082
 31
0.0
 11
5.2643124574
 21
5.1134064345
 31
0.0
 11
5.265545455
 21
5.1056645696
 31
0.0
 11
5.2674300567
 21
5.0982193112
 31
0.0
  0
SPLINE
  5
475
100
AcDbEntity
  8
0
100
AcDbSpline
 62
9
  6
CONTINUOUS
 70
0
 71
3
 72
40
 73
36
 74
34
 42
0.0000001
 43
0.0000001
 44
0.0000000001
 12
-0.3660249477
 22
0.0405580553
 32
0.0
 13
-0.3576392108
 23
-0.0878260392
 33
0.0
 40
0.0
 40
0.0
 40
0.0
 40
0.0
 40
0.0298411443
 40
0.0596117949
 40
0.0893851426
 40
0.1192150697
 40
0.1791735397
 40
0.2093396922
 40
0.2396343485
 40
0.2700528925
 40
0.3005869541
 40
0.3312269587
 40
0.3465840234
 40
0.3619647951
 40
0.3927992177
 40
0.423737218
 40
0.4859554592
 40
0.5486926138
 40
0.5802819698
 40
0.6120328653
 40
0.6439572975
 40
0.6599886493
 40
0.6760681987
 40
0.6921975912
 40
0.7083751694
 40
0.7245934681
 40
0.7408439906
 40
0.7734064488
 40
0.8059928281
 40
0.8385402951
 40
0.8710008445
 40
0.9033494982
 40
0.935592846
 40
0.9677777829
 40
1.0
 40
1.0
 40
1.0
 40
1.0
 10
6.4992437093
 20
6.028227311
 30
0.0
 10
6.4956028415
 20
6.0286307439
 30
0.0
 10
6.4883082336
 20
6.0292526127
 30
0.0
 10
6.4773410179
 20
6.0296828617
 30
0.0
 10
6.4663672318
 20
6.029668039
 30
0.0
 10
6.4516977742
 20
6.0291328277
 30
0.0
 10
6.4370139903
 20
6.0279423929
 30
0.0
 10
6.4223190777
 20
6.0263395717
 30
0.0
 10
6.4112454697
 20
6.0249844404
 30
0.0
 10
6.4001382472
 20
6.0235375196
 30
0.0
 10
6.3889926533
 20
6.02205734
 30
0.0
 10
6.3796764334
 20
6.020846071
 30
0.0
 10
6.3721992578
 20
6.0199186553
 30
0.0
 10
6.3646935471
 20
6.019028288
 30
0.0
 10
6.3552789505
 20
6.0179944063
 30
0.0
 10
6.3401303072
 20
6.0165143183
 30
0.0
 10
6.3210504204
 20
6.0150117959
 30
0.0
 10
6.3018566902
 20
6.0140198055
 30
0.0
 10
6.2863866074
 20
6.0135534326
 30
0.0
 10
6.2746933237
 20
6.0133738508
 30
0.0
 10
6.2649085074
 20
6.0133721327
 30
0.0
 10
6.2570482996
 20
6.0134624433
 30
0.0
 10
6.2511276003
 20
6.0135768871
 30
0.0
 10
6.2451900792
 20
6.0137397141
 30
0.0
 10
6.2392369452
 20
6.0139475779
 30
0.0
 10
6.2332700823
 20
6.0141854886
 30
0.0
 10
6.2252944079
 20
6.0145255316
 30
0.0
 10
6.2153116117
 20
6.0149586283
 30
0.0
 10
6.203326156
 20
6.015383725
 30
0.0
 10
6.1913471469
 20
6.0156067589
 30
0.0
 10
6.1793946077
 20
6.0155197093
 30
0.0
 10
6.1674885562
 20
6.0150141877
 30
0.0
 10
6.1556487513
 20
6.0139811797
 30
0.0
 10
6.1438961387
 20
6.012311244
 30
0.0
 10
6.1361477079
 20
6.0107026436
 30
0.0
 10
6.1323063984
 20
6.009759327
 30
0.0
 11
6.4992437093
 21
6.028227311
 31
0.0
 11
6.4882947129
 21
6.029169417
 31
0.0
 11
6.4773400253
 21
6.0296087339
 31
0.0
 11
6.4663755401
 21
6.0296039389
 31
0.0
 11
6.4553971508
 21
6.0292137093
 31
0.0
 11
6.4333822341
 21
6.0275116554
 31
0.0
 11
6.4223374937
 21
6.0263171856
 31
0.0
 11
6.4112624233
 21
6.0249719903
 31
0.0
 11
6.4001529165
 21
6.0235347468
 31
0.0
 11
6.3890048668
 21
6.0220641322
 31
0.0
 11
6.3778141677
 21
6.0206188239
 31
0.0
 11
6.3722015414
 21
6.0199239962
 31
0.0
 11
6.3665767262
 21
6.0192571827
 31
0.0
 11
6.355289266
 21
6.0180183162
 31
0.0
 11
6.3439497835
 21
6.0169113347
 31
0.0
 11
6.3211071775
 21
6.0151190731
 31
0.0
 11
6.2980337607
 21
6.013932491
 31
0.0
 11
6.2864057647
 21
6.0135826089
 31
0.0
 11
6.2747143855
 21
6.0134036816
 31
0.0
 11
6.2629577299
 21
6.0134022208
 31
0.0
 11
6.2570543317
 21
6.0134700752
 31
0.0
 11
6.2511339044
 21
6.0135847381
 31
0.0
 11
6.2451962266
 21
6.0137469483
 31
0.0
 11
6.2392421288
 21
6.0139523071
 31
0.0
 11
6.2332741497
 21
6.0141880716
 31
0.0
 11
6.2272949847
 21
6.0144407341
 31
0.0
 11
6.2153138779
 21
6.0149427233
 31
0.0
 11
6.2033203706
 21
6.0153502143
 31
0.0
 11
6.191336025
 21
6.0155551469
 31
0.0
 11
6.1793824032
 21
6.015449461
 31
0.0
 11
6.1674810674
 21
6.0149250963
 31
0.0
 11
6.1556535799
 21
6.0138739926
 31
0.0
 11
6.1439215029
 21
6.0121880895
 31
0.0
 11
6.1323063984
 21
6.009759327
 31
0.0
  0
SPLINE
  5
476
100
AcDbEntity
  8
0
100
AcDbSpline
 62
9
  6
CONTINUOUS
 70
0
 71
3
 72
120
 73
116
 74
114
 42
0.0000001
 43
0.0000001
 44
0.0000000001
 12
-0.0330493173
 22
0.4726272368
 32
0.0
 13
-0.4704489645
 23
-0.0560939758
 33
0.0
 40
0.0
 40
0.0
 40
0.0
 40
0.0
 40
0.0001571928
 40
0.000277647
 40
0.0003641967
 40
0.0003957215
 40
0.000420001
 40
0.0004376331
 40
0.0004496176
 40
0.0004582181
 40
0.0004676448
 40
0.0004809076
 40
0.0004988899
 40
0.000521697
 40
0.0005491909
 40
0.000617273
 40
0.0007009326
 40
0.0007977361
 40
0.0009051864
 40
0.0011419813
 40
0.0013914083
 40
0.0016343123
 40
0.0018534302
 40
0.0020365816
 40
0.002190057
 40
0.0025097452
 40
0.0027086993
 40
0.0029348261
 40
0.0031842223
 40
0.0034515111
 40
0.0040169404
 40
0.004305205
 40
0.0045926599
 40
0.0048787831
 40
0.0051671586
 40
0.0054635094
 40
0.0057718906
 40
0.0064325453
 40
0.0071547813
 40
0.0079326709
 40
0.0087566438
 40
0.0096181538
 40
0.0105147903
 40
0.0114509675
 40
0.0134535066
 40
0.0156369359
 40
0.0167964923
 40
0.018000963
 40
0.020543901
 40
0.0232640978
 40
0.0261596108
 40
0.0324680252
 40
0.0394514677
 40
0.0470918909
 40
0.0553705128
 40
0.0642681182
 40
0.0737655493
 40
0.0838437619
 40
0.0944837483
 40
0.1056665543
 40
0.1173732438
 40
0.1295853231
 40
0.1422853303
 40
0.15545596
 40
0.1690802489
 40
0.1831419764
 40
0.1976250055
 40
0.2277936092
 40
0.2434514804
 40
0.2594736037
 40
0.2758472787
 40
0.2925608889
 40
0.3096028799
 40
0.326961634
 40
0.3446243414
 40
0.3625771123
 40
0.3808062246
 40
0.3900202383
 40
0.3992984148
 40
0.4086397682
 40
0.4180438554
 40
0.4370383132
 40
0.4562778332
 40
0.4659883626
 40
0.475758924
 40
0.4855892837
 40
0.4954791902
 40
0.5054280034
 40
0.515434943
 40
0.5356197512
 40
0.5560263261
 40
0.5766466691
 40
0.5974723017
 40
0.6184939947
 40
0.639701817
 40
0.6610858667
 40
0.6826364884
 40
0.7043444485
 40
0.7152547679
 40
0.7262020887
 40
0.7482091904
 40
0.7703682831
 40
0.7926814777
 40
0.8151510542
 40
0.8264454003
 40
0.8377800634
 40
0.8491556085
 40
0.8605717763
 40
0.872026766
 40
0.8835185004
 40
0.9066034792
 40
0.9298091563
 40
0.9531189933
 40
0.976519128
 40
1.0
 40
1.0
 40
1.0
 40
1.0
 10
6.9699653833
 20
6.0732864968
 30
0.0
 10
6.9699636516
 20
6.0733112613
 30
0.0
 10
6.9699602827
 20
6.0733549877
 30
0.0
 10
6.9699543175
 20
6.0734121898
 30
0.0
 10
6.9699488181
 20
6.0734495037
 30
0.0
 10
6.9699438601
 20
6.0734714313
 30
0.0
 10
6.9699404759
 20
6.073482565
 30
0.0
 10
6.9699369521
 20
6.0734903
 30
0.0
 10
6.9699332935
 20
6.0734953132
 30
0.0
 10
6.9699283788
 20
6.0734969715
 30
0.0
 10
6.9699237525
 20
6.0734943494
 30
0.0
 10
6.9699196822
 20
6.0734893952
 30
0.0
 10
6.9699153481
 20
6.0734819916
 30
0.0
 10
6.9699108443
 20
6.0734721914
 30
0.0
 10
6.9699040245
 20
6.0734547732
 30
0.0
 10
6.9698952641
 20
6.0734278414
 30
0.0
 10
6.969884314
 20
6.0733901474
 30
0.0
 10
6.9698723082
 20
6.0733462901
 30
0.0
 10
6.9698541958
 20
6.073279034
 30
0.0
 10
6.9698292687
 20
6.0731886425
 30
0.0
 10
6.9697949912
 20
6.0730786895
 30
0.0
 10
6.9697550183
 20
6.0729735071
 30
0.0
 10
6.9697087817
 20
6.072882535
 30
0.0
 10
6.9696543618
 20
6.0728120102
 30
0.0
 10
6.9695603083
 20
6.0727598988
 30
0.0
 10
6.9694470225
 20
6.0727805627
 30
0.0
 10
6.9693413971
 20
6.0728298278
 30
0.0
 10
6.9692490049
 20
6.0728836754
 30
0.0
 10
6.9691507741
 20
6.0729476452
 30
0.0
 10
6.9690087246
 20
6.0730426625
 30
0.0
 10
6.9688592179
 20
6.0731379081
 30
0.0
 10
6.9686983268
 20
6.0732195335
 30
0.0
 10
6.9685714994
 20
6.0732696615
 30
0.0
 10
6.9684391094
 20
6.0733033137
 30
0.0
 10
6.9683018045
 20
6.0733170166
 30
0.0
 10
6.9681605109
 20
6.0733134499
 30
0.0
 10
6.9679620372
 20
6.0732878264
 30
0.0
 10
6.9677025112
 20
6.073221434
 30
0.0
 10
6.9673801435
 20
6.0731093111
 30
0.0
 10
6.9670372024
 20
6.0729784881
 30
0.0
 10
6.9666719627
 20
6.0728444135
 30
0.0
 10
6.9662822158
 20
6.0727233176
 30
0.0
 10
6.9658668088
 20
6.0726294116
 30
0.0
 10
6.9652689146
 20
6.0725309146
 30
0.0
 10
6.9644630656
 20
6.0724533198
 30
0.0
 10
6.9636204541
 20
6.0724027114
 30
0.0
 10
6.9629036356
 20
6.0723584967
 30
0.0
 10
6.9621306061
 20
6.0723039705
 30
0.0
 10
6.9611125913
 20
6.0722203457
 30
0.0
 10
6.9598296452
 20
6.0721009807
 30
0.0
 10
6.9579559606
 20
6.0719123757
 30
0.0
 10
6.955414122
 20
6.0716394683
 30
0.0
 10
6.9521292162
 20
6.0712685085
 30
0.0
 10
6.9485368946
 20
6.0708472999
 30
0.0
 10
6.9446454024
 20
6.0703819038
 30
0.0
 10
6.9404630012
 20
6.0698792854
 30
0.0
 10
6.9359981361
 20
6.0693451715
 30
0.0
 10
6.9312593767
 20
6.0687840169
 30
0.0
 10
6.9262552307
 20
6.0682006334
 30
0.0
 10
6.9209945226
 20
6.0675970804
 30
0.0
 10
6.9154860067
 20
6.0669753294
 30
0.0
 10
6.9097382001
 20
6.0663373831
 30
0.0
 10
6.9037593741
 20
6.0656851484
 30
0.0
 10
6.8975575191
 20
6.0650209169
 30
0.0
 10
6.8911406174
 20
6.0643452684
 30
0.0
 10
6.884517246
 20
6.0636512295
 30
0.0
 10
6.8752958115
 20
6.0626800485
 30
0.0
 10
6.8658260203
 20
6.061660545
 30
0.0
 10
6.8561141097
 20
6.0606192847
 30
0.0
 10
6.8485674252
 20
6.0598191746
 30
0.0
 10
6.8408536422
 20
6.0590138212
 30
0.0
 10
6.8329785403
 20
6.0582026004
 30
0.0
 10
6.8249476737
 20
6.0573853251
 30
0.0
 10
6.8167666016
 20
6.0565636491
 30
0.0
 10
6.8084422865
 20
6.0557288561
 30
0.0
 10
6.7999829499
 20
6.0548630208
 30
0.0
 10
6.7928538541
 20
6.054105066
 30
0.0
 10
6.7870897303
 20
6.0534673033
 30
0.0
 10
6.7827223983
 20
6.0529688899
 30
0.0
 10
6.7783268491
 20
6.0524532229
 30
0.0
 10
6.7724086634
 20
6.0517471534
 30
0.0
 10
6.7649396178
 20
6.0508449387
 30
0.0
 10
6.7574206815
 20
6.0499521018
 30
0.0
 10
6.7513452239
 20
6.0492574023
 30
0.0
 10
6.7467441337
 20
6.0487490609
 30
0.0
 10
6.7421125012
 20
6.0482596013
 30
0.0
 10
6.737450217
 20
6.0477930007
 30
0.0
 10
6.7327579122
 20
6.0473469652
 30
0.0
 10
6.7264444137
 20
6.0467755869
 30
0.0
 10
6.7184817857
 20
6.0461036988
 30
0.0
 10
6.7088440929
 20
6.0453510955
 30
0.0
 10
6.6991022094
 20
6.0446343248
 30
0.0
 10
6.6892614729
 20
6.0439379663
 30
0.0
 10
6.6793274263
 20
6.0432460042
 30
0.0
 10
6.6693058476
 20
6.0425415232
 30
0.0
 10
6.659202597
 20
6.0418078287
 30
0.0
 10
6.6490235644
 20
6.041028028
 30
0.0
 10
6.6404974984
 20
6.0403273884
 30
0.0
 10
6.6336435818
 20
6.0397265317
 30
0.0
 10
6.6267446957
 20
6.0390981717
 30
0.0
 10
6.618079683
 20
6.038275901
 30
0.0
 10
6.6076298129
 20
6.0372624852
 30
0.0
 10
6.5971063316
 20
6.0362514162
 30
0.0
 10
6.5882876483
 20
6.0354377092
 30
0.0
 10
6.5811923198
 20
6.0348184051
 30
0.0
 10
6.5758405936
 20
6.0343726457
 30
0.0
 10
6.5704676094
 20
6.0339509988
 30
0.0
 10
6.5650736849
 20
6.0335542087
 30
0.0
 10
6.559660148
 20
6.0331744766
 30
0.0
 10
6.5524072098
 20
6.0326817266
 30
0.0
 10
6.5433019359
 20
6.0320759234
 30
0.0
 10
6.5323366171
 20
6.03131269
 30
0.0
 10
6.521327896
 20
6.0304589249
 30
0.0
 10
6.5102874614
 20
6.0294614106
 30
0.0
 10
6.5029258932
 20
6.0286663561
 30
0.0
 10
6.4992437093
 20
6.028227311
 30
0.0
 11
6.9699653833
 21
6.0732864968
 31
0.0
 11
6.9699594591
 21
6.0733607358
 31
0.0
 11
6.9699532942
 21
6.0734174708
 31
0.0
 11
6.9699468025
 21
6.0734579593
 31
0.0
 11
6.9699434073
 21
6.0734725042
 31
0.0
 11
6.9699398981
 21
6.073483459
 31
0.0
 11
6.9699362643
 21
6.073490981
 31
0.0
 11
6.9699324949
 21
6.0734952274
 31
0.0
 11
6.9699285793
 21
6.0734963553
 31
0.0
 11
6.9699245068
 21
6.073494522
 31
0.0
 11
6.9699202665
 21
6.0734898847
 31
0.0
 11
6.9699158478
 21
6.0734826005
 31
0.0
 11
6.9699112398
 21
6.0734728267
 31
0.0
 11
6.9699064317
 21
6.0734607204
 31
0.0
 11
6.9698961727
 21
6.0734301393
 31
0.0
 11
6.9698849845
 21
6.0733921148
 31
0.0
 11
6.9698727812
 21
6.0733479044
 31
0.0
 11
6.9698594766
 21
6.0732987657
 31
0.0
 11
6.9698292197
 21
6.0731907338
 31
0.0
 11
6.9697935253
 21
6.0730780796
 31
0.0
 11
6.9697517049
 21
6.0729708638
 31
0.0
 11
6.9697030702
 21
6.0728791468
 31
0.0
 11
6.9696469335
 21
6.0728129777
 31
0.0
 11
6.9695828707
 21
6.0727785792
 31
0.0
 11
6.9694319395
 21
6.0727912511
 31
0.0
 11
6.9693457015
 21
6.072829305
 31
0.0
 11
6.9692527023
 21
6.0728824932
 31
0.0
 11
6.9691532572
 21
6.0729463076
 31
0.0
 11
6.9690476813
 21
6.0730162399
 31
0.0
 11
6.9688193987
 21
6.0731564255
 31
0.0
 11
6.9686973224
 21
6.0732176623
 31
0.0
 11
6.9685703764
 21
6.0732669842
 31
0.0
 11
6.9684388747
 21
6.0732999045
 31
0.0
 11
6.9683029856
 21
6.0733140853
 31
0.0
 11
6.9681626111
 21
6.0733111371
 31
0.0
 11
6.9680176242
 21
6.0732930945
 31
0.0
 11
6.9677133053
 21
6.0732198639
 31
0.0
 11
6.9673890139
 21
6.073110669
 31
0.0
 11
6.9670437344
 21
6.0729817857
 31
0.0
 11
6.9666764517
 21
6.0728494894
 31
0.0
 11
6.9662861509
 21
6.0727300495
 31
0.0
 11
6.9658721543
 21
6.0726348129
 31
0.0
 11
6.9654347217
 21
6.0725614414
 31
0.0
 11
6.9644912342
 21
6.0724615029
 31
0.0
 11
6.9634590599
 21
6.0723926536
 31
0.0
 11
6.9629107687
 21
6.0723581434
 31
0.0
 11
6.9623415168
 21
6.0723181398
 31
0.0
 11
6.9611406793
 21
6.0722205481
 31
0.0
 11
6.9598573664
 21
6.0721019822
 31
0.0
 11
6.9584923415
 21
6.0719654085
 31
0.0
 11
6.9555204061
 21
6.0716482661
 31
0.0
 11
6.9522325739
 21
6.0712779188
 31
0.0
 11
6.9486371562
 21
6.0708577098
 31
0.0
 11
6.9447425081
 21
6.0703931532
 31
0.0
 11
6.9405570094
 21
6.069890953
 31
0.0
 11
6.9360891053
 21
6.0693569267
 31
0.0
 11
6.9313473165
 21
6.068795844
 31
0.0
 11
6.926340208
 21
6.0682120471
 31
0.0
 11
6.92107654
 21
6.0676080828
 31
0.0
 11
6.9155651309
 21
6.0669859522
 31
0.0
 11
6.9098145929
 21
6.0663476464
 31
0.0
 11
6.9038330518
 21
6.0656951329
 31
0.0
 11
6.897628564
 21
6.0650303664
 31
0.0
 11
6.8912092661
 21
6.064353029
 31
0.0
 11
6.8845834782
 21
6.0636575915
 31
0.0
 11
6.8777595465
 21
6.062937797
 31
0.0
 11
6.863547402
 21
6.0614166162
 31
0.0
 11
6.8561711538
 21
6.060626851
 31
0.0
 11
6.8486224259
 21
6.0598270184
 31
0.0
 11
6.8409068552
 21
6.0590211508
 31
0.0
 11
6.8330299636
 21
6.0582095151
 31
0.0
 11
6.8249972658
 21
6.0573921371
 31
0.0
 11
6.8168143433
 21
6.0565686503
 31
0.0
 11
6.8084881508
 21
6.0557306084
 31
0.0
 11
6.8000269332
 21
6.0548619747
 31
0.0
 11
6.7914389854
 21
6.0539464188
 31
0.0
 11
6.7871000798
 21
6.0534659418
 31
0.0
 11
6.7827325764
 21
6.0529677362
 31
0.0
 11
6.7783368589
 21
6.052452945
 31
0.0
 11
6.7739126647
 21
6.0519258615
 31
0.0
 11
6.7649776774
 21
6.0508525679
 31
0.0
 11
6.7559252772
 21
6.049783357
 31
0.0
 11
6.7513543168
 21
6.0492613767
 31
0.0
 11
6.7467531265
 21
6.04875373
 31
0.0
 11
6.7421214144
 21
6.0482648538
 31
0.0
 11
6.7374590984
 21
6.047797783
 31
0.0
 11
6.7327667246
 21
6.0473513569
 31
0.0
 11
6.7280449566
 21
6.0469236325
 31
0.0
 11
6.7185158914
 21
6.046116518
 31
0.0
 11
6.7088772098
 21
6.0453608969
 31
0.0
 11
6.6991342192
 21
6.0446412267
 31
0.0
 11
6.6892922336
 21
6.0439419509
 31
0.0
 11
6.6793568231
 21
6.0432469955
 31
0.0
 11
6.6693338826
 21
6.0425396296
 31
0.0
 11
6.6592293278
 21
6.0418030801
 31
0.0
 11
6.6490490747
 21
6.0410205738
 31
0.0
 11
6.638799039
 21
6.0401753375
 31
0.0
 11
6.6336496628
 21
6.0397241396
 31
0.0
 11
6.6284843381
 21
6.03925444
 31
0.0
 11
6.6181039254
 21
6.0382746105
 31
0.0
 11
6.6076538852
 21
6.0372663842
 31
0.0
 11
6.5971302857
 21
6.036260373
 31
0.0
 11
6.5865291952
 21
6.0352871888
 31
0.0
 11
6.5811983622
 21
6.034822473
 31
0.0
 11
6.575846682
 21
6.0343774434
 31
0.0
 11
6.5704736743
 21
6.0339558681
 31
0.0
 11
6.5650795818
 21
6.0335577105
 31
0.0
 11
6.5596658009
 21
6.0331768616
 31
0.0
 11
6.5542338313
 21
6.032806669
 31
0.0
 11
6.5433213253
 21
6.0320716433
 31
0.0
 11
6.532354062
 21
6.0312994139
 31
0.0
 11
6.5213440394
 21
6.0304367616
 31
0.0
 11
6.5103032558
 21
6.0294304671
 31
0.0
 11
6.4992437093
 21
6.028227311
 31
0.0
  0
SPLINE
  5
477
100
AcDbEntity
  8
0
100
AcDbSpline
 62
9
  6
CONTINUOUS
 70
0
 71
3
 72
120
 73
116
 74
114
 42
0.0000001
 43
0.0000001
 44
0.0000000001
 12
0.0330493174
 22
0.4726272368
 32
0.0
 13
0.4704489645
 23
-0.0560939758
 33
0.0
 40
0.0
 40
0.0
 40
0.0
 40
0.0
 40
0.0001571928
 40
0.000277647
 40
0.0003641967
 40
0.0003957215
 40
0.000420001
 40
0.0004376331
 40
0.0004496176
 40
0.0004582181
 40
0.0004676448
 40
0.0004809076
 40
0.0004988899
 40
0.000521697
 40
0.0005491909
 40
0.000617273
 40
0.0007009326
 40
0.0007977361
 40
0.0009051864
 40
0.0011419813
 40
0.0013914083
 40
0.0016343123
 40
0.0018534302
 40
0.0020365816
 40
0.002190057
 40
0.0025097452
 40
0.0027086993
 40
0.0029348261
 40
0.0031842223
 40
0.0034515111
 40
0.0040169404
 40
0.004305205
 40
0.0045926599
 40
0.0048787831
 40
0.0051671586
 40
0.0054635094
 40
0.0057718906
 40
0.0064325453
 40
0.0071547813
 40
0.0079326709
 40
0.0087566438
 40
0.0096181538
 40
0.0105147903
 40
0.0114509675
 40
0.0134535066
 40
0.0156369359
 40
0.0167964923
 40
0.018000963
 40
0.020543901
 40
0.0232640978
 40
0.0261596108
 40
0.0324680252
 40
0.0394514677
 40
0.0470918909
 40
0.0553705128
 40
0.0642681182
 40
0.0737655493
 40
0.0838437619
 40
0.0944837483
 40
0.1056665543
 40
0.1173732438
 40
0.1295853231
 40
0.1422853303
 40
0.15545596
 40
0.1690802489
 40
0.1831419764
 40
0.1976250055
 40
0.2277936092
 40
0.2434514804
 40
0.2594736037
 40
0.2758472787
 40
0.2925608889
 40
0.3096028799
 40
0.326961634
 40
0.3446243414
 40
0.3625771123
 40
0.3808062246
 40
0.3900202383
 40
0.3992984148
 40
0.4086397682
 40
0.4180438554
 40
0.4370383132
 40
0.4562778332
 40
0.4659883626
 40
0.475758924
 40
0.4855892837
 40
0.4954791902
 40
0.5054280034
 40
0.515434943
 40
0.5356197512
 40
0.5560263261
 40
0.5766466691
 40
0.5974723017
 40
0.6184939947
 40
0.639701817
 40
0.6610858667
 40
0.6826364884
 40
0.7043444485
 40
0.7152547679
 40
0.7262020887
 40
0.7482091904
 40
0.7703682831
 40
0.7926814777
 40
0.8151510542
 40
0.8264454003
 40
0.8377800634
 40
0.8491556085
 40
0.8605717763
 40
0.872026766
 40
0.8835185004
 40
0.9066034792
 40
0.9298091563
 40
0.9531189933
 40
0.976519128
 40
1.0
 40
1.0
 40
1.0
 40
1.0
 10
5.124471896
 20
6.0732864968
 30
0.0
 10
5.1244736278
 20
6.0733112613
 30
0.0
 10
5.1244769967
 20
6.0733549877
 30
0.0
 10
5.1244829619
 20
6.0734121898
 30
0.0
 10
5.1244884613
 20
6.0734495037
 30
0.0
 10
5.1244934193
 20
6.0734714313
 30
0.0
 10
5.1244968035
 20
6.073482565
 30
0.0
 10
5.1245003273
 20
6.0734903
 30
0.0
 10
5.1245039859
 20
6.0734953132
 30
0.0
 10
5.1245089006
 20
6.0734969715
 30
0.0
 10
5.1245135269
 20
6.0734943494
 30
0.0
 10
5.1245175971
 20
6.0734893952
 30
0.0
 10
5.1245219313
 20
6.0734819916
 30
0.0
 10
5.1245264351
 20
6.0734721914
 30
0.0
 10
5.1245332549
 20
6.0734547732
 30
0.0
 10
5.1245420153
 20
6.0734278414
 30
0.0
 10
5.1245529654
 20
6.0733901474
 30
0.0
 10
5.1245649712
 20
6.0733462901
 30
0.0
 10
5.1245830836
 20
6.073279034
 30
0.0
 10
5.1246080107
 20
6.0731886425
 30
0.0
 10
5.1246422882
 20
6.0730786895
 30
0.0
 10
5.1246822611
 20
6.0729735071
 30
0.0
 10
5.1247284977
 20
6.072882535
 30
0.0
 10
5.1247829176
 20
6.0728120102
 30
0.0
 10
5.1248769711
 20
6.0727598988
 30
0.0
 10
5.1249902569
 20
6.0727805627
 30
0.0
 10
5.1250958823
 20
6.0728298278
 30
0.0
 10
5.1251882745
 20
6.0728836754
 30
0.0
 10
5.1252865053
 20
6.0729476452
 30
0.0
 10
5.1254285548
 20
6.0730426625
 30
0.0
 10
5.1255780615
 20
6.0731379081
 30
0.0
 10
5.1257389526
 20
6.0732195335
 30
0.0
 10
5.12586578
 20
6.0732696615
 30
0.0
 10
5.12599817
 20
6.0733033137
 30
0.0
 10
5.1261354748
 20
6.0733170166
 30
0.0
 10
5.1262767685
 20
6.0733134499
 30
0.0
 10
5.1264752422
 20
6.0732878264
 30
0.0
 10
5.1267347682
 20
6.073221434
 30
0.0
 10
5.1270571359
 20
6.0731093111
 30
0.0
 10
5.127400077
 20
6.0729784881
 30
0.0
 10
5.1277653167
 20
6.0728444135
 30
0.0
 10
5.1281550636
 20
6.0727233176
 30
0.0
 10
5.1285704706
 20
6.0726294116
 30
0.0
 10
5.1291683648
 20
6.0725309146
 30
0.0
 10
5.1299742138
 20
6.0724533198
 30
0.0
 10
5.1308168252
 20
6.0724027114
 30
0.0
 10
5.1315336438
 20
6.0723584967
 30
0.0
 10
5.1323066733
 20
6.0723039705
 30
0.0
 10
5.1333246881
 20
6.0722203457
 30
0.0
 10
5.1346076342
 20
6.0721009807
 30
0.0
 10
5.1364813188
 20
6.0719123757
 30
0.0
 10
5.1390231574
 20
6.0716394683
 30
0.0
 10
5.1423080632
 20
6.0712685085
 30
0.0
 10
5.1459003848
 20
6.0708472999
 30
0.0
 10
5.149791877
 20
6.0703819038
 30
0.0
 10
5.1539742782
 20
6.0698792854
 30
0.0
 10
5.1584391433
 20
6.0693451715
 30
0.0
 10
5.1631779027
 20
6.0687840169
 30
0.0
 10
5.1681820487
 20
6.0682006334
 30
0.0
 10
5.1734427568
 20
6.0675970804
 30
0.0
 10
5.1789512726
 20
6.0669753294
 30
0.0
 10
5.1846990793
 20
6.0663373831
 30
0.0
 10
5.1906779053
 20
6.0656851484
 30
0.0
 10
5.1968797603
 20
6.0650209169
 30
0.0
 10
5.203296662
 20
6.0643452684
 30
0.0
 10
5.2099200334
 20
6.0636512295
 30
0.0
 10
5.2191414679
 20
6.0626800485
 30
0.0
 10
5.2286112591
 20
6.061660545
 30
0.0
 10
5.2383231697
 20
6.0606192847
 30
0.0
 10
5.2458698542
 20
6.0598191746
 30
0.0
 10
5.2535836372
 20
6.0590138212
 30
0.0
 10
5.2614587391
 20
6.0582026004
 30
0.0
 10
5.2694896057
 20
6.0573853251
 30
0.0
 10
5.2776706778
 20
6.0565636491
 30
0.0
 10
5.2859949929
 20
6.0557288561
 30
0.0
 10
5.2944543295
 20
6.0548630208
 30
0.0
 10
5.3015834252
 20
6.054105066
 30
0.0
 10
5.3073475491
 20
6.0534673033
 30
0.0
 10
5.3117148811
 20
6.0529688899
 30
0.0
 10
5.3161104303
 20
6.0524532229
 30
0.0
 10
5.322028616
 20
6.0517471534
 30
0.0
 10
5.3294976616
 20
6.0508449387
 30
0.0
 10
5.3370165979
 20
6.0499521018
 30
0.0
 10
5.3430920555
 20
6.0492574023
 30
0.0
 10
5.3476931457
 20
6.0487490609
 30
0.0
 10
5.3523247782
 20
6.0482596013
 30
0.0
 10
5.3569870624
 20
6.0477930007
 30
0.0
 10
5.3616793672
 20
6.0473469652
 30
0.0
 10
5.3679928656
 20
6.0467755869
 30
0.0
 10
5.3759554937
 20
6.0461036988
 30
0.0
 10
5.3855931865
 20
6.0453510955
 30
0.0
 10
5.39533507
 20
6.0446343248
 30
0.0
 10
5.4051758065
 20
6.0439379663
 30
0.0
 10
5.4151098531
 20
6.0432460042
 30
0.0
 10
5.4251314318
 20
6.0425415232
 30
0.0
 10
5.4352346824
 20
6.0418078287
 30
0.0
 10
5.445413715
 20
6.041028028
 30
0.0
 10
5.453939781
 20
6.0403273884
 30
0.0
 10
5.4607936976
 20
6.0397265317
 30
0.0
 10
5.4676925837
 20
6.0390981717
 30
0.0
 10
5.4763575963
 20
6.038275901
 30
0.0
 10
5.4868074665
 20
6.0372624852
 30
0.0
 10
5.4973309478
 20
6.0362514162
 30
0.0
 10
5.5061496311
 20
6.0354377092
 30
0.0
 10
5.5132449596
 20
6.0348184051
 30
0.0
 10
5.5185966858
 20
6.0343726457
 30
0.0
 10
5.52396967
 20
6.0339509988
 30
0.0
 10
5.5293635945
 20
6.0335542087
 30
0.0
 10
5.5347771313
 20
6.0331744766
 30
0.0
 10
5.5420300696
 20
6.0326817266
 30
0.0
 10
5.5511353435
 20
6.0320759234
 30
0.0
 10
5.5621006622
 20
6.03131269
 30
0.0
 10
5.5731093834
 20
6.0304589249
 30
0.0
 10
5.584149818
 20
6.0294614106
 30
0.0
 10
5.5915113862
 20
6.0286663561
 30
0.0
 10
5.5951935701
 20
6.028227311
 30
0.0
 11
5.124471896
 21
6.0732864968
 31
0.0
 11
5.1244778203
 21
6.0733607358
 31
0.0
 11
5.1244839852
 21
6.0734174708
 31
0.0
 11
5.1244904769
 21
6.0734579593
 31
0.0
 11
5.1244938721
 21
6.0734725042
 31
0.0
 11
5.1244973813
 21
6.073483459
 31
0.0
 11
5.1245010151
 21
6.073490981
 31
0.0
 11
5.1245047845
 21
6.0734952274
 31
0.0
 11
5.1245087
 21
6.0734963553
 31
0.0
 11
5.1245127726
 21
6.073494522
 31
0.0
 11
5.1245170129
 21
6.0734898847
 31
0.0
 11
5.1245214316
 21
6.0734826005
 31
0.0
 11
5.1245260396
 21
6.0734728267
 31
0.0
 11
5.1245308477
 21
6.0734607204
 31
0.0
 11
5.1245411067
 21
6.0734301393
 31
0.0
 11
5.1245522949
 21
6.0733921148
 31
0.0
 11
5.1245644982
 21
6.0733479044
 31
0.0
 11
5.1245778028
 21
6.0732987657
 31
0.0
 11
5.1246080597
 21
6.0731907338
 31
0.0
 11
5.1246437541
 21
6.0730780796
 31
0.0
 11
5.1246855744
 21
6.0729708638
 31
0.0
 11
5.1247342092
 21
6.0728791468
 31
0.0
 11
5.1247903459
 21
6.0728129777
 31
0.0
 11
5.1248544087
 21
6.0727785792
 31
0.0
 11
5.1250053399
 21
6.0727912511
 31
0.0
 11
5.1250915779
 21
6.072829305
 31
0.0
 11
5.1251845771
 21
6.0728824932
 31
0.0
 11
5.1252840222
 21
6.0729463076
 31
0.0
 11
5.1253895981
 21
6.0730162399
 31
0.0
 11
5.1256178807
 21
6.0731564255
 31
0.0
 11
5.125739957
 21
6.0732176623
 31
0.0
 11
5.125866903
 21
6.0732669842
 31
0.0
 11
5.1259984047
 21
6.0732999045
 31
0.0
 11
5.1261342938
 21
6.0733140853
 31
0.0
 11
5.1262746683
 21
6.0733111371
 31
0.0
 11
5.1264196552
 21
6.0732930945
 31
0.0
 11
5.1267239741
 21
6.0732198639
 31
0.0
 11
5.1270482655
 21
6.073110669
 31
0.0
 11
5.127393545
 21
6.0729817857
 31
0.0
 11
5.1277608277
 21
6.0728494894
 31
0.0
 11
5.1281511285
 21
6.0727300495
 31
0.0
 11
5.1285651251
 21
6.0726348129
 31
0.0
 11
5.1290025577
 21
6.0725614414
 31
0.0
 11
5.1299460452
 21
6.0724615029
 31
0.0
 11
5.1309782195
 21
6.0723926536
 31
0.0
 11
5.1315265107
 21
6.0723581434
 31
0.0
 11
5.1320957626
 21
6.0723181398
 31
0.0
 11
5.1332966001
 21
6.0722205481
 31
0.0
 11
5.134579913
 21
6.0721019822
 31
0.0
 11
5.1359449379
 21
6.0719654085
 31
0.0
 11
5.1389168733
 21
6.0716482661
 31
0.0
 11
5.1422047055
 21
6.0712779188
 31
0.0
 11
5.1458001232
 21
6.0708577098
 31
0.0
 11
5.1496947713
 21
6.0703931532
 31
0.0
 11
5.15388027
 21
6.069890953
 31
0.0
 11
5.1583481741
 21
6.0693569267
 31
0.0
 11
5.1630899629
 21
6.068795844
 31
0.0
 11
5.1680970714
 21
6.0682120471
 31
0.0
 11
5.1733607394
 21
6.0676080828
 31
0.0
 11
5.1788721485
 21
6.0669859522
 31
0.0
 11
5.1846226865
 21
6.0663476464
 31
0.0
 11
5.1906042276
 21
6.0656951329
 31
0.0
 11
5.1968087154
 21
6.0650303664
 31
0.0
 11
5.2032280133
 21
6.064353029
 31
0.0
 11
5.2098538012
 21
6.0636575915
 31
0.0
 11
5.2166777329
 21
6.062937797
 31
0.0
 11
5.2308898774
 21
6.0614166162
 31
0.0
 11
5.2382661256
 21
6.060626851
 31
0.0
 11
5.2458148534
 21
6.0598270184
 31
0.0
 11
5.2535304242
 21
6.0590211508
 31
0.0
 11
5.2614073158
 21
6.0582095151
 31
0.0
 11
5.2694400136
 21
6.0573921371
 31
0.0
 11
5.2776229361
 21
6.0565686503
 31
0.0
 11
5.2859491286
 21
6.0557306084
 31
0.0
 11
5.2944103462
 21
6.0548619747
 31
0.0
 11
5.302998294
 21
6.0539464188
 31
0.0
 11
5.3073371996
 21
6.0534659418
 31
0.0
 11
5.311704703
 21
6.0529677362
 31
0.0
 11
5.3161004205
 21
6.052452945
 31
0.0
 11
5.3205246147
 21
6.0519258615
 31
0.0
 11
5.3294596019
 21
6.0508525679
 31
0.0
 11
5.3385120022
 21
6.049783357
 31
0.0
 11
5.3430829626
 21
6.0492613767
 31
0.0
 11
5.3476841529
 21
6.04875373
 31
0.0
 11
5.352315865
 21
6.0482648538
 31
0.0
 11
5.356978181
 21
6.047797783
 31
0.0
 11
5.3616705548
 21
6.0473513569
 31
0.0
 11
5.3663923228
 21
6.0469236325
 31
0.0
 11
5.375921388
 21
6.046116518
 31
0.0
 11
5.3855600696
 21
6.0453608969
 31
0.0
 11
5.3953030602
 21
6.0446412267
 31
0.0
 11
5.4051450458
 21
6.0439419509
 31
0.0
 11
5.4150804563
 21
6.0432469955
 31
0.0
 11
5.4251033968
 21
6.0425396296
 31
0.0
 11
5.4352079516
 21
6.0418030801
 31
0.0
 11
5.4453882047
 21
6.0410205738
 31
0.0
 11
5.4556382404
 21
6.0401753375
 31
0.0
 11
5.4607876166
 21
6.0397241396
 31
0.0
 11
5.4659529413
 21
6.03925444
 31
0.0
 11
5.476333354
 21
6.0382746105
 31
0.0
 11
5.4867833942
 21
6.0372663842
 31
0.0
 11
5.4973069937
 21
6.036260373
 31
0.0
 11
5.5079080842
 21
6.0352871888
 31
0.0
 11
5.5132389172
 21
6.034822473
 31
0.0
 11
5.5185905974
 21
6.0343774434
 31
0.0
 11
5.523963605
 21
6.0339558681
 31
0.0
 11
5.5293576976
 21
6.0335577105
 31
0.0
 11
5.5347714785
 21
6.0331768616
 31
0.0
 11
5.5402034481
 21
6.032806669
 31
0.0
 11
5.5511159541
 21
6.0320716433
 31
0.0
 11
5.5620832174
 21
6.0312994139
 31
0.0
 11
5.57309324
 21
6.0304367616
 31
0.0
 11
5.5841340236
 21
6.0294304671
 31
0.0
 11
5.5951935701
 21
6.028227311
 31
0.0
  0
SPLINE
  5
478
100
AcDbEntity
  8
0
100
AcDbSpline
 62
9
  6
CONTINUOUS
 70
0
 71
3
 72
40
 73
36
 74
34
 42
0.0000001
 43
0.0000001
 44
0.0000000001
 12
0.3660249477
 22
0.0405580553
 32
0.0
 13
0.3576392108
 23
-0.0878260392
 33
0.0
 40
0.0
 40
0.0
 40
0.0
 40
0.0
 40
0.0298411443
 40
0.0596117949
 40
0.0893851426
 40
0.1192150697
 40
0.1791735397
 40
0.2093396922
 40
0.2396343485
 40
0.2700528925
 40
0.3005869541
 40
0.3312269587
 40
0.3465840234
 40
0.3619647951
 40
0.3927992177
 40
0.423737218
 40
0.4859554592
 40
0.5486926138
 40
0.5802819698
 40
0.6120328653
 40
0.6439572975
 40
0.6599886493
 40
0.6760681987
 40
0.6921975912
 40
0.7083751694
 40
0.7245934681
 40
0.7408439906
 40
0.7734064488
 40
0.8059928281
 40
0.8385402951
 40
0.8710008445
 40
0.9033494982
 40
0.935592846
 40
0.9677777829
 40
1.0
 40
1.0
 40
1.0
 40
1.0
 10
5.5951935701
 20
6.028227311
 30
0.0
 10
5.5988344379
 20
6.0286307439
 30
0.0
 10
5.6061290458
 20
6.0292526127
 30
0.0
 10
5.6170962615
 20
6.0296828617
 30
0.0
 10
5.6280700476
 20
6.029668039
 30
0.0
 10
5.6427395052
 20
6.0291328277
 30
0.0
 10
5.6574232891
 20
6.0279423929
 30
0.0
 10
5.6721182017
 20
6.0263395717
 30
0.0
 10
5.6831918097
 20
6.0249844404
 30
0.0
 10
5.6942990322
 20
6.0235375196
 30
0.0
 10
5.7054446261
 20
6.02205734
 30
0.0
 10
5.714760846
 20
6.020846071
 30
0.0
 10
5.7222380216
 20
6.0199186553
 30
0.0
 10
5.7297437323
 20
6.019028288
 30
0.0
 10
5.7391583289
 20
6.0179944063
 30
0.0
 10
5.7543069722
 20
6.0165143183
 30
0.0
 10
5.773386859
 20
6.0150117959
 30
0.0
 10
5.7925805892
 20
6.0140198055
 30
0.0
 10
5.808050672
 20
6.0135534326
 30
0.0
 10
5.8197439557
 20
6.0133738508
 30
0.0
 10
5.829528772
 20
6.0133721327
 30
0.0
 10
5.8373889798
 20
6.0134624433
 30
0.0
 10
5.843309679
 20
6.0135768871
 30
0.0
 10
5.8492472002
 20
6.0137397141
 30
0.0
 10
5.8552003341
 20
6.0139475779
 30
0.0
 10
5.8611671971
 20
6.0141854886
 30
0.0
 10
5.8691428715
 20
6.0145255316
 30
0.0
 10
5.8791256677
 20
6.0149586283
 30
0.0
 10
5.8911111234
 20
6.015383725
 30
0.0
 10
5.9030901324
 20
6.0156067589
 30
0.0
 10
5.9150426717
 20
6.0155197093
 30
0.0
 10
5.9269487232
 20
6.0150141877
 30
0.0
 10
5.938788528
 20
6.0139811797
 30
0.0
 10
5.9505411407
 20
6.012311244
 30
0.0
 10
5.9582895715
 20
6.0107026436
 30
0.0
 10
5.962130881
 20
6.009759327
 30
0.0
 11
5.5951935701
 21
6.028227311
 31
0.0
 11
5.6061425665
 21
6.029169417
 31
0.0
 11
5.6170972541
 21
6.0296087339
 31
0.0
 11
5.6280617393
 21
6.0296039389
 31
0.0
 11
5.6390401286
 21
6.0292137093
 31
0.0
 11
5.6610550453
 21
6.0275116554
 31
0.0
 11
5.6720997857
 21
6.0263171856
 31
0.0
 11
5.6831748561
 21
6.0249719903
 31
0.0
 11
5.6942843629
 21
6.0235347468
 31
0.0
 11
5.7054324126
 21
6.0220641322
 31
0.0
 11
5.7166231117
 21
6.0206188239
 31
0.0
 11
5.722235738
 21
6.0199239962
 31
0.0
 11
5.7278605532
 21
6.0192571827
 31
0.0
 11
5.7391480134
 21
6.0180183162
 31
0.0
 11
5.7504874959
 21
6.0169113347
 31
0.0
 11
5.7733301019
 21
6.0151190731
 31
0.0
 11
5.7964035187
 21
6.013932491
 31
0.0
 11
5.8080315147
 21
6.0135826089
 31
0.0
 11
5.8197228939
 21
6.0134036816
 31
0.0
 11
5.8314795495
 21
6.0134022208
 31
0.0
 11
5.8373829477
 21
6.0134700752
 31
0.0
 11
5.843303375
 21
6.0135847381
 31
0.0
 11
5.8492410528
 21
6.0137469483
 31
0.0
 11
5.8551951506
 21
6.0139523071
 31
0.0
 11
5.8611631297
 21
6.0141880716
 31
0.0
 11
5.8671422947
 21
6.0144407341
 31
0.0
 11
5.8791234015
 21
6.0149427233
 31
0.0
 11
5.8911169088
 21
6.0153502143
 31
0.0
 11
5.9031012544
 21
6.0155551469
 31
0.0
 11
5.9150548762
 21
6.015449461
 31
0.0
 11
5.926956212
 21
6.0149250963
 31
0.0
 11
5.9387836995
 21
6.0138739926
 31
0.0
 11
5.9505157765
 21
6.0121880895
 31
0.0
 11
5.962130881
 21
6.009759327
 31
0.0
  0
SPLINE
  5
479
100
AcDbEntity
  8
0
100
AcDbSpline
 62
6
  6
CONTINUOUS
 70
0
 71
3
 72
35
 73
31
 74
29
 42
0.0000001
 43
0.0000001
 44
0.0000000001
 12
-0.0000025566
 22
-0.7846062838
 32
0.0
 13
-0.7846062838
 23
0.0
 33
0.0
 40
0.0
 40
0.0
 40
0.0
 40
0.0
 40
0.0302403572
 40
0.0605151822
 40
0.0908256072
 40
0.1211716229
 40
0.1515540348
 40
0.1819785333
 40
0.2124520991
 40
0.2429822973
 40
0.2735779739
 40
0.3042486593
 40
0.3350020845
 40
0.3658442563
 40
0.3967792106
 40
0.4278070521
 40
0.4589268689
 40
0.4901381532
 40
0.5528208827
 40
0.6158814298
 40
0.647557367
 40
0.6793162604
 40
0.7111503895
 40
0.7430526023
 40
0.7750176931
 40
0.807043409
 40
0.8712452199
 40
0.9034254963
 40
0.9356296233
 40
1.0
 40
1.0
 40
1.0
 40
1.0
 10
6.5622177475
 20
1.5389235783
 30
0.0
 10
6.5622177217
 20
1.5310146535
 30
0.0
 10
6.5617986661
 20
1.5151846763
 30
0.0
 10
6.5599264469
 20
1.4914941846
 30
0.0
 10
6.556821282
 20
1.4679051207
 30
0.0
 10
6.5524940875
 20
1.4444809826
 30
0.0
 10
6.5469552499
 20
1.4212827199
 30
0.0
 10
6.5402180933
 20
1.3983689696
 30
0.0
 10
6.5322956874
 20
1.3757965605
 30
0.0
 10
6.5232010175
 20
1.3536219057
 30
0.0
 10
6.5129468988
 20
1.33190205
 30
0.0
 10
6.5015664804
 20
1.3106846067
 30
0.0
 10
6.4890927654
 20
1.2900157693
 30
0.0
 10
6.4755587057
 20
1.2699419457
 30
0.0
 10
6.460997898
 20
1.2505102834
 30
0.0
 10
6.4454451137
 20
1.2317688724
 30
0.0
 10
6.4289349838
 20
1.2137662247
 30
0.0
 10
6.4056631205
 20
1.1907844069
 30
0.0
 10
6.3743360766
 20
1.1641492266
 30
0.0
 10
6.3404889148
 20
1.1405934116
 30
0.0
 10
6.3120516467
 20
1.1236675065
 30
0.0
 10
6.290053711
 20
1.1119460827
 30
0.0
 10
6.2674735372
 20
1.1012518563
 30
0.0
 10
6.2443626945
 20
1.0916174769
 30
0.0
 10
6.2207723039
 20
1.0830752689
 30
0.0
 10
6.1887384641
 20
1.0731500259
 30
0.0
 10
6.1559889172
 20
1.0654602761
 30
0.0
 10
6.122788145
 20
1.0600445284
 30
0.0
 10
6.0893312942
 20
1.0561525968
 30
0.0
 10
6.0640537737
 20
1.0549682275
 30
0.0
 10
6.0472186397
 20
1.0549682275
 30
0.0
 11
6.5622177475
 21
1.5389235783
 31
0.0
 11
6.5615920495
 21
1.5152050555
 31
0.0
 11
6.5597224141
 21
1.4915249303
 31
0.0
 11
6.5566197971
 21
1.467946436
 31
0.0
 11
6.5522951544
 21
1.444532806
 31
0.0
 11
6.546759806
 21
1.4213461462
 31
0.0
 11
6.5400264799
 21
1.3984442025
 31
0.0
 11
6.5321082447
 21
1.3758836672
 31
0.0
 11
6.5230181684
 21
1.3537212325
 31
0.0
 11
6.5127724054
 21
1.3320119889
 31
0.0
 11
6.5014003039
 21
1.3108041778
 31
0.0
 11
6.4889347378
 21
1.2901442102
 31
0.0
 11
6.4754085812
 21
1.2700784972
 31
0.0
 11
6.4608551105
 21
1.2506539045
 31
0.0
 11
6.4453092911
 21
1.2319192049
 31
0.0
 11
6.4288065313
 21
1.2139236714
 31
0.0
 11
6.4113822393
 21
1.1967165769
 31
0.0
 11
6.3739296602
 21
1.1648402379
 31
0.0
 11
6.3333296308
 21
1.1365616141
 31
0.0
 11
6.3119738939
 21
1.1238489811
 31
0.0
 11
6.2899830579
 21
1.1121305689
 31
0.0
 11
6.2674095697
 21
1.1014394028
 31
0.0
 11
6.2443058765
 21
1.0918085079
 31
0.0
 11
6.2207252494
 21
1.0832667879
 31
0.0
 11
6.1967239507
 21
1.0758281836
 31
0.0
 11
6.1476871024
 21
1.0643025088
 31
0.0
 11
6.1227677506
 21
1.0602367764
 31
0.0
 11
6.0976693591
 21
1.0573178118
 31
0.0
 11
6.0472186397
 21
1.0549682275
 31
0.0
  0
SPLINE
  5
47A
100
AcDbEntity
  8
0
100
AcDbSpline
 62
9
  6
CONTINUOUS
 70
0
 71
3
 72
36
 73
32
 74
30
 42
0.0000001
 43
0.0000001
 44
0.0000000001
 12
0.541833962
 22
-0.0
 32
0.0
 13
0.0178164726
 23
0.541540964
 33
0.0
 40
0.0
 40
0.0
 40
0.0
 40
0.0
 40
0.0743617421
 40
0.1488374135
 40
0.2230172507
 40
0.2964814973
 40
0.3688144739
 40
0.4044362834
 40
0.4396272311
 40
0.4743392084
 40
0.5085252025
 40
0.5421397447
 40
0.575139416
 40
0.6074822665
 40
0.6391247949
 40
0.6700259069
 40
0.7001489697
 40
0.7294629142
 40
0.7579435527
 40
0.785575156
 40
0.8123523374
 40
0.8382803837
 40
0.8633726509
 40
0.8876602213
 40
0.9111977402
 40
0.934067518
 40
0.9563834461
 40
0.9673824392
 40
0.9783017027
 40
0.9891654294
 40
1.0
 40
1.0
 40
1.0
 40
1.0
 10
6.0472186397
 20
1.9107662386
 30
0.0
 10
6.0606492121
 20
1.9107662386
 30
0.0
 10
6.0875372123
 20
1.9115759183
 30
0.0
 10
6.1276818197
 20
1.9151120056
 30
0.0
 10
6.1674027481
 20
1.9208910678
 30
0.0
 10
6.206352936
 20
1.928831487
 30
0.0
 10
6.238046951
 20
1.9372257456
 30
0.0
 10
6.2627235273
 20
1.9449488393
 30
0.0
 10
6.2807364351
 20
1.9511854378
 30
0.0
 10
6.2983073383
 20
1.9578788741
 30
0.0
 10
6.3153960819
 20
1.9650129125
 30
0.0
 10
6.3319623004
 20
1.9725712074
 30
0.0
 10
6.3479655238
 20
1.9805373807
 30
0.0
 10
6.3633643339
 20
1.9888945026
 30
0.0
 10
6.3781175415
 20
1.9976226229
 30
0.0
 10
6.3921831116
 20
2.0067014535
 30
0.0
 10
6.4055188549
 20
2.0161106703
 30
0.0
 10
6.4180826096
 20
2.0258300403
 30
0.0
 10
6.4298322249
 20
2.0358394508
 30
0.0
 10
6.4407255525
 20
2.0461189388
 30
0.0
 10
6.4507201158
 20
2.0566485049
 30
0.0
 10
6.459772489
 20
2.06740701
 30
0.0
 10
6.4678354018
 20
2.0783742179
 30
0.0
 10
6.4748597267
 20
2.0895289153
 30
0.0
 10
6.4807955719
 20
2.1008502003
 30
0.0
 10
6.4855919864
 20
2.1123159916
 30
0.0
 10
6.4886112112
 20
2.1220230344
 30
0.0
 10
6.4903906668
 20
2.1298147015
 30
0.0
 10
6.4914028708
 20
2.1356513589
 30
0.0
 10
6.4920924545
 20
2.1415047884
 30
0.0
 10
6.4923330964
 20
2.1454188311
 30
0.0
 10
6.492397441
 20
2.147374619
 30
0.0
 11
6.0472186397
 21
1.9107662386
 31
0.0
 11
6.0874926016
 21
1.9119622646
 31
0.0
 11
6.12769104
 21
1.9154958643
 31
0.0
 11
6.1674650506
 21
1.9212853196
 31
0.0
 11
6.2064657294
 21
1.9292489129
 31
0.0
 11
6.2443483227
 21
1.9392967138
 31
0.0
 11
6.2627675308
 21
1.9450643367
 31
0.0
 11
6.2807846798
 21
1.9513059425
 31
0.0
 11
6.2983592696
 21
1.9580051572
 31
0.0
 11
6.3154508003
 21
1.9651456068
 31
0.0
 11
6.3320187719
 21
1.9727109173
 31
0.0
 11
6.3480226842
 21
1.9806847145
 31
0.0
 11
6.3634217022
 21
1.9890499259
 31
0.0
 11
6.3781736498
 21
1.9977866843
 31
0.0
 11
6.3922360161
 21
2.0068744238
 31
0.0
 11
6.40556629
 21
2.0162925786
 31
0.0
 11
6.4181219604
 21
2.0260205828
 31
0.0
 11
6.4298605161
 21
2.0360378706
 31
0.0
 11
6.4407394462
 21
2.0463238762
 31
0.0
 11
6.4507162396
 21
2.0568580337
 31
0.0
 11
6.4597473014
 21
2.0676193432
 31
0.0
 11
6.4677847016
 21
2.0785850686
 31
0.0
 11
6.4747794266
 21
2.0897320395
 31
0.0
 11
6.4806824625
 21
2.1010370858
 31
0.0
 11
6.4854447956
 21
2.1124770372
 31
0.0
 11
6.4890174123
 21
2.1240287233
 31
0.0
 11
6.4903422601
 21
2.1298392262
 31
0.0
 11
6.4913512986
 21
2.135668974
 31
0.0
 11
6.4920384012
 21
2.1415150704
 31
0.0
 11
6.492397441
 21
2.147374619
 31
0.0
  0
SPLINE
  5
47B
100
AcDbEntity
  8
0
100
AcDbSpline
 62
9
  6
CONTINUOUS
 70
0
 71
3
 72
51
 73
47
 74
45
 42
0.0000001
 43
0.0000001
 44
0.0000000001
 12
0.301294826
 22
0.936014851
 32
0.0
 13
-0.9832227876
 23
0.0132409741
 33
0.0
 40
0.0
 40
0.0
 40
0.0
 40
0.0
 40
0.0031681097
 40
0.0063578905
 40
0.0128465793
 40
0.0195548152
 40
0.0265523868
 40
0.0338939459
 40
0.0416205148
 40
0.0497614896
 40
0.0583366847
 40
0.0673581792
 40
0.0768319585
 40
0.0867610901
 40
0.097146527
 40
0.107985727
 40
0.1192732382
 40
0.1310012509
 40
0.143160036
 40
0.1557382925
 40
0.1687234262
 40
0.182101772
 40
0.195858898
 40
0.2244652954
 40
0.2544741465
 40
0.2858124841
 40
0.3183779932
 40
0.3350841069
 40
0.3520521519
 40
0.3867283811
 40
0.4223359
 40
0.4588080504
 40
0.4960790077
 40
0.5340839128
 40
0.5727324564
 40
0.6118788147
 40
0.6513731758
 40
0.6910700741
 40
0.7308292919
 40
0.7705169238
 40
0.8100027722
 40
0.8491530796
 40
0.8878399125
 40
0.9259450141
 40
0.9633621492
 40
1.0
 40
1.0
 40
1.0
 40
1.0
 10
6.867651479
 20
5.2279241611
 30
0.0
 10
6.8679696574
 20
5.228912627
 30
0.0
 10
6.8685411054
 20
5.2309186626
 30
0.0
 10
6.8694249275
 20
5.2350380875
 30
0.0
 10
6.8700389285
 20
5.2403893744
 30
0.0
 10
6.8700066524
 20
5.2470221215
 30
0.0
 10
6.8692314791
 20
5.2538892142
 30
0.0
 10
6.867733146
 20
5.2609747912
 30
0.0
 10
6.8655306702
 20
5.2682646845
 30
0.0
 10
6.8626420451
 20
5.2757445363
 30
0.0
 10
6.859084627
 20
5.2833998827
 30
0.0
 10
6.8548754612
 20
5.2912160526
 30
0.0
 10
6.8500306049
 20
5.2991784302
 30
0.0
 10
6.8445672711
 20
5.3072744243
 30
0.0
 10
6.8385041293
 20
5.3154941144
 30
0.0
 10
6.831858932
 20
5.3238278417
 30
0.0
 10
6.8246495574
 20
5.3322659488
 30
0.0
 10
6.8168938633
 20
5.3407986729
 30
0.0
 10
6.808609744
 20
5.3494161985
 30
0.0
 10
6.7998151102
 20
5.3581086647
 30
0.0
 10
6.7905279166
 20
5.3668661838
 30
0.0
 10
6.7807660305
 20
5.37567886
 30
0.0
 10
6.7669597646
 20
5.3876470314
 30
0.0
 10
6.7485934848
 20
5.4026689897
 30
0.0
 10
6.7251465041
 20
5.4205532333
 30
0.0
 10
6.7001009773
 20
5.4384563046
 30
0.0
 10
6.6781734174
 20
5.4532032009
 30
0.0
 10
6.6599199024
 20
5.4649597684
 30
0.0
 10
6.6409288168
 20
5.4768454356
 30
0.0
 10
6.6163969822
 20
5.4915510724
 30
0.0
 10
6.5859436528
 20
5.5087916678
 30
0.0
 10
6.5543266992
 20
5.5256815655
 30
0.0
 10
6.5216063617
 20
5.5421507064
 30
0.0
 10
6.487851107
 20
5.5581260898
 30
0.0
 10
6.4531536401
 20
5.5735215749
 30
0.0
 10
6.417627813
 20
5.588224638
 30
0.0
 10
6.3814075241
 20
5.602114539
 30
0.0
 10
6.3446286776
 20
5.6150691916
 30
0.0
 10
6.3074272082
 20
5.6269668316
 30
0.0
 10
6.2699398595
 20
5.637684606
 30
0.0
 10
6.2323095699
 20
5.6471012899
 30
0.0
 10
6.1946915093
 20
5.6551212882
 30
0.0
 10
6.1572436642
 20
5.6616458765
 30
0.0
 10
6.120124068
 20
5.6665766449
 30
0.0
 10
6.0834921281
 20
5.6698148667
 30
0.0
 10
6.0592263629
 20
5.6707903155
 30
0.0
 10
6.0472186397
 20
5.6709520224
 30
0.0
 11
6.867651479
 21
5.2279241611
 31
0.0
 11
6.8685058766
 21
5.2309199458
 31
0.0
 11
6.8691650333
 21
5.2339864512
 31
0.0
 11
6.8699060617
 21
5.2403236783
 31
0.0
 11
6.8698914383
 21
5.2469199505
 31
0.0
 11
6.8691380373
 21
5.2537593757
 31
0.0
 11
6.867662733
 21
5.260826062
 31
0.0
 11
6.8654823995
 21
5.2681041172
 31
0.0
 11
6.8626139109
 21
5.2755776495
 31
0.0
 11
6.8590741415
 21
5.2832307667
 31
0.0
 11
6.8548799655
 21
5.2910475769
 31
0.0
 11
6.8500482783
 21
5.2990122927
 31
0.0
 11
6.8445965339
 21
5.307111868
 31
0.0
 11
6.8385427855
 21
5.3153361984
 31
0.0
 11
6.8319051157
 21
5.3236753239
 31
0.0
 11
6.8247016073
 21
5.3321192848
 31
0.0
 11
6.8169503429
 21
5.3406581212
 31
0.0
 11
6.8086694051
 21
5.3492818733
 31
0.0
 11
6.7998768766
 21
5.3579805814
 31
0.0
 11
6.7905908401
 21
5.3667442855
 31
0.0
 11
6.7808293783
 21
5.3755630259
 31
0.0
 11
6.7706104455
 21
5.3844268806
 31
0.0
 11
6.7488533168
 21
5.4022557526
 31
0.0
 11
6.7254044829
 21
5.4201688173
 31
0.0
 11
6.7003463225
 21
5.4381041207
 31
0.0
 11
6.6737829868
 21
5.4559871051
 31
0.0
 11
6.659973175
 21
5.4648835078
 31
0.0
 11
6.6458305513
 21
5.4737362731
 31
0.0
 11
6.6165886815
 21
5.4912735472
 31
0.0
 11
6.5861221826
 21
5.5085282138
 31
0.0
 11
6.554491443
 21
5.5254304925
 31
0.0
 11
6.5217568511
 21
5.5419106027
 31
0.0
 11
6.4879789164
 21
5.5578986803
 31
0.0
 11
6.4532402559
 21
5.5733096225
 31
0.0
 11
6.4176711519
 21
5.5880254699
 31
0.0
 11
6.3814080869
 21
5.6019239896
 31
0.0
 11
6.3445875433
 21
5.6148829485
 31
0.0
 11
6.3073460036
 21
5.6267801137
 31
0.0
 11
6.2698199547
 21
5.6374932569
 31
0.0
 11
6.2321511365
 21
5.6469054188
 31
0.0
 11
6.1944966203
 21
5.6549150195
 31
0.0
 11
6.1570162593
 21
5.6614232695
 31
0.0
 11
6.1198699067
 21
5.6663313796
 31
0.0
 11
6.0832174157
 21
5.6695405603
 31
0.0
 11
6.0472186397
 21
5.6709520224
 31
0.0
  0
LINE
  5
47C
100
AcDbEntity
  8
0
100
AcDbLine
 62
9
  6
CONTINUOUS
 10
6.492397441
 20
2.147374619
 11
6.4913298985
 21
2.1618573324
  0
LINE
  5
47D
100
AcDbEntity
  8
0
100
AcDbLine
 62
9
  6
CONTINUOUS
 10
6.4710078947
 20
2.7256915413
 11
6.4710301078
 21
2.7403302316
  0
SPLINE
  5
47E
100
AcDbEntity
  8
0
100
AcDbSpline
 62
9
  6
CONTINUOUS
 70
0
 71
3
 72
43
 73
39
 74
37
 42
0.0000001
 43
0.0000001
 44
0.0000000001
 12
0.4347271621
 22
0.0
 32
0.0
 13
-0.0177652497
 23
-0.4343640195
 33
0.0
 40
0.0
 40
0.0
 40
0.0
 40
0.0
 40
0.0829678086
 40
0.1674559744
 40
0.2525697201
 40
0.3374122214
 40
0.4210854105
 40
0.5026902962
 40
0.5813271691
 40
0.6560962323
 40
0.691747517
 40
0.7260824567
 40
0.7589763823
 40
0.7903048522
 40
0.8199437473
 40
0.8477694074
 40
0.8736588343
 40
0.8974900054
 40
0.9191383419
 40
0.9291006459
 40
0.9384646339
 40
0.9472129891
 40
0.9553288863
 40
0.9627961893
 40
0.9695997565
 40
0.9757259336
 40
0.981163386
 40
0.9859045847
 40
0.9880138069
 40
0.989949525
 40
0.9917136591
 40
0.9933096249
 40
0.9947430297
 40
0.9960227413
 40
0.997162497
 40
0.9981831474
 40
0.9991151784
 40
1.0
 40
1.0
 40
1.0
 40
1.0
 10
6.0472186397
 20
3.0849420361
 30
0.0
 10
6.0592414264
 20
3.0849420361
 30
0.0
 10
6.0835075618
 20
3.0847685167
 30
0.0
 10
6.1201008496
 20
3.0840432466
 30
0.0
 10
6.1569546282
 20
3.0828806452
 30
0.0
 10
6.1936750868
 20
3.081312102
 30
0.0
 10
6.2298684158
 20
3.0793691151
 30
0.0
 10
6.2651413479
 20
3.0770947908
 30
0.0
 10
6.2991006876
 20
3.0745324533
 30
0.0
 10
6.3263944153
 20
3.072157737
 30
0.0
 10
6.3472734949
 20
3.0701386077
 30
0.0
 10
6.3621026238
 20
3.0686033434
 30
0.0
 10
6.3762975887
 20
3.0670291371
 30
0.0
 10
6.389803825
 20
3.0654220696
 30
0.0
 10
6.4025667869
 20
3.0637883066
 30
0.0
 10
6.414531948
 20
3.0621340404
 30
0.0
 10
6.425644865
 20
3.0604656188
 30
0.0
 10
6.4358504821
 20
3.0587893841
 30
0.0
 10
6.4437560525
 20
3.0573554122
 30
0.0
 10
6.4495802693
 20
3.0561999999
 30
0.0
 10
6.453560842
 20
3.055359265
 30
0.0
 10
6.4572681077
 20
3.0545209891
 30
0.0
 10
6.4606938635
 20
3.0536859674
 30
0.0
 10
6.4638299627
 20
3.0528550669
 30
0.0
 10
6.4666683015
 20
3.0520291712
 30
0.0
 10
6.4692009918
 20
3.0512092606
 30
0.0
 10
6.471420092
 20
3.0503962352
 30
0.0
 10
6.473060664
 20
3.0497009296
 30
0.0
 10
6.4742049376
 20
3.0491420044
 30
0.0
 10
6.4749455746
 20
3.0487413169
 30
0.0
 10
6.475601795
 20
3.0483427109
 30
0.0
 10
6.476172742
 20
3.047946154
 30
0.0
 10
6.4766576299
 20
3.0475515384
 30
0.0
 10
6.4770556927
 20
3.0471585166
 30
0.0
 10
6.4773660359
 20
3.0467664136
 30
0.0
 10
6.4775871987
 20
3.0463739975
 30
0.0
 10
6.4777164357
 20
3.0459804807
 30
0.0
 10
6.4777387247
 20
3.0457150939
 30
0.0
 10
6.477733485
 20
3.0455869823
 30
0.0
 11
6.0472186397
 21
3.0849420361
 31
0.0
 11
6.0832861513
 21
3.0846946457
 31
0.0
 11
6.1200083735
 21
3.0839735934
 31
0.0
 11
6.1569913476
 21
3.0828105577
 31
0.0
 11
6.193841115
 21
3.081237217
 31
0.0
 11
6.2301638129
 21
3.0792871336
 31
0.0
 11
6.2655659677
 21
3.0770015038
 31
0.0
 11
6.2996542043
 21
3.0744234579
 31
0.0
 11
6.3320351475
 21
3.0715961261
 31
0.0
 11
6.3474615949
 21
3.0701025529
 31
0.0
 11
6.362308361
 21
3.0685634333
 31
0.0
 11
6.3765208371
 21
3.0669847707
 31
0.0
 11
6.3900444142
 21
3.0653725683
 31
0.0
 11
6.4028244835
 21
3.0637328294
 31
0.0
 11
6.4148064361
 21
3.0620715572
 31
0.0
 11
6.425935663
 21
3.0603947552
 31
0.0
 11
6.4361575554
 21
3.0587084264
 31
0.0
 11
6.4454157154
 21
3.0570185593
 31
0.0
 11
6.4496634833
 21
3.0561741509
 31
0.0
 11
6.4536460046
 21
3.055331077
 31
0.0
 11
6.4573550002
 21
3.0544900757
 31
0.0
 11
6.4607821913
 21
3.0536518852
 31
0.0
 11
6.4639192989
 21
3.0528172438
 31
0.0
 11
6.4667580441
 21
3.0519868896
 31
0.0
 11
6.4692901479
 21
3.0511615609
 31
0.0
 11
6.4715073314
 21
3.0503419958
 31
0.0
 11
6.4734013157
 21
3.0495289327
 31
0.0
 11
6.4742245209
 21
3.04912507
 31
0.0
 11
6.4749638217
 21
3.0487231096
 31
0.0
 11
6.4756181833
 21
3.0483231438
 31
0.0
 11
6.4761865706
 21
3.0479252648
 31
0.0
 11
6.476667949
 21
3.047529565
 31
0.0
 11
6.4770612835
 21
3.0471361365
 31
0.0
 11
6.4773655392
 21
3.0467450718
 31
0.0
 11
6.4775796812
 21
3.046356463
 31
0.0
 11
6.4777026748
 21
3.0459704024
 31
0.0
 11
6.477733485
 21
3.0455869823
 31
0.0
  0
SPLINE
  5
47F
100
AcDbEntity
  8
0
100
AcDbSpline
 62
9
  6
CONTINUOUS
 70
0
 71
3
 72
45
 73
41
 74
39
 42
0.0000001
 43
0.0000001
 44
0.0000000001
 12
0.4407065935
 22
0.0035549446
 32
0.0
 13
-0.0211498701
 23
-0.4402131554
 33
0.0
 40
0.0
 40
0.0
 40
0.0
 40
0.0
 40
0.0822030959
 40
0.1659765927
 40
0.2504431122
 40
0.3347191045
 40
0.417916202
 40
0.4991399609
 40
0.5774926196
 40
0.6153116978
 40
0.652075885
 40
0.6876709219
 40
0.7219744832
 40
0.7548623288
 40
0.7862105731
 40
0.8158958492
 40
0.8437955428
 40
0.8697881343
 40
0.8937537265
 40
0.9049393117
 40
0.9155714351
 40
0.9256329695
 40
0.9351072325
 40
0.9439781328
 40
0.9522303791
 40
0.9598497895
 40
0.9668237597
 40
0.9731419997
 40
0.9787977364
 40
0.9837897606
 40
0.9860394186
 40
0.9881273299
 40
0.990057092
 40
0.9918340464
 40
0.9934659003
 40
0.9949635561
 40
0.9963421531
 40
0.9976222065
 40
0.9988304899
 40
1.0
 40
1.0
 40
1.0
 40
1.0
 10
6.0472186397
 20
3.1593563806
 30
0.0
 10
6.0592944551
 20
3.1594537897
 30
0.0
 10
6.0836796562
 20
3.1593708583
 30
0.0
 10
6.1204634399
 20
3.1585076601
 30
0.0
 10
6.1575294208
 20
3.1569586803
 30
0.0
 10
6.1944786141
 20
3.1547791987
 30
0.0
 10
6.2309115717
 20
3.1520247856
 30
0.0
 10
6.2664290455
 20
3.1487668755
 30
0.0
 10
6.2952619981
 20
3.1456569891
 30
0.0
 10
6.3175679772
 20
3.142967101
 30
0.0
 10
6.3336205107
 20
3.1408914235
 30
0.0
 10
6.3491422587
 20
3.1387430224
 30
0.0
 10
6.3640797223
 20
3.1365315062
 30
0.0
 10
6.378377894
 20
3.1342667203
 30
0.0
 10
6.3919814801
 20
3.1319585833
 30
0.0
 10
6.4048352084
 20
3.1296170532
 30
0.0
 10
6.4168838873
 20
3.1272521875
 30
0.0
 10
6.4280723025
 20
3.1248740305
 30
0.0
 10
6.4368235047
 20
3.1228459147
 30
0.0
 10
6.4433491256
 20
3.1212162723
 30
0.0
 10
6.4478785023
 20
3.1200249781
 30
0.0
 10
6.4521485151
 20
3.1188375479
 30
0.0
 10
6.4561508757
 20
3.1176552092
 30
0.0
 10
6.4598773256
 20
3.1164792328
 30
0.0
 10
6.4633196413
 20
3.1153108978
 30
0.0
 10
6.4664696704
 20
3.1141515042
 30
0.0
 10
6.4693193251
 20
3.113002365
 30
0.0
 10
6.4718607874
 20
3.11186481
 30
0.0
 10
6.4740861655
 20
3.1107400916
 30
0.0
 10
6.4757241219
 20
3.1097840799
 30
0.0
 10
6.4768625433
 20
3.1090201085
 30
0.0
 10
6.477602004
 20
3.1084708622
 30
0.0
 10
6.4782562371
 20
3.1079253937
 30
0.0
 10
6.4788242987
 20
3.1073836631
 30
0.0
 10
6.4793052452
 20
3.1068455693
 30
0.0
 10
6.4796980457
 20
3.106310857
 30
0.0
 10
6.48000146
 20
3.1057791615
 30
0.0
 10
6.4802138446
 20
3.1052500097
 30
0.0
 10
6.4803330659
 20
3.1047235572
 30
0.0
 10
6.4803489174
 20
3.1043723113
 30
0.0
 10
6.4803406724
 20
3.1042007
 30
0.0
 11
6.0472186397
 21
3.1593563806
 31
0.0
 11
6.0834471133
 21
3.1592516617
 31
0.0
 11
6.1203579752
 21
3.1583979418
 31
0.0
 11
6.1575519871
 21
3.1568511063
 31
0.0
 11
6.1946299107
 21
3.1546670405
 31
0.0
 11
6.2311923781
 21
3.1519042461
 31
0.0
 11
6.2668394976
 21
3.1486318096
 31
0.0
 11
6.301171245
 21
3.1449214944
 31
0.0
 11
6.3177188465
 21
3.1429245582
 31
0.0
 11
6.3337875959
 21
3.1408450636
 31
0.0
 11
6.3493266355
 21
3.1386921103
 31
0.0
 11
6.3642815292
 21
3.1364753393
 31
0.0
 11
6.3785969045
 21
3.1342045336
 31
0.0
 11
6.3922173888
 21
3.131889476
 31
0.0
 11
6.4050876097
 21
3.1295399492
 31
0.0
 11
6.4171521947
 21
3.1271657362
 31
0.0
 11
6.4283557711
 21
3.1247766197
 31
0.0
 11
6.4386429665
 21
3.1223823826
 31
0.0
 11
6.4434254108
 21
3.1211863972
 31
0.0
 11
6.447956634
 21
3.1199927757
 31
0.0
 11
6.452228288
 21
3.1188027153
 31
0.0
 11
6.4562320249
 21
3.1176174131
 31
0.0
 11
6.4599594968
 21
3.1164380664
 31
0.0
 11
6.4634023556
 21
3.1152658722
 31
0.0
 11
6.4665522533
 21
3.1141020278
 31
0.0
 11
6.4694008421
 21
3.1129477303
 31
0.0
 11
6.471939774
 21
3.1118041768
 31
0.0
 11
6.4741607009
 21
3.1106725647
 31
0.0
 11
6.4760552749
 21
3.109554091
 31
0.0
 11
6.4768775708
 21
3.1090001552
 31
0.0
 11
6.477615148
 21
3.1084499529
 31
0.0
 11
6.478266963
 21
3.1079036338
 31
0.0
 11
6.4788319723
 21
3.1073613476
 31
0.0
 11
6.4793091324
 21
3.1068232438
 31
0.0
 11
6.4796973998
 21
3.1062894722
 31
0.0
 11
6.479995731
 21
3.1057601824
 31
0.0
 11
6.4802030825
 21
3.105235524
 31
0.0
 11
6.4803184108
 21
3.1047156466
 31
0.0
 11
6.4803406724
 21
3.1042007
 31
0.0
  0
SPLINE
  5
480
100
AcDbEntity
  8
0
100
AcDbSpline
 62
9
  6
CONTINUOUS
 70
0
 71
3
 72
51
 73
47
 74
45
 42
0.0000001
 43
0.0000001
 44
0.0000000001
 12
-0.301294826
 22
0.936014851
 32
0.0
 13
0.9832227876
 23
0.0132409741
 33
0.0
 40
0.0
 40
0.0
 40
0.0
 40
0.0
 40
0.0031681097
 40
0.0063578905
 40
0.0128465793
 40
0.0195548152
 40
0.0265523868
 40
0.0338939459
 40
0.0416205148
 40
0.0497614896
 40
0.0583366847
 40
0.0673581792
 40
0.0768319585
 40
0.0867610901
 40
0.097146527
 40
0.107985727
 40
0.1192732382
 40
0.1310012509
 40
0.143160036
 40
0.1557382925
 40
0.1687234262
 40
0.182101772
 40
0.195858898
 40
0.2244652954
 40
0.2544741465
 40
0.2858124841
 40
0.3183779932
 40
0.3350841069
 40
0.3520521519
 40
0.3867283811
 40
0.4223359
 40
0.4588080504
 40
0.4960790077
 40
0.5340839128
 40
0.5727324564
 40
0.6118788147
 40
0.6513731758
 40
0.6910700741
 40
0.7308292919
 40
0.7705169238
 40
0.8100027722
 40
0.8491530796
 40
0.8878399125
 40
0.9259450141
 40
0.9633621492
 40
1.0
 40
1.0
 40
1.0
 40
1.0
 10
5.2267858004
 20
5.2279241611
 30
0.0
 10
5.226467622
 20
5.228912627
 30
0.0
 10
5.225896174
 20
5.2309186626
 30
0.0
 10
5.2250123519
 20
5.2350380875
 30
0.0
 10
5.2243983509
 20
5.2403893744
 30
0.0
 10
5.224430627
 20
5.2470221215
 30
0.0
 10
5.2252058003
 20
5.2538892142
 30
0.0
 10
5.2267041334
 20
5.2609747912
 30
0.0
 10
5.2289066091
 20
5.2682646845
 30
0.0
 10
5.2317952343
 20
5.2757445363
 30
0.0
 10
5.2353526524
 20
5.2833998827
 30
0.0
 10
5.2395618182
 20
5.2912160526
 30
0.0
 10
5.2444066745
 20
5.2991784302
 30
0.0
 10
5.2498700083
 20
5.3072744243
 30
0.0
 10
5.2559331501
 20
5.3154941144
 30
0.0
 10
5.2625783474
 20
5.3238278417
 30
0.0
 10
5.269787722
 20
5.3322659488
 30
0.0
 10
5.2775434161
 20
5.3407986729
 30
0.0
 10
5.2858275354
 20
5.3494161985
 30
0.0
 10
5.2946221692
 20
5.3581086647
 30
0.0
 10
5.3039093628
 20
5.3668661838
 30
0.0
 10
5.3136712489
 20
5.37567886
 30
0.0
 10
5.3274775148
 20
5.3876470314
 30
0.0
 10
5.3458437946
 20
5.4026689897
 30
0.0
 10
5.3692907753
 20
5.4205532333
 30
0.0
 10
5.3943363021
 20
5.4384563046
 30
0.0
 10
5.416263862
 20
5.4532032009
 30
0.0
 10
5.434517377
 20
5.4649597684
 30
0.0
 10
5.4535084626
 20
5.4768454356
 30
0.0
 10
5.4780402972
 20
5.4915510724
 30
0.0
 10
5.5084936266
 20
5.5087916678
 30
0.0
 10
5.5401105802
 20
5.5256815655
 30
0.0
 10
5.5728309177
 20
5.5421507064
 30
0.0
 10
5.6065861724
 20
5.5581260898
 30
0.0
 10
5.6412836393
 20
5.5735215749
 30
0.0
 10
5.6768094664
 20
5.588224638
 30
0.0
 10
5.7130297553
 20
5.602114539
 30
0.0
 10
5.7498086018
 20
5.6150691916
 30
0.0
 10
5.7870100712
 20
5.6269668316
 30
0.0
 10
5.8244974199
 20
5.637684606
 30
0.0
 10
5.8621277095
 20
5.6471012899
 30
0.0
 10
5.8997457701
 20
5.6551212882
 30
0.0
 10
5.9371936152
 20
5.6616458765
 30
0.0
 10
5.9743132114
 20
5.6665766449
 30
0.0
 10
6.0109451513
 20
5.6698148667
 30
0.0
 10
6.0352109164
 20
5.6707903155
 30
0.0
 10
6.0472186397
 20
5.6709520224
 30
0.0
 11
5.2267858004
 21
5.2279241611
 31
0.0
 11
5.2259314028
 21
5.2309199458
 31
0.0
 11
5.2252722461
 21
5.2339864512
 31
0.0
 11
5.2245312177
 21
5.2403236783
 31
0.0
 11
5.2245458411
 21
5.2469199505
 31
0.0
 11
5.225299242
 21
5.2537593757
 31
0.0
 11
5.2267745464
 21
5.260826062
 31
0.0
 11
5.2289548799
 21
5.2681041172
 31
0.0
 11
5.2318233685
 21
5.2755776495
 31
0.0
 11
5.2353631379
 21
5.2832307667
 31
0.0
 11
5.2395573139
 21
5.2910475769
 31
0.0
 11
5.2443890011
 21
5.2990122927
 31
0.0
 11
5.2498407455
 21
5.307111868
 31
0.0
 11
5.2558944939
 21
5.3153361984
 31
0.0
 11
5.2625321637
 21
5.3236753239
 31
0.0
 11
5.2697356721
 21
5.3321192848
 31
0.0
 11
5.2774869365
 21
5.3406581212
 31
0.0
 11
5.2857678743
 21
5.3492818733
 31
0.0
 11
5.2945604028
 21
5.3579805814
 31
0.0
 11
5.3038464393
 21
5.3667442855
 31
0.0
 11
5.3136079011
 21
5.3755630259
 31
0.0
 11
5.3238268339
 21
5.3844268806
 31
0.0
 11
5.3455839626
 21
5.4022557526
 31
0.0
 11
5.3690327965
 21
5.4201688173
 31
0.0
 11
5.3940909569
 21
5.4381041207
 31
0.0
 11
5.4206542926
 21
5.4559871051
 31
0.0
 11
5.4344641044
 21
5.4648835078
 31
0.0
 11
5.4486067281
 21
5.4737362731
 31
0.0
 11
5.4778485979
 21
5.4912735472
 31
0.0
 11
5.5083150968
 21
5.5085282138
 31
0.0
 11
5.5399458364
 21
5.5254304925
 31
0.0
 11
5.5726804283
 21
5.5419106027
 31
0.0
 11
5.606458363
 21
5.5578986803
 31
0.0
 11
5.6411970235
 21
5.5733096225
 31
0.0
 11
5.6767661275
 21
5.5880254699
 31
0.0
 11
5.7130291925
 21
5.6019239896
 31
0.0
 11
5.7498497361
 21
5.6148829485
 31
0.0
 11
5.7870912758
 21
5.6267801137
 31
0.0
 11
5.8246173247
 21
5.6374932569
 31
0.0
 11
5.8622861429
 21
5.6469054188
 31
0.0
 11
5.8999406591
 21
5.6549150195
 31
0.0
 11
5.9374210201
 21
5.6614232695
 31
0.0
 11
5.9745673727
 21
5.6663313796
 31
0.0
 11
6.0112198637
 21
5.6695405603
 31
0.0
 11
6.0472186397
 21
5.6709520224
 31
0.0
  0
LINE
  5
481
100
AcDbEntity
  8
0
100
AcDbLine
 62
9
  6
CONTINUOUS
 10
6.4777303961
 20
3.0455336899
 11
6.4782484859
 21
3.0579738997
  0
LINE
  5
482
100
AcDbEntity
  8
0
100
AcDbLine
 62
9
  6
CONTINUOUS
 10
6.4782484859
 20
3.0579738997
 11
6.4785172986
 21
3.0642549472
  0
SPLINE
  5
483
100
AcDbEntity
  8
0
100
AcDbSpline
 62
9
  6
CONTINUOUS
 70
0
 71
3
 72
48
 73
44
 74
42
 42
0.0000001
 43
0.0000001
 44
0.0000000001
 12
0.4932659424
 22
0.0044831603
 32
0.0
 13
-0.0436893591
 23
-0.4913477674
 33
0.0
 40
0.0
 40
0.0
 40
0.0
 40
0.0
 40
0.0383589827
 40
0.0772675367
 40
0.1166394204
 40
0.1563846003
 40
0.196409875
 40
0.2366194001
 40
0.2769151315
 40
0.317197207
 40
0.3573636269
 40
0.397308372
 40
0.4369233204
 40
0.4760991375
 40
0.5147255265
 40
0.5526914654
 40
0.5898854397
 40
0.6261956812
 40
0.6615089355
 40
0.6957062784
 40
0.7286679341
 40
0.7602752159
 40
0.7904111157
 40
0.8048917329
 40
0.8189618367
 40
0.8458149741
 40
0.8708655666
 40
0.8826843
 40
0.8940149431
 40
0.9048456216
 40
0.9151657093
 40
0.9249661581
 40
0.934239934
 40
0.9429826019
 40
0.9511931144
 40
0.9588748842
 40
0.9660372434
 40
0.9726974201
 40
0.978883162
 40
0.9846360695
 40
0.9900154643
 40
0.9951020768
 40
1.0
 40
1.0
 40
1.0
 40
1.0
 10
6.0472186397
 20
3.5794529454
 30
0.0
 10
6.0535256996
 20
3.5795102685
 30
0.0
 10
6.0662325032
 20
3.5794396063
 30
0.0
 10
6.0854032135
 20
3.5788133157
 30
0.0
 10
6.1047793106
 20
3.577686926
 30
0.0
 10
6.1243056154
 20
3.5760814643
 30
0.0
 10
6.1439271936
 20
3.5740179599
 30
0.0
 10
6.1635890097
 20
3.5715174476
 30
0.0
 10
6.183236027
 20
3.5686009702
 30
0.0
 10
6.2028130897
 20
3.5652895946
 30
0.0
 10
6.2222644474
 20
3.5616045198
 30
0.0
 10
6.241534609
 20
3.557571957
 30
0.0
 10
6.2605676372
 20
3.5532181862
 30
0.0
 10
6.2793074843
 20
3.5485695202
 30
0.0
 10
6.2976981039
 20
3.5436522831
 30
0.0
 10
6.3156834529
 20
3.5384928114
 30
0.0
 10
6.3332074969
 20
3.5331174574
 30
0.0
 10
6.3502139799
 20
3.5275526593
 30
0.0
 10
6.3666455255
 20
3.5218253176
 30
0.0
 10
6.3824434526
 20
3.5159630056
 30
0.0
 10
6.3975479925
 20
3.5099936683
 30
0.0
 10
6.4118990824
 20
3.5039453561
 30
0.0
 10
6.423327727
 20
3.4987965571
 30
0.0
 10
6.4320429043
 20
3.4946529555
 30
0.0
 10
6.4402135972
 20
3.4906235118
 30
0.0
 10
6.4498344975
 20
3.485607696
 30
0.0
 10
6.4589542856
 20
3.4804432082
 30
0.0
 10
6.4657260176
 20
3.4763243005
 30
0.0
 10
6.4704334189
 20
3.4733136186
 30
0.0
 10
6.4748602276
 20
3.4703244951
 30
0.0
 10
6.4789979566
 20
3.4673601572
 30
0.0
 10
6.4828381598
 20
3.4644238622
 30
0.0
 10
6.4863724278
 20
3.4615188193
 30
0.0
 10
6.4895923973
 20
3.4586481841
 30
0.0
 10
6.4924897541
 20
3.4558150204
 30
0.0
 10
6.4950562269
 20
3.4530222503
 30
0.0
 10
6.4972835549
 20
3.4502725748
 30
0.0
 10
6.4991634017
 20
3.4475683881
 30
0.0
 10
6.5006871595
 20
3.4449116393
 30
0.0
 10
6.50184561
 20
3.4423039627
 30
0.0
 10
6.5026283425
 20
3.4397464924
 30
0.0
 10
6.5030235207
 20
3.437242307
 30
0.0
 10
6.5030195086
 20
3.4355916667
 30
0.0
 10
6.5029481796
 20
3.4347894721
 30
0.0
 11
6.0472186397
 21
3.5794529454
 31
0.0
 11
6.0661403488
 21
3.579355273
 31
0.0
 11
6.0853233831
 21
3.5787350792
 31
0.0
 11
6.10471258
 21
3.5776134574
 31
0.0
 11
6.124252777
 21
3.5760115012
 31
0.0
 11
6.1438888116
 21
3.5739503041
 31
0.0
 11
6.1635655213
 21
3.5714509596
 31
0.0
 11
6.1832277435
 21
3.5685345613
 31
0.0
 11
6.2028203158
 21
3.5652222027
 31
0.0
 11
6.222287914
 21
3.5615358499
 31
0.0
 11
6.2415745675
 21
3.5575009593
 31
0.0
 11
6.2606241442
 21
3.5531438598
 31
0.0
 11
6.2793805118
 21
3.5484908804
 31
0.0
 11
6.2977875383
 21
3.54356835
 31
0.0
 11
6.3157890913
 21
3.5384025976
 31
0.0
 11
6.3333290387
 21
3.5330199521
 31
0.0
 11
6.3503512484
 21
3.5274467423
 31
0.0
 11
6.3667989022
 21
3.5217095622
 31
0.0
 11
6.3826124383
 21
3.5158360643
 31
0.0
 11
6.3977316092
 21
3.5098541661
 31
0.0
 11
6.4120961672
 21
3.5037917853
 31
0.0
 11
6.4256458647
 21
3.4976768393
 31
0.0
 11
6.4320963134
 21
3.4946083786
 31
0.0
 11
6.438320454
 21
3.4915372457
 31
0.0
 11
6.4500596875
 21
3.4854009218
 31
0.0
 11
6.4608033174
 21
3.4792957853
 31
0.0
 11
6.4657827749
 21
3.4762636028
 31
0.0
 11
6.4704896652
 21
3.473249484
 31
0.0
 11
6.4749153841
 21
3.4702567163
 31
0.0
 11
6.4790513274
 21
3.4672885871
 31
0.0
 11
6.4828888907
 21
3.4643483838
 31
0.0
 11
6.4864194697
 21
3.4614393941
 31
0.0
 11
6.4896344602
 21
3.4585649051
 31
0.0
 11
6.4925252578
 21
3.4557282045
 31
0.0
 11
6.4950832582
 21
3.4529325797
 31
0.0
 11
6.4972998572
 21
3.450181318
 31
0.0
 11
6.4991664504
 21
3.447477707
 31
0.0
 11
6.5006744336
 21
3.4448250341
 31
0.0
 11
6.5018152023
 21
3.4422265867
 31
0.0
 11
6.5025801525
 21
3.4396856523
 31
0.0
 11
6.5029606796
 21
3.4372055183
 31
0.0
 11
6.5029481796
 21
3.4347894721
 31
0.0
  0
SPLINE
  5
484
100
AcDbEntity
  8
0
100
AcDbSpline
 62
9
  6
CONTINUOUS
 70
0
 71
3
 72
15
 73
11
 74
9
 42
0.0000001
 43
0.0000001
 44
0.0000000001
 12
-0.1496368051
 22
1.6854936706
 32
0.0
 13
-0.4925448008
 23
1.618851354
 33
0.0
 40
0.0
 40
0.0
 40
0.0
 40
0.0
 40
0.1268310574
 40
0.2527975133
 40
0.3780551769
 40
0.5027567866
 40
0.627067636
 40
0.751215462
 40
0.8754447125
 40
1.0
 40
1.0
 40
1.0
 40
1.0
 10
5.5914890998
 20
3.4347894721
 30
0.0
 10
5.5851629018
 20
3.5060471203
 30
0.0
 10
5.5706983194
 20
3.6479191233
 30
0.0
 10
5.5435218297
 20
3.8594421208
 30
0.0
 10
5.5110289426
 20
4.0689996608
 30
0.0
 10
5.4732991815
 20
4.2767277984
 30
0.0
 10
5.4304003409
 20
4.4828108312
 30
0.0
 10
5.3822668117
 20
4.6874614956
 30
0.0
 10
5.3288281625
 20
4.8909324515
 30
0.0
 10
5.2896926695
 20
5.0257083376
 30
0.0
 10
5.269242983
 20
5.0929205029
 30
0.0
 11
5.5914890998
 21
3.4347894721
 31
0.0
 11
5.5697155566
 21
3.6482958459
 31
0.0
 11
5.5425519281
 21
3.8597086449
 31
0.0
 11
5.5100786147
 21
4.0691576031
 31
0.0
 11
5.4723760166
 21
4.2767724549
 31
0.0
 11
5.4294989437
 21
4.4827053566
 31
0.0
 11
5.3813998428
 21
4.6871981534
 31
0.0
 11
5.3280055705
 21
4.890515113
 31
0.0
 11
5.269242983
 21
5.0929205029
 31
0.0
  0
ENDSEC
  0
SECTION
  2
OBJECTS
  0
DICTIONARY
  5
C
100
AcDbDictionary
280
0
281
1
  3
ACAD_GROUP
350
D
  3
ACAD_MLINESTYLE
350
17
  3
ACAD_LAYOUT
350
1A
  3
ACAD_PLOTSETTINGS
350
19
  3
ACAD_PLOTSTYLENAME
350
E
  0
DICTIONARY
  5
D
102
{ACAD_REACTORS
330
C
102
}
100
AcDbDictionary
280
0
281
1
  0
ACDBDICTIONARYWDFLT
  5
E
102
{ACAD_REACTORS
330
C
102
}
100
AcDbDictionary
281
1
  3
Normal
350
F
100
AcDbDictionaryWithDefault
340
F
  0
DICTIONARY
  5
17
102
{ACAD_REACTORS
330
C
102
}
100
AcDbDictionary
280
0
281
1
  3
Standard
350
18
  0
DICTIONARY
  5
19
102
{ACAD_REACTORS
330
C
102
}
100
AcDbDictionary
281
1
  0
DICTIONARY
  5
1A
102
{ACAD_REACTORS
330
C
102
}
100
AcDbDictionary
281
1
  3
Model
350
485
  3
Layout1
350
486
  0
ACDBPLACEHOLDER
  5
F
102
{ACAD_REACTORS
330
E
102
}
  0
MLINESTYLE
  5
18
102
{ACAD_REACTORS
330
17
102
}
100
AcDbMlineStyle
  2
STANDARD
 70
0
  3

 62
256
 51
90.0
 52
90.0
 71
2
 49
0.5
 62
256
  6
BYLAYER
 49
-0.5
 62
256
  6
BYLAYER
  0
LAYOUT
  5
485
102
{ACAD_REACTORS
330
1A
102
}
100
AcDbPlotSettings
  1

  2
none_device
  4
ISO_A4_(297.00_x_210.00_MM)
  6

 40
0.0
 41
0.0
 42
0.0
 43
0.0
 44
297.0
 45
210.0
 46
0.0
 47
0.0
 48
0.0
 49
0.0
140
0.0
141
0.0
142
1.0
143
1.0
 70
1024
 72
0
 73
0
 74
0
  7

 75
0
147
1.0
148
0.0
149
0.0
100
AcDbLayout
  1
Model
 70
0
 71
0
 10
0.0
 20
0.0
 11
11.6929133858
 21
8.2677165354
 12
0.0
 22
0.0
 32
0.0
 14
0.0
 24
0.0
 34
0.0
 15
0.0
 25
0.0
 35
0.0
146
0.0
 13
0.0
 23
0.0
 33
0.0
 16
1.0
 26
0.0
 36
0.0
 17
0.0
 27
1.0
 37
0.0
 76
0
330
203
345
0
346
0
  0
LAYOUT
  5
486
102
{ACAD_REACTORS
330
1A
102
}
100
AcDbPlotSettings
  1

  2
none_device
  4
ISO_A4_(297.00_x_210.00_MM)
  6

 40
0.0
 41
0.0
 42
0.0
 43
0.0
 44
297.0
 45
210.0
 46
0.0
 47
0.0
 48
0.0
 49
0.0
140
0.0
141
0.0
142
1.0
143
1.0
 70
0
 72
0
 73
0
 74
0
  7

 75
0
147
1.0
148
0.0
149
0.0
100
AcDbLayout
  1
Layout1
 70
0
 71
1
 10
0.0
 20
0.0
 11
11.6929133858
 21
8.2677165354
 12
0.0
 22
0.0
 32
0.0
 14
0.0
 24
0.0
 34
0.0
 15
0.0
 25
0.0
 35
0.0
146
0.0
 13
0.0
 23
0.0
 33
0.0
 16
1.0
 26
0.0
 36
0.0
 17
0.0
 27
1.0
 37
0.0
 76
0
330
204
345
0
346
0
  0
ENDSEC
  0
EOF
