999
DXF file: E:\BT Custom\CADOUTPUT\_TOP.dxf
999
Pro/ENGINEER 2018400 by Parametric Technology Corporation
  0
SECTION
  2
HEADER
  9
$ACADVER
  1
AC1018
  9
$DWGCODEPAGE
  3
ANSI_1252
  9
$EXTMAX
 10
22.0
 20
17.0
 30
0.0
  9
$EXTMIN
 10
0.0
 20
0.0
 30
0.0
  9
$LIMMIN
 10
0.0
 20
0.0
  9
$LIMMAX
 10
22.0
 20
17.0
  9
$VIEWCTR
 10
11.0
 20
8.5
  9
$VIEWSIZE
 40
17.0
  9
$CLAYER
  8
0
  9
$LTSCALE
 40
1.21
  9
$CELTYPE
  6
BYLAYER
  9
$DIMSCALE
 40
1.0
  9
$DIMASZ
 40
0.1
  9
$DIMEXO
 40
0.0625
  9
$DIMDLI
 40
0.836
  9
$DIMEXE
 40
0.125
  9
$DIMCEN
 40
0.198
  9
$DIMLFAC
 40
1.0
  9
$DIMBLK
  1
_FILLED
  9
$DIMALT
 70
1
  9
$DIMALTD
 70
2
  9
$DIMALTTD
 70
2
  9
$DIMALTF
 40
25.4
  9
$DIMTXT
 40
0.08
  9
$DIMTOL
 70
1
  9
$DIMLIM
 70
0
  9
$DIMTFAC
 40
1.0
  9
$DIMTP
 40
0.001
  9
$DIMTM
 40
0.001
  9
$DIMGAP
 40
0.09
  9
$DIMDSEP
 70
46
  9
$AUNITS
 70
0
  9
$PDMODE
 70
3
  9
$PDSIZE
 40
0.06
  9
$HANDSEED
  5
27B
  9
$TILEMODE
 70
1
  9
$MEASUREMENT
 70
0
  9
$INSUNITS
 70
1
  0
ENDSEC
  0
SECTION
  2
CLASSES
  0
CLASS
  1
ACDBDICTIONARYWDFLT
  2
AcDbDictionaryWithDefault
  3
AutoCAD 2000
 90
0
 91
1
280
0
281
0
  0
CLASS
  1
ACDBPLACEHOLDER
  2
AcDbPlaceHolder
  3
AutoCAD 2000
 90
0
 91
1
280
0
281
0
  0
CLASS
  1
LAYOUT
  2
AcDbLayout
  3
AutoCAD 2000
 90
0
 91
0
280
0
281
0
  0
ENDSEC
  0
SECTION
  2
TABLES
  0
TABLE
  2
VPORT
  5
8
100
AcDbSymbolTable
 70
2
  0
VPORT
  5
1F4
100
AcDbSymbolTableRecord
100
AcDbViewportTableRecord
  2
*ACTIVE
 70
0
 10
0.0
 20
0.0
 11
1.0
 21
1.0
 12
11.0
 22
8.5
 13
0.0
 23
0.0
 14
1.0
 24
1.0
 15
0.0
 25
0.0
 16
0.0
 26
0.0
 36
1.0
 17
0.0
 27
0.0
 37
0.0
 40
17.0
 41
1.2941176471
 42
50.0
 43
0.0
 44
0.0
 50
0.0
 51
0.0
 71
0
 72
100
 73
1
 74
1
 75
0
 76
0
 77
0
 78
0
  0
ENDTAB
  0
TABLE
  2
LTYPE
  5
5
100
AcDbSymbolTable
 70
6
  0
LTYPE
  5
14
100
AcDbSymbolTableRecord
100
AcDbLinetypeTableRecord
  2
BYBLOCK
 70
0
  3

 72
65
 73
0
 40
0.0
  0
LTYPE
  5
15
100
AcDbSymbolTableRecord
100
AcDbLinetypeTableRecord
  2
BYLAYER
 70
0
  3

 72
65
 73
0
 40
0.0
  0
LTYPE
  5
16
100
AcDbSymbolTableRecord
100
AcDbLinetypeTableRecord
  2
CONTINUOUS
 70
64
  3
Solid line
 72
65
 73
0
 40
0.0
  0
LTYPE
  5
1F5
100
AcDbSymbolTableRecord
100
AcDbLinetypeTableRecord
  2
CENTER
 70
64
  3
____ _ ____ _ ____ _ ____ _ ____ _ ____ _ ____
 72
65
 73
4
 40
0.6
 49
0.375
 74
0
 49
-0.075
 74
0
 49
0.075
 74
0
 49
-0.075
 74
0
  0
LTYPE
  5
1F6
100
AcDbSymbolTableRecord
100
AcDbLinetypeTableRecord
  2
HIDDEN
 70
64
  3
- - - - - - - - - - - - - - - - - - - -
 72
65
 73
2
 40
0.2
 49
0.1
 74
0
 49
-0.1
 74
0
  0
LTYPE
  5
1F7
100
AcDbSymbolTableRecord
100
AcDbLinetypeTableRecord
  2
PHANTOM
 70
64
  3
_____ _ _ _____ _ _ _____ _ _ _____
 72
65
 73
6
 40
0.8
 49
0.45
 74
0
 49
-0.05
 74
0
 49
0.1
 74
0
 49
-0.05
 74
0
 49
0.1
 74
0
 49
-0.05
 74
0
  0
LTYPE
  5
1F8
100
AcDbSymbolTableRecord
100
AcDbLinetypeTableRecord
  2
DOT
 70
64
  3
. . . . . . . . . . . . . . . . . . . .
 72
65
 73
2
 40
0.2
 49
0.1
 74
0
 49
-0.1
 74
0
  0
LTYPE
  5
1F9
100
AcDbSymbolTableRecord
100
AcDbLinetypeTableRecord
  2
DASHED
 70
64
  3
- - - - - - - - - - - - - - - - - - - -
 72
65
 73
2
 40
0.2
 49
0.1
 74
0
 49
-0.1
 74
0
  0
ENDTAB
  0
TABLE
  2
LAYER
  5
2
100
AcDbSymbolTable
 70
36
  0
LAYER
  5
10
100
AcDbSymbolTableRecord
100
AcDbLayerTableRecord
  2
0
 70
0
 62
7
  6
CONTINUOUS
370
-3
390
F
  0
LAYER
  5
1FA
100
AcDbSymbolTableRecord
100
AcDbLayerTableRecord
  2
DEFAULT_1
 70
0
 62
7
  6
CENTER
370
-3
390
F
  0
LAYER
  5
1FB
100
AcDbSymbolTableRecord
100
AcDbLayerTableRecord
  2
DEFAULT_2
 70
0
 62
8
  6
HIDDEN
370
-3
390
F
  0
LAYER
  5
1FC
100
AcDbSymbolTableRecord
100
AcDbLayerTableRecord
  2
DEFAULT_3
 70
0
 62
7
  6
PHANTOM
370
-3
390
F
  0
LAYER
  5
1FD
100
AcDbSymbolTableRecord
100
AcDbLayerTableRecord
  2
ALL_FEATURES
 70
0
 62
7
  6
CONTINUOUS
370
-3
390
F
  0
LAYER
  5
1FE
100
AcDbSymbolTableRecord
100
AcDbLayerTableRecord
  2
AXES_FEATURES
 70
0
 62
7
  6
CONTINUOUS
370
-3
390
F
  0
LAYER
  5
1FF
100
AcDbSymbolTableRecord
100
AcDbLayerTableRecord
  2
DIMENSIONS
 70
0
 62
7
  6
CONTINUOUS
370
-3
390
F
  0
ENDTAB
  0
TABLE
  2
STYLE
  5
3
100
AcDbSymbolTable
 70
1
  0
STYLE
  5
11
100
AcDbSymbolTableRecord
100
AcDbTextStyleTableRecord
  2
STANDARD
 70
0
 40
0.0
 41
0.8
 50
0.0
 71
0
 42
0.2
  3
txt
  4

  0
STYLE
  5
200
100
AcDbSymbolTableRecord
100
AcDbTextStyleTableRecord
  2
TEXTSTYLE_1
 70
0
 40
0.0
 41
0.8
 50
0.0
 71
0
 42
0.2
  3
gdt
  4

  0
ENDTAB
  0
TABLE
  2
VIEW
  5
6
100
AcDbSymbolTable
 70
0
  0
ENDTAB
  0
TABLE
  2
UCS
  5
7
100
AcDbSymbolTable
 70
0
  0
ENDTAB
  0
TABLE
  2
APPID
  5
9
100
AcDbSymbolTable
 70
1
  0
APPID
  5
201
100
AcDbSymbolTableRecord
100
AcDbRegAppTableRecord
  2
ACAD
 70
0
  0
ENDTAB
  0
TABLE
  2
BLOCK_RECORD
  5
1
100
AcDbSymbolTable
 70
0
  0
BLOCK_RECORD
  5
202
100
AcDbSymbolTableRecord
100
AcDbBlockTableRecord
  2
*Model_Space
  0
BLOCK_RECORD
  5
203
100
AcDbSymbolTableRecord
100
AcDbBlockTableRecord
  2
*Paper_Space
  0
BLOCK_RECORD
  5
204
100
AcDbSymbolTableRecord
100
AcDbBlockTableRecord
  2
_FILLED
  0
ENDTAB
  0
TABLE
  2
DIMSTYLE
  5
A
100
AcDbSymbolTable
 70
1
100
AcDbDimStyleTable
 71
0
  0
DIMSTYLE
105
205
100
AcDbSymbolTableRecord
100
AcDbDimStyleTableRecord
  2
STANDARD
 70
0
  3

  4

 40
1.0
 41
0.1
 42
0.0625
 43
0.38
 44
0.125
 45
0.0
 46
0.0
 47
0.001
 48
0.001
140
0.08
141
0.09
142
0.0
143
25.4
144
1.0
145
0.0
146
1.0
147
0.09
 71
1.0
 72
0.0
 73
1
 74
1
 75
0
 76
0
 77
0
 78
4
 79
1
170
1
171
2
172
0
173
0
174
0
175
0
176
0
177
0
178
0
270
2
179
3
271
3
272
3
273
2
274
2
275
0
280
0
281
0
282
0
283
1
284
4
285
0
286
0
287
3
288
0
340
11
278
46
341
204
342
204
343
204
344
204
  0
ENDTAB
  0
ENDSEC
  0
SECTION
  2
BLOCKS
  0
BLOCK
  5
20
100
AcDbEntity
  8
0
100
AcDbBlockBegin
  2
*Model_Space
 70
0
 10
0.0
 20
0.0
 30
0.0
  3
*Model_Space
  1

  0
ENDBLK
  5
21
100
AcDbEntity
  8
0
100
AcDbBlockEnd
  0
BLOCK
  5
1C
100
AcDbEntity
  8
0
100
AcDbBlockBegin
  2
*Paper_Space
 70
0
 10
0.0
 20
0.0
 30
0.0
  3
*Paper_Space
  1

  0
ENDBLK
  5
1D
100
AcDbEntity
  8
0
100
AcDbBlockEnd
  0
BLOCK
  5
206
100
AcDbEntity
  8
0
100
AcDbBlockBegin
  2
_FILLED
 70
64
 10
0.0
 20
0.0
  3
_FILLED
  1

  0
SOLID
  5
207
100
AcDbEntity
  8
0
  6
BYBLOCK
 62
0
100
AcDbTrace
 10
0.0
 20
0.0
 11
-1.0
 21
0.2
 12
-1.0
 22
-0.2
 13
-1.0
 23
-0.2
  0
ENDBLK
  5
208
100
AcDbEntity
  8
0
  6
BYBLOCK
 62
0
100
AcDbBlockEnd
  0
ENDSEC
  0
SECTION
  2
ENTITIES
  0
LWPOLYLINE
  5
209
100
AcDbEntity
  8
0
100
AcDbPolyline
 62
7
  6
CONTINUOUS
 90
6
 70
0
 10
10.4150637398
 20
8.1156361592
 10
10.4376313359
 20
7.9085673327
 10
10.4611565953
 20
7.6654818437
 10
10.4834335901
 20
7.4026750937
 10
10.5034840524
 20
7.1272007431
 10
10.5197130563
 20
6.8599250114
  0
LINE
  5
20A
100
AcDbEntity
  8
0
100
AcDbLine
 62
7
  6
CONTINUOUS
 10
10.5197128826
 20
6.8599281944
 11
10.5197130563
 21
6.8599250114
  0
LWPOLYLINE
  5
20B
100
AcDbEntity
  8
0
100
AcDbPolyline
 62
7
  6
CONTINUOUS
 90
8
 70
0
 10
10.5197128826
 20
6.8599281944
 10
10.5346599643
 20
6.5396651718
 10
10.5441659518
 20
6.2090965456
 10
10.5463590315
 20
5.8874906306
 10
10.540860342
 20
5.5794788956
 10
10.5293294283
 20
5.2894490683
 10
10.5137391
 20
5.0222211009
 10
10.4968766346
 20
4.7908948816
  0
LWPOLYLINE
  5
20C
100
AcDbEntity
  8
0
100
AcDbPolyline
 62
7
  6
CONTINUOUS
 90
5
 70
0
 10
10.2813351425
 20
8.9772940299
 10
10.2997165914
 20
8.8987582761
 10
10.3256445505
 20
8.7620986649
 10
10.3558395209
 20
8.5717354133
 10
10.3882561794
 20
8.3357660006
  0
LWPOLYLINE
  5
20D
100
AcDbEntity
  8
0
100
AcDbPolyline
 62
7
  6
CONTINUOUS
 90
3
 70
0
 10
10.3882561794
 20
8.3357660006
 10
10.3964662691
 20
8.2710469417
 10
10.4061553225
 20
8.1915389676
  0
LINE
  5
20E
100
AcDbEntity
  8
0
100
AcDbLine
 62
7
  6
CONTINUOUS
 10
10.4061553225
 20
8.1915389676
 11
10.4150637398
 21
8.1156361592
  0
LINE
  5
20F
100
AcDbEntity
  8
0
100
AcDbLine
 62
9
  6
CONTINUOUS
 10
11.047317802
 20
6.9438969129
 11
11.0473181414
 21
9.433816724
  0
LINE
  5
210
100
AcDbEntity
  8
0
100
AcDbLine
 62
9
  6
CONTINUOUS
 10
11.0473183387
 20
4.003793114
 11
11.0473183609
 21
4.290643364
  0
LINE
  5
211
100
AcDbEntity
  8
0
100
AcDbLine
 62
9
  6
CONTINUOUS
 10
11.0473183157
 20
10.308816724
 11
11.0473183117
 21
10.578816724
  0
LWPOLYLINE
  5
212
100
AcDbEntity
  8
0
100
AcDbPolyline
 62
7
  6
CONTINUOUS
 90
4
 70
0
 10
10.4968788493
 20
4.7909230635
 10
10.49175049
 20
4.7265786876
 10
10.4859483075
 20
4.6552577007
 10
10.4808619906
 20
4.5930412219
  0
LINE
  5
213
100
AcDbEntity
  8
0
100
AcDbLine
 62
7
  6
CONTINUOUS
 10
10.4808619906
 20
4.5930412219
 11
10.4797849085
 21
4.579826861
  0
LWPOLYLINE
  5
214
100
AcDbEntity
  8
0
100
AcDbPolyline
 62
7
  6
CONTINUOUS
 90
3
 70
0
 10
10.2719481444
 20
9.0103577559
 10
10.2710857075
 20
9.0126754411
 10
10.2733204127
 20
9.005600824
  0
LINE
  5
215
100
AcDbEntity
  8
0
100
AcDbLine
 62
7
  6
CONTINUOUS
 10
10.2733204127
 20
9.005600824
 11
10.2812882706
 21
8.9774694209
  0
LINE
  5
216
100
AcDbEntity
  8
0
100
AcDbLine
 62
7
  6
CONTINUOUS
 10
10.2812882706
 20
8.9774694209
 11
10.2813351425
 21
8.9772940299
  0
LINE
  5
217
100
AcDbEntity
  8
0
100
AcDbLine
 62
7
  6
CONTINUOUS
 10
11.6148517672
 20
4.5798268712
 11
11.6137779779
 21
4.5930007677
  0
LINE
  5
218
100
AcDbEntity
  8
0
100
AcDbLine
 62
7
  6
CONTINUOUS
 10
11.6137779779
 20
4.5930007677
 11
11.6086883691
 21
4.6552577007
  0
LWPOLYLINE
  5
219
100
AcDbEntity
  8
0
100
AcDbPolyline
 62
7
  6
CONTINUOUS
 90
3
 70
0
 10
11.6086883691
 20
4.6552577007
 10
11.6028861866
 20
4.7265786876
 10
11.5977578273
 20
4.7909230635
  0
LWPOLYLINE
  5
21A
100
AcDbEntity
  8
0
100
AcDbPolyline
 62
7
  6
CONTINUOUS
 90
8
 70
0
 10
11.5977600419
 20
4.7908948816
 10
11.5808975765
 20
5.0222211009
 10
11.5653072482
 20
5.2894490683
 10
11.5537763345
 20
5.5794788956
 10
11.548277645
 20
5.8874906306
 10
11.5504707247
 20
6.2090965456
 10
11.5599767123
 20
6.5396651718
 10
11.5749237939
 20
6.8599281944
  0
LINE
  5
21B
100
AcDbEntity
  8
0
100
AcDbLine
 62
7
  6
CONTINUOUS
 10
11.813348406
 20
8.9774694209
 11
11.8133015341
 21
8.9772940299
  0
LWPOLYLINE
  5
21C
100
AcDbEntity
  8
0
100
AcDbPolyline
 62
7
  6
CONTINUOUS
 90
3
 70
0
 10
11.813348406
 20
8.9774694209
 10
11.8213162638
 20
9.005600824
 10
11.8234178833
 20
9.0122453634
  0
LINE
  5
21D
100
AcDbEntity
  8
0
100
AcDbLine
 62
7
  6
CONTINUOUS
 10
11.5749237939
 20
6.8599281944
 11
11.5749236203
 21
6.8599250114
  0
LWPOLYLINE
  5
21E
100
AcDbEntity
  8
0
100
AcDbPolyline
 62
7
  6
CONTINUOUS
 90
6
 70
0
 10
11.5749236203
 20
6.8599250114
 10
11.5911526241
 20
7.1272007431
 10
11.6112030864
 20
7.4026750937
 10
11.6334800813
 20
7.6654818437
 10
11.6570053407
 20
7.9085673327
 10
11.6795729367
 20
8.1156361592
  0
LWPOLYLINE
  5
21F
100
AcDbEntity
  8
0
100
AcDbPolyline
 62
7
  6
CONTINUOUS
 90
3
 70
0
 10
11.6795729367
 20
8.1156361592
 10
11.6884813541
 20
8.1915389676
 10
11.6981704074
 20
8.2710469417
  0
LINE
  5
220
100
AcDbEntity
  8
0
100
AcDbLine
 62
7
  6
CONTINUOUS
 10
11.7063804971
 20
8.3357660006
 11
11.6981704074
 21
8.2710469417
  0
LWPOLYLINE
  5
221
100
AcDbEntity
  8
0
100
AcDbPolyline
 62
7
  6
CONTINUOUS
 90
5
 70
0
 10
11.7063804971
 20
8.3357660006
 10
11.7387971556
 20
8.5717354133
 10
11.7689921261
 20
8.7620986649
 10
11.7949200852
 20
8.8987582761
 10
11.8133015341
 20
8.9772940299
  0
ARC
  5
222
100
AcDbEntity
  8
0
100
AcDbCircle
 62
9
  6
CONTINUOUS
 10
10.9518413151
 20
4.5546902135
 40
0.4725381716
100
AcDbArc
 50
175.3496979426
 51
176.9514545756
  0
CIRCLE
  5
223
100
AcDbEntity
  8
0
100
AcDbCircle
 62
7
  6
CONTINUOUS
 10
7.0473183383
 20
9.536316724
 40
1.17
  0
CIRCLE
  5
224
100
AcDbEntity
  8
0
100
AcDbCircle
 62
9
  6
CONTINUOUS
 10
7.0473183383
 20
9.536316724
 40
1.1043717104
  0
CIRCLE
  5
225
100
AcDbEntity
  8
0
100
AcDbCircle
 62
9
  6
CONTINUOUS
 10
7.0473183383
 20
9.536316724
 40
1.0719223696
  0
CIRCLE
  5
226
100
AcDbEntity
  8
0
100
AcDbCircle
 62
9
  6
CONTINUOUS
 10
7.0473183383
 20
9.536316724
 40
1.0407459276
  0
CIRCLE
  5
227
100
AcDbEntity
  8
0
100
AcDbCircle
 62
9
  6
CONTINUOUS
 10
7.0473183383
 20
9.536316724
 40
1.0164705063
  0
CIRCLE
  5
228
100
AcDbEntity
  8
0
100
AcDbCircle
 62
9
  6
CONTINUOUS
 10
7.0473183383
 20
9.536316724
 40
0.9793435571
  0
CIRCLE
  5
229
100
AcDbEntity
  8
0
100
AcDbCircle
 62
9
  6
CONTINUOUS
 10
7.0473183383
 20
9.536316724
 40
0.9519481536
  0
CIRCLE
  5
22A
100
AcDbEntity
  8
0
100
AcDbCircle
 62
9
  6
CONTINUOUS
 10
7.0473183383
 20
9.536316724
 40
0.9418237702
  0
CIRCLE
  5
22B
100
AcDbEntity
  8
0
100
AcDbCircle
 62
7
  6
CONTINUOUS
 10
7.0473183383
 20
9.536316724
 40
0.8187389754
  0
CIRCLE
  5
22C
100
AcDbEntity
  8
0
100
AcDbCircle
 62
9
  6
CONTINUOUS
 10
7.0473183383
 20
9.536316724
 40
0.7877475635
  0
CIRCLE
  5
22D
100
AcDbEntity
  8
0
100
AcDbCircle
 62
9
  6
CONTINUOUS
 10
7.0473183383
 20
9.536316724
 40
0.5244951005
  0
CIRCLE
  5
22E
100
AcDbEntity
  8
0
100
AcDbCircle
 62
9
  6
CONTINUOUS
 10
7.0473183383
 20
9.536316724
 40
0.4346655436
  0
CIRCLE
  5
22F
100
AcDbEntity
  8
0
100
AcDbCircle
 62
9
  6
CONTINUOUS
 10
7.0473183383
 20
9.536316724
 40
0.4101566489
  0
CIRCLE
  5
230
100
AcDbEntity
  8
0
100
AcDbCircle
 62
9
  6
CONTINUOUS
 10
7.0473183383
 20
9.536316724
 40
0.3313720138
  0
CIRCLE
  5
231
100
AcDbEntity
  8
0
100
AcDbCircle
 62
7
  6
CONTINUOUS
 10
7.0473183383
 20
9.536316724
 40
0.304
  0
ARC
  5
232
100
AcDbEntity
  8
0
100
AcDbCircle
 62
7
  6
CONTINUOUS
 10
7.0473183383
 20
9.536316724
 40
0.2812599991
100
AcDbArc
 50
0.0
 51
83.7854650567
  0
ARC
  5
233
100
AcDbEntity
  8
0
100
AcDbCircle
 62
7
  6
CONTINUOUS
 10
7.0476128457
 20
9.5358418851
 40
0.280877143
100
AcDbArc
 50
352.2846176411
 51
353.8752540186
  0
ARC
  5
234
100
AcDbEntity
  8
0
100
AcDbCircle
 62
7
  6
CONTINUOUS
 10
7.0473183383
 20
9.536316724
 40
0.2542
100
AcDbArc
 50
50.2863052764
 51
46.4674084149
  0
ARC
  5
235
100
AcDbEntity
  8
0
100
AcDbCircle
 62
7
  6
CONTINUOUS
 10
7.04788837
 20
9.5413722235
 40
0.2812871569
100
AcDbArc
 50
342.3863040841
 51
351.3200491994
  0
ARC
  5
236
100
AcDbEntity
  8
0
100
AcDbCircle
 62
7
  6
CONTINUOUS
 10
7.0507873818
 20
9.535390348
 40
0.2776707263
100
AcDbArc
 50
346.6291518254
 51
352.2890046992
  0
ARC
  5
237
100
AcDbEntity
  8
0
100
AcDbCircle
 62
7
  6
CONTINUOUS
 10
7.0492989909
 20
9.5411521141
 40
0.2798594745
100
AcDbArc
 50
351.3210123921
 51
352.757393833
  0
ARC
  5
238
100
AcDbEntity
  8
0
100
AcDbCircle
 62
7
  6
CONTINUOUS
 10
7.0494831931
 20
9.5408921162
 40
0.2796220184
100
AcDbArc
 50
337.977841311
 51
340.9938743655
  0
ARC
  5
239
100
AcDbEntity
  8
0
100
AcDbCircle
 62
7
  6
CONTINUOUS
 10
7.0495707017
 20
9.5408543101
 40
0.2795269768
100
AcDbArc
 50
341.2035679905
 51
342.3831399059
  0
ARC
  5
23A
100
AcDbEntity
  8
0
100
AcDbCircle
 62
7
  6
CONTINUOUS
 10
7.049929442
 20
9.5407339457
 40
0.2791485861
100
AcDbArc
 50
340.9947401448
 51
341.2032306967
  0
ARC
  5
23B
100
AcDbEntity
  8
0
100
AcDbCircle
 62
7
  6
CONTINUOUS
 10
11.0473183383
 20
9.536316724
 40
1.4245538829
100
AcDbArc
 50
297.2661631875
 51
242.7338368125
  0
ARC
  5
23C
100
AcDbEntity
  8
0
100
AcDbCircle
 62
7
  6
CONTINUOUS
 10
11.0473183383
 20
9.536316724
 40
1.3264272236
100
AcDbArc
 50
300.2091590518
 51
239.7908409483
  0
ARC
  5
23D
100
AcDbEntity
  8
0
100
AcDbCircle
 62
7
  6
CONTINUOUS
 10
11.0473183383
 20
9.536316724
 40
1.2263140426
100
AcDbArc
 50
303.9819705962
 51
236.0180294038
  0
ARC
  5
23E
100
AcDbEntity
  8
0
100
AcDbCircle
 62
9
  6
CONTINUOUS
 10
11.0473183383
 20
9.536316724
 40
1.1431802509
100
AcDbArc
 50
307.978023373
 51
232.0133325667
  0
ARC
  5
23F
100
AcDbEntity
  8
0
100
AcDbCircle
 62
9
  6
CONTINUOUS
 10
11.0473183383
 20
9.536316724
 40
1.1076013391
100
AcDbArc
 50
309.9096168245
 51
230.0706289702
  0
CIRCLE
  5
240
100
AcDbEntity
  8
0
100
AcDbCircle
 62
7
  6
CONTINUOUS
 10
11.0473183383
 20
9.871316724
 40
0.4375
  0
CIRCLE
  5
241
100
AcDbEntity
  8
0
100
AcDbCircle
 62
7
  6
CONTINUOUS
 10
11.0473183383
 20
9.871316724
 40
0.406
  0
CIRCLE
  5
242
100
AcDbEntity
  8
0
100
AcDbCircle
 62
9
  6
CONTINUOUS
 10
11.0473183383
 20
9.871316724
 40
0.3749999988
  0
CIRCLE
  5
243
100
AcDbEntity
  8
0
100
AcDbCircle
 62
7
  6
CONTINUOUS
 10
11.0473183383
 20
9.871316724
 40
0.373
  0
CIRCLE
  5
244
100
AcDbEntity
  8
0
100
AcDbCircle
 62
9
  6
CONTINUOUS
 10
11.0473183383
 20
9.871316724
 40
0.3486511907
  0
ARC
  5
245
100
AcDbEntity
  8
0
100
AcDbCircle
 62
9
  6
CONTINUOUS
 10
11.1427953457
 20
4.5546902123
 40
0.4725381874
100
AcDbArc
 50
3.048571287
 51
4.6503012636
  0
CIRCLE
  5
246
100
AcDbEntity
  8
0
100
AcDbCircle
 62
7
  6
CONTINUOUS
 10
15.0473183383
 20
9.536316724
 40
1.17
  0
CIRCLE
  5
247
100
AcDbEntity
  8
0
100
AcDbCircle
 62
9
  6
CONTINUOUS
 10
15.0473183383
 20
9.536316724
 40
1.1043717104
  0
CIRCLE
  5
248
100
AcDbEntity
  8
0
100
AcDbCircle
 62
9
  6
CONTINUOUS
 10
15.0473183383
 20
9.536316724
 40
1.0719223696
  0
CIRCLE
  5
249
100
AcDbEntity
  8
0
100
AcDbCircle
 62
9
  6
CONTINUOUS
 10
15.0473183383
 20
9.536316724
 40
1.0407459276
  0
CIRCLE
  5
24A
100
AcDbEntity
  8
0
100
AcDbCircle
 62
9
  6
CONTINUOUS
 10
15.0473183383
 20
9.536316724
 40
1.0164705063
  0
CIRCLE
  5
24B
100
AcDbEntity
  8
0
100
AcDbCircle
 62
9
  6
CONTINUOUS
 10
15.0473183383
 20
9.536316724
 40
0.9793435571
  0
CIRCLE
  5
24C
100
AcDbEntity
  8
0
100
AcDbCircle
 62
9
  6
CONTINUOUS
 10
15.0473183383
 20
9.536316724
 40
0.9519481536
  0
CIRCLE
  5
24D
100
AcDbEntity
  8
0
100
AcDbCircle
 62
9
  6
CONTINUOUS
 10
15.0473183383
 20
9.536316724
 40
0.9418237702
  0
CIRCLE
  5
24E
100
AcDbEntity
  8
0
100
AcDbCircle
 62
7
  6
CONTINUOUS
 10
15.0473183383
 20
9.536316724
 40
0.8187389754
  0
CIRCLE
  5
24F
100
AcDbEntity
  8
0
100
AcDbCircle
 62
9
  6
CONTINUOUS
 10
15.0473183383
 20
9.536316724
 40
0.7877475635
  0
CIRCLE
  5
250
100
AcDbEntity
  8
0
100
AcDbCircle
 62
9
  6
CONTINUOUS
 10
15.0473183383
 20
9.536316724
 40
0.5244951005
  0
CIRCLE
  5
251
100
AcDbEntity
  8
0
100
AcDbCircle
 62
9
  6
CONTINUOUS
 10
15.0473183383
 20
9.536316724
 40
0.4346655436
  0
CIRCLE
  5
252
100
AcDbEntity
  8
0
100
AcDbCircle
 62
9
  6
CONTINUOUS
 10
15.0473183383
 20
9.536316724
 40
0.4101566489
  0
CIRCLE
  5
253
100
AcDbEntity
  8
0
100
AcDbCircle
 62
9
  6
CONTINUOUS
 10
15.0473183383
 20
9.536316724
 40
0.3313720138
  0
CIRCLE
  5
254
100
AcDbEntity
  8
0
100
AcDbCircle
 62
7
  6
CONTINUOUS
 10
15.0473183383
 20
9.536316724
 40
0.304
  0
ARC
  5
255
100
AcDbEntity
  8
0
100
AcDbCircle
 62
7
  6
CONTINUOUS
 10
15.0473183383
 20
9.536316724
 40
0.2812599991
100
AcDbArc
 50
0.0
 51
83.7854650567
  0
ARC
  5
256
100
AcDbEntity
  8
0
100
AcDbCircle
 62
7
  6
CONTINUOUS
 10
15.0476128457
 20
9.5358418851
 40
0.280877143
100
AcDbArc
 50
352.2846176411
 51
353.8752540186
  0
ARC
  5
257
100
AcDbEntity
  8
0
100
AcDbCircle
 62
7
  6
CONTINUOUS
 10
15.0473183383
 20
9.536316724
 40
0.2542
100
AcDbArc
 50
50.2863052764
 51
46.4674084149
  0
ARC
  5
258
100
AcDbEntity
  8
0
100
AcDbCircle
 62
7
  6
CONTINUOUS
 10
15.04788837
 20
9.5413722235
 40
0.2812871569
100
AcDbArc
 50
342.3863040841
 51
351.3200491994
  0
ARC
  5
259
100
AcDbEntity
  8
0
100
AcDbCircle
 62
7
  6
CONTINUOUS
 10
15.0507873818
 20
9.535390348
 40
0.2776707263
100
AcDbArc
 50
346.6291518254
 51
352.2890046992
  0
ARC
  5
25A
100
AcDbEntity
  8
0
100
AcDbCircle
 62
7
  6
CONTINUOUS
 10
15.049298991
 20
9.5411521141
 40
0.2798594745
100
AcDbArc
 50
351.321012392
 51
352.757393833
  0
ARC
  5
25B
100
AcDbEntity
  8
0
100
AcDbCircle
 62
7
  6
CONTINUOUS
 10
15.0494831931
 20
9.5408921162
 40
0.2796220184
100
AcDbArc
 50
337.977841311
 51
340.9938743654
  0
ARC
  5
25C
100
AcDbEntity
  8
0
100
AcDbCircle
 62
7
  6
CONTINUOUS
 10
15.0495707017
 20
9.5408543101
 40
0.2795269767
100
AcDbArc
 50
341.2035679905
 51
342.383139906
  0
ARC
  5
25D
100
AcDbEntity
  8
0
100
AcDbCircle
 62
7
  6
CONTINUOUS
 10
15.0499294419
 20
9.5407339457
 40
0.2791485862
100
AcDbArc
 50
340.9947401447
 51
341.2032306966
  0
SPLINE
  5
25E
100
AcDbEntity
  8
0
100
AcDbSpline
 62
7
  6
CONTINUOUS
 70
0
 71
3
 72
11
 73
7
 74
0
 42
0.0000001
 43
0.0000001
 44
0.0000000001
 40
0.0
 40
0.0
 40
0.0
 40
0.0
 40
0.2499980777
 40
0.5000025178
 40
0.750000608
 40
1.0
 40
1.0
 40
1.0
 40
1.0
 10
15.3285783372
 20
9.536316724
 30
0.0
 10
15.3285800007
 20
9.5337746112
 30
0.0
 10
15.3285091708
 20
9.5286900444
 30
0.0
 10
15.3282000515
 20
9.5210690486
 30
0.0
 10
15.327681898
 20
9.5134592627
 30
0.0
 10
15.3271967863
 20
9.5083975765
 30
0.0
 10
15.3269255302
 20
9.5058699634
 30
0.0
  0
SPLINE
  5
25F
100
AcDbEntity
  8
0
100
AcDbSpline
 62
7
  6
CONTINUOUS
 70
0
 71
3
 72
32
 73
28
 74
0
 42
0.0000001
 43
0.0000001
 44
0.0000000001
 40
0.0
 40
0.0
 40
0.0
 40
0.0
 40
0.062464232
 40
0.0937385632
 40
0.1250010255
 40
0.1562579053
 40
0.1875159719
 40
0.2499958326
 40
0.2812551838
 40
0.3125134483
 40
0.3437708773
 40
0.3750285144
 40
0.4062866421
 40
0.4375451061
 40
0.5000226189
 40
0.5625012594
 40
0.5937609005
 40
0.6250202529
 40
0.6562790215
 40
0.6875366787
 40
0.7500128426
 40
0.8124920474
 40
0.8437478244
 40
0.875001995
 40
0.9062623618
 40
0.9375346365
 40
1.0
 40
1.0
 40
1.0
 40
1.0
 10
15.2224029299
 20
9.7206073255
 30
0.0
 10
15.2134327592
 20
9.7294793169
 30
0.0
 10
15.1989403305
 20
9.741806341
 30
0.0
 10
15.1779992542
 20
9.755937793
 30
0.0
 10
15.16153624
 20
9.7653487608
 30
0.0
 10
15.1444260924
 20
9.7735153579
 30
0.0
 10
15.1208829374
 20
9.7826794976
 30
0.0
 10
15.0963818318
 20
9.7892110706
 30
0.0
 10
15.0714007151
 20
9.7929815556
 30
0.0
 10
15.0524972558
 20
9.7944288441
 30
0.0
 10
15.0335401796
 20
9.7944840075
 30
0.0
 10
15.0146302722
 20
9.7931472246
 30
0.0
 10
14.9958674403
 20
9.790433051
 30
0.0
 10
14.9711946369
 20
9.7849945358
 30
0.0
 10
14.9411943956
 20
9.7748416557
 30
0.0
 10
14.9129902174
 20
9.7604340196
 30
0.0
 10
14.8918709947
 20
9.746565877
 30
0.0
 10
14.8768208448
 20
9.7350371797
 30
0.0
 10
14.8626427016
 20
9.7224522286
 30
0.0
 10
14.8450123251
 20
9.7043563069
 30
0.0
 10
14.8254920191
 20
9.6794191114
 30
0.0
 10
14.8097600018
 20
9.6519359133
 30
0.0
 10
14.7996356249
 20
9.6287898361
 30
0.0
 10
14.7933057551
 20
9.6109216237
 30
0.0
 10
14.7882675888
 20
9.5926428062
 30
0.0
 10
14.783313996
 20
9.5678718555
 30
0.0
 10
14.7815950472
 20
9.5489312773
 30
0.0
 10
14.7813605127
 20
9.536316724
 30
0.0
  0
SPLINE
  5
260
100
AcDbEntity
  8
0
100
AcDbSpline
 62
7
  6
CONTINUOUS
 70
0
 71
3
 72
38
 73
34
 74
0
 42
0.0000001
 43
0.0000001
 44
0.0000000001
 40
0.0
 40
0.0
 40
0.0
 40
0.0
 40
0.0624375692
 40
0.0937002613
 40
0.124952289
 40
0.1562027647
 40
0.1874563595
 40
0.2187101871
 40
0.2499620938
 40
0.2812130973
 40
0.3124636732
 40
0.3437150364
 40
0.3749666825
 40
0.4062193507
 40
0.4374722473
 40
0.4687246087
 40
0.4999762743
 40
0.5312269159
 40
0.5624778486
 40
0.5937288347
 40
0.6249806734
 40
0.6562328749
 40
0.6874853886
 40
0.7187381651
 40
0.7499902449
 40
0.7812421026
 40
0.812493158
 40
0.8437445069
 40
0.87499644
 40
0.9062489246
 40
0.9375004699
 40
0.9687488062
 40
1.0
 40
1.0
 40
1.0
 40
1.0
 10
14.7813605127
 20
9.536316724
 30
0.0
 10
14.7810674918
 20
9.5205564523
 30
0.0
 10
14.7827328929
 20
9.4967953863
 30
0.0
 10
14.7891029725
 20
9.4658711981
 30
0.0
 10
14.7959235072
 20
9.4431679572
 30
0.0
 10
14.8047210253
 20
9.4211614592
 30
0.0
 10
14.8154259452
 20
9.4000158406
 30
0.0
 10
14.8279454211
 20
9.3798911118
 30
0.0
 10
14.8421902262
 20
9.3609492286
 30
0.0
 10
14.8580377917
 20
9.343327752
 30
0.0
 10
14.8753716491
 20
9.3271662487
 30
0.0
 10
14.894051375
 20
9.3125813372
 30
0.0
 10
14.9139344998
 20
9.2996839406
 30
0.0
 10
14.9348675496
 20
9.2885712609
 30
0.0
 10
14.9566860837
 20
9.2793168726
 30
0.0
 10
14.9792269079
 20
9.2719967002
 30
0.0
 10
15.0023157202
 20
9.2666533935
 30
0.0
 10
15.0257811986
 20
9.2633366239
 30
0.0
 10
15.0494450705
 20
9.2620602326
 30
0.0
 10
15.0731311079
 20
9.2628332723
 30
0.0
 10
15.0966621158
 20
9.2656473345
 30
0.0
 10
15.1198648841
 20
9.2704722126
 30
0.0
 10
15.1425657087
 20
9.2772783548
 30
0.0
 10
15.1646012281
 20
9.2860006671
 30
0.0
 10
15.1858068057
 20
9.2965817907
 30
0.0
 10
15.2060307643
 20
9.3089347733
 30
0.0
 10
15.2251253905
 20
9.3229703728
 30
0.0
 10
15.2429510224
 20
9.3385856571
 30
0.0
 10
15.2593856823
 20
9.3556593669
 30
0.0
 10
15.2743048161
 20
9.3740718398
 30
0.0
 10
15.2876122647
 20
9.3936800242
 30
0.0
 10
15.299207233
 20
9.4143447999
 30
0.0
 10
15.3057453735
 20
9.4287295472
 30
0.0
 10
15.308703684
 20
9.4360436052
 30
0.0
  0
SPLINE
  5
261
100
AcDbEntity
  8
0
100
AcDbSpline
 62
7
  6
CONTINUOUS
 70
0
 71
3
 72
15
 73
11
 74
0
 42
0.0000001
 43
0.0000001
 44
0.0000000001
 40
0.0
 40
0.0
 40
0.0
 40
0.0
 40
0.1249646507
 40
0.2499392175
 40
0.3749286094
 40
0.4999170191
 40
0.6249256524
 40
0.7499382619
 40
0.8749650515
 40
1.0
 40
1.0
 40
1.0
 40
1.0
 10
15.3014380828
 20
9.542703855
 30
0.0
 10
15.302227434
 20
9.5587304555
 30
0.0
 10
15.3007269966
 20
9.5910155532
 30
0.0
 10
15.2895185947
 20
9.6381087458
 30
0.0
 10
15.269809233
 20
9.6823354019
 30
0.0
 10
15.2424407782
 20
9.7222722606
 30
0.0
 10
15.2083101426
 20
9.7566064273
 30
0.0
 10
15.1686653403
 20
9.7843883124
 30
0.0
 10
15.1247793585
 20
9.8047940128
 30
0.0
 10
15.0935741489
 20
9.8131237421
 30
0.0
 10
15.0777651694
 20
9.8159239084
 30
0.0
  0
SPLINE
  5
262
100
AcDbEntity
  8
0
100
AcDbSpline
 62
7
  6
CONTINUOUS
 70
0
 71
3
 72
11
 73
7
 74
0
 42
0.0000001
 43
0.0000001
 44
0.0000000001
 40
0.0
 40
0.0
 40
0.0
 40
0.0
 40
0.2499980777
 40
0.5000025178
 40
0.750000608
 40
1.0
 40
1.0
 40
1.0
 40
1.0
 10
7.3285783372
 20
9.536316724
 30
0.0
 10
7.3285800007
 20
9.5337746112
 30
0.0
 10
7.3285091708
 20
9.5286900444
 30
0.0
 10
7.3282000515
 20
9.5210690486
 30
0.0
 10
7.327681898
 20
9.5134592627
 30
0.0
 10
7.3271967863
 20
9.5083975765
 30
0.0
 10
7.3269255302
 20
9.5058699634
 30
0.0
  0
SPLINE
  5
263
100
AcDbEntity
  8
0
100
AcDbSpline
 62
7
  6
CONTINUOUS
 70
0
 71
3
 72
32
 73
28
 74
0
 42
0.0000001
 43
0.0000001
 44
0.0000000001
 40
0.0
 40
0.0
 40
0.0
 40
0.0
 40
0.062464232
 40
0.0937385632
 40
0.1250010255
 40
0.1562579053
 40
0.1875159719
 40
0.2499958326
 40
0.2812551838
 40
0.3125134483
 40
0.3437708773
 40
0.3750285144
 40
0.4062866421
 40
0.4375451061
 40
0.5000226189
 40
0.5625012594
 40
0.5937609005
 40
0.6250202529
 40
0.6562790215
 40
0.6875366787
 40
0.7500128426
 40
0.8124920474
 40
0.8437478244
 40
0.875001995
 40
0.9062623618
 40
0.9375346365
 40
1.0
 40
1.0
 40
1.0
 40
1.0
 10
7.2224029299
 20
9.7206073255
 30
0.0
 10
7.2134327592
 20
9.7294793169
 30
0.0
 10
7.1989403305
 20
9.741806341
 30
0.0
 10
7.1779992542
 20
9.755937793
 30
0.0
 10
7.16153624
 20
9.7653487608
 30
0.0
 10
7.1444260924
 20
9.7735153579
 30
0.0
 10
7.1208829374
 20
9.7826794976
 30
0.0
 10
7.0963818318
 20
9.7892110706
 30
0.0
 10
7.0714007151
 20
9.7929815556
 30
0.0
 10
7.0524972558
 20
9.7944288441
 30
0.0
 10
7.0335401796
 20
9.7944840075
 30
0.0
 10
7.0146302722
 20
9.7931472246
 30
0.0
 10
6.9958674403
 20
9.790433051
 30
0.0
 10
6.9711946369
 20
9.7849945358
 30
0.0
 10
6.9411943956
 20
9.7748416557
 30
0.0
 10
6.9129902174
 20
9.7604340196
 30
0.0
 10
6.8918709947
 20
9.746565877
 30
0.0
 10
6.8768208448
 20
9.7350371797
 30
0.0
 10
6.8626427016
 20
9.7224522286
 30
0.0
 10
6.8450123251
 20
9.7043563069
 30
0.0
 10
6.8254920191
 20
9.6794191114
 30
0.0
 10
6.8097600018
 20
9.6519359133
 30
0.0
 10
6.7996356249
 20
9.6287898361
 30
0.0
 10
6.7933057551
 20
9.6109216237
 30
0.0
 10
6.7882675888
 20
9.5926428062
 30
0.0
 10
6.783313996
 20
9.5678718555
 30
0.0
 10
6.7815950472
 20
9.5489312773
 30
0.0
 10
6.7813605127
 20
9.536316724
 30
0.0
  0
SPLINE
  5
264
100
AcDbEntity
  8
0
100
AcDbSpline
 62
7
  6
CONTINUOUS
 70
0
 71
3
 72
38
 73
34
 74
0
 42
0.0000001
 43
0.0000001
 44
0.0000000001
 40
0.0
 40
0.0
 40
0.0
 40
0.0
 40
0.0624375692
 40
0.0937002613
 40
0.124952289
 40
0.1562027647
 40
0.1874563595
 40
0.2187101871
 40
0.2499620938
 40
0.2812130973
 40
0.3124636732
 40
0.3437150364
 40
0.3749666825
 40
0.4062193507
 40
0.4374722473
 40
0.4687246087
 40
0.4999762743
 40
0.5312269159
 40
0.5624778486
 40
0.5937288347
 40
0.6249806734
 40
0.6562328749
 40
0.6874853886
 40
0.7187381651
 40
0.7499902449
 40
0.7812421026
 40
0.812493158
 40
0.8437445069
 40
0.87499644
 40
0.9062489246
 40
0.9375004699
 40
0.9687488062
 40
1.0
 40
1.0
 40
1.0
 40
1.0
 10
6.7813605127
 20
9.536316724
 30
0.0
 10
6.7810674918
 20
9.5205564523
 30
0.0
 10
6.7827328929
 20
9.4967953863
 30
0.0
 10
6.7891029725
 20
9.4658711981
 30
0.0
 10
6.7959235072
 20
9.4431679572
 30
0.0
 10
6.8047210253
 20
9.4211614592
 30
0.0
 10
6.8154259452
 20
9.4000158406
 30
0.0
 10
6.8279454211
 20
9.3798911118
 30
0.0
 10
6.8421902262
 20
9.3609492286
 30
0.0
 10
6.8580377917
 20
9.343327752
 30
0.0
 10
6.8753716491
 20
9.3271662487
 30
0.0
 10
6.894051375
 20
9.3125813372
 30
0.0
 10
6.9139344998
 20
9.2996839406
 30
0.0
 10
6.9348675496
 20
9.2885712609
 30
0.0
 10
6.9566860837
 20
9.2793168726
 30
0.0
 10
6.9792269079
 20
9.2719967002
 30
0.0
 10
7.0023157202
 20
9.2666533935
 30
0.0
 10
7.0257811986
 20
9.2633366239
 30
0.0
 10
7.0494450705
 20
9.2620602326
 30
0.0
 10
7.0731311079
 20
9.2628332723
 30
0.0
 10
7.0966621158
 20
9.2656473345
 30
0.0
 10
7.1198648841
 20
9.2704722126
 30
0.0
 10
7.1425657087
 20
9.2772783548
 30
0.0
 10
7.1646012281
 20
9.2860006671
 30
0.0
 10
7.1858068057
 20
9.2965817907
 30
0.0
 10
7.2060307643
 20
9.3089347733
 30
0.0
 10
7.2251253905
 20
9.3229703728
 30
0.0
 10
7.2429510224
 20
9.3385856571
 30
0.0
 10
7.2593856823
 20
9.3556593669
 30
0.0
 10
7.2743048161
 20
9.3740718398
 30
0.0
 10
7.2876122647
 20
9.3936800242
 30
0.0
 10
7.299207233
 20
9.4143447999
 30
0.0
 10
7.3057453735
 20
9.4287295472
 30
0.0
 10
7.308703684
 20
9.4360436052
 30
0.0
  0
SPLINE
  5
265
100
AcDbEntity
  8
0
100
AcDbSpline
 62
7
  6
CONTINUOUS
 70
0
 71
3
 72
15
 73
11
 74
0
 42
0.0000001
 43
0.0000001
 44
0.0000000001
 40
0.0
 40
0.0
 40
0.0
 40
0.0
 40
0.1249646507
 40
0.2499392175
 40
0.3749286094
 40
0.4999170191
 40
0.6249256524
 40
0.7499382619
 40
0.8749650515
 40
1.0
 40
1.0
 40
1.0
 40
1.0
 10
7.3014380828
 20
9.542703855
 30
0.0
 10
7.302227434
 20
9.5587304555
 30
0.0
 10
7.3007269966
 20
9.5910155532
 30
0.0
 10
7.2895185947
 20
9.6381087458
 30
0.0
 10
7.269809233
 20
9.6823354019
 30
0.0
 10
7.2424407782
 20
9.7222722606
 30
0.0
 10
7.2083101426
 20
9.7566064273
 30
0.0
 10
7.1686653403
 20
9.7843883124
 30
0.0
 10
7.1247793585
 20
9.8047940128
 30
0.0
 10
7.0935741489
 20
9.8131237421
 30
0.0
 10
7.0777651694
 20
9.8159239084
 30
0.0
  0
SPLINE
  5
266
100
AcDbEntity
  8
0
100
AcDbSpline
 62
7
  6
CONTINUOUS
 70
0
 71
3
 72
25
 73
21
 74
0
 42
0.0000001
 43
0.0000001
 44
0.0000000001
 40
0.0
 40
0.0
 40
0.0
 40
0.0
 40
0.0606262161
 40
0.121277509
 40
0.1820402074
 40
0.2429817182
 40
0.2735512706
 40
0.3041922845
 40
0.3656997368
 40
0.427568809
 40
0.4898182541
 40
0.5211007025
 40
0.5524848113
 40
0.6155355776
 40
0.6789660569
 40
0.7427261675
 40
0.8067665516
 40
0.871053089
 40
0.9355206656
 40
1.0
 40
1.0
 40
1.0
 40
1.0
 10
11.6148499846
 20
4.5798267428
 30
0.0
 10
11.6163392781
 20
4.5615233289
 30
0.0
 10
11.61732252
 20
4.5247138228
 30
0.0
 10
11.6127218524
 20
4.4696599549
 30
0.0
 10
11.6021900611
 20
4.4153296413
 30
0.0
 10
11.5885713872
 20
4.3711606756
 30
0.0
 10
11.5748452667
 20
4.3367837383
 30
0.0
 10
11.5592031837
 20
4.3030459227
 30
0.0
 10
11.5361854923
 20
4.2623564438
 30
0.0
 10
11.5034577976
 20
4.2165163543
 30
0.0
 10
11.4722115671
 20
4.1811871605
 30
0.0
 10
11.4450025133
 20
4.1548725948
 30
0.0
 10
11.4162754705
 20
4.1298525426
 30
0.0
 10
11.3778315371
 20
4.1012654147
 30
0.0
 10
11.3282867526
 20
4.0716560112
 30
0.0
 10
11.2757652108
 20
4.046996904
 30
0.0
 10
11.2207917779
 20
4.0276442177
 30
0.0
 10
11.1639696033
 20
4.0137636534
 30
0.0
 10
11.1059422901
 20
4.0054592241
 30
0.0
 10
11.0668491603
 20
4.0037035707
 30
0.0
 10
11.0473183383
 20
4.003793114
 30
0.0
  0
SPLINE
  5
267
100
AcDbEntity
  8
0
100
AcDbSpline
 62
7
  6
CONTINUOUS
 70
0
 71
3
 72
25
 73
21
 74
0
 42
0.0000001
 43
0.0000001
 44
0.0000000001
 40
0.0
 40
0.0
 40
0.0
 40
0.0
 40
0.0606262851
 40
0.1212769537
 40
0.1820382238
 40
0.2429788514
 40
0.2735482766
 40
0.3041891579
 40
0.365695656
 40
0.4275631221
 40
0.4898115165
 40
0.521093756
 40
0.552477669
 40
0.615527554
 40
0.6789570434
 40
0.7427168286
 40
0.8067580672
 40
0.8710472046
 40
0.9355187111
 40
1.0
 40
1.0
 40
1.0
 40
1.0
 10
10.479790046
 20
4.5798264941
 30
0.0
 10
10.4783016417
 20
4.5615230351
 30
0.0
 10
10.4773187027
 20
4.5247139487
 30
0.0
 10
10.4819149351
 20
4.4696604973
 30
0.0
 10
10.4924454624
 20
4.4153307687
 30
0.0
 10
10.5060671354
 20
4.3711635754
 30
0.0
 10
10.5197945473
 20
4.3367876677
 30
0.0
 10
10.5354361281
 20
4.3030501791
 30
0.0
 10
10.5584500864
 20
4.2623597226
 30
0.0
 10
10.5911758284
 20
4.2165195567
 30
0.0
 10
10.6224228072
 20
4.1811922719
 30
0.0
 10
10.649632397
 20
4.1548790715
 30
0.0
 10
10.6783585057
 20
4.1298587619
 30
0.0
 10
10.716799335
 20
4.1012687731
 30
0.0
 10
10.7663426706
 20
4.0716582011
 30
0.0
 10
10.8188649117
 20
4.0470011331
 30
0.0
 10
10.87383914
 20
4.0276488216
 30
0.0
 10
10.9306623315
 20
4.0137636488
 30
0.0
 10
10.988692176
 20
4.0054588791
 30
0.0
 10
11.0277869753
 20
4.0037035682
 30
0.0
 10
11.0473183383
 20
4.003793114
 30
0.0
  0
SPLINE
  5
268
100
AcDbEntity
  8
0
100
AcDbSpline
 62
7
  6
CONTINUOUS
 70
0
 71
3
 72
37
 73
33
 74
0
 42
0.0000001
 43
0.0000001
 44
0.0000000001
 40
0.0
 40
0.0
 40
0.0
 40
0.0
 40
0.031253216
 40
0.062507456
 40
0.0937622305
 40
0.1250151903
 40
0.1562649389
 40
0.1875137543
 40
0.2187657833
 40
0.2500208514
 40
0.281276038
 40
0.3125285229
 40
0.3437784315
 40
0.3750298618
 40
0.4062842838
 40
0.4375395526
 40
0.4999999663
 40
0.562461178
 40
0.5937165473
 40
0.624970672
 40
0.6562216424
 40
0.6874714392
 40
0.7187240062
 40
0.7499791149
 40
0.7812339442
 40
0.8124859171
 40
0.8437355398
 40
0.8749870137
 40
0.9062415118
 40
0.9374967523
 40
0.9687498201
 40
1.0
 40
1.0
 40
1.0
 40
1.0
 10
11.0473183383
 20
10.578816724
 30
0.0
 10
11.0216442551
 20
10.5788167238
 30
0.0
 10
10.9702751168
 20
10.5768943465
 30
0.0
 10
10.8936622165
 20
10.5683264864
 30
0.0
 10
10.8178810847
 20
10.5541578719
 30
0.0
 10
10.743348179
 20
10.5344694583
 30
0.0
 10
10.6704704555
 20
10.5093465353
 30
0.0
 10
10.5996706696
 20
10.4788553239
 30
0.0
 10
10.5313270314
 20
10.4431916807
 30
0.0
 10
10.4657844952
 20
10.4026011023
 30
0.0
 10
10.403394268
 20
10.3573138013
 30
0.0
 10
10.3445034472
 20
10.3075660225
 30
0.0
 10
10.2894728945
 20
10.2535806905
 30
0.0
 10
10.2386218884
 20
10.1956421479
 30
0.0
 10
10.1921701809
 20
10.1341114311
 30
0.0
 10
10.1364471773
 20
10.0477992483
 30
0.0
 10
10.0789014233
 20
9.9325686709
 30
0.0
 10
10.0391722776
 20
9.8100492082
 30
0.0
 10
10.0184014078
 20
9.709433609
 30
0.0
 10
10.0083937865
 20
9.6329903725
 30
0.0
 10
10.0040465674
 20
9.5560246376
 30
0.0
 10
10.0054583325
 20
9.4789486144
 30
0.0
 10
10.0125829309
 20
9.4021882047
 30
0.0
 10
10.0253273764
 20
9.3261551063
 30
0.0
 10
10.0436127821
 20
9.2512617367
 30
0.0
 10
10.0673533781
 20
9.1779184575
 30
0.0
 10
10.0964821802
 20
9.1065450846
 30
0.0
 10
10.1308491056
 20
9.0375398902
 30
0.0
 10
10.1702014997
 20
8.9712478111
 30
0.0
 10
10.2143111341
 20
8.908018271
 30
0.0
 10
10.262939593
 20
8.8482038774
 30
0.0
 10
10.2982272517
 20
8.8108284131
 30
0.0
 10
10.3165375558
 20
8.7928349906
 30
0.0
  0
SPLINE
  5
269
100
AcDbEntity
  8
0
100
AcDbSpline
 62
7
  6
CONTINUOUS
 70
0
 71
3
 72
37
 73
33
 74
0
 42
0.0000001
 43
0.0000001
 44
0.0000000001
 40
0.0
 40
0.0
 40
0.0
 40
0.0
 40
0.0312501811
 40
0.0625032512
 40
0.0937584921
 40
0.1250129884
 40
0.1562644597
 40
0.1875140825
 40
0.2187660574
 40
0.2500208876
 40
0.2812759953
 40
0.3125285602
 40
0.3437783561
 40
0.3750293278
 40
0.4062834537
 40
0.4375388226
 40
0.5000000332
 40
0.5624604511
 40
0.59371572
 40
0.624970141
 40
0.6562215701
 40
0.6874714788
 40
0.7187239642
 40
0.7499791509
 40
0.7812342185
 40
0.8124862466
 40
0.8437350616
 40
0.8749848103
 40
0.9062377702
 40
0.9374925445
 40
0.9687467842
 40
1.0
 40
1.0
 40
1.0
 40
1.0
 10
11.77814469
 20
8.792879774
 30
0.0
 10
11.796453405
 20
8.8108738662
 30
0.0
 10
11.8317378731
 20
8.8482505106
 30
0.0
 10
11.8803615889
 20
8.9080661853
 30
0.0
 10
11.9244665313
 20
8.9712965603
 30
0.0
 10
11.9638143047
 20
9.0375890524
 30
0.0
 10
11.9981766989
 20
9.1065942664
 30
0.0
 10
12.02730107
 20
9.1779672864
 30
0.0
 10
12.051037472
 20
9.2513098217
 30
0.0
 10
12.069318911
 20
9.3262021022
 30
0.0
 10
12.0820596258
 20
9.4022337957
 30
0.0
 10
12.0891807396
 20
9.4789925176
 30
0.0
 10
12.0905892519
 20
9.5560665985
 30
0.0
 10
12.0862391129
 20
9.6330301652
 30
0.0
 10
12.0762289105
 20
9.7094710475
 30
0.0
 10
12.055455043
 20
9.8100833067
 30
0.0
 10
12.0157229268
 20
9.9325982772
 30
0.0
 10
11.9581753444
 20
10.0478241838
 30
0.0
 10
11.9024515725
 20
10.1341327012
 30
0.0
 10
11.8559996056
 20
10.1956607137
 30
0.0
 10
11.8051486409
 20
10.2535966297
 30
0.0
 10
11.7501184153
 20
10.3075794379
 30
0.0
 10
11.6912282193
 20
10.3573248565
 30
0.0
 10
11.6288388782
 20
10.4026099732
 30
0.0
 10
11.5632974643
 20
10.4431985626
 30
0.0
 10
11.4949551573
 20
10.4788604304
 30
0.0
 10
11.4241568838
 20
10.5093500941
 30
0.0
 10
11.3512808348
 20
10.5344717357
 30
0.0
 10
11.2767497319
 20
10.5541591416
 30
0.0
 10
11.2009704993
 20
10.5683270281
 30
0.0
 10
11.1243595627
 20
10.5768944462
 30
0.0
 10
11.0729917563
 20
10.5788167238
 30
0.0
 10
11.0473183383
 20
10.578816724
 30
0.0
  0
SPLINE
  5
26A
100
AcDbEntity
  8
0
100
AcDbSpline
 62
9
  6
CONTINUOUS
 70
0
 71
3
 72
29
 73
25
 74
0
 42
0.0000001
 43
0.0000001
 44
0.0000000001
 40
0.0
 40
0.0
 40
0.0
 40
0.0
 40
0.1892032526
 40
0.2815587731
 40
0.3712351177
 40
0.4573743402
 40
0.5392093867
 40
0.6159980731
 40
0.6870062927
 40
0.7515610234
 40
0.8091741219
 40
0.8352463145
 40
0.8594291093
 40
0.8816792458
 40
0.9019605841
 40
0.9202566536
 40
0.9365901577
 40
0.9510089761
 40
0.9635945667
 40
0.9744834175
 40
0.9839023918
 40
0.992218479
 40
0.9961377079
 40
1.0
 40
1.0
 40
1.0
 40
1.0
 10
11.0473188746
 20
6.9438969129
 30
0.0
 10
11.0128196294
 20
6.9441694713
 30
0.0
 10
10.9614676699
 20
6.9437196041
 30
0.0
 10
10.8938124413
 20
6.9413901712
 30
0.0
 10
10.8449767266
 20
6.9388298286
 30
0.0
 10
10.7981132521
 20
6.9354600016
 30
0.0
 10
10.7536696899
 20
6.9313309554
 30
0.0
 10
10.7120735795
 20
6.9264935714
 30
0.0
 10
10.673738342
 20
6.9209993124
 30
0.0
 10
10.6390407451
 20
6.9148909007
 30
0.0
 10
10.6126087577
 20
6.9091856211
 30
0.0
 10
10.5935516759
 20
6.9043079243
 30
0.0
 10
10.5808405991
 20
6.9006639778
 30
0.0
 10
10.5692627513
 20
6.8969214713
 30
0.0
 10
10.5588504796
 20
6.8930889605
 30
0.0
 10
10.5496299607
 20
6.889173109
 30
0.0
 10
10.5416164877
 20
6.8851864911
 30
0.0
 10
10.5348186922
 20
6.8811381801
 30
0.0
 10
10.5292423089
 20
6.877034477
 30
0.0
 10
10.5248926184
 20
6.872872449
 30
0.0
 10
10.5217796067
 20
6.8686418464
 30
0.0
 10
10.520223836
 20
6.864956348
 30
0.0
 10
10.5197073052
 20
6.8620567183
 30
0.0
 10
10.5196746057
 20
6.8606314242
 30
0.0
 10
10.5197128826
 20
6.8599281944
 30
0.0
  0
SPLINE
  5
26B
100
AcDbEntity
  8
0
100
AcDbSpline
 62
9
  6
CONTINUOUS
 70
0
 71
3
 72
25
 73
21
 74
0
 42
0.0000001
 43
0.0000001
 44
0.0000000001
 40
0.0
 40
0.0
 40
0.0
 40
0.0
 40
0.073810938
 40
0.1472192523
 40
0.219827877
 40
0.2912538338
 40
0.3611606455
 40
0.4292700618
 40
0.4953351617
 40
0.5591609793
 40
0.6206625654
 40
0.6798632677
 40
0.7368580274
 40
0.7645985213
 40
0.7918736053
 40
0.8451993274
 40
0.8973082927
 40
0.9487057075
 40
0.9743322291
 40
1.0
 40
1.0
 40
1.0
 40
1.0
 10
11.0473176935
 20
8.5905606776
 30
0.0
 10
11.0690981328
 20
8.5905606934
 30
0.0
 10
11.1125561535
 20
8.5889904409
 30
0.0
 10
11.1771005703
 20
8.5820112295
 30
0.0
 10
11.2402840511
 20
8.5705065231
 30
0.0
 10
11.3014318392
 20
8.5545598678
 30
0.0
 10
11.3598850719
 20
8.5342864455
 30
0.0
 10
11.4150546247
 20
8.5099705683
 30
0.0
 10
11.4663711103
 20
8.4818757653
 30
0.0
 10
11.513261558
 20
8.4502401418
 30
0.0
 10
11.5552066621
 20
8.4153662729
 30
0.0
 10
11.5918127351
 20
8.3776800859
 30
0.0
 10
11.6177851349
 20
8.3439313036
 30
0.0
 10
11.6353852288
 20
8.3159295529
 30
0.0
 10
11.6506039228
 20
8.2877930251
 30
0.0
 10
11.6657673511
 20
8.251543162
 30
0.0
 10
11.677519921
 20
8.2066256113
 30
0.0
 10
11.6817152183
 20
8.1685969082
 30
0.0
 10
11.6816231881
 20
8.13827178
 30
0.0
 10
11.6804417993
 20
8.123164462
 30
0.0
 10
11.6795734095
 20
8.115640255
 30
0.0
  0
SPLINE
  5
26C
100
AcDbEntity
  8
0
100
AcDbSpline
 62
9
  6
CONTINUOUS
 70
0
 71
3
 72
29
 73
25
 74
0
 42
0.0000001
 43
0.0000001
 44
0.0000000001
 40
0.0
 40
0.0
 40
0.0
 40
0.0
 40
0.1892032867
 40
0.2815588157
 40
0.3712351641
 40
0.4573743865
 40
0.5392094301
 40
0.6159981113
 40
0.6870063238
 40
0.7515610467
 40
0.8091741375
 40
0.8352463264
 40
0.8594291177
 40
0.881679251
 40
0.9019605864
 40
0.9202566534
 40
0.9365901556
 40
0.9510089727
 40
0.9635945626
 40
0.9744834134
 40
0.9839023885
 40
0.9922184771
 40
0.9961377069
 40
1.0
 40
1.0
 40
1.0
 40
1.0
 10
11.0473181942
 20
6.943896916
 30
0.0
 10
11.0818174209
 20
6.9441694698
 30
0.0
 10
11.1331693513
 20
6.9437195969
 30
0.0
 10
11.2008245396
 20
6.9413901579
 30
0.0
 10
11.2496602213
 20
6.9388298116
 30
0.0
 10
11.2965236619
 20
6.9354599819
 30
0.0
 10
11.3409671903
 20
6.931330934
 30
0.0
 10
11.3825632676
 20
6.9264935492
 30
0.0
 10
11.4208984733
 20
6.9209992901
 30
0.0
 10
11.4555960406
 20
6.9148908793
 30
0.0
 10
11.4820280048
 20
6.909185601
 30
0.0
 10
11.5010850697
 20
6.9043079056
 30
0.0
 10
11.5137961349
 20
6.9006639602
 30
0.0
 10
11.5253739721
 20
6.896921455
 30
0.0
 10
11.5357862342
 20
6.8930889457
 30
0.0
 10
11.5450067446
 20
6.8891730957
 30
0.0
 10
11.55302021
 20
6.8851864795
 30
0.0
 10
11.5598179991
 20
6.8811381702
 30
0.0
 10
11.5653943771
 20
6.8770344689
 30
0.0
 10
11.5697440635
 20
6.8728724428
 30
0.0
 10
11.5728570722
 20
6.8686418421
 30
0.0
 10
11.5744128412
 20
6.8649563455
 30
0.0
 10
11.5749293714
 20
6.8620567173
 30
0.0
 10
11.5749620709
 20
6.8606314239
 30
0.0
 10
11.5749237939
 20
6.8599281944
 30
0.0
  0
LINE
  5
26D
100
AcDbEntity
  8
0
100
AcDbLine
 62
9
  6
CONTINUOUS
 10
11.0473184824
 20
6.943896916
 11
11.0473184889
 21
4.2906433654
  0
SPLINE
  5
26E
100
AcDbEntity
  8
0
100
AcDbSpline
 62
9
  6
CONTINUOUS
 70
0
 71
3
 72
23
 73
19
 74
0
 42
0.0000001
 43
0.0000001
 44
0.0000000001
 40
0.0
 40
0.0
 40
0.0
 40
0.0
 40
0.1347545477
 40
0.2679011648
 40
0.3335507902
 40
0.398386306
 40
0.4623096686
 40
0.5252519821
 40
0.5872036389
 40
0.6481973804
 40
0.7082863904
 40
0.7380307007
 40
0.7675891863
 40
0.8262116583
 40
0.884355018
 40
0.9422049745
 40
0.971097983
 40
1.0
 40
1.0
 40
1.0
 40
1.0
 10
11.0473184889
 20
4.2906433654
 30
0.0
 10
11.0098246133
 20
4.2903380144
 30
0.0
 10
10.9350812089
 20
4.2963566826
 30
0.0
 10
10.8448008275
 20
4.3200648227
 30
0.0
 10
10.7770582593
 20
4.348451364
 30
0.0
 10
10.7292710875
 20
4.3739758204
 30
0.0
 10
10.6847760886
 20
4.4035461081
 30
0.0
 10
10.6440658882
 20
4.4369005903
 30
0.0
 10
10.607598971
 20
4.4737143199
 30
0.0
 10
10.5757006317
 20
4.5135367437
 30
0.0
 10
10.5531176107
 20
4.5490209153
 30
0.0
 10
10.5377128321
 20
4.5784719512
 30
0.0
 10
10.5241974585
 20
4.6083885379
 30
0.0
 10
10.510670995
 20
4.6468963234
 30
0.0
 10
10.4999962117
 20
4.6944045667
 30
0.0
 10
10.4958566035
 20
4.7346122517
 30
0.0
 10
10.4954670603
 20
4.7668031658
 30
0.0
 10
10.4962468834
 20
4.7828776624
 30
0.0
 10
10.4968766346
 20
4.7908948816
 30
0.0
  0
SPLINE
  5
26F
100
AcDbEntity
  8
0
100
AcDbSpline
 62
9
  6
CONTINUOUS
 70
0
 71
3
 72
23
 73
19
 74
0
 42
0.0000001
 43
0.0000001
 44
0.0000000001
 40
0.0
 40
0.0
 40
0.0
 40
0.0
 40
0.1305894622
 40
0.260237874
 40
0.3245568842
 40
0.388407962
 40
0.4517323627
 40
0.5144892577
 40
0.5766781895
 40
0.6383217295
 40
0.6994472402
 40
0.729840967
 40
0.7601272771
 40
0.8204069695
 40
0.8804078399
 40
0.9402268232
 40
0.9701138353
 40
1.0
 40
1.0
 40
1.0
 40
1.0
 10
11.047318315
 20
4.0377873937
 30
0.0
 10
11.009114584
 20
4.0376140834
 30
0.0
 10
10.9327820404
 20
4.044402984
 30
0.0
 10
10.8408022581
 20
4.0702326783
 30
0.0
 10
10.7717878802
 20
4.1009155455
 30
0.0
 10
10.7229392833
 20
4.1285258147
 30
0.0
 10
10.6773786122
 20
4.1604881455
 30
0.0
 10
10.6355948645
 20
4.196519145
 30
0.0
 10
10.5980589099
 20
4.2362857067
 30
0.0
 10
10.5650932372
 20
4.2793123939
 30
0.0
 10
10.5416521189
 20
4.3176064477
 30
0.0
 10
10.5255414497
 20
4.3494080835
 30
0.0
 10
10.5112836869
 20
4.3818119893
 30
0.0
 10
10.4968610784
 20
4.4235333258
 30
0.0
 10
10.4851406841
 20
4.4750036241
 30
0.0
 10
10.4801396145
 20
4.5186130038
 30
0.0
 10
10.4790631806
 20
4.5535974632
 30
0.0
 10
10.479506977
 20
4.5710898939
 30
0.0
 10
10.4799718638
 20
4.5798207639
 30
0.0
  0
SPLINE
  5
270
100
AcDbEntity
  8
0
100
AcDbSpline
 62
9
  6
CONTINUOUS
 70
0
 71
3
 72
24
 73
20
 74
0
 42
0.0000001
 43
0.0000001
 44
0.0000000001
 40
0.0
 40
0.0
 40
0.0
 40
0.0
 40
0.0627827297
 40
0.1255187708
 40
0.188197429
 40
0.2508221455
 40
0.3134031837
 40
0.3759385526
 40
0.4384234949
 40
0.4696564399
 40
0.5008804751
 40
0.5632940227
 40
0.6256880505
 40
0.6880622905
 40
0.7504222371
 40
0.8127876617
 40
0.8751716394
 40
0.9375751734
 40
1.0
 40
1.0
 40
1.0
 40
1.0
 10
10.6469306295
 20
10.0529655817
 30
0.0
 10
10.6245770684
 20
10.0408947185
 30
0.0
 10
10.5809530881
 20
10.0147242148
 30
0.0
 10
10.5193687188
 20
9.9697625621
 30
0.0
 10
10.4621521273
 20
9.9194418469
 30
0.0
 10
10.4098612202
 20
9.8641075984
 30
0.0
 10
10.3628783878
 20
9.8042763893
 30
0.0
 10
10.3215500411
 20
9.7404799945
 30
0.0
 10
10.2921038654
 20
9.6844200562
 30
0.0
 10
10.2717395808
 20
9.6381289647
 30
0.0
 10
10.2535587824
 20
9.5909686123
 30
0.0
 10
10.2349446368
 20
9.5305371461
 30
0.0
 10
10.2193316557
 20
9.4563173796
 30
0.0
 10
10.2105575299
 20
9.3810001397
 30
0.0
 10
10.2087634925
 20
9.3052040534
 30
0.0
 10
10.2140221625
 20
9.2295668359
 30
0.0
 10
10.2261829586
 20
9.1547118769
 30
0.0
 10
10.2451243727
 20
9.0812606882
 30
0.0
 10
10.2621939139
 20
9.033631469
 30
0.0
 10
10.2718099297
 20
9.0102737643
 30
0.0
  0
SPLINE
  5
271
100
AcDbEntity
  8
0
100
AcDbSpline
 62
9
  6
CONTINUOUS
 70
0
 71
3
 72
23
 73
19
 74
0
 42
0.0000001
 43
0.0000001
 44
0.0000000001
 40
0.0
 40
0.0
 40
0.0
 40
0.0
 40
0.1305894635
 40
0.2602378762
 40
0.3245568867
 40
0.3884079646
 40
0.4517323651
 40
0.5144892598
 40
0.5766781911
 40
0.6383217305
 40
0.6994472406
 40
0.7298409671
 40
0.7601272769
 40
0.8204069689
 40
0.8804078392
 40
0.9402268226
 40
0.9701138349
 40
1.0
 40
1.0
 40
1.0
 40
1.0
 10
11.0473183387
 20
4.0377873938
 30
0.0
 10
11.0855220803
 20
4.037614082
 30
0.0
 10
11.1618546453
 20
4.0444029837
 30
0.0
 10
11.2538344523
 20
4.070232689
 30
0.0
 10
11.3228488466
 20
4.1009155702
 30
0.0
 10
11.3716974537
 20
4.1285258522
 30
0.0
 10
11.4172581325
 20
4.1604881979
 30
0.0
 10
11.459041885
 20
4.1965192141
 30
0.0
 10
11.4965778415
 20
4.2362857937
 30
0.0
 10
11.5295435127
 20
4.2793124998
 30
0.0
 10
11.5529846269
 20
4.3176065698
 30
0.0
 10
11.5690952909
 20
4.3494082186
 30
0.0
 10
11.5833530473
 20
4.3818121373
 30
0.0
 10
11.5977756456
 20
4.4235334897
 30
0.0
 10
11.6094960241
 20
4.475003806
 30
0.0
 10
11.6144970775
 20
4.5186131995
 30
0.0
 10
11.6155734967
 20
4.553597669
 30
0.0
 10
11.6151296923
 20
4.5710901043
 30
0.0
 10
11.6146648014
 20
4.5798209766
 30
0.0
  0
SPLINE
  5
272
100
AcDbEntity
  8
0
100
AcDbSpline
 62
9
  6
CONTINUOUS
 70
0
 71
3
 72
23
 73
19
 74
0
 42
0.0000001
 43
0.0000001
 44
0.0000000001
 40
0.0
 40
0.0
 40
0.0
 40
0.0
 40
0.1347545486
 40
0.267901165
 40
0.3335507897
 40
0.3983863048
 40
0.4623096666
 40
0.5252519795
 40
0.5872036358
 40
0.6481973772
 40
0.7082863871
 40
0.7380306975
 40
0.7675891834
 40
0.8262116558
 40
0.8843550163
 40
0.9422049736
 40
0.9710979826
 40
1.0
 40
1.0
 40
1.0
 40
1.0
 10
11.0473183609
 20
4.290643364
 30
0.0
 10
11.084812229
 20
4.2903380233
 30
0.0
 10
11.1595556164
 20
4.296356709
 30
0.0
 10
11.2498359734
 20
4.3200648645
 30
0.0
 10
11.3175785211
 20
4.3484514137
 30
0.0
 10
11.3653656776
 20
4.3739758736
 30
0.0
 10
11.4098606615
 20
4.4035461628
 30
0.0
 10
11.4505708475
 20
4.4369006445
 30
0.0
 10
11.4870377514
 20
4.4737143717
 30
0.0
 10
11.5189360785
 20
4.5135367913
 30
0.0
 10
11.5415190908
 20
4.5490209582
 30
0.0
 10
11.5569238631
 20
4.5784719897
 30
0.0
 10
11.5704392312
 20
4.6083885717
 30
0.0
 10
11.583965689
 20
4.6468963506
 30
0.0
 10
11.5946404676
 20
4.6944045852
 30
0.0
 10
11.5987800735
 20
4.7346122625
 30
0.0
 10
11.5991696161
 20
4.7668031705
 30
0.0
 10
11.598389793
 20
4.7828776639
 30
0.0
 10
11.5977600419
 20
4.7908948816
 30
0.0
  0
SPLINE
  5
273
100
AcDbEntity
  8
0
100
AcDbSpline
 62
9
  6
CONTINUOUS
 70
0
 71
3
 72
24
 73
20
 74
0
 42
0.0000001
 43
0.0000001
 44
0.0000000001
 40
0.0
 40
0.0
 40
0.0
 40
0.0
 40
0.0627826645
 40
0.1255187406
 40
0.188197546
 40
0.2508224374
 40
0.3134037008
 40
0.375939418
 40
0.4384248089
 40
0.4696579296
 40
0.5008820824
 40
0.5632958265
 40
0.6256900656
 40
0.6880645428
 40
0.7504245148
 40
0.8127895308
 40
0.8751729598
 40
0.9375759314
 40
1.0
 40
1.0
 40
1.0
 40
1.0
 10
11.4477060471
 20
10.0529655817
 30
0.0
 10
11.4700223615
 20
10.0409148316
 30
0.0
 10
11.513575424
 20
10.014791334
 30
0.0
 10
11.5750671403
 20
9.9699185932
 30
0.0
 10
11.6322074182
 20
9.9197035931
 30
0.0
 10
11.6844409308
 20
9.8644897254
 30
0.0
 10
11.7313862593
 20
9.8047901998
 30
0.0
 10
11.7726989266
 20
9.7411344129
 30
0.0
 10
11.8021515554
 20
9.6851969587
 30
0.0
 10
11.8225339004
 20
9.6390055852
 30
0.0
 10
11.8407408826
 20
9.5919454054
 30
0.0
 10
11.8594024015
 20
9.5316388542
 30
0.0
 10
11.875096601
 20
9.4575653862
 30
0.0
 10
11.8839765521
 20
9.3823879159
 30
0.0
 10
11.8859029343
 20
9.3067218177
 30
0.0
 10
11.8807983675
 20
9.2312012549
 30
0.0
 10
11.8688117449
 20
9.1564470635
 30
0.0
 10
11.8500642716
 20
9.0830776429
 30
0.0
 10
11.8331367785
 20
9.035488095
 30
0.0
 10
11.8235947385
 20
9.0121458381
 30
0.0
  0
SPLINE
  5
274
100
AcDbEntity
  8
0
100
AcDbSpline
 62
9
  6
CONTINUOUS
 70
0
 71
3
 72
22
 73
18
 74
0
 42
0.0000001
 43
0.0000001
 44
0.0000000001
 40
0.0
 40
0.0
 40
0.0
 40
0.0
 40
0.063520614
 40
0.1268688466
 40
0.1900372579
 40
0.2530328122
 40
0.3158628319
 40
0.3785299616
 40
0.4410387481
 40
0.5034026539
 40
0.6277040006
 40
0.6897862048
 40
0.7518155327
 40
0.8138180088
 40
0.8758301302
 40
0.9378835353
 40
1.0
 40
1.0
 40
1.0
 40
1.0
 10
10.6134086749
 20
9.8072328687
 30
0.0
 10
10.5963020043
 20
9.7963863318
 30
0.0
 10
10.5629426084
 20
9.7734172473
 30
0.0
 10
10.5157567515
 20
9.7353031078
 30
0.0
 10
10.4717903687
 20
9.6937515144
 30
0.0
 10
10.431329779
 20
9.6490035045
 30
0.0
 10
10.394571046
 20
9.6013699466
 30
0.0
 10
10.3617235479
 20
9.551146166
 30
0.0
 10
10.3329881363
 20
9.4986235683
 30
0.0
 10
10.3004968003
 20
9.4260427978
 30
0.0
 10
10.2769121335
 20
9.3498843995
 30
0.0
 10
10.2626522585
 20
9.2719010341
 30
0.0
 10
10.2566624024
 20
9.2127874311
 30
0.0
 10
10.2554649819
 20
9.153409538
 30
0.0
 10
10.2590998002
 20
9.0941214589
 30
0.0
 10
10.267477692
 20
9.0352851185
 30
0.0
 10
10.2761765933
 20
8.9966062369
 30
0.0
 10
10.2812882706
 20
8.9774694209
 30
0.0
  0
SPLINE
  5
275
100
AcDbEntity
  8
0
100
AcDbSpline
 62
9
  6
CONTINUOUS
 70
0
 71
3
 72
24
 73
20
 74
0
 42
0.0000001
 43
0.0000001
 44
0.0000000001
 40
0.0
 40
0.0
 40
0.0
 40
0.0
 40
0.0709641576
 40
0.1416066168
 40
0.2805885668
 40
0.348507578
 40
0.4150518036
 40
0.4800428617
 40
0.5119223022
 40
0.5433712331
 40
0.6049615897
 40
0.6648751305
 40
0.7232043414
 40
0.7518382684
 40
0.7801507499
 40
0.8359385556
 40
0.8909248702
 40
0.9454745492
 40
1.0
 40
1.0
 40
1.0
 40
1.0
 10
11.0473185194
 20
8.89319584
 30
0.0
 10
11.0243120961
 20
8.8932401532
 30
0.0
 10
10.9783735293
 20
8.8914653626
 30
0.0
 10
10.8879877135
 20
8.8806741718
 30
0.0
 10
10.8000769683
 20
8.8592385549
 30
0.0
 10
10.7173398637
 20
8.8271469924
 30
0.0
 10
10.6592799206
 20
8.7984782186
 30
0.0
 10
10.6140751657
 20
8.7706838201
 30
0.0
 10
10.5803362954
 20
8.7463185172
 30
0.0
 10
10.5487447009
 20
8.7209556674
 30
0.0
 10
10.512520183
 20
8.6869450721
 30
0.0
 10
10.4745216639
 20
8.642576153
 30
0.0
 10
10.4478308611
 20
8.6029935987
 30
0.0
 10
10.4298802455
 20
8.5701896763
 30
0.0
 10
10.4143783727
 20
8.5370693219
 30
0.0
 10
10.3991839823
 20
8.4944710298
 30
0.0
 10
10.387905311
 20
8.4419134791
 30
0.0
 10
10.3838132268
 20
8.3887228837
 30
0.0
 10
10.3859883777
 20
8.3532969918
 30
0.0
 10
10.3882561794
 20
8.3357660006
 30
0.0
  0
SPLINE
  5
276
100
AcDbEntity
  8
0
100
AcDbSpline
 62
9
  6
CONTINUOUS
 70
0
 71
3
 72
22
 73
18
 74
0
 42
0.0000001
 43
0.0000001
 44
0.0000000001
 40
0.0
 40
0.0
 40
0.0
 40
0.0
 40
0.063520614
 40
0.1268688466
 40
0.1900372579
 40
0.2530328122
 40
0.3158628319
 40
0.3785299616
 40
0.4410387481
 40
0.5034026539
 40
0.6277040006
 40
0.6897862048
 40
0.7518155327
 40
0.8138180088
 40
0.8758301302
 40
0.9378835353
 40
1.0
 40
1.0
 40
1.0
 40
1.0
 10
11.4812280017
 20
9.8072328687
 30
0.0
 10
11.4983346723
 20
9.7963863318
 30
0.0
 10
11.5316940682
 20
9.7734172473
 30
0.0
 10
11.5788799251
 20
9.7353031078
 30
0.0
 10
11.6228463079
 20
9.6937515144
 30
0.0
 10
11.6633068976
 20
9.6490035045
 30
0.0
 10
11.7000656306
 20
9.6013699466
 30
0.0
 10
11.7329131287
 20
9.551146166
 30
0.0
 10
11.7616485403
 20
9.4986235683
 30
0.0
 10
11.7941398762
 20
9.4260427978
 30
0.0
 10
11.8177245431
 20
9.3498843995
 30
0.0
 10
11.831984418
 20
9.2719010341
 30
0.0
 10
11.8379742741
 20
9.2127874311
 30
0.0
 10
11.8391716947
 20
9.153409538
 30
0.0
 10
11.8355368763
 20
9.0941214589
 30
0.0
 10
11.8271589846
 20
9.0352851185
 30
0.0
 10
11.8184600833
 20
8.9966062369
 30
0.0
 10
11.813348406
 20
8.9774694209
 30
0.0
  0
SPLINE
  5
277
100
AcDbEntity
  8
0
100
AcDbSpline
 62
9
  6
CONTINUOUS
 70
0
 71
3
 72
24
 73
20
 74
0
 42
0.0000001
 43
0.0000001
 44
0.0000000001
 40
0.0
 40
0.0
 40
0.0
 40
0.0
 40
0.0709641588
 40
0.1416066184
 40
0.2805885677
 40
0.3485075779
 40
0.4150518025
 40
0.4800428595
 40
0.5119222995
 40
0.5433712299
 40
0.6049615858
 40
0.6648751262
 40
0.723204337
 40
0.7518382641
 40
0.7801507459
 40
0.8359385522
 40
0.8909248678
 40
0.945474548
 40
1.0
 40
1.0
 40
1.0
 40
1.0
 10
11.0473183391
 20
8.8931958404
 30
0.0
 10
11.0703247584
 20
8.8932401486
 30
0.0
 10
11.1162633168
 20
8.8914653489
 30
0.0
 10
11.2066491139
 20
8.8806741428
 30
0.0
 10
11.2945598383
 20
8.8592385143
 30
0.0
 10
11.3772969213
 20
8.8271469444
 30
0.0
 10
11.4353568482
 20
8.7984781673
 30
0.0
 10
11.4805615898
 20
8.7706837678
 30
0.0
 10
11.5143004497
 20
8.7463184649
 30
0.0
 10
11.5458920343
 20
8.7209556158
 30
0.0
 10
11.5821165406
 20
8.6869450224
 30
0.0
 10
11.620115047
 20
8.6425761074
 30
0.0
 10
11.6468058405
 20
8.6029935577
 30
0.0
 10
11.6647564495
 20
8.5701896396
 30
0.0
 10
11.6802583166
 20
8.5370692897
 30
0.0
 10
11.6954527013
 20
8.4944710039
 30
0.0
 10
11.7067313677
 20
8.4419134616
 30
0.0
 10
11.7108234495
 20
8.388722875
 30
0.0
 10
11.7086482985
 20
8.3532969889
 30
0.0
 10
11.7063804971
 20
8.3357660006
 30
0.0
  0
SPLINE
  5
278
100
AcDbEntity
  8
0
100
AcDbSpline
 62
9
  6
CONTINUOUS
 70
0
 71
3
 72
25
 73
21
 74
0
 42
0.0000001
 43
0.0000001
 44
0.0000000001
 40
0.0
 40
0.0
 40
0.0
 40
0.0
 40
0.0738109444
 40
0.1472192615
 40
0.2198278861
 40
0.2912538404
 40
0.3611606482
 40
0.4292700596
 40
0.4953351544
 40
0.5591609671
 40
0.6206625493
 40
0.6798632492
 40
0.736858008
 40
0.7645985022
 40
0.7918735869
 40
0.8451993119
 40
0.8973082815
 40
0.9487057017
 40
0.9743322262
 40
1.0
 40
1.0
 40
1.0
 40
1.0
 10
11.0473183375
 20
8.5905606776
 30
0.0
 10
11.0255379122
 20
8.5905606778
 30
0.0
 10
10.9820799216
 20
8.5889903966
 30
0.0
 10
10.9175355538
 20
8.5820111486
 30
0.0
 10
10.854352126
 20
8.5705064119
 30
0.0
 10
10.7932043938
 20
8.5545597323
 30
0.0
 10
10.7347512184
 20
8.5342862928
 30
0.0
 10
10.6795817227
 20
8.5099704052
 30
0.0
 10
10.6282652931
 20
8.481875598
 30
0.0
 10
10.5813748991
 20
8.4502399759
 30
0.0
 10
10.5394298448
 20
8.4153661146
 30
0.0
 10
10.5028238168
 20
8.3776799402
 30
0.0
 10
10.4768514503
 20
8.3439311727
 30
0.0
 10
10.4592513797
 20
8.3159294357
 30
0.0
 10
10.444032706
 20
8.2877929222
 30
0.0
 10
10.4288692988
 20
8.2515430789
 30
0.0
 10
10.4171167465
 20
8.2066255549
 30
0.0
 10
10.4129214571
 20
8.1685968754
 30
0.0
 10
10.4130134894
 20
8.138271766
 30
0.0
 10
10.4141948778
 20
8.1231644574
 30
0.0
 10
10.4150632671
 20
8.115640255
 30
0.0
  0
ENDSEC
  0
SECTION
  2
OBJECTS
  0
DICTIONARY
  5
C
100
AcDbDictionary
280
0
281
1
  3
ACAD_GROUP
350
D
  3
ACAD_MLINESTYLE
350
17
  3
ACAD_LAYOUT
350
1A
  3
ACAD_PLOTSETTINGS
350
19
  3
ACAD_PLOTSTYLENAME
350
E
  0
DICTIONARY
  5
D
102
{ACAD_REACTORS
330
C
102
}
100
AcDbDictionary
280
0
281
1
  0
ACDBDICTIONARYWDFLT
  5
E
102
{ACAD_REACTORS
330
C
102
}
100
AcDbDictionary
281
1
  3
Normal
350
F
100
AcDbDictionaryWithDefault
340
F
  0
DICTIONARY
  5
17
102
{ACAD_REACTORS
330
C
102
}
100
AcDbDictionary
280
0
281
1
  3
Standard
350
18
  0
DICTIONARY
  5
19
102
{ACAD_REACTORS
330
C
102
}
100
AcDbDictionary
281
1
  0
DICTIONARY
  5
1A
102
{ACAD_REACTORS
330
C
102
}
100
AcDbDictionary
281
1
  3
Model
350
279
  3
Layout1
350
27A
  0
ACDBPLACEHOLDER
  5
F
102
{ACAD_REACTORS
330
E
102
}
  0
MLINESTYLE
  5
18
102
{ACAD_REACTORS
330
17
102
}
100
AcDbMlineStyle
  2
STANDARD
 70
0
  3

 62
256
 51
90.0
 52
90.0
 71
2
 49
0.5
 62
256
  6
BYLAYER
 49
-0.5
 62
256
  6
BYLAYER
  0
LAYOUT
  5
279
102
{ACAD_REACTORS
330
1A
102
}
100
AcDbPlotSettings
  1

  2
none_device
  4
ANSI_C_(22.00_x_17.00_Inches)
  6

 40
0.0
 41
0.0
 42
0.0
 43
0.0
 44
558.8
 45
431.8
 46
0.0
 47
0.0
 48
0.0
 49
0.0
140
0.0
141
0.0
142
1.0
143
1.0
 70
1024
 72
0
 73
0
 74
0
  7

 75
0
147
1.0
148
0.0
149
0.0
100
AcDbLayout
  1
Model
 70
0
 71
0
 10
0.0
 20
0.0
 11
22.0
 21
17.0
 12
0.0
 22
0.0
 32
0.0
 14
0.0
 24
0.0
 34
0.0
 15
0.0
 25
0.0
 35
0.0
146
0.0
 13
0.0
 23
0.0
 33
0.0
 16
1.0
 26
0.0
 36
0.0
 17
0.0
 27
1.0
 37
0.0
 76
0
330
202
345
0
346
0
  0
LAYOUT
  5
27A
102
{ACAD_REACTORS
330
1A
102
}
100
AcDbPlotSettings
  1

  2
none_device
  4
ANSI_C_(22.00_x_17.00_Inches)
  6

 40
0.0
 41
0.0
 42
0.0
 43
0.0
 44
558.8
 45
431.8
 46
0.0
 47
0.0
 48
0.0
 49
0.0
140
0.0
141
0.0
142
1.0
143
1.0
 70
0
 72
0
 73
0
 74
0
  7

 75
0
147
1.0
148
0.0
149
0.0
100
AcDbLayout
  1
Layout1
 70
0
 71
1
 10
0.0
 20
0.0
 11
22.0
 21
17.0
 12
0.0
 22
0.0
 32
0.0
 14
0.0
 24
0.0
 34
0.0
 15
0.0
 25
0.0
 35
0.0
146
0.0
 13
0.0
 23
0.0
 33
0.0
 16
1.0
 26
0.0
 36
0.0
 17
0.0
 27
1.0
 37
0.0
 76
0
330
203
345
0
346
0
  0
ENDSEC
  0
EOF
