  0
SECTION
  2
HEADER
  9
$ACADVER
  1
AC1015
  9
$DWGCODEPAGE
  3
ANSI_1252
  9
$EXTMAX
 10
16.5354330709
 20
11.6929133858
 30
0.0
  9
$EXTMIN
 10
0.0
 20
0.0
 30
0.0
  9
$LIMMIN
 10
0.0
 20
0.0
  9
$LIMMAX
 10
16.5354330709
 20
11.6929133858
  9
$VIEWCTR
 10
8.2677165354
 20
5.8464566929
  9
$VIEWSIZE
 40
11.6929133858
  9
$CLAYER
  8
0
  9
$LTSCALE
 40
0.9094488189
  9
$CELTYPE
  6
BYLAYER
  9
$DIMSCALE
 40
1.0
  9
$DIMASZ
 40
0.1875
  9
$DIMEXO
 40
0.1033464567
  9
$DIMDLI
 40
0.6283464567
  9
$DIMEXE
 40
0.2976377953
  9
$DIMCEN
 40
0.1488188976
  9
$DIMLFAC
 40
1.0
  9
$DIMBLK
  1
_CLOSED
  9
$DIMTXT
 40
0.15625
  9
$DIMTOL
 70
0
  9
$DIMLIM
 70
0
  9
$DIMTFAC
 40
1.0
  9
$PDMODE
 70
3
  9
$PDSIZE
 40
0.3125
  9
$HANDSEED
  5
542
  9
$TILEMODE
 70
1
  9
$MEASUREMENT
 70
0
  9
$INSUNITS
 70
1
  0
ENDSEC
  0
SECTION
  2
CLASSES
  0
CLASS
  1
ACDBDICTIONARYWDFLT
  2
AcDbDictionaryWithDefault
  3
AutoCAD 2000
 90
0
280
0
281
0
  0
CLASS
  1
ACDBPLACEHOLDER
  2
AcDbPlaceHolder
  3
AutoCAD 2000
 90
0
280
0
281
0
  0
CLASS
  1
LAYOUT
  2
AcDbLayout
  3
AutoCAD 2000
 90
0
280
0
281
0
  0
ENDSEC
  0
SECTION
  2
TABLES
  0
TABLE
  2
VPORT
  5
8
100
AcDbSymbolTable
 70
2
  0
VPORT
  5
1F4
100
AcDbSymbolTableRecord
100
AcDbViewportTableRecord
  2
*ACTIVE
 70
0
 10
0.0
 20
0.0
 11
1.0
 21
1.0
 12
8.2677165354
 22
5.8464566929
 13
0.0
 23
0.0
 14
1.0
 24
1.0
 15
0.0
 25
0.0
 16
0.0
 26
0.0
 36
1.0
 17
0.0
 27
0.0
 37
0.0
 40
11.6929133858
 41
1.4141414141
 42
50.0
 43
0.0
 44
0.0
 50
0.0
 51
0.0
 71
0
 72
100
 73
1
 74
1
 75
0
 76
0
 77
0
 78
0
  0
ENDTAB
  0
TABLE
  2
LTYPE
  5
5
100
AcDbSymbolTable
 70
6
  0
LTYPE
  5
14
100
AcDbSymbolTableRecord
100
AcDbLinetypeTableRecord
  2
BYBLOCK
 70
0
  3

 72
65
 73
0
 40
0.0
  0
LTYPE
  5
15
100
AcDbSymbolTableRecord
100
AcDbLinetypeTableRecord
  2
BYLAYER
 70
0
  3

 72
65
 73
0
 40
0.0
  0
LTYPE
  5
16
100
AcDbSymbolTableRecord
100
AcDbLinetypeTableRecord
  2
CONTINUOUS
 70
64
  3
Solid line
 72
65
 73
0
 40
0.0
  0
LTYPE
  5
1F5
100
AcDbSymbolTableRecord
100
AcDbLinetypeTableRecord
  2
CENTER
 70
64
  3
____ _ ____ _ ____ _ ____ _ ____ _ ____ _ ____
 72
65
 73
4
 40
0.6
 49
0.375
 74
0
 49
-0.075
 74
0
 49
0.075
 74
0
 49
-0.075
 74
0
  0
LTYPE
  5
1F6
100
AcDbSymbolTableRecord
100
AcDbLinetypeTableRecord
  2
HIDDEN
 70
64
  3
- - - - - - - - - - - - - - - - - - - -
 72
65
 73
2
 40
0.2
 49
0.1
 74
0
 49
-0.1
 74
0
  0
LTYPE
  5
1F7
100
AcDbSymbolTableRecord
100
AcDbLinetypeTableRecord
  2
PHANTOM
 70
64
  3
_____ _ _ _____ _ _ _____ _ _ _____
 72
65
 73
6
 40
0.8
 49
0.45
 74
0
 49
-0.05
 74
0
 49
0.1
 74
0
 49
-0.05
 74
0
 49
0.1
 74
0
 49
-0.05
 74
0
  0
LTYPE
  5
1F8
100
AcDbSymbolTableRecord
100
AcDbLinetypeTableRecord
  2
DOT
 70
64
  3
. . . . . . . . . . . . . . . . . . . .
 72
65
 73
2
 40
0.2
 49
0.1
 74
0
 49
-0.1
 74
0
  0
LTYPE
  5
1F9
100
AcDbSymbolTableRecord
100
AcDbLinetypeTableRecord
  2
DASHED
 70
64
  3
- - - - - - - - - - - - - - - - - - - -
 72
65
 73
2
 40
0.2
 49
0.1
 74
0
 49
-0.1
 74
0
  0
ENDTAB
  0
TABLE
  2
LAYER
  5
2
100
AcDbSymbolTable
 70
36
  0
LAYER
  5
10
100
AcDbSymbolTableRecord
100
AcDbLayerTableRecord
  2
0
 70
0
 62
7
  6
CONTINUOUS
370
-3
390
F
  0
LAYER
  5
1FA
100
AcDbSymbolTableRecord
100
AcDbLayerTableRecord
  2
DEFAULT_1
 70
0
 62
7
  6
CENTER
370
-3
390
F
  0
LAYER
  5
1FB
100
AcDbSymbolTableRecord
100
AcDbLayerTableRecord
  2
DEFAULT_2
 70
0
 62
8
  6
HIDDEN
370
-3
390
F
  0
LAYER
  5
1FC
100
AcDbSymbolTableRecord
100
AcDbLayerTableRecord
  2
DEFAULT_3
 70
0
 62
7
  6
PHANTOM
370
-3
390
F
  0
LAYER
  5
1FD
100
AcDbSymbolTableRecord
100
AcDbLayerTableRecord
  2
06___PRT_ALL_SURFS_1
 70
0
 62
7
  6
CONTINUOUS
370
-3
390
F
  0
LAYER
  5
1FE
100
AcDbSymbolTableRecord
100
AcDbLayerTableRecord
  2
06___PRT_ALL_SURFS_2
 70
0
 62
7
  6
CONTINUOUS
370
-3
390
F
  0
LAYER
  5
1FF
100
AcDbSymbolTableRecord
100
AcDbLayerTableRecord
  2
1-007
 70
0
 62
7
  6
CONTINUOUS
370
-3
390
F
  0
LAYER
  5
200
100
AcDbSymbolTableRecord
100
AcDbLayerTableRecord
  2
1-008
 70
0
 62
7
  6
CONTINUOUS
370
-3
390
F
  0
LAYER
  5
201
100
AcDbSymbolTableRecord
100
AcDbLayerTableRecord
  2
1-135
 70
0
 62
7
  6
CONTINUOUS
370
-3
390
F
  0
LAYER
  5
202
100
AcDbSymbolTableRecord
100
AcDbLayerTableRecord
  2
1-510
 70
0
 62
7
  6
CONTINUOUS
370
-3
390
F
  0
LAYER
  5
203
100
AcDbSymbolTableRecord
100
AcDbLayerTableRecord
  2
1-511
 70
0
 62
7
  6
CONTINUOUS
370
-3
390
F
  0
LAYER
  5
204
100
AcDbSymbolTableRecord
100
AcDbLayerTableRecord
  2
1-532C
 70
0
 62
7
  6
CONTINUOUS
370
-3
390
F
  0
LAYER
  5
205
100
AcDbSymbolTableRecord
100
AcDbLayerTableRecord
  2
10016
 70
0
 62
7
  6
CONTINUOUS
370
-3
390
F
  0
LAYER
  5
206
100
AcDbSymbolTableRecord
100
AcDbLayerTableRecord
  2
10016_1
 70
0
 62
7
  6
CONTINUOUS
370
-3
390
F
  0
LAYER
  5
207
100
AcDbSymbolTableRecord
100
AcDbLayerTableRecord
  2
10290
 70
0
 62
7
  6
CONTINUOUS
370
-3
390
F
  0
LAYER
  5
208
100
AcDbSymbolTableRecord
100
AcDbLayerTableRecord
  2
10305
 70
0
 62
7
  6
CONTINUOUS
370
-3
390
F
  0
LAYER
  5
209
100
AcDbSymbolTableRecord
100
AcDbLayerTableRecord
  2
10489
 70
0
 62
7
  6
CONTINUOUS
370
-3
390
F
  0
LAYER
  5
20A
100
AcDbSymbolTableRecord
100
AcDbLayerTableRecord
  2
10489_1
 70
0
 62
7
  6
CONTINUOUS
370
-3
390
F
  0
LAYER
  5
20B
100
AcDbSymbolTableRecord
100
AcDbLayerTableRecord
  2
11170
 70
0
 62
7
  6
CONTINUOUS
370
-3
390
F
  0
LAYER
  5
20C
100
AcDbSymbolTableRecord
100
AcDbLayerTableRecord
  2
11171
 70
0
 62
7
  6
CONTINUOUS
370
-3
390
F
  0
LAYER
  5
20D
100
AcDbSymbolTableRecord
100
AcDbLayerTableRecord
  2
11275
 70
0
 62
7
  6
CONTINUOUS
370
-3
390
F
  0
LAYER
  5
20E
100
AcDbSymbolTableRecord
100
AcDbLayerTableRecord
  2
11277
 70
0
 62
7
  6
CONTINUOUS
370
-3
390
F
  0
LAYER
  5
20F
100
AcDbSymbolTableRecord
100
AcDbLayerTableRecord
  2
11526
 70
0
 62
7
  6
CONTINUOUS
370
-3
390
F
  0
LAYER
  5
210
100
AcDbSymbolTableRecord
100
AcDbLayerTableRecord
  2
2-633
 70
0
 62
7
  6
CONTINUOUS
370
-3
390
F
  0
LAYER
  5
211
100
AcDbSymbolTableRecord
100
AcDbLayerTableRecord
  2
3-320
 70
0
 62
7
  6
CONTINUOUS
370
-3
390
F
  0
LAYER
  5
212
100
AcDbSymbolTableRecord
100
AcDbLayerTableRecord
  2
3_ALL_SYMBOLS
 70
0
 62
7
  6
CONTINUOUS
370
-3
390
F
  0
LAYER
  5
213
100
AcDbSymbolTableRecord
100
AcDbLayerTableRecord
  2
50464
 70
0
 62
7
  6
CONTINUOUS
370
-3
390
F
  0
LAYER
  5
214
100
AcDbSymbolTableRecord
100
AcDbLayerTableRecord
  2
91231
 70
0
 62
7
  6
CONTINUOUS
370
-3
390
F
  0
LAYER
  5
215
100
AcDbSymbolTableRecord
100
AcDbLayerTableRecord
  2
91265
 70
0
 62
7
  6
CONTINUOUS
370
-3
390
F
  0
LAYER
  5
216
100
AcDbSymbolTableRecord
100
AcDbLayerTableRecord
  2
ALL_ASSEMBLY_MEMBERS
 70
0
 62
7
  6
CONTINUOUS
370
-3
390
F
  0
LAYER
  5
217
100
AcDbSymbolTableRecord
100
AcDbLayerTableRecord
  2
ALL_ASSEMBLY_MEMBERS_1
 70
0
 62
7
  6
CONTINUOUS
370
-3
390
F
  0
LAYER
  5
218
100
AcDbSymbolTableRecord
100
AcDbLayerTableRecord
  2
ALL_ASSEMBLY_MEMBERS_2
 70
0
 62
7
  6
CONTINUOUS
370
-3
390
F
  0
LAYER
  5
219
100
AcDbSymbolTableRecord
100
AcDbLayerTableRecord
  2
ALL_ASSEMBLY_MEMBERS_3
 70
0
 62
7
  6
CONTINUOUS
370
-3
390
F
  0
LAYER
  5
21A
100
AcDbSymbolTableRecord
100
AcDbLayerTableRecord
  2
ALL_ASSEMBLY_MEMBERS_4
 70
0
 62
7
  6
CONTINUOUS
370
-3
390
F
  0
LAYER
  5
21B
100
AcDbSymbolTableRecord
100
AcDbLayerTableRecord
  2
ALL_ASSEMBLY_MEMBERS_5
 70
0
 62
7
  6
CONTINUOUS
370
-3
390
F
  0
LAYER
  5
21C
100
AcDbSymbolTableRecord
100
AcDbLayerTableRecord
  2
COLOR1
 70
0
 62
7
  6
CONTINUOUS
370
-3
390
F
  0
LAYER
  5
21D
100
AcDbSymbolTableRecord
100
AcDbLayerTableRecord
  2
COLOR11
 70
0
 62
7
  6
CONTINUOUS
370
-3
390
F
  0
LAYER
  5
21E
100
AcDbSymbolTableRecord
100
AcDbLayerTableRecord
  2
COLOR3
 70
0
 62
7
  6
CONTINUOUS
370
-3
390
F
  0
LAYER
  5
21F
100
AcDbSymbolTableRecord
100
AcDbLayerTableRecord
  2
COLOR7
 70
0
 62
7
  6
CONTINUOUS
370
-3
390
F
  0
LAYER
  5
220
100
AcDbSymbolTableRecord
100
AcDbLayerTableRecord
  2
DEFAULT_COORDINATE_SYSTEM
 70
0
 62
7
  6
CONTINUOUS
370
-3
390
F
  0
LAYER
  5
221
100
AcDbSymbolTableRecord
100
AcDbLayerTableRecord
  2
DEFAULT_DATUM_AXES
 70
0
 62
7
  6
CONTINUOUS
370
-3
390
F
  0
LAYER
  5
222
100
AcDbSymbolTableRecord
100
AcDbLayerTableRecord
  2
DEFAULT_DATUM_CURVES
 70
0
 62
7
  6
CONTINUOUS
370
-3
390
F
  0
LAYER
  5
223
100
AcDbSymbolTableRecord
100
AcDbLayerTableRecord
  2
DEFAULT_DATUM_PLANES
 70
0
 62
7
  6
CONTINUOUS
370
-3
390
F
  0
LAYER
  5
224
100
AcDbSymbolTableRecord
100
AcDbLayerTableRecord
  2
DEFAULT_SURFACES
 70
0
 62
7
  6
CONTINUOUS
370
-3
390
F
  0
LAYER
  5
225
100
AcDbSymbolTableRecord
100
AcDbLayerTableRecord
  2
INTF_10016
 70
0
 62
7
  6
CONTINUOUS
370
-3
390
F
  0
LAYER
  5
226
100
AcDbSymbolTableRecord
100
AcDbLayerTableRecord
  2
INTF_10290
 70
0
 62
7
  6
CONTINUOUS
370
-3
390
F
  0
LAYER
  5
227
100
AcDbSymbolTableRecord
100
AcDbLayerTableRecord
  2
INTF_10305
 70
0
 62
7
  6
CONTINUOUS
370
-3
390
F
  0
LAYER
  5
228
100
AcDbSymbolTableRecord
100
AcDbLayerTableRecord
  2
INTF_10489
 70
0
 62
7
  6
CONTINUOUS
370
-3
390
F
  0
LAYER
  5
229
100
AcDbSymbolTableRecord
100
AcDbLayerTableRecord
  2
INTF_11170
 70
0
 62
7
  6
CONTINUOUS
370
-3
390
F
  0
LAYER
  5
22A
100
AcDbSymbolTableRecord
100
AcDbLayerTableRecord
  2
INTF_11171
 70
0
 62
7
  6
CONTINUOUS
370
-3
390
F
  0
LAYER
  5
22B
100
AcDbSymbolTableRecord
100
AcDbLayerTableRecord
  2
INTF_11275
 70
0
 62
7
  6
CONTINUOUS
370
-3
390
F
  0
LAYER
  5
22C
100
AcDbSymbolTableRecord
100
AcDbLayerTableRecord
  2
INTF_11277
 70
0
 62
7
  6
CONTINUOUS
370
-3
390
F
  0
LAYER
  5
22D
100
AcDbSymbolTableRecord
100
AcDbLayerTableRecord
  2
INTF_11526
 70
0
 62
7
  6
CONTINUOUS
370
-3
390
F
  0
LAYER
  5
22E
100
AcDbSymbolTableRecord
100
AcDbLayerTableRecord
  2
INTF_50464
 70
0
 62
7
  6
CONTINUOUS
370
-3
390
F
  0
LAYER
  5
22F
100
AcDbSymbolTableRecord
100
AcDbLayerTableRecord
  2
INTF_91231
 70
0
 62
7
  6
CONTINUOUS
370
-3
390
F
  0
LAYER
  5
230
100
AcDbSymbolTableRecord
100
AcDbLayerTableRecord
  2
INTF_91265
 70
0
 62
7
  6
CONTINUOUS
370
-3
390
F
  0
LAYER
  5
231
100
AcDbSymbolTableRecord
100
AcDbLayerTableRecord
  2
INTF_BLANK
 70
0
 62
7
  6
CONTINUOUS
370
-3
390
F
  0
LAYER
  5
232
100
AcDbSymbolTableRecord
100
AcDbLayerTableRecord
  2
INTF_BLUE
 70
0
 62
7
  6
CONTINUOUS
370
-3
390
F
  0
LAYER
  5
233
100
AcDbSymbolTableRecord
100
AcDbLayerTableRecord
  2
PLATED_AREA
 70
0
 62
7
  6
CONTINUOUS
370
-3
390
F
  0
LAYER
  5
234
100
AcDbSymbolTableRecord
100
AcDbLayerTableRecord
  2
PLATED_AREA_1
 70
0
 62
7
  6
CONTINUOUS
370
-3
390
F
  0
LAYER
  5
235
100
AcDbSymbolTableRecord
100
AcDbLayerTableRecord
  2
QUILT
 70
0
 62
7
  6
CONTINUOUS
370
-3
390
F
  0
LAYER
  5
236
100
AcDbSymbolTableRecord
100
AcDbLayerTableRecord
  2
QUILTS_7
 70
0
 62
7
  6
CONTINUOUS
370
-3
390
F
  0
LAYER
  5
237
100
AcDbSymbolTableRecord
100
AcDbLayerTableRecord
  2
QUILT_1
 70
0
 62
7
  6
CONTINUOUS
370
-3
390
F
  0
LAYER
  5
238
100
AcDbSymbolTableRecord
100
AcDbLayerTableRecord
  2
QUILT_2
 70
0
 62
7
  6
CONTINUOUS
370
-3
390
F
  0
LAYER
  5
239
100
AcDbSymbolTableRecord
100
AcDbLayerTableRecord
  2
WETTED_SURFACE_AREA_1
 70
0
 62
7
  6
CONTINUOUS
370
-3
390
F
  0
LAYER
  5
23A
100
AcDbSymbolTableRecord
100
AcDbLayerTableRecord
  2
WETTED_SURFACE_AREA_2
 70
0
 62
7
  6
CONTINUOUS
370
-3
390
F
  0
LAYER
  5
23B
100
AcDbSymbolTableRecord
100
AcDbLayerTableRecord
  2
_BLACK_HOLE
 70
0
 62
7
  6
CONTINUOUS
370
-3
390
F
  0
ENDTAB
  0
TABLE
  2
STYLE
  5
3
100
AcDbSymbolTable
 70
1
  0
STYLE
  5
11
100
AcDbSymbolTableRecord
100
AcDbTextStyleTableRecord
  2
STANDARD
 70
0
 40
0.0
 41
0.8
 50
0.0
 71
0
 42
0.2
  3
txt
  4

  0
STYLE
  5
23C
100
AcDbSymbolTableRecord
100
AcDbTextStyleTableRecord
  2
TEXTSTYLE_1
 70
0
 40
0.0
 41
0.8
 50
0.0
 71
0
 42
0.2
  3
gdt
  4

  0
ENDTAB
  0
TABLE
  2
VIEW
  5
6
100
AcDbSymbolTable
 70
0
  0
ENDTAB
  0
TABLE
  2
UCS
  5
7
100
AcDbSymbolTable
 70
0
  0
ENDTAB
  0
TABLE
  2
APPID
  5
9
100
AcDbSymbolTable
 70
1
  0
APPID
  5
23D
100
AcDbSymbolTableRecord
100
AcDbRegAppTableRecord
  2
ACAD
 70
0
  0
ENDTAB
  0
TABLE
  2
BLOCK_RECORD
  5
1
100
AcDbSymbolTable
 70
0
  0
BLOCK_RECORD
  5
23E
100
AcDbSymbolTableRecord
100
AcDbBlockTableRecord
  2
*Model_Space
  0
BLOCK_RECORD
  5
23F
100
AcDbSymbolTableRecord
100
AcDbBlockTableRecord
  2
*Paper_Space
  0
ENDTAB
  0
TABLE
  2
DIMSTYLE
  5
A
100
AcDbSymbolTable
 70
1
100
AcDbDimStyleTable
 71
0
  0
DIMSTYLE
105
240
100
AcDbSymbolTableRecord
100
AcDbDimStyleTableRecord
  2
STANDARD
 70
0
  3

  4

 40
1.0
 41
0.1875
 42
0.0625
 43
0.38
 44
0.18
 45
0.0
 46
0.0
 47
0.01
 48
0.01
140
0.15625
141
0.09
142
0.0
143
25.4
144
1.0
145
0.0
146
1.0
147
0.09
 71
0.0
 72
0.0
 73
1
 74
1
 75
0
 76
0
 77
0
 78
4
170
0
171
2
172
0
173
0
174
0
175
0
176
0
177
0
178
0
270
2
271
2
272
2
273
2
274
2
275
0
280
0
281
0
282
0
283
1
284
4
285
0
286
0
287
3
288
0
340
11
  0
ENDTAB
  0
ENDSEC
  0
SECTION
  2
BLOCKS
  0
BLOCK
  5
20
100
AcDbEntity
  8
0
100
AcDbBlockBegin
  2
*Model_Space
 70
0
 10
0.0
 20
0.0
 30
0.0
  3
*Model_Space
  1

  0
ENDBLK
  5
21
100
AcDbEntity
  8
0
100
AcDbBlockEnd
  0
BLOCK
  5
1C
100
AcDbEntity
  8
0
100
AcDbBlockBegin
  2
*Paper_Space
 70
0
 10
0.0
 20
0.0
 30
0.0
  3
*Paper_Space
  1

  0
ENDBLK
  5
1D
100
AcDbEntity
  8
0
100
AcDbBlockEnd
  0
ENDSEC
  0
SECTION
  2
ENTITIES
  0
LINE
  5
241
100
AcDbEntity
  8
0
100
AcDbLine
 62
7
  6
CONTINUOUS
 10
2.8790992368
 20
9.771971553
 11
2.8790992368
 21
9.757971553
  0
LINE
  5
242
100
AcDbEntity
  8
0
100
AcDbLine
 62
7
  6
CONTINUOUS
 10
3.7677173471
 20
7.7502937998
 11
3.7677173471
 21
7.7439715163
  0
LINE
  5
243
100
AcDbEntity
  8
0
100
AcDbLine
 62
6
  6
CONTINUOUS
 10
3.8654399261
 20
7.6335944206
 11
3.8664118411
 21
7.2384427431
  0
LINE
  5
244
100
AcDbEntity
  8
0
100
AcDbLine
 62
7
  6
CONTINUOUS
 10
3.7949125197
 20
7.7282360506
 11
3.7949125197
 21
7.7157805967
  0
LINE
  5
245
100
AcDbEntity
  8
0
100
AcDbLine
 62
6
  6
CONTINUOUS
 10
3.8377173471
 20
7.584471553
 11
3.8377173471
 21
7.209471553
  0
LINE
  5
246
100
AcDbEntity
  8
0
100
AcDbLine
 62
6
  6
CONTINUOUS
 10
3.8713034583
 20
7.6335944206
 11
3.8713034583
 21
7.239471553
  0
LINE
  5
247
100
AcDbEntity
  8
0
100
AcDbLine
 62
6
  6
CONTINUOUS
 10
3.8810173471
 20
7.2231182975
 11
3.8810173471
 21
7.209471553
  0
LINE
  5
248
100
AcDbEntity
  8
0
100
AcDbLine
 62
6
  6
CONTINUOUS
 10
3.8875548403
 20
7.239471553
 11
3.8875548403
 21
7.6335944206
  0
LINE
  5
249
100
AcDbEntity
  8
0
100
AcDbLine
 62
6
  6
CONTINUOUS
 10
3.8917173471
 20
7.684471553
 11
3.8917173471
 21
7.649471553
  0
LINE
  5
24A
100
AcDbEntity
  8
0
100
AcDbLine
 62
6
  6
CONTINUOUS
 10
3.8948251949
 20
7.217971553
 11
3.8948251949
 21
7.2285843792
  0
LINE
  5
24B
100
AcDbEntity
  8
0
100
AcDbLine
 62
6
  6
CONTINUOUS
 10
3.8948251949
 20
7.6398801318
 11
3.8948251949
 21
7.6460074514
  0
LINE
  5
24C
100
AcDbEntity
  8
0
100
AcDbLine
 62
6
  6
CONTINUOUS
 10
3.9042527673
 20
7.6335944206
 11
3.9042527673
 21
7.239471553
  0
LINE
  5
24D
100
AcDbEntity
  8
0
100
AcDbLine
 62
6
  6
CONTINUOUS
 10
3.9271690723
 20
7.217971553
 11
3.9271690723
 21
7.6460074514
  0
LINE
  5
24E
100
AcDbEntity
  8
0
100
AcDbLine
 62
6
  6
CONTINUOUS
 10
3.9342814057
 20
7.239471553
 11
3.9342814057
 21
7.6335944206
  0
LINE
  5
24F
100
AcDbEntity
  8
0
100
AcDbLine
 62
6
  6
CONTINUOUS
 10
3.9404218111
 20
7.2244170898
 11
3.9404218111
 21
7.217971553
  0
LINE
  5
250
100
AcDbEntity
  8
0
100
AcDbLine
 62
6
  6
CONTINUOUS
 10
3.9592716194
 20
7.6335944206
 11
3.9592716194
 21
7.239471553
  0
LINE
  5
251
100
AcDbEntity
  8
0
100
AcDbLine
 62
6
  6
CONTINUOUS
 10
3.9780936932
 20
7.217971553
 11
3.9780936932
 21
7.6460074514
  0
LINE
  5
252
100
AcDbEntity
  8
0
100
AcDbLine
 62
6
  6
CONTINUOUS
 10
3.9954092309
 20
7.6460074514
 11
3.9954092309
 21
7.217971553
  0
LINE
  5
253
100
AcDbEntity
  8
0
100
AcDbLine
 62
6
  6
CONTINUOUS
 10
3.9985059263
 20
7.239471553
 11
3.9985059263
 21
7.6335944206
  0
LINE
  5
254
100
AcDbEntity
  8
0
100
AcDbLine
 62
6
  6
CONTINUOUS
 10
4.0279838932
 20
7.6335944206
 11
4.0279838932
 21
7.239471553
  0
LINE
  5
255
100
AcDbEntity
  8
0
100
AcDbLine
 62
6
  6
CONTINUOUS
 10
4.0398462456
 20
7.217971553
 11
4.0398462456
 21
7.6460074514
  0
LINE
  5
256
100
AcDbEntity
  8
0
100
AcDbLine
 62
6
  6
CONTINUOUS
 10
4.0585884485
 20
7.6460074514
 11
4.0585884485
 21
7.217971553
  0
LINE
  5
257
100
AcDbEntity
  8
0
100
AcDbLine
 62
6
  6
CONTINUOUS
 10
4.0704508009
 20
7.239471553
 11
4.0704508009
 21
7.6335944206
  0
LINE
  5
258
100
AcDbEntity
  8
0
100
AcDbLine
 62
6
  6
CONTINUOUS
 10
4.0999287679
 20
7.6335944206
 11
4.0999287679
 21
7.239471553
  0
LINE
  5
259
100
AcDbEntity
  8
0
100
AcDbLine
 62
6
  6
CONTINUOUS
 10
4.1030254632
 20
7.217971553
 11
4.1030254632
 21
7.6460074514
  0
LINE
  5
25A
100
AcDbEntity
  8
0
100
AcDbLine
 62
6
  6
CONTINUOUS
 10
4.120341001
 20
7.6460074514
 11
4.120341001
 21
7.217971553
  0
LINE
  5
25B
100
AcDbEntity
  8
0
100
AcDbLine
 62
6
  6
CONTINUOUS
 10
4.1391630747
 20
7.239471553
 11
4.1391630747
 21
7.6335944206
  0
LINE
  5
25C
100
AcDbEntity
  8
0
100
AcDbLine
 62
6
  6
CONTINUOUS
 10
4.1641532884
 20
7.6335944206
 11
4.1641532884
 21
7.239471553
  0
LINE
  5
25D
100
AcDbEntity
  8
0
100
AcDbLine
 62
6
  6
CONTINUOUS
 10
4.1712656218
 20
7.6460074514
 11
4.1712656218
 21
7.217971553
  0
LINE
  5
25E
100
AcDbEntity
  8
0
100
AcDbLine
 62
6
  6
CONTINUOUS
 10
4.1941819268
 20
7.239471553
 11
4.1941819268
 21
7.6335944206
  0
LINE
  5
25F
100
AcDbEntity
  8
0
100
AcDbLine
 62
6
  6
CONTINUOUS
 10
4.2036094992
 20
7.6460074514
 11
4.2036094992
 21
7.6398801318
  0
LINE
  5
260
100
AcDbEntity
  8
0
100
AcDbLine
 62
6
  6
CONTINUOUS
 10
4.2036094992
 20
7.2285843792
 11
4.2036094992
 21
7.217971553
  0
LINE
  5
261
100
AcDbEntity
  8
0
100
AcDbLine
 62
6
  6
CONTINUOUS
 10
4.2067173471
 20
7.684471553
 11
4.2067173471
 21
7.649471553
  0
LINE
  5
262
100
AcDbEntity
  8
0
100
AcDbLine
 62
6
  6
CONTINUOUS
 10
4.2108798538
 20
7.6335944206
 11
4.2108798538
 21
7.239471553
  0
LINE
  5
263
100
AcDbEntity
  8
0
100
AcDbLine
 62
6
  6
CONTINUOUS
 10
4.2174173471
 20
7.2231182968
 11
4.2174173471
 21
7.209471553
  0
LINE
  5
264
100
AcDbEntity
  8
0
100
AcDbLine
 62
6
  6
CONTINUOUS
 10
4.2271312358
 20
7.239471553
 11
4.2271312358
 21
7.6335944206
  0
LINE
  5
265
100
AcDbEntity
  8
0
100
AcDbLine
 62
6
  6
CONTINUOUS
 10
4.2607173471
 20
7.584471553
 11
4.2607173471
 21
7.209471553
  0
LINE
  5
266
100
AcDbEntity
  8
0
100
AcDbLine
 62
7
  6
CONTINUOUS
 10
4.3035549245
 20
7.6973104636
 11
4.3035549245
 21
7.7031973607
  0
LINE
  5
267
100
AcDbEntity
  8
0
100
AcDbLine
 62
7
  6
CONTINUOUS
 10
4.3036946224
 20
7.7406885127
 11
4.3036946224
 21
7.7532399414
  0
LINE
  5
268
100
AcDbEntity
  8
0
100
AcDbLine
 62
6
  6
CONTINUOUS
 10
4.232022853
 20
7.2384427431
 11
4.232994768
 21
7.6335944206
  0
LINE
  5
269
100
AcDbEntity
  8
0
100
AcDbLine
 62
7
  6
CONTINUOUS
 10
3.7832277943
 20
7.7093643342
 11
3.7831035091
 21
7.7090853909
  0
LINE
  5
26A
100
AcDbEntity
  8
0
100
AcDbLine
 62
6
  6
CONTINUOUS
 10
7.6992173471
 20
12.8730888825
 11
7.6992218698
 21
12.8730932306
  0
LINE
  5
26B
100
AcDbEntity
  8
0
100
AcDbLine
 62
7
  6
CONTINUOUS
 10
3.6144336932
 20
7.9690765429
 11
3.6392340033
 21
7.8284269951
  0
LINE
  5
26C
100
AcDbEntity
  8
0
100
AcDbLine
 62
7
  6
CONTINUOUS
 10
4.4589644703
 20
7.8284269951
 11
4.4837647804
 21
7.9690765429
  0
LINE
  5
26D
100
AcDbEntity
  8
0
100
AcDbLine
 62
7
  6
CONTINUOUS
 10
3.7677173471
 20
7.7502937998
 11
3.7680634859
 21
7.7506806394
  0
LINE
  5
26E
100
AcDbEntity
  8
0
100
AcDbLine
 62
7
  6
CONTINUOUS
 10
5.2190992368
 20
9.757971553
 11
5.2190992368
 21
9.771971553
  0
LINE
  5
26F
100
AcDbEntity
  8
0
100
AcDbLine
 62
7
  6
CONTINUOUS
 10
4.3307173471
 20
7.724471553
 11
4.3175172838
 21
7.7112714897
  0
LINE
  5
270
100
AcDbEntity
  8
0
100
AcDbLine
 62
7
  6
CONTINUOUS
 10
4.3037173469
 20
7.6974715528
 11
4.2907173471
 21
7.684471553
  0
LINE
  5
271
100
AcDbEntity
  8
0
100
AcDbLine
 62
6
  6
CONTINUOUS
 10
3.8942173471
 20
7.209471553
 11
3.8876173471
 21
7.216071553
  0
LINE
  5
272
100
AcDbEntity
  8
0
100
AcDbLine
 62
7
  6
CONTINUOUS
 10
3.7831035091
 20
7.7090853909
 11
3.8077173471
 21
7.684471553
  0
LINE
  5
273
100
AcDbEntity
  8
0
100
AcDbLine
 62
6
  6
CONTINUOUS
 10
4.2108173471
 20
7.216071553
 11
4.2042173471
 21
7.209471553
  0
LINE
  5
274
100
AcDbEntity
  8
0
100
AcDbLine
 62
7
  6
CONTINUOUS
 10
4.3175205599
 20
7.7112747698
 11
4.3160781368
 21
7.7102297885
  0
LINE
  5
275
100
AcDbEntity
  8
0
100
AcDbLine
 62
7
  6
CONTINUOUS
 10
4.3031878039
 20
7.7027676024
 11
4.3162483666
 21
7.7104016137
  0
LINE
  5
276
100
AcDbEntity
  8
0
100
AcDbLine
 62
7
  6
CONTINUOUS
 10
4.3033346964
 20
7.7528204854
 11
4.3224242572
 21
7.763971553
  0
LINE
  5
277
100
AcDbEntity
  8
0
100
AcDbLine
 62
6
  6
CONTINUOUS
 10
3.8917173471
 20
7.649471553
 11
3.8857173471
 21
7.6460074514
  0
LINE
  5
278
100
AcDbEntity
  8
0
100
AcDbLine
 62
7
  6
CONTINUOUS
 10
3.7952972456
 20
7.7162240667
 11
3.7832594922
 21
7.7093326545
  0
LINE
  5
279
100
AcDbEntity
  8
0
100
AcDbLine
 62
7
  6
CONTINUOUS
 10
4.3292160641
 20
7.724471553
 11
4.330717347
 21
7.7252938935
  0
LINE
  5
27A
100
AcDbEntity
  8
0
100
AcDbLine
 62
9
  6
CONTINUOUS
 10
7.7365992368
 20
5.007971553
 11
8.3615992368
 21
5.007971553
  0
LINE
  5
27B
100
AcDbEntity
  8
0
100
AcDbLine
 62
6
  6
CONTINUOUS
 10
4.2067173471
 20
7.649471553
 11
4.2127173471
 21
7.6460074514
  0
LINE
  5
27C
100
AcDbEntity
  8
0
100
AcDbLine
 62
7
  6
CONTINUOUS
 10
3.7680356668
 20
7.7437294639
 11
3.7952851857
 21
7.7278006228
  0
LINE
  5
27D
100
AcDbEntity
  8
0
100
AcDbLine
 62
6
  6
CONTINUOUS
 10
6.7490992368
 20
9.757971553
 11
6.7490992368
 21
9.771971553
  0
LINE
  5
27E
100
AcDbEntity
  8
0
100
AcDbLine
 62
7
  6
CONTINUOUS
 10
4.3303982266
 20
7.7255853752
 11
4.3033595312
 21
7.741063268
  0
LINE
  5
27F
100
AcDbEntity
  8
0
100
AcDbLine
 62
7
  6
CONTINUOUS
 10
7.7365992368
 20
7.007971553
 11
7.7365992368
 21
1.5152748809
  0
LINE
  5
280
100
AcDbEntity
  8
0
100
AcDbLine
 62
7
  6
CONTINUOUS
 10
7.7365992368
 20
1.511819194
 11
7.7365992368
 21
1.5113012249
  0
LINE
  5
281
100
AcDbEntity
  8
0
100
AcDbLine
 62
9
  6
CONTINUOUS
 10
7.6140992368
 20
7.007971553
 11
8.4840992368
 21
7.007971553
  0
LINE
  5
282
100
AcDbEntity
  8
0
100
AcDbLine
 62
6
  6
CONTINUOUS
 10
7.6140992368
 20
7.137971553
 11
8.4840992368
 21
7.137971553
  0
LINE
  5
283
100
AcDbEntity
  8
0
100
AcDbLine
 62
6
  6
CONTINUOUS
 10
12.2605992368
 20
7.209471553
 11
12.2172992368
 21
7.209471553
  0
LINE
  5
284
100
AcDbEntity
  8
0
100
AcDbLine
 62
6
  6
CONTINUOUS
 10
11.8808992368
 20
7.209471553
 11
11.8375992368
 21
7.209471553
  0
LINE
  5
285
100
AcDbEntity
  8
0
100
AcDbLine
 62
6
  6
CONTINUOUS
 10
4.2607173471
 20
7.209471553
 11
4.2174173471
 21
7.209471553
  0
LINE
  5
286
100
AcDbEntity
  8
0
100
AcDbLine
 62
6
  6
CONTINUOUS
 10
3.8810173471
 20
7.209471553
 11
3.8377173471
 21
7.209471553
  0
LINE
  5
287
100
AcDbEntity
  8
0
100
AcDbLine
 62
6
  6
CONTINUOUS
 10
3.8942173471
 20
7.209471553
 11
4.2042173471
 21
7.209471553
  0
LINE
  5
288
100
AcDbEntity
  8
0
100
AcDbLine
 62
6
  6
CONTINUOUS
 10
11.8940992368
 20
7.209471553
 11
12.2040992368
 21
7.209471553
  0
LINE
  5
289
100
AcDbEntity
  8
0
100
AcDbLine
 62
6
  6
CONTINUOUS
 10
3.8948251949
 20
7.217971553
 11
3.9019975255
 21
7.217971553
  0
LINE
  5
28A
100
AcDbEntity
  8
0
100
AcDbLine
 62
6
  6
CONTINUOUS
 10
3.8858368213
 20
7.217971553
 11
3.8859861232
 21
7.217971553
  0
LINE
  5
28B
100
AcDbEntity
  8
0
100
AcDbLine
 62
6
  6
CONTINUOUS
 10
3.9271690723
 20
7.217971553
 11
3.9404218111
 21
7.217971553
  0
LINE
  5
28C
100
AcDbEntity
  8
0
100
AcDbLine
 62
6
  6
CONTINUOUS
 10
3.9780936932
 20
7.217971553
 11
3.9954092309
 21
7.217971553
  0
LINE
  5
28D
100
AcDbEntity
  8
0
100
AcDbLine
 62
6
  6
CONTINUOUS
 10
4.0398462456
 20
7.217971553
 11
4.0585884485
 21
7.217971553
  0
LINE
  5
28E
100
AcDbEntity
  8
0
100
AcDbLine
 62
6
  6
CONTINUOUS
 10
4.1030254632
 20
7.217971553
 11
4.120341001
 21
7.217971553
  0
LINE
  5
28F
100
AcDbEntity
  8
0
100
AcDbLine
 62
6
  6
CONTINUOUS
 10
4.158012883
 20
7.217971553
 11
4.1712656218
 21
7.217971553
  0
LINE
  5
290
100
AcDbEntity
  8
0
100
AcDbLine
 62
6
  6
CONTINUOUS
 10
4.1964371686
 20
7.217971553
 11
4.2036094992
 21
7.217971553
  0
LINE
  5
291
100
AcDbEntity
  8
0
100
AcDbLine
 62
6
  6
CONTINUOUS
 10
4.212448571
 20
7.217971553
 11
4.2126874758
 21
7.217971553
  0
LINE
  5
292
100
AcDbEntity
  8
0
100
AcDbLine
 62
6
  6
CONTINUOUS
 10
11.8857187111
 20
7.217971553
 11
11.8858680129
 21
7.217971553
  0
LINE
  5
293
100
AcDbEntity
  8
0
100
AcDbLine
 62
6
  6
CONTINUOUS
 10
11.8947070847
 20
7.217971553
 11
11.9018794153
 21
7.217971553
  0
LINE
  5
294
100
AcDbEntity
  8
0
100
AcDbLine
 62
6
  6
CONTINUOUS
 10
11.9270509621
 20
7.217971553
 11
11.9403037009
 21
7.217971553
  0
LINE
  5
295
100
AcDbEntity
  8
0
100
AcDbLine
 62
6
  6
CONTINUOUS
 10
11.9779755829
 20
7.217971553
 11
11.9952911207
 21
7.217971553
  0
LINE
  5
296
100
AcDbEntity
  8
0
100
AcDbLine
 62
6
  6
CONTINUOUS
 10
12.0397281353
 20
7.217971553
 11
12.0584703383
 21
7.217971553
  0
LINE
  5
297
100
AcDbEntity
  8
0
100
AcDbLine
 62
6
  6
CONTINUOUS
 10
12.102907353
 20
7.217971553
 11
12.1202228907
 21
7.217971553
  0
LINE
  5
298
100
AcDbEntity
  8
0
100
AcDbLine
 62
6
  6
CONTINUOUS
 10
12.1578947727
 20
7.217971553
 11
12.1711475116
 21
7.217971553
  0
LINE
  5
299
100
AcDbEntity
  8
0
100
AcDbLine
 62
6
  6
CONTINUOUS
 10
12.1963190584
 20
7.217971553
 11
12.2034913889
 21
7.217971553
  0
LINE
  5
29A
100
AcDbEntity
  8
0
100
AcDbLine
 62
6
  6
CONTINUOUS
 10
12.2123304607
 20
7.217971553
 11
12.2125693655
 21
7.217971553
  0
LINE
  5
29B
100
AcDbEntity
  8
0
100
AcDbLine
 62
6
  6
CONTINUOUS
 10
3.8875548403
 20
7.239471553
 11
3.9042527673
 21
7.239471553
  0
LINE
  5
29C
100
AcDbEntity
  8
0
100
AcDbLine
 62
6
  6
CONTINUOUS
 10
3.9342814057
 20
7.239471553
 11
3.9592716194
 21
7.239471553
  0
LINE
  5
29D
100
AcDbEntity
  8
0
100
AcDbLine
 62
6
  6
CONTINUOUS
 10
3.9985059263
 20
7.239471553
 11
4.0279838932
 21
7.239471553
  0
LINE
  5
29E
100
AcDbEntity
  8
0
100
AcDbLine
 62
6
  6
CONTINUOUS
 10
4.0704508009
 20
7.239471553
 11
4.0999287679
 21
7.239471553
  0
LINE
  5
29F
100
AcDbEntity
  8
0
100
AcDbLine
 62
6
  6
CONTINUOUS
 10
4.1391630747
 20
7.239471553
 11
4.1641532884
 21
7.239471553
  0
LINE
  5
2A0
100
AcDbEntity
  8
0
100
AcDbLine
 62
6
  6
CONTINUOUS
 10
4.1941819268
 20
7.239471553
 11
4.2108798538
 21
7.239471553
  0
LINE
  5
2A1
100
AcDbEntity
  8
0
100
AcDbLine
 62
6
  6
CONTINUOUS
 10
11.8874367301
 20
7.239471553
 11
11.9041346571
 21
7.239471553
  0
LINE
  5
2A2
100
AcDbEntity
  8
0
100
AcDbLine
 62
6
  6
CONTINUOUS
 10
11.9341632955
 20
7.239471553
 11
11.9591535092
 21
7.239471553
  0
LINE
  5
2A3
100
AcDbEntity
  8
0
100
AcDbLine
 62
6
  6
CONTINUOUS
 10
11.998387816
 20
7.239471553
 11
12.027865783
 21
7.239471553
  0
LINE
  5
2A4
100
AcDbEntity
  8
0
100
AcDbLine
 62
6
  6
CONTINUOUS
 10
12.0703326907
 20
7.239471553
 11
12.0998106576
 21
7.239471553
  0
LINE
  5
2A5
100
AcDbEntity
  8
0
100
AcDbLine
 62
6
  6
CONTINUOUS
 10
12.1390449645
 20
7.239471553
 11
12.1640351782
 21
7.239471553
  0
LINE
  5
2A6
100
AcDbEntity
  8
0
100
AcDbLine
 62
6
  6
CONTINUOUS
 10
12.1940638166
 20
7.239471553
 11
12.2107617435
 21
7.239471553
  0
LINE
  5
2A7
100
AcDbEntity
  8
0
100
AcDbLine
 62
9
  6
CONTINUOUS
 10
8.4440411535
 20
7.2423124204
 11
7.6541573202
 21
7.2423124204
  0
LINE
  5
2A8
100
AcDbEntity
  8
0
100
AcDbLine
 62
7
  6
CONTINUOUS
 10
8.3615992368
 20
7.007971553
 11
8.3615992368
 21
1.5152748809
  0
LINE
  5
2A9
100
AcDbEntity
  8
0
100
AcDbLine
 62
7
  6
CONTINUOUS
 10
8.3615992368
 20
1.510205199
 11
8.3615992368
 21
1.5096872289
  0
LINE
  5
2AA
100
AcDbEntity
  8
0
100
AcDbLine
 62
9
  6
CONTINUOUS
 10
8.4440411535
 20
7.5236306855
 11
7.6541573202
 21
7.5236306855
  0
LINE
  5
2AB
100
AcDbEntity
  8
0
100
AcDbLine
 62
6
  6
CONTINUOUS
 10
12.2605992368
 20
7.584471553
 11
12.2329267322
 21
7.584471553
  0
LINE
  5
2AC
100
AcDbEntity
  8
0
100
AcDbLine
 62
6
  6
CONTINUOUS
 10
11.8672656459
 20
7.584471553
 11
11.8375992368
 21
7.584471553
  0
LINE
  5
2AD
100
AcDbEntity
  8
0
100
AcDbLine
 62
6
  6
CONTINUOUS
 10
4.2607173471
 20
7.584471553
 11
4.2330448424
 21
7.584471553
  0
LINE
  5
2AE
100
AcDbEntity
  8
0
100
AcDbLine
 62
6
  6
CONTINUOUS
 10
3.8673837561
 20
7.584471553
 11
3.8377173471
 21
7.584471553
  0
LINE
  5
2AF
100
AcDbEntity
  8
0
100
AcDbLine
 62
6
  6
CONTINUOUS
 10
8.4840992368
 20
7.627971553
 11
7.6140992368
 21
7.627971553
  0
LINE
  5
2B0
100
AcDbEntity
  8
0
100
AcDbLine
 62
6
  6
CONTINUOUS
 10
12.2328766577
 20
7.6335944206
 11
12.2270131255
 21
7.6335944206
  0
LINE
  5
2B1
100
AcDbEntity
  8
0
100
AcDbLine
 62
6
  6
CONTINUOUS
 10
12.2107617435
 20
7.6335944206
 11
12.1940638166
 21
7.6335944206
  0
LINE
  5
2B2
100
AcDbEntity
  8
0
100
AcDbLine
 62
6
  6
CONTINUOUS
 10
12.1640351782
 20
7.6335944206
 11
12.1390449645
 21
7.6335944206
  0
LINE
  5
2B3
100
AcDbEntity
  8
0
100
AcDbLine
 62
6
  6
CONTINUOUS
 10
12.0998106576
 20
7.6335944206
 11
12.0703326907
 21
7.6335944206
  0
LINE
  5
2B4
100
AcDbEntity
  8
0
100
AcDbLine
 62
6
  6
CONTINUOUS
 10
12.027865783
 20
7.6335944206
 11
11.998387816
 21
7.6335944206
  0
LINE
  5
2B5
100
AcDbEntity
  8
0
100
AcDbLine
 62
6
  6
CONTINUOUS
 10
11.9591535092
 20
7.6335944206
 11
11.9341632955
 21
7.6335944206
  0
LINE
  5
2B6
100
AcDbEntity
  8
0
100
AcDbLine
 62
6
  6
CONTINUOUS
 10
11.9041346571
 20
7.6335944206
 11
11.8874367301
 21
7.6335944206
  0
LINE
  5
2B7
100
AcDbEntity
  8
0
100
AcDbLine
 62
6
  6
CONTINUOUS
 10
11.8711853481
 20
7.6335944206
 11
11.8653218159
 21
7.6335944206
  0
LINE
  5
2B8
100
AcDbEntity
  8
0
100
AcDbLine
 62
6
  6
CONTINUOUS
 10
4.232994768
 20
7.6335944206
 11
4.2271312358
 21
7.6335944206
  0
LINE
  5
2B9
100
AcDbEntity
  8
0
100
AcDbLine
 62
6
  6
CONTINUOUS
 10
4.2108798538
 20
7.6335944206
 11
4.1941819268
 21
7.6335944206
  0
LINE
  5
2BA
100
AcDbEntity
  8
0
100
AcDbLine
 62
6
  6
CONTINUOUS
 10
4.1641532884
 20
7.6335944206
 11
4.1391630747
 21
7.6335944206
  0
LINE
  5
2BB
100
AcDbEntity
  8
0
100
AcDbLine
 62
6
  6
CONTINUOUS
 10
4.0999287679
 20
7.6335944206
 11
4.0704508009
 21
7.6335944206
  0
LINE
  5
2BC
100
AcDbEntity
  8
0
100
AcDbLine
 62
6
  6
CONTINUOUS
 10
4.0279838932
 20
7.6335944206
 11
3.9985059263
 21
7.6335944206
  0
LINE
  5
2BD
100
AcDbEntity
  8
0
100
AcDbLine
 62
6
  6
CONTINUOUS
 10
3.9592716194
 20
7.6335944206
 11
3.9342814057
 21
7.6335944206
  0
LINE
  5
2BE
100
AcDbEntity
  8
0
100
AcDbLine
 62
6
  6
CONTINUOUS
 10
3.9042527673
 20
7.6335944206
 11
3.8875548403
 21
7.6335944206
  0
LINE
  5
2BF
100
AcDbEntity
  8
0
100
AcDbLine
 62
6
  6
CONTINUOUS
 10
3.8713034583
 20
7.6335944206
 11
3.8654399261
 21
7.6335944206
  0
LINE
  5
2C0
100
AcDbEntity
  8
0
100
AcDbLine
 62
6
  6
CONTINUOUS
 10
12.2034913889
 20
7.6460074514
 11
12.1963190584
 21
7.6460074514
  0
LINE
  5
2C1
100
AcDbEntity
  8
0
100
AcDbLine
 62
6
  6
CONTINUOUS
 10
12.1711475116
 20
7.6460074514
 11
12.1578947727
 21
7.6460074514
  0
LINE
  5
2C2
100
AcDbEntity
  8
0
100
AcDbLine
 62
6
  6
CONTINUOUS
 10
12.1202228907
 20
7.6460074514
 11
12.102907353
 21
7.6460074514
  0
LINE
  5
2C3
100
AcDbEntity
  8
0
100
AcDbLine
 62
6
  6
CONTINUOUS
 10
12.0584703383
 20
7.6460074514
 11
12.0397281353
 21
7.6460074514
  0
LINE
  5
2C4
100
AcDbEntity
  8
0
100
AcDbLine
 62
6
  6
CONTINUOUS
 10
11.9952911207
 20
7.6460074514
 11
11.9779755829
 21
7.6460074514
  0
LINE
  5
2C5
100
AcDbEntity
  8
0
100
AcDbLine
 62
6
  6
CONTINUOUS
 10
11.9403037009
 20
7.6460074514
 11
11.9270509621
 21
7.6460074514
  0
LINE
  5
2C6
100
AcDbEntity
  8
0
100
AcDbLine
 62
6
  6
CONTINUOUS
 10
11.9018794153
 20
7.6460074514
 11
11.8947070847
 21
7.6460074514
  0
LINE
  5
2C7
100
AcDbEntity
  8
0
100
AcDbLine
 62
6
  6
CONTINUOUS
 10
11.8858680129
 20
7.6460074514
 11
11.8856291081
 21
7.6460074514
  0
LINE
  5
2C8
100
AcDbEntity
  8
0
100
AcDbLine
 62
6
  6
CONTINUOUS
 10
4.2036094992
 20
7.6460074514
 11
4.1964371686
 21
7.6460074514
  0
LINE
  5
2C9
100
AcDbEntity
  8
0
100
AcDbLine
 62
6
  6
CONTINUOUS
 10
4.1712656218
 20
7.6460074514
 11
4.158012883
 21
7.6460074514
  0
LINE
  5
2CA
100
AcDbEntity
  8
0
100
AcDbLine
 62
6
  6
CONTINUOUS
 10
4.120341001
 20
7.6460074514
 11
4.1030254632
 21
7.6460074514
  0
LINE
  5
2CB
100
AcDbEntity
  8
0
100
AcDbLine
 62
6
  6
CONTINUOUS
 10
4.0585884485
 20
7.6460074514
 11
4.0398462456
 21
7.6460074514
  0
LINE
  5
2CC
100
AcDbEntity
  8
0
100
AcDbLine
 62
6
  6
CONTINUOUS
 10
3.9954092309
 20
7.6460074514
 11
3.9780936932
 21
7.6460074514
  0
LINE
  5
2CD
100
AcDbEntity
  8
0
100
AcDbLine
 62
6
  6
CONTINUOUS
 10
3.9404218111
 20
7.6460074514
 11
3.9271690723
 21
7.6460074514
  0
LINE
  5
2CE
100
AcDbEntity
  8
0
100
AcDbLine
 62
6
  6
CONTINUOUS
 10
3.9019975255
 20
7.6460074514
 11
3.8948251949
 21
7.6460074514
  0
LINE
  5
2CF
100
AcDbEntity
  8
0
100
AcDbLine
 62
6
  6
CONTINUOUS
 10
3.8859861232
 20
7.6460074514
 11
3.8857472183
 21
7.6460074514
  0
LINE
  5
2D0
100
AcDbEntity
  8
0
100
AcDbLine
 62
6
  6
CONTINUOUS
 10
3.8917173471
 20
7.649471553
 11
4.2067173471
 21
7.649471553
  0
LINE
  5
2D1
100
AcDbEntity
  8
0
100
AcDbLine
 62
6
  6
CONTINUOUS
 10
11.8915992368
 20
7.649471553
 11
12.2065992368
 21
7.649471553
  0
LINE
  5
2D2
100
AcDbEntity
  8
0
100
AcDbLine
 62
7
  6
CONTINUOUS
 10
12.2905992368
 20
7.684471553
 11
11.8075992368
 21
7.684471553
  0
LINE
  5
2D3
100
AcDbEntity
  8
0
100
AcDbLine
 62
7
  6
CONTINUOUS
 10
4.2907173471
 20
7.684471553
 11
3.8077173471
 21
7.684471553
  0
LINE
  5
2D4
100
AcDbEntity
  8
0
100
AcDbLine
 62
7
  6
CONTINUOUS
 10
4.3292160641
 20
7.724471553
 11
4.3307173471
 21
7.724471553
  0
LINE
  5
2D5
100
AcDbEntity
  8
0
100
AcDbLine
 62
7
  6
CONTINUOUS
 10
12.3290979538
 20
7.724471553
 11
12.3305992368
 21
7.724471553
  0
LINE
  5
2D6
100
AcDbEntity
  8
0
100
AcDbLine
 62
9
  6
CONTINUOUS
 10
7.6140992368
 20
7.757971553
 11
8.4840992368
 21
7.757971553
  0
LINE
  5
2D7
100
AcDbEntity
  8
0
100
AcDbLine
 62
7
  6
CONTINUOUS
 10
3.7160490081
 20
7.763971553
 11
4.3821494656
 21
7.763971553
  0
LINE
  5
2D8
100
AcDbEntity
  8
0
100
AcDbLine
 62
7
  6
CONTINUOUS
 10
11.7160490081
 20
7.763971553
 11
12.3821494656
 21
7.763971553
  0
LINE
  5
2D9
100
AcDbEntity
  8
0
100
AcDbLine
 62
9
  6
CONTINUOUS
 10
3.6392340033
 20
7.8284269951
 11
4.4589644703
 21
7.8284269951
  0
LINE
  5
2DA
100
AcDbEntity
  8
0
100
AcDbLine
 62
9
  6
CONTINUOUS
 10
11.6392340033
 20
7.8284269951
 11
12.4589644703
 21
7.8284269951
  0
LINE
  5
2DB
100
AcDbEntity
  8
0
100
AcDbLine
 62
9
  6
CONTINUOUS
 10
3.6144336932
 20
7.9690765429
 11
4.4837647804
 21
7.9690765429
  0
LINE
  5
2DC
100
AcDbEntity
  8
0
100
AcDbLine
 62
9
  6
CONTINUOUS
 10
11.6144336932
 20
7.9690765429
 11
12.4837647804
 21
7.9690765429
  0
LINE
  5
2DD
100
AcDbEntity
  8
0
100
AcDbLine
 62
9
  6
CONTINUOUS
 10
12.5735943373
 20
8.1594770731
 11
11.5246041363
 21
8.1594770731
  0
LINE
  5
2DE
100
AcDbEntity
  8
0
100
AcDbLine
 62
9
  6
CONTINUOUS
 10
4.5735943373
 20
8.1594770731
 11
3.5246041363
 21
8.1594770731
  0
LINE
  5
2DF
100
AcDbEntity
  8
0
100
AcDbLine
 62
9
  6
CONTINUOUS
 10
8.6630565055
 20
8.2441918723
 11
7.4351419682
 21
8.2441918723
  0
LINE
  5
2E0
100
AcDbEntity
  8
0
100
AcDbLine
 62
6
  6
CONTINUOUS
 10
9.3490992368
 20
9.771971553
 11
9.3490992368
 21
9.757971553
  0
LINE
  5
2E1
100
AcDbEntity
  8
0
100
AcDbLine
 62
6
  6
CONTINUOUS
 10
11.8915992368
 20
7.649471553
 11
11.8855992368
 21
7.6460074514
  0
LINE
  5
2E2
100
AcDbEntity
  8
0
100
AcDbLine
 62
7
  6
CONTINUOUS
 10
11.7951791353
 20
7.7162240667
 11
11.783141382
 21
7.7093326545
  0
LINE
  5
2E3
100
AcDbEntity
  8
0
100
AcDbLine
 62
9
  6
CONTINUOUS
 10
12.8368468003
 20
8.697971553
 11
11.2613516733
 21
8.697971553
  0
LINE
  5
2E4
100
AcDbEntity
  8
0
100
AcDbLine
 62
9
  6
CONTINUOUS
 10
4.8368468003
 20
8.697971553
 11
3.2613516733
 21
8.697971553
  0
LINE
  5
2E5
100
AcDbEntity
  8
0
100
AcDbLine
 62
9
  6
CONTINUOUS
 10
7.1616120132
 20
8.7206153853
 11
8.9365864605
 21
8.7206153853
  0
LINE
  5
2E6
100
AcDbEntity
  8
0
100
AcDbLine
 62
7
  6
CONTINUOUS
 10
12.3174024497
 20
7.7112747698
 11
12.3159600265
 21
7.7102297885
  0
LINE
  5
2E7
100
AcDbEntity
  8
0
100
AcDbLine
 62
7
  6
CONTINUOUS
 10
12.3030696936
 20
7.7027676024
 11
12.3161302563
 21
7.7104016137
  0
LINE
  5
2E8
100
AcDbEntity
  8
0
100
AcDbLine
 62
7
  6
CONTINUOUS
 10
12.3032165862
 20
7.7528204854
 11
12.3223061469
 21
7.763971553
  0
LINE
  5
2E9
100
AcDbEntity
  8
0
100
AcDbLine
 62
7
  6
CONTINUOUS
 10
12.3290979538
 20
7.724471553
 11
12.3305992368
 21
7.7252938935
  0
LINE
  5
2EA
100
AcDbEntity
  8
0
100
AcDbLine
 62
9
  6
CONTINUOUS
 10
3.2336286743
 20
9.102971553
 11
4.8645697993
 21
9.102971553
  0
LINE
  5
2EB
100
AcDbEntity
  8
0
100
AcDbLine
 62
9
  6
CONTINUOUS
 10
11.2336286743
 20
9.102971553
 11
12.8645697993
 21
9.102971553
  0
LINE
  5
2EC
100
AcDbEntity
  8
0
100
AcDbLine
 62
6
  6
CONTINUOUS
 10
6.9990992368
 20
9.381971553
 11
9.0990992368
 21
9.381971553
  0
LINE
  5
2ED
100
AcDbEntity
  8
0
100
AcDbLine
 62
9
  6
CONTINUOUS
 10
12.9909230071
 20
9.391971553
 11
11.1072754666
 21
9.391971553
  0
LINE
  5
2EE
100
AcDbEntity
  8
0
100
AcDbLine
 62
9
  6
CONTINUOUS
 10
4.9909230071
 20
9.391971553
 11
3.1072754666
 21
9.391971553
  0
LINE
  5
2EF
100
AcDbEntity
  8
0
100
AcDbLine
 62
9
  6
CONTINUOUS
 10
6.9674928126
 20
9.4058171865
 11
9.130705661
 21
9.4058171865
  0
LINE
  5
2F0
100
AcDbEntity
  8
0
100
AcDbLine
 62
9
  6
CONTINUOUS
 10
3.0971510832
 20
9.406971553
 11
5.0010473905
 21
9.406971553
  0
LINE
  5
2F1
100
AcDbEntity
  8
0
100
AcDbLine
 62
9
  6
CONTINUOUS
 10
11.0971510832
 20
9.406971553
 11
13.0010473905
 21
9.406971553
  0
LINE
  5
2F2
100
AcDbEntity
  8
0
100
AcDbLine
 62
9
  6
CONTINUOUS
 10
13.0284427939
 20
9.441971553
 11
11.0697556798
 21
9.441971553
  0
LINE
  5
2F3
100
AcDbEntity
  8
0
100
AcDbLine
 62
9
  6
CONTINUOUS
 10
9.1584427939
 20
9.441971553
 11
6.9397556798
 21
9.441971553
  0
LINE
  5
2F4
100
AcDbEntity
  8
0
100
AcDbLine
 62
9
  6
CONTINUOUS
 10
5.0284427939
 20
9.441971553
 11
3.0697556798
 21
9.441971553
  0
LINE
  5
2F5
100
AcDbEntity
  8
0
100
AcDbLine
 62
9
  6
CONTINUOUS
 10
3.0326287305
 20
9.497971553
 11
5.0655697432
 21
9.497971553
  0
LINE
  5
2F6
100
AcDbEntity
  8
0
100
AcDbLine
 62
9
  6
CONTINUOUS
 10
6.9026287305
 20
9.497971553
 11
9.1955697432
 21
9.497971553
  0
LINE
  5
2F7
100
AcDbEntity
  8
0
100
AcDbLine
 62
9
  6
CONTINUOUS
 10
11.0326287305
 20
9.497971553
 11
13.0655697432
 21
9.497971553
  0
LINE
  5
2F8
100
AcDbEntity
  8
0
100
AcDbLine
 62
9
  6
CONTINUOUS
 10
13.0898451644
 20
9.538971553
 11
11.0083533092
 21
9.538971553
  0
LINE
  5
2F9
100
AcDbEntity
  8
0
100
AcDbLine
 62
9
  6
CONTINUOUS
 10
9.2198451644
 20
9.538971553
 11
6.8783533092
 21
9.538971553
  0
LINE
  5
2FA
100
AcDbEntity
  8
0
100
AcDbLine
 62
9
  6
CONTINUOUS
 10
5.0898451644
 20
9.538971553
 11
3.0083533092
 21
9.538971553
  0
LINE
  5
2FB
100
AcDbEntity
  8
0
100
AcDbLine
 62
7
  6
CONTINUOUS
 10
11.7679175566
 20
7.7437294639
 11
11.7951670754
 21
7.7278006228
  0
LINE
  5
2FC
100
AcDbEntity
  8
0
100
AcDbLine
 62
7
  6
CONTINUOUS
 10
11.7675992368
 20
7.7502937998
 11
11.7679453757
 21
7.7506806286
  0
LINE
  5
2FD
100
AcDbEntity
  8
0
100
AcDbLine
 62
7
  6
CONTINUOUS
 10
12.3305992368
 20
7.724471553
 11
12.3173991736
 21
7.7112714897
  0
LINE
  5
2FE
100
AcDbEntity
  8
0
100
AcDbLine
 62
7
  6
CONTINUOUS
 10
12.3035992366
 20
7.6974715528
 11
12.2905992368
 21
7.684471553
  0
LINE
  5
2FF
100
AcDbEntity
  8
0
100
AcDbLine
 62
9
  6
CONTINUOUS
 10
2.9771768672
 20
9.596971553
 11
5.1210216065
 21
9.596971553
  0
LINE
  5
300
100
AcDbEntity
  8
0
100
AcDbLine
 62
9
  6
CONTINUOUS
 10
6.8471768672
 20
9.596971553
 11
9.2510216065
 21
9.596971553
  0
LINE
  5
301
100
AcDbEntity
  8
0
100
AcDbLine
 62
9
  6
CONTINUOUS
 10
10.9771768672
 20
9.596971553
 11
13.1210216065
 21
9.596971553
  0
LINE
  5
302
100
AcDbEntity
  8
0
100
AcDbLine
 62
9
  6
CONTINUOUS
 10
13.1534709473
 20
9.647971553
 11
10.9447275264
 21
9.647971553
  0
LINE
  5
303
100
AcDbEntity
  8
0
100
AcDbLine
 62
9
  6
CONTINUOUS
 10
9.2834709473
 20
9.647971553
 11
6.8147275264
 21
9.647971553
  0
LINE
  5
304
100
AcDbEntity
  8
0
100
AcDbLine
 62
9
  6
CONTINUOUS
 10
5.1534709473
 20
9.647971553
 11
2.9447275264
 21
9.647971553
  0
LINE
  5
305
100
AcDbEntity
  8
0
100
AcDbLine
 62
9
  6
CONTINUOUS
 10
2.8790992368
 20
9.757971553
 11
5.2190992368
 21
9.757971553
  0
LINE
  5
306
100
AcDbEntity
  8
0
100
AcDbLine
 62
9
  6
CONTINUOUS
 10
6.7490992368
 20
9.757971553
 11
9.3490992368
 21
9.757971553
  0
LINE
  5
307
100
AcDbEntity
  8
0
100
AcDbLine
 62
9
  6
CONTINUOUS
 10
10.8790992368
 20
9.757971553
 11
13.2190992368
 21
9.757971553
  0
LINE
  5
308
100
AcDbEntity
  8
0
100
AcDbLine
 62
7
  6
CONTINUOUS
 10
2.8790992368
 20
9.771971553
 11
5.2190992368
 21
9.771971553
  0
LINE
  5
309
100
AcDbEntity
  8
0
100
AcDbLine
 62
6
  6
CONTINUOUS
 10
6.7490992368
 20
9.771971553
 11
9.3490992368
 21
9.771971553
  0
LINE
  5
30A
100
AcDbEntity
  8
0
100
AcDbLine
 62
7
  6
CONTINUOUS
 10
10.8790992368
 20
9.771971553
 11
13.2190992368
 21
9.771971553
  0
LINE
  5
30B
100
AcDbEntity
  8
0
100
AcDbLine
 62
7
  6
CONTINUOUS
 10
12.3302801164
 20
7.7255853752
 11
12.303241421
 21
7.741063268
  0
LINE
  5
30C
100
AcDbEntity
  8
0
100
AcDbLine
 62
6
  6
CONTINUOUS
 10
12.2065992368
 20
7.649471553
 11
12.2125992368
 21
7.6460074514
  0
LINE
  5
30D
100
AcDbEntity
  8
0
100
AcDbLine
 62
6
  6
CONTINUOUS
 10
11.8940992368
 20
7.209471553
 11
11.8874992368
 21
7.216071553
  0
LINE
  5
30E
100
AcDbEntity
  8
0
100
AcDbLine
 62
7
  6
CONTINUOUS
 10
10.8790992368
 20
9.771971553
 11
10.8790992368
 21
9.757971553
  0
LINE
  5
30F
100
AcDbEntity
  8
0
100
AcDbLine
 62
7
  6
CONTINUOUS
 10
11.783109684
 20
7.7093643342
 11
11.7829853989
 21
7.7090853909
  0
LINE
  5
310
100
AcDbEntity
  8
0
100
AcDbLine
 62
6
  6
CONTINUOUS
 10
12.2106992368
 20
7.216071553
 11
12.2040992368
 21
7.209471553
  0
LINE
  5
311
100
AcDbEntity
  8
0
100
AcDbLine
 62
7
  6
CONTINUOUS
 10
11.7829853989
 20
7.7090853909
 11
11.8075992368
 21
7.684471553
  0
LINE
  5
312
100
AcDbEntity
  8
0
100
AcDbLine
 62
6
  6
CONTINUOUS
 10
11.8653218159
 20
7.6335944206
 11
11.8662937309
 21
7.2384427431
  0
LINE
  5
313
100
AcDbEntity
  8
0
100
AcDbLine
 62
7
  6
CONTINUOUS
 10
11.7675992368
 20
7.7502937998
 11
11.7675992368
 21
7.7439715163
  0
LINE
  5
314
100
AcDbEntity
  8
0
100
AcDbLine
 62
7
  6
CONTINUOUS
 10
11.7947944095
 20
7.7282360506
 11
11.7947944095
 21
7.7157805967
  0
LINE
  5
315
100
AcDbEntity
  8
0
100
AcDbLine
 62
6
  6
CONTINUOUS
 10
11.8375992368
 20
7.584471553
 11
11.8375992368
 21
7.209471553
  0
LINE
  5
316
100
AcDbEntity
  8
0
100
AcDbLine
 62
6
  6
CONTINUOUS
 10
11.8711853481
 20
7.6335944206
 11
11.8711853481
 21
7.239471553
  0
LINE
  5
317
100
AcDbEntity
  8
0
100
AcDbLine
 62
6
  6
CONTINUOUS
 10
11.8808992368
 20
7.2231182975
 11
11.8808992368
 21
7.209471553
  0
LINE
  5
318
100
AcDbEntity
  8
0
100
AcDbLine
 62
6
  6
CONTINUOUS
 10
11.8874367301
 20
7.239471553
 11
11.8874367301
 21
7.6335944206
  0
LINE
  5
319
100
AcDbEntity
  8
0
100
AcDbLine
 62
6
  6
CONTINUOUS
 10
11.8915992368
 20
7.684471553
 11
11.8915992368
 21
7.649471553
  0
LINE
  5
31A
100
AcDbEntity
  8
0
100
AcDbLine
 62
6
  6
CONTINUOUS
 10
11.8947070847
 20
7.217971553
 11
11.8947070847
 21
7.2285843792
  0
LINE
  5
31B
100
AcDbEntity
  8
0
100
AcDbLine
 62
6
  6
CONTINUOUS
 10
11.8947070847
 20
7.6398801318
 11
11.8947070847
 21
7.6460074514
  0
LINE
  5
31C
100
AcDbEntity
  8
0
100
AcDbLine
 62
6
  6
CONTINUOUS
 10
11.9041346571
 20
7.6335944206
 11
11.9041346571
 21
7.239471553
  0
LINE
  5
31D
100
AcDbEntity
  8
0
100
AcDbLine
 62
7
  6
CONTINUOUS
 10
11.6144336932
 20
7.9690765429
 11
11.6392340033
 21
7.8284269951
  0
LINE
  5
31E
100
AcDbEntity
  8
0
100
AcDbLine
 62
6
  6
CONTINUOUS
 10
11.9270509621
 20
7.217971553
 11
11.9270509621
 21
7.6460074514
  0
LINE
  5
31F
100
AcDbEntity
  8
0
100
AcDbLine
 62
6
  6
CONTINUOUS
 10
11.9341632955
 20
7.239471553
 11
11.9341632955
 21
7.6335944206
  0
LINE
  5
320
100
AcDbEntity
  8
0
100
AcDbLine
 62
6
  6
CONTINUOUS
 10
11.9403037009
 20
7.2225151363
 11
11.9403037009
 21
7.217971553
  0
LINE
  5
321
100
AcDbEntity
  8
0
100
AcDbLine
 62
6
  6
CONTINUOUS
 10
11.9591535092
 20
7.6335944206
 11
11.9591535092
 21
7.239471553
  0
LINE
  5
322
100
AcDbEntity
  8
0
100
AcDbLine
 62
6
  6
CONTINUOUS
 10
11.9779755829
 20
7.217971553
 11
11.9779755829
 21
7.6460074514
  0
LINE
  5
323
100
AcDbEntity
  8
0
100
AcDbLine
 62
6
  6
CONTINUOUS
 10
11.9952911207
 20
7.6460074514
 11
11.9952911207
 21
7.217971553
  0
LINE
  5
324
100
AcDbEntity
  8
0
100
AcDbLine
 62
6
  6
CONTINUOUS
 10
11.998387816
 20
7.239471553
 11
11.998387816
 21
7.6335944206
  0
LINE
  5
325
100
AcDbEntity
  8
0
100
AcDbLine
 62
6
  6
CONTINUOUS
 10
12.027865783
 20
7.6335944206
 11
12.027865783
 21
7.239471553
  0
LINE
  5
326
100
AcDbEntity
  8
0
100
AcDbLine
 62
6
  6
CONTINUOUS
 10
12.0397281353
 20
7.217971553
 11
12.0397281353
 21
7.6460074514
  0
LINE
  5
327
100
AcDbEntity
  8
0
100
AcDbLine
 62
6
  6
CONTINUOUS
 10
12.0584703383
 20
7.6460074514
 11
12.0584703383
 21
7.217971553
  0
LINE
  5
328
100
AcDbEntity
  8
0
100
AcDbLine
 62
6
  6
CONTINUOUS
 10
12.0703326907
 20
7.239471553
 11
12.0703326907
 21
7.6335944206
  0
LINE
  5
329
100
AcDbEntity
  8
0
100
AcDbLine
 62
6
  6
CONTINUOUS
 10
12.0998106576
 20
7.6335944206
 11
12.0998106576
 21
7.239471553
  0
LINE
  5
32A
100
AcDbEntity
  8
0
100
AcDbLine
 62
6
  6
CONTINUOUS
 10
12.102907353
 20
7.217971553
 11
12.102907353
 21
7.6460074514
  0
LINE
  5
32B
100
AcDbEntity
  8
0
100
AcDbLine
 62
6
  6
CONTINUOUS
 10
12.1202228907
 20
7.6460074514
 11
12.1202228907
 21
7.217971553
  0
LINE
  5
32C
100
AcDbEntity
  8
0
100
AcDbLine
 62
6
  6
CONTINUOUS
 10
12.1390449645
 20
7.239471553
 11
12.1390449645
 21
7.6335944206
  0
LINE
  5
32D
100
AcDbEntity
  8
0
100
AcDbLine
 62
6
  6
CONTINUOUS
 10
12.1640351782
 20
7.6335944206
 11
12.1640351782
 21
7.239471553
  0
LINE
  5
32E
100
AcDbEntity
  8
0
100
AcDbLine
 62
6
  6
CONTINUOUS
 10
12.1711475116
 20
7.6460074514
 11
12.1711475116
 21
7.217971553
  0
LINE
  5
32F
100
AcDbEntity
  8
0
100
AcDbLine
 62
6
  6
CONTINUOUS
 10
12.1940638166
 20
7.239471553
 11
12.1940638166
 21
7.6335944206
  0
LINE
  5
330
100
AcDbEntity
  8
0
100
AcDbLine
 62
6
  6
CONTINUOUS
 10
12.2034913889
 20
7.6460074514
 11
12.2034913889
 21
7.6398801318
  0
LINE
  5
331
100
AcDbEntity
  8
0
100
AcDbLine
 62
6
  6
CONTINUOUS
 10
12.2034913889
 20
7.2285843792
 11
12.2034913889
 21
7.217971553
  0
LINE
  5
332
100
AcDbEntity
  8
0
100
AcDbLine
 62
6
  6
CONTINUOUS
 10
12.2065992368
 20
7.684471553
 11
12.2065992368
 21
7.649471553
  0
LINE
  5
333
100
AcDbEntity
  8
0
100
AcDbLine
 62
6
  6
CONTINUOUS
 10
12.2107617435
 20
7.6335944206
 11
12.2107617435
 21
7.239471553
  0
LINE
  5
334
100
AcDbEntity
  8
0
100
AcDbLine
 62
6
  6
CONTINUOUS
 10
12.2172992368
 20
7.2231182968
 11
12.2172992368
 21
7.209471553
  0
LINE
  5
335
100
AcDbEntity
  8
0
100
AcDbLine
 62
6
  6
CONTINUOUS
 10
12.2270131255
 20
7.239471553
 11
12.2270131255
 21
7.6335944206
  0
LINE
  5
336
100
AcDbEntity
  8
0
100
AcDbLine
 62
6
  6
CONTINUOUS
 10
12.2605992368
 20
7.584471553
 11
12.2605992368
 21
7.209471553
  0
LINE
  5
337
100
AcDbEntity
  8
0
100
AcDbLine
 62
7
  6
CONTINUOUS
 10
12.3034368143
 20
7.6973104636
 11
12.3034368143
 21
7.7031973607
  0
LINE
  5
338
100
AcDbEntity
  8
0
100
AcDbLine
 62
7
  6
CONTINUOUS
 10
12.3035765122
 20
7.7406885127
 11
12.3035765122
 21
7.7532399414
  0
LINE
  5
339
100
AcDbEntity
  8
0
100
AcDbLine
 62
6
  6
CONTINUOUS
 10
12.2319047427
 20
7.2384427431
 11
12.2328766577
 21
7.6335944206
  0
LINE
  5
33A
100
AcDbEntity
  8
0
100
AcDbLine
 62
7
  6
CONTINUOUS
 10
12.4589644703
 20
7.8284269951
 11
12.4837647804
 21
7.9690765429
  0
LINE
  5
33B
100
AcDbEntity
  8
0
100
AcDbLine
 62
7
  6
CONTINUOUS
 10
13.2190992368
 20
9.757971553
 11
13.2190992368
 21
9.771971553
  0
ARC
  5
33C
100
AcDbEntity
  8
0
100
AcDbCircle
 62
7
  6
CONTINUOUS
 10
4.2466472289
 20
-1.2588902996
 40
8.9888099162
100
AcDbArc
 50
92.0745450544
 51
92.2107341697
  0
ARC
  5
33D
100
AcDbEntity
  8
0
100
AcDbCircle
 62
7
  6
CONTINUOUS
 10
4.2261924535
 20
-0.6961521728
 40
8.4381922592
100
AcDbArc
 50
92.0693372477
 51
92.2202971257
  0
ARC
  5
33E
100
AcDbEntity
  8
0
100
AcDbCircle
 62
7
  6
CONTINUOUS
 10
4.1459826772
 20
1.3690758934
 40
6.3714071837
100
AcDbArc
 50
92.2190479374
 51
92.3404204776
  0
ARC
  5
33F
100
AcDbEntity
  8
0
100
AcDbCircle
 62
7
  6
CONTINUOUS
 10
4.0038706633
 20
2.6854256392
 40
5.0297180855
100
AcDbArc
 50
91.3479242595
 51
91.5952014711
  0
ARC
  5
340
100
AcDbEntity
  8
0
100
AcDbCircle
 62
7
  6
CONTINUOUS
 10
4.0847929648
 20
2.8548344522
 40
4.8843890459
100
AcDbArc
 50
92.3602216183
 51
92.48533185
  0
ARC
  5
341
100
AcDbEntity
  8
0
100
AcDbCircle
 62
6
  6
CONTINUOUS
 10
2.9404806417
 20
5.2261424206
 40
2.7297060068
100
AcDbArc
 50
61.8779490176
 51
62.0669247772
  0
ARC
  5
342
100
AcDbEntity
  8
0
100
AcDbCircle
 62
6
  6
CONTINUOUS
 10
2.9258783978
 20
5.3215543331
 40
2.6370671603
100
AcDbArc
 50
61.252382963
 51
61.4440854928
  0
ARC
  5
343
100
AcDbEntity
  8
0
100
AcDbCircle
 62
6
  6
CONTINUOUS
 10
3.0940981982
 20
5.5158972632
 40
2.4017483535
100
AcDbArc
 50
62.0666305473
 51
62.2781263055
  0
ARC
  5
344
100
AcDbEntity
  8
0
100
AcDbCircle
 62
6
  6
CONTINUOUS
 10
3.1494023316
 20
5.7329054793
 40
2.1689084211
100
AcDbArc
 50
61.4361599705
 51
61.8915650159
  0
ARC
  5
345
100
AcDbEntity
  8
0
100
AcDbCircle
 62
6
  6
CONTINUOUS
 10
3.231186303
 20
5.7767956341
 40
2.1070262672
100
AcDbArc
 50
62.2777968988
 51
62.5151206498
  0
ARC
  5
346
100
AcDbEntity
  8
0
100
AcDbCircle
 62
6
  6
CONTINUOUS
 10
1.9559692171
 20
7.1306328431
 40
2.1035509399
100
AcDbArc
 50
13.8334992017
 51
14.1819637477
  0
ARC
  5
347
100
AcDbEntity
  8
0
100
AcDbCircle
 62
6
  6
CONTINUOUS
 10
3.0911060701
 20
6.0648857241
 40
1.8866028886
100
AcDbArc
 50
56.253046237
 51
56.9377894817
  0
ARC
  5
348
100
AcDbEntity
  8
0
100
AcDbCircle
 62
6
  6
CONTINUOUS
 10
3.3061787515
 20
6.1243311417
 40
1.7711080647
100
AcDbArc
 50
58.9683897304
 51
59.2231002201
  0
ARC
  5
349
100
AcDbEntity
  8
0
100
AcDbCircle
 62
6
  6
CONTINUOUS
 10
3.1335377973
 20
6.3958593196
 40
1.6409308598
100
AcDbArc
 50
48.9632298965
 51
49.1887339085
  0
ARC
  5
34A
100
AcDbEntity
  8
0
100
AcDbCircle
 62
6
  6
CONTINUOUS
 10
2.8174325561
 20
6.9757881132
 40
1.4987881334
100
AcDbArc
 50
26.0332156417
 51
26.2133433478
  0
ARC
  5
34B
100
AcDbEntity
  8
0
100
AcDbCircle
 62
6
  6
CONTINUOUS
 10
3.107454504
 20
6.725194028
 40
1.3238403004
100
AcDbArc
 50
43.3289337276
 51
44.0720433552
  0
ARC
  5
34C
100
AcDbEntity
  8
0
100
AcDbCircle
 62
6
  6
CONTINUOUS
 10
3.3490075163
 20
6.6459293215
 40
1.310836863
100
AcDbArc
 50
49.1731608807
 51
49.7232776444
  0
ARC
  5
34D
100
AcDbEntity
  8
0
100
AcDbCircle
 62
6
  6
CONTINUOUS
 10
3.1055813383
 20
7.1179690924
 40
1.1774704517
100
AcDbArc
 50
26.1997735358
 51
26.6443754174
  0
ARC
  5
34E
100
AcDbEntity
  8
0
100
AcDbCircle
 62
7
  6
CONTINUOUS
 10
3.4204990591
 20
6.808686318
 40
0.61929008
100
AcDbArc
 50
43.0871859076
 51
43.4096642833
  0
ARC
  5
34F
100
AcDbEntity
  8
0
100
AcDbCircle
 62
7
  6
CONTINUOUS
 10
3.220510592
 20
7.8996172718
 40
0.4
100
AcDbArc
 50
10.0
 51
40.5151811264
  0
ARC
  5
350
100
AcDbEntity
  8
0
100
AcDbCircle
 62
7
  6
CONTINUOUS
 10
4.0444386338
 20
3.7810631687
 40
3.9572816741
100
AcDbArc
 50
92.4831348738
 51
92.6173459388
  0
ARC
  5
351
100
AcDbEntity
  8
0
100
AcDbCircle
 62
6
  6
CONTINUOUS
 10
4.9978013875
 20
5.5282564514
 40
2.3877677674
100
AcDbArc
 50
117.6995493585
 51
117.9363770763
  0
ARC
  5
352
100
AcDbEntity
  8
0
100
AcDbCircle
 62
6
  6
CONTINUOUS
 10
4.8606874919
 20
5.7893664561
 40
2.0928463303
100
AcDbArc
 50
117.4843654523
 51
117.6988052517
  0
ARC
  5
353
100
AcDbEntity
  8
0
100
AcDbCircle
 62
7
  6
CONTINUOUS
 10
3.8682447324
 20
6.7145482025
 40
1.0356007475
100
AcDbArc
 50
93.211287643
 51
94.506584537
  0
ARC
  5
354
100
AcDbEntity
  8
0
100
AcDbCircle
 62
7
  6
CONTINUOUS
 10
3.7136630744
 20
7.7244047927
 40
0.7105085943
100
AcDbArc
 50
316.5132315717
 51
316.7351763405
  0
ARC
  5
355
100
AcDbEntity
  8
0
100
AcDbCircle
 62
7
  6
CONTINUOUS
 10
3.5092468457
 20
6.8924819536
 40
0.4972332821
100
AcDbArc
 50
43.4228346512
 51
43.8327571125
  0
ARC
  5
356
100
AcDbEntity
  8
0
100
AcDbCircle
 62
7
  6
CONTINUOUS
 10
3.8171013653
 20
7.3435850172
 40
0.3677585802
100
AcDbArc
 50
93.3935659042
 51
93.617118273
  0
ARC
  5
357
100
AcDbEntity
  8
0
100
AcDbCircle
 62
7
  6
CONTINUOUS
 10
3.7160490081
 20
7.841971553
 40
0.078
100
AcDbArc
 50
190.0000000004
 51
270.0
  0
ARC
  5
358
100
AcDbEntity
  8
0
100
AcDbCircle
 62
6
  6
CONTINUOUS
 10
4.8854927366
 20
5.8513128912
 40
2.0345301201
100
AcDbArc
 50
118.101143071
 51
118.3419693585
  0
ARC
  5
359
100
AcDbEntity
  8
0
100
AcDbCircle
 62
6
  6
CONTINUOUS
 10
4.9231142004
 20
5.9068067528
 40
2.0249598835
100
AcDbArc
 50
121.0342305486
 51
121.2606482656
  0
ARC
  5
35A
100
AcDbEntity
  8
0
100
AcDbCircle
 62
6
  6
CONTINUOUS
 10
4.7929832148
 20
6.1231138451
 40
1.7725260676
100
AcDbArc
 50
120.7769631772
 51
121.0346564468
  0
ARC
  5
35B
100
AcDbEntity
  8
0
100
AcDbCircle
 62
6
  6
CONTINUOUS
 10
4.9411402062
 20
6.1652482626
 40
1.7663822806
100
AcDbArc
 50
123.0389082764
 51
123.7702560032
  0
ARC
  5
35C
100
AcDbEntity
  8
0
100
AcDbCircle
 62
6
  6
CONTINUOUS
 10
4.918045073
 20
6.4497922093
 40
1.5694896607
100
AcDbArc
 50
130.5717812721
 51
131.0393067977
  0
ARC
  5
35D
100
AcDbEntity
  8
0
100
AcDbCircle
 62
6
  6
CONTINUOUS
 10
4.711708172
 20
6.6903341696
 40
1.2525744499
100
AcDbArc
 50
130.2735130877
 51
130.5588239781
  0
ARC
  5
35E
100
AcDbEntity
  8
0
100
AcDbCircle
 62
6
  6
CONTINUOUS
 10
4.9273486548
 20
6.7860026821
 40
1.2358271439
100
AcDbArc
 50
135.9014948384
 51
136.6975280819
  0
ARC
  5
35F
100
AcDbEntity
  8
0
100
AcDbCircle
 62
7
  6
CONTINUOUS
 10
4.6508061088
 20
6.8342057825
 40
0.5820443745
100
AcDbArc
 50
136.5810867529
 51
136.923129158
  0
ARC
  5
360
100
AcDbEntity
  8
0
100
AcDbCircle
 62
6
  6
CONTINUOUS
 10
4.9423364032
 20
7.1432536005
 40
1.1209791633
100
AcDbArc
 50
153.352817141
 51
153.5838384901
  0
ARC
  5
361
100
AcDbEntity
  8
0
100
AcDbCircle
 62
7
  6
CONTINUOUS
 10
4.4098552228
 20
7.7479043993
 40
0.7448802506
100
AcDbArc
 50
223.2587201793
 51
223.5663256528
  0
ARC
  5
362
100
AcDbEntity
  8
0
100
AcDbCircle
 62
7
  6
CONTINUOUS
 10
4.5678583441
 20
6.9128447637
 40
0.4677447384
100
AcDbArc
 50
135.7091193618
 51
136.594192176
  0
ARC
  5
363
100
AcDbEntity
  8
0
100
AcDbCircle
 62
7
  6
CONTINUOUS
 10
4.8776878816
 20
7.8996172718
 40
0.4
100
AcDbArc
 50
139.4848188736
 51
170.0
  0
ARC
  5
364
100
AcDbEntity
  8
0
100
AcDbCircle
 62
7
  6
CONTINUOUS
 10
4.4429290954
 20
7.0295240768
 40
0.2968056167
100
AcDbArc
 50
136.5779559565
 51
137.0567688718
  0
ARC
  5
365
100
AcDbEntity
  8
0
100
AcDbCircle
 62
7
  6
CONTINUOUS
 10
4.2749944694
 20
7.8354848783
 40
0.1323376849
100
AcDbArc
 50
282.6826585744
 51
283.1358270691
  0
ARC
  5
366
100
AcDbEntity
  8
0
100
AcDbCircle
 62
7
  6
CONTINUOUS
 10
4.3821494656
 20
7.841971553
 40
0.078
100
AcDbArc
 50
270.0
 51
349.9999999997
  0
ARC
  5
367
100
AcDbEntity
  8
0
100
AcDbCircle
 62
7
  6
CONTINUOUS
 10
8.0506349366
 20
1.5325865643
 40
0.3304193362
100
AcDbArc
 50
267.0109610084
 51
269.7337037423
  0
ARC
  5
368
100
AcDbEntity
  8
0
100
AcDbCircle
 62
7
  6
CONTINUOUS
 10
8.0505017048
 20
1.5305089606
 40
0.3283376125
100
AcDbArc
 50
263.2141628967
 51
267.0152736868
  0
ARC
  5
369
100
AcDbEntity
  8
0
100
AcDbCircle
 62
7
  6
CONTINUOUS
 10
8.05014629
 20
1.5274981872
 40
0.325305935
100
AcDbArc
 50
261.2030164904
 51
263.2136655867
  0
ARC
  5
36A
100
AcDbEntity
  8
0
100
AcDbCircle
 62
7
  6
CONTINUOUS
 10
8.0494131156
 20
1.5203879426
 40
0.3182287106
100
AcDbArc
 50
261.1370348265
 51
263.1932771706
  0
ARC
  5
36B
100
AcDbEntity
  8
0
100
AcDbCircle
 62
7
  6
CONTINUOUS
 10
8.0492935343
 20
1.5193465228
 40
0.3171804583
100
AcDbArc
 50
263.1924297727
 51
267.1289405802
  0
ARC
  5
36C
100
AcDbEntity
  8
0
100
AcDbCircle
 62
7
  6
CONTINUOUS
 10
8.0488431233
 20
1.5181018079
 40
0.3160815461
100
AcDbArc
 50
302.96719054
 51
311.931936733
  0
ARC
  5
36D
100
AcDbEntity
  8
0
100
AcDbCircle
 62
7
  6
CONTINUOUS
 10
8.0491169384
 20
1.5181942926
 40
0.3160189349
100
AcDbArc
 50
269.9967906604
 51
299.7475975187
  0
ARC
  5
36E
100
AcDbEntity
  8
0
100
AcDbCircle
 62
7
  6
CONTINUOUS
 10
8.0492785152
 20
1.5180037287
 40
0.3159604726
100
AcDbArc
 50
230.0360126616
 51
232.7811279415
  0
ARC
  5
36F
100
AcDbEntity
  8
0
100
AcDbCircle
 62
7
  6
CONTINUOUS
 10
8.0492483062
 20
1.5179381846
 40
0.3158861562
100
AcDbArc
 50
232.7811279415
 51
236.4839579917
  0
ARC
  5
370
100
AcDbEntity
  8
0
100
AcDbCircle
 62
7
  6
CONTINUOUS
 10
8.0488487526
 20
1.5175698601
 40
0.3153573486
100
AcDbArc
 50
237.4780989959
 51
261.1594615904
  0
ARC
  5
371
100
AcDbEntity
  8
0
100
AcDbCircle
 62
7
  6
CONTINUOUS
 10
8.0493214667
 20
1.5175060551
 40
0.3153219537
100
AcDbArc
 50
302.9531617798
 51
311.9396600552
  0
ARC
  5
372
100
AcDbEntity
  8
0
100
AcDbCircle
 62
7
  6
CONTINUOUS
 10
8.0487747583
 20
1.5174258274
 40
0.3151939754
100
AcDbArc
 50
221.6248508848
 51
230.0387237482
  0
ARC
  5
373
100
AcDbEntity
  8
0
100
AcDbCircle
 62
7
  6
CONTINUOUS
 10
8.0487033971
 20
1.5172398464
 40
0.315004303
100
AcDbArc
 50
232.7803897115
 51
236.4964815487
  0
ARC
  5
374
100
AcDbEntity
  8
0
100
AcDbCircle
 62
7
  6
CONTINUOUS
 10
8.0494597743
 20
1.5171939778
 40
0.3149843376
100
AcDbArc
 50
299.7838809198
 51
302.9531617798
  0
ARC
  5
375
100
AcDbEntity
  8
0
100
AcDbCircle
 62
7
  6
CONTINUOUS
 10
8.0494086929
 20
1.5187111606
 40
0.3147801429
100
AcDbArc
 50
248.7745149594
 51
261.0910216861
  0
ARC
  5
376
100
AcDbEntity
  8
0
100
AcDbCircle
 62
7
  6
CONTINUOUS
 10
8.0486248688
 20
1.5170131938
 40
0.3147707188
100
AcDbArc
 50
236.4964815487
 51
245.4748691824
  0
ARC
  5
377
100
AcDbEntity
  8
0
100
AcDbCircle
 62
7
  6
CONTINUOUS
 10
8.0498186693
 20
1.5170268718
 40
0.3146332134
100
AcDbArc
 50
311.9306308831
 51
318.9479310077
  0
ARC
  5
378
100
AcDbEntity
  8
0
100
AcDbCircle
 62
7
  6
CONTINUOUS
 10
8.0483088404
 20
1.5167475501
 40
0.3143989713
100
AcDbArc
 50
214.7850735902
 51
216.7067867495
  0
ARC
  5
379
100
AcDbEntity
  8
0
100
AcDbCircle
 62
7
  6
CONTINUOUS
 10
8.0499863446
 20
1.5165430574
 40
0.3141522267
100
AcDbArc
 50
299.7593565236
 51
302.9469455334
  0
ARC
  5
37A
100
AcDbEntity
  8
0
100
AcDbCircle
 62
7
  6
CONTINUOUS
 10
8.0491215457
 20
1.5162533861
 40
0.31408259
100
AcDbArc
 50
267.1320129876
 51
269.995930363
  0
ARC
  5
37B
100
AcDbEntity
  8
0
100
AcDbCircle
 62
7
  6
CONTINUOUS
 10
8.0482944803
 20
1.5161775896
 40
0.3138760533
100
AcDbArc
 50
245.4748840062
 51
248.7960209788
  0
ARC
  5
37C
100
AcDbEntity
  8
0
100
AcDbCircle
 62
7
  6
CONTINUOUS
 10
8.0491004065
 20
1.5177046824
 40
0.3137406446
100
AcDbArc
 50
263.1864085488
 51
269.9997863874
  0
ARC
  5
37D
100
AcDbEntity
  8
0
100
AcDbCircle
 62
7
  6
CONTINUOUS
 10
8.0479381378
 20
1.5161038631
 40
0.3136346472
100
AcDbArc
 50
236.498502679
 51
237.4682386937
  0
ARC
  5
37E
100
AcDbEntity
  8
0
100
AcDbCircle
 62
7
  6
CONTINUOUS
 10
8.0474978646
 20
1.5159647767
 40
0.3133930617
100
AcDbArc
 50
179.447924955
 51
183.4884077854
  0
ARC
  5
37F
100
AcDbEntity
  8
0
100
AcDbCircle
 62
7
  6
CONTINUOUS
 10
8.0508180884
 20
1.5159764914
 40
0.3132756832
100
AcDbArc
 50
359.9991831839
 51
6.3585300564
  0
ARC
  5
380
100
AcDbEntity
  8
0
100
AcDbCircle
 62
7
  6
CONTINUOUS
 10
8.050938209
 20
1.5161039353
 40
0.3131731817
100
AcDbArc
 50
320.3273633749
 51
351.7754675153
  0
ARC
  5
381
100
AcDbEntity
  8
0
100
AcDbCircle
 62
7
  6
CONTINUOUS
 10
8.0509378887
 20
1.5159556294
 40
0.3131556294
100
AcDbArc
 50
354.6658611619
 51
359.9991831839
  0
ARC
  5
382
100
AcDbEntity
  8
0
100
AcDbCircle
 62
7
  6
CONTINUOUS
 10
8.0473109203
 20
1.5159918425
 40
0.3131472324
100
AcDbArc
 50
216.7050709651
 51
221.6066340819
  0
ARC
  5
383
100
AcDbEntity
  8
0
100
AcDbCircle
 62
7
  6
CONTINUOUS
 10
8.0479245935
 20
1.5155222289
 40
0.3131312959
100
AcDbArc
 50
248.8157473627
 51
261.2696260437
  0
ARC
  5
384
100
AcDbEntity
  8
0
100
AcDbCircle
 62
7
  6
CONTINUOUS
 10
8.04922089
 20
1.5170398952
 40
0.3130689682
100
AcDbArc
 50
269.9777363464
 51
316.3836003197
  0
ARC
  5
385
100
AcDbEntity
  8
0
100
AcDbCircle
 62
7
  6
CONTINUOUS
 10
8.0488717869
 20
1.5169169895
 40
0.3129168828
100
AcDbArc
 50
232.7212288464
 51
245.4357351201
  0
ARC
  5
386
100
AcDbEntity
  8
0
100
AcDbCircle
 62
7
  6
CONTINUOUS
 10
8.0469111071
 20
1.5159459759
 40
0.3128061046
100
AcDbArc
 50
173.6371310641
 51
214.8009834184
  0
ARC
  5
387
100
AcDbEntity
  8
0
100
AcDbCircle
 62
7
  6
CONTINUOUS
 10
8.0488106576
 20
1.516635315
 40
0.3126576701
100
AcDbArc
 50
217.0603420304
 51
229.9416394333
  0
ARC
  5
388
100
AcDbEntity
  8
0
100
AcDbCircle
 62
7
  6
CONTINUOUS
 10
8.0516489514
 20
1.5159221355
 40
0.3124448241
100
AcDbArc
 50
351.7898180891
 51
0.0091487321
  0
ARC
  5
389
100
AcDbEntity
  8
0
100
AcDbCircle
 62
7
  6
CONTINUOUS
 10
8.0516377034
 20
1.5153549815
 40
0.3121634581
100
AcDbArc
 50
318.9600730868
 51
320.3266915476
  0
ARC
  5
38A
100
AcDbEntity
  8
0
100
AcDbCircle
 62
7
  6
CONTINUOUS
 10
8.0462080391
 20
1.5158756747
 40
0.3121002047
100
AcDbArc
 50
183.4864883544
 51
188.2161308077
  0
ARC
  5
38B
100
AcDbEntity
  8
0
100
AcDbCircle
 62
7
  6
CONTINUOUS
 10
8.0497803037
 20
1.5161572272
 40
0.3120535453
100
AcDbArc
 50
320.3923093289
 51
327.6290522098
  0
ARC
  5
38C
100
AcDbEntity
  8
0
100
AcDbCircle
 62
7
  6
CONTINUOUS
 10
8.0498167271
 20
1.5101908823
 40
0.3117768747
100
AcDbArc
 50
355.6935789515
 51
0.5403394203
  0
ARC
  5
38D
100
AcDbEntity
  8
0
100
AcDbCircle
 62
7
  6
CONTINUOUS
 10
8.0468542748
 20
1.5090321628
 40
0.3115786036
100
AcDbArc
 50
329.039422254
 51
336.9663075849
  0
ARC
  5
38E
100
AcDbEntity
  8
0
100
AcDbCircle
 62
7
  6
CONTINUOUS
 10
8.0480186144
 20
1.5158096769
 40
0.3115311721
100
AcDbArc
 50
201.912558928
 51
214.2645594264
  0
ARC
  5
38F
100
AcDbEntity
  8
0
100
AcDbCircle
 62
7
  6
CONTINUOUS
 10
8.0525631227
 20
1.5158077124
 40
0.3115236826
100
AcDbArc
 50
351.7866366712
 51
354.6651601177
  0
ARC
  5
390
100
AcDbEntity
  8
0
100
AcDbCircle
 62
7
  6
CONTINUOUS
 10
8.048039266
 20
1.5157267842
 40
0.3114658478
100
AcDbArc
 50
229.942690535
 51
231.0984114262
  0
ARC
  5
391
100
AcDbEntity
  8
0
100
AcDbCircle
 62
7
  6
CONTINUOUS
 10
8.0482160864
 20
1.5155186861
 40
0.3113725488
100
AcDbArc
 50
245.4385068523
 51
248.766714952
  0
ARC
  5
392
100
AcDbEntity
  8
0
100
AcDbCircle
 62
7
  6
CONTINUOUS
 10
8.05031079
 20
1.5156327078
 40
0.3113401687
100
AcDbArc
 50
335.592264638
 51
340.5210028778
  0
ARC
  5
393
100
AcDbEntity
  8
0
100
AcDbCircle
 62
7
  6
CONTINUOUS
 10
8.0488342214
 20
1.5152971084
 40
0.3113183159
100
AcDbArc
 50
261.0981667518
 51
262.7364512858
  0
ARC
  5
394
100
AcDbEntity
  8
0
100
AcDbCircle
 62
7
  6
CONTINUOUS
 10
8.0476542631
 20
1.5154609985
 40
0.311068944
100
AcDbArc
 50
186.1754446634
 51
196.6542494785
  0
ARC
  5
395
100
AcDbEntity
  8
0
100
AcDbCircle
 62
7
  6
CONTINUOUS
 10
8.0476692926
 20
1.5152697149
 40
0.3108778072
100
AcDbArc
 50
231.0985755254
 51
232.7134704148
  0
ARC
  5
396
100
AcDbEntity
  8
0
100
AcDbCircle
 62
7
  6
CONTINUOUS
 10
8.0508383096
 20
1.5154609704
 40
0.3107855749
100
AcDbArc
 50
340.5184219642
 51
348.6547675684
  0
ARC
  5
397
100
AcDbEntity
  8
0
100
AcDbCircle
 62
7
  6
CONTINUOUS
 10
8.0508452004
 20
1.515276331
 40
0.3106715239
100
AcDbArc
 50
317.1159075883
 51
320.3922661663
  0
ARC
  5
398
100
AcDbEntity
  8
0
100
AcDbCircle
 62
7
  6
CONTINUOUS
 10
8.0511935898
 20
1.5100808616
 40
0.3103956378
100
AcDbArc
 50
351.8112684105
 51
355.6947456982
  0
ARC
  5
399
100
AcDbEntity
  8
0
100
AcDbCircle
 62
7
  6
CONTINUOUS
 10
8.0512369442
 20
1.5152590406
 40
0.3103423803
100
AcDbArc
 50
327.6251243267
 51
335.5844292254
  0
ARC
  5
39A
100
AcDbEntity
  8
0
100
AcDbCircle
 62
7
  6
CONTINUOUS
 10
8.0469037107
 20
1.51507722
 40
0.3101973802
100
AcDbArc
 50
214.2686915013
 51
214.6808193003
  0
ARC
  5
39B
100
AcDbEntity
  8
0
100
AcDbCircle
 62
7
  6
CONTINUOUS
 10
8.0467867652
 20
1.5152244723
 40
0.3101845087
100
AcDbArc
 50
179.9911808099
 51
181.4455438156
  0
ARC
  5
39C
100
AcDbEntity
  8
0
100
AcDbCircle
 62
7
  6
CONTINUOUS
 10
8.0467415365
 20
1.5120313423
 40
0.3101593898
100
AcDbArc
 50
187.7047516783
 51
194.5478075286
  0
ARC
  5
39D
100
AcDbEntity
  8
0
100
AcDbCircle
 62
7
  6
CONTINUOUS
 10
8.0514721705
 20
1.5152315917
 40
0.3101189926
100
AcDbArc
 50
348.673280529
 51
359.991160259
  0
ARC
  5
39E
100
AcDbEntity
  8
0
100
AcDbCircle
 62
7
  6
CONTINUOUS
 10
8.04866594
 20
1.5140113984
 40
0.3100216473
100
AcDbArc
 50
262.7372596765
 51
263.1857107938
  0
ARC
  5
39F
100
AcDbEntity
  8
0
100
AcDbCircle
 62
7
  6
CONTINUOUS
 10
8.0513824682
 20
1.5147920834
 40
0.3099483119
100
AcDbArc
 50
316.408785767
 51
317.113911786
  0
ARC
  5
3A0
100
AcDbEntity
  8
0
100
AcDbCircle
 62
7
  6
CONTINUOUS
 10
8.0465390296
 20
1.5151272207
 40
0.3099048335
100
AcDbArc
 50
196.6542207586
 51
199.7058089636
  0
ARC
  5
3A1
100
AcDbEntity
  8
0
100
AcDbCircle
 62
7
  6
CONTINUOUS
 10
8.0464436615
 20
1.5147574018
 40
0.309637088
100
AcDbArc
 50
214.6805921467
 51
217.0470910876
  0
ARC
  5
3A2
100
AcDbEntity
  8
0
100
AcDbCircle
 62
7
  6
CONTINUOUS
 10
8.0462208937
 20
1.5117714256
 40
0.309618644
100
AcDbArc
 50
179.3572506124
 51
179.9911660188
  0
ARC
  5
3A3
100
AcDbEntity
  8
0
100
AcDbCircle
 62
7
  6
CONTINUOUS
 10
8.0460899704
 20
1.5152049791
 40
0.3094874439
100
AcDbArc
 50
181.4451903682
 51
183.364002965
  0
ARC
  5
3A4
100
AcDbEntity
  8
0
100
AcDbCircle
 62
7
  6
CONTINUOUS
 10
8.0456620194
 20
1.5152023235
 40
0.3090604375
100
AcDbArc
 50
185.3387327119
 51
186.1674986405
  0
ARC
  5
3A5
100
AcDbEntity
  8
0
100
AcDbCircle
 62
7
  6
CONTINUOUS
 10
8.0455731197
 20
1.5117674315
 40
0.3089708706
100
AcDbArc
 50
179.9904068306
 51
182.8678963454
  0
ARC
  5
3A6
100
AcDbEntity
  8
0
100
AcDbCircle
 62
7
  6
CONTINUOUS
 10
8.0454909876
 20
1.5147603735
 40
0.3087944713
100
AcDbArc
 50
199.7072982889
 51
201.9050891833
  0
ARC
  5
3A7
100
AcDbEntity
  8
0
100
AcDbCircle
 62
7
  6
CONTINUOUS
 10
8.0451714558
 20
1.5118023016
 40
0.308572777
100
AcDbArc
 50
185.5646109703
 51
187.7016926304
  0
ARC
  5
3A8
100
AcDbEntity
  8
0
100
AcDbCircle
 62
7
  6
CONTINUOUS
 10
8.0450940747
 20
1.5151493306
 40
0.3084900259
100
AcDbArc
 50
183.3644032679
 51
185.3387476921
  0
ARC
  5
3A9
100
AcDbEntity
  8
0
100
AcDbCircle
 62
7
  6
CONTINUOUS
 10
8.0449789312
 20
1.5085871538
 40
0.3083796945
100
AcDbArc
 50
179.6186556966
 51
188.6777151443
  0
ARC
  5
3AA
100
AcDbEntity
  8
0
100
AcDbCircle
 62
7
  6
CONTINUOUS
 10
8.0441524246
 20
1.5116974134
 40
0.3075484246
100
AcDbArc
 50
182.8691050459
 51
185.5640330424
  0
ARC
  5
3AB
100
AcDbEntity
  8
0
100
AcDbCircle
 62
6
  6
CONTINUOUS
 10
5.158988226
 20
5.2242017889
 40
2.7319049973
100
AcDbArc
 50
117.9354679776
 51
118.1219957284
  0
ARC
  5
3AC
100
AcDbEntity
  8
0
100
AcDbCircle
 62
6
  6
CONTINUOUS
 10
5.0599243651
 20
5.5281659361
 40
2.401749859
100
AcDbArc
 50
118.3446876778
 51
118.6676466866
  0
ARC
  5
3AD
100
AcDbEntity
  8
0
100
AcDbCircle
 62
6
  6
CONTINUOUS
 10
5.9960678996
 20
7.1671548422
 40
1.9526672751
100
AcDbArc
 50
165.8045731804
 51
166.1799638648
  0
ARC
  5
3AE
100
AcDbEntity
  8
0
100
AcDbCircle
 62
6
  6
CONTINUOUS
 10
5.2183918171
 20
7.0064303872
 40
1.4290816189
100
AcDbArc
 50
153.5949319139
 51
153.9689543717
  0
ARC
  5
3AF
100
AcDbEntity
  8
0
100
AcDbCircle
 62
7
  6
CONTINUOUS
 10
5.0615357531
 20
6.4445146569
 40
1.148222197
100
AcDbArc
 50
136.4626123862
 51
136.5934975132
  0
ARC
  5
3B0
100
AcDbEntity
  8
0
100
AcDbCircle
 62
6
  6
CONTINUOUS
 10
6.6640992368
 20
7.382971553
 40
1.0
100
AcDbArc
 50
351.9140108095
 51
8.0859891905
  0
ARC
  5
3B1
100
AcDbEntity
  8
0
100
AcDbCircle
 62
6
  6
CONTINUOUS
 10
6.8640992368
 20
7.757971553
 40
0.75
100
AcDbArc
 50
0.0
 51
40.413081814
  0
ARC
  5
3B2
100
AcDbEntity
  8
0
100
AcDbCircle
 62
6
  6
CONTINUOUS
 10
7.4066427993
 20
7.4884659024
 40
0.25
100
AcDbArc
 50
8.0859891905
 51
33.919157534
  0
ARC
  5
3B3
100
AcDbEntity
  8
0
100
AcDbCircle
 62
6
  6
CONTINUOUS
 10
7.4066427993
 20
7.2774772036
 40
0.25
100
AcDbArc
 50
326.080842466
 51
351.9140108095
  0
ARC
  5
3B4
100
AcDbEntity
  8
0
100
AcDbCircle
 62
6
  6
CONTINUOUS
 10
7.6140992368
 20
7.692971553
 40
0.065
100
AcDbArc
 50
90.0
 51
270.0
  0
ARC
  5
3B5
100
AcDbEntity
  8
0
100
AcDbCircle
 62
6
  6
CONTINUOUS
 10
7.6140992368
 20
7.072971553
 40
0.065
100
AcDbArc
 50
90.0
 51
270.0
  0
ARC
  5
3B6
100
AcDbEntity
  8
0
100
AcDbCircle
 62
6
  6
CONTINUOUS
 10
-1.4638126719
 20
8.0152490861
 40
5.517132883
100
AcDbArc
 50
351.691129641
 51
351.9167127752
  0
ARC
  5
3B7
100
AcDbEntity
  8
0
100
AcDbCircle
 62
6
  6
CONTINUOUS
 10
0.8139956357
 20
8.1841455848
 40
3.4807995237
100
AcDbArc
 50
344.0049855183
 51
344.2526638345
  0
ARC
  5
3B8
100
AcDbEntity
  8
0
100
AcDbCircle
 62
6
  6
CONTINUOUS
 10
2.3019060794
 20
8.5055804117
 40
2.2906794873
100
AcDbArc
 50
326.0105487289
 51
326.4460479703
  0
ARC
  5
3B9
100
AcDbEntity
  8
0
100
AcDbCircle
 62
6
  6
CONTINUOUS
 10
2.613359209
 20
8.7657729636
 40
2.225488286
100
AcDbArc
 50
316.2625719878
 51
316.424777737
  0
ARC
  5
3BA
100
AcDbEntity
  8
0
100
AcDbCircle
 62
6
  6
CONTINUOUS
 10
2.2400991921
 20
8.2353223925
 40
2.0837240476
100
AcDbArc
 50
330.775240232
 51
331.450438219
  0
ARC
  5
3BB
100
AcDbEntity
  8
0
100
AcDbCircle
 62
6
  6
CONTINUOUS
 10
2.8117634178
 20
8.7626248697
 40
2.0792280738
100
AcDbArc
 50
312.0211743193
 51
312.3096302365
  0
ARC
  5
3BC
100
AcDbEntity
  8
0
100
AcDbCircle
 62
6
  6
CONTINUOUS
 10
2.5705249538
 20
8.5937395614
 40
2.0723579307
100
AcDbArc
 50
318.4046118672
 51
319.194644156
  0
ARC
  5
3BD
100
AcDbEntity
  8
0
100
AcDbCircle
 62
6
  6
CONTINUOUS
 10
2.7824450815
 20
8.7195949133
 40
2.0454083233
100
AcDbArc
 50
312.7651019955
 51
313.054205288
  0
ARC
  5
3BE
100
AcDbEntity
  8
0
100
AcDbCircle
 62
6
  6
CONTINUOUS
 10
2.7600157641
 20
8.6259712914
 40
2.0228741416
100
AcDbArc
 50
316.0925649511
 51
316.2517302986
  0
ARC
  5
3BF
100
AcDbEntity
  8
0
100
AcDbCircle
 62
6
  6
CONTINUOUS
 10
2.8077154925
 20
8.5794685077
 40
1.9562589245
100
AcDbArc
 50
315.8954590496
 51
316.1049805942
  0
ARC
  5
3C0
100
AcDbEntity
  8
0
100
AcDbCircle
 62
6
  6
CONTINUOUS
 10
2.3441510674
 20
9.1865750844
 40
2.6858567242
100
AcDbArc
 50
313.3088535362
 51
313.5355684954
  0
ARC
  5
3C1
100
AcDbEntity
  8
0
100
AcDbCircle
 62
6
  6
CONTINUOUS
 10
2.6048444795
 20
8.9899779718
 40
2.3866445336
100
AcDbArc
 50
312.3091627727
 51
312.5641839139
  0
ARC
  5
3C2
100
AcDbEntity
  8
0
100
AcDbCircle
 62
6
  6
CONTINUOUS
 10
2.6019040437
 20
8.912936432
 40
2.3099381042
100
AcDbArc
 50
313.0524813184
 51
313.2482016462
  0
ARC
  5
3C3
100
AcDbEntity
  8
0
100
AcDbCircle
 62
7
  6
CONTINUOUS
 10
2.8913662175
 20
9.1254528929
 40
0.343
100
AcDbArc
 50
356.2419535375
 51
50.9887457037
  0
ARC
  5
3C4
100
AcDbEntity
  8
0
100
AcDbCircle
 62
7
  6
CONTINUOUS
 10
3.0040992368
 20
9.757971553
 40
0.125
100
AcDbArc
 50
180.0
 51
241.6423634237
  0
ARC
  5
3C5
100
AcDbEntity
  8
0
100
AcDbCircle
 62
7
  6
CONTINUOUS
 10
2.9712368745
 20
9.4893089889
 40
0.062
100
AcDbArc
 50
8.03157335
 51
53.2265724874
  0
ARC
  5
3C6
100
AcDbEntity
  8
0
100
AcDbCircle
 62
7
  6
CONTINUOUS
 10
2.915279158
 20
9.593411553
 40
0.062
100
AcDbArc
 50
3.291697165
 51
61.6423634237
  0
ARC
  5
3C7
100
AcDbEntity
  8
0
100
AcDbCircle
 62
7
  6
CONTINUOUS
 10
3.3478382122
 20
9.0033457899
 40
1.52
100
AcDbArc
 50
348.4101664982
 51
3.7580464625
  0
ARC
  5
3C8
100
AcDbEntity
  8
0
100
AcDbCircle
 62
7
  6
CONTINUOUS
 10
3.6613137044
 20
8.9390564769
 40
1.2
100
AcDbArc
 50
319.4848188736
 51
348.4101664982
  0
ARC
  5
3C9
100
AcDbEntity
  8
0
100
AcDbCircle
 62
7
  6
CONTINUOUS
 10
3.1098636461
 20
9.5088696175
 40
0.078
100
AcDbArc
 50
188.03157335
 51
239.0556893899
  0
ARC
  5
3CA
100
AcDbEntity
  8
0
100
AcDbCircle
 62
7
  6
CONTINUOUS
 10
3.0550481787
 20
9.6014502627
 40
0.078
100
AcDbArc
 50
183.291697165
 51
233.2265724874
  0
ARC
  5
3CB
100
AcDbEntity
  8
0
100
AcDbCircle
 62
7
  6
CONTINUOUS
 10
3.0378749886
 20
9.3887961684
 40
0.062
100
AcDbArc
 50
17.0467181651
 51
59.0556893899
  0
ARC
  5
3CC
100
AcDbEntity
  8
0
100
AcDbCircle
 62
7
  6
CONTINUOUS
 10
3.1267891305
 20
9.4160592453
 40
0.031
100
AcDbArc
 50
197.0467181651
 51
230.9887457037
  0
ARC
  5
3CD
100
AcDbEntity
  8
0
100
AcDbCircle
 62
7
  6
CONTINUOUS
 10
4.2602803315
 20
8.7280622769
 40
1.0062391914
100
AcDbArc
 50
272.4627684383
 51
272.6553763453
  0
ARC
  5
3CE
100
AcDbEntity
  8
0
100
AcDbCircle
 62
7
  6
CONTINUOUS
 10
4.7503602614
 20
9.0033457899
 40
1.52
100
AcDbArc
 50
176.2419535375
 51
191.5898335018
  0
ARC
  5
3CF
100
AcDbEntity
  8
0
100
AcDbCircle
 62
7
  6
CONTINUOUS
 10
4.4368847692
 20
8.9390564769
 40
1.2
100
AcDbArc
 50
191.5898335018
 51
220.5151811264
  0
ARC
  5
3D0
100
AcDbEntity
  8
0
100
AcDbCircle
 62
6
  6
CONTINUOUS
 10
5.2604538958
 20
8.5501958958
 40
1.914153431
100
AcDbArc
 50
223.9138224995
 51
224.1058555437
  0
ARC
  5
3D1
100
AcDbEntity
  8
0
100
AcDbCircle
 62
7
  6
CONTINUOUS
 10
5.2068322561
 20
9.1254528929
 40
0.343
100
AcDbArc
 50
129.0112542963
 51
183.7580464625
  0
ARC
  5
3D2
100
AcDbEntity
  8
0
100
AcDbCircle
 62
7
  6
CONTINUOUS
 10
4.9883348275
 20
9.5088696175
 40
0.078
100
AcDbArc
 50
300.9443106101
 51
351.96842665
  0
ARC
  5
3D3
100
AcDbEntity
  8
0
100
AcDbCircle
 62
7
  6
CONTINUOUS
 10
5.0603234851
 20
9.3887961684
 40
0.062
100
AcDbArc
 50
120.9443106101
 51
162.9532818349
  0
ARC
  5
3D4
100
AcDbEntity
  8
0
100
AcDbCircle
 62
7
  6
CONTINUOUS
 10
4.9714093431
 20
9.4160592453
 40
0.031
100
AcDbArc
 50
309.0112542963
 51
342.9532818349
  0
ARC
  5
3D5
100
AcDbEntity
  8
0
100
AcDbCircle
 62
7
  6
CONTINUOUS
 10
5.0431502949
 20
9.6014502627
 40
0.078
100
AcDbArc
 50
306.7734275126
 51
356.708302835
  0
ARC
  5
3D6
100
AcDbEntity
  8
0
100
AcDbCircle
 62
7
  6
CONTINUOUS
 10
5.1269615992
 20
9.4893089889
 40
0.062
100
AcDbArc
 50
126.7734275126
 51
171.96842665
  0
ARC
  5
3D7
100
AcDbEntity
  8
0
100
AcDbCircle
 62
7
  6
CONTINUOUS
 10
5.0940992368
 20
9.757971553
 40
0.125
100
AcDbArc
 50
298.3576365763
 51
360.0
  0
ARC
  5
3D8
100
AcDbEntity
  8
0
100
AcDbCircle
 62
7
  6
CONTINUOUS
 10
5.1829193156
 20
9.593411553
 40
0.062
100
AcDbArc
 50
118.3576365763
 51
176.708302835
  0
ARC
  5
3D9
100
AcDbEntity
  8
0
100
AcDbCircle
 62
7
  6
CONTINUOUS
 10
4.0220555759
 20
12.440276122
 40
4.6978719012
100
AcDbArc
 50
272.333454024
 51
272.5679699908
  0
ARC
  5
3DA
100
AcDbEntity
  8
0
100
AcDbCircle
 62
7
  6
CONTINUOUS
 10
4.0381441463
 20
12.0534746062
 40
4.3232255699
100
AcDbArc
 50
272.3285263936
 51
272.5857941108
  0
ARC
  5
3DB
100
AcDbEntity
  8
0
100
AcDbCircle
 62
7
  6
CONTINUOUS
 10
4.2540066358
 20
11.1177394467
 40
3.42029608
100
AcDbArc
 50
269.7673919093
 51
269.9926245814
  0
ARC
  5
3DC
100
AcDbEntity
  8
0
100
AcDbCircle
 62
7
  6
CONTINUOUS
 10
3.9053365618
 20
10.7595663406
 40
3.0803417232
100
AcDbArc
 50
276.2394709637
 51
276.4599025806
  0
ARC
  5
3DD
100
AcDbEntity
  8
0
100
AcDbCircle
 62
7
  6
CONTINUOUS
 10
4.1100364986
 20
10.4426354404
 40
2.7482393854
100
AcDbArc
 50
272.7108692876
 51
272.9889586995
  0
ARC
  5
3DE
100
AcDbEntity
  8
0
100
AcDbCircle
 62
6
  6
CONTINUOUS
 10
5.8877356231
 20
8.5661971271
 40
2.4001924742
100
AcDbArc
 50
213.5564293133
 51
213.7659425568
  0
ARC
  5
3DF
100
AcDbEntity
  8
0
100
AcDbCircle
 62
6
  6
CONTINUOUS
 10
5.9946915661
 20
8.3105551218
 40
2.239455086
100
AcDbArc
 50
208.573038557
 51
209.2012829894
  0
ARC
  5
3E0
100
AcDbEntity
  8
0
100
AcDbCircle
 62
6
  6
CONTINUOUS
 10
5.4851215615
 20
8.7658166813
 40
2.2255518018
100
AcDbArc
 50
223.5752199826
 51
223.7374210515
  0
ARC
  5
3E1
100
AcDbEntity
  8
0
100
AcDbCircle
 62
6
  6
CONTINUOUS
 10
5.6399336321
 20
8.6918103501
 40
2.2212412707
100
AcDbArc
 50
220.8318330061
 51
221.5689109725
  0
ARC
  5
3E2
100
AcDbEntity
  8
0
100
AcDbCircle
 62
6
  6
CONTINUOUS
 10
5.3301405342
 20
8.8105071592
 40
2.1438986468
100
AcDbArc
 50
227.6926423232
 51
227.8513688384
  0
ARC
  5
3E3
100
AcDbEntity
  8
0
100
AcDbCircle
 62
6
  6
CONTINUOUS
 10
5.6275618215
 20
8.3922316215
 40
2.0872157914
100
AcDbArc
 50
213.7655273306
 51
214.0025498758
  0
ARC
  5
3E4
100
AcDbEntity
  8
0
100
AcDbCircle
 62
6
  6
CONTINUOUS
 10
5.3666535279
 20
8.6530517791
 40
2.0619963082
100
AcDbArc
 50
223.7493410048
 51
223.9259995456
  0
ARC
  5
3E5
100
AcDbEntity
  8
0
100
AcDbCircle
 62
6
  6
CONTINUOUS
 10
5.3159911819
 20
8.7195965716
 40
2.0454106064
100
AcDbArc
 50
226.9457942967
 51
227.2348972727
  0
ARC
  5
3E6
100
AcDbEntity
  8
0
100
AcDbCircle
 62
6
  6
CONTINUOUS
 10
5.3946405675
 20
8.2350907526
 40
1.8062432608
100
AcDbArc
 50
214.0020655663
 51
214.2713623175
  0
ARC
  5
3E7
100
AcDbEntity
  8
0
100
AcDbCircle
 62
6
  6
CONTINUOUS
 10
5.7247156184
 20
9.241669211
 40
2.7283570325
100
AcDbArc
 50
227.2099106855
 51
227.43622365
  0
ARC
  5
3E8
100
AcDbEntity
  8
0
100
AcDbCircle
 62
6
  6
CONTINUOUS
 10
5.7257777112
 20
9.1564834952
 40
2.6444069104
100
AcDbArc
 50
226.4630891573
 51
226.7462402365
  0
ARC
  5
3E9
100
AcDbEntity
  8
0
100
AcDbCircle
 62
6
  6
CONTINUOUS
 10
5.4935904019
 20
8.9899782462
 40
2.3866448625
100
AcDbArc
 50
227.4358172315
 51
227.690838333
  0
ARC
  5
3EA
100
AcDbEntity
  8
0
100
AcDbCircle
 62
6
  6
CONTINUOUS
 10
5.4979850741
 20
8.9144897314
 40
2.312066033
100
AcDbArc
 50
226.7483646058
 51
226.947459167
  0
ARC
  5
3EB
100
AcDbEntity
  8
0
100
AcDbCircle
 62
6
  6
CONTINUOUS
 10
6.5360692248
 20
8.0152490852
 40
5.517132876
100
AcDbArc
 50
351.6911296397
 51
351.9167127742
  0
ARC
  5
3EC
100
AcDbEntity
  8
0
100
AcDbCircle
 62
6
  6
CONTINUOUS
 10
6.6831263072
 20
8.0124591702
 40
2.8554576738
100
AcDbArc
 50
195.8585656755
 51
196.1548786501
  0
ARC
  5
3ED
100
AcDbEntity
  8
0
100
AcDbCircle
 62
6
  6
CONTINUOUS
 10
7.0490992368
 20
9.381971553
 40
2.0
100
AcDbArc
 50
340.6900624221
 51
360.0
  0
ARC
  5
3EE
100
AcDbEntity
  8
0
100
AcDbCircle
 62
6
  6
CONTINUOUS
 10
6.9078749886
 20
9.3887961684
 40
0.062
100
AcDbArc
 50
15.9341591625
 51
59.0556893899
  0
ARC
  5
3EF
100
AcDbEntity
  8
0
100
AcDbCircle
 62
6
  6
CONTINUOUS
 10
6.9990992368
 20
9.4148408892
 40
0.0328693362
100
AcDbArc
 50
195.9341591625
 51
270.0
  0
ARC
  5
3F0
100
AcDbEntity
  8
0
100
AcDbCircle
 62
6
  6
CONTINUOUS
 10
6.8740992368
 20
9.757971553
 40
0.125
100
AcDbArc
 50
180.0
 51
241.6423634237
  0
ARC
  5
3F1
100
AcDbEntity
  8
0
100
AcDbCircle
 62
6
  6
CONTINUOUS
 10
6.9250481787
 20
9.6014502627
 40
0.078
100
AcDbArc
 50
183.291697165
 51
233.2265724874
  0
ARC
  5
3F2
100
AcDbEntity
  8
0
100
AcDbCircle
 62
6
  6
CONTINUOUS
 10
6.9798636461
 20
9.5088696175
 40
0.078
100
AcDbArc
 50
188.03157335
 51
239.0556893899
  0
ARC
  5
3F3
100
AcDbEntity
  8
0
100
AcDbCircle
 62
6
  6
CONTINUOUS
 10
6.785279158
 20
9.593411553
 40
0.062
100
AcDbArc
 50
3.291697165
 51
61.6423634237
  0
ARC
  5
3F4
100
AcDbEntity
  8
0
100
AcDbCircle
 62
6
  6
CONTINUOUS
 10
6.8412368745
 20
9.4893089889
 40
0.062
100
AcDbArc
 50
8.03157335
 51
53.2265724874
  0
ARC
  5
3F5
100
AcDbEntity
  8
0
100
AcDbCircle
 62
6
  6
CONTINUOUS
 10
7.5209710427
 20
9.2166325111
 40
1.5
100
AcDbArc
 50
319.586918186
 51
340.6900624221
  0
ARC
  5
3F6
100
AcDbEntity
  8
0
100
AcDbCircle
 62
7
  6
CONTINUOUS
 10
3.8404830456
 20
17.0705257406
 40
9.3316840316
100
AcDbArc
 50
272.0714228022
 51
272.1888219941
  0
ARC
  5
3F7
100
AcDbEntity
  8
0
100
AcDbCircle
 62
7
  6
CONTINUOUS
 10
3.8541679017
 20
16.6869557543
 40
8.9603619557
100
AcDbArc
 50
272.0556358828
 51
272.1940831108
  0
ARC
  5
3F8
100
AcDbEntity
  8
0
100
AcDbCircle
 62
7
  6
CONTINUOUS
 10
3.9385565642
 20
14.4943608658
 40
6.7536530644
100
AcDbArc
 50
272.1921233243
 51
272.3317344369
  0
ARC
  5
3F9
100
AcDbEntity
  8
0
100
AcDbCircle
 62
7
  6
CONTINUOUS
 10
3.9535735768
 20
14.1024364016
 40
6.3739316814
100
AcDbArc
 50
272.1906181089
 51
272.3397890371
  0
ARC
  5
3FA
100
AcDbEntity
  8
0
100
AcDbCircle
 62
6
  6
CONTINUOUS
 10
10.9403625093
 20
5.2261423793
 40
2.7297060536
100
AcDbArc
 50
61.877949016
 51
62.0669247724
  0
ARC
  5
3FB
100
AcDbEntity
  8
0
100
AcDbCircle
 62
6
  6
CONTINUOUS
 10
10.925760271
 20
5.3215543031
 40
2.6370671945
100
AcDbArc
 50
61.2523829622
 51
61.4440854895
  0
ARC
  5
3FC
100
AcDbEntity
  8
0
100
AcDbCircle
 62
6
  6
CONTINUOUS
 10
11.093980107
 20
5.5158972991
 40
2.401748313
100
AcDbArc
 50
62.0666305462
 51
62.2781263081
  0
ARC
  5
3FD
100
AcDbEntity
  8
0
100
AcDbCircle
 62
6
  6
CONTINUOUS
 10
11.1492842272
 20
5.73290549
 40
2.168908409
100
AcDbArc
 50
61.4361599704
 51
61.8915650183
  0
ARC
  5
3FE
100
AcDbEntity
  8
0
100
AcDbCircle
 62
6
  6
CONTINUOUS
 10
11.2310681915
 20
5.7767956317
 40
2.1070262698
100
AcDbArc
 50
62.2777968992
 51
62.51512065
  0
ARC
  5
3FF
100
AcDbEntity
  8
0
100
AcDbCircle
 62
6
  6
CONTINUOUS
 10
9.9558511147
 20
7.1306328449
 40
2.1035509319
100
AcDbArc
 50
13.833499203
 51
14.1819637504
  0
ARC
  5
400
100
AcDbEntity
  8
0
100
AcDbCircle
 62
6
  6
CONTINUOUS
 10
11.0909879674
 20
6.0648857355
 40
1.8866028749
100
AcDbArc
 50
56.2530462348
 51
56.9377894845
  0
ARC
  5
401
100
AcDbEntity
  8
0
100
AcDbCircle
 62
6
  6
CONTINUOUS
 10
11.1334196809
 20
6.3958593125
 40
1.6409308692
100
AcDbArc
 50
48.9632298962
 51
49.188733907
  0
ARC
  5
402
100
AcDbEntity
  8
0
100
AcDbCircle
 62
6
  6
CONTINUOUS
 10
10.8173144362
 20
6.9757881085
 40
1.4987881441
100
AcDbArc
 50
26.0332156426
 51
26.2133433474
  0
ARC
  5
403
100
AcDbEntity
  8
0
100
AcDbCircle
 62
6
  6
CONTINUOUS
 10
11.1073363968
 20
6.725194031
 40
1.3238402962
100
AcDbArc
 50
43.3289337256
 51
44.0720433555
  0
ARC
  5
404
100
AcDbEntity
  8
0
100
AcDbCircle
 62
6
  6
CONTINUOUS
 10
11.1054632271
 20
7.1179690919
 40
1.1774704529
100
AcDbArc
 50
26.1997735377
 51
26.644375419
  0
ARC
  5
405
100
AcDbEntity
  8
0
100
AcDbCircle
 62
6
  6
CONTINUOUS
 10
9.4340992368
 20
7.382971553
 40
1.0
100
AcDbArc
 50
171.9140108095
 51
188.0859891905
  0
ARC
  5
406
100
AcDbEntity
  8
0
100
AcDbCircle
 62
6
  6
CONTINUOUS
 10
9.2340992368
 20
7.757971553
 40
0.75
100
AcDbArc
 50
139.586918186
 51
180.0
  0
ARC
  5
407
100
AcDbEntity
  8
0
100
AcDbCircle
 62
7
  6
CONTINUOUS
 10
11.220510592
 20
7.8996172718
 40
0.4
100
AcDbArc
 50
10.0
 51
40.5151811264
  0
ARC
  5
408
100
AcDbEntity
  8
0
100
AcDbCircle
 62
6
  6
CONTINUOUS
 10
8.6915556743
 20
7.4884659024
 40
0.25
100
AcDbArc
 50
146.080842466
 51
171.9140108095
  0
ARC
  5
409
100
AcDbEntity
  8
0
100
AcDbCircle
 62
6
  6
CONTINUOUS
 10
8.6915556743
 20
7.2774772036
 40
0.25
100
AcDbArc
 50
188.0859891905
 51
213.919157534
  0
ARC
  5
40A
100
AcDbEntity
  8
0
100
AcDbCircle
 62
6
  6
CONTINUOUS
 10
8.4840992368
 20
7.692971553
 40
0.065
100
AcDbArc
 50
270.0
 51
90.0
  0
ARC
  5
40B
100
AcDbEntity
  8
0
100
AcDbCircle
 62
6
  6
CONTINUOUS
 10
8.4840992368
 20
7.072971553
 40
0.065
100
AcDbArc
 50
270.0
 51
90.0
  0
ARC
  5
40C
100
AcDbEntity
  8
0
100
AcDbCircle
 62
7
  6
CONTINUOUS
 10
12.2463997359
 20
-1.255448147
 40
8.9853653347
100
AcDbArc
 50
92.0747985489
 51
92.2107564536
  0
ARC
  5
40D
100
AcDbEntity
  8
0
100
AcDbCircle
 62
7
  6
CONTINUOUS
 10
12.2248849705
 20
-0.6650578849
 40
8.4070752367
100
AcDbArc
 50
92.0730297768
 51
92.2204073185
  0
ARC
  5
40E
100
AcDbEntity
  8
0
100
AcDbCircle
 62
7
  6
CONTINUOUS
 10
12.1458645669
 20
1.3690758934
 40
6.3714071837
100
AcDbArc
 50
92.2190479374
 51
92.3404204776
  0
ARC
  5
40F
100
AcDbEntity
  8
0
100
AcDbCircle
 62
7
  6
CONTINUOUS
 10
12.0037525531
 20
2.6854256379
 40
5.0297180869
100
AcDbArc
 50
91.3479242596
 51
91.5952014711
  0
ARC
  5
410
100
AcDbEntity
  8
0
100
AcDbCircle
 62
7
  6
CONTINUOUS
 10
12.0846748547
 20
2.8548344481
 40
4.88438905
100
AcDbArc
 50
92.3602216184
 51
92.4853318499
  0
ARC
  5
411
100
AcDbEntity
  8
0
100
AcDbCircle
 62
7
  6
CONTINUOUS
 10
12.0443205236
 20
3.7810631687
 40
3.9572816741
100
AcDbArc
 50
92.4831348738
 51
92.6173459388
  0
ARC
  5
412
100
AcDbEntity
  8
0
100
AcDbCircle
 62
6
  6
CONTINUOUS
 10
11.3060606419
 20
6.1243311427
 40
1.7711080636
100
AcDbArc
 50
58.9683897308
 51
59.2231002207
  0
ARC
  5
413
100
AcDbEntity
  8
0
100
AcDbCircle
 62
6
  6
CONTINUOUS
 10
11.3488894045
 20
6.6459293196
 40
1.3108368655
100
AcDbArc
 50
49.1731608817
 51
49.7232776443
  0
ARC
  5
414
100
AcDbEntity
  8
0
100
AcDbCircle
 62
7
  6
CONTINUOUS
 10
11.8678893927
 20
6.7182358214
 40
1.0319056457
100
AcDbArc
 50
93.2175299715
 51
94.5131710007
  0
ARC
  5
415
100
AcDbEntity
  8
0
100
AcDbCircle
 62
7
  6
CONTINUOUS
 10
12.4097440611
 20
7.7479110862
 40
0.7448898939
100
AcDbArc
 50
223.2587285325
 51
223.5663285303
  0
ARC
  5
416
100
AcDbEntity
  8
0
100
AcDbCircle
 62
7
  6
CONTINUOUS
 10
11.7135369744
 20
7.7244124563
 40
0.7105196653
100
AcDbArc
 50
316.5132265708
 51
316.7351678646
  0
ARC
  5
417
100
AcDbEntity
  8
0
100
AcDbCircle
 62
7
  6
CONTINUOUS
 10
11.4203803574
 20
6.8086857567
 40
0.6192908954
100
AcDbArc
 50
43.0871864504
 51
43.4096644506
  0
ARC
  5
418
100
AcDbEntity
  8
0
100
AcDbCircle
 62
7
  6
CONTINUOUS
 10
12.6506884976
 20
6.8342053086
 40
0.5820450626
100
AcDbArc
 50
136.5810865772
 51
136.92312863
  0
ARC
  5
419
100
AcDbEntity
  8
0
100
AcDbCircle
 62
7
  6
CONTINUOUS
 10
11.5091284587
 20
6.8924816902
 40
0.4972336641
100
AcDbArc
 50
43.4228348359
 51
43.8327569853
  0
ARC
  5
41A
100
AcDbEntity
  8
0
100
AcDbCircle
 62
7
  6
CONTINUOUS
 10
12.5677403951
 20
6.9128446106
 40
0.4677449608
100
AcDbArc
 50
135.7091197299
 51
136.5941920583
  0
ARC
  5
41B
100
AcDbEntity
  8
0
100
AcDbCircle
 62
7
  6
CONTINUOUS
 10
11.816983255
 20
7.3435850178
 40
0.3677585796
100
AcDbArc
 50
93.3935659042
 51
93.6171182733
  0
ARC
  5
41C
100
AcDbEntity
  8
0
100
AcDbCircle
 62
7
  6
CONTINUOUS
 10
12.4428093928
 20
7.0295255728
 40
0.2968034319
100
AcDbArc
 50
136.5779544493
 51
137.0567708636
  0
ARC
  5
41D
100
AcDbEntity
  8
0
100
AcDbCircle
 62
7
  6
CONTINUOUS
 10
12.2748763591
 20
7.8354848783
 40
0.1323376848
100
AcDbArc
 50
282.6826585741
 51
283.1358270692
  0
ARC
  5
41E
100
AcDbEntity
  8
0
100
AcDbCircle
 62
7
  6
CONTINUOUS
 10
12.3821494656
 20
7.841971553
 40
0.078
100
AcDbArc
 50
270.0
 51
349.9999999997
  0
ARC
  5
41F
100
AcDbEntity
  8
0
100
AcDbCircle
 62
7
  6
CONTINUOUS
 10
11.7160490081
 20
7.841971553
 40
0.078
100
AcDbArc
 50
190.0000000004
 51
270.0
  0
ARC
  5
420
100
AcDbEntity
  8
0
100
AcDbCircle
 62
6
  6
CONTINUOUS
 10
13.1588701234
 20
5.2242017746
 40
2.7319050136
100
AcDbArc
 50
117.9354679783
 51
118.1219957279
  0
ARC
  5
421
100
AcDbEntity
  8
0
100
AcDbCircle
 62
6
  6
CONTINUOUS
 10
13.0598062476
 20
5.5281659494
 40
2.4017498438
100
AcDbArc
 50
118.344687677
 51
118.6676466878
  0
ARC
  5
422
100
AcDbEntity
  8
0
100
AcDbCircle
 62
6
  6
CONTINUOUS
 10
12.9976832781
 20
5.5282564498
 40
2.3877677691
100
AcDbArc
 50
117.6995493587
 51
117.9363770763
  0
ARC
  5
423
100
AcDbEntity
  8
0
100
AcDbCircle
 62
6
  6
CONTINUOUS
 10
12.8605693765
 20
5.789366466
 40
2.092846319
100
AcDbArc
 50
117.4843654518
 51
117.6988052523
  0
ARC
  5
424
100
AcDbEntity
  8
0
100
AcDbCircle
 62
6
  6
CONTINUOUS
 10
12.8853746222
 20
5.851312899
 40
2.0345301113
100
AcDbArc
 50
118.1011430714
 51
118.34196936
  0
ARC
  5
425
100
AcDbEntity
  8
0
100
AcDbCircle
 62
6
  6
CONTINUOUS
 10
12.9229960901
 20
5.9068067528
 40
2.0249598834
100
AcDbArc
 50
121.0342305482
 51
121.2606482652
  0
ARC
  5
426
100
AcDbEntity
  8
0
100
AcDbCircle
 62
6
  6
CONTINUOUS
 10
13.9959497906
 20
7.1671548419
 40
1.9526672764
100
AcDbArc
 50
165.8045731813
 51
166.1799638654
  0
ARC
  5
427
100
AcDbEntity
  8
0
100
AcDbCircle
 62
6
  6
CONTINUOUS
 10
12.7928651025
 20
6.1231138485
 40
1.7725260636
100
AcDbArc
 50
120.7769631765
 51
121.0346564467
  0
ARC
  5
428
100
AcDbEntity
  8
0
100
AcDbCircle
 62
6
  6
CONTINUOUS
 10
12.9410220973
 20
6.1652482606
 40
1.766382283
100
AcDbArc
 50
123.0389082775
 51
123.7702560033
  0
ARC
  5
429
100
AcDbEntity
  8
0
100
AcDbCircle
 62
6
  6
CONTINUOUS
 10
12.9179269619
 20
6.4497922103
 40
1.5694896594
100
AcDbArc
 50
130.5717812702
 51
131.0393067962
  0
ARC
  5
42A
100
AcDbEntity
  8
0
100
AcDbCircle
 62
6
  6
CONTINUOUS
 10
13.2182737025
 20
7.0064303894
 40
1.4290816139
100
AcDbArc
 50
153.5949319143
 51
153.9689543733
  0
ARC
  5
42B
100
AcDbEntity
  8
0
100
AcDbCircle
 62
6
  6
CONTINUOUS
 10
12.7115900594
 20
6.6903341724
 40
1.2525744463
100
AcDbArc
 50
130.2735130871
 51
130.5588239783
  0
ARC
  5
42C
100
AcDbEntity
  8
0
100
AcDbCircle
 62
6
  6
CONTINUOUS
 10
12.927230547
 20
6.7860026797
 40
1.2358271474
100
AcDbArc
 50
135.9014948388
 51
136.6975280801
  0
ARC
  5
42D
100
AcDbEntity
  8
0
100
AcDbCircle
 62
7
  6
CONTINUOUS
 10
13.061395196
 20
6.4445358478
 40
1.1481913276
100
AcDbArc
 50
136.4626074013
 51
136.5934960399
  0
ARC
  5
42E
100
AcDbEntity
  8
0
100
AcDbCircle
 62
6
  6
CONTINUOUS
 10
12.9422182903
 20
7.1432536018
 40
1.1209791602
100
AcDbArc
 50
153.3528171419
 51
153.5838384916
  0
ARC
  5
42F
100
AcDbEntity
  8
0
100
AcDbCircle
 62
7
  6
CONTINUOUS
 10
12.8776878816
 20
7.8996172718
 40
0.4
100
AcDbArc
 50
139.4848188736
 51
170.0
  0
ARC
  5
430
100
AcDbEntity
  8
0
100
AcDbCircle
 62
6
  6
CONTINUOUS
 10
8.8138775296
 20
8.1841455837
 40
3.4807995195
100
AcDbArc
 50
344.0049855174
 51
344.252663834
  0
ARC
  5
431
100
AcDbEntity
  8
0
100
AcDbCircle
 62
6
  6
CONTINUOUS
 10
9.0490992368
 20
9.381971553
 40
2.0
100
AcDbArc
 50
180.0
 51
199.3099375779
  0
ARC
  5
432
100
AcDbEntity
  8
0
100
AcDbCircle
 62
6
  6
CONTINUOUS
 10
8.5772274309
 20
9.2166325111
 40
1.5
100
AcDbArc
 50
199.3099375779
 51
220.413081814
  0
ARC
  5
433
100
AcDbEntity
  8
0
100
AcDbCircle
 62
6
  6
CONTINUOUS
 10
9.2240992368
 20
9.757971553
 40
0.125
100
AcDbArc
 50
298.3576365763
 51
360.0
  0
ARC
  5
434
100
AcDbEntity
  8
0
100
AcDbCircle
 62
6
  6
CONTINUOUS
 10
9.1731502949
 20
9.6014502627
 40
0.078
100
AcDbArc
 50
306.7734275126
 51
356.708302835
  0
ARC
  5
435
100
AcDbEntity
  8
0
100
AcDbCircle
 62
6
  6
CONTINUOUS
 10
9.1183348275
 20
9.5088696175
 40
0.078
100
AcDbArc
 50
300.9443106101
 51
351.96842665
  0
ARC
  5
436
100
AcDbEntity
  8
0
100
AcDbCircle
 62
6
  6
CONTINUOUS
 10
9.3129193156
 20
9.593411553
 40
0.062
100
AcDbArc
 50
118.3576365763
 51
176.708302835
  0
ARC
  5
437
100
AcDbEntity
  8
0
100
AcDbCircle
 62
6
  6
CONTINUOUS
 10
9.2569615992
 20
9.4893089889
 40
0.062
100
AcDbArc
 50
126.7734275126
 51
171.96842665
  0
ARC
  5
438
100
AcDbEntity
  8
0
100
AcDbCircle
 62
6
  6
CONTINUOUS
 10
9.1903234851
 20
9.3887961684
 40
0.062
100
AcDbArc
 50
120.9443106101
 51
164.0658408375
  0
ARC
  5
439
100
AcDbEntity
  8
0
100
AcDbCircle
 62
6
  6
CONTINUOUS
 10
9.0990992368
 20
9.4148408892
 40
0.0328693362
100
AcDbArc
 50
270.0
 51
344.0658408375
  0
ARC
  5
43A
100
AcDbEntity
  8
0
100
AcDbCircle
 62
6
  6
CONTINUOUS
 10
9.987220193
 20
8.0764589182
 40
5.9464904081
100
AcDbArc
 50
188.0914311837
 51
188.3007264033
  0
ARC
  5
43B
100
AcDbEntity
  8
0
100
AcDbCircle
 62
6
  6
CONTINUOUS
 10
10.6017859558
 20
8.9129364082
 40
2.3099380715
100
AcDbArc
 50
313.0524813165
 51
313.2482016471
  0
ARC
  5
43C
100
AcDbEntity
  8
0
100
AcDbCircle
 62
6
  6
CONTINUOUS
 10
10.3017879694
 20
8.5055804115
 40
2.290679487
100
AcDbArc
 50
326.0105487289
 51
326.4460479703
  0
ARC
  5
43D
100
AcDbEntity
  8
0
100
AcDbCircle
 62
6
  6
CONTINUOUS
 10
10.6132410986
 20
8.7657729638
 40
2.2254882863
100
AcDbArc
 50
316.2625719876
 51
316.4247777367
  0
ARC
  5
43E
100
AcDbEntity
  8
0
100
AcDbCircle
 62
6
  6
CONTINUOUS
 10
10.2399810814
 20
8.2353223928
 40
2.0837240482
100
AcDbArc
 50
330.7752402328
 51
331.4504382196
  0
ARC
  5
43F
100
AcDbEntity
  8
0
100
AcDbCircle
 62
6
  6
CONTINUOUS
 10
10.8116453029
 20
8.7626248749
 40
2.0792280809
100
AcDbArc
 50
312.0211743193
 51
312.3096302355
  0
ARC
  5
440
100
AcDbEntity
  8
0
100
AcDbCircle
 62
6
  6
CONTINUOUS
 10
10.5704068512
 20
8.5937395547
 40
2.0723579206
100
AcDbArc
 50
318.404611865
 51
319.1946441577
  0
ARC
  5
441
100
AcDbEntity
  8
0
100
AcDbCircle
 62
6
  6
CONTINUOUS
 10
10.7823269624
 20
8.719594923
 40
2.0454083365
100
AcDbArc
 50
312.7651019945
 51
313.0542052851
  0
ARC
  5
442
100
AcDbEntity
  8
0
100
AcDbCircle
 62
6
  6
CONTINUOUS
 10
10.7598976579
 20
8.6259712876
 40
2.0228741361
100
AcDbArc
 50
316.0925649508
 51
316.2517302987
  0
ARC
  5
443
100
AcDbEntity
  8
0
100
AcDbCircle
 62
6
  6
CONTINUOUS
 10
10.8075973802
 20
8.5794685097
 40
1.9562589273
100
AcDbArc
 50
315.8954590489
 51
316.1049805932
  0
ARC
  5
444
100
AcDbEntity
  8
0
100
AcDbCircle
 62
6
  6
CONTINUOUS
 10
10.3440329431
 20
9.1865750992
 40
2.6858567446
100
AcDbArc
 50
313.3088535387
 51
313.5355684961
  0
ARC
  5
445
100
AcDbEntity
  8
0
100
AcDbCircle
 62
6
  6
CONTINUOUS
 10
10.604726392
 20
8.9899779468
 40
2.3866444998
100
AcDbArc
 50
312.3091627708
 51
312.5641839156
  0
ARC
  5
446
100
AcDbEntity
  8
0
100
AcDbCircle
 62
7
  6
CONTINUOUS
 10
10.8913662175
 20
9.1254528929
 40
0.343
100
AcDbArc
 50
356.2419535375
 51
50.9887457037
  0
ARC
  5
447
100
AcDbEntity
  8
0
100
AcDbCircle
 62
7
  6
CONTINUOUS
 10
10.915279158
 20
9.593411553
 40
0.062
100
AcDbArc
 50
3.291697165
 51
61.6423634237
  0
ARC
  5
448
100
AcDbEntity
  8
0
100
AcDbCircle
 62
7
  6
CONTINUOUS
 10
11.3478382122
 20
9.0033457899
 40
1.52
100
AcDbArc
 50
348.4101664982
 51
3.7580464625
  0
ARC
  5
449
100
AcDbEntity
  8
0
100
AcDbCircle
 62
7
  6
CONTINUOUS
 10
11.6613137044
 20
8.9390564769
 40
1.2
100
AcDbArc
 50
319.4848188736
 51
348.4101664982
  0
ARC
  5
44A
100
AcDbEntity
  8
0
100
AcDbCircle
 62
7
  6
CONTINUOUS
 10
11.0378749886
 20
9.3887961684
 40
0.062
100
AcDbArc
 50
17.0467181651
 51
59.0556893899
  0
ARC
  5
44B
100
AcDbEntity
  8
0
100
AcDbCircle
 62
7
  6
CONTINUOUS
 10
10.9712368745
 20
9.4893089889
 40
0.062
100
AcDbArc
 50
8.03157335
 51
53.2265724874
  0
ARC
  5
44C
100
AcDbEntity
  8
0
100
AcDbCircle
 62
7
  6
CONTINUOUS
 10
11.0040992368
 20
9.757971553
 40
0.125
100
AcDbArc
 50
180.0
 51
241.6423634237
  0
ARC
  5
44D
100
AcDbEntity
  8
0
100
AcDbCircle
 62
7
  6
CONTINUOUS
 10
11.1098636461
 20
9.5088696175
 40
0.078
100
AcDbArc
 50
188.03157335
 51
239.0556893899
  0
ARC
  5
44E
100
AcDbEntity
  8
0
100
AcDbCircle
 62
7
  6
CONTINUOUS
 10
11.1267891305
 20
9.4160592453
 40
0.031
100
AcDbArc
 50
197.0467181651
 51
230.9887457037
  0
ARC
  5
44F
100
AcDbEntity
  8
0
100
AcDbCircle
 62
7
  6
CONTINUOUS
 10
11.0550481787
 20
9.6014502627
 40
0.078
100
AcDbArc
 50
183.291697165
 51
233.2265724874
  0
ARC
  5
450
100
AcDbEntity
  8
0
100
AcDbCircle
 62
6
  6
CONTINUOUS
 10
13.2603357902
 20
8.5501959003
 40
1.9141534375
100
AcDbArc
 50
223.9138225007
 51
224.1058555442
  0
ARC
  5
451
100
AcDbEntity
  8
0
100
AcDbCircle
 62
7
  6
CONTINUOUS
 10
12.7503602614
 20
9.0033457899
 40
1.52
100
AcDbArc
 50
176.2419535375
 51
191.5898335018
  0
ARC
  5
452
100
AcDbEntity
  8
0
100
AcDbCircle
 62
7
  6
CONTINUOUS
 10
12.4368847692
 20
8.9390564769
 40
1.2
100
AcDbArc
 50
191.5898335018
 51
220.5151811264
  0
ARC
  5
453
100
AcDbEntity
  8
0
100
AcDbCircle
 62
7
  6
CONTINUOUS
 10
12.2601622213
 20
8.7280622765
 40
1.0062391909
100
AcDbArc
 50
272.4627684382
 51
272.6553763454
  0
ARC
  5
454
100
AcDbEntity
  8
0
100
AcDbCircle
 62
7
  6
CONTINUOUS
 10
13.2068322561
 20
9.1254528929
 40
0.343
100
AcDbArc
 50
129.0112542963
 51
183.7580464625
  0
ARC
  5
455
100
AcDbEntity
  8
0
100
AcDbCircle
 62
7
  6
CONTINUOUS
 10
12.9883348275
 20
9.5088696175
 40
0.078
100
AcDbArc
 50
300.9443106101
 51
351.96842665
  0
ARC
  5
456
100
AcDbEntity
  8
0
100
AcDbCircle
 62
7
  6
CONTINUOUS
 10
13.0603234851
 20
9.3887961684
 40
0.062
100
AcDbArc
 50
120.9443106101
 51
162.9532818349
  0
ARC
  5
457
100
AcDbEntity
  8
0
100
AcDbCircle
 62
7
  6
CONTINUOUS
 10
12.9714093431
 20
9.4160592453
 40
0.031
100
AcDbArc
 50
309.0112542963
 51
342.9532818349
  0
ARC
  5
458
100
AcDbEntity
  8
0
100
AcDbCircle
 62
7
  6
CONTINUOUS
 10
13.0431502949
 20
9.6014502627
 40
0.078
100
AcDbArc
 50
306.7734275126
 51
356.708302835
  0
ARC
  5
459
100
AcDbEntity
  8
0
100
AcDbCircle
 62
7
  6
CONTINUOUS
 10
13.1269615992
 20
9.4893089889
 40
0.062
100
AcDbArc
 50
126.7734275126
 51
171.96842665
  0
ARC
  5
45A
100
AcDbEntity
  8
0
100
AcDbCircle
 62
7
  6
CONTINUOUS
 10
13.0940992368
 20
9.757971553
 40
0.125
100
AcDbArc
 50
298.3576365763
 51
360.0
  0
ARC
  5
45B
100
AcDbEntity
  8
0
100
AcDbCircle
 62
7
  6
CONTINUOUS
 10
13.1829193156
 20
9.593411553
 40
0.062
100
AcDbArc
 50
118.3576365763
 51
176.708302835
  0
ARC
  5
45C
100
AcDbEntity
  8
0
100
AcDbCircle
 62
7
  6
CONTINUOUS
 10
12.0219374656
 20
12.4402761232
 40
4.6978719023
100
AcDbArc
 50
272.333454024
 51
272.5679699907
  0
ARC
  5
45D
100
AcDbEntity
  8
0
100
AcDbCircle
 62
7
  6
CONTINUOUS
 10
12.0380260361
 20
12.0534746062
 40
4.3232255699
100
AcDbArc
 50
272.3285263936
 51
272.5857941108
  0
ARC
  5
45E
100
AcDbEntity
  8
0
100
AcDbCircle
 62
7
  6
CONTINUOUS
 10
12.2538885255
 20
11.117739447
 40
3.4202960803
100
AcDbArc
 50
269.7673919093
 51
269.9926245814
  0
ARC
  5
45F
100
AcDbEntity
  8
0
100
AcDbCircle
 62
7
  6
CONTINUOUS
 10
11.9052184516
 20
10.7595663402
 40
3.0803417228
100
AcDbArc
 50
276.2394709636
 51
276.4599025807
  0
ARC
  5
460
100
AcDbEntity
  8
0
100
AcDbCircle
 62
7
  6
CONTINUOUS
 10
12.1099183884
 20
10.4426354401
 40
2.7482393852
100
AcDbArc
 50
272.7108692876
 51
272.9889586995
  0
ARC
  5
461
100
AcDbEntity
  8
0
100
AcDbCircle
 62
7
  6
CONTINUOUS
 10
11.8370634575
 20
17.1589867802
 40
9.4202066221
100
AcDbArc
 50
272.0660746735
 51
272.1883383904
  0
ARC
  5
462
100
AcDbEntity
  8
0
100
AcDbCircle
 62
7
  6
CONTINUOUS
 10
11.8573461439
 20
16.5998533921
 40
8.8731972508
100
AcDbArc
 50
272.063772197
 51
272.194346206
  0
ARC
  5
463
100
AcDbEntity
  8
0
100
AcDbCircle
 62
7
  6
CONTINUOUS
 10
11.938438454
 20
14.494360865
 40
6.7536530636
100
AcDbArc
 50
272.1921233243
 51
272.3317344369
  0
ARC
  5
464
100
AcDbEntity
  8
0
100
AcDbCircle
 62
7
  6
CONTINUOUS
 10
11.9534554666
 20
14.1024364008
 40
6.3739316805
100
AcDbArc
 50
272.1906181089
 51
272.3397890371
  0
ARC
  5
465
100
AcDbEntity
  8
0
100
AcDbCircle
 62
6
  6
CONTINUOUS
 10
17.9871020808
 20
8.0764589179
 40
5.9464904061
100
AcDbArc
 50
188.0914311832
 51
188.3007264029
  0
ARC
  5
466
100
AcDbEntity
  8
0
100
AcDbCircle
 62
6
  6
CONTINUOUS
 10
15.4512263535
 20
8.2313065756
 40
3.6542399026
100
AcDbArc
 50
195.7488026146
 51
195.8678445994
  0
ARC
  5
467
100
AcDbEntity
  8
0
100
AcDbCircle
 62
6
  6
CONTINUOUS
 10
14.6830081978
 20
8.0124591704
 40
2.8554576746
100
AcDbArc
 50
195.8585656749
 51
196.1548786494
  0
ARC
  5
468
100
AcDbEntity
  8
0
100
AcDbCircle
 62
6
  6
CONTINUOUS
 10
13.7245975089
 20
9.2416692118
 40
2.7283570336
100
AcDbArc
 50
227.2099106854
 51
227.4362236498
  0
ARC
  5
469
100
AcDbEntity
  8
0
100
AcDbCircle
 62
6
  6
CONTINUOUS
 10
13.7256596002
 20
9.1564834943
 40
2.6444069092
100
AcDbArc
 50
226.4630891564
 51
226.7462402357
  0
ARC
  5
46A
100
AcDbEntity
  8
0
100
AcDbCircle
 62
6
  6
CONTINUOUS
 10
13.8876174974
 20
8.5661971169
 40
2.4001924556
100
AcDbArc
 50
213.5564293148
 51
213.7659425599
  0
ARC
  5
46B
100
AcDbEntity
  8
0
100
AcDbCircle
 62
6
  6
CONTINUOUS
 10
13.4934722912
 20
8.9899782457
 40
2.3866448618
100
AcDbArc
 50
227.4358172316
 51
227.6908383331
  0
ARC
  5
46C
100
AcDbEntity
  8
0
100
AcDbCircle
 62
6
  6
CONTINUOUS
 10
13.4978669685
 20
8.9144897363
 40
2.3120660397
100
AcDbArc
 50
226.7483646062
 51
226.9474591668
  0
ARC
  5
46D
100
AcDbEntity
  8
0
100
AcDbCircle
 62
6
  6
CONTINUOUS
 10
13.9945734623
 20
8.3105551254
 40
2.2394550933
100
AcDbArc
 50
208.5730385586
 51
209.201282989
  0
ARC
  5
46E
100
AcDbEntity
  8
0
100
AcDbCircle
 62
6
  6
CONTINUOUS
 10
13.4850034498
 20
8.7658166799
 40
2.2255517999
100
AcDbArc
 50
223.5752199829
 51
223.7374210519
  0
ARC
  5
46F
100
AcDbEntity
  8
0
100
AcDbCircle
 62
6
  6
CONTINUOUS
 10
13.6398155202
 20
8.6918103486
 40
2.2212412684
100
AcDbArc
 50
220.8318330051
 51
221.5689109723
  0
ARC
  5
470
100
AcDbEntity
  8
0
100
AcDbCircle
 62
6
  6
CONTINUOUS
 10
13.3300224257
 20
8.8105071612
 40
2.1438986494
100
AcDbArc
 50
227.6926423231
 51
227.8513688382
  0
ARC
  5
471
100
AcDbEntity
  8
0
100
AcDbCircle
 62
6
  6
CONTINUOUS
 10
13.6274437251
 20
8.3922316307
 40
2.087215808
100
AcDbArc
 50
213.7655273323
 51
214.0025498756
  0
ARC
  5
472
100
AcDbEntity
  8
0
100
AcDbCircle
 62
6
  6
CONTINUOUS
 10
13.3665354137
 20
8.6530517753
 40
2.0619963027
100
AcDbArc
 50
223.7493410047
 51
223.925999546
  0
ARC
  5
473
100
AcDbEntity
  8
0
100
AcDbCircle
 62
6
  6
CONTINUOUS
 10
13.3158730696
 20
8.7195965693
 40
2.0454106033
100
AcDbArc
 50
226.9457942955
 51
227.2348972719
  0
ARC
  5
474
100
AcDbEntity
  8
0
100
AcDbCircle
 62
6
  6
CONTINUOUS
 10
13.3945224555
 20
8.2350907515
 40
1.8062432587
100
AcDbArc
 50
214.0020655664
 51
214.271362318
  0
SPLINE
  5
475
100
AcDbEntity
  8
0
100
AcDbSpline
 62
7
  6
CONTINUOUS
 70
0
 71
3
 72
28
 73
24
 74
22
 42
0.0000001
 43
0.0000001
 44
0.0000000001
 12
-1.111085695
 22
-0.0
 32
0.0
 13
0.8213179475
 23
0.7482969002
 33
0.0
 40
0.0
 40
0.0
 40
0.0
 40
0.0
 40
0.0625616717
 40
0.0939031864
 40
0.1252299705
 40
0.1877937824
 40
0.2503374587
 40
0.3128638923
 40
0.3753620169
 40
0.4066224289
 40
0.4378770189
 40
0.5003262172
 40
0.5627571709
 40
0.5939900193
 40
0.6252205486
 40
0.6876369673
 40
0.7188676676
 40
0.7501009369
 40
0.8125327382
 40
0.8749834448
 40
0.9062387169
 40
0.9375000523
 40
1.0
 40
1.0
 40
1.0
 40
1.0
 10
8.0490992368
 20
1.0480072411
 30
0.0
 10
8.0259287773
 20
1.0480072411
 30
0.0
 10
7.9910794473
 20
1.0506326863
 30
0.0
 10
7.9454739299
 20
1.0592425582
 30
0.0
 10
7.90063357
 20
1.0712508162
 30
0.0
 10
7.8464797846
 20
1.0924958285
 30
0.0
 10
7.7860862099
 20
1.1273872635
 30
0.0
 10
7.7315765421
 20
1.170863771
 30
0.0
 10
7.692086839
 20
1.2135054252
 30
0.0
 10
7.6646108556
 20
1.2508182843
 30
0.0
 10
7.6400332724
 20
1.2900801923
 30
0.0
 10
7.6149349227
 20
1.3424333639
 30
0.0
 10
7.5980022068
 20
1.3979594156
 30
0.0
 10
7.5895540793
 20
1.4434770882
 30
0.0
 10
7.5845628086
 20
1.4894928384
 30
0.0
 10
7.5847867309
 20
1.5359500164
 30
0.0
 10
7.5902270955
 20
1.5819151054
 30
0.0
 10
7.5991156105
 20
1.6273493068
 30
0.0
 10
7.6165878403
 20
1.6827092634
 30
0.0
 10
7.6421913004
 20
1.7348176455
 30
0.0
 10
7.6671504543
 20
1.7738413258
 30
0.0
 10
7.6949832422
 20
1.8108824477
 30
0.0
 10
7.7189429163
 20
1.8362542382
 30
0.0
 10
7.7360536926
 20
1.8518437439
 30
0.0
 11
8.0490992368
 21
1.0480072411
 31
0.0
 11
7.9797825293
 21
1.0532058764
 31
0.0
 11
7.9455644325
 21
1.0596689052
 31
0.0
 11
7.9119424319
 21
1.0686728123
 31
0.0
 11
7.8472332995
 21
1.0940675068
 31
0.0
 11
7.7870582493
 21
1.1288240284
 31
0.0
 11
7.7327545513
 21
1.17215414
 31
0.0
 11
7.6855640951
 21
1.2230960842
 31
0.0
 11
7.6649707893
 21
1.2510656535
 31
0.0
 11
7.646543089
 21
1.2804995048
 31
0.0
 11
7.6165647607
 21
1.3430756492
 31
0.0
 11
7.5963170547
 21
1.4094208955
 31
0.0
 11
7.5899861012
 21
1.4435408836
 31
0.0
 11
7.5862442192
 21
1.4780383336
 31
0.0
 11
7.586580384
 21
1.5473875087
 31
0.0
 11
7.5906579941
 21
1.5818470794
 31
0.0
 11
7.5973197093
 21
1.6159045097
 31
0.0
 11
7.6182106252
 21
1.682051026
 31
0.0
 11
7.6487944728
 21
1.7443353326
 31
0.0
 11
7.6675071965
 21
1.7735897057
 31
0.0
 11
7.6883714832
 21
1.8013590028
 31
0.0
 11
7.7360536926
 21
1.8518437439
 31
0.0
  0
SPLINE
  5
476
100
AcDbEntity
  8
0
100
AcDbSpline
 62
7
  6
CONTINUOUS
 70
0
 71
3
 72
28
 73
24
 74
22
 42
0.0000001
 43
0.0000001
 44
0.0000000001
 12
0.8213079273
 22
-0.7483017337
 32
0.0
 13
-1.1110815434
 23
0.0
 33
0.0
 40
0.0
 40
0.0
 40
0.0
 40
0.0
 40
0.0624998747
 40
0.0937611737
 40
0.125016414
 40
0.1874670588
 40
0.2498988172
 40
0.2811320672
 40
0.312362755
 40
0.3747791623
 40
0.4060096915
 40
0.4372425471
 40
0.4996735203
 40
0.5621227572
 40
0.5933773669
 40
0.6246378027
 40
0.6871359771
 40
0.7496624593
 40
0.8122061709
 40
0.8747700179
 40
0.9060968154
 40
0.9374383352
 40
1.0
 40
1.0
 40
1.0
 40
1.0
 10
8.3621478554
 20
1.8518409409
 30
0.0
 10
8.3792584029
 20
1.8362513528
 30
0.0
 10
8.4032177577
 20
1.8108794987
 30
0.0
 10
8.4310500977
 20
1.7738383213
 30
0.0
 10
8.456008824
 20
1.7348146319
 30
0.0
 10
8.4816118135
 20
1.6827063178
 30
0.0
 10
8.4990835828
 20
1.627346495
 30
0.0
 10
8.5079718122
 20
1.5819124415
 30
0.0
 10
8.5134118389
 20
1.535947504
 30
0.0
 10
8.5136355844
 20
1.4894905097
 30
0.0
 10
8.5086440624
 20
1.4434749614
 30
0.0
 10
8.5001957747
 20
1.397957486
 30
0.0
 10
8.4832628798
 20
1.3424316905
 30
0.0
 10
8.4581644304
 20
1.2900787781
 30
0.0
 10
8.4335867966
 20
1.2508170694
 30
0.0
 10
8.4061107626
 20
1.2135044204
 30
0.0
 10
8.3666210832
 20
1.1708629811
 30
0.0
 10
8.3121114686
 20
1.1273867451
 30
0.0
 10
8.2517180263
 20
1.0924955194
 30
0.0
 10
8.1975643857
 20
1.0712506497
 30
0.0
 10
8.1527241627
 20
1.0592424757
 30
0.0
 10
8.1071188057
 20
1.0506326675
 30
0.0
 10
8.0722696072
 20
1.0480072411
 30
0.0
 10
8.0490992368
 20
1.0480072411
 30
0.0
 11
8.3621478554
 21
1.8518409409
 31
0.0
 11
8.4098294026
 21
1.8013560429
 31
0.0
 11
8.4306933568
 21
1.7735867089
 31
0.0
 11
8.4494057618
 21
1.7443323279
 31
0.0
 11
8.4799890276
 21
1.6820481009
 31
0.0
 11
8.500879419
 21
1.6159017409
 31
0.0
 11
8.5075409064
 21
1.5818444199
 31
0.0
 11
8.5116182832
 21
1.5473849662
 31
0.0
 11
8.5119541051
 21
1.4780360611
 31
0.0
 11
8.5082120525
 21
1.4435387603
 31
0.0
 11
8.5018809689
 21
1.4094189201
 31
0.0
 11
8.4816330605
 21
1.3430739838
 31
0.0
 11
8.4516546042
 21
1.2804981406
 31
0.0
 11
8.4332268642
 21
1.2510644416
 31
0.0
 11
8.4126335257
 21
1.2230950246
 31
0.0
 11
8.3654430772
 21
1.1721533515
 31
0.0
 11
8.3111394376
 21
1.1288234963
 31
0.0
 11
8.2509645173
 21
1.0940671908
 31
0.0
 11
8.1862555563
 21
1.0686726632
 31
0.0
 11
8.1526336582
 21
1.059668819
 31
0.0
 11
8.118415679
 21
1.0532058375
 31
0.0
 11
8.0490992368
 21
1.0480072411
 31
0.0
  0
LINE
  5
477
100
AcDbEntity
  8
0
100
AcDbLine
 62
7
  6
CONTINUOUS
 10
4.2533393529
 20
7.6981347551
 11
4.2826253146
 21
7.6999646783
  0
SPLINE
  5
478
100
AcDbEntity
  8
0
100
AcDbSpline
 62
7
  6
CONTINUOUS
 70
0
 71
3
 72
12
 73
8
 74
6
 42
0.0000001
 43
0.0000001
 44
0.0000000001
 12
0.0199855041
 22
0.0015661564
 32
0.0
 13
0.0190055054
 23
0.0063768318
 33
0.0
 40
0.0
 40
0.0
 40
0.0
 40
0.0
 40
0.3627734623
 40
0.6511989056
 40
0.8638922114
 40
0.9415297467
 40
1.0
 40
1.0
 40
1.0
 40
1.0
 10
4.2826253146
 20
7.6999646783
 30
0.0
 10
4.2850420514
 20
7.7001540649
 30
0.0
 10
4.2893785798
 20
7.7005200704
 30
0.0
 10
4.295119114
 20
7.7011274016
 30
0.0
 10
4.2989526835
 20
7.7016575586
 30
0.0
 10
4.3012390508
 20
7.7021117337
 30
0.0
 10
4.3021205282
 20
7.7023421226
 30
0.0
 10
4.3024909471
 20
7.7024664076
 30
0.0
 11
4.2826253146
 21
7.6999646783
 31
0.0
 11
4.2898707888
 21
7.7005903468
 31
0.0
 11
4.2956188389
 21
7.7012160039
 31
0.0
 11
4.2998365349
 21
7.7018414305
 31
0.0
 11
4.3013612096
 21
7.702153989
 31
0.0
 11
4.3024909471
 21
7.7024664076
 31
0.0
  0
LINE
  5
479
100
AcDbEntity
  8
0
100
AcDbLine
 62
7
  6
CONTINUOUS
 10
4.3024909471
 20
7.7024664076
 11
4.3032037965
 21
7.7027676613
  0
SPLINE
  5
47A
100
AcDbEntity
  8
0
100
AcDbSpline
 62
9
  6
CONTINUOUS
 70
0
 71
3
 72
23
 73
19
 74
17
 42
0.0000001
 43
0.0000001
 44
0.0000000001
 12
-0.0
 22
0.3493787546
 32
0.0
 13
-0.3493787546
 23
-0.0
 33
0.0
 40
0.0
 40
0.0
 40
0.0
 40
0.0
 40
0.0150492647
 40
0.0303665363
 40
0.0462064721
 40
0.0627975082
 40
0.0988994096
 40
0.139799247
 40
0.186113059
 40
0.2380735804
 40
0.2956466651
 40
0.3586597301
 40
0.426760176
 40
0.4994812939
 40
0.5763126179
 40
0.6566787434
 40
0.8254958916
 40
1.0
 40
1.0
 40
1.0
 40
1.0
 10
8.3615938425
 20
4.6016516227
 30
0.0
 10
8.3615938425
 20
4.6034042538
 30
0.0
 10
8.3613383886
 20
4.6069457917
 30
0.0
 10
8.3601937277
 20
4.6122205371
 30
0.0
 10
8.3582898578
 20
4.6174622994
 30
0.0
 10
8.3546454383
 20
4.624582753
 30
0.0
 10
8.3480492823
 20
4.6333614721
 30
0.0
 10
8.3375378691
 20
4.6432208912
 30
0.0
 10
8.3243030174
 20
4.6526450487
 30
0.0
 10
8.3084688244
 20
4.6615693223
 30
0.0
 10
8.2901738741
 20
4.669929351
 30
0.0
 10
8.26957809
 20
4.6776336844
 30
0.0
 10
8.2468781659
 20
4.6846190157
 30
0.0
 10
8.2222909734
 20
4.6908222588
 30
0.0
 10
8.1960458391
 20
4.6961722672
 30
0.0
 10
8.158551737
 20
4.702207178
 30
0.0
 10
8.1094164777
 20
4.7072014091
 30
0.0
 10
8.0694219128
 20
4.7085329175
 30
0.0
 10
8.0490992368
 20
4.7085329175
 30
0.0
 11
8.3615938425
 21
4.6016516227
 31
0.0
 11
8.3612186237
 21
4.6068961106
 31
0.0
 11
8.3600929674
 21
4.6121279137
 31
0.0
 11
8.3582168749
 21
4.6173343472
 31
0.0
 11
8.3555926101
 21
4.6225028373
 31
0.0
 11
8.3481375496
 21
4.6326771102
 31
0.0
 11
8.3378103205
 21
4.6425533003
 31
0.0
 11
8.3246980141
 21
4.6520345547
 31
0.0
 11
8.3089299089
 21
4.661030722
 31
0.0
 11
8.2906647864
 21
4.6694563368
 31
0.0
 11
8.2700664366
 21
4.6772272425
 31
0.0
 11
8.2473400271
 21
4.6842706776
 31
0.0
 11
8.2227133967
 21
4.6905201237
 31
0.0
 11
8.1964171259
 21
4.6959113447
 31
0.0
 11
8.1686992985
 21
4.700395573
 31
0.0
 11
8.1100326189
 21
4.7064778263
 31
0.0
 11
8.0490992368
 21
4.7085329175
 31
0.0
  0
SPLINE
  5
47B
100
AcDbEntity
  8
0
100
AcDbSpline
 62
7
  6
CONTINUOUS
 70
0
 71
3
 72
11
 73
7
 74
5
 42
0.0000001
 43
0.0000001
 44
0.0000000001
 12
-0.0221549589
 22
-0.0031514645
 32
0.0
 13
-0.0223539189
 23
-0.0010374208
 33
0.0
 40
0.0
 40
0.0
 40
0.0
 40
0.0
 40
0.148133133
 40
0.3653930087
 40
0.6499690039
 40
1.0
 40
1.0
 40
1.0
 40
1.0
 10
4.3292160641
 20
7.724471553
 30
0.0
 10
4.3281221029
 20
7.7243159409
 30
0.0
 10
4.3254095363
 20
7.7240371057
 30
0.0
 10
4.3205763722
 20
7.7236565233
 30
0.0
 10
4.3142337577
 20
7.7232638655
 30
0.0
 10
4.3095060433
 20
7.7230245681
 30
0.0
 10
4.3068978551
 20
7.7229035249
 30
0.0
 11
4.3292160641
 21
7.724471553
 31
0.0
 11
4.3259219738
 21
7.724100521
 31
0.0
 11
4.3210760356
 21
7.7237076593
 31
0.0
 11
4.3147205593
 21
7.7233047375
 31
0.0
 11
4.3068978551
 21
7.7229035249
 31
0.0
  0
SPLINE
  5
47C
100
AcDbEntity
  8
0
100
AcDbSpline
 62
7
  6
CONTINUOUS
 70
0
 71
3
 72
10
 73
6
 74
4
 42
0.0000001
 43
0.0000001
 44
0.0000000001
 12
-0.0683581543
 22
-0.0029460365
 32
0.0
 13
-0.0684025839
 23
-0.0016133543
 33
0.0
 40
0.0
 40
0.0
 40
0.0
 40
0.0
 40
0.1988139108
 40
0.4332240369
 40
1.0
 40
1.0
 40
1.0
 40
1.0
 10
4.303518614
 20
7.7227524932
 30
0.0
 10
4.29898843
 20
7.7225572556
 30
0.0
 10
4.2891145713
 20
7.7221876504
 30
0.0
 10
4.2663183238
 20
7.721478868
 30
0.0
 10
4.2480509527
 20
7.7210265252
 30
0.0
 10
4.2351279726
 20
7.7207217217
 30
0.0
 11
4.303518614
 21
7.7227524932
 31
0.0
 11
4.289925439
 21
7.7222311913
 31
0.0
 11
4.2738947323
 21
7.7217243322
 31
0.0
 11
4.2351279726
 21
7.7207217217
 31
0.0
  0
LINE
  5
47D
100
AcDbEntity
  8
0
100
AcDbLine
 62
7
  6
CONTINUOUS
 10
4.2351279726
 20
7.7207217217
 11
4.2138853079
 21
7.7202349203
  0
LINE
  5
47E
100
AcDbEntity
  8
0
100
AcDbLine
 62
7
  6
CONTINUOUS
 10
4.2138853079
 20
7.7202349203
 11
4.2122327316
 21
7.7201979889
  0
LINE
  5
47F
100
AcDbEntity
  8
0
100
AcDbLine
 62
7
  6
CONTINUOUS
 10
4.2122327316
 20
7.7201979889
 11
4.2073477428
 21
7.7200893897
  0
LINE
  5
480
100
AcDbEntity
  8
0
100
AcDbLine
 62
7
  6
CONTINUOUS
 10
4.2073477428
 20
7.7200893897
 11
4.1970123618
 21
7.7198618783
  0
LINE
  5
481
100
AcDbEntity
  8
0
100
AcDbLine
 62
7
  6
CONTINUOUS
 10
4.1970123618
 20
7.7198618783
 11
4.177147881
 21
7.7194316902
  0
LINE
  5
482
100
AcDbEntity
  8
0
100
AcDbLine
 62
7
  6
CONTINUOUS
 10
4.177147881
 20
7.7194316902
 11
4.1655427893
 21
7.7191860499
  0
LINE
  5
483
100
AcDbEntity
  8
0
100
AcDbLine
 62
7
  6
CONTINUOUS
 10
4.1655427893
 20
7.7191860499
 11
4.1591082102
 21
7.7190521091
  0
LINE
  5
484
100
AcDbEntity
  8
0
100
AcDbLine
 62
7
  6
CONTINUOUS
 10
4.1591082102
 20
7.7190521091
 11
4.1511155248
 21
7.7188882596
  0
LINE
  5
485
100
AcDbEntity
  8
0
100
AcDbLine
 62
7
  6
CONTINUOUS
 10
4.1511155248
 20
7.7188882596
 11
3.9557739833
 21
7.7151809825
  0
LINE
  5
486
100
AcDbEntity
  8
0
100
AcDbLine
 62
7
  6
CONTINUOUS
 10
3.9557739833
 20
7.7151809825
 11
3.9492315845
 21
7.7150519628
  0
LINE
  5
487
100
AcDbEntity
  8
0
100
AcDbLine
 62
7
  6
CONTINUOUS
 10
3.9492315845
 20
7.7150519628
 11
3.9394976872
 21
7.7148622829
  0
LINE
  5
488
100
AcDbEntity
  8
0
100
AcDbLine
 62
7
  6
CONTINUOUS
 10
3.9394976872
 20
7.7148622829
 11
3.9333426518
 21
7.7147429099
  0
LINE
  5
489
100
AcDbEntity
  8
0
100
AcDbLine
 62
7
  6
CONTINUOUS
 10
3.9333426518
 20
7.7147429099
 11
3.9211969117
 21
7.7145060206
  0
LINE
  5
48A
100
AcDbEntity
  8
0
100
AcDbLine
 62
7
  6
CONTINUOUS
 10
3.9211969117
 20
7.7145060206
 11
3.9006592848
 21
7.7140885218
  0
LINE
  5
48B
100
AcDbEntity
  8
0
100
AcDbLine
 62
7
  6
CONTINUOUS
 10
3.9006592848
 20
7.7140885218
 11
3.8909366485
 21
7.713875928
  0
LINE
  5
48C
100
AcDbEntity
  8
0
100
AcDbLine
 62
7
  6
CONTINUOUS
 10
3.8909366485
 20
7.713875928
 11
3.887435584
 21
7.7137958582
  0
LINE
  5
48D
100
AcDbEntity
  8
0
100
AcDbLine
 62
7
  6
CONTINUOUS
 10
3.887435584
 20
7.7137958582
 11
3.8855538567
 21
7.7137519168
  0
SPLINE
  5
48E
100
AcDbEntity
  8
0
100
AcDbSpline
 62
7
  6
CONTINUOUS
 70
0
 71
3
 72
11
 73
7
 74
5
 42
0.0000001
 43
0.0000001
 44
0.0000000001
 12
-0.0685420658
 22
-0.0019078947
 32
0.0
 13
-0.0684482437
 23
-0.0040611302
 33
0.0
 40
0.0
 40
0.0
 40
0.0
 40
0.0
 40
0.3229093015
 40
0.5998986955
 40
0.8267933003
 40
1.0
 40
1.0
 40
1.0
 40
1.0
 10
3.8638537678
 20
7.7131944574
 30
0.0
 10
3.8564761443
 20
7.7129890984
 30
0.0
 10
3.842770901
 20
7.7125768632
 30
0.0
 10
3.8238841845
 20
7.7119403172
 30
0.0
 10
3.8084194914
 20
7.7113581191
 30
0.0
 10
3.799284061
 20
7.7109331976
 30
0.0
 10
3.7953321629
 20
7.7106987259
 30
0.0
 11
3.8638537678
 21
7.7131944574
 31
0.0
 11
3.8417222689
 21
7.7125309299
 31
0.0
 11
3.8227403734
 21
7.7118880524
 31
0.0
 11
3.8071941805
 21
7.7112859405
 31
0.0
 11
3.7953321629
 21
7.7106987259
 31
0.0
  0
SPLINE
  5
48F
100
AcDbEntity
  8
0
100
AcDbSpline
 62
7
  6
CONTINUOUS
 70
0
 71
3
 72
14
 73
10
 74
8
 42
0.0000001
 43
0.0000001
 44
0.0000000001
 12
-0.0107498145
 22
-0.0006806698
 32
0.0
 13
-0.0094886302
 23
-0.0050978152
 33
0.0
 40
0.0
 40
0.0
 40
0.0
 40
0.0
 40
0.3913277686
 40
0.5517967961
 40
0.688673462
 40
0.8018854542
 40
0.8914033679
 40
0.9573030576
 40
1.0
 40
1.0
 40
1.0
 40
1.0
 10
3.7938999555
 20
7.7106109943
 30
0.0
 10
3.7924977219
 20
7.710522206
 30
0.0
 10
3.790521058
 20
7.7103855307
 30
0.0
 10
3.788057794
 20
7.7101701586
 30
0.0
 10
3.7865913032
 20
7.710018799
 30
0.0
 10
3.785381671
 20
7.7098666482
 30
0.0
 10
3.7844280011
 20
7.7097155663
 30
0.0
 10
3.7837342451
 20
7.7095641349
 30
0.0
 10
3.7833587704
 20
7.7094454532
 30
0.0
 10
3.7832237253
 20
7.7093728995
 30
0.0
 11
3.7938999555
 21
7.7106109943
 31
0.0
 11
3.7896955692
 21
7.7103102979
 31
0.0
 11
3.7879738306
 21
7.7101579366
 31
0.0
 11
3.7865075297
 21
7.7100041299
 31
0.0
 11
3.7852980177
 21
7.7098488004
 31
0.0
 11
3.7843466456
 21
7.7096918705
 31
0.0
 11
3.7836547645
 21
7.7095332627
 31
0.0
 11
3.7832237253
 21
7.7093728995
 31
0.0
  0
SPLINE
  5
490
100
AcDbEntity
  8
0
100
AcDbSpline
 62
9
  6
CONTINUOUS
 70
0
 71
3
 72
23
 73
19
 74
17
 42
0.0000001
 43
0.0000001
 44
0.0000000001
 12
0.0
 22
0.3493787546
 32
0.0
 13
0.3493787546
 23
0.0
 33
0.0
 40
0.0
 40
0.0
 40
0.0
 40
0.0
 40
0.0150492647
 40
0.0303665363
 40
0.0462064721
 40
0.0627975082
 40
0.0988994096
 40
0.139799247
 40
0.186113059
 40
0.2380735804
 40
0.2956466651
 40
0.3586597301
 40
0.426760176
 40
0.4994812939
 40
0.5763126179
 40
0.6566787434
 40
0.8254958916
 40
1.0
 40
1.0
 40
1.0
 40
1.0
 10
7.7366046311
 20
3.1050741125
 30
0.0
 10
7.7366046311
 20
3.1068267436
 30
0.0
 10
7.736860085
 20
3.1103682815
 30
0.0
 10
7.738004746
 20
3.1156430269
 30
0.0
 10
7.7399086158
 20
3.1208847892
 30
0.0
 10
7.7435530354
 20
3.1280052427
 30
0.0
 10
7.7501491913
 20
3.1367839619
 30
0.0
 10
7.7606606046
 20
3.146643381
 30
0.0
 10
7.7738954562
 20
3.1560675385
 30
0.0
 10
7.7897296493
 20
3.1649918121
 30
0.0
 10
7.8080245995
 20
3.1733518408
 30
0.0
 10
7.8286203837
 20
3.1810561742
 30
0.0
 10
7.8513203078
 20
3.1880415054
 30
0.0
 10
7.8759075002
 20
3.1942447486
 30
0.0
 10
7.9021526346
 20
3.199594757
 30
0.0
 10
7.9396467366
 20
3.2056296678
 30
0.0
 10
7.9887819959
 20
3.2106238989
 30
0.0
 10
8.0287765608
 20
3.2119554073
 30
0.0
 10
8.0490992368
 20
3.2119554073
 30
0.0
 11
7.7366046311
 21
3.1050741125
 31
0.0
 11
7.7369798499
 21
3.1103186004
 31
0.0
 11
7.7381055062
 21
3.1155504035
 31
0.0
 11
7.7399815987
 21
3.120756837
 31
0.0
 11
7.7426058636
 21
3.1259253271
 31
0.0
 11
7.750060924
 21
3.1360996
 31
0.0
 11
7.7603881531
 21
3.14597579
 31
0.0
 11
7.7735004595
 21
3.1554570445
 31
0.0
 11
7.7892685647
 21
3.1644532118
 31
0.0
 11
7.8075336873
 21
3.1728788266
 31
0.0
 11
7.8281320371
 21
3.1806497323
 31
0.0
 11
7.8508584465
 21
3.1876931674
 31
0.0
 11
7.8754850769
 21
3.1939426135
 31
0.0
 11
7.9017813477
 21
3.1993338345
 31
0.0
 11
7.9294991751
 21
3.2038180628
 31
0.0
 11
7.9881658548
 21
3.2099003161
 31
0.0
 11
8.0490992368
 21
3.2119554073
 31
0.0
  0
LINE
  5
491
100
AcDbEntity
  8
0
100
AcDbLine
 62
7
  6
CONTINUOUS
 10
4.3037184082
 20
7.6974739614
 11
4.296462408
 21
7.6974715529
  0
LINE
  5
492
100
AcDbEntity
  8
0
100
AcDbLine
 62
7
  6
CONTINUOUS
 10
4.296462408
 20
7.6974715529
 11
4.2751449799
 21
7.6974715529
  0
LINE
  5
493
100
AcDbEntity
  8
0
100
AcDbLine
 62
7
  6
CONTINUOUS
 10
4.2751449799
 20
7.6974715529
 11
4.253566357
 21
7.697443395
  0
SPLINE
  5
494
100
AcDbEntity
  8
0
100
AcDbSpline
 62
7
  6
CONTINUOUS
 70
0
 71
3
 72
13
 73
9
 74
7
 42
0.0000001
 43
0.0000001
 44
0.0000000001
 12
-0.0000826991
 22
0.0044106622
 32
0.0
 13
0.0043456826
 23
0.0007588298
 33
0.0
 40
0.0
 40
0.0
 40
0.0
 40
0.0
 40
0.098315362
 40
0.1801801113
 40
0.2881861013
 40
0.423598136
 40
0.5871062085
 40
1.0
 40
1.0
 40
1.0
 40
1.0
 10
3.7948859388
 20
7.7282357921
 30
0.0
 10
3.7948832286
 20
7.7283803374
 30
0.0
 10
3.7951123015
 20
7.7286037046
 30
0.0
 10
3.7954749418
 20
7.7287917013
 30
0.0
 10
3.7959253639
 20
7.7289703857
 30
0.0
 10
3.7964962753
 20
7.7291440478
 30
0.0
 10
3.7975124602
 20
7.7293999817
 30
0.0
 10
3.7983452264
 20
7.7295591712
 30
0.0
 10
3.7989433282
 20
7.7296636099
 30
0.0
 11
3.7948859388
 21
7.7282357921
 31
0.0
 11
3.7951325187
 21
7.7285925897
 31
0.0
 11
3.7954465068
 21
7.7287710118
 31
0.0
 11
3.7958882904
 21
7.7289494578
 31
0.0
 11
3.7964583668
 21
7.7291279343
 31
0.0
 11
3.7971572336
 21
7.7293064475
 31
0.0
 11
3.7989433282
 21
7.7296636099
 31
0.0
  0
SPLINE
  5
495
100
AcDbEntity
  8
0
100
AcDbSpline
 62
7
  6
CONTINUOUS
 70
0
 71
3
 72
13
 73
9
 74
7
 42
0.0000001
 43
0.0000001
 44
0.0000000001
 12
0.0639975349
 22
0.0111750542
 32
0.0
 13
0.0648980517
 23
0.0029680297
 33
0.0
 40
0.0
 40
0.0
 40
0.0
 40
0.0
 40
0.0608983115
 40
0.141372396
 40
0.2408462975
 40
0.3587121387
 40
0.6469780781
 40
1.0
 40
1.0
 40
1.0
 40
1.0
 10
3.7989433282
 20
7.7296636099
 30
0.0
 10
3.8002424421
 20
7.7298904572
 30
0.0
 10
3.8032767518
 20
7.7303082107
 30
0.0
 10
3.8084629683
 20
7.7308619444
 30
0.0
 10
3.8148884149
 20
7.7314202545
 30
0.0
 10
3.8258080602
 20
7.7322240686
 30
0.0
 10
3.8422200647
 20
7.7331903208
 30
0.0
 10
3.8560908999
 20
7.7338673097
 30
0.0
 10
3.8637277115
 20
7.7342165695
 30
0.0
 11
3.7989433282
 21
7.7296636099
 31
0.0
 11
3.8028584303
 21
7.7302331592
 31
0.0
 11
3.8080553538
 21
7.7308029872
 31
0.0
 11
3.8144925933
 21
7.7313728047
 31
0.0
 11
3.8221286434
 21
7.7319423223
 31
0.0
 11
3.8408215214
 21
7.7330797637
 31
0.0
 11
3.8637277115
 21
7.7342165695
 31
0.0
  0
LINE
  5
496
100
AcDbEntity
  8
0
100
AcDbLine
 62
7
  6
CONTINUOUS
 10
3.8836441091
 20
7.7350798855
 11
3.8857955317
 21
7.7351682702
  0
LINE
  5
497
100
AcDbEntity
  8
0
100
AcDbLine
 62
7
  6
CONTINUOUS
 10
3.9214986391
 20
7.7365372133
 11
3.9334353419
 21
7.7369632177
  0
LINE
  5
498
100
AcDbEntity
  8
0
100
AcDbLine
 62
7
  6
CONTINUOUS
 10
3.9334353419
 20
7.7369632177
 11
3.9387327282
 21
7.7371483811
  0
LINE
  5
499
100
AcDbEntity
  8
0
100
AcDbLine
 62
7
  6
CONTINUOUS
 10
3.9387327282
 20
7.7371483811
 11
3.9497282225
 21
7.7375260336
  0
LINE
  5
49A
100
AcDbEntity
  8
0
100
AcDbLine
 62
7
  6
CONTINUOUS
 10
3.9497282225
 20
7.7375260336
 11
4.1504399335
 21
7.7439803086
  0
LINE
  5
49B
100
AcDbEntity
  8
0
100
AcDbLine
 62
7
  6
CONTINUOUS
 10
4.1504399335
 20
7.7439803086
 11
4.1577883282
 21
7.7442327558
  0
LINE
  5
49C
100
AcDbEntity
  8
0
100
AcDbLine
 62
7
  6
CONTINUOUS
 10
4.1577883282
 20
7.7442327558
 11
4.1640227523
 21
7.7444498161
  0
LINE
  5
49D
100
AcDbEntity
  8
0
100
AcDbLine
 62
7
  6
CONTINUOUS
 10
4.1640227523
 20
7.7444498161
 11
4.1709461545
 21
7.7446943019
  0
LINE
  5
49E
100
AcDbEntity
  8
0
100
AcDbLine
 62
7
  6
CONTINUOUS
 10
4.1709461545
 20
7.7446943019
 11
4.1753929039
 21
7.7448534177
  0
LINE
  5
49F
100
AcDbEntity
  8
0
100
AcDbLine
 62
7
  6
CONTINUOUS
 10
4.1753929039
 20
7.7448534177
 11
4.177779312
 21
7.7449395341
  0
LINE
  5
4A0
100
AcDbEntity
  8
0
100
AcDbLine
 62
7
  6
CONTINUOUS
 10
4.2325415063
 20
7.747121951
 11
4.2350808832
 21
7.7472373547
  0
SPLINE
  5
4A1
100
AcDbEntity
  8
0
100
AcDbSpline
 62
7
  6
CONTINUOUS
 70
0
 71
3
 72
15
 73
11
 74
9
 42
0.0000001
 43
0.0000001
 44
0.0000000001
 12
0.0668982626
 22
0.0030647319
 32
0.0
 13
0.0647809622
 23
0.0169763678
 33
0.0
 40
0.0
 40
0.0
 40
0.0
 40
0.0
 40
0.3743088867
 40
0.5323179484
 40
0.6697421147
 40
0.785772583
 40
0.8798161759
 40
0.9513616174
 40
0.9785623599
 40
1.0
 40
1.0
 40
1.0
 40
1.0
 10
4.2350808832
 20
7.7472373547
 30
0.0
 10
4.2434277546
 20
7.7476197401
 30
0.0
 10
4.2552965294
 20
7.7482034337
 30
0.0
 10
4.270221103
 20
7.7490864561
 30
0.0
 10
4.2793851555
 20
7.7497082357
 30
0.0
 10
4.2871181276
 20
7.750325304
 30
0.0
 10
4.2933748044
 20
7.7509381059
 30
0.0
 10
4.2976466296
 20
7.7514740519
 30
0.0
 10
4.3002912345
 20
7.7519271815
 30
0.0
 10
4.3013532019
 20
7.7521571444
 30
0.0
 10
4.3018161189
 20
7.7522784555
 30
0.0
 11
4.2350808832
 21
7.7472373547
 31
0.0
 11
4.2601159889
 21
7.7484990239
 31
0.0
 11
4.2706787851
 21
7.7491298803
 31
0.0
 11
4.279860249
 21
7.7497602807
 31
0.0
 11
4.2876050685
 21
7.7503899978
 31
0.0
 11
4.2938714986
 21
7.7510193194
 31
0.0
 11
4.2986212714
 21
7.7516486654
 31
0.0
 11
4.3004154526
 21
7.7519634787
 31
0.0
 11
4.3018161189
 21
7.7522784555
 31
0.0
  0
LINE
  5
4A2
100
AcDbEntity
  8
0
100
AcDbLine
 62
7
  6
CONTINUOUS
 10
4.3018161189
 20
7.7522784555
 11
4.3032944116
 21
7.7528205425
  0
SPLINE
  5
4A3
100
AcDbEntity
  8
0
100
AcDbSpline
 62
7
  6
CONTINUOUS
 70
0
 71
3
 72
12
 73
8
 74
6
 42
0.0000001
 43
0.0000001
 44
0.0000000001
 12
0.0000907015
 22
-0.0020106905
 32
0.0
 13
-0.0019428206
 23
-0.0005258815
 33
0.0
 40
0.0
 40
0.0
 40
0.0
 40
0.0
 40
0.1254881324
 40
0.2124007214
 40
0.3209653866
 40
0.6098498494
 40
1.0
 40
1.0
 40
1.0
 40
1.0
 10
4.3036319913
 20
7.7407399286
 30
0.0
 10
4.3036357853
 20
7.7406558226
 30
0.0
 10
4.3035588414
 20
7.7405151344
 30
0.0
 10
4.3033944415
 20
7.7403789903
 30
0.0
 10
4.3031158475
 20
7.740207939
 30
0.0
 10
4.3026242975
 20
7.7400092697
 30
0.0
 10
4.302187789
 20
7.7398779804
 30
0.0
 10
4.3019351251
 20
7.7398095895
 30
0.0
 11
4.3036319913
 21
7.7407399286
 31
0.0
 11
4.3035337502
 21
7.7405072432
 31
0.0
 11
4.3034030983
 21
7.740390919
 31
0.0
 11
4.3032181122
 21
7.7402746107
 31
0.0
 11
4.3026851973
 21
7.7400420525
 31
0.0
 11
4.3019351251
 21
7.7398095895
 31
0.0
  0
SPLINE
  5
4A4
100
AcDbEntity
  8
0
100
AcDbSpline
 62
7
  6
CONTINUOUS
 70
0
 71
3
 72
15
 73
11
 74
9
 42
0.0000001
 43
0.0000001
 44
0.0000000001
 12
-0.0630808589
 22
-0.0170746903
 32
0.0
 13
-0.0652809205
 23
-0.0030234463
 33
0.0
 40
0.0
 40
0.0
 40
0.0
 40
0.0
 40
0.0211669947
 40
0.0481286926
 40
0.1192965943
 40
0.2130965833
 40
0.3290119633
 40
0.4664521504
 40
0.6246449407
 40
1.0
 40
1.0
 40
1.0
 40
1.0
 10
4.3019351251
 20
7.7398095895
 30
0.0
 10
4.3014900477
 20
7.7396891162
 30
0.0
 10
4.3004658055
 20
7.7394611502
 30
0.0
 10
4.297905887
 20
7.7390120167
 30
0.0
 10
4.2937569767
 20
7.7384814356
 30
0.0
 10
4.2876684075
 20
7.7378747457
 30
0.0
 10
4.2801303845
 20
7.7372638012
 30
0.0
 10
4.271186441
 20
7.7366480539
 30
0.0
 10
4.2565959426
 20
7.7357731022
 30
0.0
 10
4.2449873985
 20
7.7351955292
 30
0.0
 10
4.2368195572
 20
7.7348172406
 30
0.0
 11
4.3019351251
 21
7.7398095895
 31
0.0
 11
4.3005874756
 21
7.7394976435
 31
0.0
 11
4.2988533097
 21
7.7391858571
 31
0.0
 11
4.2942443787
 21
7.7385625611
 31
0.0
 11
4.2881462328
 21
7.7379392985
 31
0.0
 11
4.2805967728
 21
7.737315666
 31
0.0
 11
4.2716366549
 21
7.736691384
 31
0.0
 11
4.261317507
 21
7.7360666635
 31
0.0
 11
4.2368195572
 21
7.7348172406
 31
0.0
  0
LINE
  5
4A5
100
AcDbEntity
  8
0
100
AcDbLine
 62
7
  6
CONTINUOUS
 10
4.2368195572
 20
7.7348172406
 11
4.2331877754
 21
7.7346510035
  0
LINE
  5
4A6
100
AcDbEntity
  8
0
100
AcDbLine
 62
7
  6
CONTINUOUS
 10
4.1755753495
 20
7.7323600834
 11
4.1646358788
 21
7.7319713462
  0
LINE
  5
4A7
100
AcDbEntity
  8
0
100
AcDbLine
 62
7
  6
CONTINUOUS
 10
4.1646358788
 20
7.7319713462
 11
4.1583444747
 21
7.7317520016
  0
LINE
  5
4A8
100
AcDbEntity
  8
0
100
AcDbLine
 62
7
  6
CONTINUOUS
 10
4.1583444747
 20
7.7317520016
 11
4.150941509
 21
7.7314973898
  0
LINE
  5
4A9
100
AcDbEntity
  8
0
100
AcDbLine
 62
7
  6
CONTINUOUS
 10
4.150941509
 20
7.7314973898
 11
3.9489092218
 21
7.7249980237
  0
LINE
  5
4AA
100
AcDbEntity
  8
0
100
AcDbLine
 62
7
  6
CONTINUOUS
 10
3.9489092218
 20
7.7249980237
 11
3.9437947341
 21
7.7248230884
  0
LINE
  5
4AB
100
AcDbEntity
  8
0
100
AcDbLine
 62
7
  6
CONTINUOUS
 10
3.9437947341
 20
7.7248230884
 11
3.9396858206
 21
7.7246812119
  0
LINE
  5
4AC
100
AcDbEntity
  8
0
100
AcDbLine
 62
7
  6
CONTINUOUS
 10
3.9396858206
 20
7.7246812119
 11
3.9336146092
 21
7.7244692391
  0
LINE
  5
4AD
100
AcDbEntity
  8
0
100
AcDbLine
 62
7
  6
CONTINUOUS
 10
3.9336146092
 20
7.7244692391
 11
3.921254729
 21
7.7240281255
  0
LINE
  5
4AE
100
AcDbEntity
  8
0
100
AcDbLine
 62
7
  6
CONTINUOUS
 10
3.8999037342
 20
7.7232293088
 11
3.8899273197
 21
7.7228359881
  0
LINE
  5
4AF
100
AcDbEntity
  8
0
100
AcDbLine
 62
7
  6
CONTINUOUS
 10
3.8899273197
 20
7.7228359881
 11
3.8866183716
 21
7.7227021142
  0
LINE
  5
4B0
100
AcDbEntity
  8
0
100
AcDbLine
 62
7
  6
CONTINUOUS
 10
3.8866183716
 20
7.7227021142
 11
3.884508462
 21
7.7226157755
  0
LINE
  5
4B1
100
AcDbEntity
  8
0
100
AcDbLine
 62
7
  6
CONTINUOUS
 10
3.884508462
 20
7.7226157755
 11
3.8775245984
 21
7.7223241186
  0
SPLINE
  5
4B2
100
AcDbEntity
  8
0
100
AcDbSpline
 62
7
  6
CONTINUOUS
 70
0
 71
3
 72
14
 73
10
 74
8
 42
0.0000001
 43
0.0000001
 44
0.0000000001
 12
-0.0780629272
 22
-0.0033135809
 32
0.0
 13
-0.0771220288
 23
-0.0125296882
 33
0.0
 40
0.0
 40
0.0
 40
0.0
 40
0.0
 40
0.3519939274
 40
0.5046952815
 40
0.6406386196
 40
0.7589284587
 40
0.8587607998
 40
0.9393651838
 40
1.0
 40
1.0
 40
1.0
 40
1.0
 10
3.8775245984
 20
7.7223241186
 30
0.0
 10
3.868365373
 20
7.7219353318
 30
0.0
 10
3.8552340189
 20
7.7213435732
 30
0.0
 10
3.8385719039
 20
7.7204676768
 30
0.0
 10
3.8279918067
 20
7.7198436221
 30
0.0
 10
3.818791344
 20
7.7192208075
 30
0.0
 10
3.8110353938
 20
7.7186020213
 30
0.0
 10
3.8047868336
 20
7.717988316
 30
0.0
 10
3.8011360452
 20
7.7175247418
 30
0.0
 10
3.7995772852
 20
7.7172714967
 30
0.0
 11
3.8775245984
 21
7.7223241186
 31
0.0
 11
3.8500511494
 21
7.7210620994
 31
0.0
 11
3.8381367861
 21
7.7204313284
 31
0.0
 11
3.8275338645
 21
7.7198001586
 31
0.0
 11
3.8183131221
 21
7.7191683013
 31
0.0
 11
3.8105385702
 21
7.7185359926
 31
0.0
 11
3.8042725207
 21
7.7179036015
 31
0.0
 11
3.7995772852
 21
7.7172714967
 31
0.0
  0
LINE
  5
4B3
100
AcDbEntity
  8
0
100
AcDbLine
 62
7
  6
CONTINUOUS
 10
3.7995772852
 20
7.7172714967
 11
3.7975128755
 21
7.7168872713
  0
LINE
  5
4B4
100
AcDbEntity
  8
0
100
AcDbLine
 62
7
  6
CONTINUOUS
 10
3.7972323931
 20
7.7168244559
 11
3.7952697689
 21
7.716177565
  0
SPLINE
  5
4B5
100
AcDbEntity
  8
0
100
AcDbSpline
 62
7
  6
CONTINUOUS
 70
0
 71
3
 72
9
 73
5
 74
3
 42
0.0000001
 43
0.0000001
 44
0.0000000001
 12
-0.0043058093
 22
-0.0024474124
 32
0.0
 13
-0.0047130771
 23
-0.0015220796
 33
0.0
 40
0.0
 40
0.0
 40
0.0
 40
0.0
 40
0.440000658
 40
1.0
 40
1.0
 40
1.0
 40
1.0
 10
4.3160715694
 20
7.7102308793
 30
0.0
 10
4.3154400497
 20
7.7098719249
 30
0.0
 10
4.3139337829
 20
7.7091832178
 30
0.0
 10
4.312376059
 20
7.7086338975
 30
0.0
 10
4.3114962857
 20
7.7083497763
 30
0.0
 11
4.3160715694
 21
7.7102308793
 31
0.0
 11
4.3141045708
 21
7.7092928471
 31
0.0
 11
4.3114962857
 21
7.7083497763
 31
0.0
  0
LINE
  5
4B6
100
AcDbEntity
  8
0
100
AcDbLine
 62
7
  6
CONTINUOUS
 10
4.3114962857
 20
7.7083497763
 11
4.3050695701
 21
7.7066099345
  0
SPLINE
  5
4B7
100
AcDbEntity
  8
0
100
AcDbSpline
 62
7
  6
CONTINUOUS
 70
0
 71
3
 72
9
 73
5
 74
3
 42
0.0000001
 43
0.0000001
 44
0.0000000001
 12
-0.0191469296
 22
-0.0043109189
 32
0.0
 13
-0.0194146903
 23
-0.0028738009
 33
0.0
 40
0.0
 40
0.0
 40
0.0
 40
0.0
 40
0.4505565651
 40
1.0
 40
1.0
 40
1.0
 40
1.0
 10
4.3040493317
 20
7.7063760955
 30
0.0
 10
4.3011737401
 20
7.7057286579
 30
0.0
 10
4.2947491911
 20
7.7044805268
 30
0.0
 10
4.2882880666
 20
7.7034502676
 30
0.0
 10
4.2847323086
 20
7.7029239373
 30
0.0
 11
4.3040493317
 21
7.7063760955
 31
0.0
 11
4.2953770698
 21
7.7046481788
 31
0.0
 11
4.2847323086
 21
7.7029239373
 31
0.0
  0
SPLINE
  5
4B8
100
AcDbEntity
  8
0
100
AcDbSpline
 62
7
  6
CONTINUOUS
 70
0
 71
3
 72
9
 73
5
 74
3
 42
0.0000001
 43
0.0000001
 44
0.0000000001
 12
-0.0327377128
 22
-0.0048459011
 32
0.0
 13
-0.0328839091
 23
-0.0037268106
 33
0.0
 40
0.0
 40
0.0
 40
0.0
 40
0.0
 40
0.4620419455
 40
1.0
 40
1.0
 40
1.0
 40
1.0
 10
4.2847323086
 20
7.7029239373
 30
0.0
 10
4.2796902431
 20
7.7021776008
 30
0.0
 10
4.2687528768
 20
7.7007310926
 30
0.0
 10
4.257795916
 20
7.6994505027
 30
0.0
 10
4.2518991948
 20
7.6987822134
 30
0.0
 11
4.2847323086
 21
7.7029239373
 31
0.0
 11
4.269579016
 21
7.7008763265
 31
0.0
 11
4.2518991948
 21
7.6987822134
 31
0.0
  0
SPLINE
  5
4B9
100
AcDbEntity
  8
0
100
AcDbSpline
 62
7
  6
CONTINUOUS
 70
0
 71
3
 72
10
 73
6
 74
4
 42
0.0000001
 43
0.0000001
 44
0.0000000001
 12
-0.0999683651
 22
-0.00489718
 32
0.0
 13
-0.100033908
 23
-0.0032975222
 33
0.0
 40
0.0
 40
0.0
 40
0.0
 40
0.0
 40
0.4499268362
 40
0.7142228167
 40
1.0
 40
1.0
 40
1.0
 40
1.0
 10
4.276368807
 20
7.7639544374
 30
0.0
 10
4.2613759902
 20
7.7632199799
 30
0.0
 10
4.2375621649
 20
7.7623521287
 30
0.0
 10
4.2042180319
 20
7.7612463086
 30
0.0
 10
4.1858759608
 20
7.7606424977
 30
0.0
 10
4.1763468247
 20
7.7603283789
 30
0.0
 11
4.276368807
 21
7.7639544374
 31
0.0
 11
4.2313722849
 21
7.762157542
 31
0.0
 11
4.2049342213
 21
7.7612710951
 31
0.0
 11
4.1763468247
 21
7.7603283789
 31
0.0
  0
SPLINE
  5
4BA
100
AcDbEntity
  8
0
100
AcDbSpline
 62
7
  6
CONTINUOUS
 70
0
 71
3
 72
12
 73
8
 74
6
 42
0.0000001
 43
0.0000001
 44
0.0000000001
 12
-0.2278442953
 22
-0.0075106695
 32
0.0
 13
-0.2278477609
 23
-0.00740479
 33
0.0
 40
0.0
 40
0.0
 40
0.0
 40
0.0
 40
0.24040778
 40
0.4945721465
 40
0.62338363
 40
0.7514819358
 40
1.0
 40
1.0
 40
1.0
 40
1.0
 10
4.1763468247
 20
7.7603283789
 30
0.0
 10
4.1580883109
 20
7.7597265044
 30
0.0
 10
4.120526474
 20
7.7584866962
 30
0.0
 10
4.0731744201
 20
7.757157759
 30
0.0
 10
4.0343511337
 20
7.7561570084
 30
0.0
 10
3.9959579426
 20
7.7551214882
 30
0.0
 10
3.9673522641
 20
7.7542498116
 30
0.0
 10
3.9484775026
 20
7.7536364036
 30
0.0
 11
4.1763468247
 21
7.7603283789
 31
0.0
 11
4.121569907
 21
7.7585650063
 31
0.0
 11
4.0636519126
 21
7.7569198263
 31
0.0
 11
4.0342971085
 21
7.7561497562
 31
0.0
 11
4.0051055597
 21
7.7553566278
 31
0.0
 11
3.9484775026
 21
7.7536364036
 31
0.0
  0
LINE
  5
4BB
100
AcDbEntity
  8
0
100
AcDbLine
 62
7
  6
CONTINUOUS
 10
3.9484775026
 20
7.7536364036
 11
3.9245397767
 21
7.7528484619
  0
LINE
  5
4BC
100
AcDbEntity
  8
0
100
AcDbLine
 62
7
  6
CONTINUOUS
 10
3.9245397767
 20
7.7528484619
 11
3.9219909333
 21
7.7527639975
  0
SPLINE
  5
4BD
100
AcDbEntity
  8
0
100
AcDbSpline
 62
7
  6
CONTINUOUS
 70
0
 71
3
 72
11
 73
7
 74
5
 42
0.0000001
 43
0.0000001
 44
0.0000000001
 12
-0.1117797434
 22
-0.0037044231
 32
0.0
 13
-0.1116632211
 23
-0.0063054621
 33
0.0
 40
0.0
 40
0.0
 40
0.0
 40
0.0
 40
0.2946149351
 40
0.562686255
 40
0.7992655755
 40
1.0
 40
1.0
 40
1.0
 40
1.0
 10
3.9219909333
 20
7.7527639975
 30
0.0
 10
3.911013606
 20
7.7524002048
 30
0.0
 10
3.8900480673
 20
7.7517024493
 30
0.0
 10
3.8602677406
 20
7.7507076488
 30
0.0
 10
3.8339891137
 20
7.749721107
 30
0.0
 10
3.81770379
 20
7.7489447032
 30
0.0
 10
3.8102322392
 20
7.7485227955
 30
0.0
 11
3.9219909333
 21
7.7527639975
 31
0.0
 11
3.8890590774
 21
7.7516688246
 31
0.0
 11
3.8590951175
 21
7.750646531
 31
0.0
 11
3.8326556377
 21
7.749622749
 31
0.0
 11
3.8102322392
 21
7.7485227955
 31
0.0
  0
SPLINE
  5
4BE
100
AcDbEntity
  8
0
100
AcDbSpline
 62
7
  6
CONTINUOUS
 70
0
 71
3
 72
12
 73
8
 74
6
 42
0.0000001
 43
0.0000001
 44
0.0000000001
 12
-0.0182445812
 22
-0.0014627287
 32
0.0
 13
-0.0173102574
 23
-0.005946369
 33
0.0
 40
0.0
 40
0.0
 40
0.0
 40
0.0
 40
0.3628578745
 40
0.6510713406
 40
0.8635176975
 40
0.9412093908
 40
1.0
 40
1.0
 40
1.0
 40
1.0
 10
3.7868737884
 20
7.746947194
 30
0.0
 10
3.7846670585
 20
7.7467702732
 30
0.0
 10
3.7807084396
 20
7.746437642
 30
0.0
 10
3.7754679339
 20
7.7458997989
 30
0.0
 10
3.7719695461
 20
7.7454173162
 30
0.0
 10
3.7698840515
 20
7.7449878503
 30
0.0
 10
3.7690790514
 20
7.7447694794
 30
0.0
 10
3.7687398245
 20
7.7446529492
 30
0.0
 11
3.7868737884
 21
7.746947194
 31
0.0
 11
3.7802568896
 21
7.7463768661
 31
0.0
 11
3.7750114199
 21
7.7458175351
 31
0.0
 11
3.7711656364
 21
7.7452432081
 31
0.0
 11
3.7697745609
 21
7.7449482594
 31
0.0
 11
3.7687398245
 21
7.7446529492
 31
0.0
  0
SPLINE
  5
4BF
100
AcDbEntity
  8
0
100
AcDbSpline
 62
7
  6
CONTINUOUS
 70
0
 71
3
 72
10
 73
6
 74
4
 42
0.0000001
 43
0.0000001
 44
0.0000000001
 12
-0.000820959
 22
-0.0003461802
 32
0.0
 13
0.0
 23
-0.0008909626
 33
0.0
 40
0.0
 40
0.0
 40
0.0
 40
0.0
 40
0.3634526643
 40
0.6444189276
 40
1.0
 40
1.0
 40
1.0
 40
1.0
 10
3.7683852814
 20
7.7445187383
 30
0.0
 10
3.7682858215
 20
7.7444767982
 30
0.0
 10
3.7681103524
 20
7.7443940432
 30
0.0
 10
3.7678642397
 20
7.7442429222
 30
0.0
 10
3.7677173471
 20
7.7440771195
 30
0.0
 10
3.7677173471
 20
7.7439715163
 30
0.0
 11
3.7683852814
 21
7.7445187383
 31
0.0
 11
3.7680932582
 21
7.7443787967
 31
0.0
 11
3.7678845068
 21
7.7442406368
 31
0.0
 11
3.7677173471
 21
7.7439715163
 31
0.0
  0
SPLINE
  5
4C0
100
AcDbEntity
  8
0
100
AcDbSpline
 62
7
  6
CONTINUOUS
 70
0
 71
3
 72
11
 73
7
 74
5
 42
0.0000001
 43
0.0000001
 44
0.0000000001
 12
0.0039318796
 22
0.0022204918
 32
0.0
 13
0.0044680925
 23
0.0006530014
 33
0.0
 40
0.0
 40
0.0
 40
0.0
 40
0.0
 40
0.1501449085
 40
0.3658700117
 40
0.6489466175
 40
1.0
 40
1.0
 40
1.0
 40
1.0
 10
3.7680645656
 20
7.7506933803
 30
0.0
 10
3.7682613495
 20
7.7508045122
 30
0.0
 10
3.7687811044
 20
7.7509991387
 30
0.0
 10
3.7697256694
 20
7.7512456344
 30
0.0
 10
3.7709820469
 20
7.7514918386
 30
0.0
 10
3.7719248383
 20
7.7516406145
 30
0.0
 10
3.7724476846
 20
7.7517170272
 30
0.0
 11
3.7680645656
 21
7.7506933803
 31
0.0
 11
3.7686900938
 21
7.7509548802
 31
0.0
 11
3.7696297648
 21
7.7512116419
 31
0.0
 11
3.7708826159
 21
7.7514651845
 31
0.0
 11
3.7724476846
 21
7.7517170272
 31
0.0
  0
SPLINE
  5
4C1
100
AcDbEntity
  8
0
100
AcDbSpline
 62
7
  6
CONTINUOUS
 70
0
 71
3
 72
9
 73
5
 74
3
 42
0.0000001
 43
0.0000001
 44
0.0000000001
 12
0.013949397
 22
0.0020386722
 32
0.0
 13
0.0140550889
 23
0.0010937723
 33
0.0
 40
0.0
 40
0.0
 40
0.0
 40
0.0
 40
0.4195670902
 40
1.0
 40
1.0
 40
1.0
 40
1.0
 10
3.7724476846
 20
7.7517170272
 30
0.0
 10
3.7743985872
 20
7.7520021472
 30
0.0
 10
3.7790723484
 20
7.7525102343
 30
0.0
 10
3.7837547228
 20
7.7529043915
 30
0.0
 10
3.7864740682
 20
7.753116012
 30
0.0
 11
3.7724476846
 21
7.7517170272
 31
0.0
 11
3.7783220163
 21
7.7524084446
 31
0.0
 11
3.7864740682
 21
7.753116012
 31
0.0
  0
LINE
  5
4C2
100
AcDbEntity
  8
0
100
AcDbLine
 62
7
  6
CONTINUOUS
 10
3.7864740682
 20
7.753116012
 11
3.8092856865
 21
7.7546112819
  0
SPLINE
  5
4C3
100
AcDbEntity
  8
0
100
AcDbSpline
 62
7
  6
CONTINUOUS
 70
0
 71
3
 72
11
 73
7
 74
5
 42
0.0000001
 43
0.0000001
 44
0.0000000001
 12
0.1119663726
 22
0.0063781011
 32
0.0
 13
0.1120900252
 23
0.0036020854
 33
0.0
 40
0.0
 40
0.0
 40
0.0
 40
0.0
 40
0.1999488895
 40
0.4363087541
 40
0.7046648878
 40
1.0
 40
1.0
 40
1.0
 40
1.0
 10
3.8092856865
 20
7.7546112819
 30
0.0
 10
3.8167482038
 20
7.7550363799
 30
0.0
 10
3.8330378001
 20
7.7558678622
 30
0.0
 10
3.8593597967
 20
7.7569092478
 30
0.0
 10
3.8892510748
 20
7.7579104543
 30
0.0
 10
3.9103124552
 20
7.7585874983
 30
0.0
 10
3.9213471619
 20
7.7589421057
 30
0.0
 11
3.8092856865
 21
7.7546112819
 31
0.0
 11
3.8316801275
 21
7.7557592663
 31
0.0
 11
3.8581654728
 21
7.7568369006
 31
0.0
 11
3.8882433005
 21
7.7578702611
 31
0.0
 11
3.9213471619
 21
7.7589421057
 31
0.0
  0
LINE
  5
4C4
100
AcDbEntity
  8
0
100
AcDbLine
 62
7
  6
CONTINUOUS
 10
3.9213471619
 20
7.7589421057
 11
3.9482909971
 21
7.759804952
  0
SPLINE
  5
4C5
100
AcDbEntity
  8
0
100
AcDbSpline
 62
7
  6
CONTINUOUS
 70
0
 71
3
 72
10
 73
6
 74
4
 42
0.0000001
 43
0.0000001
 44
0.0000000001
 12
0.1454025038
 22
0.0046194299
 32
0.0
 13
0.145417625
 23
0.0041160162
 33
0.0
 40
0.0
 40
0.0
 40
0.0
 40
0.0
 40
0.4931110731
 40
0.7470128229
 40
1.0
 40
1.0
 40
1.0
 40
1.0
 10
3.9482909971
 20
7.759804952
 30
0.0
 10
3.9721908586
 20
7.7605642493
 30
0.0
 10
4.0083982185
 20
7.7616711063
 30
0.0
 10
4.0568734304
 20
7.7629460964
 30
0.0
 10
4.081444519
 20
7.7636095781
 30
0.0
 10
4.0937074505
 20
7.7639566779
 30
0.0
 11
3.9482909971
 21
7.759804952
 31
0.0
 11
4.0199944315
 21
7.7619582561
 31
0.0
 11
4.0569176492
 21
7.7629515788
 31
0.0
 11
4.0937074505
 21
7.7639566779
 31
0.0
  0
LINE
  5
4C6
100
AcDbEntity
  8
0
100
AcDbLine
 62
7
  6
CONTINUOUS
 10
12.2532212426
 20
7.6981347551
 11
12.2825072043
 21
7.6999646783
  0
SPLINE
  5
4C7
100
AcDbEntity
  8
0
100
AcDbSpline
 62
7
  6
CONTINUOUS
 70
0
 71
3
 72
12
 73
8
 74
6
 42
0.0000001
 43
0.0000001
 44
0.0000000001
 12
0.0199855041
 22
0.0015661564
 32
0.0
 13
0.0190055054
 23
0.0063768318
 33
0.0
 40
0.0
 40
0.0
 40
0.0
 40
0.0
 40
0.3627734623
 40
0.6511989056
 40
0.8638922114
 40
0.9415297467
 40
1.0
 40
1.0
 40
1.0
 40
1.0
 10
12.2825072043
 20
7.6999646783
 30
0.0
 10
12.2849239412
 20
7.7001540649
 30
0.0
 10
12.2892604696
 20
7.7005200704
 30
0.0
 10
12.2950010038
 20
7.7011274016
 30
0.0
 10
12.2988345733
 20
7.7016575586
 30
0.0
 10
12.3011209405
 20
7.7021117337
 30
0.0
 10
12.302002418
 20
7.7023421226
 30
0.0
 10
12.3023728369
 20
7.7024664076
 30
0.0
 11
12.2825072043
 21
7.6999646783
 31
0.0
 11
12.2897526786
 21
7.7005903468
 31
0.0
 11
12.2955007286
 21
7.7012160039
 31
0.0
 11
12.2997184247
 21
7.7018414305
 31
0.0
 11
12.3012430994
 21
7.702153989
 31
0.0
 11
12.3023728369
 21
7.7024664076
 31
0.0
  0
LINE
  5
4C8
100
AcDbEntity
  8
0
100
AcDbLine
 62
7
  6
CONTINUOUS
 10
12.3023728369
 20
7.7024664076
 11
12.3030856862
 21
7.7027676613
  0
LINE
  5
4C9
100
AcDbEntity
  8
0
100
AcDbLine
 62
7
  6
CONTINUOUS
 10
12.303600298
 20
7.6974739614
 11
12.2963442978
 21
7.6974715529
  0
LINE
  5
4CA
100
AcDbEntity
  8
0
100
AcDbLine
 62
7
  6
CONTINUOUS
 10
12.2963442978
 20
7.6974715529
 11
12.2750268696
 21
7.6974715529
  0
LINE
  5
4CB
100
AcDbEntity
  8
0
100
AcDbLine
 62
7
  6
CONTINUOUS
 10
12.2750268696
 20
7.6974715529
 11
12.2534482468
 21
7.697443395
  0
SPLINE
  5
4CC
100
AcDbEntity
  8
0
100
AcDbSpline
 62
7
  6
CONTINUOUS
 70
0
 71
3
 72
13
 73
9
 74
7
 42
0.0000001
 43
0.0000001
 44
0.0000000001
 12
-0.0000826991
 22
0.0044106622
 32
0.0
 13
0.0043456826
 23
0.0007588298
 33
0.0
 40
0.0
 40
0.0
 40
0.0
 40
0.0
 40
0.098315362
 40
0.1801801113
 40
0.2881861013
 40
0.423598136
 40
0.5871062085
 40
1.0
 40
1.0
 40
1.0
 40
1.0
 10
11.7947678286
 20
7.7282357921
 30
0.0
 10
11.7947651184
 20
7.7283803374
 30
0.0
 10
11.7949941913
 20
7.7286037046
 30
0.0
 10
11.7953568316
 20
7.7287917013
 30
0.0
 10
11.7958072537
 20
7.7289703857
 30
0.0
 10
11.796378165
 20
7.7291440478
 30
0.0
 10
11.79739435
 20
7.7293999817
 30
0.0
 10
11.7982271162
 20
7.7295591712
 30
0.0
 10
11.798825218
 20
7.7296636099
 30
0.0
 11
11.7947678286
 21
7.7282357921
 31
0.0
 11
11.7950144084
 21
7.7285925897
 31
0.0
 11
11.7953283966
 21
7.7287710118
 31
0.0
 11
11.7957701801
 21
7.7289494578
 31
0.0
 11
11.7963402566
 21
7.7291279343
 31
0.0
 11
11.7970391234
 21
7.7293064475
 31
0.0
 11
11.798825218
 21
7.7296636099
 31
0.0
  0
SPLINE
  5
4CD
100
AcDbEntity
  8
0
100
AcDbSpline
 62
7
  6
CONTINUOUS
 70
0
 71
3
 72
13
 73
9
 74
7
 42
0.0000001
 43
0.0000001
 44
0.0000000001
 12
0.0639975349
 22
0.0111750542
 32
0.0
 13
0.0648980517
 23
0.0029680297
 33
0.0
 40
0.0
 40
0.0
 40
0.0
 40
0.0
 40
0.0608983115
 40
0.141372396
 40
0.2408462975
 40
0.3587121387
 40
0.6469780781
 40
1.0
 40
1.0
 40
1.0
 40
1.0
 10
11.798825218
 20
7.7296636099
 30
0.0
 10
11.8001243319
 20
7.7298904572
 30
0.0
 10
11.8031586416
 20
7.7303082107
 30
0.0
 10
11.8083448581
 20
7.7308619444
 30
0.0
 10
11.8147703047
 20
7.7314202545
 30
0.0
 10
11.8256899499
 20
7.7322240686
 30
0.0
 10
11.8421019545
 20
7.7331903208
 30
0.0
 10
11.8559727896
 20
7.7338673097
 30
0.0
 10
11.8636096013
 20
7.7342165695
 30
0.0
 11
11.798825218
 21
7.7296636099
 31
0.0
 11
11.80274032
 21
7.7302331592
 31
0.0
 11
11.8079372435
 21
7.7308029872
 31
0.0
 11
11.814374483
 21
7.7313728047
 31
0.0
 11
11.8220105332
 21
7.7319423223
 31
0.0
 11
11.8407034112
 21
7.7330797637
 31
0.0
 11
11.8636096013
 21
7.7342165695
 31
0.0
  0
LINE
  5
4CE
100
AcDbEntity
  8
0
100
AcDbLine
 62
7
  6
CONTINUOUS
 10
11.8835259988
 20
7.7350798855
 11
11.8856774215
 21
7.7351682702
  0
LINE
  5
4CF
100
AcDbEntity
  8
0
100
AcDbLine
 62
7
  6
CONTINUOUS
 10
11.9207733024
 20
7.7365151898
 11
11.9333172317
 21
7.7369632177
  0
LINE
  5
4D0
100
AcDbEntity
  8
0
100
AcDbLine
 62
7
  6
CONTINUOUS
 10
11.9333172317
 20
7.7369632177
 11
11.938614618
 21
7.7371483811
  0
LINE
  5
4D1
100
AcDbEntity
  8
0
100
AcDbLine
 62
7
  6
CONTINUOUS
 10
11.938614618
 20
7.7371483811
 11
11.9480820605
 21
7.737474049
  0
LINE
  5
4D2
100
AcDbEntity
  8
0
100
AcDbLine
 62
7
  6
CONTINUOUS
 10
11.9480820605
 20
7.737474049
 11
12.1502238378
 21
7.7439769656
  0
LINE
  5
4D3
100
AcDbEntity
  8
0
100
AcDbLine
 62
7
  6
CONTINUOUS
 10
12.1502238378
 20
7.7439769656
 11
12.157670218
 21
7.7442327558
  0
LINE
  5
4D4
100
AcDbEntity
  8
0
100
AcDbLine
 62
7
  6
CONTINUOUS
 10
12.157670218
 20
7.7442327558
 11
12.163904642
 21
7.7444498161
  0
LINE
  5
4D5
100
AcDbEntity
  8
0
100
AcDbLine
 62
7
  6
CONTINUOUS
 10
12.163904642
 20
7.7444498161
 11
12.1708280443
 21
7.7446943019
  0
LINE
  5
4D6
100
AcDbEntity
  8
0
100
AcDbLine
 62
7
  6
CONTINUOUS
 10
12.1708280443
 20
7.7446943019
 11
12.176680665
 21
7.744904087
  0
LINE
  5
4D7
100
AcDbEntity
  8
0
100
AcDbLine
 62
7
  6
CONTINUOUS
 10
12.2324233961
 20
7.747121951
 11
12.2349627729
 21
7.7472373547
  0
SPLINE
  5
4D8
100
AcDbEntity
  8
0
100
AcDbSpline
 62
7
  6
CONTINUOUS
 70
0
 71
3
 72
15
 73
11
 74
9
 42
0.0000001
 43
0.0000001
 44
0.0000000001
 12
0.0668982626
 22
0.0030647319
 32
0.0
 13
0.0647809622
 23
0.0169763678
 33
0.0
 40
0.0
 40
0.0
 40
0.0
 40
0.0
 40
0.3743088867
 40
0.5323179484
 40
0.6697421147
 40
0.785772583
 40
0.8798161759
 40
0.9513616174
 40
0.9785623599
 40
1.0
 40
1.0
 40
1.0
 40
1.0
 10
12.2349627729
 20
7.7472373547
 30
0.0
 10
12.2433096443
 20
7.7476197401
 30
0.0
 10
12.2551784192
 20
7.7482034337
 30
0.0
 10
12.2701029928
 20
7.7490864561
 30
0.0
 10
12.2792670453
 20
7.7497082357
 30
0.0
 10
12.2870000174
 20
7.750325304
 30
0.0
 10
12.2932566941
 20
7.7509381059
 30
0.0
 10
12.2975285193
 20
7.7514740519
 30
0.0
 10
12.3001731243
 20
7.7519271815
 30
0.0
 10
12.3012350917
 20
7.7521571444
 30
0.0
 10
12.3016980087
 20
7.7522784555
 30
0.0
 11
12.2349627729
 21
7.7472373547
 31
0.0
 11
12.2599978787
 21
7.7484990239
 31
0.0
 11
12.2705606749
 21
7.7491298803
 31
0.0
 11
12.2797421388
 21
7.7497602807
 31
0.0
 11
12.2874869583
 21
7.7503899978
 31
0.0
 11
12.2937533884
 21
7.7510193194
 31
0.0
 11
12.2985031612
 21
7.7516486654
 31
0.0
 11
12.3002973423
 21
7.7519634787
 31
0.0
 11
12.3016980087
 21
7.7522784555
 31
0.0
  0
LINE
  5
4D9
100
AcDbEntity
  8
0
100
AcDbLine
 62
7
  6
CONTINUOUS
 10
12.3016980087
 20
7.7522784555
 11
12.3031763014
 21
7.7528205425
  0
SPLINE
  5
4DA
100
AcDbEntity
  8
0
100
AcDbSpline
 62
7
  6
CONTINUOUS
 70
0
 71
3
 72
12
 73
8
 74
6
 42
0.0000001
 43
0.0000001
 44
0.0000000001
 12
0.0000907015
 22
-0.0020106905
 32
0.0
 13
-0.0019428206
 23
-0.0005258815
 33
0.0
 40
0.0
 40
0.0
 40
0.0
 40
0.0
 40
0.1254881324
 40
0.2124007214
 40
0.3209653866
 40
0.6098498494
 40
1.0
 40
1.0
 40
1.0
 40
1.0
 10
12.3035138811
 20
7.7407399286
 30
0.0
 10
12.303517675
 20
7.7406558226
 30
0.0
 10
12.3034407312
 20
7.7405151344
 30
0.0
 10
12.3032763313
 20
7.7403789903
 30
0.0
 10
12.3029977372
 20
7.740207939
 30
0.0
 10
12.3025061873
 20
7.7400092697
 30
0.0
 10
12.3020696788
 20
7.7398779804
 30
0.0
 10
12.3018170149
 20
7.7398095895
 30
0.0
 11
12.3035138811
 21
7.7407399286
 31
0.0
 11
12.3034156399
 21
7.7405072432
 31
0.0
 11
12.3032849881
 21
7.740390919
 31
0.0
 11
12.303100002
 21
7.7402746107
 31
0.0
 11
12.3025670871
 21
7.7400420525
 31
0.0
 11
12.3018170149
 21
7.7398095895
 31
0.0
  0
SPLINE
  5
4DB
100
AcDbEntity
  8
0
100
AcDbSpline
 62
7
  6
CONTINUOUS
 70
0
 71
3
 72
15
 73
11
 74
9
 42
0.0000001
 43
0.0000001
 44
0.0000000001
 12
-0.0630808589
 22
-0.0170746903
 32
0.0
 13
-0.0652809205
 23
-0.0030234463
 33
0.0
 40
0.0
 40
0.0
 40
0.0
 40
0.0
 40
0.0211669947
 40
0.0481286926
 40
0.1192965943
 40
0.2130965833
 40
0.3290119633
 40
0.4664521504
 40
0.6246449407
 40
1.0
 40
1.0
 40
1.0
 40
1.0
 10
12.3018170149
 20
7.7398095895
 30
0.0
 10
12.3013719375
 20
7.7396891162
 30
0.0
 10
12.3003476953
 20
7.7394611502
 30
0.0
 10
12.2977877768
 20
7.7390120167
 30
0.0
 10
12.2936388665
 20
7.7384814356
 30
0.0
 10
12.2875502973
 20
7.7378747457
 30
0.0
 10
12.2800122743
 20
7.7372638012
 30
0.0
 10
12.2710683308
 20
7.7366480539
 30
0.0
 10
12.2564778323
 20
7.7357731022
 30
0.0
 10
12.2448692883
 20
7.7351955292
 30
0.0
 10
12.236701447
 20
7.7348172406
 30
0.0
 11
12.3018170149
 21
7.7398095895
 31
0.0
 11
12.3004693654
 21
7.7394976435
 31
0.0
 11
12.2987351994
 21
7.7391858571
 31
0.0
 11
12.2941262684
 21
7.7385625611
 31
0.0
 11
12.2880281226
 21
7.7379392985
 31
0.0
 11
12.2804786626
 21
7.737315666
 31
0.0
 11
12.2715185446
 21
7.736691384
 31
0.0
 11
12.2611993967
 21
7.7360666635
 31
0.0
 11
12.236701447
 21
7.7348172406
 31
0.0
  0
LINE
  5
4DC
100
AcDbEntity
  8
0
100
AcDbLine
 62
7
  6
CONTINUOUS
 10
12.236701447
 20
7.7348172406
 11
12.2330696652
 21
7.7346510035
  0
LINE
  5
4DD
100
AcDbEntity
  8
0
100
AcDbLine
 62
7
  6
CONTINUOUS
 10
12.1768862294
 20
7.7324116197
 11
12.1746876513
 21
7.7323324047
  0
LINE
  5
4DE
100
AcDbEntity
  8
0
100
AcDbLine
 62
7
  6
CONTINUOUS
 10
12.1746876513
 20
7.7323324047
 11
12.1645177686
 21
7.7319713462
  0
LINE
  5
4DF
100
AcDbEntity
  8
0
100
AcDbLine
 62
7
  6
CONTINUOUS
 10
12.1645177686
 20
7.7319713462
 11
12.1582263645
 21
7.7317520016
  0
LINE
  5
4E0
100
AcDbEntity
  8
0
100
AcDbLine
 62
7
  6
CONTINUOUS
 10
12.1582263645
 20
7.7317520016
 11
12.150723996
 21
7.7314939949
  0
LINE
  5
4E1
100
AcDbEntity
  8
0
100
AcDbLine
 62
7
  6
CONTINUOUS
 10
12.150723996
 20
7.7314939949
 11
11.9477351982
 21
7.724962052
  0
LINE
  5
4E2
100
AcDbEntity
  8
0
100
AcDbLine
 62
7
  6
CONTINUOUS
 10
11.9477351982
 20
7.724962052
 11
11.9436766239
 21
7.7248230884
  0
LINE
  5
4E3
100
AcDbEntity
  8
0
100
AcDbLine
 62
7
  6
CONTINUOUS
 10
11.9436766239
 20
7.7248230884
 11
11.9395677104
 21
7.7246812119
  0
LINE
  5
4E4
100
AcDbEntity
  8
0
100
AcDbLine
 62
7
  6
CONTINUOUS
 10
11.9395677104
 20
7.7246812119
 11
11.9334964989
 21
7.7244692391
  0
LINE
  5
4E5
100
AcDbEntity
  8
0
100
AcDbLine
 62
7
  6
CONTINUOUS
 10
11.9334964989
 20
7.7244692391
 11
11.921092201
 21
7.724026515
  0
LINE
  5
4E6
100
AcDbEntity
  8
0
100
AcDbLine
 62
7
  6
CONTINUOUS
 10
11.899785624
 20
7.7232293088
 11
11.8898092095
 21
7.7228359881
  0
LINE
  5
4E7
100
AcDbEntity
  8
0
100
AcDbLine
 62
7
  6
CONTINUOUS
 10
11.8898092095
 20
7.7228359881
 11
11.8865002614
 21
7.7227021142
  0
LINE
  5
4E8
100
AcDbEntity
  8
0
100
AcDbLine
 62
7
  6
CONTINUOUS
 10
11.8865002614
 20
7.7227021142
 11
11.8843903518
 21
7.7226157755
  0
LINE
  5
4E9
100
AcDbEntity
  8
0
100
AcDbLine
 62
7
  6
CONTINUOUS
 10
11.8843903518
 20
7.7226157755
 11
11.8774064882
 21
7.7223241186
  0
SPLINE
  5
4EA
100
AcDbEntity
  8
0
100
AcDbSpline
 62
7
  6
CONTINUOUS
 70
0
 71
3
 72
14
 73
10
 74
8
 42
0.0000001
 43
0.0000001
 44
0.0000000001
 12
-0.0780629272
 22
-0.0033135809
 32
0.0
 13
-0.0771220288
 23
-0.0125296882
 33
0.0
 40
0.0
 40
0.0
 40
0.0
 40
0.0
 40
0.3519939274
 40
0.5046952815
 40
0.6406386196
 40
0.7589284587
 40
0.8587607998
 40
0.9393651838
 40
1.0
 40
1.0
 40
1.0
 40
1.0
 10
11.8774064882
 20
7.7223241186
 30
0.0
 10
11.8682472628
 20
7.7219353318
 30
0.0
 10
11.8551159086
 20
7.7213435732
 30
0.0
 10
11.8384537937
 20
7.7204676768
 30
0.0
 10
11.8278736964
 20
7.7198436221
 30
0.0
 10
11.8186732337
 20
7.7192208075
 30
0.0
 10
11.8109172835
 20
7.7186020213
 30
0.0
 10
11.8046687234
 20
7.717988316
 30
0.0
 10
11.801017935
 20
7.7175247418
 30
0.0
 10
11.7994591749
 20
7.7172714967
 30
0.0
 11
11.8774064882
 21
7.7223241186
 31
0.0
 11
11.8499330392
 21
7.7210620994
 31
0.0
 11
11.8380186758
 21
7.7204313284
 31
0.0
 11
11.8274157543
 21
7.7198001586
 31
0.0
 11
11.8181950119
 21
7.7191683013
 31
0.0
 11
11.81042046
 21
7.7185359926
 31
0.0
 11
11.8041544104
 21
7.7179036015
 31
0.0
 11
11.7994591749
 21
7.7172714967
 31
0.0
  0
LINE
  5
4EB
100
AcDbEntity
  8
0
100
AcDbLine
 62
7
  6
CONTINUOUS
 10
11.7994591749
 20
7.7172714967
 11
11.7973947653
 21
7.7168872713
  0
LINE
  5
4EC
100
AcDbEntity
  8
0
100
AcDbLine
 62
7
  6
CONTINUOUS
 10
11.7971142829
 20
7.7168244559
 11
11.7951516587
 21
7.716177565
  0
SPLINE
  5
4ED
100
AcDbEntity
  8
0
100
AcDbSpline
 62
7
  6
CONTINUOUS
 70
0
 71
3
 72
9
 73
5
 74
3
 42
0.0000001
 43
0.0000001
 44
0.0000000001
 12
-0.0043058093
 22
-0.0024474124
 32
0.0
 13
-0.0047130771
 23
-0.0015220796
 33
0.0
 40
0.0
 40
0.0
 40
0.0
 40
0.0
 40
0.440000658
 40
1.0
 40
1.0
 40
1.0
 40
1.0
 10
12.3159534591
 20
7.7102308793
 30
0.0
 10
12.3153219395
 20
7.7098719249
 30
0.0
 10
12.3138156727
 20
7.7091832178
 30
0.0
 10
12.3122579488
 20
7.7086338975
 30
0.0
 10
12.3113781755
 20
7.7083497763
 30
0.0
 11
12.3159534591
 21
7.7102308793
 31
0.0
 11
12.3139864606
 21
7.7092928471
 31
0.0
 11
12.3113781755
 21
7.7083497763
 31
0.0
  0
LINE
  5
4EE
100
AcDbEntity
  8
0
100
AcDbLine
 62
7
  6
CONTINUOUS
 10
12.3113781755
 20
7.7083497763
 11
12.3049514598
 21
7.7066099345
  0
SPLINE
  5
4EF
100
AcDbEntity
  8
0
100
AcDbSpline
 62
7
  6
CONTINUOUS
 70
0
 71
3
 72
9
 73
5
 74
3
 42
0.0000001
 43
0.0000001
 44
0.0000000001
 12
-0.0191469296
 22
-0.0043109189
 32
0.0
 13
-0.0194146903
 23
-0.0028738009
 33
0.0
 40
0.0
 40
0.0
 40
0.0
 40
0.0
 40
0.4505565651
 40
1.0
 40
1.0
 40
1.0
 40
1.0
 10
12.3039312215
 20
7.7063760955
 30
0.0
 10
12.3010556299
 20
7.7057286579
 30
0.0
 10
12.2946310809
 20
7.7044805268
 30
0.0
 10
12.2881699564
 20
7.7034502676
 30
0.0
 10
12.2846141983
 20
7.7029239373
 30
0.0
 11
12.3039312215
 21
7.7063760955
 31
0.0
 11
12.2952589595
 21
7.7046481788
 31
0.0
 11
12.2846141983
 21
7.7029239373
 31
0.0
  0
SPLINE
  5
4F0
100
AcDbEntity
  8
0
100
AcDbSpline
 62
7
  6
CONTINUOUS
 70
0
 71
3
 72
9
 73
5
 74
3
 42
0.0000001
 43
0.0000001
 44
0.0000000001
 12
-0.0327377128
 22
-0.0048459011
 32
0.0
 13
-0.0328839091
 23
-0.0037268106
 33
0.0
 40
0.0
 40
0.0
 40
0.0
 40
0.0
 40
0.4620419455
 40
1.0
 40
1.0
 40
1.0
 40
1.0
 10
12.2846141983
 20
7.7029239373
 30
0.0
 10
12.2795721328
 20
7.7021776008
 30
0.0
 10
12.2686347666
 20
7.7007310926
 30
0.0
 10
12.2576778058
 20
7.6994505027
 30
0.0
 10
12.2517810846
 20
7.6987822134
 30
0.0
 11
12.2846141983
 21
7.7029239373
 31
0.0
 11
12.2694609058
 21
7.7008763265
 31
0.0
 11
12.2517810846
 21
7.6987822134
 31
0.0
  0
SPLINE
  5
4F1
100
AcDbEntity
  8
0
100
AcDbSpline
 62
7
  6
CONTINUOUS
 70
0
 71
3
 72
10
 73
6
 74
4
 42
0.0000001
 43
0.0000001
 44
0.0000000001
 12
-0.1005441911
 22
-0.004920468
 32
0.0
 13
-0.1006098923
 23
-0.0033158618
 33
0.0
 40
0.0
 40
0.0
 40
0.0
 40
0.0
 40
0.4497943996
 40
0.7141408208
 40
1.0
 40
1.0
 40
1.0
 40
1.0
 10
12.2762549937
 20
7.7639546965
 30
0.0
 10
12.2611802557
 20
7.7632169635
 30
0.0
 10
12.2372320694
 20
7.7623443324
 30
0.0
 10
12.2036959188
 20
7.7612330826
 30
0.0
 10
12.1852438005
 20
7.7606255987
 30
0.0
 10
12.1756570468
 20
7.7603096422
 30
0.0
 11
12.2762549937
 21
7.7639546965
 31
0.0
 11
12.2310126734
 21
7.7621490836
 31
0.0
 11
12.2044172953
 21
7.7612578963
 31
0.0
 11
12.1756570468
 21
7.7603096422
 31
0.0
  0
SPLINE
  5
4F2
100
AcDbEntity
  8
0
100
AcDbSpline
 62
7
  6
CONTINUOUS
 70
0
 71
3
 72
12
 73
8
 74
6
 42
0.0000001
 43
0.0000001
 44
0.0000000001
 12
-0.2273680764
 22
-0.007493509
 32
0.0
 13
-0.22737139
 23
-0.0073922842
 33
0.0
 40
0.0
 40
0.0
 40
0.0
 40
0.0
 40
0.2405473255
 40
0.4947244551
 40
0.6235100975
 40
0.7515698939
 40
1.0
 40
1.0
 40
1.0
 40
1.0
 10
12.1756570468
 20
7.7603096422
 30
0.0
 10
12.1574261192
 20
7.7597087943
 30
0.0
 10
12.119931248
 20
7.7584713047
 30
0.0
 10
12.0726684973
 20
7.7571481602
 30
0.0
 10
12.0339302947
 20
7.7561488553
 30
0.0
 10
11.9956289141
 20
7.755115398
 30
0.0
 10
11.9670926268
 20
7.7542454896
 30
0.0
 10
11.9482639939
 20
7.7536333343
 30
0.0
 11
12.1756570468
 21
7.7603096422
 31
0.0
 11
12.1209628748
 21
7.7585497587
 31
0.0
 11
12.0631629815
 21
7.7569101719
 31
0.0
 11
12.033875421
 21
7.7561416349
 31
0.0
 11
12.004753659
 21
7.755350042
 31
0.0
 11
11.9482639939
 21
7.7536333343
 31
0.0
  0
LINE
  5
4F3
100
AcDbEntity
  8
0
100
AcDbLine
 62
7
  6
CONTINUOUS
 10
11.9482639939
 20
7.7536333343
 11
11.9239407669
 21
7.7528323299
  0
LINE
  5
4F4
100
AcDbEntity
  8
0
100
AcDbLine
 62
7
  6
CONTINUOUS
 10
11.9239407669
 20
7.7528323299
 11
11.9210717604
 21
7.7527372396
  0
SPLINE
  5
4F5
100
AcDbEntity
  8
0
100
AcDbSpline
 62
7
  6
CONTINUOUS
 70
0
 71
3
 72
11
 73
7
 74
5
 42
0.0000001
 43
0.0000001
 44
0.0000000001
 12
-0.1111212895
 22
-0.0036830485
 32
0.0
 13
-0.1110047908
 23
-0.0062803063
 33
0.0
 40
0.0
 40
0.0
 40
0.0
 40
0.0
 40
0.294634932
 40
0.5626862011
 40
0.7992467783
 40
1.0
 40
1.0
 40
1.0
 40
1.0
 10
11.9210717604
 20
7.7527372396
 30
0.0
 10
11.9101583559
 20
7.7523755213
 30
0.0
 10
11.8893163018
 20
7.7516823343
 30
0.0
 10
11.8597121232
 20
7.7506924505
 30
0.0
 10
11.8335891373
 20
7.7497088441
 30
0.0
 10
11.8173998339
 20
7.7489350747
 30
0.0
 10
11.8099716441
 20
7.7485148108
 30
0.0
 11
11.9210717604
 21
7.7527372396
 31
0.0
 11
11.8883316636
 21
7.7516485676
 31
0.0
 11
11.858546473
 21
7.7506312439
 31
0.0
 11
11.8322649197
 21
7.7496109373
 31
0.0
 11
11.8099716441
 21
7.7485148108
 31
0.0
  0
SPLINE
  5
4F6
100
AcDbEntity
  8
0
100
AcDbSpline
 62
7
  6
CONTINUOUS
 70
0
 71
3
 72
12
 73
8
 74
6
 42
0.0000001
 43
0.0000001
 44
0.0000000001
 12
-0.0181728254
 22
-0.0014589916
 32
0.0
 13
-0.0172470427
 23
-0.0059092941
 33
0.0
 40
0.0
 40
0.0
 40
0.0
 40
0.0
 40
0.3626030638
 40
0.6507257175
 40
0.863255983
 40
0.9410566807
 40
1.0
 40
1.0
 40
1.0
 40
1.0
 10
11.7866905306
 20
7.7469418078
 30
0.0
 10
11.7844940232
 20
7.7467654628
 30
0.0
 10
11.7805530681
 20
7.7464339101
 30
0.0
 10
11.775334747
 20
7.745897916
 30
0.0
 10
11.7718495148
 20
7.7454170411
 30
0.0
 10
11.7697701109
 20
7.7449889893
 30
0.0
 10
11.7689666867
 20
7.7447712933
 30
0.0
 10
11.7686278207
 20
7.7446551889
 30
0.0
 11
11.7866905306
 21
7.7469418078
 31
0.0
 11
11.7801042831
 21
7.7463734556
 31
0.0
 11
11.7748810868
 21
7.7458160917
 31
0.0
 11
11.771048895
 21
7.7452437046
 31
0.0
 11
11.7696613011
 21
7.7449496579
 31
0.0
 11
11.7686278207
 21
7.7446551889
 31
0.0
  0
SPLINE
  5
4F7
100
AcDbEntity
  8
0
100
AcDbSpline
 62
7
  6
CONTINUOUS
 70
0
 71
3
 72
10
 73
6
 74
4
 42
0.0000001
 43
0.0000001
 44
0.0000000001
 12
-0.000825648
 22
-0.0003471739
 32
0.0
 13
0.0
 23
-0.0008956698
 33
0.0
 40
0.0
 40
0.0
 40
0.0
 40
0.0
 40
0.3637044719
 40
0.644767927
 40
1.0
 40
1.0
 40
1.0
 40
1.0
 10
11.7682715209
 20
7.744520676
 30
0.0
 10
11.7681714236
 20
7.7444785864
 30
0.0
 10
11.767994827
 20
7.7443955356
 30
0.0
 10
11.7677472758
 20
7.7442439711
 30
0.0
 10
11.7675992368
 20
7.7440775732
 30
0.0
 10
11.7675992368
 20
7.7439715163
 30
0.0
 11
11.7682715209
 21
7.744520676
 31
0.0
 11
11.7679775963
 21
7.744380222
 31
0.0
 11
11.7677674854
 21
7.7442415626
 31
0.0
 11
11.7675992368
 21
7.7439715163
 31
0.0
  0
SPLINE
  5
4F8
100
AcDbEntity
  8
0
100
AcDbSpline
 62
7
  6
CONTINUOUS
 70
0
 71
3
 72
11
 73
7
 74
5
 42
0.0000001
 43
0.0000001
 44
0.0000000001
 12
0.0039352743
 22
0.0022224054
 32
0.0
 13
0.0044719867
 23
0.0006533033
 33
0.0
 40
0.0
 40
0.0
 40
0.0
 40
0.0
 40
0.1501175831
 40
0.3658336841
 40
0.6489195344
 40
1.0
 40
1.0
 40
1.0
 40
1.0
 10
11.7679464565
 20
7.7506933807
 30
0.0
 10
11.7681433745
 20
7.750804588
 30
0.0
 10
11.7686635451
 20
7.7509993225
 30
0.0
 10
11.7696089025
 20
7.7512459482
 30
0.0
 10
11.7708664229
 20
7.7514922829
 30
0.0
 10
11.7718100909
 20
7.751641137
 30
0.0
 10
11.7723334333
 20
7.751717591
 30
0.0
 11
11.7679464565
 21
7.7506933807
 31
0.0
 11
11.7685724243
 21
7.7509550258
 31
0.0
 11
11.7695128862
 21
7.7512119282
 31
0.0
 11
11.7707668774
 21
7.7514656095
 31
0.0
 11
11.7723334333
 21
7.751717591
 31
0.0
  0
SPLINE
  5
4F9
100
AcDbEntity
  8
0
100
AcDbSpline
 62
7
  6
CONTINUOUS
 70
0
 71
3
 72
9
 73
5
 74
3
 42
0.0000001
 43
0.0000001
 44
0.0000000001
 12
0.0139606846
 22
0.0020394875
 32
0.0
 13
0.0140663684
 23
0.0010943042
 33
0.0
 40
0.0
 40
0.0
 40
0.0
 40
0.0
 40
0.4195682582
 40
1.0
 40
1.0
 40
1.0
 40
1.0
 10
11.7723334333
 20
7.751717591
 30
0.0
 10
11.77428592
 20
7.7520028258
 30
0.0
 10
11.7789634421
 20
7.7525111264
 30
0.0
 10
11.7836495766
 20
7.7529054669
 30
0.0
 10
11.7863710989
 20
7.7531171899
 30
0.0
 11
11.7723334333
 21
7.751717591
 31
0.0
 11
11.7782125157
 21
7.7524092981
 31
0.0
 11
11.7863710989
 21
7.7531171899
 31
0.0
  0
LINE
  5
4FA
100
AcDbEntity
  8
0
100
AcDbLine
 62
7
  6
CONTINUOUS
 10
11.7863710989
 20
7.7531171899
 11
11.8092006336
 21
7.7546131653
  0
SPLINE
  5
4FB
100
AcDbEntity
  8
0
100
AcDbSpline
 62
7
  6
CONTINUOUS
 70
0
 71
3
 72
11
 73
7
 74
5
 42
0.0000001
 43
0.0000001
 44
0.0000000001
 12
0.1120459364
 22
0.0063803187
 32
0.0
 13
0.112169546
 23
0.0036046188
 33
0.0
 40
0.0
 40
0.0
 40
0.0
 40
0.0
 40
0.1999593886
 40
0.4363253039
 40
0.7046793057
 40
1.0
 40
1.0
 40
1.0
 40
1.0
 10
11.8092006336
 20
7.7546131653
 30
0.0
 10
11.816668846
 20
7.7550384336
 30
0.0
 10
11.8329706356
 20
7.755870172
 30
0.0
 10
11.8593118646
 20
7.7569118017
 30
0.0
 10
11.8892239661
 20
7.7579133901
 30
0.0
 10
11.9102996698
 20
7.7585908783
 30
0.0
 10
11.9213416659
 20
7.7589457178
 30
0.0
 11
11.8092006336
 21
7.7546131653
 31
0.0
 11
11.8316121632
 21
7.7557615451
 31
0.0
 11
11.8581169967
 21
7.7568394751
 31
0.0
 11
11.8882159344
 21
7.7578732409
 31
0.0
 11
11.9213416659
 21
7.7589457178
 31
0.0
  0
LINE
  5
4FC
100
AcDbEntity
  8
0
100
AcDbLine
 62
7
  6
CONTINUOUS
 10
11.9213416659
 20
7.7589457178
 11
11.9480759079
 21
7.759801893
  0
SPLINE
  5
4FD
100
AcDbEntity
  8
0
100
AcDbSpline
 62
7
  6
CONTINUOUS
 70
0
 71
3
 72
10
 73
6
 74
4
 42
0.0000001
 43
0.0000001
 44
0.0000000001
 12
0.1454993825
 22
0.0046231349
 32
0.0
 13
0.1455145343
 23
0.0041187348
 33
0.0
 40
0.0
 40
0.0
 40
0.0
 40
0.0
 40
0.493093857
 40
0.7470030016
 40
1.0
 40
1.0
 40
1.0
 40
1.0
 10
11.9480759079
 20
7.759801893
 30
0.0
 10
11.9719908585
 20
7.7605617729
 30
0.0
 10
12.0082218709
 20
7.7616693551
 30
0.0
 10
12.056729379
 20
7.7629455106
 30
0.0
 10
12.0813176807
 20
7.7636093294
 30
0.0
 10
12.0935892609
 20
7.7639566719
 30
0.0
 11
11.9480759079
 21
7.759801893
 31
0.0
 11
12.0198246154
 21
7.7619567661
 31
0.0
 11
12.0567735115
 21
7.7629509218
 31
0.0
 11
12.0935892609
 21
7.7639566719
 31
0.0
  0
SPLINE
  5
4FE
100
AcDbEntity
  8
0
100
AcDbSpline
 62
9
  6
CONTINUOUS
 70
0
 71
3
 72
23
 73
19
 74
17
 42
0.0000001
 43
0.0000001
 44
0.0000000001
 12
-0.3493787546
 22
-0.0
 32
0.0
 13
-0.0
 23
-0.3493787546
 33
0.0
 40
0.0
 40
0.0
 40
0.0
 40
0.0
 40
0.1745041084
 40
0.3433212566
 40
0.4236873821
 40
0.5005187061
 40
0.573239824
 40
0.6413402699
 40
0.7043533349
 40
0.7619264196
 40
0.813886941
 40
0.860200753
 40
0.9011005904
 40
0.9372024918
 40
0.9537935279
 40
0.9696334637
 40
0.9849507353
 40
1.0
 40
1.0
 40
1.0
 40
1.0
 10
8.0490992368
 20
4.7085329175
 30
0.0
 10
8.0287765608
 20
4.7085329175
 30
0.0
 10
7.9887819959
 20
4.7072014091
 30
0.0
 10
7.9396467366
 20
4.702207178
 30
0.0
 10
7.9021526346
 20
4.6961722672
 30
0.0
 10
7.8759075002
 20
4.6908222588
 30
0.0
 10
7.8513203078
 20
4.6846190157
 30
0.0
 10
7.8286203837
 20
4.6776336844
 30
0.0
 10
7.8080245995
 20
4.669929351
 30
0.0
 10
7.7897296493
 20
4.6615693223
 30
0.0
 10
7.7738954562
 20
4.6526450487
 30
0.0
 10
7.7606606046
 20
4.6432208912
 30
0.0
 10
7.7501491913
 20
4.6333614721
 30
0.0
 10
7.7435530354
 20
4.624582753
 30
0.0
 10
7.7399086158
 20
4.6174622994
 30
0.0
 10
7.738004746
 20
4.6122205371
 30
0.0
 10
7.736860085
 20
4.6069457917
 30
0.0
 10
7.7366046311
 20
4.6034042538
 30
0.0
 10
7.7366046311
 20
4.6016516227
 30
0.0
 11
8.0490992368
 21
4.7085329175
 31
0.0
 11
7.9881658548
 21
4.7064778263
 31
0.0
 11
7.9294991751
 21
4.700395573
 31
0.0
 11
7.9017813477
 21
4.6959113447
 31
0.0
 11
7.8754850769
 21
4.6905201237
 31
0.0
 11
7.8508584465
 21
4.6842706776
 31
0.0
 11
7.8281320371
 21
4.6772272425
 31
0.0
 11
7.8075336873
 21
4.6694563368
 31
0.0
 11
7.7892685647
 21
4.661030722
 31
0.0
 11
7.7735004595
 21
4.6520345547
 31
0.0
 11
7.7603881531
 21
4.6425533003
 31
0.0
 11
7.750060924
 21
4.6326771102
 31
0.0
 11
7.7426058636
 21
4.6225028373
 31
0.0
 11
7.7399815987
 21
4.6173343472
 31
0.0
 11
7.7381055062
 21
4.6121279137
 31
0.0
 11
7.7369798499
 21
4.6068961106
 31
0.0
 11
7.7366046311
 21
4.6016516227
 31
0.0
  0
SPLINE
  5
4FF
100
AcDbEntity
  8
0
100
AcDbSpline
 62
7
  6
CONTINUOUS
 70
0
 71
3
 72
11
 73
7
 74
5
 42
0.0000001
 43
0.0000001
 44
0.0000000001
 12
-0.0221549589
 22
-0.0031514645
 32
0.0
 13
-0.0223539189
 23
-0.0010374208
 33
0.0
 40
0.0
 40
0.0
 40
0.0
 40
0.0
 40
0.148133133
 40
0.3653930087
 40
0.6499690039
 40
1.0
 40
1.0
 40
1.0
 40
1.0
 10
12.3290979538
 20
7.724471553
 30
0.0
 10
12.3280039927
 20
7.7243159409
 30
0.0
 10
12.3252914261
 20
7.7240371057
 30
0.0
 10
12.3204582619
 20
7.7236565233
 30
0.0
 10
12.3141156475
 20
7.7232638655
 30
0.0
 10
12.309387933
 20
7.7230245681
 30
0.0
 10
12.3067797449
 20
7.7229035249
 30
0.0
 11
12.3290979538
 21
7.724471553
 31
0.0
 11
12.3258038636
 21
7.724100521
 31
0.0
 11
12.3209579253
 21
7.7237076593
 31
0.0
 11
12.3146024491
 21
7.7233047375
 31
0.0
 11
12.3067797449
 21
7.7229035249
 31
0.0
  0
SPLINE
  5
500
100
AcDbEntity
  8
0
100
AcDbSpline
 62
7
  6
CONTINUOUS
 70
0
 71
3
 72
10
 73
6
 74
4
 42
0.0000001
 43
0.0000001
 44
0.0000000001
 12
-0.0683581543
 22
-0.0029460365
 32
0.0
 13
-0.0684025839
 23
-0.0016133543
 33
0.0
 40
0.0
 40
0.0
 40
0.0
 40
0.0
 40
0.1988139108
 40
0.4332240369
 40
1.0
 40
1.0
 40
1.0
 40
1.0
 10
12.3034005038
 20
7.7227524932
 30
0.0
 10
12.2988703198
 20
7.7225572556
 30
0.0
 10
12.2889964611
 20
7.7221876504
 30
0.0
 10
12.2662002136
 20
7.721478868
 30
0.0
 10
12.2479328425
 20
7.7210265252
 30
0.0
 10
12.2350098624
 20
7.7207217217
 30
0.0
 11
12.3034005038
 21
7.7227524932
 31
0.0
 11
12.2898073288
 21
7.7222311913
 31
0.0
 11
12.273776622
 21
7.7217243322
 31
0.0
 11
12.2350098624
 21
7.7207217217
 31
0.0
  0
LINE
  5
501
100
AcDbEntity
  8
0
100
AcDbLine
 62
7
  6
CONTINUOUS
 10
12.2350098624
 20
7.7207217217
 11
12.2137671977
 21
7.7202349203
  0
LINE
  5
502
100
AcDbEntity
  8
0
100
AcDbLine
 62
7
  6
CONTINUOUS
 10
12.2137671977
 20
7.7202349203
 11
12.2121146214
 21
7.7201979889
  0
LINE
  5
503
100
AcDbEntity
  8
0
100
AcDbLine
 62
7
  6
CONTINUOUS
 10
12.2121146214
 20
7.7201979889
 11
12.2072296326
 21
7.7200893897
  0
LINE
  5
504
100
AcDbEntity
  8
0
100
AcDbLine
 62
7
  6
CONTINUOUS
 10
12.2072296326
 20
7.7200893897
 11
12.1968942516
 21
7.7198618783
  0
LINE
  5
505
100
AcDbEntity
  8
0
100
AcDbLine
 62
7
  6
CONTINUOUS
 10
12.1968942516
 20
7.7198618783
 11
12.1766219194
 21
7.7194229765
  0
LINE
  5
506
100
AcDbEntity
  8
0
100
AcDbLine
 62
7
  6
CONTINUOUS
 10
12.1766219194
 20
7.7194229765
 11
12.165424679
 21
7.7191860499
  0
LINE
  5
507
100
AcDbEntity
  8
0
100
AcDbLine
 62
7
  6
CONTINUOUS
 10
12.165424679
 20
7.7191860499
 11
12.1589900999
 21
7.7190521091
  0
LINE
  5
508
100
AcDbEntity
  8
0
100
AcDbLine
 62
7
  6
CONTINUOUS
 10
12.1589900999
 20
7.7190521091
 11
12.1509345042
 21
7.7188869817
  0
LINE
  5
509
100
AcDbEntity
  8
0
100
AcDbLine
 62
7
  6
CONTINUOUS
 10
12.1509345042
 20
7.7188869817
 11
11.9556558731
 21
7.7151809825
  0
LINE
  5
50A
100
AcDbEntity
  8
0
100
AcDbLine
 62
7
  6
CONTINUOUS
 10
11.9556558731
 20
7.7151809825
 11
11.9479850858
 21
7.7150298623
  0
LINE
  5
50B
100
AcDbEntity
  8
0
100
AcDbLine
 62
7
  6
CONTINUOUS
 10
11.9479850858
 20
7.7150298623
 11
11.939379577
 21
7.7148622829
  0
LINE
  5
50C
100
AcDbEntity
  8
0
100
AcDbLine
 62
7
  6
CONTINUOUS
 10
11.939379577
 20
7.7148622829
 11
11.9332245416
 21
7.7147429099
  0
LINE
  5
50D
100
AcDbEntity
  8
0
100
AcDbLine
 62
7
  6
CONTINUOUS
 10
11.9332245416
 20
7.7147429099
 11
11.9210883866
 21
7.7145062092
  0
LINE
  5
50E
100
AcDbEntity
  8
0
100
AcDbLine
 62
7
  6
CONTINUOUS
 10
11.9210883866
 20
7.7145062092
 11
11.9005411745
 21
7.7140885218
  0
LINE
  5
50F
100
AcDbEntity
  8
0
100
AcDbLine
 62
7
  6
CONTINUOUS
 10
11.9005411745
 20
7.7140885218
 11
11.8908185382
 21
7.713875928
  0
LINE
  5
510
100
AcDbEntity
  8
0
100
AcDbLine
 62
7
  6
CONTINUOUS
 10
11.8908185382
 20
7.713875928
 11
11.8873174738
 21
7.7137958582
  0
LINE
  5
511
100
AcDbEntity
  8
0
100
AcDbLine
 62
7
  6
CONTINUOUS
 10
11.8873174738
 20
7.7137958582
 11
11.8854357464
 21
7.7137519168
  0
SPLINE
  5
512
100
AcDbEntity
  8
0
100
AcDbSpline
 62
7
  6
CONTINUOUS
 70
0
 71
3
 72
11
 73
7
 74
5
 42
0.0000001
 43
0.0000001
 44
0.0000000001
 12
-0.0685420658
 22
-0.0019078947
 32
0.0
 13
-0.0684482437
 23
-0.0040611302
 33
0.0
 40
0.0
 40
0.0
 40
0.0
 40
0.0
 40
0.3229093015
 40
0.5998986955
 40
0.8267933003
 40
1.0
 40
1.0
 40
1.0
 40
1.0
 10
11.8637356576
 20
7.7131944574
 30
0.0
 10
11.856358034
 20
7.7129890984
 30
0.0
 10
11.8426527907
 20
7.7125768632
 30
0.0
 10
11.8237660742
 20
7.7119403172
 30
0.0
 10
11.8083013812
 20
7.7113581191
 30
0.0
 10
11.7991659508
 20
7.7109331976
 30
0.0
 10
11.7952140526
 20
7.7106987259
 30
0.0
 11
11.8637356576
 21
7.7131944574
 31
0.0
 11
11.8416041587
 21
7.7125309299
 31
0.0
 11
11.8226222632
 21
7.7118880524
 31
0.0
 11
11.8070760702
 21
7.7112859405
 31
0.0
 11
11.7952140526
 21
7.7106987259
 31
0.0
  0
SPLINE
  5
513
100
AcDbEntity
  8
0
100
AcDbSpline
 62
7
  6
CONTINUOUS
 70
0
 71
3
 72
14
 73
10
 74
8
 42
0.0000001
 43
0.0000001
 44
0.0000000001
 12
-0.0107498145
 22
-0.0006806698
 32
0.0
 13
-0.0094886302
 23
-0.0050978152
 33
0.0
 40
0.0
 40
0.0
 40
0.0
 40
0.0
 40
0.3913277687
 40
0.5517967961
 40
0.688673462
 40
0.8018854542
 40
0.8914033679
 40
0.9573030576
 40
1.0
 40
1.0
 40
1.0
 40
1.0
 10
11.7937818453
 20
7.7106109943
 30
0.0
 10
11.7923796116
 20
7.710522206
 30
0.0
 10
11.7904029477
 20
7.7103855307
 30
0.0
 10
11.7879396838
 20
7.7101701586
 30
0.0
 10
11.786473193
 20
7.710018799
 30
0.0
 10
11.7852635607
 20
7.7098666482
 30
0.0
 10
11.7843098909
 20
7.7097155663
 30
0.0
 10
11.7836161348
 20
7.7095641349
 30
0.0
 10
11.7832406602
 20
7.7094454532
 30
0.0
 10
11.783105615
 20
7.7093728995
 30
0.0
 11
11.7937818453
 21
7.7106109943
 31
0.0
 11
11.7895774589
 21
7.7103102979
 31
0.0
 11
11.7878557203
 21
7.7101579366
 31
0.0
 11
11.7863894195
 21
7.7100041299
 31
0.0
 11
11.7851799075
 21
7.7098488004
 31
0.0
 11
11.7842285354
 21
7.7096918705
 31
0.0
 11
11.7835366542
 21
7.7095332627
 31
0.0
 11
11.783105615
 21
7.7093728995
 31
0.0
  0
SPLINE
  5
514
100
AcDbEntity
  8
0
100
AcDbSpline
 62
9
  6
CONTINUOUS
 70
0
 71
3
 72
23
 73
19
 74
17
 42
0.0000001
 43
0.0000001
 44
0.0000000001
 12
0.3493787546
 22
0.0
 32
0.0
 13
0.0
 23
-0.3493787546
 33
0.0
 40
0.0
 40
0.0
 40
0.0
 40
0.0
 40
0.1745041084
 40
0.3433212566
 40
0.4236873821
 40
0.5005187061
 40
0.573239824
 40
0.6413402699
 40
0.7043533349
 40
0.7619264196
 40
0.813886941
 40
0.860200753
 40
0.9011005904
 40
0.9372024918
 40
0.9537935279
 40
0.9696334637
 40
0.9849507353
 40
1.0
 40
1.0
 40
1.0
 40
1.0
 10
8.0490992368
 20
3.2119554073
 30
0.0
 10
8.0694219128
 20
3.2119554073
 30
0.0
 10
8.1094164777
 20
3.2106238989
 30
0.0
 10
8.158551737
 20
3.2056296678
 30
0.0
 10
8.1960458391
 20
3.199594757
 30
0.0
 10
8.2222909734
 20
3.1942447486
 30
0.0
 10
8.2468781659
 20
3.1880415054
 30
0.0
 10
8.26957809
 20
3.1810561742
 30
0.0
 10
8.2901738741
 20
3.1733518408
 30
0.0
 10
8.3084688244
 20
3.1649918121
 30
0.0
 10
8.3243030174
 20
3.1560675385
 30
0.0
 10
8.3375378691
 20
3.146643381
 30
0.0
 10
8.3480492823
 20
3.1367839619
 30
0.0
 10
8.3546454383
 20
3.1280052427
 30
0.0
 10
8.3582898578
 20
3.1208847892
 30
0.0
 10
8.3601937277
 20
3.1156430269
 30
0.0
 10
8.3613383886
 20
3.1103682815
 30
0.0
 10
8.3615938425
 20
3.1068267436
 30
0.0
 10
8.3615938425
 20
3.1050741125
 30
0.0
 11
8.0490992368
 21
3.2119554073
 31
0.0
 11
8.1100326189
 21
3.2099003161
 31
0.0
 11
8.1686992985
 21
3.2038180628
 31
0.0
 11
8.1964171259
 21
3.1993338345
 31
0.0
 11
8.2227133967
 21
3.1939426135
 31
0.0
 11
8.2473400271
 21
3.1876931674
 31
0.0
 11
8.2700664366
 21
3.1806497323
 31
0.0
 11
8.2906647864
 21
3.1728788266
 31
0.0
 11
8.3089299089
 21
3.1644532118
 31
0.0
 11
8.3246980141
 21
3.1554570445
 31
0.0
 11
8.3378103205
 21
3.14597579
 31
0.0
 11
8.3481375496
 21
3.1360996
 31
0.0
 11
8.3555926101
 21
3.1259253271
 31
0.0
 11
8.3582168749
 21
3.120756837
 31
0.0
 11
8.3600929674
 21
3.1155504035
 31
0.0
 11
8.3612186237
 21
3.1103186004
 31
0.0
 11
8.3615938425
 21
3.1050741125
 31
0.0
  0
SPLINE
  5
515
100
AcDbEntity
  8
0
100
AcDbSpline
 62
7
  6
CONTINUOUS
 70
0
 71
3
 72
11
 73
7
 74
5
 42
0.0000001
 43
0.0000001
 44
0.0000000001
 12
0.1639686783
 22
0.0007802443
 32
0.0
 13
0.1423104454
 23
0.0814498212
 33
0.0
 40
0.0
 40
0.0
 40
0.0
 40
0.0
 40
0.2498086585
 40
0.5000449218
 40
0.7501014047
 40
1.0
 40
1.0
 40
1.0
 40
1.0
 10
8.0490992368
 20
1.2021707969
 30
0.0
 10
8.0627528353
 20
1.2022357675
 30
0.0
 10
8.0901049021
 20
1.20405769
 30
0.0
 10
8.130459149
 20
1.211897157
 30
0.0
 10
8.169440314
 20
1.2249834023
 30
0.0
 10
8.1940674916
 20
1.2370326908
 30
0.0
 10
8.2059218851
 20
1.2438174228
 30
0.0
 11
8.0490992368
 21
1.2021707969
 31
0.0
 11
8.0899690911
 21
1.2049057151
 31
0.0
 11
8.1302389265
 21
1.2127742598
 31
0.0
 11
8.1691104789
 21
1.2258187155
 31
0.0
 11
8.2059218851
 21
1.2438174228
 31
0.0
  0
LINE
  5
516
100
AcDbEntity
  8
0
100
AcDbLine
 62
7
  6
CONTINUOUS
 10
11.8700139685
 20
7.2345375563
 11
11.8726578277
 21
7.2317298476
  0
LINE
  5
517
100
AcDbEntity
  8
0
100
AcDbLine
 62
6
  6
CONTINUOUS
 10
11.8721793401
 20
7.6377737332
 11
11.8695959265
 21
7.6362031436
  0
LINE
  5
518
100
AcDbEntity
  8
0
100
AcDbLine
 62
6
  6
CONTINUOUS
 10
12.201083131
 20
7.2249983559
 11
12.1985803908
 21
7.2212980469
  0
LINE
  5
519
100
AcDbEntity
  8
0
100
AcDbLine
 62
6
  6
CONTINUOUS
 10
12.1985803908
 20
7.2212980469
 11
12.1963190584
 21
7.217971553
  0
LINE
  5
51A
100
AcDbEntity
  8
0
100
AcDbLine
 62
6
  6
CONTINUOUS
 10
12.1599202505
 20
7.2249983559
 11
12.158912589
 21
7.2214936823
  0
LINE
  5
51B
100
AcDbEntity
  8
0
100
AcDbLine
 62
6
  6
CONTINUOUS
 10
12.158912589
 20
7.2214936823
 11
12.1578947727
 21
7.217971553
  0
LINE
  5
51C
100
AcDbEntity
  8
0
100
AcDbLine
 62
6
  6
CONTINUOUS
 10
12.2190861511
 20
7.6419635726
 11
12.2224833399
 21
7.639915272
  0
LINE
  5
51D
100
AcDbEntity
  8
0
100
AcDbLine
 62
6
  6
CONTINUOUS
 10
12.2224833399
 20
7.639915272
 11
12.2259346516
 21
7.6378250125
  0
LINE
  5
51E
100
AcDbEntity
  8
0
100
AcDbLine
 62
6
  6
CONTINUOUS
 10
12.2259346516
 20
7.6378250125
 11
12.2286024792
 21
7.6362031855
  0
LINE
  5
51F
100
AcDbEntity
  8
0
100
AcDbLine
 62
7
  6
CONTINUOUS
 10
3.8701320918
 20
7.2345375426
 11
3.872775938
 21
7.2317298476
  0
LINE
  5
520
100
AcDbEntity
  8
0
100
AcDbLine
 62
6
  6
CONTINUOUS
 10
3.8722974503
 20
7.6377737332
 11
3.8697140367
 21
7.6362031436
  0
LINE
  5
521
100
AcDbEntity
  8
0
100
AcDbLine
 62
6
  6
CONTINUOUS
 10
4.2012012412
 20
7.2249983559
 11
4.198698501
 21
7.2212980469
  0
LINE
  5
522
100
AcDbEntity
  8
0
100
AcDbLine
 62
6
  6
CONTINUOUS
 10
4.198698501
 20
7.2212980469
 11
4.1964371686
 21
7.217971553
  0
LINE
  5
523
100
AcDbEntity
  8
0
100
AcDbLine
 62
6
  6
CONTINUOUS
 10
4.1600383607
 20
7.2249983559
 11
4.1590306992
 21
7.2214936823
  0
LINE
  5
524
100
AcDbEntity
  8
0
100
AcDbLine
 62
6
  6
CONTINUOUS
 10
4.1590306992
 20
7.2214936823
 11
4.158012883
 21
7.217971553
  0
LINE
  5
525
100
AcDbEntity
  8
0
100
AcDbLine
 62
6
  6
CONTINUOUS
 10
3.9363497058
 20
7.2321663865
 11
3.9354960086
 21
7.2351745743
  0
LINE
  5
526
100
AcDbEntity
  8
0
100
AcDbLine
 62
6
  6
CONTINUOUS
 10
3.9354960086
 20
7.2351745743
 11
3.9342814057
 21
7.239471553
  0
LINE
  5
527
100
AcDbEntity
  8
0
100
AcDbLine
 62
6
  6
CONTINUOUS
 10
4.2192042613
 20
7.6419635726
 11
4.222601417
 21
7.639915292
  0
LINE
  5
528
100
AcDbEntity
  8
0
100
AcDbLine
 62
6
  6
CONTINUOUS
 10
4.222601417
 20
7.639915292
 11
4.2260527619
 21
7.6378250125
  0
LINE
  5
529
100
AcDbEntity
  8
0
100
AcDbLine
 62
6
  6
CONTINUOUS
 10
4.2260527619
 20
7.6378250125
 11
4.2287205895
 21
7.6362031855
  0
LINE
  5
52A
100
AcDbEntity
  8
0
100
AcDbLine
 62
6
  6
CONTINUOUS
 10
4.2271312358
 20
7.239471553
 11
4.2316234509
 21
7.239471553
  0
LINE
  5
52B
100
AcDbEntity
  8
0
100
AcDbLine
 62
6
  6
CONTINUOUS
 10
4.2320751082
 20
7.2394692352
 11
4.232994768
 21
7.239471553
  0
LINE
  5
52C
100
AcDbEntity
  8
0
100
AcDbLine
 62
6
  6
CONTINUOUS
 10
4.2192083047
 20
7.2321663865
 11
4.2224807026
 21
7.2351765868
  0
LINE
  5
52D
100
AcDbEntity
  8
0
100
AcDbLine
 62
6
  6
CONTINUOUS
 10
4.2224807026
 20
7.2351765868
 11
4.2271312358
 21
7.239471553
  0
LINE
  5
52E
100
AcDbEntity
  8
0
100
AcDbLine
 62
6
  6
CONTINUOUS
 10
4.1845815319
 20
7.2303948981
 11
4.186462926
 21
7.2321663865
  0
LINE
  5
52F
100
AcDbEntity
  8
0
100
AcDbLine
 62
6
  6
CONTINUOUS
 10
3.8914641685
 20
7.2210066961
 11
3.8948251949
 21
7.217971553
  0
LINE
  5
530
100
AcDbEntity
  8
0
100
AcDbLine
 62
6
  6
CONTINUOUS
 10
3.8654399261
 20
7.239471553
 11
3.8663627004
 21
7.2394692524
  0
LINE
  5
531
100
AcDbEntity
  8
0
100
AcDbLine
 62
6
  6
CONTINUOUS
 10
3.8663627004
 20
7.2394692524
 11
3.8687844352
 21
7.239471553
  0
LINE
  5
532
100
AcDbEntity
  8
0
100
AcDbLine
 62
6
  6
CONTINUOUS
 10
3.8687844352
 20
7.239471553
 11
3.8713034583
 21
7.239471553
  0
LINE
  5
533
100
AcDbEntity
  8
0
100
AcDbLine
 62
6
  6
CONTINUOUS
 10
3.9077374177
 20
7.6355025546
 11
3.9042527673
 21
7.6335944206
  0
SPLINE
  5
534
100
AcDbEntity
  8
0
100
AcDbSpline
 62
9
  6
CONTINUOUS
 70
0
 71
3
 72
26
 73
22
 74
20
 42
0.0000001
 43
0.0000001
 44
0.0000000001
 12
-0.8944409833
 22
0.0033840294
 32
0.0
 13
0.5542659348
 23
0.7020152404
 33
0.0
 40
0.0
 40
0.0
 40
0.0
 40
0.0
 40
0.0625912048
 40
0.1252573899
 40
0.1878713735
 40
0.2504528894
 40
0.3130095529
 40
0.344293926
 40
0.3755695878
 40
0.4380607763
 40
0.469313207
 40
0.5005582861
 40
0.5629922563
 40
0.5942196062
 40
0.6254435562
 40
0.6878468643
 40
0.7502467533
 40
0.812654522
 40
0.8750772229
 40
0.9375239144
 40
1.0
 40
1.0
 40
1.0
 40
1.0
 10
8.0490992368
 20
1.1164980529
 30
0.0
 10
8.0304378572
 20
1.1165686564
 30
0.0
 10
7.9930532363
 20
1.1192022117
 30
0.0
 10
7.938059373
 20
1.1307278439
 30
0.0
 10
7.8852404493
 20
1.1499296557
 30
0.0
 10
7.8356448189
 20
1.176264934
 30
0.0
 10
7.797760925
 20
1.2037451078
 30
0.0
 10
7.7699902236
 20
1.2286916213
 30
0.0
 10
7.7440544753
 20
1.2555106749
 30
0.0
 10
7.7210034846
 20
1.2849860832
 30
0.0
 10
7.7012317511
 20
1.3166031707
 30
0.0
 10
7.6837389347
 20
1.3495164778
 30
0.0
 10
7.6697452804
 20
1.3841838397
 30
0.0
 10
7.6595044749
 20
1.420008031
 30
0.0
 10
7.6518115951
 20
1.4564570423
 30
0.0
 10
7.6470008607
 20
1.5028938135
 30
0.0
 10
7.6491089296
 20
1.5588505763
 30
0.0
 10
7.6589997381
 20
1.6139769851
 30
0.0
 10
7.6765355797
 20
1.6671836024
 30
0.0
 10
7.7013105643
 20
1.7174399348
 30
0.0
 10
7.7223822473
 20
1.7483269006
 30
0.0
 10
7.733925036
 20
1.762946622
 30
0.0
 11
8.0490992368
 21
1.1164980529
 31
0.0
 11
7.9932551935
 21
1.1204618242
 31
0.0
 11
7.9384065245
 21
1.1320119744
 31
0.0
 11
7.8857637966
 21
1.1511246296
 31
0.0
 11
7.8363257018
 21
1.1773767373
 31
0.0
 11
7.7910307769
 21
1.2102276135
 31
0.0
 11
7.7702160313
 21
1.228929253
 31
0.0
 11
7.7507687649
 21
1.2490382754
 31
0.0
 11
7.7163347698
 21
1.2930673564
 31
0.0
 11
7.7015145325
 21
1.3167689889
 31
0.0
 11
7.6883976323
 21
1.341446634
 31
0.0
 11
7.6674989539
 21
1.3932326029
 31
0.0
 11
7.6598225295
 21
1.4200882473
 31
0.0
 11
7.6540532335
 21
1.4474140316
 31
0.0
 11
7.6483141646
 21
1.5029346769
 31
0.0
 11
7.6504056332
 21
1.5587088943
 31
0.0
 11
7.6602721907
 21
1.6136504579
 31
0.0
 11
7.6777380616
 21
1.666682137
 31
0.0
 11
7.7024440457
 21
1.7167763148
 31
0.0
 11
7.733925036
 21
1.762946622
 31
0.0
  0
SPLINE
  5
535
100
AcDbEntity
  8
0
100
AcDbSpline
 62
9
  6
CONTINUOUS
 70
0
 71
3
 72
26
 73
22
 74
20
 42
0.0000001
 43
0.0000001
 44
0.0000000001
 12
0.5542666847
 22
-0.7020152657
 32
0.0
 13
-0.8944416915
 23
-0.0033243771
 33
0.0
 40
0.0
 40
0.0
 40
0.0
 40
0.0
 40
0.0624761068
 40
0.1249228037
 40
0.1873455008
 40
0.2497532685
 40
0.3121531601
 40
0.3745564668
 40
0.4057804189
 40
0.4370077716
 40
0.4994417455
 40
0.5306868204
 40
0.5619392397
 40
0.624430424
 40
0.6557061074
 40
0.6869905124
 40
0.7495471763
 40
0.8121285572
 40
0.8747425787
 40
0.9374089281
 40
1.0
 40
1.0
 40
1.0
 40
1.0
 10
8.3642732191
 20
1.7629469255
 30
0.0
 10
8.3758160273
 20
1.7483271986
 30
0.0
 10
8.3968877425
 20
1.7174402206
 30
0.0
 10
8.4216627794
 20
1.6671838736
 30
0.0
 10
8.4391986777
 20
1.613977242
 30
0.0
 10
8.4490895153
 20
1.5588508082
 30
0.0
 10
8.4511976283
 20
1.5028940166
 30
0.0
 10
8.4463869021
 20
1.4564572172
 30
0.0
 10
8.4386940322
 20
1.4200081826
 30
0.0
 10
8.4284532479
 20
1.3841839613
 30
0.0
 10
8.4144595834
 20
1.3495165801
 30
0.0
 10
8.39696677
 20
1.316603253
 30
0.0
 10
8.3771950326
 20
1.2849861501
 30
0.0
 10
8.3541440117
 20
1.2555107396
 30
0.0
 10
8.3282082727
 20
1.2286916295
 30
0.0
 10
8.3004375838
 20
1.2037450493
 30
0.0
 10
8.2625537123
 20
1.1762648351
 30
0.0
 10
8.2129578729
 20
1.1499299003
 30
0.0
 10
8.1601389213
 20
1.1307282358
 30
0.0
 10
8.1051454329
 20
1.1192007761
 30
0.0
 10
8.0677605916
 20
1.1165674117
 30
0.0
 10
8.0490992368
 20
1.1164980529
 30
0.0
 11
8.3642732191
 21
1.7629469255
 31
0.0
 11
8.3957542645
 21
1.7167765964
 31
0.0
 11
8.4204602997
 21
1.6666824046
 31
0.0
 11
8.4379262203
 21
1.6136507137
 31
0.0
 11
8.447792814
 21
1.5587091268
 31
0.0
 11
8.4498843187
 21
1.5029348781
 31
0.0
 11
8.4441452667
 21
1.4474142018
 31
0.0
 11
8.4383759791
 21
1.4200883984
 31
0.0
 11
8.4306995663
 21
1.3932327323
 31
0.0
 11
8.409800886
 21
1.3414467281
 31
0.0
 11
8.3966839866
 21
1.3167690697
 31
0.0
 11
8.3818637486
 21
1.2930674317
 31
0.0
 11
8.3474297361
 21
1.2490383307
 31
0.0
 11
8.3279824677
 21
1.2289292623
 31
0.0
 11
8.3071677162
 21
1.2102275639
 31
0.0
 11
8.2618727573
 21
1.1773766825
 31
0.0
 11
8.2124346107
 21
1.1511248648
 31
0.0
 11
8.1597918728
 21
1.1320120493
 31
0.0
 11
8.1049432692
 21
1.1204607282
 31
0.0
 11
8.0490992368
 21
1.1164980529
 31
0.0
  0
LINE
  5
536
100
AcDbEntity
  8
0
100
AcDbLine
 62
6
  6
CONTINUOUS
 10
12.2270131255
 20
7.239471553
 11
12.2315053406
 21
7.239471553
  0
LINE
  5
537
100
AcDbEntity
  8
0
100
AcDbLine
 62
6
  6
CONTINUOUS
 10
12.2319569979
 20
7.2394692352
 11
12.2328766577
 21
7.239471553
  0
LINE
  5
538
100
AcDbEntity
  8
0
100
AcDbLine
 62
6
  6
CONTINUOUS
 10
12.2190901945
 20
7.2321663865
 11
12.2223625924
 21
7.2351765868
  0
LINE
  5
539
100
AcDbEntity
  8
0
100
AcDbLine
 62
6
  6
CONTINUOUS
 10
12.2223625924
 20
7.2351765868
 11
12.2270131255
 21
7.239471553
  0
LINE
  5
53A
100
AcDbEntity
  8
0
100
AcDbLine
 62
6
  6
CONTINUOUS
 10
12.1844634216
 20
7.2303948981
 11
12.1863448158
 21
7.2321663865
  0
LINE
  5
53B
100
AcDbEntity
  8
0
100
AcDbLine
 62
6
  6
CONTINUOUS
 10
11.8913460582
 20
7.2210066961
 11
11.8947070847
 21
7.217971553
  0
LINE
  5
53C
100
AcDbEntity
  8
0
100
AcDbLine
 62
6
  6
CONTINUOUS
 10
11.8653218159
 20
7.239471553
 11
11.8662445902
 21
7.2394692524
  0
LINE
  5
53D
100
AcDbEntity
  8
0
100
AcDbLine
 62
6
  6
CONTINUOUS
 10
11.8662445902
 20
7.2394692524
 11
11.8686663249
 21
7.239471553
  0
LINE
  5
53E
100
AcDbEntity
  8
0
100
AcDbLine
 62
6
  6
CONTINUOUS
 10
11.8686663249
 20
7.239471553
 11
11.8711853481
 21
7.239471553
  0
LINE
  5
53F
100
AcDbEntity
  8
0
100
AcDbLine
 62
6
  6
CONTINUOUS
 10
11.9076193074
 20
7.6355025546
 11
11.9041346571
 21
7.6335944206
  0
ENDSEC
  0
SECTION
  2
OBJECTS
  0
DICTIONARY
  5
C
100
AcDbDictionary
280
0
281
1
  3
ACAD_GROUP
350
D
  3
ACAD_MLINESTYLE
350
17
  3
ACAD_LAYOUT
350
1A
  3
ACAD_PLOTSETTINGS
350
19
  3
ACAD_PLOTSTYLENAME
350
E
  0
DICTIONARY
  5
D
102
{ACAD_REACTORS
330
C
102
}
100
AcDbDictionary
280
0
281
1
  0
ACDBDICTIONARYWDFLT
  5
E
102
{ACAD_REACTORS
330
C
102
}
100
AcDbDictionary
281
1
  3
Normal
350
F
100
AcDbDictionaryWithDefault
340
F
  0
DICTIONARY
  5
17
102
{ACAD_REACTORS
330
C
102
}
100
AcDbDictionary
280
0
281
1
  3
Standard
350
18
  0
DICTIONARY
  5
19
102
{ACAD_REACTORS
330
C
102
}
100
AcDbDictionary
281
1
  0
DICTIONARY
  5
1A
102
{ACAD_REACTORS
330
C
102
}
100
AcDbDictionary
281
1
  3
Model
350
540
  3
Layout1
350
541
  0
ACDBPLACEHOLDER
  5
F
102
{ACAD_REACTORS
330
E
102
}
  0
MLINESTYLE
  5
18
102
{ACAD_REACTORS
330
17
102
}
100
AcDbMlineStyle
  2
STANDARD
 70
0
  3

 62
256
 51
90.0
 52
90.0
 71
2
 49
0.5
 62
256
  6
BYLAYER
 49
-0.5
 62
256
  6
BYLAYER
  0
LAYOUT
  5
540
102
{ACAD_REACTORS
330
1A
102
}
100
AcDbPlotSettings
  1

  2
none_device
  4
ISO_A3_(420.00_x_297.00_MM)
  6

 40
0.0
 41
0.0
 42
0.0
 43
0.0
 44
420.0
 45
297.0
 46
0.0
 47
0.0
 48
0.0
 49
0.0
140
0.0
141
0.0
142
1.0
143
1.0
 70
1024
 72
0
 73
0
 74
0
  7

 75
0
147
1.0
148
0.0
149
0.0
100
AcDbLayout
  1
Model
 70
0
 71
0
 10
0.0
 20
0.0
 11
16.5354330709
 21
11.6929133858
 12
0.0
 22
0.0
 32
0.0
 14
0.0
 24
0.0
 34
0.0
 15
0.0
 25
0.0
 35
0.0
146
0.0
 13
0.0
 23
0.0
 33
0.0
 16
1.0
 26
0.0
 36
0.0
 17
0.0
 27
1.0
 37
0.0
 76
0
330
23E
345
0
346
0
  0
LAYOUT
  5
541
102
{ACAD_REACTORS
330
1A
102
}
100
AcDbPlotSettings
  1

  2
none_device
  4
ISO_A3_(420.00_x_297.00_MM)
  6

 40
0.0
 41
0.0
 42
0.0
 43
0.0
 44
420.0
 45
297.0
 46
0.0
 47
0.0
 48
0.0
 49
0.0
140
0.0
141
0.0
142
1.0
143
1.0
 70
0
 72
0
 73
0
 74
0
  7

 75
0
147
1.0
148
0.0
149
0.0
100
AcDbLayout
  1
Layout1
 70
0
 71
1
 10
0.0
 20
0.0
 11
16.5354330709
 21
11.6929133858
 12
0.0
 22
0.0
 32
0.0
 14
0.0
 24
0.0
 34
0.0
 15
0.0
 25
0.0
 35
0.0
146
0.0
 13
0.0
 23
0.0
 33
0.0
 16
1.0
 26
0.0
 36
0.0
 17
0.0
 27
1.0
 37
0.0
 76
0
330
23F
345
0
346
0
  0
ENDSEC
  0
EOF
