  0
SECTION
  2
HEADER
  9
$ACADVER
  1
AC1021
  9
$DWGCODEPAGE
  3
ANSI_1252
  9
$EXTMAX
 10
11.6929133858
 20
8.2677165354
 30
0.0
  9
$EXTMIN
 10
0.0
 20
0.0
 30
0.0
  9
$LIMMIN
 10
0.0
 20
0.0
  9
$LIMMAX
 10
11.6929133858
 20
8.2677165354
  9
$VIEWCTR
 10
5.8464566929
 20
4.1338582677
  9
$VIEWSIZE
 40
8.2677165354
  9
$CLAYER
  8
0
  9
$LTSCALE
 40
0.6431102362
  9
$CELTYPE
  6
BYLAYER
  9
$DIMSCALE
 40
1.0
  9
$DIMASZ
 40
0.1875
  9
$DIMEXO
 40
0.0730807087
  9
$DIMDLI
 40
0.4443307087
  9
$DIMEXE
 40
0.2104724409
  9
$DIMCEN
 40
0.1052362205
  9
$DIMLFAC
 40
1.0
  9
$DIMBLK
  1
_CLOSED
  9
$DIMTXT
 40
0.15625
  9
$DIMTOL
 70
0
  9
$DIMLIM
 70
0
  9
$DIMTFAC
 40
1.0
  9
$PDMODE
 70
3
  9
$PDSIZE
 40
0.3125
  9
$HANDSEED
  5
298
  9
$TILEMODE
 70
1
  9
$MEASUREMENT
 70
0
  9
$INSUNITS
 70
1
  0
ENDSEC
  0
SECTION
  2
CLASSES
  0
CLASS
  1
ACDBDICTIONARYWDFLT
  2
AcDbDictionaryWithDefault
  3
AutoCAD 2000
 90
0
 91
1
280
0
281
0
  0
CLASS
  1
ACDBPLACEHOLDER
  2
AcDbPlaceHolder
  3
AutoCAD 2000
 90
0
 91
1
280
0
281
0
  0
CLASS
  1
LAYOUT
  2
AcDbLayout
  3
AutoCAD 2000
 90
0
 91
0
280
0
281
0
  0
ENDSEC
  0
SECTION
  2
TABLES
  0
TABLE
  2
VPORT
  5
8
100
AcDbSymbolTable
 70
2
  0
VPORT
  5
1F4
100
AcDbSymbolTableRecord
100
AcDbViewportTableRecord
  2
*ACTIVE
 70
0
 10
0.0
 20
0.0
 11
1.0
 21
1.0
 12
5.8464566929
 22
4.1338582677
 13
0.0
 23
0.0
 14
1.0
 24
1.0
 15
0.0
 25
0.0
 16
0.0
 26
0.0
 36
1.0
 17
0.0
 27
0.0
 37
0.0
 40
8.2677165354
 41
1.4142857143
 42
50.0
 43
0.0
 44
0.0
 50
0.0
 51
0.0
 71
0
 72
100
 73
1
 74
1
 75
0
 76
0
 77
0
 78
0
  0
ENDTAB
  0
TABLE
  2
LTYPE
  5
5
100
AcDbSymbolTable
 70
6
  0
LTYPE
  5
14
100
AcDbSymbolTableRecord
100
AcDbLinetypeTableRecord
  2
BYBLOCK
 70
0
  3

 72
65
 73
0
 40
0.0
  0
LTYPE
  5
15
100
AcDbSymbolTableRecord
100
AcDbLinetypeTableRecord
  2
BYLAYER
 70
0
  3

 72
65
 73
0
 40
0.0
  0
LTYPE
  5
16
100
AcDbSymbolTableRecord
100
AcDbLinetypeTableRecord
  2
CONTINUOUS
 70
64
  3
Solid line
 72
65
 73
0
 40
0.0
  0
LTYPE
  5
1F5
100
AcDbSymbolTableRecord
100
AcDbLinetypeTableRecord
  2
CENTER
 70
64
  3
____ _ ____ _ ____ _ ____ _ ____ _ ____ _ ____
 72
65
 73
4
 40
0.6
 49
0.375
 74
0
 49
-0.075
 74
0
 49
0.075
 74
0
 49
-0.075
 74
0
  0
LTYPE
  5
1F6
100
AcDbSymbolTableRecord
100
AcDbLinetypeTableRecord
  2
HIDDEN
 70
64
  3
- - - - - - - - - - - - - - - - - - - -
 72
65
 73
2
 40
0.2
 49
0.1
 74
0
 49
-0.1
 74
0
  0
LTYPE
  5
1F7
100
AcDbSymbolTableRecord
100
AcDbLinetypeTableRecord
  2
PHANTOM
 70
64
  3
_____ _ _ _____ _ _ _____ _ _ _____
 72
65
 73
6
 40
0.8
 49
0.45
 74
0
 49
-0.05
 74
0
 49
0.1
 74
0
 49
-0.05
 74
0
 49
0.1
 74
0
 49
-0.05
 74
0
  0
LTYPE
  5
1F8
100
AcDbSymbolTableRecord
100
AcDbLinetypeTableRecord
  2
DOT
 70
64
  3
. . . . . . . . . . . . . . . . . . . .
 72
65
 73
2
 40
0.2
 49
0.1
 74
0
 49
-0.1
 74
0
  0
LTYPE
  5
1F9
100
AcDbSymbolTableRecord
100
AcDbLinetypeTableRecord
  2
DASHED
 70
64
  3
- - - - - - - - - - - - - - - - - - - -
 72
65
 73
2
 40
0.2
 49
0.1
 74
0
 49
-0.1
 74
0
  0
ENDTAB
  0
TABLE
  2
LAYER
  5
2
100
AcDbSymbolTable
 70
36
  0
LAYER
  5
10
100
AcDbSymbolTableRecord
100
AcDbLayerTableRecord
  2
0
 70
0
 62
7
  6
CONTINUOUS
370
-3
390
F
  0
LAYER
  5
1FA
100
AcDbSymbolTableRecord
100
AcDbLayerTableRecord
  2
DEFAULT_1
 70
0
 62
7
  6
CENTER
370
-3
390
F
  0
LAYER
  5
1FB
100
AcDbSymbolTableRecord
100
AcDbLayerTableRecord
  2
DEFAULT_2
 70
0
 62
8
  6
HIDDEN
370
-3
390
F
  0
LAYER
  5
1FC
100
AcDbSymbolTableRecord
100
AcDbLayerTableRecord
  2
DEFAULT_3
 70
0
 62
7
  6
PHANTOM
370
-3
390
F
  0
LAYER
  5
1FD
100
AcDbSymbolTableRecord
100
AcDbLayerTableRecord
  2
DEFAULT_COORDINATE_SYSTEM
 70
0
 62
7
  6
CONTINUOUS
370
-3
390
F
  0
LAYER
  5
1FE
100
AcDbSymbolTableRecord
100
AcDbLayerTableRecord
  2
DEFAULT_DATUM_AXES
 70
0
 62
7
  6
CONTINUOUS
370
-3
390
F
  0
LAYER
  5
1FF
100
AcDbSymbolTableRecord
100
AcDbLayerTableRecord
  2
DEFAULT_DATUM_CURVES
 70
0
 62
7
  6
CONTINUOUS
370
-3
390
F
  0
LAYER
  5
200
100
AcDbSymbolTableRecord
100
AcDbLayerTableRecord
  2
DEFAULT_DATUM_PLANES
 70
0
 62
7
  6
CONTINUOUS
370
-3
390
F
  0
ENDTAB
  0
TABLE
  2
STYLE
  5
3
100
AcDbSymbolTable
 70
1
  0
STYLE
  5
11
100
AcDbSymbolTableRecord
100
AcDbTextStyleTableRecord
  2
STANDARD
 70
0
 40
0.0
 41
0.8
 50
0.0
 71
0
 42
0.2
  3
txt
  4

  0
STYLE
  5
201
100
AcDbSymbolTableRecord
100
AcDbTextStyleTableRecord
  2
TEXTSTYLE_1
 70
0
 40
0.0
 41
0.8
 50
0.0
 71
0
 42
0.2
  3
gdt
  4

  0
ENDTAB
  0
TABLE
  2
VIEW
  5
6
100
AcDbSymbolTable
 70
0
  0
ENDTAB
  0
TABLE
  2
UCS
  5
7
100
AcDbSymbolTable
 70
0
  0
ENDTAB
  0
TABLE
  2
APPID
  5
9
100
AcDbSymbolTable
 70
1
  0
APPID
  5
202
100
AcDbSymbolTableRecord
100
AcDbRegAppTableRecord
  2
ACAD
 70
0
  0
ENDTAB
  0
TABLE
  2
BLOCK_RECORD
  5
1
100
AcDbSymbolTable
 70
0
  0
BLOCK_RECORD
  5
203
100
AcDbSymbolTableRecord
100
AcDbBlockTableRecord
  2
*Model_Space
  0
BLOCK_RECORD
  5
204
100
AcDbSymbolTableRecord
100
AcDbBlockTableRecord
  2
*Paper_Space
  0
ENDTAB
  0
TABLE
  2
DIMSTYLE
  5
A
100
AcDbSymbolTable
 70
1
100
AcDbDimStyleTable
 71
0
  0
DIMSTYLE
105
205
100
AcDbSymbolTableRecord
100
AcDbDimStyleTableRecord
  2
STANDARD
 70
0
  3

  4

 40
1.0
 41
0.1875
 42
0.0625
 43
0.38
 44
0.18
 45
0.0
 46
0.0
 47
0.001
 48
0.001
140
0.15625
141
0.09
142
0.0
143
25.4
144
1.0
145
0.0
146
1.0
147
0.09
 71
0.0
 72
0.0
 73
1
 74
1
 75
0
 76
0
 77
0
 78
4
170
0
171
2
172
0
173
0
174
0
175
0
176
0
177
0
178
0
270
2
271
3
272
3
273
2
274
2
275
0
280
0
281
0
282
0
283
1
284
4
285
0
286
0
287
3
288
0
340
11
  0
ENDTAB
  0
ENDSEC
  0
SECTION
  2
BLOCKS
  0
BLOCK
  5
20
100
AcDbEntity
  8
0
100
AcDbBlockBegin
  2
*Model_Space
 70
0
 10
0.0
 20
0.0
 30
0.0
  3
*Model_Space
  1

  0
ENDBLK
  5
21
100
AcDbEntity
  8
0
100
AcDbBlockEnd
  0
BLOCK
  5
1C
100
AcDbEntity
  8
0
100
AcDbBlockBegin
  2
*Paper_Space
 70
0
 10
0.0
 20
0.0
 30
0.0
  3
*Paper_Space
  1

  0
ENDBLK
  5
1D
100
AcDbEntity
  8
0
100
AcDbBlockEnd
  0
ENDSEC
  0
SECTION
  2
ENTITIES
  0
LINE
  5
206
100
AcDbEntity
  8
0
100
AcDbLine
 62
6
  6
CONTINUOUS
 10
2.4445759656
 20
4.6053090785
 11
2.3813022391
 21
4.4314659436
  0
LINE
  5
207
100
AcDbEntity
  8
0
100
AcDbLine
 62
6
  6
CONTINUOUS
 10
2.4564684914
 20
4.7914825473
 11
2.385303121
 21
4.7326317374
  0
LINE
  5
208
100
AcDbEntity
  8
0
100
AcDbLine
 62
6
  6
CONTINUOUS
 10
3.3137916398
 20
4.2889404459
 11
3.2505179133
 21
4.115097311
  0
LINE
  5
209
100
AcDbEntity
  8
0
100
AcDbLine
 62
6
  6
CONTINUOUS
 10
3.4243515478
 20
4.4392013544
 11
3.4410387007
 21
4.3483754112
  0
LINE
  5
20A
100
AcDbEntity
  8
0
100
AcDbLine
 62
6
  6
CONTINUOUS
 10
6.405261984
 20
2.4555819957
 11
8.415261984
 21
2.4555819957
  0
LINE
  5
20B
100
AcDbEntity
  8
0
100
AcDbLine
 62
9
  6
CONTINUOUS
 10
6.345261984
 20
2.5155819957
 11
8.475261984
 21
2.5155819957
  0
LINE
  5
20C
100
AcDbEntity
  8
0
100
AcDbLine
 62
9
  6
CONTINUOUS
 10
8.475261984
 20
2.5778226621
 11
6.345261984
 21
2.5778226621
  0
LINE
  5
20D
100
AcDbEntity
  8
0
100
AcDbLine
 62
9
  6
CONTINUOUS
 10
4.285261984
 20
5.7727411564
 11
4.285261984
 21
5.0198603868
  0
LINE
  5
20E
100
AcDbEntity
  8
0
100
AcDbLine
 62
9
  6
CONTINUOUS
 10
8.3573210211
 20
3.0451914953
 11
6.4632029469
 21
3.0451914953
  0
LINE
  5
20F
100
AcDbEntity
  8
0
100
AcDbLine
 62
9
  6
CONTINUOUS
 10
8.3343461314
 20
3.1203894864
 11
6.4861778366
 21
3.1203894864
  0
LINE
  5
210
100
AcDbEntity
  8
0
100
AcDbLine
 62
9
  6
CONTINUOUS
 10
2.3648169063
 20
4.2565558927
 11
3.1507163973
 21
3.9705118709
  0
LINE
  5
211
100
AcDbEntity
  8
0
100
AcDbLine
 62
9
  6
CONTINUOUS
 10
2.3582642314
 20
4.2652167915
 11
3.1613031561
 21
3.972934526
  0
LINE
  5
212
100
AcDbEntity
  8
0
100
AcDbLine
 62
9
  6
CONTINUOUS
 10
8.2123051001
 20
3.3684839223
 11
6.6082188679
 21
3.3684839223
  0
LINE
  5
213
100
AcDbEntity
  8
0
100
AcDbLine
 62
9
  6
CONTINUOUS
 10
8.1912207426
 20
3.4015023345
 11
6.6293032254
 21
3.4015023345
  0
LINE
  5
214
100
AcDbEntity
  8
0
100
AcDbLine
 62
9
  6
CONTINUOUS
 10
8.1162542387
 20
3.4555819957
 11
6.7042697294
 21
3.4555819957
  0
LINE
  5
215
100
AcDbEntity
  8
0
100
AcDbLine
 62
7
  6
CONTINUOUS
 10
6.701761984
 20
3.4555819957
 11
6.7042697294
 21
3.4555819957
  0
LINE
  5
216
100
AcDbEntity
  8
0
100
AcDbLine
 62
7
  6
CONTINUOUS
 10
8.1162542387
 20
3.4555819957
 11
8.118761984
 21
3.4555819957
  0
LINE
  5
217
100
AcDbEntity
  8
0
100
AcDbLine
 62
9
  6
CONTINUOUS
 10
2.3813022391
 20
4.4314659436
 11
3.2505179133
 21
4.115097311
  0
LINE
  5
218
100
AcDbEntity
  8
0
100
AcDbLine
 62
7
  6
CONTINUOUS
 10
8.025261984
 20
3.4712069957
 11
6.795261984
 21
3.4712069957
  0
LINE
  5
219
100
AcDbEntity
  8
0
100
AcDbLine
 62
7
  6
CONTINUOUS
 10
2.4445759656
 20
4.6053090785
 11
3.3137916398
 21
4.2889404459
  0
LINE
  5
21A
100
AcDbEntity
  8
0
100
AcDbLine
 62
6
  6
CONTINUOUS
 10
3.3615052206
 20
4.2811517227
 11
2.4030187474
 21
4.6300122688
  0
LINE
  5
21B
100
AcDbEntity
  8
0
100
AcDbLine
 62
9
  6
CONTINUOUS
 10
3.4410387007
 20
4.3483754112
 11
2.385303121
 21
4.7326317374
  0
LINE
  5
21C
100
AcDbEntity
  8
0
100
AcDbLine
 62
9
  6
CONTINUOUS
 10
8.025261984
 20
3.9308900537
 11
8.335261984
 21
3.9308900537
  0
LINE
  5
21D
100
AcDbEntity
  8
0
100
AcDbLine
 62
9
  6
CONTINUOUS
 10
8.025261984
 20
4.0572069957
 11
6.795261984
 21
4.0572069957
  0
LINE
  5
21E
100
AcDbEntity
  8
0
100
AcDbLine
 62
9
  6
CONTINUOUS
 10
7.962261984
 20
4.1202069957
 11
6.858261984
 21
4.1202069957
  0
LINE
  5
21F
100
AcDbEntity
  8
0
100
AcDbLine
 62
9
  6
CONTINUOUS
 10
7.832261984
 20
4.1832069957
 11
6.988261984
 21
4.1832069957
  0
LINE
  5
220
100
AcDbEntity
  8
0
100
AcDbLine
 62
6
  6
CONTINUOUS
 10
7.765261984
 20
4.2292069957
 11
7.055261984
 21
4.2292069957
  0
LINE
  5
221
100
AcDbEntity
  8
0
100
AcDbLine
 62
6
  6
CONTINUOUS
 10
6.701761984
 20
3.4555819957
 11
4.7821346483
 21
4.8502728931
  0
LINE
  5
222
100
AcDbEntity
  8
0
100
AcDbLine
 62
6
  6
CONTINUOUS
 10
7.240261984
 20
5.3532069957
 11
7.230261984
 21
5.3432069957
  0
LINE
  5
223
100
AcDbEntity
  8
0
100
AcDbLine
 62
9
  6
CONTINUOUS
 10
7.7867014585
 20
4.636475802
 11
7.7157163684
 21
4.636475802
  0
LINE
  5
224
100
AcDbEntity
  8
0
100
AcDbLine
 62
9
  6
CONTINUOUS
 10
7.1048075996
 20
4.636475802
 11
7.0338225095
 21
4.636475802
  0
LINE
  5
225
100
AcDbEntity
  8
0
100
AcDbLine
 62
6
  6
CONTINUOUS
 10
7.8002004402
 20
4.6555819957
 11
8.119761984
 21
4.6555819957
  0
LINE
  5
226
100
AcDbEntity
  8
0
100
AcDbLine
 62
9
  6
CONTINUOUS
 10
7.8649135441
 20
4.8583101345
 11
8.119761984
 21
4.8583101345
  0
LINE
  5
227
100
AcDbEntity
  8
0
100
AcDbLine
 62
9
  6
CONTINUOUS
 10
4.5056385347
 20
5.3061058803
 11
6.494420769
 21
4.1876509428
  0
LINE
  5
228
100
AcDbEntity
  8
0
100
AcDbLine
 62
6
  6
CONTINUOUS
 10
6.345261984
 20
2.5155819957
 11
6.345261984
 21
2.5778226621
  0
LINE
  5
229
100
AcDbEntity
  8
0
100
AcDbLine
 62
6
  6
CONTINUOUS
 10
7.8193055889
 20
5.0455819957
 11
8.191261984
 21
5.0455819957
  0
LINE
  5
22A
100
AcDbEntity
  8
0
100
AcDbLine
 62
6
  6
CONTINUOUS
 10
7.775027176
 20
5.1095819957
 11
8.287761984
 21
5.1095819957
  0
LINE
  5
22B
100
AcDbEntity
  8
0
100
AcDbLine
 62
6
  6
CONTINUOUS
 10
7.740761984
 20
5.1452069957
 11
7.6713256785
 21
5.1452069957
  0
LINE
  5
22C
100
AcDbEntity
  8
0
100
AcDbLine
 62
6
  6
CONTINUOUS
 10
7.1491982895
 20
5.1452069957
 11
7.079761984
 21
5.1452069957
  0
LINE
  5
22D
100
AcDbEntity
  8
0
100
AcDbLine
 62
9
  6
CONTINUOUS
 10
7.740761984
 20
5.2162069957
 11
7.5634952698
 21
5.2162069957
  0
LINE
  5
22E
100
AcDbEntity
  8
0
100
AcDbLine
 62
9
  6
CONTINUOUS
 10
7.2570286983
 20
5.2162069957
 11
7.079761984
 21
5.2162069957
  0
LINE
  5
22F
100
AcDbEntity
  8
0
100
AcDbLine
 62
9
  6
CONTINUOUS
 10
7.693761984
 20
5.2632069957
 11
7.126761984
 21
5.2632069957
  0
LINE
  5
230
100
AcDbEntity
  8
0
100
AcDbLine
 62
6
  6
CONTINUOUS
 10
7.682261984
 20
5.2968371416
 11
7.138261984
 21
5.2968371416
  0
LINE
  5
231
100
AcDbEntity
  8
0
100
AcDbLine
 62
6
  6
CONTINUOUS
 10
4.4864423022
 20
5.7138943873
 11
6.9598001877
 21
4.8095570415
  0
LINE
  5
232
100
AcDbEntity
  8
0
100
AcDbLine
 62
6
  6
CONTINUOUS
 10
6.795261984
 20
4.0572069957
 11
6.795261984
 21
3.4712069957
  0
LINE
  5
233
100
AcDbEntity
  8
0
100
AcDbLine
 62
6
  6
CONTINUOUS
 10
7.590261984
 20
5.3432069957
 11
7.230261984
 21
5.3432069957
  0
LINE
  5
234
100
AcDbEntity
  8
0
100
AcDbLine
 62
9
  6
CONTINUOUS
 10
7.594761984
 20
5.3435819957
 11
8.287761984
 21
5.3435819957
  0
LINE
  5
235
100
AcDbEntity
  8
0
100
AcDbLine
 62
6
  6
CONTINUOUS
 10
7.580261984
 20
5.3532069957
 11
7.240261984
 21
5.3532069957
  0
LINE
  5
236
100
AcDbEntity
  8
0
100
AcDbLine
 62
9
  6
CONTINUOUS
 10
7.8132829855
 20
5.4955819957
 11
8.0692409825
 21
5.4955819957
  0
LINE
  5
237
100
AcDbEntity
  8
0
100
AcDbLine
 62
6
  6
CONTINUOUS
 10
7.055261984
 20
4.2292069957
 11
7.055261984
 21
4.1832069957
  0
LINE
  5
238
100
AcDbEntity
  8
0
100
AcDbLine
 62
6
  6
CONTINUOUS
 10
7.079761984
 20
5.2162069957
 11
7.079761984
 21
5.1452069957
  0
LINE
  5
239
100
AcDbEntity
  8
0
100
AcDbLine
 62
6
  6
CONTINUOUS
 10
7.138261984
 20
5.2968371416
 11
7.138261984
 21
5.2632069957
  0
LINE
  5
23A
100
AcDbEntity
  8
0
100
AcDbLine
 62
6
  6
CONTINUOUS
 10
7.682261984
 20
5.2968371416
 11
7.682261984
 21
5.2632069957
  0
LINE
  5
23B
100
AcDbEntity
  8
0
100
AcDbLine
 62
6
  6
CONTINUOUS
 10
7.740761984
 20
5.2162069957
 11
7.740761984
 21
5.1452069957
  0
LINE
  5
23C
100
AcDbEntity
  8
0
100
AcDbLine
 62
6
  6
CONTINUOUS
 10
7.765261984
 20
4.2292069957
 11
7.765261984
 21
4.1832069957
  0
LINE
  5
23D
100
AcDbEntity
  8
0
100
AcDbLine
 62
6
  6
CONTINUOUS
 10
7.847511984
 20
4.6555819957
 11
7.847511984
 21
4.5423193387
  0
LINE
  5
23E
100
AcDbEntity
  8
0
100
AcDbLine
 62
6
  6
CONTINUOUS
 10
7.590261984
 20
5.3432069957
 11
7.580261984
 21
5.3532069957
  0
LINE
  5
23F
100
AcDbEntity
  8
0
100
AcDbLine
 62
6
  6
CONTINUOUS
 10
8.025261984
 20
4.0572069957
 11
8.025261984
 21
3.4712069957
  0
LINE
  5
240
100
AcDbEntity
  8
0
100
AcDbLine
 62
6
  6
CONTINUOUS
 10
8.035011984
 20
4.6555819957
 11
8.035011984
 21
4.4654610437
  0
LINE
  5
241
100
AcDbEntity
  8
0
100
AcDbLine
 62
6
  6
CONTINUOUS
 10
8.119761984
 20
4.8583101345
 11
8.119761984
 21
4.6555819957
  0
LINE
  5
242
100
AcDbEntity
  8
0
100
AcDbLine
 62
6
  6
CONTINUOUS
 10
8.191261984
 20
5.1095819957
 11
8.191261984
 21
5.0455819957
  0
LINE
  5
243
100
AcDbEntity
  8
0
100
AcDbLine
 62
9
  6
CONTINUOUS
 10
8.475261984
 20
2.5155819957
 11
8.475261984
 21
2.5778226621
  0
ARC
  5
244
100
AcDbEntity
  8
0
100
AcDbCircle
 62
9
  6
CONTINUOUS
 10
2.4084571698
 20
3.8117720187
 40
5.063770169
100
AcDbArc
 50
355.9664338386
 51
356.1314969116
  0
ARC
  5
245
100
AcDbEntity
  8
0
100
AcDbCircle
 62
6
  6
CONTINUOUS
 10
2.7571792874
 20
4.2946578863
 40
0.4
100
AcDbArc
 50
160.0
 51
184.2209431101
  0
ARC
  5
246
100
AcDbEntity
  8
0
100
AcDbCircle
 62
6
  6
CONTINUOUS
 10
2.874640865
 20
4.2519053684
 40
0.4
100
AcDbArc
 50
315.7790568899
 51
340.0
  0
ARC
  5
247
100
AcDbEntity
  8
0
100
AcDbCircle
 62
6
  6
CONTINUOUS
 10
2.3682371078
 20
4.2659528189
 40
0.01
100
AcDbArc
 50
184.2209431524
 51
250.0000000969
  0
ARC
  5
248
100
AcDbEntity
  8
0
100
AcDbCircle
 62
6
  6
CONTINUOUS
 10
3.1541365988
 20
3.9799087971
 40
0.01
100
AcDbArc
 50
249.9999999031
 51
315.7790568476
  0
ARC
  5
249
100
AcDbEntity
  8
0
100
AcDbCircle
 62
6
  6
CONTINUOUS
 10
2.423539956
 20
4.6863938261
 40
0.06
100
AcDbArc
 50
129.589337085
 51
250.0
  0
ARC
  5
24A
100
AcDbEntity
  8
0
100
AcDbCircle
 62
6
  6
CONTINUOUS
 10
3.9405197677
 20
4.2205108895
 40
1.5900966177
100
AcDbArc
 50
113.2724487249
 51
158.9563443093
  0
ARC
  5
24B
100
AcDbEntity
  8
0
100
AcDbCircle
 62
6
  6
CONTINUOUS
 10
3.9404416602
 20
4.2205793893
 40
1.59
100
AcDbArc
 50
77.4748687489
 51
113.2708383955
  0
ARC
  5
24C
100
AcDbEntity
  8
0
100
AcDbCircle
 62
6
  6
CONTINUOUS
 10
3.9480689306
 20
4.2466476941
 40
1.5628943485
100
AcDbArc
 50
69.8505168957
 51
77.540576929
  0
ARC
  5
24D
100
AcDbEntity
  8
0
100
AcDbCircle
 62
6
  6
CONTINUOUS
 10
4.2590057238
 20
4.1302188692
 40
0.8900307016
100
AcDbArc
 50
88.30950298
 51
122.2427879099
  0
ARC
  5
24E
100
AcDbEntity
  8
0
100
AcDbCircle
 62
6
  6
CONTINUOUS
 10
4.2590082789
 20
4.1302512973
 40
0.89
100
AcDbArc
 50
53.9999969281
 51
75.7784677062
  0
ARC
  5
24F
100
AcDbEntity
  8
0
100
AcDbCircle
 62
6
  6
CONTINUOUS
 10
4.2597826107
 20
4.1337689513
 40
0.8863958906
100
AcDbArc
 50
75.7711255442
 51
79.3464814682
  0
ARC
  5
250
100
AcDbEntity
  8
0
100
AcDbCircle
 62
9
  6
CONTINUOUS
 10
4.0330045982
 20
4.4657063351
 40
0.9641857879
100
AcDbArc
 50
60.646949618
 51
64.5699862315
  0
ARC
  5
251
100
AcDbEntity
  8
0
100
AcDbCircle
 62
9
  6
CONTINUOUS
 10
4.033951226
 20
4.4681503893
 40
0.9615710826
100
AcDbArc
 50
64.558391622
 51
74.8495727773
  0
ARC
  5
252
100
AcDbEntity
  8
0
100
AcDbCircle
 62
6
  6
CONTINUOUS
 10
3.3820264292
 20
4.3375332799
 40
0.06
100
AcDbArc
 50
250.0
 51
10.410662915
  0
ARC
  5
253
100
AcDbEntity
  8
0
100
AcDbCircle
 62
9
  6
CONTINUOUS
 10
6.2871503506
 20
3.1400887203
 40
0.2
100
AcDbArc
 50
331.674103044
 51
354.3474202065
  0
ARC
  5
254
100
AcDbEntity
  8
0
100
AcDbCircle
 62
6
  6
CONTINUOUS
 10
7.330261984
 20
2.5778226621
 40
0.985
100
AcDbArc
 50
151.674103044
 51
180.0
  0
ARC
  5
255
100
AcDbEntity
  8
0
100
AcDbCircle
 62
6
  6
CONTINUOUS
 10
6.405261984
 20
2.5155819957
 40
0.06
100
AcDbArc
 50
180.0
 51
270.0
  0
ARC
  5
256
100
AcDbEntity
  8
0
100
AcDbCircle
 62
6
  6
CONTINUOUS
 10
6.878261984
 20
3.0815819957
 40
0.394
100
AcDbArc
 50
133.2661775441
 51
174.3474202065
  0
ARC
  5
257
100
AcDbEntity
  8
0
100
AcDbCircle
 62
9
  6
CONTINUOUS
 10
6.5533877783
 20
3.4267381205
 40
0.08
100
AcDbArc
 50
313.2661775441
 51
341.6121794541
  0
ARC
  5
258
100
AcDbEntity
  8
0
100
AcDbCircle
 62
6
  6
CONTINUOUS
 10
6.7042697294
 20
3.3765819957
 40
0.079
100
AcDbArc
 50
90.0
 51
161.6121794541
  0
ARC
  5
259
100
AcDbEntity
  8
0
100
AcDbCircle
 62
9
  6
CONTINUOUS
 10
7.490261984
 20
2.5778226621
 40
0.985
100
AcDbArc
 50
0.0
 51
28.325896956
  0
ARC
  5
25A
100
AcDbEntity
  8
0
100
AcDbCircle
 62
9
  6
CONTINUOUS
 10
7.942261984
 20
3.0815819957
 40
0.394
100
AcDbArc
 50
5.6525797935
 51
46.7338224559
  0
ARC
  5
25B
100
AcDbEntity
  8
0
100
AcDbCircle
 62
9
  6
CONTINUOUS
 10
8.2671361897
 20
3.4267381205
 40
0.08
100
AcDbArc
 50
198.3878205459
 51
226.7338224559
  0
ARC
  5
25C
100
AcDbEntity
  8
0
100
AcDbCircle
 62
6
  6
CONTINUOUS
 10
8.1162542387
 20
3.3765819957
 40
0.079
100
AcDbArc
 50
18.3878205459
 51
90.0
  0
ARC
  5
25D
100
AcDbEntity
  8
0
100
AcDbCircle
 62
6
  6
CONTINUOUS
 10
6.7510466717
 20
4.4173911832
 40
0.3577153123
100
AcDbArc
 50
328.2595286942
 51
37.767245588
  0
ARC
  5
25E
100
AcDbEntity
  8
0
100
AcDbCircle
 62
6
  6
CONTINUOUS
 10
6.988261984
 20
4.1202069957
 40
0.063
100
AcDbArc
 50
90.0
 51
180.0
  0
ARC
  5
25F
100
AcDbEntity
  8
0
100
AcDbCircle
 62
6
  6
CONTINUOUS
 10
6.858261984
 20
4.0572069957
 40
0.063
100
AcDbArc
 50
90.0
 51
180.0
  0
ARC
  5
260
100
AcDbEntity
  8
0
100
AcDbCircle
 62
6
  6
CONTINUOUS
 10
7.174261984
 20
5.3538371416
 40
0.057
100
AcDbArc
 50
270.0
 51
349.251764142
  0
ARC
  5
261
100
AcDbEntity
  8
0
100
AcDbCircle
 62
6
  6
CONTINUOUS
 10
7.126761984
 20
5.2162069957
 40
0.047
100
AcDbArc
 50
90.0
 51
180.0
  0
CIRCLE
  5
262
100
AcDbEntity
  8
0
100
AcDbCircle
 62
6
  6
CONTINUOUS
 10
7.410261984
 20
4.8661465184
 40
0.3825
  0
ARC
  5
263
100
AcDbEntity
  8
0
100
AcDbCircle
 62
6
  6
CONTINUOUS
 10
7.330261984
 20
4.8661465184
 40
0.375
100
AcDbArc
 50
131.9128908834
 51
217.767245588
  0
ARC
  5
264
100
AcDbEntity
  8
0
100
AcDbCircle
 62
6
  6
CONTINUOUS
 10
7.490261984
 20
4.8661465184
 40
0.375
100
AcDbArc
 50
322.232754412
 51
48.0871091166
  0
CIRCLE
  5
265
100
AcDbEntity
  8
0
100
AcDbCircle
 62
6
  6
CONTINUOUS
 10
7.410261984
 20
4.8661465184
 40
0.25
  0
CIRCLE
  5
266
100
AcDbEntity
  8
0
100
AcDbCircle
 62
9
  6
CONTINUOUS
 10
7.410261984
 20
4.8661465184
 40
0.1952110727
  0
ARC
  5
267
100
AcDbEntity
  8
0
100
AcDbCircle
 62
6
  6
CONTINUOUS
 10
7.7068244459
 20
3.9391782261
 40
0.6215658383
100
AcDbArc
 50
78.3572395707
 51
79.3100924889
  0
ARC
  5
268
100
AcDbEntity
  8
0
100
AcDbCircle
 62
6
  6
CONTINUOUS
 10
8.0694772963
 20
4.4173911832
 40
0.3577153123
100
AcDbArc
 50
142.232754412
 51
211.7404713058
  0
ARC
  5
269
100
AcDbEntity
  8
0
100
AcDbCircle
 62
6
  6
CONTINUOUS
 10
7.832261984
 20
4.1202069957
 40
0.063
100
AcDbArc
 50
0.0
 51
90.0
  0
ARC
  5
26A
100
AcDbEntity
  8
0
100
AcDbCircle
 62
6
  6
CONTINUOUS
 10
7.962261984
 20
4.0572069957
 40
0.063
100
AcDbArc
 50
0.0
 51
90.0
  0
ARC
  5
26B
100
AcDbEntity
  8
0
100
AcDbCircle
 62
6
  6
CONTINUOUS
 10
7.594761984
 20
5.2265819957
 40
0.117
100
AcDbArc
 50
90.0
 51
92.2120966995
  0
ARC
  5
26C
100
AcDbEntity
  8
0
100
AcDbCircle
 62
6
  6
CONTINUOUS
 10
7.693761984
 20
5.2162069957
 40
0.047
100
AcDbArc
 50
0.0
 51
90.0
  0
ARC
  5
26D
100
AcDbEntity
  8
0
100
AcDbCircle
 62
6
  6
CONTINUOUS
 10
7.8132829855
 20
5.3075819957
 40
0.188
100
AcDbArc
 50
90.0
 51
168.960285586
  0
ARC
  5
26E
100
AcDbEntity
  8
0
100
AcDbCircle
 62
6
  6
CONTINUOUS
 10
7.646261984
 20
5.3538371416
 40
0.057
100
AcDbArc
 50
190.748235858
 51
270.0
  0
ARC
  5
26F
100
AcDbEntity
  8
0
100
AcDbCircle
 62
6
  6
CONTINUOUS
 10
8.287761984
 20
5.2265819957
 40
0.117
100
AcDbArc
 50
270.0
 51
90.0
  0
ARC
  5
270
100
AcDbEntity
  8
0
100
AcDbCircle
 62
6
  6
CONTINUOUS
 10
8.0692409825
 20
5.3075819957
 40
0.188
100
AcDbArc
 50
11.039714414
 51
90.0
  0
ARC
  5
271
100
AcDbEntity
  8
0
100
AcDbCircle
 62
9
  6
CONTINUOUS
 10
10.2611603121
 20
3.8103665703
 40
3.0902702947
100
AcDbArc
 50
186.3199453862
 51
186.592491607
  0
ARC
  5
272
100
AcDbEntity
  8
0
100
AcDbCircle
 62
9
  6
CONTINUOUS
 10
8.5333736174
 20
3.1400887203
 40
0.2
100
AcDbArc
 50
185.6525797935
 51
208.325896956
  0
ARC
  5
273
100
AcDbEntity
  8
0
100
AcDbCircle
 62
9
  6
CONTINUOUS
 10
8.415261984
 20
2.5155819957
 40
0.06
100
AcDbArc
 50
270.0
 51
360.0
  0
ARC
  5
274
100
AcDbEntity
  8
0
100
AcDbCircle
 62
9
  6
CONTINUOUS
 10
9.1636918802
 20
5.1349032314
 40
2.7168441212
100
AcDbArc
 50
217.7842512633
 51
218.1785887807
  0
ARC
  5
275
100
AcDbEntity
  8
0
100
AcDbCircle
 62
6
  6
CONTINUOUS
 10
8.400761984
 20
4.8583101345
 40
0.281
100
AcDbArc
 50
138.2064992114
 51
180.0
  0
ARC
  5
276
100
AcDbEntity
  8
0
100
AcDbCircle
 62
6
  6
CONTINUOUS
 10
10.1380537867
 20
6.1330537329
 40
4.1298816772
100
AcDbArc
 50
214.8799268234
 51
215.9586244388
  0
ARC
  5
277
100
AcDbEntity
  8
0
100
AcDbCircle
 62
6
  6
CONTINUOUS
 10
10.0904443303
 20
6.0967308489
 40
4.0699844543
100
AcDbArc
 50
220.182167927
 51
220.4612330557
  0
ARC
  5
278
100
AcDbEntity
  8
0
100
AcDbCircle
 62
6
  6
CONTINUOUS
 10
8.5456075239
 20
8.3842409983
 40
3.9019438738
100
AcDbArc
 50
258.162725739
 51
259.3145559673
  0
ARC
  5
279
100
AcDbEntity
  8
0
100
AcDbCircle
 62
9
  6
CONTINUOUS
 10
10.016720306
 20
5.6944381162
 40
3.7380549776
100
AcDbArc
 50
204.9154307139
 51
210.4707270607
  0
ARC
  5
27A
100
AcDbEntity
  8
0
100
AcDbCircle
 62
9
  6
CONTINUOUS
 10
7.4821071755
 20
5.9486387248
 40
2.0191784225
100
AcDbArc
 50
244.9310480545
 51
250.1021615021
  0
SPLINE
  5
27B
100
AcDbEntity
  8
0
100
AcDbSpline
 62
6
  6
CONTINUOUS
 70
0
 71
3
 72
23
 73
19
 74
17
 42
0.0000001
 43
0.0000001
 44
0.0000000001
 12
0.2018977059
 22
0.5454375376
 32
0.0
 13
0.4919135031
 23
0.3102996882
 33
0.0
 40
0.0
 40
0.0
 40
0.0
 40
0.0
 40
0.062331406
 40
0.1243752923
 40
0.1862010724
 40
0.2478777131
 40
0.3094735567
 40
0.3710561481
 40
0.4326920695
 40
0.4944467856
 40
0.556382341
 40
0.6185531175
 40
0.681015629
 40
0.7438309949
 40
0.8070648797
 40
0.8707873901
 40
0.9350729277
 40
1.0
 40
1.0
 40
1.0
 40
1.0
 10
3.4243515454
 20
4.4392013554
 30
0.0
 10
3.4285464014
 20
4.4505339849
 30
0.0
 10
3.4373717195
 20
4.4729816327
 30
0.0
 10
3.4519311335
 20
4.5060241013
 30
0.0
 10
3.46776279
 20
4.5383355979
 30
0.0
 10
3.4848517595
 20
4.5699011696
 30
0.0
 10
3.5031834343
 20
4.6007067833
 30
0.0
 10
3.5227430999
 20
4.6307381719
 30
0.0
 10
3.5435160663
 20
4.6599811671
 30
0.0
 10
3.5654873269
 20
4.6884211975
 30
0.0
 10
3.5886409327
 20
4.7160427727
 30
0.0
 10
3.6129821286
 20
4.7428099179
 30
0.0
 10
3.6385143067
 20
4.7686840385
 30
0.0
 10
3.6652405803
 20
4.7936262409
 30
0.0
 10
3.6931639591
 20
4.8175975593
 30
0.0
 10
3.7222876679
 20
4.8405591809
 30
0.0
 10
3.7526139796
 20
4.8624717106
 30
0.0
 10
3.7735243602
 20
4.8762814386
 30
0.0
 10
3.7841705281
 20
4.8829970553
 30
0.0
 11
3.4243515454
 21
4.4392013554
 31
0.0
 11
3.4376181177
 21
4.4729389581
 31
0.0
 11
3.4521698464
 21
4.5059598379
 31
0.0
 11
3.4679921424
 21
4.5382498898
 31
0.0
 11
3.4850704163
 21
4.5697950088
 31
0.0
 11
3.5033900789
 21
4.60058109
 31
0.0
 11
3.5229365409
 21
4.6305940286
 31
0.0
 11
3.5436952131
 21
4.6598197195
 31
0.0
 11
3.5656515062
 21
4.6882440578
 31
0.0
 11
3.5887937718
 21
4.7158488344
 31
0.0
 11
3.6131221188
 21
4.7425994314
 31
0.0
 11
3.638639594
 21
4.7684571314
 31
0.0
 11
3.6653492441
 21
4.7933832165
 31
0.0
 11
3.6932541159
 21
4.8173389691
 31
0.0
 11
3.7223572559
 21
4.8402856715
 31
0.0
 11
3.7526617111
 21
4.8621846062
 31
0.0
 11
3.7841705281
 21
4.8829970553
 31
0.0
  0
SPLINE
  5
27C
100
AcDbEntity
  8
0
100
AcDbSpline
 62
6
  6
CONTINUOUS
 70
0
 71
3
 72
15
 73
11
 74
9
 42
0.0000001
 43
0.0000001
 44
0.0000000001
 12
-0.1369250692
 22
0.0257751499
 32
0.0
 13
-0.139269298
 23
0.0041104228
 33
0.0
 40
0.0
 40
0.0
 40
0.0
 40
0.0
 40
0.1273409594
 40
0.2552438349
 40
0.3830991016
 40
0.5102913131
 40
0.6362007183
 40
0.7602047076
 40
0.8816791896
 40
1.0
 40
1.0
 40
1.0
 40
1.0
 10
4.4236500917
 20
5.0048861211
 30
0.0
 10
4.4178380351
 20
5.0059801985
 30
0.0
 10
4.4061638427
 20
5.0080452749
 30
0.0
 10
4.3885821111
 20
5.0107824643
 30
0.0
 10
4.3709566586
 20
5.0131714197
 30
0.0
 10
4.3533808385
 20
5.015212591
 30
0.0
 10
4.3359478897
 20
5.0169064855
 30
0.0
 10
4.3187510647
 20
5.0182536464
 30
0.0
 10
4.3018837261
 20
5.0192546524
 30
0.0
 10
4.2907548027
 20
5.0196982706
 30
0.0
 10
4.285261984
 20
5.0198603868
 30
0.0
 11
4.4236500917
 21
5.0048861211
 31
0.0
 11
4.4061796314
 21
5.0079806454
 31
0.0
 11
4.3885714833
 21
5.0107248172
 31
0.0
 11
4.3709190551
 21
5.0131191356
 31
0.0
 11
4.3533157545
 21
5.0151640994
 31
0.0
 11
4.3358549894
 21
5.0168602075
 31
0.0
 11
4.3186301674
 21
5.0182079588
 31
0.0
 11
4.3017346964
 21
5.0192078523
 31
0.0
 11
4.285261984
 21
5.0198603868
 31
0.0
  0
SPLINE
  5
27D
100
AcDbEntity
  8
0
100
AcDbSpline
 62
7
  6
CONTINUOUS
 70
0
 71
3
 72
95
 73
91
 74
89
 42
0.0000001
 43
0.0000001
 44
0.0000000001
 12
0.0
 22
0.2359439232
 32
0.0
 13
0.0
 23
0.2359439227
 33
0.0
 40
0.0
 40
0.0
 40
0.0
 40
0.0
 40
0.0000028204
 40
0.000010958
 40
0.0000244159
 40
0.0000431906
 40
0.0000672783
 40
0.0000966745
 40
0.0001713754
 40
0.0002672583
 40
0.000384288
 40
0.0005224293
 40
0.0006816468
 40
0.0010631689
 40
0.0015285714
 40
0.0020775715
 40
0.002709886
 40
0.003425232
 40
0.0042233264
 40
0.0051038863
 40
0.0060666286
 40
0.0082375289
 40
0.0107337637
 40
0.0135530695
 40
0.0166931833
 40
0.0201511656
 40
0.0239217954
 40
0.0279993719
 40
0.0323781956
 40
0.0420167923
 40
0.0527920186
 40
0.0646583319
 40
0.0775700134
 40
0.091477956
 40
0.106330248
 40
0.1220749308
 40
0.138660089
 40
0.156033854
 40
0.1929446012
 40
0.2324212778
 40
0.2740857012
 40
0.3175637108
 40
0.3624948735
 40
0.408521794
 40
0.4552863443
 40
0.502428633
 40
0.5495878074
 40
0.5963948764
 40
0.6424732554
 40
0.6874415471
 40
0.7309069049
 40
0.7724735946
 40
0.8117429021
 40
0.8483150292
 40
0.8654644792
 40
0.8817899482
 40
0.8972431923
 40
0.9117761616
 40
0.9253419312
 40
0.9378966898
 40
0.9493971631
 40
0.959802215
 40
0.9690766246
 40
0.9732791485
 40
0.9771861846
 40
0.9807938704
 40
0.9840993472
 40
0.9870999059
 40
0.9897928371
 40
0.9921754311
 40
0.9942449786
 40
0.9951615639
 40
0.995999112
 40
0.9967574978
 40
0.9974365959
 40
0.9980362812
 40
0.9985564284
 40
0.9989969123
 40
0.9993576076
 40
0.9995079954
 40
0.9996383891
 40
0.9997487731
 40
0.9998391316
 40
0.9999094492
 40
0.9999370876
 40
0.99995971
 40
0.9999773143
 40
0.9999898985
 40
0.9999974609
 40
1.0
 40
1.0
 40
1.0
 40
1.0
 10
8.050261984
 20
4.4580120518
 30
0.0
 10
8.050261984
 20
4.4580122737
 30
0.0
 10
8.0502608154
 20
4.4580124984
 30
0.0
 10
8.0502595193
 20
4.4580135966
 30
0.0
 10
8.0502564826
 20
4.458014961
 30
0.0
 10
8.0502526456
 20
4.4580170414
 30
0.0
 10
8.0502475505
 20
4.4580196159
 30
0.0
 10
8.0502385879
 20
4.4580242054
 30
0.0
 10
8.0502245491
 20
4.458031314
 30
0.0
 10
8.0502043638
 20
4.4580415156
 30
0.0
 10
8.0501797039
 20
4.4580539355
 30
0.0
 10
8.0501505858
 20
4.4580685733
 30
0.0
 10
8.0501028653
 20
4.4580925222
 30
0.0
 10
8.0500321122
 20
4.4581279581
 30
0.0
 10
8.0499339122
 20
4.4581770487
 30
0.0
 10
8.0498180348
 20
4.4582348891
 30
0.0
 10
8.0496845351
 20
4.4583014404
 30
0.0
 10
8.0495334685
 20
4.458376664
 30
0.0
 10
8.0493648904
 20
4.458460521
 30
0.0
 10
8.0491788561
 20
4.458552973
 30
0.0
 10
8.0488960842
 20
4.4586933729
 30
0.0
 10
8.0484993945
 20
4.4588900709
 30
0.0
 10
8.047971722
 20
4.4591512977
 30
0.0
 10
8.0473755551
 20
4.4594459786
 30
0.0
 10
8.0467113857
 20
4.4597737828
 30
0.0
 10
8.0459799104
 20
4.4601342694
 30
0.0
 10
8.0451820246
 20
4.4605267876
 30
0.0
 10
8.0443188214
 20
4.4609505978
 30
0.0
 10
8.0430408164
 20
4.4615767099
 30
0.0
 10
8.0412885591
 20
4.4624320906
 30
0.0
 10
8.0390048625
 20
4.4635411798
 30
0.0
 10
8.0364869405
 20
4.4647572202
 30
0.0
 10
8.0337440808
 20
4.4660740248
 30
0.0
 10
8.0307859885
 20
4.467485103
 30
0.0
 10
8.027622789
 20
4.468983686
 30
0.0
 10
8.0242648225
 20
4.4705629205
 30
0.0
 10
8.0207224311
 20
4.4722159425
 30
0.0
 10
8.0156640988
 20
4.4745569093
 30
0.0
 10
8.0089560624
 20
4.4776197338
 30
0.0
 10
8.0004848843
 20
4.4814201308
 30
0.0
 10
7.9915157127
 20
4.4853718269
 30
0.0
 10
7.9821255265
 20
4.4894313088
 30
0.0
 10
7.972393854
 20
4.4935649466
 30
0.0
 10
7.9623987955
 20
4.4977391409
 30
0.0
 10
7.9522188701
 20
4.5019214269
 30
0.0
 10
7.9419350145
 20
4.5060846553
 30
0.0
 10
7.931628604
 20
4.5102007365
 30
0.0
 10
7.9213824026
 20
4.5142416794
 30
0.0
 10
7.9112806423
 20
4.5181789642
 30
0.0
 10
7.9014095369
 20
4.5219840967
 30
0.0
 10
7.8918586539
 20
4.5256332644
 30
0.0
 10
7.8827185352
 20
4.5291016215
 30
0.0
 10
7.8740799367
 20
4.5323634886
 30
0.0
 10
7.8672351631
 20
4.5349397319
 30
0.0
 10
7.8620777259
 20
4.5368763697
 30
0.0
 10
7.8584745901
 20
4.5382274044
 30
0.0
 10
7.8550634625
 20
4.5395043949
 30
0.0
 10
7.8518549032
 20
4.5407034191
 30
0.0
 10
7.8488591477
 20
4.5418206816
 30
0.0
 10
7.8460861347
 20
4.5428526651
 30
0.0
 10
7.8435453703
 20
4.5437959957
 30
0.0
 10
7.841245739
 20
4.5446475661
 30
0.0
 10
7.8394838411
 20
4.5452984223
 30
0.0
 10
7.8382010691
 20
4.5457714658
 30
0.0
 10
7.8373363386
 20
4.5460900137
 30
0.0
 10
7.8365377167
 20
4.5463839212
 30
0.0
 10
7.8358059246
 20
4.5466529996
 30
0.0
 10
7.8351415979
 20
4.5468970914
 30
0.0
 10
7.8345453613
 20
4.547116043
 30
0.0
 10
7.8340178392
 20
4.5473097005
 30
0.0
 10
7.8336214667
 20
4.5474552168
 30
0.0
 10
7.8333391797
 20
4.5475588962
 30
0.0
 10
7.8331536971
 20
4.5476270416
 30
0.0
 10
7.8329857531
 20
4.5476887631
 30
0.0
 10
7.8328353744
 20
4.5477440482
 30
0.0
 10
7.8327025878
 20
4.5477928841
 30
0.0
 10
7.8325874201
 20
4.5478352582
 30
0.0
 10
7.8324898982
 20
4.5478711576
 30
0.0
 10
7.8324196721
 20
4.5478970251
 30
0.0
 10
7.8323723342
 20
4.547914473
 30
0.0
 10
7.8323434707
 20
4.5479251182
 30
0.0
 10
7.8323190361
 20
4.5479341333
 30
0.0
 10
7.8322990441
 20
4.5479415236
 30
0.0
 10
7.8322851402
 20
4.5479466527
 30
0.0
 10
7.8322762676
 20
4.5479499607
 30
0.0
 10
7.8322712221
 20
4.5479517906
 30
0.0
 10
7.8322674368
 20
4.5479533097
 30
0.0
 10
7.8322644121
 20
4.5479541888
 30
0.0
 10
7.8322631704
 20
4.5479550991
 30
0.0
 10
7.832261984
 20
4.5479550918
 30
0.0
 10
7.832261984
 20
4.5479552915
 30
0.0
 11
8.050261984
 21
4.4580120518
 31
0.0
 11
8.0502614213
 21
4.4580124071
 31
0.0
 11
8.0502597338
 21
4.458013323
 31
0.0
 11
8.0502569224
 21
4.458014799
 31
0.0
 11
8.0502529879
 21
4.4580168344
 31
0.0
 11
8.0502479313
 21
4.4580194287
 31
0.0
 11
8.0502417533
 21
4.4580225812
 31
0.0
 11
8.0502260367
 21
4.4580305585
 31
0.0
 11
8.0502058452
 21
4.4580407616
 31
0.0
 11
8.0501811857
 21
4.4580531857
 31
0.0
 11
8.0501520651
 21
4.4580678258
 31
0.0
 11
8.0501184904
 21
4.4580846773
 31
0.0
 11
8.0500380062
 21
4.4581249948
 31
0.0
 11
8.0499397886
 21
4.4581740998
 31
0.0
 11
8.049823893
 21
4.4582319535
 31
0.0
 11
8.0496903747
 21
4.4582985175
 31
0.0
 11
8.0495392894
 21
4.4583737533
 31
0.0
 11
8.0493706923
 21
4.4584576223
 31
0.0
 11
8.049184639
 21
4.4585500858
 31
0.0
 11
8.0489811848
 21
4.4586511055
 31
0.0
 11
8.0485222956
 21
4.4588786589
 31
0.0
 11
8.0479944682
 21
4.4591399741
 31
0.0
 11
8.0473981462
 21
4.4594347426
 31
0.0
 11
8.0467337729
 21
4.4597626561
 31
0.0
 11
8.0460019262
 21
4.4601233176
 31
0.0
 11
8.0452036367
 21
4.460516031
 31
0.0
 11
8.0443400307
 21
4.4609400374
 31
0.0
 11
8.0434122342
 21
4.4613945776
 31
0.0
 11
8.0413685749
 21
4.4623922239
 31
0.0
 11
8.039081668
 21
4.4635028977
 31
0.0
 11
8.0365605231
 21
4.4647205271
 31
0.0
 11
8.0338141907
 21
4.4660390152
 31
0.0
 11
8.030852418
 21
4.4674518525
 31
0.0
 11
8.0276855309
 21
4.468952186
 31
0.0
 11
8.0243238725
 21
4.4705331523
 31
0.0
 11
8.0207777863
 21
4.4721878881
 31
0.0
 11
8.0170576154
 21
4.4739095299
 31
0.0
 11
8.0091358174
 21
4.4775274673
 31
0.0
 11
8.0006377519
 21
4.4813404362
 31
0.0
 11
7.9916417835
 21
4.4853041015
 31
0.0
 11
7.9822262086
 21
4.4893760972
 31
0.0
 11
7.9724690688
 21
4.4935215046
 31
0.0
 11
7.9624483476
 21
4.4977071706
 31
0.0
 11
7.9522427905
 21
4.5019014044
 31
0.0
 11
7.9419329962
 21
4.5060760732
 31
0.0
 11
7.9315999295
 21
4.5102035535
 31
0.0
 11
7.9213263765
 21
4.514255786
 31
0.0
 11
7.9111968308
 21
4.5182043057
 31
0.0
 11
7.9012973335
 21
4.5220216281
 31
0.0
 11
7.8917177449
 21
4.5256828363
 31
0.0
 11
7.8825486298
 21
4.529163149
 31
0.0
 11
7.8738808868
 21
4.5324368357
 31
0.0
 11
7.8658049902
 21
4.535476414
 31
0.0
 11
7.8620169421
 21
4.5368988429
 31
0.0
 11
7.8584102364
 21
4.5382511635
 31
0.0
 11
7.8549955509
 21
4.5395294283
 31
0.0
 11
7.8517835121
 21
4.5407296839
 31
0.0
 11
7.8487845111
 21
4.5418481038
 31
0.0
 11
7.8460082863
 21
4.5428812143
 31
0.0
 11
7.8434644637
 21
4.5438256022
 31
0.0
 11
7.8411622311
 21
4.5446781239
 31
0.0
 11
7.839109564
 21
4.5454363813
 31
0.0
 11
7.8381792446
 21
4.5457794515
 31
0.0
 11
7.8373142291
 21
4.5460981044
 31
0.0
 11
7.8365153967
 21
4.5463920908
 31
0.0
 11
7.8357834055
 21
4.5466612452
 31
0.0
 11
7.8351188803
 21
4.5469054146
 31
0.0
 11
7.834522446
 21
4.5471244459
 31
0.0
 11
7.8339947273
 21
4.5473181862
 31
0.0
 11
7.8335363492
 21
4.5474864825
 31
0.0
 11
7.833333346
 21
4.5475610428
 31
0.0
 11
7.8331478544
 21
4.547629192
 31
0.0
 11
7.8329799013
 21
4.5476909175
 31
0.0
 11
7.8328295135
 21
4.5477462066
 31
0.0
 11
7.8326967179
 21
4.5477950466
 31
0.0
 11
7.8325815414
 21
4.547837425
 31
0.0
 11
7.8324840107
 21
4.547873329
 31
0.0
 11
7.8324041526
 21
4.5479027461
 31
0.0
 11
7.8323708593
 21
4.547915018
 31
0.0
 11
7.8323419941
 21
4.5479256635
 31
0.0
 11
7.8323175606
 21
4.5479346809
 31
0.0
 11
7.8322975619
 21
4.5479420686
 31
0.0
 11
7.8322820016
 21
4.5479478251
 31
0.0
 11
7.8322758869
 21
4.5479500912
 31
0.0
 11
7.832270883
 21
4.5479519488
 31
0.0
 11
7.8322669903
 21
4.5479533979
 31
0.0
 11
7.8322642093
 21
4.5479544382
 31
0.0
 11
7.8322625404
 21
4.5479550694
 31
0.0
 11
7.832261984
 21
4.5479552915
 31
0.0
  0
SPLINE
  5
27E
100
AcDbEntity
  8
0
100
AcDbSpline
 62
6
  6
CONTINUOUS
 70
0
 71
3
 72
29
 73
25
 74
23
 42
0.0000001
 43
0.0000001
 44
0.0000000001
 12
0.522260358
 22
-0.3422355255
 32
0.0
 13
-0.0
 23
-0.6244045455
 33
0.0
 40
0.0
 40
0.0
 40
0.0
 40
0.0
 40
0.0618359917
 40
0.1239100924
 40
0.1861826001
 40
0.2173859234
 40
0.2486266077
 40
0.2799017625
 40
0.3112092093
 40
0.3425463474
 40
0.3739093925
 40
0.4366883905
 40
0.4995167466
 40
0.5623560142
 40
0.593772063
 40
0.6251776996
 40
0.6565693746
 40
0.6879443967
 40
0.7193004619
 40
0.7506346576
 40
0.8132155485
 40
0.8756615844
 40
0.9379356289
 40
1.0
 40
1.0
 40
1.0
 40
1.0
 10
8.050261984
 20
4.4580120518
 30
0.0
 10
8.0610268131
 20
4.4509578941
 30
0.0
 10
8.0821697024
 20
4.43615621
 30
0.0
 10
8.1125182051
 20
4.4120245298
 30
0.0
 10
8.1365979778
 20
4.3903500676
 30
0.0
 10
8.1550722892
 20
4.3721104506
 30
0.0
 10
8.1685246408
 20
4.357980512
 30
0.0
 10
8.1815447447
 20
4.3434223855
 30
0.0
 10
8.1941135822
 20
4.3284466451
 30
0.0
 10
8.2062167365
 20
4.3130686223
 30
0.0
 10
8.2217228831
 20
4.2920492135
 30
0.0
 10
8.2398849525
 20
4.2648640171
 30
0.0
 10
8.2596309774
 20
4.2309473633
 30
0.0
 10
8.2743154138
 20
4.201710278
 30
0.0
 10
8.2849537669
 20
4.177813418
 30
0.0
 10
8.2923668117
 20
4.1596559187
 30
0.0
 10
8.2992021122
 20
4.1412823925
 30
0.0
 10
8.3054507479
 20
4.1227120663
 30
0.0
 10
8.3111120188
 20
4.1039667127
 30
0.0
 10
8.3178712613
 20
4.0787812265
 30
0.0
 10
8.3248455129
 20
4.0469701372
 30
0.0
 10
8.3308427044
 20
4.0084258364
 30
0.0
 10
8.3344531946
 20
3.9696939517
 30
0.0
 10
8.335261984
 20
3.9438078122
 30
0.0
 10
8.335261984
 20
3.9308900537
 30
0.0
 11
8.050261984
 21
4.4580120518
 31
0.0
 11
8.0818937176
 21
4.4358711937
 31
0.0
 11
8.1122317714
 21
4.4117488025
 31
0.0
 11
8.141130756
 21
4.3857342913
 31
0.0
 11
8.1549951632
 21
4.3720454322
 31
0.0
 11
8.1684452822
 21
4.3579170729
 31
0.0
 11
8.1814629392
 21
4.3433603901
 31
0.0
 11
8.1940301444
 21
4.3283867574
 31
0.0
 11
8.2061324115
 21
4.3130113019
 31
0.0
 11
8.2177583956
 21
4.2972525167
 31
0.0
 11
8.2395365821
 21
4.2646594078
 31
0.0
 11
8.2592748376
 21
4.2307563316
 31
0.0
 11
8.276883296
 21
4.1956921886
 31
0.0
 11
8.284860768
 21
4.1777712486
 31
0.0
 11
8.2922720909
 21
4.1596158796
 31
0.0
 11
8.2991060634
 21
4.1412447033
 31
0.0
 11
8.3053546571
 21
4.1226772356
 31
0.0
 11
8.3110156646
 21
4.1039346336
 31
0.0
 11
8.3160875018
 21
4.0850382299
 31
0.0
 11
8.3244573292
 21
4.0468693477
 31
0.0
 11
8.3304514669
 21
4.0083412502
 31
0.0
 11
8.3340572427
 21
3.9696245985
 31
0.0
 11
8.335261984
 21
3.9308900537
 31
0.0
  0
LINE
  5
27F
100
AcDbEntity
  8
0
100
AcDbLine
 62
6
  6
CONTINUOUS
 10
7.7443088508
 20
4.5654602644
 11
7.7451907771
 21
4.5652752972
  0
SPLINE
  5
280
100
AcDbEntity
  8
0
100
AcDbSpline
 62
6
  6
CONTINUOUS
 70
0
 71
3
 72
19
 73
15
 74
13
 42
0.0000001
 43
0.0000001
 44
0.0000000001
 12
0.0
 22
-0.538355165
 32
0.0
 13
-0.4061659492
 23
-0.3533489853
 33
0.0
 40
0.0
 40
0.0
 40
0.0
 40
0.0
 40
0.0625128696
 40
0.1250268927
 40
0.187543604
 40
0.2500614185
 40
0.3750436055
 40
0.5
 40
0.6249563945
 40
0.7499385815
 40
0.812456396
 40
0.8749731073
 40
0.9374871304
 40
1.0
 40
1.0
 40
1.0
 40
1.0
 10
8.335261984
 20
3.9308900537
 30
0.0
 10
8.335261984
 20
3.9196720117
 30
0.0
 10
8.3346532572
 20
3.8972310276
 30
0.0
 10
8.3319347024
 20
3.8636708966
 30
0.0
 10
8.3274311627
 20
3.8303006697
 30
0.0
 10
8.3190773246
 20
3.7862018725
 30
0.0
 10
8.3042720485
 20
3.7320024559
 30
0.0
 10
8.2796950971
 20
3.6692391793
 30
0.0
 10
8.2484739516
 20
3.6095022938
 30
0.0
 10
8.2173002408
 20
3.562758602
 30
0.0
 10
8.1895126192
 20
3.5275117779
 30
0.0
 10
8.1672921048
 20
3.5022115279
 30
0.0
 10
8.1437567424
 20
3.4781333292
 30
0.0
 10
8.127225517
 20
3.4629449488
 30
0.0
 10
8.118761984
 20
3.4555819957
 30
0.0
 11
8.335261984
 21
3.9308900537
 31
0.0
 11
8.3343523655
 21
3.8972482226
 31
0.0
 11
8.3316372725
 21
3.863703174
 31
0.0
 11
8.327137349
 21
3.8303491621
 31
0.0
 11
8.3208732387
 21
3.7972804409
 31
0.0
 11
8.3031350334
 21
3.7323758865
 31
0.0
 11
8.2785878076
 21
3.6697435431
 31
0.0
 11
8.2474459352
 21
3.6101150222
 31
0.0
 11
8.2101206815
 21
3.5541322521
 31
0.0
 11
8.1892831893
 21
3.5277016199
 31
0.0
 11
8.167072535
 21
3.5024147407
 31
0.0
 11
8.1435462795
 21
3.4783490532
 31
0.0
 11
8.118761984
 21
3.4555819957
 31
0.0
  0
SPLINE
  5
281
100
AcDbEntity
  8
0
100
AcDbSpline
 62
9
  6
CONTINUOUS
 70
0
 71
3
 72
57
 73
53
 74
51
 42
0.0000001
 43
0.0000001
 44
0.0000000001
 12
-0.0515265074
 22
-0.2350893633
 32
0.0
 13
-0.1947060201
 23
0.1414622044
 33
0.0
 40
0.0
 40
0.0
 40
0.0
 40
0.0
 40
0.1090597866
 40
0.211924506
 40
0.2611075004
 40
0.3088228981
 40
0.3999062608
 40
0.4852746252
 40
0.5649873956
 40
0.6389836066
 40
0.6738069384
 40
0.7071624474
 40
0.7390303727
 40
0.7693737264
 40
0.7981520953
 40
0.8253246298
 40
0.8508500627
 40
0.8746865506
 40
0.8967743284
 40
0.9170210738
 40
0.9353306279
 40
0.9437288214
 40
0.9516064939
 40
0.9589515286
 40
0.9657517898
 40
0.9719947208
 40
0.9776634691
 40
0.9827385789
 40
0.9872005326
 40
0.9891954704
 40
0.9910297887
 40
0.9927010409
 40
0.9942067792
 40
0.9955445543
 40
0.9967119154
 40
0.9977064109
 40
0.9981380674
 40
0.9985255875
 40
0.9988686642
 40
0.9991669908
 40
0.9994202602
 40
0.9996281653
 40
0.9997150103
 40
0.9997903991
 40
0.9998542932
 40
0.9999066543
 40
0.999947444
 40
0.9999766237
 40
0.9999868479
 40
0.9999941552
 40
0.9999985408
 40
1.0
 40
1.0
 40
1.0
 40
1.0
 10
6.3997032734
 20
3.930502245
 30
0.0
 10
6.3978301168
 20
3.9219559798
 30
0.0
 10
6.394403323
 20
3.905301369
 30
0.0
 10
6.3906992951
 20
3.8846824123
 30
0.0
 10
6.3881477177
 20
3.8688608761
 30
0.0
 10
6.3859140076
 20
3.8539464372
 30
0.0
 10
6.3835388676
 20
3.8361190396
 30
0.0
 10
6.3812456553
 20
3.8156957284
 30
0.0
 10
6.3794651202
 20
3.7965979133
 30
0.0
 10
6.3783358758
 20
3.7815145507
 30
0.0
 10
6.377638579
 20
3.7701300123
 30
0.0
 10
6.3772176753
 20
3.7621148711
 30
0.0
 10
6.3768810613
 20
3.7544554916
 30
0.0
 10
6.3766215861
 20
3.7471605319
 30
0.0
 10
6.3764322114
 20
3.7402402372
 30
0.0
 10
6.3763059086
 20
3.7337050887
 30
0.0
 10
6.3762356332
 20
3.7275655824
 30
0.0
 10
6.3762144041
 20
3.7218336354
 30
0.0
 10
6.3762349635
 20
3.7165251692
 30
0.0
 10
6.3762894736
 20
3.7116603658
 30
0.0
 10
6.3763585911
 20
3.7078941212
 30
0.0
 10
6.3764245581
 20
3.7051203444
 30
0.0
 10
6.3764762648
 20
3.7032260995
 30
0.0
 10
6.3765306749
 20
3.7014601789
 30
0.0
 10
6.3765868089
 20
3.6998255283
 30
0.0
 10
6.3766437132
 20
3.6983254705
 30
0.0
 10
6.3767001844
 20
3.6969639022
 30
0.0
 10
6.3767549005
 20
3.6957452674
 30
0.0
 10
6.3767994629
 20
3.6948212043
 30
0.0
 10
6.3768331695
 20
3.6941569105
 30
0.0
 10
6.3768562334
 20
3.6937162446
 30
0.0
 10
6.3768778761
 20
3.6933148037
 30
0.0
 10
6.3768979335
 20
3.69295317
 30
0.0
 10
6.3769162415
 20
3.6926319256
 30
0.0
 10
6.3769326362
 20
3.6923516526
 30
0.0
 10
6.3769450919
 20
3.6921439656
 30
0.0
 10
6.3769539679
 20
3.6919987378
 30
0.0
 10
6.3769597231
 20
3.6919056758
 30
0.0
 10
6.3769648769
 20
3.6918232932
 30
0.0
 10
6.3769694088
 20
3.6917516628
 30
0.0
 10
6.3769732982
 20
3.6916908576
 30
0.0
 10
6.376976135
 20
3.6916469846
 30
0.0
 10
6.3769780658
 20
3.6916173548
 30
0.0
 10
6.3769792531
 20
3.6915992503
 30
0.0
 10
6.3769802589
 20
3.6915839168
 30
0.0
 10
6.3769811017
 20
3.6915713246
 30
0.0
 10
6.3769817226
 20
3.6915615863
 30
0.0
 10
6.3769822115
 20
3.6915550553
 30
0.0
 10
6.3769823786
 20
3.6915514668
 30
0.0
 10
6.376982631
 20
3.6915494648
 30
0.0
 10
6.3769824617
 20
3.6915488494
 30
0.0
 10
6.3769827398
 20
3.6915479289
 30
0.0
 10
6.3769826451
 20
3.6915479977
 30
0.0
 11
6.3997032734
 21
3.930502245
 31
0.0
 11
6.3944145019
 21
3.9047931963
 31
0.0
 11
6.3900360945
 21
3.880427014
 31
0.0
 11
6.3881512006
 21
3.868741187
 31
0.0
 11
6.3864504455
 21
3.8573841692
 31
0.0
 11
6.383555577
 21
3.8356551349
 31
0.0
 11
6.3812614478
 21
3.8152380246
 31
0.0
 11
6.3794828122
 21
3.7961361906
 31
0.0
 11
6.3781558455
 21
3.7783770382
 31
0.0
 11
6.3776437848
 21
3.7700117688
 31
0.0
 11
6.377223098
 21
3.7619951332
 31
0.0
 11
6.3768866383
 21
3.7543328671
 31
0.0
 11
6.3766273577
 21
3.7470347402
 31
0.0
 11
6.376438225
 21
3.7401112365
 31
0.0
 11
6.3763122096
 21
3.7335728402
 31
0.0
 11
6.3762422805
 21
3.7274300354
 31
0.0
 11
6.3762214045
 21
3.7216933488
 31
0.0
 11
6.3762423134
 21
3.7163775272
 31
0.0
 11
6.3762973087
 21
3.7115050558
 31
0.0
 11
6.3763786454
 21
3.7070992484
 31
0.0
 11
6.3764267715
 21
3.7050786293
 31
0.0
 11
6.3764785787
 21
3.7031834187
 31
0.0
 11
6.3765330988
 21
3.7014165311
 31
0.0
 11
6.3765893638
 21
3.6997808805
 31
0.0
 11
6.3766463865
 21
3.6982794775
 31
0.0
 11
6.3767029773
 21
3.6969163548
 31
0.0
 11
6.3767578249
 21
3.6956961608
 31
0.0
 11
6.3768096161
 21
3.6946235526
 31
0.0
 11
6.3768339552
 21
3.6941440485
 31
0.0
 11
6.3768570378
 21
3.6937031872
 31
0.0
 11
6.3768786998
 21
3.6933015509
 31
0.0
 11
6.3768987769
 21
3.6929397216
 31
0.0
 11
6.3769171052
 21
3.6926182816
 31
0.0
 11
6.3769335203
 21
3.6923378128
 31
0.0
 11
6.3769478583
 21
3.6920988976
 31
0.0
 11
6.376954197
 21
3.6919952044
 31
0.0
 11
6.3769599549
 21
3.6919021179
 31
0.0
 11
6.3769651114
 21
3.6918197109
 31
0.0
 11
6.376969646
 21
3.691748056
 31
0.0
 11
6.3769735382
 21
3.6916872261
 31
0.0
 11
6.3769767675
 21
3.6916372939
 31
0.0
 11
6.3769781272
 21
3.6916164372
 31
0.0
 11
6.3769793134
 21
3.6915983322
 31
0.0
 11
6.3769803236
 21
3.691582988
 31
0.0
 11
6.3769811552
 21
3.6915704137
 31
0.0
 11
6.3769818058
 21
3.6915606185
 31
0.0
 11
6.3769822727
 21
3.6915536113
 31
0.0
 11
6.3769824364
 21
3.6915511561
 31
0.0
 11
6.3769825533
 21
3.6915494014
 31
0.0
 11
6.3769826229
 21
3.6915483482
 31
0.0
 11
6.3769826451
 21
3.6915479977
 31
0.0
  0
SPLINE
  5
282
100
AcDbEntity
  8
0
100
AcDbSpline
 62
9
  6
CONTINUOUS
 70
0
 71
3
 72
27
 73
23
 74
21
 42
0.0000001
 43
0.0000001
 44
0.0000000001
 12
0.2459955619
 22
-0.4102860234
 32
0.0
 13
0.2136659276
 23
-0.4280135758
 33
0.0
 40
0.0
 40
0.0
 40
0.0
 40
0.0
 40
0.0901789551
 40
0.1808155916
 40
0.2710092843
 40
0.3598593303
 40
0.4464621775
 40
0.5299028453
 40
0.6092634328
 40
0.6836260597
 40
0.7520913307
 40
0.8138331242
 40
0.8680432024
 40
0.8920711927
 40
0.9139130076
 40
0.9506679993
 40
0.9654261399
 40
0.9776706971
 40
0.9873260719
 40
0.9943165894
 40
0.9985665035
 40
1.0
 40
1.0
 40
1.0
 40
1.0
 10
3.5488748851
 20
5.2994232414
 30
0.0
 10
3.556269426
 20
5.2870901865
 30
0.0
 10
3.5710434616
 20
5.262329924
 30
0.0
 10
3.5930388232
 20
5.2251308688
 30
0.0
 10
3.6147826366
 20
5.1880296276
 30
0.0
 10
3.636059253
 20
5.151400502
 30
0.0
 10
3.6566518709
 20
5.1156197714
 30
0.0
 10
3.6763514011
 20
5.0810713217
 30
0.0
 10
3.6949477268
 20
5.0481410281
 30
0.0
 10
3.7122323933
 20
5.0172128401
 30
0.0
 10
3.7280032122
 20
4.9886575579
 30
0.0
 10
3.7420926519
 20
4.9628451739
 30
0.0
 10
3.7526885975
 20
4.9431990885
 30
0.0
 10
3.7602044204
 20
4.9291208943
 30
0.0
 10
3.7663749543
 20
4.9174797819
 30
0.0
 10
3.7718055299
 20
4.9071194853
 30
0.0
 10
3.7764808445
 20
4.8980914176
 30
0.0
 10
3.7791532757
 20
4.8928925532
 30
0.0
 10
3.7812475834
 20
4.888789226
 30
0.0
 10
3.7827538436
 20
4.8858170591
 30
0.0
 10
3.7836629799
 20
4.8840120985
 30
0.0
 10
3.7840684316
 20
4.883201574
 30
0.0
 10
3.7841705281
 20
4.8829970553
 30
0.0
 11
3.5488748851
 21
5.2994232414
 31
0.0
 11
3.5709814713
 21
5.2623779966
 31
0.0
 11
3.593050567
 21
5.2250558195
 31
0.0
 11
3.6148666919
 21
5.1878306082
 31
0.0
 11
3.6362143655
 21
5.1510762606
 31
0.0
 11
3.6568789374
 21
5.1151687278
 31
0.0
 11
3.6766490771
 21
5.0804921743
 31
0.0
 11
3.695314284
 21
5.0474328179
 31
0.0
 11
3.7126640573
 21
5.0163768761
 31
0.0
 11
3.7284966015
 21
4.9877053559
 31
0.0
 11
3.7426449413
 21
4.9617784211
 31
0.0
 11
3.7549508064
 21
4.9389510243
 31
0.0
 11
3.7603633515
 21
4.9288105755
 31
0.0
 11
3.7652559266
 21
4.9195781186
 31
0.0
 11
3.7734155779
 21
4.9040031973
 31
0.0
 11
3.7766617131
 21
4.8977337143
 31
0.0
 11
3.7793392227
 21
4.8925239157
 31
0.0
 11
3.781438483
 21
4.888409576
 31
0.0
 11
3.7829498699
 21
4.8854264697
 31
0.0
 11
3.7838637595
 21
4.8836103713
 31
0.0
 11
3.7841705281
 21
4.8829970553
 31
0.0
  0
SPLINE
  5
283
100
AcDbEntity
  8
0
100
AcDbSpline
 62
9
  6
CONTINUOUS
 70
0
 71
3
 72
22
 73
18
 74
16
 42
0.0000001
 43
0.0000001
 44
0.0000000001
 12
-0.0295263133
 22
-0.3311186071
 32
0.0
 13
-0.0133296565
 23
-0.3321653813
 33
0.0
 40
0.0
 40
0.0
 40
0.0
 40
0.0
 40
0.1920360353
 40
0.3755080123
 40
0.4624424148
 40
0.5452803338
 40
0.6233305336
 40
0.6959016716
 40
0.762307168
 40
0.8218796716
 40
0.8739564827
 40
0.917874743
 40
0.952991807
 40
0.9787461396
 40
0.9879430583
 40
0.9945961775
 40
1.0
 40
1.0
 40
1.0
 40
1.0
 10
4.447033956
 20
5.3364726209
 30
0.0
 10
4.4451439172
 20
5.3152770527
 30
0.0
 10
4.4416007707
 20
5.2738174328
 30
0.0
 10
4.4375640568
 20
5.2227327392
 30
0.0
 10
4.434653454
 20
5.1836977667
 30
0.0
 10
4.4326889704
 20
5.1563066687
 30
0.0
 10
4.4309105718
 20
5.1304980239
 30
0.0
 10
4.4293255415
 20
5.1065013585
 30
0.0
 10
4.4279412038
 20
5.0845435284
 30
0.0
 10
4.42675744
 20
5.0648486439
 30
0.0
 10
4.4257738015
 20
5.0476381355
 30
0.0
 10
4.4249891155
 20
5.0331306707
 30
0.0
 10
4.4244026441
 20
5.0215336403
 30
0.0
 10
4.4240361564
 20
5.0137779513
 30
0.0
 10
4.4238306809
 20
5.0091723168
 30
0.0
 10
4.4237291722
 20
5.0068193464
 30
0.0
 10
4.4236741021
 20
5.005484442
 30
0.0
 10
4.4236500917
 20
5.0048861211
 30
0.0
 11
4.447033956
 21
5.3364726209
 31
0.0
 11
4.4415893466
 21
5.2728662105
 31
0.0
 11
4.4367823034
 21
5.2120638983
 31
0.0
 11
4.4346336186
 21
5.1832440691
 31
0.0
 11
4.4326642138
 21
5.1557765687
 31
0.0
 11
4.4308815428
 21
5.1298914618
 31
0.0
 11
4.4292930593
 21
5.1058188132
 31
0.0
 11
4.427904902
 21
5.08378716
 31
0.0
 11
4.4267179498
 21
5.0640189288
 31
0.0
 11
4.4257317663
 21
5.0467350187
 31
0.0
 11
4.4249459153
 21
5.0321563287
 31
0.0
 11
4.4243576635
 21
5.0204971074
 31
0.0
 11
4.4239550885
 21
5.0119450014
 31
0.0
 11
4.4238189863
 21
5.0088906781
 31
0.0
 11
4.423723971
 21
5.0066810072
 31
0.0
 11
4.4236500917
 21
5.0048861211
 31
0.0
  0
SPLINE
  5
284
100
AcDbEntity
  8
0
100
AcDbSpline
 62
9
  6
CONTINUOUS
 70
0
 71
3
 72
31
 73
27
 74
25
 42
0.0000001
 43
0.0000001
 44
0.0000000001
 12
-0.5639115912
 22
-0.4700033915
 32
0.0
 13
-0.352424411
 23
-0.6439693357
 33
0.0
 40
0.0
 40
0.0
 40
0.0
 40
0.0
 40
0.042003886
 40
0.0896981215
 40
0.1424229018
 40
0.1995219872
 40
0.260343626
 40
0.2919484299
 40
0.3242420954
 40
0.3905778164
 40
0.4587205728
 40
0.5280476154
 40
0.5629638862
 40
0.5979474696
 40
0.6329238238
 40
0.6678198505
 40
0.7025713904
 40
0.7371222948
 40
0.7714176458
 40
0.8054036444
 40
0.8390277767
 40
0.8722390078
 40
0.9049880104
 40
0.9372274338
 40
0.9689122235
 40
1.0
 40
1.0
 40
1.0
 40
1.0
 10
6.9821005828
 20
4.731285675
 30
0.0
 10
6.9742050901
 20
4.7247050187
 30
0.0
 10
6.9574183077
 20
4.7105634285
 30
0.0
 10
6.9310015193
 20
4.6878307125
 30
0.0
 10
6.9020740185
 20
4.6623561155
 30
0.0
 10
6.8710832409
 20
4.6343686075
 30
0.0
 10
6.8442675666
 20
4.6094735951
 30
0.0
 10
6.8221365906
 20
4.5884583303
 30
0.0
 10
6.7992039834
 20
4.5663292406
 30
0.0
 10
6.7701946597
 20
4.5376235605
 30
0.0
 10
6.735382945
 20
4.5019087614
 30
0.0
 10
6.706544572
 20
4.4711187426
 30
0.0
 10
6.6836717744
 20
4.4458688643
 30
0.0
 10
6.6666680089
 20
4.4266464387
 30
0.0
 10
6.6499098829
 20
4.4072159526
 30
0.0
 10
6.6334501639
 20
4.3876059871
 30
0.0
 10
6.6173352594
 20
4.3678457541
 30
0.0
 10
6.6016055434
 20
4.3479645305
 30
0.0
 10
6.5863009668
 20
4.3279895692
 30
0.0
 10
6.5714612317
 20
4.3079482346
 30
0.0
 10
6.5571260834
 20
4.2878678382
 30
0.0
 10
6.5433352397
 20
4.2677756852
 30
0.0
 10
6.53012842
 20
4.247699079
 30
0.0
 10
6.5175452936
 20
4.2276652365
 30
0.0
 10
6.5056256524
 20
4.2077015873
 30
0.0
 10
6.4980727595
 20
4.1943241588
 30
0.0
 10
6.4944207291
 20
4.1876509672
 30
0.0
 11
6.9821005828
 21
4.731285675
 31
0.0
 11
6.9585160163
 21
4.7114220699
 31
0.0
 11
6.9319761759
 21
4.6885858462
 31
0.0
 11
6.9029288879
 21
4.6630057169
 31
0.0
 11
6.8718220706
 21
4.6349104707
 31
0.0
 11
6.8391036427
 21
4.6045288963
 31
0.0
 11
6.822280049
 21
4.5885522328
 31
0.0
 11
6.805221007
 21
4.5720902459
 31
0.0
 11
6.7706116473
 21
4.537832685
 31
0.0
 11
6.7357040966
 21
4.5020024226
 31
0.0
 11
6.700926567
 21
4.4648459562
 31
0.0
 11
6.6837203763
 21
4.4458474268
 31
0.0
 11
6.6667072704
 21
4.426609783
 31
0.0
 11
6.6499407758
 21
4.4071638368
 31
0.0
 11
6.6334740606
 21
4.3875403103
 31
0.0
 11
6.6173533958
 21
4.3677681927
 31
0.0
 11
6.6016188289
 21
4.3478749092
 31
0.0
 11
6.5863101842
 21
4.3278878289
 31
0.0
 11
6.5714672858
 21
4.3078343211
 31
0.0
 11
6.5571299581
 21
4.2877417547
 31
0.0
 11
6.5433380253
 21
4.2676374991
 31
0.0
 11
6.5301313118
 21
4.2475489234
 31
0.0
 11
6.5175496417
 21
4.2275033968
 31
0.0
 11
6.5056328394
 21
4.2075282883
 31
0.0
 11
6.4944207291
 21
4.1876509672
 31
0.0
  0
LINE
  5
285
100
AcDbEntity
  8
0
100
AcDbLine
 62
6
  6
CONTINUOUS
 10
3.4243515478
 20
4.4392013544
 11
2.9404238444
 21
4.6153383823
  0
SPLINE
  5
286
100
AcDbEntity
  8
0
100
AcDbSpline
 62
9
  6
CONTINUOUS
 70
0
 71
3
 72
24
 73
20
 74
18
 42
0.0000001
 43
0.0000001
 44
0.0000000001
 12
-0.0382607206
 22
-0.312112757
 32
0.0
 13
-0.010973635
 23
-0.314257793
 33
0.0
 40
0.0
 40
0.0
 40
0.0
 40
0.0
 40
0.1971698769
 40
0.3830082466
 40
0.4702995218
 40
0.5530525784
 40
0.6306566883
 40
0.7025007042
 40
0.7679776437
 40
0.7981440264
 40
0.8264981106
 40
0.8774764593
 40
0.9203266712
 40
0.9544825032
 40
0.9794580034
 40
0.9883573152
 40
0.9947864272
 40
0.9986868407
 40
1.0
 40
1.0
 40
1.0
 40
1.0
 10
4.5056385347
 20
5.3061058803
 30
0.0
 10
4.5031239142
 20
5.2855928024
 30
0.0
 10
4.4984988097
 20
5.2457133483
 30
0.0
 10
4.4933876791
 20
5.1966829371
 30
0.0
 10
4.4898192525
 20
5.1595515319
 30
0.0
 10
4.4874684314
 20
5.1337004722
 30
0.0
 10
4.4853864655
 20
5.1094510943
 30
0.0
 10
4.4835733052
 20
5.0869964139
 30
0.0
 10
4.4822525162
 20
5.0694906648
 30
0.0
 10
4.4813263521
 20
5.0565267341
 30
0.0
 10
4.4805381243
 20
5.0450765532
 30
0.0
 10
4.4797064842
 20
5.0322967812
 30
0.0
 10
4.4789066089
 20
5.0189057147
 30
0.0
 10
4.4783333217
 20
5.0082317007
 30
0.0
 10
4.4779916041
 20
5.0011091255
 30
0.0
 10
4.4778081857
 20
4.9968885925
 30
0.0
 10
4.4777261825
 20
4.9948747626
 30
0.0
 10
4.4776794018
 20
4.9936553135
 30
0.0
 10
4.4776598994
 20
4.9931091938
 30
0.0
 10
4.477655096
 20
4.9929716369
 30
0.0
 11
4.5056385347
 21
5.3061058803
 31
0.0
 11
4.4984845784
 21
5.2445201023
 31
0.0
 11
4.4924230078
 21
5.1863986184
 31
0.0
 11
4.4897976946
 21
5.1590757896
 31
0.0
 11
4.4874420328
 21
5.1331610078
 31
0.0
 11
4.4853561758
 21
5.1088477728
 31
0.0
 11
4.483540277
 21
5.0863295841
 31
0.0
 11
4.4819927384
 21
5.0657986584
 31
0.0
 11
4.4813170254
 21
5.0563369631
 31
0.0
 11
4.4807049574
 21
5.0474420797
 31
0.0
 11
4.4796665801
 21
5.031445649
 31
0.0
 11
4.4788672523
 21
5.0179951672
 31
0.0
 11
4.4782935224
 21
5.0072702304
 31
0.0
 11
4.477919547
 21
4.9994256152
 31
0.0
 11
4.4777984233
 21
4.9966298569
 31
0.0
 11
4.4777163853
 21
4.9946098935
 31
0.0
 11
4.4776698154
 21
4.9933842963
 31
0.0
 11
4.477655096
 21
4.9929716369
 31
0.0
  0
SPLINE
  5
287
100
AcDbEntity
  8
0
100
AcDbSpline
 62
9
  6
CONTINUOUS
 70
0
 71
3
 72
28
 73
24
 74
22
 42
0.0000001
 43
0.0000001
 44
0.0000000001
 12
-0.0774259563
 22
-0.2646999527
 32
0.0
 13
-0.0034135523
 23
-0.2757726658
 33
0.0
 40
0.0
 40
0.0
 40
0.0
 40
0.0
 40
0.1128693104
 40
0.2199413294
 40
0.3210635763
 40
0.4160784363
 40
0.5048126312
 40
0.5870454711
 40
0.6625419261
 40
0.7310638084
 40
0.792371867
 40
0.8462297805
 40
0.8923975522
 40
0.9125214708
 40
0.9306306108
 40
0.9466954541
 40
0.9606931536
 40
0.9726019284
 40
0.9823992771
 40
0.9900619924
 40
0.9955661765
 40
0.9988872566
 40
1.0
 40
1.0
 40
1.0
 40
1.0
 10
4.8362897382
 20
5.1201536605
 30
0.0
 10
4.8333767335
 20
5.1101948268
 30
0.0
 10
4.8278484767
 20
5.0907449521
 30
0.0
 10
4.8202167392
 20
5.0622320336
 30
0.0
 10
4.8134185525
 20
5.0351984921
 30
0.0
 10
4.8074123616
 20
5.0097072134
 30
0.0
 10
4.8021573495
 20
4.985825824
 30
0.0
 10
4.7976187397
 20
4.9636266799
 30
0.0
 10
4.7937631699
 20
4.9431869476
 30
0.0
 10
4.7905570077
 20
4.9245846425
 30
0.0
 10
4.7879672915
 20
4.9078970743
 30
0.0
 10
4.7859406925
 20
4.8932040137
 30
0.0
 10
4.7846207996
 20
4.8822370858
 30
0.0
 10
4.7838053279
 20
4.8745209472
 30
0.0
 10
4.78332934
 20
4.8695519742
 30
0.0
 10
4.7829535151
 20
4.8651394237
 30
0.0
 10
4.7826662772
 20
4.8612916194
 30
0.0
 10
4.7824556792
 20
4.8580160558
 30
0.0
 10
4.7823099249
 20
4.8553200586
 30
0.0
 10
4.7822169119
 20
4.8532109561
 30
0.0
 10
4.7821652996
 20
4.8516960707
 30
0.0
 10
4.7821421704
 20
4.8507827369
 30
0.0
 10
4.7821359144
 20
4.8503751812
 30
0.0
 10
4.7821346483
 20
4.8502728931
 30
0.0
 11
4.8362897382
 21
5.1201536605
 31
0.0
 11
4.8277818229
 21
5.09021053
 31
0.0
 11
4.8201496175
 21
5.0616843545
 31
0.0
 11
4.8133513206
 21
5.0346370034
 31
0.0
 11
4.8073451304
 21
5.0091303462
 31
0.0
 11
4.8020907111
 21
4.9852289717
 31
0.0
 11
4.7975535892
 21
4.9630083461
 31
0.0
 11
4.7937007572
 21
4.9425466552
 31
0.0
 11
4.7904992075
 21
4.9239220845
 31
0.0
 11
4.7879124168
 21
4.9072129033
 31
0.0
 11
4.7858897989
 21
4.8924977141
 31
0.0
 11
4.784377252
 21
4.879855203
 31
0.0
 11
4.7837953484
 21
4.8743357911
 31
0.0
 11
4.7833206743
 21
4.869364056
 31
0.0
 11
4.7829456128
 21
4.8649494156
 31
0.0
 11
4.78265913
 21
4.8610996164
 31
0.0
 11
4.7824493377
 21
4.8578219871
 31
0.0
 11
4.7823043477
 21
4.8551238564
 31
0.0
 11
4.782212272
 21
4.853012553
 31
0.0
 11
4.7821612223
 21
4.8514954055
 31
0.0
 11
4.7821393104
 21
4.8505797426
 31
0.0
 11
4.7821346483
 21
4.8502728931
 31
0.0
  0
SPLINE
  5
288
100
AcDbEntity
  8
0
100
AcDbSpline
 62
9
  6
CONTINUOUS
 70
0
 71
3
 72
28
 73
24
 74
22
 42
0.0000001
 43
0.0000001
 44
0.0000000001
 12
0.2432399538
 22
0.6430010841
 32
0.0
 13
0.4606557228
 23
0.5103061574
 33
0.0
 40
0.0
 40
0.0
 40
0.0
 40
0.0
 40
0.0341623241
 40
0.0686455407
 40
0.1033844074
 40
0.138310957
 40
0.1733548659
 40
0.2084437655
 40
0.2435035082
 40
0.2784664495
 40
0.3479595809
 40
0.4166727205
 40
0.484345961
 40
0.5507156374
 40
0.6155453893
 40
0.6785675579
 40
0.7092956188
 40
0.7394438751
 40
0.7978434198
 40
0.8534548811
 40
0.9059637816
 40
0.955002273
 40
1.0
 40
1.0
 40
1.0
 40
1.0
 10
6.6265639068
 20
4.1196700127
 30
0.0
 10
6.6293337875
 20
4.1269921499
 30
0.0
 10
6.6350750561
 20
4.1416393729
 30
0.0
 10
6.6442048894
 20
4.1635026
 30
0.0
 10
6.6538518734
 20
4.1853341309
 30
0.0
 10
6.6639694685
 20
4.2070931161
 30
0.0
 10
6.6745112069
 20
4.2287388988
 30
0.0
 10
6.6854305923
 20
4.2502307248
 30
0.0
 10
6.6966819761
 20
4.2715295528
 30
0.0
 10
6.7120401377
 20
4.2995712351
 30
0.0
 10
6.7318482871
 20
4.3339631995
 30
0.0
 10
6.7564528586
 20
4.3742234197
 30
0.0
 10
6.7816117487
 20
4.4132900119
 30
0.0
 10
6.8070991127
 20
4.4510734858
 30
0.0
 10
6.8327275908
 20
4.4874647406
 30
0.0
 10
6.8542116622
 20
4.5167762678
 30
0.0
 10
6.8712973101
 20
4.5394525492
 30
0.0
 10
6.8879288173
 20
4.5611434438
 30
0.0
 10
6.9083491206
 20
4.5871132661
 30
0.0
 10
6.93240734
 20
4.6167348689
 30
0.0
 10
6.9555390933
 20
4.6443398641
 30
0.0
 10
6.9774941001
 20
4.6697523532
 30
0.0
 10
6.9918148977
 20
4.685855556
 30
0.0
 10
6.9987243846
 20
4.6935097617
 30
0.0
 11
6.6265639068
 21
4.1196700127
 31
0.0
 11
6.6351276673
 21
4.1415386064
 31
0.0
 11
6.6442564788
 21
4.1634166523
 31
0.0
 11
6.6539037527
 21
4.1852633435
 31
0.0
 11
6.6640229001
 21
4.2070378727
 31
0.0
 11
6.6745673322
 21
4.2286994329
 31
0.0
 11
6.6854904601
 21
4.2502072169
 31
0.0
 11
6.6967456951
 21
4.2715204178
 31
0.0
 11
6.7082893605
 21
4.2926029487
 31
0.0
 11
6.7321165352
 21
4.3340115022
 31
0.0
 11
6.7567355149
 21
4.3743272623
 31
0.0
 11
6.781912715
 21
4.4134492898
 31
0.0
 11
6.8074239037
 21
4.4512781388
 31
0.0
 11
6.8330819222
 21
4.4877201835
 31
0.0
 11
6.8586894307
 21
4.5226685604
 31
0.0
 11
6.871401104
 21
4.5395405474
 31
0.0
 11
6.8840122559
 21
4.5559882766
 31
0.0
 11
6.9088285782
 21
4.5875479103
 31
0.0
 11
6.9329331187
 21
4.6172228145
 31
0.0
 11
6.9561213099
 21
4.6448886338
 31
0.0
 11
6.9781627146
 21
4.6703976742
 31
0.0
 11
6.9987243846
 21
4.6935097617
 31
0.0
  0
SPLINE
  5
289
100
AcDbEntity
  8
0
100
AcDbSpline
 62
9
  6
CONTINUOUS
 70
0
 71
3
 72
17
 73
13
 74
11
 42
0.0000001
 43
0.0000001
 44
0.0000000001
 12
-0.1346041033
 22
0.0630372229
 32
0.0
 13
-0.1302957858
 23
0.0715189787
 33
0.0
 40
0.0
 40
0.0
 40
0.0
 40
0.0
 40
0.1246133106
 40
0.2493475442
 40
0.3741962274
 40
0.4991541992
 40
0.5616737328
 40
0.624219971
 40
0.6867927808
 40
0.7493914421
 40
0.8746583218
 40
1.0
 40
1.0
 40
1.0
 40
1.0
 10
6.6265639068
 20
4.1196700127
 30
0.0
 10
6.6209727525
 20
4.1222884384
 30
0.0
 10
6.6098119645
 20
4.1275855723
 30
0.0
 10
6.5931425763
 20
4.1357003925
 30
0.0
 10
6.5765351886
 20
4.1439796746
 30
0.0
 10
6.5627507265
 20
4.1510112211
 30
0.0
 10
6.5517562959
 20
4.1567181422
 30
0.0
 10
6.5435255201
 20
4.1610401027
 30
0.0
 10
6.5353123851
 20
4.1654038497
 30
0.0
 10
6.5243813287
 20
4.1712747681
 30
0.0
 10
6.510749741
 20
4.1786897432
 30
0.0
 10
6.4998645999
 20
4.1846628399
 30
0.0
 10
6.494420769
 20
4.1876509428
 30
0.0
 11
6.6265639068
 21
4.1196700127
 31
0.0
 11
6.6098306284
 21
4.127610531
 31
0.0
 11
6.5931605495
 21
4.1357240395
 31
0.0
 11
6.5765528775
 21
4.1440027369
 31
0.0
 11
6.5600084495
 21
4.1524429165
 31
0.0
 11
6.551760861
 21
4.1567240307
 31
0.0
 11
6.5435302021
 21
4.1610461471
 31
0.0
 11
6.5353167972
 21
4.1654093873
 31
0.0
 11
6.5271192615
 21
4.1698104985
 31
0.0
 11
6.5107584909
 21
4.1786979924
 31
0.0
 11
6.494420769
 21
4.1876509428
 31
0.0
  0
LINE
  5
28A
100
AcDbEntity
  8
0
100
AcDbLine
 62
6
  6
CONTINUOUS
 10
2.9404238444
 20
4.6153383823
 11
2.4564684936
 21
4.7914825491
  0
LINE
  5
28B
100
AcDbEntity
  8
0
100
AcDbLine
 62
9
  6
CONTINUOUS
 10
7.7327090217
 20
4.5342301473
 11
7.7330514987
 21
4.5342772141
  0
SPLINE
  5
28C
100
AcDbEntity
  8
0
100
AcDbSpline
 62
9
  6
CONTINUOUS
 70
0
 71
3
 72
18
 73
14
 74
12
 42
0.0000001
 43
0.0000001
 44
0.0000000001
 12
0.0896200051
 22
0.0123284169
 32
0.0
 13
0.0880803691
 23
0.0206304796
 33
0.0
 40
0.0
 40
0.0
 40
0.0
 40
0.0
 40
0.2167762662
 40
0.4115928762
 40
0.5823413381
 40
0.726893177
 40
0.8431025165
 40
0.8899041172
 40
0.9288085644
 40
0.959543654
 40
0.9818364486
 40
0.9954133217
 40
1.0
 40
1.0
 40
1.0
 40
1.0
 10
7.7330514987
 20
4.5342772141
 30
0.0
 10
7.7395273287
 20
4.5351680501
 30
0.0
 10
7.7518107033
 20
4.5369503003
 30
0.0
 10
7.7691516224
 20
4.5397207597
 30
0.0
 10
7.7843081389
 20
4.5423497985
 30
0.0
 10
7.7971004407
 20
4.5447326056
 30
0.0
 10
7.8061981069
 20
4.5465359241
 30
0.0
 10
7.8121601133
 20
4.5477716255
 30
0.0
 10
7.815594494
 20
4.5485023589
 30
0.0
 10
7.8183030615
 20
4.5490929202
 30
0.0
 10
7.8202632609
 20
4.5495305155
 30
0.0
 10
7.8214527609
 20
4.549801399
 30
0.0
 10
7.8219862207
 20
4.5499255495
 30
0.0
 10
7.8221208862
 20
4.5499570913
 30
0.0
 11
7.7330514987
 21
4.5342772141
 31
0.0
 11
7.7524585695
 21
4.537094176
 31
0.0
 11
7.7698614615
 21
4.539876412
 31
0.0
 11
7.7850803502
 21
4.5425188598
 31
0.0
 11
7.7979354111
 21
4.5449164568
 31
0.0
 11
7.8082468197
 21
4.5469641409
 31
0.0
 11
7.8123924592
 21
4.5478239335
 31
0.0
 11
7.8158347514
 21
4.5485568495
 31
0.0
 11
7.8185512183
 21
4.5491497561
 31
0.0
 11
7.8205193817
 21
4.5495895205
 31
0.0
 11
7.8217167637
 21
4.5498630098
 31
0.0
 11
7.8221208862
 21
4.5499570913
 31
0.0
  0
SPLINE
  5
28D
100
AcDbEntity
  8
0
100
AcDbSpline
 62
9
  6
CONTINUOUS
 70
0
 71
3
 72
25
 73
21
 74
19
 42
0.0000001
 43
0.0000001
 44
0.0000000001
 12
0.2290099807
 22
-0.3864252613
 32
0.0
 13
0.2309837666
 23
-0.3852484586
 33
0.0
 40
0.0
 40
0.0
 40
0.0
 40
0.0
 40
0.0013116952
 40
0.005204321
 40
0.0116142173
 40
0.0204777632
 40
0.0453115146
 40
0.0791974931
 40
0.0993763239
 40
0.1216268369
 40
0.1720845869
 40
0.2300539077
 40
0.2950177282
 40
0.3664517589
 40
0.4438032063
 40
0.5265122629
 40
0.6140194148
 40
0.7057522016
 40
0.8010851808
 40
1.0
 40
1.0
 40
1.0
 40
1.0
 10
3.3122665047
 20
5.681231709
 30
0.0
 10
3.3123666351
 20
5.6810627516
 30
0.0
 10
3.3127643588
 20
5.6803926545
 30
0.0
 10
3.3136552495
 20
5.6788992009
 30
0.0
 10
3.3151302828
 20
5.6764375763
 30
0.0
 10
3.3182287805
 20
5.6712934449
 30
0.0
 10
3.3234828455
 20
5.6626451018
 30
0.0
 10
3.3296652582
 20
5.6525785167
 30
0.0
 10
3.3356806169
 20
5.6428633842
 30
0.0
 10
3.343025356
 20
5.6310529932
 30
0.0
 10
3.3533969753
 20
5.6144617536
 30
0.0
 10
3.3671986262
 20
5.5924725559
 30
0.0
 10
3.3826983865
 20
5.5678410445
 30
0.0
 10
3.3997614506
 20
5.5407644406
 30
0.0
 10
3.4182267097
 20
5.5114309151
 30
0.0
 10
3.4379309135
 20
5.4800335751
 30
0.0
 10
3.4587087602
 20
5.4467678873
 30
0.0
 10
3.4803897208
 20
5.4118378364
 30
0.0
 10
3.5106951896
 20
5.3626283802
 30
0.0
 10
3.5335595204
 20
5.3249671173
 30
0.0
 10
3.5488748851
 20
5.2994232414
 30
0.0
 11
3.3122665047
 21
5.681231709
 31
0.0
 11
3.3125672136
 21
5.6807250256
 31
0.0
 11
3.3134625307
 21
5.6792231159
 31
0.0
 11
3.3149422412
 21
5.6767531909
 31
0.0
 11
3.3169961304
 21
5.6733424616
 31
0.0
 11
3.3227855858
 21
5.6638074337
 31
0.0
 11
3.330749179
 21
5.6508357197
 31
0.0
 11
3.335519714
 21
5.6431285992
 31
0.0
 11
3.3407969799
 21
5.6346407391
 31
0.0
 11
3.3528062086
 21
5.6154188399
 31
0.0
 11
3.3666458729
 21
5.593362102
 31
0.0
 11
3.3821849806
 21
5.5686626055
 31
0.0
 11
3.3992869504
 21
5.5415126859
 31
0.0
 11
3.4177928447
 21
5.512105701
 31
0.0
 11
3.4375381367
 21
5.4806352642
 31
0.0
 11
3.4583582998
 21
5.4472949889
 31
0.0
 11
3.4800853347
 21
5.4122834177
 31
0.0
 11
3.5025373519
 21
5.3758188101
 31
0.0
 11
3.5488748851
 21
5.2994232414
 31
0.0
  0
SPLINE
  5
28E
100
AcDbEntity
  8
0
100
AcDbSpline
 62
9
  6
CONTINUOUS
 70
0
 71
3
 72
21
 73
17
 74
15
 42
0.0000001
 43
0.0000001
 44
0.0000000001
 12
0.3705875041
 22
0.8540548507
 32
0.0
 13
0.8050164002
 23
0.4676466417
 33
0.0
 40
0.0
 40
0.0
 40
0.0
 40
0.0
 40
0.0626558652
 40
0.1251926031
 40
0.1876753332
 40
0.250168433
 40
0.3127207594
 40
0.375322216
 40
0.5005529473
 40
0.62571291
 40
0.688227051
 40
0.7506580826
 40
0.8129960108
 40
0.875289592
 40
0.9376027948
 40
1.0
 40
1.0
 40
1.0
 40
1.0
 10
2.9404111635
 20
4.6153430047
 30
0.0
 10
2.9481509904
 20
4.6331801866
 30
0.0
 10
2.9643260731
 20
4.6685173705
 30
0.0
 10
2.9906625719
 20
4.7204803317
 30
0.0
 10
3.0190212474
 20
4.7713111808
 30
0.0
 10
3.0493772501
 20
4.8209800249
 30
0.0
 10
3.0816933654
 20
4.8694418358
 30
0.0
 10
3.1273330764
 20
4.9323481099
 30
0.0
 10
3.1890133019
 20
5.0075242037
 30
0.0
 10
3.2565125729
 20
5.0774845066
 30
0.0
 10
3.3136372627
 20
5.1300532601
 30
0.0
 10
3.3579355545
 20
5.1677015041
 30
0.0
 10
3.4036293245
 20
5.203530905
 30
0.0
 10
3.4506762379
 20
5.2375026221
 30
0.0
 10
3.4990476205
 20
5.2695918912
 30
0.0
 10
3.5321312939
 20
5.2896966269
 30
0.0
 10
3.5488748851
 20
5.2994232414
 30
0.0
 11
2.9404111635
 21
4.6153430047
 31
0.0
 11
2.9646904298
 21
4.6683821132
 31
0.0
 11
2.9910113119
 21
4.7203139382
 31
0.0
 11
3.0193520047
 21
4.771114097
 31
0.0
 11
3.0496907031
 21
4.8207582069
 31
0.0
 11
3.0819994436
 21
4.8692096124
 31
0.0
 11
3.116225642
 21
4.9163825941
 31
0.0
 11
3.1901954702
 21
5.0065013726
 31
0.0
 11
3.2710851828
 21
5.090372855
 31
0.0
 11
3.3139104862
 21
5.1297841157
 31
0.0
 11
3.3581993286
 21
5.1674238837
 31
0.0
 11
3.4038706451
 21
5.2032333246
 31
0.0
 11
3.4508893803
 21
5.2371837774
 31
0.0
 11
3.4992319787
 21
5.2692541227
 31
0.0
 11
3.5488748851
 21
5.2994232414
 31
0.0
  0
SPLINE
  5
28F
100
AcDbEntity
  8
0
100
AcDbSpline
 62
9
  6
CONTINUOUS
 70
0
 71
3
 72
23
 73
19
 74
17
 42
0.0000001
 43
0.0000001
 44
0.0000000001
 12
0.6592110466
 22
0.382946027
 32
0.0
 13
0.7358256206
 23
-0.1994179518
 33
0.0
 40
0.0
 40
0.0
 40
0.0
 40
0.0
 40
0.0630148091
 40
0.1258817956
 40
0.1887424143
 40
0.2517399972
 40
0.3149674589
 40
0.3783107135
 40
0.4416018268
 40
0.5046735929
 40
0.5673977646
 40
0.6297854437
 40
0.6918752093
 40
0.7536982266
 40
0.8152979065
 40
0.8767904902
 40
0.938312232
 40
1.0
 40
1.0
 40
1.0
 40
1.0
 10
3.5488748851
 20
5.2994232414
 30
0.0
 10
3.5627215712
 20
5.3074669984
 30
0.0
 10
3.5907830384
 20
5.3228576255
 30
0.0
 10
3.6339512951
 20
5.3438065464
 30
0.0
 10
3.6781127973
 20
5.3625636183
 30
0.0
 10
3.7232468219
 20
5.3791093056
 30
0.0
 10
3.7692693029
 20
5.3934113887
 30
0.0
 10
3.8160131194
 20
5.4054442808
 30
0.0
 10
3.8632537218
 20
5.4151544726
 30
0.0
 10
3.9107627233
 20
5.4224872186
 30
0.0
 10
3.9583532117
 20
5.4273872239
 30
0.0
 10
4.0058791611
 20
5.4298898309
 30
0.0
 10
4.0532412188
 20
5.4300419079
 30
0.0
 10
4.1003536214
 20
5.4278906088
 30
0.0
 10
4.147155714
 20
5.4234787437
 30
0.0
 10
4.1936120691
 20
5.4168027399
 30
0.0
 10
4.2397075993
 20
5.4078606849
 30
0.0
 10
4.270131504
 20
5.4004013211
 30
0.0
 10
4.285261984
 20
5.3963007716
 30
0.0
 11
3.5488748851
 21
5.2994232414
 31
0.0
 11
3.5909988223
 21
5.3225201802
 31
0.0
 11
3.6341188481
 21
5.3434424855
 31
0.0
 11
3.6782282213
 21
5.3621768748
 31
0.0
 11
3.7233202009
 21
5.378710066
 31
0.0
 11
3.7693493354
 21
5.3930214732
 31
0.0
 11
3.8161153318
 21
5.4050612966
 31
0.0
 11
3.8633791864
 21
5.4147724332
 31
0.0
 11
3.9109018959
 21
5.4220977795
 31
0.0
 11
3.9584691841
 21
5.426997562
 31
0.0
 11
4.0059656851
 21
5.4295013247
 31
0.0
 11
4.0533007602
 21
5.4296559415
 31
0.0
 11
4.1003837708
 21
5.427508286
 31
0.0
 11
4.1471378218
 21
5.4230969249
 31
0.0
 11
4.1935409925
 21
5.4164271974
 31
0.0
 11
4.2395851056
 21
5.4074961356
 31
0.0
 11
4.285261984
 21
5.3963007716
 31
0.0
  0
SPLINE
  5
290
100
AcDbEntity
  8
0
100
AcDbSpline
 62
9
  6
CONTINUOUS
 70
0
 71
3
 72
21
 73
17
 74
15
 42
0.0000001
 43
0.0000001
 44
0.0000000001
 12
-0.0409213894
 22
-0.3772686803
 32
0.0
 13
-0.0337051619
 23
-0.3779817051
 33
0.0
 40
0.0
 40
0.0
 40
0.0
 40
0.0
 40
0.0060484263
 40
0.0235857126
 40
0.0516998818
 40
0.0894789738
 40
0.1360298237
 40
0.1905343645
 40
0.2521932971
 40
0.3202073451
 40
0.3937835277
 40
0.4721539612
 40
0.6402317793
 40
0.8182980022
 40
0.9090947204
 40
1.0
 40
1.0
 40
1.0
 40
1.0
 10
4.4864423022
 20
5.7138943873
 30
0.0
 10
4.4863597989
 20
5.71313376
 30
0.0
 10
4.4860375122
 20
5.7101677714
 30
0.0
 10
4.4853269355
 20
5.7036667733
 30
0.0
 10
4.4841738778
 20
5.6931765029
 30
0.0
 10
4.4826093073
 20
5.6790393272
 30
0.0
 10
4.4806644944
 20
5.6615856389
 30
0.0
 10
4.4783844078
 20
5.641129963
 30
0.0
 10
4.4758118261
 20
5.6179751142
 30
0.0
 10
4.4729897778
 20
5.5924206976
 30
0.0
 10
4.4699609839
 20
5.5647623671
 30
0.0
 10
4.4656089554
 20
5.5245158567
 30
0.0
 10
4.4599800799
 20
5.4711130735
 30
0.0
 10
4.4544646844
 20
5.4161182752
 30
0.0
 10
4.4501476742
 20
5.370814955
 30
0.0
 10
4.4480552817
 20
5.3479261317
 30
0.0
 10
4.447033956
 20
5.3364726209
 30
0.0
 11
4.4864423022
 21
5.7138943873
 31
0.0
 11
4.4861943778
 21
5.7116125506
 31
0.0
 11
4.4854717928
 21
5.7049968191
 31
0.0
 11
4.4843063293
 21
5.6943918609
 31
0.0
 11
4.4827297695
 21
5.6801423441
 31
0.0
 11
4.4807758104
 21
5.6625855548
 31
0.0
 11
4.4784858086
 21
5.6420292515
 31
0.0
 11
4.4759030354
 21
5.6187738105
 31
0.0
 11
4.4730707623
 21
5.5931196084
 31
0.0
 11
4.4700330794
 21
5.5653645448
 31
0.0
 11
4.4668373513
 21
5.5357966124
 31
0.0
 11
4.4601644941
 21
5.4723642046
 31
0.0
 11
4.4534366139
 21
5.405127132
 31
0.0
 11
4.4501709322
 21
5.3708265659
 31
0.0
 11
4.447033956
 21
5.3364726209
 31
0.0
  0
LINE
  5
291
100
AcDbEntity
  8
0
100
AcDbLine
 62
9
  6
CONTINUOUS
 10
6.3998499886
 20
3.9311849082
 11
6.3997147831
 21
3.9305170765
  0
SPLINE
  5
292
100
AcDbEntity
  8
0
100
AcDbSpline
 62
6
  6
CONTINUOUS
 70
0
 71
3
 72
11
 73
7
 74
5
 42
0.0000001
 43
0.0000001
 44
0.0000000001
 12
0.2317070093
 22
-0.4303932946
 32
0.0
 13
0.2795305487
 23
-0.4009852847
 33
0.0
 40
0.0
 40
0.0
 40
0.0
 40
0.0
 40
0.2519384421
 40
0.5024473841
 40
0.7517318756
 40
1.0
 40
1.0
 40
1.0
 40
1.0
 10
6.494420769
 20
4.1876509428
 30
0.0
 10
6.5138794034
 20
4.1515067375
 30
0.0
 10
6.5536988581
 20
4.0799630923
 30
0.0
 10
6.6162951178
 20
3.9746653175
 30
0.0
 10
6.6815740122
 20
3.8717164745
 30
0.0
 10
6.7269631246
 20
3.8045297307
 30
0.0
 10
6.7500959663
 20
3.7713457759
 30
0.0
 11
6.494420769
 21
4.1876509428
 31
0.0
 11
6.5543197826
 21
4.0800522139
 31
0.0
 11
6.6168986533
 21
3.9748017764
 31
0.0
 11
6.6821573812
 21
3.8718996304
 31
0.0
 11
6.7500959663
 21
3.7713457759
 31
0.0
  0
SPLINE
  5
293
100
AcDbEntity
  8
0
100
AcDbSpline
 62
9
  6
CONTINUOUS
 70
0
 71
3
 72
49
 73
45
 74
43
 42
0.0000001
 43
0.0000001
 44
0.0000000001
 12
0.3612232741
 22
-0.1320745772
 32
0.0
 13
-0.046797745
 23
-0.381753741
 33
0.0
 40
0.0
 40
0.0
 40
0.0
 40
0.0
 40
0.0000597405
 40
0.0001029875
 40
0.000156861
 40
0.000298488
 40
0.0004868886
 40
0.0010062223
 40
0.0017163342
 40
0.0026164134
 40
0.0037050682
 40
0.004980674
 40
0.0064414955
 40
0.0080857378
 40
0.009911571
 40
0.0119171437
 40
0.0141005901
 40
0.0189935899
 40
0.0245755017
 40
0.0308311865
 40
0.0377454693
 40
0.0453031527
 40
0.0534890252
 40
0.0622878649
 40
0.0716844434
 40
0.0816635269
 40
0.0922098782
 40
0.114945633
 40
0.1397808263
 40
0.1666067388
 40
0.1953146208
 40
0.2257957049
 40
0.2579412143
 40
0.291642369
 40
0.3267903903
 40
0.3632772676
 40
0.400998056
 40
0.4797247204
 40
0.5621373677
 40
0.6474035038
 40
0.7346853802
 40
0.8231222733
 40
0.9118485589
 40
1.0
 40
1.0
 40
1.0
 40
1.0
 10
4.5608566467
 20
5.6866861652
 30
0.0
 10
4.5608638399
 20
5.6866835351
 30
0.0
 10
4.560872951
 20
5.6866721436
 30
0.0
 10
4.5608809736
 20
5.6866540004
 30
0.0
 10
4.560890018
 20
5.6866245639
 30
0.0
 10
4.5608982693
 20
5.6865759861
 30
0.0
 10
4.5609081023
 20
5.686467461
 30
0.0
 10
4.5609101579
 20
5.6862855151
 30
0.0
 10
4.5609017256
 20
5.6860126296
 30
0.0
 10
4.5608813552
 20
5.6856671808
 30
0.0
 10
4.5608492856
 20
5.6852499026
 30
0.0
 10
4.5608053963
 20
5.6847614681
 30
0.0
 10
4.5607497852
 20
5.684202604
 30
0.0
 10
4.5606825148
 20
5.6835740288
 30
0.0
 10
4.5606036787
 20
5.6828764674
 30
0.0
 10
4.5605133748
 20
5.6821106437
 30
0.0
 10
4.5603723525
 20
5.6809548634
 30
0.0
 10
4.5601673611
 20
5.6793450018
 30
0.0
 10
4.5598858658
 20
5.6772186213
 30
0.0
 10
4.5595611034
 20
5.6748365908
 30
0.0
 10
4.5591939248
 20
5.6722047131
 30
0.0
 10
4.558785174
 20
5.6693287915
 30
0.0
 10
4.5583357105
 20
5.666214629
 30
0.0
 10
4.5578463973
 20
5.662868028
 30
0.0
 10
4.5573181002
 20
5.659294791
 30
0.0
 10
4.5567516922
 20
5.6555007197
 30
0.0
 10
4.5559258839
 20
5.6500162931
 30
0.0
 10
4.5548038461
 20
5.6426503981
 30
0.0
 10
4.5533528733
 20
5.6332234464
 30
0.0
 10
4.5517745266
 20
5.623041441
 30
0.0
 10
4.550077761
 20
5.6121453261
 30
0.0
 10
4.5482715268
 20
5.6005760472
 30
0.0
 10
4.5463647912
 20
5.5883745478
 30
0.0
 10
4.5443665278
 20
5.5755817708
 30
0.0
 10
4.5422856957
 20
5.5622385625
 30
0.0
 10
4.5401312023
 20
5.548385281
 30
0.0
 10
4.5371305341
 20
5.5290094919
 30
0.0
 10
4.5332614609
 20
5.5038101467
 30
0.0
 10
4.5285448678
 20
5.4725740795
 30
0.0
 10
4.5237688402
 20
5.4402378855
 30
0.0
 10
4.5190121405
 20
5.4071183631
 30
0.0
 10
4.5143505425
 20
5.373537358
 30
0.0
 10
4.5098604021
 20
5.3398204934
 30
0.0
 10
4.5070136309
 20
5.3173232611
 30
0.0
 10
4.5056385347
 20
5.3061058803
 30
0.0
 11
4.5608566467
 21
5.6866861652
 31
0.0
 11
4.5608731167
 21
5.6866701441
 31
0.0
 11
4.5608801747
 21
5.6866550825
 31
0.0
 11
4.5608864504
 21
5.6866353354
 31
0.0
 11
4.5608966613
 21
5.6865818296
 31
0.0
 11
4.5609037632
 21
5.6865097175
 31
0.0
 11
4.5609086946
 21
5.6863100367
 31
0.0
 11
4.5609013541
 21
5.6860370182
 31
0.0
 11
4.5608818512
 21
5.6856913872
 31
0.0
 11
4.5608502952
 21
5.685273869
 31
0.0
 11
4.5608067957
 21
5.6847851886
 31
0.0
 11
4.5607514622
 21
5.6842260714
 31
0.0
 11
4.560684404
 21
5.6835972425
 31
0.0
 11
4.5606057307
 21
5.682899427
 31
0.0
 11
4.5605155516
 21
5.6821333503
 31
0.0
 11
4.5604139764
 21
5.6812997375
 31
0.0
 11
4.5601770752
 21
5.6794328045
 31
0.0
 11
4.5598959026
 21
5.6773044295
 31
0.0
 11
4.5595713344
 21
5.6749204141
 31
0.0
 11
4.5592042463
 21
5.6722865601
 31
0.0
 11
4.558795514
 21
5.6694086688
 31
0.0
 11
4.5583460132
 21
5.666292542
 31
0.0
 11
4.5578566196
 21
5.6629439813
 31
0.0
 11
4.5573282089
 21
5.6593687883
 31
0.0
 11
4.5567616569
 21
5.6555727645
 31
0.0
 11
4.5561578391
 21
5.6515617116
 31
0.0
 11
4.5548422412
 21
5.6429168128
 31
0.0
 11
4.5533900796
 21
5.6334759441
 31
0.0
 11
4.5518103501
 21
5.6232800457
 31
0.0
 11
4.5501120491
 21
5.612370058
 31
0.0
 11
4.5483041724
 21
5.6007869211
 31
0.0
 11
4.5463957162
 21
5.5885715753
 31
0.0
 11
4.5443956765
 21
5.5757649608
 31
0.0
 11
4.5423130495
 21
5.5624080179
 31
0.0
 11
4.5401569669
 21
5.5485413683
 31
0.0
 11
4.5379371037
 21
5.53420436
 31
0.0
 11
4.5333452792
 21
5.5042753848
 31
0.0
 11
4.5286160622
 21
5.4729333279
 31
0.0
 11
4.5238279393
 21
5.4404904248
 31
0.0
 11
4.5190591221
 21
5.4072612676
 31
0.0
 11
4.5143867236
 21
5.3735698746
 31
0.0
 11
4.5098875818
 21
5.3397426206
 31
0.0
 11
4.5056385347
 21
5.3061058803
 31
0.0
  0
SPLINE
  5
294
100
AcDbEntity
  8
0
100
AcDbSpline
 62
9
  6
CONTINUOUS
 70
0
 71
3
 72
52
 73
48
 74
46
 42
0.0000001
 43
0.0000001
 44
0.0000000001
 12
0.411047119
 22
-0.1502917401
 32
0.0
 13
-0.1228694949
 23
-0.4200600295
 33
0.0
 40
0.0
 40
0.0
 40
0.0
 40
0.0
 40
0.000058174
 40
0.0001004878
 40
0.0001540804
 40
0.0002978196
 40
0.0004923546
 40
0.0007385285
 40
0.0010365951
 40
0.0013865666
 40
0.001788339
 40
0.0027465669
 40
0.0039096078
 40
0.0052754963
 40
0.0068421455
 40
0.0086074037
 40
0.0105690816
 40
0.0127249669
 40
0.0150728317
 40
0.0203355349
 40
0.026339219
 40
0.0330658373
 40
0.0404973057
 40
0.0486155168
 40
0.0574023483
 40
0.066839668
 40
0.0769093364
 40
0.0875932092
 40
0.0988731386
 40
0.1231494639
 40
0.1495975847
 40
0.1780775942
 40
0.2084495394
 40
0.2405734467
 40
0.2743093388
 40
0.3095172477
 40
0.3460572249
 40
0.3837898418
 40
0.4225776807
 40
0.5027716418
 40
0.5855454648
 40
0.6698075695
 40
0.7544688621
 40
0.8384422257
 40
0.9206446156
 40
0.9607452076
 40
1.0
 40
1.0
 40
1.0
 40
1.0
 10
4.9809532115
 20
5.5330856634
 30
0.0
 10
4.9809611822
 20
5.533082749
 30
0.0
 10
4.9809707623
 20
5.5330690384
 30
0.0
 10
4.9809764134
 20
5.5330476225
 30
0.0
 10
4.9809809711
 20
5.5330127131
 30
0.0
 10
4.9809797186
 20
5.53295545
 30
0.0
 10
4.9809709163
 20
5.5328705878
 30
0.0
 10
4.980953895
 20
5.5327641253
 30
0.0
 10
4.9809288082
 20
5.5326360897
 30
0.0
 10
4.9808955521
 20
5.5324865771
 30
0.0
 10
4.9808367982
 20
5.5322441211
 30
0.0
 10
4.9807420596
 20
5.5318884017
 30
0.0
 10
4.9806022806
 20
5.5313992355
 30
0.0
 10
4.9804306672
 20
5.5308269052
 30
0.0
 10
4.9802275215
 20
5.5301723493
 30
0.0
 10
4.9799931176
 20
5.529436511
 30
0.0
 10
4.9797277641
 20
5.5286203315
 30
0.0
 10
4.9794317762
 20
5.5277247504
 30
0.0
 10
4.978979171
 20
5.526373747
 30
0.0
 10
4.978338298
 20
5.5244938265
 30
0.0
 10
4.9774787861
 20
5.5220135795
 30
0.0
 10
4.9765046165
 20
5.5192382376
 30
0.0
 10
4.9754183962
 20
5.5161753125
 30
0.0
 10
4.9742227243
 20
5.5128323184
 30
0.0
 10
4.9729202184
 20
5.5092167649
 30
0.0
 10
4.9715135001
 20
5.5053361604
 30
0.0
 10
4.9700051944
 20
5.5011980126
 30
0.0
 10
4.9683979362
 20
5.4968098259
 30
0.0
 10
4.9660688096
 20
5.4904788297
 30
0.0
 10
4.9629287846
 20
5.4819956738
 30
0.0
 10
4.95889963
 20
5.4711660003
 30
0.0
 10
4.9545485512
 20
5.4595072818
 30
0.0
 10
4.9499018089
 20
5.4470751003
 30
0.0
 10
4.944985657
 20
5.433925041
 30
0.0
 10
4.939826376
 20
5.420112681
 30
0.0
 10
4.9344502561
 20
5.405693594
 30
0.0
 10
4.928883564
 20
5.3907232869
 30
0.0
 10
4.9231524739
 20
5.375256915
 30
0.0
 10
4.9152410921
 20
5.3538067598
 30
0.0
 10
4.9051347487
 20
5.3261625765
 30
0.0
 10
4.8929263805
 20
5.2922237244
 30
0.0
 10
4.8807283746
 20
5.2575892636
 30
0.0
 10
4.8687630352
 20
5.222688495
 30
0.0
 10
4.8572395995
 20
5.1879556357
 30
0.0
 10
4.8481046714
 20
5.1592815119
 30
0.0
 10
4.8411989524
 20
5.136746492
 30
0.0
 10
4.8378974771
 20
5.1256501169
 30
0.0
 10
4.8362897382
 20
5.1201536605
 30
0.0
 11
4.9809532115
 21
5.5330856634
 31
0.0
 11
4.9809702988
 21
5.5330667885
 31
0.0
 11
4.9809756701
 21
5.5330490654
 31
0.0
 11
4.9809789333
 21
5.5330258381
 31
0.0
 11
4.9809791563
 21
5.5329629295
 31
0.0
 11
4.9809710088
 21
5.5328781798
 31
0.0
 11
4.9809545322
 21
5.5327717063
 31
0.0
 11
4.9809297676
 21
5.5326436263
 31
0.0
 11
4.9808967562
 21
5.532494057
 31
0.0
 11
4.9808555391
 21
5.5323231157
 31
0.0
 11
4.9807486531
 21
5.5319175861
 31
0.0
 11
4.9806094391
 21
5.5314279754
 31
0.0
 11
4.9804382266
 21
5.5308552216
 31
0.0
 11
4.9802353453
 21
5.5302002628
 31
0.0
 11
4.9800011248
 21
5.5294640371
 31
0.0
 11
4.9797358946
 21
5.5286474823
 31
0.0
 11
4.9794399843
 21
5.5277515366
 31
0.0
 11
4.9791137235
 21
5.5267771379
 31
0.0
 11
4.9783714689
 21
5.5245967339
 31
0.0
 11
4.9775117673
 21
5.5221137743
 31
0.0
 11
4.9765372555
 21
5.5193357634
 31
0.0
 11
4.9754505702
 21
5.5162702052
 31
0.0
 11
4.974254348
 21
5.512924604
 31
0.0
 11
4.9729512257
 21
5.5093064639
 31
0.0
 11
4.9715438399
 21
5.5054232891
 31
0.0
 11
4.9700348274
 21
5.5012825838
 31
0.0
 11
4.9684268248
 21
5.496891852
 31
0.0
 11
4.9667224688
 21
5.492258598
 31
0.0
 11
4.963036116
 21
5.4822937946
 31
0.0
 11
4.9590012254
 21
5.4714444805
 31
0.0
 11
4.9546441259
 21
5.4597662174
 31
0.0
 11
4.9499911465
 21
5.4473145671
 31
0.0
 11
4.9450686162
 21
5.4341450912
 31
0.0
 11
4.9399028637
 21
5.4203133514
 31
0.0
 11
4.9345202182
 21
5.4058749094
 31
0.0
 11
4.9289470084
 21
5.3908853268
 31
0.0
 11
4.9232098283
 21
5.3753998381
 31
0.0
 11
4.9173363304
 21
5.3594723676
 31
0.0
 11
4.9052920514
 21
5.3265058698
 31
0.0
 11
4.8930375118
 21
5.2924146104
 31
0.0
 11
4.8807960514
 21
5.2576273661
 31
0.0
 11
4.8687888532
 21
5.2225738447
 31
0.0
 11
4.8572284706
 21
5.1876874781
 31
0.0
 11
4.8463253002
 21
5.1534026291
 31
0.0
 11
4.8411859184
 21
5.1366215121
 31
0.0
 11
4.8362897382
 21
5.1201536605
 31
0.0
  0
SPLINE
  5
295
100
AcDbEntity
  8
0
100
AcDbSpline
 62
9
  6
CONTINUOUS
 70
0
 71
3
 72
21
 73
17
 74
15
 42
0.0000001
 43
0.0000001
 44
0.0000000001
 12
-0.1316857724
 22
-0.2406246065
 32
0.0
 13
-0.0581080499
 23
-0.2680761057
 33
0.0
 40
0.0
 40
0.0
 40
0.0
 40
0.0
 40
0.0739418995
 40
0.1468837327
 40
0.2185652773
 40
0.2887338423
 40
0.4241138008
 40
0.4892442622
 40
0.5526129434
 40
0.6142432992
 40
0.674175815
 40
0.7324473257
 40
0.7890912118
 40
0.8441392294
 40
0.8976218172
 40
1.0
 40
1.0
 40
1.0
 40
1.0
 10
6.494420769
 20
4.1876509428
 30
0.0
 10
6.4911750703
 20
4.181720196
 30
0.0
 10
6.484862463
 20
4.1698645335
 30
0.0
 10
6.4758650646
 20
4.1520185984
 30
0.0
 10
6.4674059702
 20
4.1342926713
 30
0.0
 10
6.4569821575
 20
4.1111852885
 30
0.0
 10
6.4475059647
 20
4.0883134378
 30
0.0
 10
6.4389260709
 20
4.0657619617
 30
0.0
 10
6.4330441144
 20
4.0494019099
 30
0.0
 10
6.427607636
 20
4.0333897991
 30
0.0
 10
6.422589318
 20
4.0177305259
 30
0.0
 10
6.4179615083
 20
4.0024272583
 30
0.0
 10
6.4136953132
 20
3.9874832852
 30
0.0
 10
6.4097690326
 20
3.9728994149
 30
0.0
 10
6.40503072
 20
3.954205907
 30
0.0
 10
6.4018215697
 20
3.9403185531
 30
0.0
 10
6.3998385709
 20
3.9311701716
 30
0.0
 11
6.494420769
 21
4.1876509428
 31
0.0
 11
6.4848868999
 21
4.169748982
 31
0.0
 11
6.4758787778
 21
4.1518834807
 31
0.0
 11
6.467410966
 21
4.134137931
 31
0.0
 11
6.4594961582
 21
4.1165932404
 31
0.0
 11
6.4452746113
 21
4.0822894377
 31
0.0
 11
6.4389208769
 21
4.0655920693
 31
0.0
 11
6.4330397876
 21
4.0492350782
 31
0.0
 11
6.4276043434
 21
4.0332274176
 31
0.0
 11
6.4225866519
 21
4.0175723021
 31
0.0
 11
6.4179588205
 21
4.0022729443
 31
0.0
 11
6.413693467
 21
3.9873323668
 31
0.0
 11
6.4097682398
 21
3.9727517204
 31
0.0
 11
6.4061636513
 21
3.9585310904
 31
0.0
 11
6.3998385709
 21
3.9311701716
 31
0.0
  0
ENDSEC
  0
SECTION
  2
OBJECTS
  0
DICTIONARY
  5
C
100
AcDbDictionary
280
0
281
1
  3
ACAD_GROUP
350
D
  3
ACAD_MLINESTYLE
350
17
  3
ACAD_LAYOUT
350
1A
  3
ACAD_PLOTSETTINGS
350
19
  3
ACAD_PLOTSTYLENAME
350
E
  0
DICTIONARY
  5
D
102
{ACAD_REACTORS
330
C
102
}
100
AcDbDictionary
280
0
281
1
  0
ACDBDICTIONARYWDFLT
  5
E
102
{ACAD_REACTORS
330
C
102
}
100
AcDbDictionary
281
1
  3
Normal
350
F
100
AcDbDictionaryWithDefault
340
F
  0
DICTIONARY
  5
17
102
{ACAD_REACTORS
330
C
102
}
100
AcDbDictionary
280
0
281
1
  3
Standard
350
18
  0
DICTIONARY
  5
19
102
{ACAD_REACTORS
330
C
102
}
100
AcDbDictionary
281
1
  0
DICTIONARY
  5
1A
102
{ACAD_REACTORS
330
C
102
}
100
AcDbDictionary
281
1
  3
Model
350
296
  3
Layout1
350
297
  0
ACDBPLACEHOLDER
  5
F
102
{ACAD_REACTORS
330
E
102
}
  0
MLINESTYLE
  5
18
102
{ACAD_REACTORS
330
17
102
}
100
AcDbMlineStyle
  2
STANDARD
 70
0
  3

 62
256
 51
90.0
 52
90.0
 71
2
 49
0.5
 62
256
  6
BYLAYER
 49
-0.5
 62
256
  6
BYLAYER
  0
LAYOUT
  5
296
102
{ACAD_REACTORS
330
1A
102
}
100
AcDbPlotSettings
  1

  2
none_device
  4
ISO_A4_(297.00_x_210.00_MM)
  6

 40
0.0
 41
0.0
 42
0.0
 43
0.0
 44
297.0
 45
210.0
 46
0.0
 47
0.0
 48
0.0
 49
0.0
140
0.0
141
0.0
142
1.0
143
1.0
 70
1024
 72
0
 73
0
 74
0
  7

 75
0
147
1.0
148
0.0
149
0.0
100
AcDbLayout
  1
Model
 70
0
 71
0
 10
0.0
 20
0.0
 11
11.6929133858
 21
8.2677165354
 12
0.0
 22
0.0
 32
0.0
 14
0.0
 24
0.0
 34
0.0
 15
0.0
 25
0.0
 35
0.0
146
0.0
 13
0.0
 23
0.0
 33
0.0
 16
1.0
 26
0.0
 36
0.0
 17
0.0
 27
1.0
 37
0.0
 76
0
330
203
345
0
346
0
  0
LAYOUT
  5
297
102
{ACAD_REACTORS
330
1A
102
}
100
AcDbPlotSettings
  1

  2
none_device
  4
ISO_A4_(297.00_x_210.00_MM)
  6

 40
0.0
 41
0.0
 42
0.0
 43
0.0
 44
297.0
 45
210.0
 46
0.0
 47
0.0
 48
0.0
 49
0.0
140
0.0
141
0.0
142
1.0
143
1.0
 70
0
 72
0
 73
0
 74
0
  7

 75
0
147
1.0
148
0.0
149
0.0
100
AcDbLayout
  1
Layout1
 70
0
 71
1
 10
0.0
 20
0.0
 11
11.6929133858
 21
8.2677165354
 12
0.0
 22
0.0
 32
0.0
 14
0.0
 24
0.0
 34
0.0
 15
0.0
 25
0.0
 35
0.0
146
0.0
 13
0.0
 23
0.0
 33
0.0
 16
1.0
 26
0.0
 36
0.0
 17
0.0
 27
1.0
 37
0.0
 76
0
330
204
345
0
346
0
  0
ENDSEC
  0
EOF
