999
DXF file: E:\BT Custom\CADOUTPUT\_FRONT.dxf
999
Pro/ENGINEER 2018400 by Parametric Technology Corporation
  0
SECTION
  2
HEADER
  9
$ACADVER
  1
AC1018
  9
$DWGCODEPAGE
  3
ANSI_1252
  9
$EXTMAX
 10
22.0
 20
17.0
 30
0.0
  9
$EXTMIN
 10
0.0
 20
0.0
 30
0.0
  9
$LIMMIN
 10
0.0
 20
0.0
  9
$LIMMAX
 10
22.0
 20
17.0
  9
$VIEWCTR
 10
11.0
 20
8.5
  9
$VIEWSIZE
 40
17.0
  9
$CLAYER
  8
0
  9
$LTSCALE
 40
1.21
  9
$CELTYPE
  6
BYLAYER
  9
$DIMSCALE
 40
1.0
  9
$DIMASZ
 40
0.1
  9
$DIMEXO
 40
0.0625
  9
$DIMDLI
 40
0.836
  9
$DIMEXE
 40
0.125
  9
$DIMCEN
 40
0.198
  9
$DIMLFAC
 40
1.0
  9
$DIMBLK
  1
_FILLED
  9
$DIMALT
 70
1
  9
$DIMALTD
 70
2
  9
$DIMALTTD
 70
2
  9
$DIMALTF
 40
25.4
  9
$DIMTXT
 40
0.08
  9
$DIMTOL
 70
1
  9
$DIMLIM
 70
0
  9
$DIMTFAC
 40
1.0
  9
$DIMTP
 40
0.001
  9
$DIMTM
 40
0.001
  9
$DIMGAP
 40
0.09
  9
$DIMDSEP
 70
46
  9
$AUNITS
 70
0
  9
$PDMODE
 70
3
  9
$PDSIZE
 40
0.06
  9
$HANDSEED
  5
32A
  9
$TILEMODE
 70
1
  9
$MEASUREMENT
 70
0
  9
$INSUNITS
 70
1
  0
ENDSEC
  0
SECTION
  2
CLASSES
  0
CLASS
  1
ACDBDICTIONARYWDFLT
  2
AcDbDictionaryWithDefault
  3
AutoCAD 2000
 90
0
 91
1
280
0
281
0
  0
CLASS
  1
ACDBPLACEHOLDER
  2
AcDbPlaceHolder
  3
AutoCAD 2000
 90
0
 91
1
280
0
281
0
  0
CLASS
  1
LAYOUT
  2
AcDbLayout
  3
AutoCAD 2000
 90
0
 91
0
280
0
281
0
  0
ENDSEC
  0
SECTION
  2
TABLES
  0
TABLE
  2
VPORT
  5
8
100
AcDbSymbolTable
 70
2
  0
VPORT
  5
1F4
100
AcDbSymbolTableRecord
100
AcDbViewportTableRecord
  2
*ACTIVE
 70
0
 10
0.0
 20
0.0
 11
1.0
 21
1.0
 12
11.0
 22
8.5
 13
0.0
 23
0.0
 14
1.0
 24
1.0
 15
0.0
 25
0.0
 16
0.0
 26
0.0
 36
1.0
 17
0.0
 27
0.0
 37
0.0
 40
17.0
 41
1.2941176471
 42
50.0
 43
0.0
 44
0.0
 50
0.0
 51
0.0
 71
0
 72
100
 73
1
 74
1
 75
0
 76
0
 77
0
 78
0
  0
ENDTAB
  0
TABLE
  2
LTYPE
  5
5
100
AcDbSymbolTable
 70
6
  0
LTYPE
  5
14
100
AcDbSymbolTableRecord
100
AcDbLinetypeTableRecord
  2
BYBLOCK
 70
0
  3

 72
65
 73
0
 40
0.0
  0
LTYPE
  5
15
100
AcDbSymbolTableRecord
100
AcDbLinetypeTableRecord
  2
BYLAYER
 70
0
  3

 72
65
 73
0
 40
0.0
  0
LTYPE
  5
16
100
AcDbSymbolTableRecord
100
AcDbLinetypeTableRecord
  2
CONTINUOUS
 70
64
  3
Solid line
 72
65
 73
0
 40
0.0
  0
LTYPE
  5
1F5
100
AcDbSymbolTableRecord
100
AcDbLinetypeTableRecord
  2
CENTER
 70
64
  3
____ _ ____ _ ____ _ ____ _ ____ _ ____ _ ____
 72
65
 73
4
 40
0.6
 49
0.375
 74
0
 49
-0.075
 74
0
 49
0.075
 74
0
 49
-0.075
 74
0
  0
LTYPE
  5
1F6
100
AcDbSymbolTableRecord
100
AcDbLinetypeTableRecord
  2
HIDDEN
 70
64
  3
- - - - - - - - - - - - - - - - - - - -
 72
65
 73
2
 40
0.2
 49
0.1
 74
0
 49
-0.1
 74
0
  0
LTYPE
  5
1F7
100
AcDbSymbolTableRecord
100
AcDbLinetypeTableRecord
  2
PHANTOM
 70
64
  3
_____ _ _ _____ _ _ _____ _ _ _____
 72
65
 73
6
 40
0.8
 49
0.45
 74
0
 49
-0.05
 74
0
 49
0.1
 74
0
 49
-0.05
 74
0
 49
0.1
 74
0
 49
-0.05
 74
0
  0
LTYPE
  5
1F8
100
AcDbSymbolTableRecord
100
AcDbLinetypeTableRecord
  2
DOT
 70
64
  3
. . . . . . . . . . . . . . . . . . . .
 72
65
 73
2
 40
0.2
 49
0.1
 74
0
 49
-0.1
 74
0
  0
LTYPE
  5
1F9
100
AcDbSymbolTableRecord
100
AcDbLinetypeTableRecord
  2
DASHED
 70
64
  3
- - - - - - - - - - - - - - - - - - - -
 72
65
 73
2
 40
0.2
 49
0.1
 74
0
 49
-0.1
 74
0
  0
ENDTAB
  0
TABLE
  2
LAYER
  5
2
100
AcDbSymbolTable
 70
36
  0
LAYER
  5
10
100
AcDbSymbolTableRecord
100
AcDbLayerTableRecord
  2
0
 70
0
 62
7
  6
CONTINUOUS
370
-3
390
F
  0
LAYER
  5
1FA
100
AcDbSymbolTableRecord
100
AcDbLayerTableRecord
  2
DEFAULT_1
 70
0
 62
7
  6
CENTER
370
-3
390
F
  0
LAYER
  5
1FB
100
AcDbSymbolTableRecord
100
AcDbLayerTableRecord
  2
DEFAULT_2
 70
0
 62
8
  6
HIDDEN
370
-3
390
F
  0
LAYER
  5
1FC
100
AcDbSymbolTableRecord
100
AcDbLayerTableRecord
  2
DEFAULT_3
 70
0
 62
7
  6
PHANTOM
370
-3
390
F
  0
LAYER
  5
1FD
100
AcDbSymbolTableRecord
100
AcDbLayerTableRecord
  2
ALL_FEATURES
 70
0
 62
7
  6
CONTINUOUS
370
-3
390
F
  0
LAYER
  5
1FE
100
AcDbSymbolTableRecord
100
AcDbLayerTableRecord
  2
AXES_FEATURES
 70
0
 62
7
  6
CONTINUOUS
370
-3
390
F
  0
LAYER
  5
1FF
100
AcDbSymbolTableRecord
100
AcDbLayerTableRecord
  2
DIMENSIONS
 70
0
 62
7
  6
CONTINUOUS
370
-3
390
F
  0
ENDTAB
  0
TABLE
  2
STYLE
  5
3
100
AcDbSymbolTable
 70
1
  0
STYLE
  5
11
100
AcDbSymbolTableRecord
100
AcDbTextStyleTableRecord
  2
STANDARD
 70
0
 40
0.0
 41
0.8
 50
0.0
 71
0
 42
0.2
  3
txt
  4

  0
STYLE
  5
200
100
AcDbSymbolTableRecord
100
AcDbTextStyleTableRecord
  2
TEXTSTYLE_1
 70
0
 40
0.0
 41
0.8
 50
0.0
 71
0
 42
0.2
  3
gdt
  4

  0
ENDTAB
  0
TABLE
  2
VIEW
  5
6
100
AcDbSymbolTable
 70
0
  0
ENDTAB
  0
TABLE
  2
UCS
  5
7
100
AcDbSymbolTable
 70
0
  0
ENDTAB
  0
TABLE
  2
APPID
  5
9
100
AcDbSymbolTable
 70
1
  0
APPID
  5
201
100
AcDbSymbolTableRecord
100
AcDbRegAppTableRecord
  2
ACAD
 70
0
  0
ENDTAB
  0
TABLE
  2
BLOCK_RECORD
  5
1
100
AcDbSymbolTable
 70
0
  0
BLOCK_RECORD
  5
202
100
AcDbSymbolTableRecord
100
AcDbBlockTableRecord
  2
*Model_Space
  0
BLOCK_RECORD
  5
203
100
AcDbSymbolTableRecord
100
AcDbBlockTableRecord
  2
*Paper_Space
  0
BLOCK_RECORD
  5
204
100
AcDbSymbolTableRecord
100
AcDbBlockTableRecord
  2
_FILLED
  0
ENDTAB
  0
TABLE
  2
DIMSTYLE
  5
A
100
AcDbSymbolTable
 70
1
100
AcDbDimStyleTable
 71
0
  0
DIMSTYLE
105
205
100
AcDbSymbolTableRecord
100
AcDbDimStyleTableRecord
  2
STANDARD
 70
0
  3

  4

 40
1.0
 41
0.1
 42
0.0625
 43
0.38
 44
0.125
 45
0.0
 46
0.0
 47
0.001
 48
0.001
140
0.08
141
0.09
142
0.0
143
25.4
144
1.0
145
0.0
146
1.0
147
0.09
 71
1.0
 72
0.0
 73
1
 74
1
 75
0
 76
0
 77
0
 78
4
 79
1
170
1
171
2
172
0
173
0
174
0
175
0
176
0
177
0
178
0
270
2
179
3
271
3
272
3
273
2
274
2
275
0
280
0
281
0
282
0
283
1
284
4
285
0
286
0
287
3
288
0
340
11
278
46
341
204
342
204
343
204
344
204
  0
ENDTAB
  0
ENDSEC
  0
SECTION
  2
BLOCKS
  0
BLOCK
  5
20
100
AcDbEntity
  8
0
100
AcDbBlockBegin
  2
*Model_Space
 70
0
 10
0.0
 20
0.0
 30
0.0
  3
*Model_Space
  1

  0
ENDBLK
  5
21
100
AcDbEntity
  8
0
100
AcDbBlockEnd
  0
BLOCK
  5
1C
100
AcDbEntity
  8
0
100
AcDbBlockBegin
  2
*Paper_Space
 70
0
 10
0.0
 20
0.0
 30
0.0
  3
*Paper_Space
  1

  0
ENDBLK
  5
1D
100
AcDbEntity
  8
0
100
AcDbBlockEnd
  0
BLOCK
  5
206
100
AcDbEntity
  8
0
100
AcDbBlockBegin
  2
_FILLED
 70
64
 10
0.0
 20
0.0
  3
_FILLED
  1

  0
SOLID
  5
207
100
AcDbEntity
  8
0
  6
BYBLOCK
 62
0
100
AcDbTrace
 10
0.0
 20
0.0
 11
-1.0
 21
0.2
 12
-1.0
 22
-0.2
 13
-1.0
 23
-0.2
  0
ENDBLK
  5
208
100
AcDbEntity
  8
0
  6
BYBLOCK
 62
0
100
AcDbBlockEnd
  0
ENDSEC
  0
SECTION
  2
ENTITIES
  0
LINE
  5
209
100
AcDbEntity
  8
0
100
AcDbLine
 62
7
  6
CONTINUOUS
 10
3.9726923427
 20
9.5509195021
 11
3.9726923427
 21
9.0759195021
  0
LINE
  5
20A
100
AcDbEntity
  8
0
100
AcDbLine
 62
9
  6
CONTINUOUS
 10
4.1027501782
 20
9.0972229738
 11
4.1027501782
 21
9.5296160305
  0
LINE
  5
20B
100
AcDbEntity
  8
0
100
AcDbLine
 62
7
  6
CONTINUOUS
 10
4.2956923427
 20
9.5319195021
 11
4.2956923427
 21
9.0949195021
  0
LINE
  5
20C
100
AcDbEntity
  8
0
100
AcDbLine
 62
9
  6
CONTINUOUS
 10
4.6394520876
 20
9.7076688106
 11
4.6394520876
 21
8.9191701937
  0
LINE
  5
20D
100
AcDbEntity
  8
0
100
AcDbLine
 62
9
  6
CONTINUOUS
 10
5.6942882597
 20
9.1242095749
 11
5.6942882597
 21
9.5026294293
  0
LINE
  5
20E
100
AcDbEntity
  8
0
100
AcDbLine
 62
7
  6
CONTINUOUS
 10
5.7676923427
 20
6.6051695021
 11
5.7676923427
 21
6.5911695021
  0
LINE
  5
20F
100
AcDbEntity
  8
0
100
AcDbLine
 62
7
  6
CONTINUOUS
 10
6.4876923427
 20
9.5634195021
 11
6.4876923427
 21
9.0634195021
  0
LINE
  5
210
100
AcDbEntity
  8
0
100
AcDbLine
 62
7
  6
CONTINUOUS
 10
6.5326923427
 20
9.0634195021
 11
6.5326923427
 21
9.5634195021
  0
LINE
  5
211
100
AcDbEntity
  8
0
100
AcDbLine
 62
7
  6
CONTINUOUS
 10
6.5576923427
 20
9.5381323155
 11
6.5576923427
 21
9.0884105575
  0
LINE
  5
212
100
AcDbEntity
  8
0
100
AcDbLine
 62
7
  6
CONTINUOUS
 10
6.5851923427
 20
8.6804195021
 11
6.5851923427
 21
8.6304195021
  0
LINE
  5
213
100
AcDbEntity
  8
0
100
AcDbLine
 62
7
  6
CONTINUOUS
 10
6.6071923427
 20
9.6634195021
 11
6.6071923427
 21
9.5924195021
  0
LINE
  5
214
100
AcDbEntity
  8
0
100
AcDbLine
 62
7
  6
CONTINUOUS
 10
6.6656923427
 20
9.7344195021
 11
6.6656923427
 21
9.7104195021
  0
LINE
  5
215
100
AcDbEntity
  8
0
100
AcDbLine
 62
7
  6
CONTINUOUS
 10
6.7376923427
 20
8.6304195021
 11
6.7376923427
 21
8.5991695021
  0
LINE
  5
216
100
AcDbEntity
  8
0
100
AcDbLine
 62
7
  6
CONTINUOUS
 10
6.527535693
 20
8.5330613564
 11
6.5030267991
 21
8.3940645123
  0
LINE
  5
217
100
AcDbEntity
  8
0
100
AcDbLine
 62
7
  6
CONTINUOUS
 10
7.1376923427
 20
8.6304195021
 11
7.1376923427
 21
8.5991695021
  0
LINE
  5
218
100
AcDbEntity
  8
0
100
AcDbLine
 62
7
  6
CONTINUOUS
 10
7.2096923427
 20
9.7344195021
 11
7.2096923427
 21
9.7104195021
  0
LINE
  5
219
100
AcDbEntity
  8
0
100
AcDbLine
 62
7
  6
CONTINUOUS
 10
7.2681923427
 20
9.6634195021
 11
7.2681923427
 21
9.5924195021
  0
LINE
  5
21A
100
AcDbEntity
  8
0
100
AcDbLine
 62
7
  6
CONTINUOUS
 10
7.2901923427
 20
8.6804195021
 11
7.2901923427
 21
8.6304195021
  0
LINE
  5
21B
100
AcDbEntity
  8
0
100
AcDbLine
 62
7
  6
CONTINUOUS
 10
6.5576923427
 20
9.0883590248
 11
6.5612350698
 21
9.083711283
  0
LINE
  5
21C
100
AcDbEntity
  8
0
100
AcDbLine
 62
7
  6
CONTINUOUS
 10
7.3478489925
 20
8.5330613564
 11
7.3723578863
 21
8.3940645123
  0
LINE
  5
21D
100
AcDbEntity
  8
0
100
AcDbLine
 62
7
  6
CONTINUOUS
 10
6.6071923427
 20
9.5924195021
 11
6.5577182634
 21
9.5383935815
  0
LINE
  5
21E
100
AcDbEntity
  8
0
100
AcDbLine
 62
7
  6
CONTINUOUS
 10
6.7676923427
 20
9.8004195021
 11
6.7576923427
 21
9.7904195021
  0
LINE
  5
21F
100
AcDbEntity
  8
0
100
AcDbLine
 62
7
  6
CONTINUOUS
 10
8.1076923427
 20
6.6051695021
 11
8.1076923427
 21
6.5911695021
  0
LINE
  5
220
100
AcDbEntity
  8
0
100
AcDbLine
 62
7
  6
CONTINUOUS
 10
6.5576923427
 20
9.0884195021
 11
6.5326923427
 21
9.0634195021
  0
LINE
  5
221
100
AcDbEntity
  8
0
100
AcDbLine
 62
7
  6
CONTINUOUS
 10
5.7676923427
 20
6.5911695021
 11
8.1076923427
 21
6.5911695021
  0
LINE
  5
222
100
AcDbEntity
  8
0
100
AcDbLine
 62
7
  6
CONTINUOUS
 10
9.9251923427
 20
6.5911695021
 11
11.9501923427
 21
6.5911695021
  0
LINE
  5
223
100
AcDbEntity
  8
0
100
AcDbLine
 62
7
  6
CONTINUOUS
 10
13.7676923427
 20
6.5911695021
 11
16.1076923427
 21
6.5911695021
  0
LINE
  5
224
100
AcDbEntity
  8
0
100
AcDbLine
 62
9
  6
CONTINUOUS
 10
16.1076923427
 20
6.6051695021
 11
13.7676923427
 21
6.6051695021
  0
LINE
  5
225
100
AcDbEntity
  8
0
100
AcDbLine
 62
9
  6
CONTINUOUS
 10
8.1076923427
 20
6.6051695021
 11
5.7676923427
 21
6.6051695021
  0
LINE
  5
226
100
AcDbEntity
  8
0
100
AcDbLine
 62
9
  6
CONTINUOUS
 10
16.0420640532
 20
6.7151695021
 11
13.8333206323
 21
6.7151695021
  0
LINE
  5
227
100
AcDbEntity
  8
0
100
AcDbLine
 62
9
  6
CONTINUOUS
 10
5.8333206323
 20
6.7151695021
 11
8.0420640532
 21
6.7151695021
  0
LINE
  5
228
100
AcDbEntity
  8
0
100
AcDbLine
 62
9
  6
CONTINUOUS
 10
16.0096147124
 20
6.7661695021
 11
13.8657699731
 21
6.7661695021
  0
LINE
  5
229
100
AcDbEntity
  8
0
100
AcDbLine
 62
9
  6
CONTINUOUS
 10
5.8657699731
 20
6.7661695021
 11
8.0096147124
 21
6.7661695021
  0
LINE
  5
22A
100
AcDbEntity
  8
0
100
AcDbLine
 62
7
  6
CONTINUOUS
 10
6.5577182634
 20
9.5383935815
 11
6.5326923427
 21
9.5634195021
  0
LINE
  5
22B
100
AcDbEntity
  8
0
100
AcDbLine
 62
9
  6
CONTINUOUS
 10
15.9784382703
 20
6.8241695021
 11
13.8969464151
 21
6.8241695021
  0
LINE
  5
22C
100
AcDbEntity
  8
0
100
AcDbLine
 62
9
  6
CONTINUOUS
 10
5.8969464151
 20
6.8241695021
 11
7.9784382703
 21
6.8241695021
  0
LINE
  5
22D
100
AcDbEntity
  8
0
100
AcDbLine
 62
9
  6
CONTINUOUS
 10
11.9501923427
 20
6.8401369698
 11
11.6344325794
 21
6.8401369698
  0
LINE
  5
22E
100
AcDbEntity
  8
0
100
AcDbLine
 62
9
  6
CONTINUOUS
 10
10.240952106
 20
6.8401369698
 11
9.9251923427
 21
6.8401369698
  0
LINE
  5
22F
100
AcDbEntity
  8
0
100
AcDbLine
 62
9
  6
CONTINUOUS
 10
15.9541628491
 20
6.8651695021
 11
13.9212218364
 21
6.8651695021
  0
LINE
  5
230
100
AcDbEntity
  8
0
100
AcDbLine
 62
9
  6
CONTINUOUS
 10
5.9212218364
 20
6.8651695021
 11
7.9541628491
 21
6.8651695021
  0
LINE
  5
231
100
AcDbEntity
  8
0
100
AcDbLine
 62
7
  6
CONTINUOUS
 10
11.9126923427
 20
6.9111695021
 11
11.5924278532
 21
6.9111695021
  0
LINE
  5
232
100
AcDbEntity
  8
0
100
AcDbLine
 62
7
  6
CONTINUOUS
 10
10.2829568323
 20
6.9111695021
 11
9.9626923427
 21
6.9111695021
  0
LINE
  5
233
100
AcDbEntity
  8
0
100
AcDbLine
 62
9
  6
CONTINUOUS
 10
15.9170358998
 20
6.9211695021
 11
13.9583487857
 21
6.9211695021
  0
LINE
  5
234
100
AcDbEntity
  8
0
100
AcDbLine
 62
9
  6
CONTINUOUS
 10
5.9583487857
 20
6.9211695021
 11
7.9170358998
 21
6.9211695021
  0
LINE
  5
235
100
AcDbEntity
  8
0
100
AcDbLine
 62
9
  6
CONTINUOUS
 10
15.8896404964
 20
6.9561695021
 11
13.9857441891
 21
6.9561695021
  0
LINE
  5
236
100
AcDbEntity
  8
0
100
AcDbLine
 62
9
  6
CONTINUOUS
 10
5.9857441891
 20
6.9561695021
 11
7.8896404964
 21
6.9561695021
  0
LINE
  5
237
100
AcDbEntity
  8
0
100
AcDbLine
 62
9
  6
CONTINUOUS
 10
15.879516113
 20
6.9711695021
 11
13.9958685725
 21
6.9711695021
  0
LINE
  5
238
100
AcDbEntity
  8
0
100
AcDbLine
 62
9
  6
CONTINUOUS
 10
5.9958685725
 20
6.9711695021
 11
7.879516113
 21
6.9711695021
  0
LINE
  5
239
100
AcDbEntity
  8
0
100
AcDbLine
 62
7
  6
CONTINUOUS
 10
11.4326923427
 20
7.0911695021
 11
10.4426923427
 21
7.0911695021
  0
LINE
  5
23A
100
AcDbEntity
  8
0
100
AcDbLine
 62
9
  6
CONTINUOUS
 10
11.4001923427
 20
7.1711695021
 11
10.4751923427
 21
7.1711695021
  0
LINE
  5
23B
100
AcDbEntity
  8
0
100
AcDbLine
 62
9
  6
CONTINUOUS
 10
15.7531629052
 20
7.2601695021
 11
14.1222217802
 21
7.2601695021
  0
LINE
  5
23C
100
AcDbEntity
  8
0
100
AcDbLine
 62
9
  6
CONTINUOUS
 10
7.7531629052
 20
7.2601695021
 11
6.1222217802
 21
7.2601695021
  0
LINE
  5
23D
100
AcDbEntity
  8
0
100
AcDbLine
 62
7
  6
CONTINUOUS
 10
7.1076923427
 20
9.8004195021
 11
7.1176923427
 21
9.7904195021
  0
LINE
  5
23E
100
AcDbEntity
  8
0
100
AcDbLine
 62
9
  6
CONTINUOUS
 10
10.5104088365
 20
7.3352720662
 11
11.3649804298
 21
7.3352720662
  0
LINE
  5
23F
100
AcDbEntity
  8
0
100
AcDbLine
 62
7
  6
CONTINUOUS
 10
11.3558607276
 20
7.3411695021
 11
10.5195284409
 21
7.3411695021
  0
LINE
  5
240
100
AcDbEntity
  8
0
100
AcDbLine
 62
7
  6
CONTINUOUS
 10
10.6071923427
 20
7.6431695021
 11
11.2681923427
 21
7.6431695021
  0
LINE
  5
241
100
AcDbEntity
  8
0
100
AcDbLine
 62
9
  6
CONTINUOUS
 10
15.7254399062
 20
7.6651695021
 11
14.1499447793
 21
7.6651695021
  0
LINE
  5
242
100
AcDbEntity
  8
0
100
AcDbLine
 62
9
  6
CONTINUOUS
 10
6.1499447793
 20
7.6651695021
 11
7.7254399062
 21
7.6651695021
  0
LINE
  5
243
100
AcDbEntity
  8
0
100
AcDbLine
 62
9
  6
CONTINUOUS
 10
11.2681923427
 20
7.7141695021
 11
10.6071923427
 21
7.7141695021
  0
LINE
  5
244
100
AcDbEntity
  8
0
100
AcDbLine
 62
9
  6
CONTINUOUS
 10
10.2295001452
 20
7.7519146422
 11
10.6268373319
 21
7.7519146422
  0
LINE
  5
245
100
AcDbEntity
  8
0
100
AcDbLine
 62
9
  6
CONTINUOUS
 10
11.2485473536
 20
7.7519146422
 11
11.6458845403
 21
7.7519146422
  0
LINE
  5
246
100
AcDbEntity
  8
0
100
AcDbLine
 62
7
  6
CONTINUOUS
 10
11.2211923427
 20
7.7611695021
 11
10.6541923427
 21
7.7611695021
  0
LINE
  5
247
100
AcDbEntity
  8
0
100
AcDbLine
 62
7
  6
CONTINUOUS
 10
11.2096923427
 20
7.7851695021
 11
10.6656923427
 21
7.7851695021
  0
LINE
  5
248
100
AcDbEntity
  8
0
100
AcDbLine
 62
7
  6
CONTINUOUS
 10
9.8723147386
 20
11.0591695021
 11
9.8723147386
 21
11.6691695021
  0
LINE
  5
249
100
AcDbEntity
  8
0
100
AcDbLine
 62
7
  6
CONTINUOUS
 10
9.9251923427
 20
6.8401369698
 11
9.9251923427
 21
6.5911695021
  0
LINE
  5
24A
100
AcDbEntity
  8
0
100
AcDbLine
 62
7
  6
CONTINUOUS
 10
10.7576923427
 20
7.8411695021
 11
11.1176923427
 21
7.8411695021
  0
LINE
  5
24B
100
AcDbEntity
  8
0
100
AcDbLine
 62
7
  6
CONTINUOUS
 10
11.1076923427
 20
7.8511695021
 11
10.7676923427
 21
7.8511695021
  0
LINE
  5
24C
100
AcDbEntity
  8
0
100
AcDbLine
 62
9
  6
CONTINUOUS
 10
10.2808217393
 20
7.894510275
 11
11.5945629461
 21
7.894510275
  0
LINE
  5
24D
100
AcDbEntity
  8
0
100
AcDbLine
 62
9
  6
CONTINUOUS
 10
6.4131972422
 20
8.203663982
 11
7.4621874432
 21
8.203663982
  0
LINE
  5
24E
100
AcDbEntity
  8
0
100
AcDbLine
 62
9
  6
CONTINUOUS
 10
14.4131972422
 20
8.203663982
 11
15.4621874432
 21
8.203663982
  0
LINE
  5
24F
100
AcDbEntity
  8
0
100
AcDbLine
 62
7
  6
CONTINUOUS
 10
10.2991642053
 20
11.0432445401
 11
10.2983232992
 21
11.0591695021
  0
LINE
  5
250
100
AcDbEntity
  8
0
100
AcDbLine
 62
7
  6
CONTINUOUS
 10
10.0703899294
 20
11.0591695021
 11
10.0703899294
 21
11.6691695021
  0
LINE
  5
251
100
AcDbEntity
  8
0
100
AcDbLine
 62
7
  6
CONTINUOUS
 10
10.1776923427
 20
10.693430271
 11
10.1776923427
 21
10.1340026499
  0
LINE
  5
252
100
AcDbEntity
  8
0
100
AcDbLine
 62
7
  6
CONTINUOUS
 10
10.2983232992
 20
11.0591695021
 11
10.2983232992
 21
11.6691695021
  0
LINE
  5
253
100
AcDbEntity
  8
0
100
AcDbLine
 62
7
  6
CONTINUOUS
 10
10.4751923427
 20
7.0911695021
 11
10.4751923427
 21
7.1711695021
  0
LINE
  5
254
100
AcDbEntity
  8
0
100
AcDbLine
 62
7
  6
CONTINUOUS
 10
10.3621034099
 20
10.0591695021
 11
10.2808217393
 21
7.894510275
  0
LINE
  5
255
100
AcDbEntity
  8
0
100
AcDbLine
 62
7
  6
CONTINUOUS
 10
11.9276923427
 20
10.969602573
 11
11.7261611215
 21
10.7633107717
  0
LINE
  5
256
100
AcDbEntity
  8
0
100
AcDbLine
 62
7
  6
CONTINUOUS
 10
17.2359325978
 20
9.7076688106
 11
16.1810964257
 21
9.5026294293
  0
LINE
  5
257
100
AcDbEntity
  8
0
100
AcDbLine
 62
9
  6
CONTINUOUS
 10
6.5030267991
 20
8.3940645123
 11
7.3723578863
 21
8.3940645123
  0
LINE
  5
258
100
AcDbEntity
  8
0
100
AcDbLine
 62
9
  6
CONTINUOUS
 10
14.5030267991
 20
8.3940645123
 11
15.3723578863
 21
8.3940645123
  0
LINE
  5
259
100
AcDbEntity
  8
0
100
AcDbLine
 62
9
  6
CONTINUOUS
 10
15.3478489925
 20
8.5330613564
 11
14.527535693
 21
8.5330613564
  0
LINE
  5
25A
100
AcDbEntity
  8
0
100
AcDbLine
 62
9
  6
CONTINUOUS
 10
7.3478489925
 20
8.5330613564
 11
6.527535693
 21
8.5330613564
  0
LINE
  5
25B
100
AcDbEntity
  8
0
100
AcDbLine
 62
7
  6
CONTINUOUS
 10
15.2690643722
 20
8.5991695021
 11
14.6063203132
 21
8.5991695021
  0
LINE
  5
25C
100
AcDbEntity
  8
0
100
AcDbLine
 62
7
  6
CONTINUOUS
 10
7.2690643722
 20
8.5991695021
 11
6.6063203132
 21
8.5991695021
  0
LINE
  5
25D
100
AcDbEntity
  8
0
100
AcDbLine
 62
7
  6
CONTINUOUS
 10
6.5852059584
 20
8.6304195021
 11
7.2901787271
 21
8.6304195021
  0
LINE
  5
25E
100
AcDbEntity
  8
0
100
AcDbLine
 62
7
  6
CONTINUOUS
 10
14.5852059584
 20
8.6304195021
 11
15.2901787271
 21
8.6304195021
  0
LINE
  5
25F
100
AcDbEntity
  8
0
100
AcDbLine
 62
7
  6
CONTINUOUS
 10
15.2901923427
 20
8.6804195021
 11
14.5851923427
 21
8.6804195021
  0
LINE
  5
260
100
AcDbEntity
  8
0
100
AcDbLine
 62
7
  6
CONTINUOUS
 10
7.2901923427
 20
8.6804195021
 11
6.5851923427
 21
8.6804195021
  0
LINE
  5
261
100
AcDbEntity
  8
0
100
AcDbLine
 62
7
  6
CONTINUOUS
 10
4.6394520876
 20
9.7076688106
 11
5.6942882597
 21
9.5026294293
  0
LINE
  5
262
100
AcDbEntity
  8
0
100
AcDbLine
 62
7
  6
CONTINUOUS
 10
11.1076923427
 20
7.8511695021
 11
11.1176923427
 21
7.8411695021
  0
LINE
  5
263
100
AcDbEntity
  8
0
100
AcDbLine
 62
7
  6
CONTINUOUS
 10
10.6071923427
 20
7.7141695021
 11
10.6071923427
 21
7.6431695021
  0
LINE
  5
264
100
AcDbEntity
  8
0
100
AcDbLine
 62
7
  6
CONTINUOUS
 10
10.6656923427
 20
7.7851695021
 11
10.6656923427
 21
7.7611695021
  0
LINE
  5
265
100
AcDbEntity
  8
0
100
AcDbLine
 62
7
  6
CONTINUOUS
 10
10.7765191113
 20
11.0591695021
 11
10.7765191113
 21
11.6691695021
  0
LINE
  5
266
100
AcDbEntity
  8
0
100
AcDbLine
 62
7
  6
CONTINUOUS
 10
15.3876923427
 20
9.0634195021
 11
15.3426923427
 21
9.0634195021
  0
LINE
  5
267
100
AcDbEntity
  8
0
100
AcDbLine
 62
7
  6
CONTINUOUS
 10
6.4876923427
 20
9.0634195021
 11
6.5326923427
 21
9.0634195021
  0
LINE
  5
268
100
AcDbEntity
  8
0
100
AcDbLine
 62
9
  6
CONTINUOUS
 10
15.3141496157
 20
9.083711283
 11
14.5612350698
 21
9.083711283
  0
LINE
  5
269
100
AcDbEntity
  8
0
100
AcDbLine
 62
9
  6
CONTINUOUS
 10
7.3141496157
 20
9.083711283
 11
6.5612350698
 21
9.083711283
  0
LINE
  5
26A
100
AcDbEntity
  8
0
100
AcDbLine
 62
7
  6
CONTINUOUS
 10
11.0988655742
 20
11.0591695021
 11
11.0988655742
 21
11.6691695021
  0
LINE
  5
26B
100
AcDbEntity
  8
0
100
AcDbLine
 62
7
  6
CONTINUOUS
 10
11.2096923427
 20
7.7851695021
 11
11.2096923427
 21
7.7611695021
  0
LINE
  5
26C
100
AcDbEntity
  8
0
100
AcDbLine
 62
7
  6
CONTINUOUS
 10
11.2681923427
 20
7.7141695021
 11
11.2681923427
 21
7.6431695021
  0
LINE
  5
26D
100
AcDbEntity
  8
0
100
AcDbLine
 62
7
  6
CONTINUOUS
 10
11.4001923427
 20
7.0911695021
 11
11.4001923427
 21
7.1711695021
  0
LINE
  5
26E
100
AcDbEntity
  8
0
100
AcDbLine
 62
7
  6
CONTINUOUS
 10
11.5770613863
 20
11.0591695021
 11
11.5762204802
 21
11.0432442988
  0
LINE
  5
26F
100
AcDbEntity
  8
0
100
AcDbLine
 62
7
  6
CONTINUOUS
 10
15.3876923427
 20
9.5634195021
 11
15.3426923427
 21
9.5634195021
  0
LINE
  5
270
100
AcDbEntity
  8
0
100
AcDbLine
 62
7
  6
CONTINUOUS
 10
6.4876923427
 20
9.5634195021
 11
6.5326923427
 21
9.5634195021
  0
LINE
  5
271
100
AcDbEntity
  8
0
100
AcDbLine
 62
7
  6
CONTINUOUS
 10
6.6071923427
 20
9.5924195021
 11
7.2681923427
 21
9.5924195021
  0
LINE
  5
272
100
AcDbEntity
  8
0
100
AcDbLine
 62
7
  6
CONTINUOUS
 10
14.6071923427
 20
9.5924195021
 11
15.2681923427
 21
9.5924195021
  0
LINE
  5
273
100
AcDbEntity
  8
0
100
AcDbLine
 62
9
  6
CONTINUOUS
 10
15.2681923427
 20
9.6634195021
 11
14.6071923427
 21
9.6634195021
  0
LINE
  5
274
100
AcDbEntity
  8
0
100
AcDbLine
 62
9
  6
CONTINUOUS
 10
7.2681923427
 20
9.6634195021
 11
6.6071923427
 21
9.6634195021
  0
LINE
  5
275
100
AcDbEntity
  8
0
100
AcDbLine
 62
7
  6
CONTINUOUS
 10
15.2211914797
 20
9.7104195021
 11
14.6541932058
 21
9.7104195021
  0
LINE
  5
276
100
AcDbEntity
  8
0
100
AcDbLine
 62
7
  6
CONTINUOUS
 10
7.2211914797
 20
9.7104195021
 11
6.6541932058
 21
9.7104195021
  0
LINE
  5
277
100
AcDbEntity
  8
0
100
AcDbLine
 62
7
  6
CONTINUOUS
 10
15.2096915165
 20
9.7344195021
 11
14.665693169
 21
9.7344195021
  0
LINE
  5
278
100
AcDbEntity
  8
0
100
AcDbLine
 62
7
  6
CONTINUOUS
 10
7.2096915165
 20
9.7344195021
 11
6.665693169
 21
9.7344195021
  0
LINE
  5
279
100
AcDbEntity
  8
0
100
AcDbLine
 62
7
  6
CONTINUOUS
 10
6.7576923427
 20
9.7904195021
 11
7.1176923427
 21
9.7904195021
  0
LINE
  5
27A
100
AcDbEntity
  8
0
100
AcDbLine
 62
7
  6
CONTINUOUS
 10
14.7576923427
 20
9.7904195021
 11
15.1176923427
 21
9.7904195021
  0
LINE
  5
27B
100
AcDbEntity
  8
0
100
AcDbLine
 62
7
  6
CONTINUOUS
 10
15.1076800399
 20
9.8004195021
 11
14.7677046456
 21
9.8004195021
  0
LINE
  5
27C
100
AcDbEntity
  8
0
100
AcDbLine
 62
7
  6
CONTINUOUS
 10
7.1076800399
 20
9.8004195021
 11
6.7677046456
 21
9.8004195021
  0
LINE
  5
27D
100
AcDbEntity
  8
0
100
AcDbLine
 62
7
  6
CONTINUOUS
 10
9.9476923427
 20
10.969602573
 11
10.149223564
 21
10.7633107717
  0
LINE
  5
27E
100
AcDbEntity
  8
0
100
AcDbLine
 62
7
  6
CONTINUOUS
 10
11.5132812755
 20
10.0591695021
 11
11.5945629461
 21
7.894510275
  0
LINE
  5
27F
100
AcDbEntity
  8
0
100
AcDbLine
 62
7
  6
CONTINUOUS
 10
11.5770613863
 20
11.0591695021
 11
11.5770613863
 21
11.6691695021
  0
LINE
  5
280
100
AcDbEntity
  8
0
100
AcDbLine
 62
7
  6
CONTINUOUS
 10
11.6976923427
 20
10.693430271
 11
11.6976923427
 21
10.1340026499
  0
LINE
  5
281
100
AcDbEntity
  8
0
100
AcDbLine
 62
7
  6
CONTINUOUS
 10
11.8049947561
 20
11.0591695021
 11
11.8049947561
 21
11.6691695021
  0
LINE
  5
282
100
AcDbEntity
  8
0
100
AcDbLine
 62
7
  6
CONTINUOUS
 10
11.9501923427
 20
6.8401369698
 11
11.9501923427
 21
6.5911695021
  0
LINE
  5
283
100
AcDbEntity
  8
0
100
AcDbLine
 62
7
  6
CONTINUOUS
 10
12.0030699469
 20
11.0591695021
 11
12.0030699469
 21
11.6691695021
  0
LINE
  5
284
100
AcDbEntity
  8
0
100
AcDbLine
 62
7
  6
CONTINUOUS
 10
10.7676923427
 20
7.8511695021
 11
10.7576923427
 21
7.8411695021
  0
LINE
  5
285
100
AcDbEntity
  8
0
100
AcDbLine
 62
7
  6
CONTINUOUS
 10
4.6394520876
 20
8.9191701937
 11
5.6942882597
 21
9.1242095749
  0
LINE
  5
286
100
AcDbEntity
  8
0
100
AcDbLine
 62
7
  6
CONTINUOUS
 10
10.1976923427
 20
10.0591695021
 11
11.6776923427
 21
10.0591695021
  0
LINE
  5
287
100
AcDbEntity
  8
0
100
AcDbLine
 62
9
  6
CONTINUOUS
 10
10.1776923427
 20
10.1340026499
 11
11.6976923427
 21
10.1340026499
  0
LINE
  5
288
100
AcDbEntity
  8
0
100
AcDbLine
 62
7
  6
CONTINUOUS
 10
17.2359325978
 20
8.9191701937
 11
16.1810964257
 21
9.1242095749
  0
LINE
  5
289
100
AcDbEntity
  8
0
100
AcDbLine
 62
9
  6
CONTINUOUS
 10
11.6976923427
 20
10.693430271
 11
10.1777068276
 21
10.693430271
  0
LINE
  5
28A
100
AcDbEntity
  8
0
100
AcDbLine
 62
9
  6
CONTINUOUS
 10
10.149223564
 20
10.7633107717
 11
11.7261611215
 21
10.7633107717
  0
LINE
  5
28B
100
AcDbEntity
  8
0
100
AcDbLine
 62
7
  6
CONTINUOUS
 10
9.8723147386
 20
11.0591695021
 11
10.0703899294
 21
11.0591695021
  0
LINE
  5
28C
100
AcDbEntity
  8
0
100
AcDbLine
 62
7
  6
CONTINUOUS
 10
10.2983232992
 20
11.0591695021
 11
10.7765191113
 21
11.0591695021
  0
LINE
  5
28D
100
AcDbEntity
  8
0
100
AcDbLine
 62
7
  6
CONTINUOUS
 10
11.0988655742
 20
11.0591695021
 11
11.5770613863
 21
11.0591695021
  0
LINE
  5
28E
100
AcDbEntity
  8
0
100
AcDbLine
 62
7
  6
CONTINUOUS
 10
11.8049947561
 20
11.0591695021
 11
12.0030699469
 21
11.0591695021
  0
LINE
  5
28F
100
AcDbEntity
  8
0
100
AcDbLine
 62
7
  6
CONTINUOUS
 10
14.7676923427
 20
9.8004195021
 11
14.7576923427
 21
9.7904195021
  0
LINE
  5
290
100
AcDbEntity
  8
0
100
AcDbLine
 62
9
  6
CONTINUOUS
 10
12.0030699469
 20
11.6691695021
 11
11.8049947561
 21
11.6691695021
  0
LINE
  5
291
100
AcDbEntity
  8
0
100
AcDbLine
 62
9
  6
CONTINUOUS
 10
11.5770613863
 20
11.6691695021
 11
11.0988655742
 21
11.6691695021
  0
LINE
  5
292
100
AcDbEntity
  8
0
100
AcDbLine
 62
9
  6
CONTINUOUS
 10
10.7765191113
 20
11.6691695021
 11
10.2983232992
 21
11.6691695021
  0
LINE
  5
293
100
AcDbEntity
  8
0
100
AcDbLine
 62
9
  6
CONTINUOUS
 10
10.0703899294
 20
11.6691695021
 11
9.8723147386
 21
11.6691695021
  0
LINE
  5
294
100
AcDbEntity
  8
0
100
AcDbLine
 62
7
  6
CONTINUOUS
 10
11.8651923427
 20
11.8191695021
 11
10.0101923427
 21
11.8191695021
  0
LINE
  5
295
100
AcDbEntity
  8
0
100
AcDbLine
 62
7
  6
CONTINUOUS
 10
13.7676923427
 20
6.6051695021
 11
13.7676923427
 21
6.5911695021
  0
LINE
  5
296
100
AcDbEntity
  8
0
100
AcDbLine
 62
7
  6
CONTINUOUS
 10
15.3176664221
 20
9.5383935815
 11
15.3426923427
 21
9.5634195021
  0
LINE
  5
297
100
AcDbEntity
  8
0
100
AcDbLine
 62
9
  6
CONTINUOUS
 10
10.0285559097
 20
11.8791695021
 11
11.8468287758
 21
11.8791695021
  0
LINE
  5
298
100
AcDbEntity
  8
0
100
AcDbLine
 62
7
  6
CONTINUOUS
 10
15.3176923427
 20
9.0884195021
 11
15.3426923427
 21
9.0634195021
  0
LINE
  5
299
100
AcDbEntity
  8
0
100
AcDbLine
 62
7
  6
CONTINUOUS
 10
15.3176923427
 20
9.0883590248
 11
15.3141496157
 21
9.083711283
  0
LINE
  5
29A
100
AcDbEntity
  8
0
100
AcDbLine
 62
7
  6
CONTINUOUS
 10
15.1076923427
 20
9.8004195021
 11
15.1176923427
 21
9.7904195021
  0
LINE
  5
29B
100
AcDbEntity
  8
0
100
AcDbLine
 62
7
  6
CONTINUOUS
 10
15.2681923427
 20
9.5924195021
 11
15.3176664221
 21
9.5383935815
  0
LINE
  5
29C
100
AcDbEntity
  8
0
100
AcDbLine
 62
7
  6
CONTINUOUS
 10
14.5851923427
 20
8.6804195021
 11
14.5851923427
 21
8.6304195021
  0
LINE
  5
29D
100
AcDbEntity
  8
0
100
AcDbLine
 62
7
  6
CONTINUOUS
 10
14.6071923427
 20
9.6634195021
 11
14.6071923427
 21
9.5924195021
  0
LINE
  5
29E
100
AcDbEntity
  8
0
100
AcDbLine
 62
7
  6
CONTINUOUS
 10
14.6656923427
 20
9.7344195021
 11
14.6656923427
 21
9.7104195021
  0
LINE
  5
29F
100
AcDbEntity
  8
0
100
AcDbLine
 62
7
  6
CONTINUOUS
 10
14.7376923427
 20
8.6304195021
 11
14.7376923427
 21
8.5991695021
  0
LINE
  5
2A0
100
AcDbEntity
  8
0
100
AcDbLine
 62
7
  6
CONTINUOUS
 10
14.527535693
 20
8.5330613564
 11
14.5030267991
 21
8.3940645123
  0
LINE
  5
2A1
100
AcDbEntity
  8
0
100
AcDbLine
 62
7
  6
CONTINUOUS
 10
15.1376923427
 20
8.6304195021
 11
15.1376923427
 21
8.5991695021
  0
LINE
  5
2A2
100
AcDbEntity
  8
0
100
AcDbLine
 62
7
  6
CONTINUOUS
 10
15.2096923427
 20
9.7344195021
 11
15.2096923427
 21
9.7104195021
  0
LINE
  5
2A3
100
AcDbEntity
  8
0
100
AcDbLine
 62
7
  6
CONTINUOUS
 10
15.2681923427
 20
9.6634195021
 11
15.2681923427
 21
9.5924195021
  0
LINE
  5
2A4
100
AcDbEntity
  8
0
100
AcDbLine
 62
7
  6
CONTINUOUS
 10
15.2901923427
 20
8.6804195021
 11
15.2901923427
 21
8.6304195021
  0
LINE
  5
2A5
100
AcDbEntity
  8
0
100
AcDbLine
 62
7
  6
CONTINUOUS
 10
15.3176923427
 20
9.5381323155
 11
15.3176923427
 21
9.0884105575
  0
LINE
  5
2A6
100
AcDbEntity
  8
0
100
AcDbLine
 62
7
  6
CONTINUOUS
 10
15.3426923427
 20
9.5634195021
 11
15.3426923427
 21
9.0634195021
  0
LINE
  5
2A7
100
AcDbEntity
  8
0
100
AcDbLine
 62
7
  6
CONTINUOUS
 10
15.3876923427
 20
9.0634195021
 11
15.3876923427
 21
9.5634195021
  0
LINE
  5
2A8
100
AcDbEntity
  8
0
100
AcDbLine
 62
7
  6
CONTINUOUS
 10
15.3478489925
 20
8.5330613564
 11
15.3723578863
 21
8.3940645123
  0
LINE
  5
2A9
100
AcDbEntity
  8
0
100
AcDbLine
 62
7
  6
CONTINUOUS
 10
16.1076923427
 20
6.6051695021
 11
16.1076923427
 21
6.5911695021
  0
LINE
  5
2AA
100
AcDbEntity
  8
0
100
AcDbLine
 62
9
  6
CONTINUOUS
 10
16.1810964257
 20
9.5026294293
 11
16.1810964257
 21
9.1242095749
  0
LINE
  5
2AB
100
AcDbEntity
  8
0
100
AcDbLine
 62
9
  6
CONTINUOUS
 10
17.2359325978
 20
8.9191701937
 11
17.2359325978
 21
9.7076688106
  0
LINE
  5
2AC
100
AcDbEntity
  8
0
100
AcDbLine
 62
7
  6
CONTINUOUS
 10
17.5796923427
 20
9.5319195021
 11
17.5796923427
 21
9.0949195021
  0
LINE
  5
2AD
100
AcDbEntity
  8
0
100
AcDbLine
 62
9
  6
CONTINUOUS
 10
17.7726345072
 20
9.5296160305
 11
17.7726345072
 21
9.0972229738
  0
LINE
  5
2AE
100
AcDbEntity
  8
0
100
AcDbLine
 62
7
  6
CONTINUOUS
 10
17.9026923427
 20
9.5509195021
 11
17.9026923427
 21
9.0759195021
  0
ARC
  5
2AF
100
AcDbEntity
  8
0
100
AcDbCircle
 62
7
  6
CONTINUOUS
 10
7.6389533674
 20
7.3597952652
 40
1.52
100
AcDbArc
 50
168.4101664983
 51
183.7580464625
  0
ARC
  5
2B0
100
AcDbEntity
  8
0
100
AcDbCircle
 62
7
  6
CONTINUOUS
 10
6.2364313181
 20
7.3597952652
 40
1.52
100
AcDbArc
 50
356.2419535375
 51
11.5898335017
  0
ARC
  5
2B1
100
AcDbEntity
  8
0
100
AcDbCircle
 62
7
  6
CONTINUOUS
 10
5.9805017528
 20
7.6517687998
 40
1.5
100
AcDbArc
 50
70.2371945424
 51
101.0
  0
ARC
  5
2B2
100
AcDbEntity
  8
0
100
AcDbCircle
 62
7
  6
CONTINUOUS
 10
10.6136723347
 20
6.9616374993
 40
1.3
100
AcDbArc
 50
357.7751307225
 51
37.4382101819
  0
ARC
  5
2B3
100
AcDbEntity
  8
0
100
AcDbCircle
 62
7
  6
CONTINUOUS
 10
6.5499068104
 20
7.4240845782
 40
1.2
100
AcDbArc
 50
11.5898335019
 51
40.5151811264
  0
ARC
  5
2B4
100
AcDbEntity
  8
0
100
AcDbCircle
 62
7
  6
CONTINUOUS
 10
7.3254778751
 20
7.4240845782
 40
1.2
100
AcDbArc
 50
139.4848188736
 51
168.4101664981
  0
ARC
  5
2B5
100
AcDbEntity
  8
0
100
AcDbCircle
 62
7
  6
CONTINUOUS
 10
10.8464719365
 20
6.4082744624
 40
0.9
100
AcDbArc
 50
11.7251268757
 51
49.3560828237
  0
ARC
  5
2B6
100
AcDbEntity
  8
0
100
AcDbCircle
 62
7
  6
CONTINUOUS
 10
10.8751923427
 20
7.1711695021
 40
0.4
100
AcDbArc
 50
155.7790568907
 51
180.0
  0
ARC
  5
2B7
100
AcDbEntity
  8
0
100
AcDbCircle
 62
7
  6
CONTINUOUS
 10
6.1091036979
 20
8.4635237833
 40
0.4
100
AcDbArc
 50
319.4848188736
 51
350.0
  0
ARC
  5
2B8
100
AcDbEntity
  8
0
100
AcDbCircle
 62
7
  6
CONTINUOUS
 10
7.7662809875
 20
8.4635237833
 40
0.4
100
AcDbArc
 50
190.0
 51
220.5151811264
  0
ARC
  5
2B9
100
AcDbEntity
  8
0
100
AcDbCircle
 62
7
  6
CONTINUOUS
 10
10.8576923427
 20
7.3641090248
 40
0.375
100
AcDbArc
 50
131.9128908834
 51
192.0786854135
  0
ARC
  5
2BA
100
AcDbEntity
  8
0
100
AcDbCircle
 62
7
  6
CONTINUOUS
 10
8.0954253621
 20
7.2376881622
 40
0.343
100
AcDbArc
 50
176.2419535375
 51
230.9887457036
  0
ARC
  5
2BB
100
AcDbEntity
  8
0
100
AcDbCircle
 62
7
  6
CONTINUOUS
 10
5.7799593234
 20
7.2376881622
 40
0.343
100
AcDbArc
 50
309.0112542964
 51
3.7580464625
  0
ARC
  5
2BC
100
AcDbEntity
  8
0
100
AcDbCircle
 62
7
  6
CONTINUOUS
 10
10.0309977979
 20
7.9038910159
 40
0.25
100
AcDbArc
 50
322.5617898181
 51
357.849587733
  0
ARC
  5
2BD
100
AcDbEntity
  8
0
100
AcDbCircle
 62
7
  6
CONTINUOUS
 10
5.8926923427
 20
6.6051695021
 40
0.125
100
AcDbArc
 50
118.3576365763
 51
180.0
  0
ARC
  5
2BE
100
AcDbEntity
  8
0
100
AcDbCircle
 62
7
  6
CONTINUOUS
 10
7.9826923427
 20
6.6051695021
 40
0.125
100
AcDbArc
 50
0.0
 51
61.6423634237
  0
ARC
  5
2BF
100
AcDbEntity
  8
0
100
AcDbCircle
 62
7
  6
CONTINUOUS
 10
10.0112172848
 20
6.8401369698
 40
0.0860249421
100
AcDbArc
 50
124.338423378
 51
180.0
  0
ARC
  5
2C0
100
AcDbEntity
  8
0
100
AcDbCircle
 62
7
  6
CONTINUOUS
 10
7.2690643722
 20
8.5191695021
 40
0.08
100
AcDbArc
 50
9.9999999997
 51
90.0
  0
ARC
  5
2C1
100
AcDbEntity
  8
0
100
AcDbCircle
 62
7
  6
CONTINUOUS
 10
6.6063203132
 20
8.5191695021
 40
0.08
100
AcDbArc
 50
90.0
 51
170.0000000003
  0
ARC
  5
2C2
100
AcDbEntity
  8
0
100
AcDbCircle
 62
7
  6
CONTINUOUS
 10
5.998456752
 20
6.8542714376
 40
0.078
100
AcDbArc
 50
120.9443106101
 51
171.96842665
  0
ARC
  5
2C3
100
AcDbEntity
  8
0
100
AcDbCircle
 62
7
  6
CONTINUOUS
 10
7.8769279335
 20
6.8542714376
 40
0.078
100
AcDbArc
 50
8.03157335
 51
59.0556893899
  0
ARC
  5
2C4
100
AcDbEntity
  8
0
100
AcDbCircle
 62
7
  6
CONTINUOUS
 10
5.9436412846
 20
6.7616907925
 40
0.078
100
AcDbArc
 50
126.7734275124
 51
176.708302835
  0
ARC
  5
2C5
100
AcDbEntity
  8
0
100
AcDbCircle
 62
7
  6
CONTINUOUS
 10
7.9317434009
 20
6.7616907925
 40
0.078
100
AcDbArc
 50
3.291697165
 51
53.2265724876
  0
ARC
  5
2C6
100
AcDbEntity
  8
0
100
AcDbCircle
 62
7
  6
CONTINUOUS
 10
7.948916591
 20
6.9743448868
 40
0.062
100
AcDbArc
 50
197.0467181652
 51
239.0556893902
  0
ARC
  5
2C7
100
AcDbEntity
  8
0
100
AcDbCircle
 62
7
  6
CONTINUOUS
 10
5.9264680945
 20
6.9743448868
 40
0.062
100
AcDbArc
 50
300.9443106098
 51
342.9532818348
  0
ARC
  5
2C8
100
AcDbEntity
  8
0
100
AcDbCircle
 62
7
  6
CONTINUOUS
 10
8.0155547051
 20
6.8738320662
 40
0.062
100
AcDbArc
 50
188.0315733501
 51
233.2265724873
  0
ARC
  5
2C9
100
AcDbEntity
  8
0
100
AcDbCircle
 62
7
  6
CONTINUOUS
 10
5.8598299804
 20
6.8738320662
 40
0.062
100
AcDbArc
 50
306.7734275127
 51
351.9684266499
  0
ARC
  5
2CA
100
AcDbEntity
  8
0
100
AcDbCircle
 62
7
  6
CONTINUOUS
 10
8.0715124215
 20
6.7697295021
 40
0.062
100
AcDbArc
 50
183.291697165
 51
241.6423634236
  0
ARC
  5
2CB
100
AcDbEntity
  8
0
100
AcDbCircle
 62
7
  6
CONTINUOUS
 10
5.8038722639
 20
6.7697295021
 40
0.062
100
AcDbArc
 50
298.3576365764
 51
356.708302835
  0
ARC
  5
2CC
100
AcDbEntity
  8
0
100
AcDbCircle
 62
7
  6
CONTINUOUS
 10
10.7007011153
 20
7.8421695021
 40
0.057
100
AcDbArc
 50
270.0
 51
358.9947593146
  0
ARC
  5
2CD
100
AcDbEntity
  8
0
100
AcDbCircle
 62
7
  6
CONTINUOUS
 10
10.6541923427
 20
7.7141695021
 40
0.047
100
AcDbArc
 50
90.0
 51
180.0
  0
ARC
  5
2CE
100
AcDbEntity
  8
0
100
AcDbCircle
 62
7
  6
CONTINUOUS
 10
6.0153822364
 20
6.9470818098
 40
0.031
100
AcDbArc
 50
129.0112542963
 51
162.9532818349
  0
ARC
  5
2CF
100
AcDbEntity
  8
0
100
AcDbCircle
 62
7
  6
CONTINUOUS
 10
7.8600024491
 20
6.9470818098
 40
0.031
100
AcDbArc
 50
17.0467181651
 51
50.9887457037
  0
ARC
  5
2D0
100
AcDbEntity
  8
0
100
AcDbCircle
 62
7
  6
CONTINUOUS
 10
10.5195239579
 20
7.3311695021
 40
0.01
100
AcDbArc
 50
90.0
 51
155.7790568908
  0
ARC
  5
2D1
100
AcDbEntity
  8
0
100
AcDbCircle
 62
7
  6
CONTINUOUS
 10
7.7763594623
 20
9.2187569998
 40
2.7892914331
100
AcDbArc
 50
38.8808295213
 51
41.2856606153
  0
ARC
  5
2D2
100
AcDbEntity
  8
0
100
AcDbCircle
 62
7
  6
CONTINUOUS
 10
5.9805017528
 20
10.9750702045
 40
1.5
100
AcDbArc
 50
259.0
 51
289.7628054576
  0
ARC
  5
2D3
100
AcDbEntity
  8
0
100
AcDbCircle
 62
7
  6
CONTINUOUS
 10
7.0176923427
 20
9.3133590248
 40
0.375
100
AcDbArc
 50
322.2371948107
 51
48.0871091166
  0
ARC
  5
2D4
100
AcDbEntity
  8
0
100
AcDbCircle
 62
7
  6
CONTINUOUS
 10
6.2783109905
 20
8.8645468981
 40
0.3578813522
100
AcDbArc
 50
329.0364377797
 51
37.7628051893
  0
ARC
  5
2D5
100
AcDbEntity
  8
0
100
AcDbCircle
 62
7
  6
CONTINUOUS
 10
7.597073695
 20
8.8645468981
 40
0.3578813522
100
AcDbArc
 50
142.2371948107
 51
210.9635622203
  0
ARC
  5
2D6
100
AcDbEntity
  8
0
100
AcDbCircle
 62
7
  6
CONTINUOUS
 10
4.5797288721
 20
9.2264195021
 40
0.313
100
AcDbArc
 50
204.8426560169
 51
281.0000000001
  0
ARC
  5
2D7
100
AcDbEntity
  8
0
100
AcDbCircle
 62
7
  6
CONTINUOUS
 10
4.5797288721
 20
9.4004195021
 40
0.313
100
AcDbArc
 50
78.9999999999
 51
155.1573439831
  0
ARC
  5
2D8
100
AcDbEntity
  8
0
100
AcDbCircle
 62
7
  6
CONTINUOUS
 10
4.0506639997
 20
9.3134195021
 40
0.249971657
100
AcDbArc
 50
108.1750968409
 51
251.8249031591
  0
ARC
  5
2D9
100
AcDbEntity
  8
0
100
AcDbCircle
 62
7
  6
CONTINUOUS
 10
10.0101923427
 20
11.6691695021
 40
0.15
100
AcDbArc
 50
90.0
 51
114.6243183522
  0
ARC
  5
2DA
100
AcDbEntity
  8
0
100
AcDbCircle
 62
7
  6
CONTINUOUS
 10
10.3276923427
 20
10.1340026499
 40
0.15
100
AcDbArc
 50
180.0
 51
209.9264348665
  0
ARC
  5
2DB
100
AcDbEntity
  8
0
100
AcDbCircle
 62
7
  6
CONTINUOUS
 10
4.2005923953
 20
9.4159195021
 40
0.15
100
AcDbArc
 50
50.6541702341
 51
130.7138348858
  0
ARC
  5
2DC
100
AcDbEntity
  8
0
100
AcDbCircle
 62
7
  6
CONTINUOUS
 10
4.2005923953
 20
9.2109195021
 40
0.15
100
AcDbArc
 50
229.2861651142
 51
309.3458297659
  0
ARC
  5
2DD
100
AcDbEntity
  8
0
100
AcDbCircle
 62
7
  6
CONTINUOUS
 10
10.0776923427
 20
10.693430271
 40
0.1
100
AcDbArc
 50
0.0
 51
44.3312080467
  0
ARC
  5
2DE
100
AcDbEntity
  8
0
100
AcDbCircle
 62
7
  6
CONTINUOUS
 10
4.0466539738
 20
9.5948020401
 40
0.086
100
AcDbArc
 50
210.6812875935
 51
310.7138348857
  0
ARC
  5
2DF
100
AcDbEntity
  8
0
100
AcDbCircle
 62
7
  6
CONTINUOUS
 10
4.0466539738
 20
9.0320369642
 40
0.086
100
AcDbArc
 50
49.2861651143
 51
149.3187124065
  0
ARC
  5
2E0
100
AcDbEntity
  8
0
100
AcDbCircle
 62
7
  6
CONTINUOUS
 10
7.1736923427
 20
9.7904195021
 40
0.056
100
AcDbArc
 50
180.0
 51
270.0
  0
ARC
  5
2E1
100
AcDbEntity
  8
0
100
AcDbCircle
 62
7
  6
CONTINUOUS
 10
6.7016923427
 20
9.7904195021
 40
0.056
100
AcDbArc
 50
270.0
 51
360.0
  0
ARC
  5
2E2
100
AcDbEntity
  8
0
100
AcDbCircle
 62
7
  6
CONTINUOUS
 10
7.2211923427
 20
9.6634195021
 40
0.047
100
AcDbArc
 50
0.0
 51
90.0
  0
ARC
  5
2E3
100
AcDbEntity
  8
0
100
AcDbCircle
 62
7
  6
CONTINUOUS
 10
6.6541923427
 20
9.6634195021
 40
0.047
100
AcDbArc
 50
90.0
 51
180.0
  0
ARC
  5
2E4
100
AcDbEntity
  8
0
100
AcDbCircle
 62
7
  6
CONTINUOUS
 10
10.0328456949
 20
11.8493228543
 40
0.0301533521
100
AcDbArc
 50
98.1789688981
 51
270.0
  0
ARC
  5
2E5
100
AcDbEntity
  8
0
100
AcDbCircle
 62
7
  6
CONTINUOUS
 10
10.9376923427
 20
5.553753703
 40
6.3904157991
100
AcDbArc
 50
81.821031102
 51
98.178968898
  0
ARC
  5
2E6
100
AcDbEntity
  8
0
100
AcDbCircle
 62
7
  6
CONTINUOUS
 10
14.2364313181
 20
7.3597952652
 40
1.52
100
AcDbArc
 50
356.2419535375
 51
11.5898335017
  0
ARC
  5
2E7
100
AcDbEntity
  8
0
100
AcDbCircle
 62
7
  6
CONTINUOUS
 10
15.6389533674
 20
7.3597952652
 40
1.52
100
AcDbArc
 50
168.4101664983
 51
183.7580464625
  0
ARC
  5
2E8
100
AcDbEntity
  8
0
100
AcDbCircle
 62
7
  6
CONTINUOUS
 10
15.8948829327
 20
7.6517687998
 40
1.5
100
AcDbArc
 50
79.0
 51
109.7628054576
  0
ARC
  5
2E9
100
AcDbEntity
  8
0
100
AcDbCircle
 62
7
  6
CONTINUOUS
 10
11.2617123508
 20
6.9616374993
 40
1.3
100
AcDbArc
 50
142.5617898182
 51
182.2248692774
  0
ARC
  5
2EA
100
AcDbEntity
  8
0
100
AcDbCircle
 62
7
  6
CONTINUOUS
 10
15.3254778751
 20
7.4240845782
 40
1.2
100
AcDbArc
 50
139.4848188736
 51
168.4101664981
  0
ARC
  5
2EB
100
AcDbEntity
  8
0
100
AcDbCircle
 62
7
  6
CONTINUOUS
 10
14.5499068104
 20
7.4240845782
 40
1.2
100
AcDbArc
 50
11.5898335019
 51
40.5151811264
  0
ARC
  5
2EC
100
AcDbEntity
  8
0
100
AcDbCircle
 62
7
  6
CONTINUOUS
 10
11.028912749
 20
6.4082744624
 40
0.9
100
AcDbArc
 50
130.6439171763
 51
168.2748731243
  0
ARC
  5
2ED
100
AcDbEntity
  8
0
100
AcDbCircle
 62
7
  6
CONTINUOUS
 10
11.0001923427
 20
7.1711695021
 40
0.4
100
AcDbArc
 50
0.0
 51
24.2209431093
  0
ARC
  5
2EE
100
AcDbEntity
  8
0
100
AcDbCircle
 62
7
  6
CONTINUOUS
 10
15.7662809875
 20
8.4635237833
 40
0.4
100
AcDbArc
 50
190.0
 51
220.5151811264
  0
ARC
  5
2EF
100
AcDbEntity
  8
0
100
AcDbCircle
 62
7
  6
CONTINUOUS
 10
14.1091036979
 20
8.4635237833
 40
0.4
100
AcDbArc
 50
319.4848188736
 51
350.0
  0
ARC
  5
2F0
100
AcDbEntity
  8
0
100
AcDbCircle
 62
7
  6
CONTINUOUS
 10
11.0176923427
 20
7.3641090248
 40
0.375
100
AcDbArc
 50
347.9213145865
 51
48.0871091166
  0
ARC
  5
2F1
100
AcDbEntity
  8
0
100
AcDbCircle
 62
7
  6
CONTINUOUS
 10
13.7799593234
 20
7.2376881622
 40
0.343
100
AcDbArc
 50
309.0112542964
 51
3.7580464625
  0
ARC
  5
2F2
100
AcDbEntity
  8
0
100
AcDbCircle
 62
7
  6
CONTINUOUS
 10
16.0954253621
 20
7.2376881622
 40
0.343
100
AcDbArc
 50
176.2419535375
 51
230.9887457036
  0
ARC
  5
2F3
100
AcDbEntity
  8
0
100
AcDbCircle
 62
7
  6
CONTINUOUS
 10
11.8443868875
 20
7.9038910159
 40
0.25
100
AcDbArc
 50
182.150412267
 51
217.4382101819
  0
ARC
  5
2F4
100
AcDbEntity
  8
0
100
AcDbCircle
 62
7
  6
CONTINUOUS
 10
15.9826923427
 20
6.6051695021
 40
0.125
100
AcDbArc
 50
0.0
 51
61.6423634237
  0
ARC
  5
2F5
100
AcDbEntity
  8
0
100
AcDbCircle
 62
7
  6
CONTINUOUS
 10
13.8926923427
 20
6.6051695021
 40
0.125
100
AcDbArc
 50
118.3576365763
 51
180.0
  0
ARC
  5
2F6
100
AcDbEntity
  8
0
100
AcDbCircle
 62
7
  6
CONTINUOUS
 10
11.8641674007
 20
6.8401369698
 40
0.0860249421
100
AcDbArc
 50
0.0
 51
55.661576622
  0
ARC
  5
2F7
100
AcDbEntity
  8
0
100
AcDbCircle
 62
7
  6
CONTINUOUS
 10
14.6063203132
 20
8.5191695021
 40
0.08
100
AcDbArc
 50
90.0
 51
170.0000000003
  0
ARC
  5
2F8
100
AcDbEntity
  8
0
100
AcDbCircle
 62
7
  6
CONTINUOUS
 10
15.2690643722
 20
8.5191695021
 40
0.08
100
AcDbArc
 50
9.9999999997
 51
90.0
  0
ARC
  5
2F9
100
AcDbEntity
  8
0
100
AcDbCircle
 62
7
  6
CONTINUOUS
 10
15.8769279335
 20
6.8542714376
 40
0.078
100
AcDbArc
 50
8.03157335
 51
59.0556893899
  0
ARC
  5
2FA
100
AcDbEntity
  8
0
100
AcDbCircle
 62
7
  6
CONTINUOUS
 10
13.998456752
 20
6.8542714376
 40
0.078
100
AcDbArc
 50
120.9443106101
 51
171.96842665
  0
ARC
  5
2FB
100
AcDbEntity
  8
0
100
AcDbCircle
 62
7
  6
CONTINUOUS
 10
15.9317434009
 20
6.7616907925
 40
0.078
100
AcDbArc
 50
3.291697165
 51
53.2265724876
  0
ARC
  5
2FC
100
AcDbEntity
  8
0
100
AcDbCircle
 62
7
  6
CONTINUOUS
 10
13.9436412846
 20
6.7616907925
 40
0.078
100
AcDbArc
 50
126.7734275124
 51
176.708302835
  0
ARC
  5
2FD
100
AcDbEntity
  8
0
100
AcDbCircle
 62
7
  6
CONTINUOUS
 10
13.9264680945
 20
6.9743448868
 40
0.062
100
AcDbArc
 50
300.9443106098
 51
342.9532818348
  0
ARC
  5
2FE
100
AcDbEntity
  8
0
100
AcDbCircle
 62
7
  6
CONTINUOUS
 10
15.948916591
 20
6.9743448868
 40
0.062
100
AcDbArc
 50
197.0467181652
 51
239.0556893902
  0
ARC
  5
2FF
100
AcDbEntity
  8
0
100
AcDbCircle
 62
7
  6
CONTINUOUS
 10
13.8598299804
 20
6.8738320662
 40
0.062
100
AcDbArc
 50
306.7734275127
 51
351.9684266499
  0
ARC
  5
300
100
AcDbEntity
  8
0
100
AcDbCircle
 62
7
  6
CONTINUOUS
 10
16.0155547051
 20
6.8738320662
 40
0.062
100
AcDbArc
 50
188.0315733501
 51
233.2265724873
  0
ARC
  5
301
100
AcDbEntity
  8
0
100
AcDbCircle
 62
7
  6
CONTINUOUS
 10
13.8038722639
 20
6.7697295021
 40
0.062
100
AcDbArc
 50
298.3576365764
 51
356.708302835
  0
ARC
  5
302
100
AcDbEntity
  8
0
100
AcDbCircle
 62
7
  6
CONTINUOUS
 10
16.0715124215
 20
6.7697295021
 40
0.062
100
AcDbArc
 50
183.291697165
 51
241.6423634236
  0
ARC
  5
303
100
AcDbEntity
  8
0
100
AcDbCircle
 62
7
  6
CONTINUOUS
 10
11.1746835701
 20
7.8421695021
 40
0.057
100
AcDbArc
 50
181.0052406854
 51
270.0
  0
ARC
  5
304
100
AcDbEntity
  8
0
100
AcDbCircle
 62
7
  6
CONTINUOUS
 10
11.2211923427
 20
7.7141695021
 40
0.047
100
AcDbArc
 50
0.0
 51
90.0
  0
ARC
  5
305
100
AcDbEntity
  8
0
100
AcDbCircle
 62
7
  6
CONTINUOUS
 10
15.8600024491
 20
6.9470818098
 40
0.031
100
AcDbArc
 50
17.0467181651
 51
50.9887457037
  0
ARC
  5
306
100
AcDbEntity
  8
0
100
AcDbCircle
 62
7
  6
CONTINUOUS
 10
14.0153822364
 20
6.9470818098
 40
0.031
100
AcDbArc
 50
129.0112542963
 51
162.9532818349
  0
ARC
  5
307
100
AcDbEntity
  8
0
100
AcDbCircle
 62
7
  6
CONTINUOUS
 10
11.3558607276
 20
7.3311695021
 40
0.01
100
AcDbArc
 50
24.2209431092
 51
90.0
  0
ARC
  5
308
100
AcDbEntity
  8
0
100
AcDbCircle
 62
7
  6
CONTINUOUS
 10
14.0990265918
 20
9.2187558481
 40
2.7892932215
100
AcDbArc
 50
138.7143401558
 51
141.1191697076
  0
ARC
  5
309
100
AcDbEntity
  8
0
100
AcDbCircle
 62
7
  6
CONTINUOUS
 10
15.8948829327
 20
10.9750702045
 40
1.5
100
AcDbArc
 50
250.2371945424
 51
281.0
  0
ARC
  5
30A
100
AcDbEntity
  8
0
100
AcDbCircle
 62
7
  6
CONTINUOUS
 10
14.8576923427
 20
9.3133590248
 40
0.375
100
AcDbArc
 50
131.9128908834
 51
217.7628051893
  0
ARC
  5
30B
100
AcDbEntity
  8
0
100
AcDbCircle
 62
7
  6
CONTINUOUS
 10
15.597073695
 20
8.8645468981
 40
0.3578813522
100
AcDbArc
 50
142.2371948107
 51
210.9635622203
  0
ARC
  5
30C
100
AcDbEntity
  8
0
100
AcDbCircle
 62
7
  6
CONTINUOUS
 10
14.2783109905
 20
8.8645468981
 40
0.3578813522
100
AcDbArc
 50
329.0364377797
 51
37.7628051893
  0
ARC
  5
30D
100
AcDbEntity
  8
0
100
AcDbCircle
 62
7
  6
CONTINUOUS
 10
17.2956558134
 20
9.2264195021
 40
0.313
100
AcDbArc
 50
258.9999999999
 51
335.1573439831
  0
ARC
  5
30E
100
AcDbEntity
  8
0
100
AcDbCircle
 62
7
  6
CONTINUOUS
 10
17.2956558134
 20
9.4004195021
 40
0.313
100
AcDbArc
 50
24.8426560169
 51
101.0000000001
  0
ARC
  5
30F
100
AcDbEntity
  8
0
100
AcDbCircle
 62
7
  6
CONTINUOUS
 10
17.8247206858
 20
9.3134195021
 40
0.249971657
100
AcDbArc
 50
288.1750968409
 51
71.8249031591
  0
ARC
  5
310
100
AcDbEntity
  8
0
100
AcDbCircle
 62
7
  6
CONTINUOUS
 10
11.8651923427
 20
11.6691695021
 40
0.15
100
AcDbArc
 50
65.3756816478
 51
90.0
  0
ARC
  5
311
100
AcDbEntity
  8
0
100
AcDbCircle
 62
7
  6
CONTINUOUS
 10
11.5476923427
 20
10.1340026499
 40
0.15
100
AcDbArc
 50
330.0735651335
 51
360.0
  0
ARC
  5
312
100
AcDbEntity
  8
0
100
AcDbCircle
 62
7
  6
CONTINUOUS
 10
17.6747922902
 20
9.4159195021
 40
0.15
100
AcDbArc
 50
49.2861651142
 51
129.3458297659
  0
ARC
  5
313
100
AcDbEntity
  8
0
100
AcDbCircle
 62
7
  6
CONTINUOUS
 10
17.6747922902
 20
9.2109195021
 40
0.15
100
AcDbArc
 50
230.6541702341
 51
310.7138348858
  0
ARC
  5
314
100
AcDbEntity
  8
0
100
AcDbCircle
 62
7
  6
CONTINUOUS
 10
11.7976923427
 20
10.693430271
 40
0.1
100
AcDbArc
 50
135.6687919533
 51
180.0
  0
ARC
  5
315
100
AcDbEntity
  8
0
100
AcDbCircle
 62
7
  6
CONTINUOUS
 10
17.8287307117
 20
9.5948020401
 40
0.086
100
AcDbArc
 50
229.2861651143
 51
329.3187124065
  0
ARC
  5
316
100
AcDbEntity
  8
0
100
AcDbCircle
 62
7
  6
CONTINUOUS
 10
17.8287307117
 20
9.0320369642
 40
0.086
100
AcDbArc
 50
30.6812875935
 51
130.7138348857
  0
ARC
  5
317
100
AcDbEntity
  8
0
100
AcDbCircle
 62
7
  6
CONTINUOUS
 10
14.7016923427
 20
9.7904195021
 40
0.056
100
AcDbArc
 50
270.0
 51
360.0
  0
ARC
  5
318
100
AcDbEntity
  8
0
100
AcDbCircle
 62
7
  6
CONTINUOUS
 10
15.1736923427
 20
9.7904195021
 40
0.056
100
AcDbArc
 50
180.0
 51
270.0
  0
ARC
  5
319
100
AcDbEntity
  8
0
100
AcDbCircle
 62
7
  6
CONTINUOUS
 10
14.6541923427
 20
9.6634195021
 40
0.047
100
AcDbArc
 50
90.0
 51
180.0
  0
ARC
  5
31A
100
AcDbEntity
  8
0
100
AcDbCircle
 62
7
  6
CONTINUOUS
 10
15.2211923427
 20
9.6634195021
 40
0.047
100
AcDbArc
 50
0.0
 51
90.0
  0
ARC
  5
31B
100
AcDbEntity
  8
0
100
AcDbCircle
 62
7
  6
CONTINUOUS
 10
11.8425389906
 20
11.8493228543
 40
0.0301533521
100
AcDbArc
 50
270.0
 51
81.8210311019
  0
SPLINE
  5
31C
100
AcDbEntity
  8
0
100
AcDbSpline
 62
7
  6
CONTINUOUS
 70
0
 71
3
 72
11
 73
7
 74
0
 42
0.0000001
 43
0.0000001
 44
0.0000000001
 40
0.0
 40
0.0
 40
0.0
 40
0.0
 40
0.2326553911
 40
0.4802832852
 40
0.7379544777
 40
1.0
 40
1.0
 40
1.0
 40
1.0
 10
11.5762205616
 20
11.735695212
 30
0.0
 10
11.5762197927
 20
11.7305355474
 30
0.0
 10
11.5763593218
 20
11.7198844158
 30
0.0
 10
11.576708323
 20
11.7035224807
 30
0.0
 10
11.5769819302
 20
11.6865068936
 30
0.0
 10
11.5770613863
 20
11.6749809601
 30
0.0
 10
11.5770613863
 20
11.6691695021
 30
0.0
  0
SPLINE
  5
31D
100
AcDbEntity
  8
0
100
AcDbSpline
 62
7
  6
CONTINUOUS
 70
0
 71
3
 72
11
 73
7
 74
0
 42
0.0000001
 43
0.0000001
 44
0.0000000001
 40
0.0
 40
0.0
 40
0.0
 40
0.0
 40
0.2620272583
 40
0.5196985862
 40
0.7673411294
 40
1.0
 40
1.0
 40
1.0
 40
1.0
 10
10.2983232992
 20
11.6691695021
 30
0.0
 10
10.2983232992
 20
11.6749805719
 30
0.0
 10
10.2984029691
 20
11.6865061345
 30
0.0
 10
10.298676286
 20
11.7035216989
 30
0.0
 10
10.2990255599
 20
11.7198840776
 30
0.0
 10
10.2991654009
 20
11.7305356454
 30
0.0
 10
10.2991642602
 20
11.7356954021
 30
0.0
  0
SPLINE
  5
31E
100
AcDbEntity
  8
0
100
AcDbSpline
 62
7
  6
CONTINUOUS
 70
0
 71
3
 72
17
 73
13
 74
0
 42
0.0000001
 43
0.0000001
 44
0.0000000001
 40
0.0
 40
0.0
 40
0.0
 40
0.0
 40
0.0984982933
 40
0.1964949977
 40
0.2930460298
 40
0.3872913083
 40
0.4782710572
 40
0.5647771337
 40
0.6455483315
 40
0.7194166673
 40
0.930404428
 40
1.0
 40
1.0
 40
1.0
 40
1.0
 10
9.8723147386
 20
11.6691695021
 30
0.0
 10
9.8723147386
 20
11.6745212098
 30
0.0
 10
9.8728347509
 20
11.6852040248
 30
0.0
 10
9.8751150575
 20
11.7009853845
 30
0.0
 10
9.8788462431
 20
11.7162509661
 30
0.0
 10
9.8838592917
 20
11.7307401725
 30
0.0
 10
9.889971063
 20
11.7442024055
 30
0.0
 10
9.8968894687
 20
11.7564303249
 30
0.0
 10
9.9043241345
 20
11.7672411322
 30
0.0
 10
9.9168753459
 20
11.7826481022
 30
0.0
 10
9.9314049265
 20
11.7956657549
 30
0.0
 10
9.9443881509
 20
11.8036932391
 30
0.0
 10
9.9476923427
 20
11.8055284036
 30
0.0
  0
SPLINE
  5
31F
100
AcDbEntity
  8
0
100
AcDbSpline
 62
7
  6
CONTINUOUS
 70
0
 71
3
 72
24
 73
20
 74
0
 42
0.0000001
 43
0.0000001
 44
0.0000000001
 40
0.0
 40
0.0
 40
0.0
 40
0.0
 40
0.0043114844
 40
0.0172906063
 40
0.039014035
 40
0.0695637978
 40
0.1090693047
 40
0.15762396
 40
0.214997211
 40
0.280984043
 40
0.3548379994
 40
0.4355578851
 40
0.4781786769
 40
0.5220703699
 40
0.6129894829
 40
0.7071852912
 40
0.8036890604
 40
0.9016099766
 40
1.0
 40
1.0
 40
1.0
 40
1.0
 10
11.9276923427
 20
11.8055284036
 30
0.0
 10
11.9278985253
 20
11.8054169111
 30
0.0
 10
11.9287221755
 20
11.8049639916
 30
0.0
 10
11.9305563512
 20
11.8038985895
 30
0.0
 10
11.9335912495
 20
11.8020616482
 30
0.0
 10
11.9377725887
 20
11.7993368655
 30
0.0
 10
11.9430064104
 20
11.7955663599
 30
0.0
 10
11.9491771293
 20
11.7906168744
 30
0.0
 10
11.9560861065
 20
11.7843125012
 30
0.0
 10
11.9634793795
 20
11.7765350874
 30
0.0
 10
11.9710689435
 20
11.767236854
 30
0.0
 10
11.9771461788
 20
11.758388515
 30
0.0
 10
11.9818015024
 20
11.7505768369
 30
0.0
 10
11.9863763113
 20
11.7420821144
 30
0.0
 10
11.991530484
 20
11.7307288123
 30
0.0
 10
11.9965401675
 20
11.7162392806
 30
0.0
 10
12.0002720026
 20
11.7009745813
 30
0.0
 10
12.0025492782
 20
11.6851967633
 30
0.0
 10
12.0030699469
 20
11.6745182372
 30
0.0
 10
12.0030699469
 20
11.6691695021
 30
0.0
  0
SPLINE
  5
320
100
AcDbEntity
  8
0
100
AcDbSpline
 62
7
  6
CONTINUOUS
 70
0
 71
3
 72
39
 73
35
 74
0
 42
0.0000001
 43
0.0000001
 44
0.0000000001
 40
0.0
 40
0.0
 40
0.0
 40
0.0
 40
0.0394029974
 40
0.078888014
 40
0.1183734626
 40
0.1578305927
 40
0.1972750259
 40
0.2367297174
 40
0.2761643905
 40
0.2958576049
 40
0.3155153444
 40
0.3546686829
 40
0.3934911316
 40
0.4317746347
 40
0.4693668214
 40
0.5416337298
 40
0.5760004807
 40
0.6089497918
 40
0.6403336367
 40
0.6700385917
 40
0.6979478088
 40
0.72398121
 40
0.7481041207
 40
0.7703392839
 40
0.7908484154
 40
0.8099729122
 40
0.8282850523
 40
0.8466423549
 40
0.866035037
 40
0.8873745478
 40
0.9112536611
 40
0.9380111953
 40
0.9676767658
 40
1.0
 40
1.0
 40
1.0
 40
1.0
 10
11.8049947561
 20
11.6691695021
 30
0.0
 10
11.8049947561
 20
11.6737948349
 30
0.0
 10
11.8044910336
 20
11.6830627003
 30
0.0
 10
11.8022456344
 20
11.6968015959
 30
0.0
 10
11.7985105605
 20
11.7102219176
 30
0.0
 10
11.7933125384
 20
11.7231406927
 30
0.0
 10
11.7867122778
 20
11.7353998138
 30
0.0
 10
11.778767968
 20
11.7468292949
 30
0.0
 10
11.771144822
 20
11.7555684236
 30
0.0
 10
11.7645193316
 20
11.76202632
 30
0.0
 10
11.7575801463
 20
11.7680959851
 30
0.0
 10
11.7483806419
 20
11.7749652635
 30
0.0
 10
11.7367079845
 20
11.7820712909
 30
0.0
 10
11.7246186992
 20
11.788035429
 30
0.0
 10
11.7084536199
 20
11.794482021
 30
0.0
 10
11.6921196954
 20
11.7991304036
 30
0.0
 10
11.676034116
 20
11.8022702363
 30
0.0
 10
11.6645631522
 20
11.8039322014
 30
0.0
 10
11.6535730176
 20
11.8050072078
 30
0.0
 10
11.6431354161
 20
11.8055335521
 30
0.0
 10
11.6333124424
 20
11.8055660801
 30
0.0
 10
11.6241553169
 20
11.8050890947
 30
0.0
 10
11.6157113339
 20
11.8040680754
 30
0.0
 10
11.6080134144
 20
11.8024739336
 30
0.0
 10
11.6010932337
 20
11.8002057894
 30
0.0
 10
11.5949836085
 20
11.7971452251
 30
0.0
 10
11.5897326633
 20
11.7931590699
 30
0.0
 10
11.5853939413
 20
11.7881467867
 30
0.0
 10
11.5820001055
 20
11.7820474856
 30
0.0
 10
11.5795259729
 20
11.7748469805
 30
0.0
 10
11.5778230343
 20
11.766555049
 30
0.0
 10
11.5767898984
 20
11.7571762711
 30
0.0
 10
11.5762938513
 20
11.7467667265
 30
0.0
 10
11.576221127
 20
11.7394894846
 30
0.0
 10
11.5762205616
 20
11.735695212
 30
0.0
  0
SPLINE
  5
321
100
AcDbEntity
  8
0
100
AcDbSpline
 62
7
  6
CONTINUOUS
 70
0
 71
3
 72
30
 73
26
 74
0
 42
0.0000001
 43
0.0000001
 44
0.0000000001
 40
0.0
 40
0.0
 40
0.0
 40
0.0
 40
0.0813579648
 40
0.1627145702
 40
0.24358855
 40
0.3233527155
 40
0.4011369189
 40
0.4757894171
 40
0.511523556
 40
0.5459443825
 40
0.5788838936
 40
0.610208964
 40
0.6398461313
 40
0.6678039287
 40
0.6941822559
 40
0.7191699703
 40
0.743028363
 40
0.7660584722
 40
0.7885664924
 40
0.8108376438
 40
0.8331137286
 40
0.8555858041
 40
0.9016040902
 40
0.9496497684
 40
1.0
 40
1.0
 40
1.0
 40
1.0
 10
10.0703899294
 20
11.0591695021
 30
0.0
 10
10.0765385314
 20
11.0537682289
 30
0.0
 10
10.0890153297
 20
11.0431678758
 30
0.0
 10
10.1082706844
 20
11.0280036083
 30
0.0
 10
10.1280333209
 20
11.0137750996
 30
0.0
 10
10.1482020152
 20
11.0007722434
 30
0.0
 10
10.1686076746
 20
10.9893696948
 30
0.0
 10
10.1858401485
 20
10.9814651254
 30
0.0
 10
10.1995244985
 20
10.9764518976
 30
0.0
 10
10.2094653779
 20
10.9734723014
 30
0.0
 10
10.2191565887
 20
10.9712801534
 30
0.0
 10
10.2285167043
 20
10.9699288502
 30
0.0
 10
10.2374627183
 20
10.9694544681
 30
0.0
 10
10.2459160922
 20
10.9698726073
 30
0.0
 10
10.2538076084
 20
10.9711772094
 30
0.0
 10
10.2610811888
 20
10.9733397282
 30
0.0
 10
10.2676974849
 20
10.9763099576
 30
0.0
 10
10.2736345531
 20
10.9800234716
 30
0.0
 10
10.2788878373
 20
10.9844066089
 30
0.0
 10
10.2834690764
 20
10.989382333
 30
0.0
 10
10.2874001336
 20
10.9948789943
 30
0.0
 10
10.2918470577
 20
11.0028720138
 30
0.0
 10
10.2959209742
 20
11.013944893
 30
0.0
 10
10.298631919
 20
11.0282656342
 30
0.0
 10
10.2991641431
 20
11.0381777725
 30
0.0
 10
10.2991642597
 20
11.043242673
 30
0.0
  0
SPLINE
  5
322
100
AcDbEntity
  8
0
100
AcDbSpline
 62
7
  6
CONTINUOUS
 70
0
 71
3
 72
21
 73
17
 74
0
 42
0.0000001
 43
0.0000001
 44
0.0000000001
 40
0.0
 40
0.0
 40
0.0
 40
0.0
 40
0.1143909965
 40
0.1741407332
 40
0.2357520806
 40
0.2993212866
 40
0.3648128851
 40
0.4319268713
 40
0.4999999058
 40
0.5680728547
 40
0.6351868892
 40
0.7006783794
 40
0.7642475546
 40
0.8258589467
 40
0.8856087468
 40
1.0
 40
1.0
 40
1.0
 40
1.0
 10
10.7765191113
 20
11.0591695021
 30
0.0
 10
10.7851360816
 20
11.0474087853
 30
0.0
 10
10.7998268571
 20
11.0305687086
 30
0.0
 10
10.822569288
 20
11.0108750573
 30
0.0
 10
10.8419258602
 20
10.9973402969
 30
0.0
 10
10.8633560813
 20
10.9857567193
 30
0.0
 10
10.8867546837
 20
10.9767322931
 30
0.0
 10
10.9117607249
 20
10.9709367906
 30
0.0
 10
10.9376922965
 20
10.968931085
 30
0.0
 10
10.9636238737
 20
10.9709367814
 30
0.0
 10
10.9886299031
 20
10.9767322549
 30
0.0
 10
11.0120284966
 20
10.9857566722
 30
0.0
 10
11.033458716
 20
10.9973402268
 30
0.0
 10
11.0528153046
 20
11.0108749813
 30
0.0
 10
11.0755577825
 20
11.0305686496
 30
0.0
 10
11.0902485846
 20
11.0474087589
 30
0.0
 10
11.0988655742
 20
11.0591695021
 30
0.0
  0
SPLINE
  5
323
100
AcDbEntity
  8
0
100
AcDbSpline
 62
7
  6
CONTINUOUS
 70
0
 71
3
 72
43
 73
39
 74
0
 42
0.0000001
 43
0.0000001
 44
0.0000000001
 40
0.0
 40
0.0
 40
0.0
 40
0.0
 40
0.0330338746
 40
0.0658386037
 40
0.0980634521
 40
0.129507147
 40
0.1601128115
 40
0.1899702321
 40
0.2046923519
 40
0.2193223999
 40
0.248489026
 40
0.26313685
 40
0.2778745549
 40
0.307746564
 40
0.3383062748
 40
0.3695886083
 40
0.4015433866
 40
0.4340343366
 40
0.4668963863
 40
0.4999527318
 40
0.5330090267
 40
0.5658772354
 40
0.5983811909
 40
0.6303441492
 40
0.6616405341
 40
0.6922167206
 40
0.7221016647
 40
0.7368465987
 40
0.7515014089
 40
0.7806790179
 40
0.7953125582
 40
0.8100371554
 40
0.8398981629
 40
0.870504198
 40
0.9019444612
 40
0.9341646607
 40
0.9669667588
 40
1.0
 40
1.0
 40
1.0
 40
1.0
 10
11.0988655742
 20
11.6691695021
 30
0.0
 10
11.0988655742
 20
11.6745170305
 30
0.0
 10
11.0984415773
 20
11.6851801909
 30
0.0
 10
11.0965034949
 20
11.7009545409
 30
0.0
 10
11.0932203903
 20
11.7162463428
 30
0.0
 10
11.0885227551
 20
11.7307981578
 30
0.0
 10
11.0823222958
 20
11.7443629311
 30
0.0
 10
11.0758397636
 20
11.7547134859
 30
0.0
 10
11.0699018681
 20
11.7622476828
 30
0.0
 10
11.0634936475
 20
11.7692341268
 30
0.0
 10
11.056335967
 20
11.7754808791
 30
0.0
 10
11.0485716181
 20
11.7809273045
 30
0.0
 10
11.0403531599
 20
11.7858881309
 30
0.0
 10
11.029343723
 20
11.791145852
 30
0.0
 10
11.0153099038
 20
11.796060694
 30
0.0
 10
11.0005706777
 20
11.7997782705
 30
0.0
 10
10.9852965241
 20
11.8024572285
 30
0.0
 10
10.9696414516
 20
11.8042697079
 30
0.0
 10
10.9537387915
 20
11.8053063747
 30
0.0
 10
10.9377155913
 20
11.8056392656
 30
0.0
 10
10.9216909659
 20
11.8053129723
 30
0.0
 10
10.9057859964
 20
11.8042666082
 30
0.0
 10
10.8901249565
 20
11.8024682413
 30
0.0
 10
10.8748451185
 20
11.7997867484
 30
0.0
 10
10.8601004757
 20
11.7960657803
 30
0.0
 10
10.846058399
 20
11.7911536758
 30
0.0
 10
10.8350421205
 20
11.7858958141
 30
0.0
 10
10.8268213236
 20
11.7809303151
 30
0.0
 10
10.8190540081
 20
11.7754811064
 30
0.0
 10
10.8118929176
 20
11.7692331008
 30
0.0
 10
10.80548131
 20
11.7622460231
 30
0.0
 10
10.7995417883
 20
11.7547110649
 30
0.0
 10
10.7930605863
 20
11.7443583846
 30
0.0
 10
10.7868603194
 20
11.7307935504
 30
0.0
 10
10.7821631486
 20
11.7162428588
 30
0.0
 10
10.778881018
 20
11.7009526302
 30
0.0
 10
10.7769431825
 20
11.6851795582
 30
0.0
 10
10.7765191113
 20
11.674516928
 30
0.0
 10
10.7765191113
 20
11.6691695021
 30
0.0
  0
SPLINE
  5
324
100
AcDbEntity
  8
0
100
AcDbSpline
 62
7
  6
CONTINUOUS
 70
0
 71
3
 72
38
 73
34
 74
0
 42
0.0000001
 43
0.0000001
 44
0.0000000001
 40
0.0
 40
0.0
 40
0.0
 40
0.0
 40
0.0323250952
 40
0.0619899887
 40
0.0887493671
 40
0.1126265454
 40
0.1339577141
 40
0.1533421672
 40
0.1716943571
 40
0.1900042856
 40
0.2091183231
 40
0.2296148519
 40
0.2518454028
 40
0.275958687
 40
0.3019852244
 40
0.3298934572
 40
0.3595943338
 40
0.3909846245
 40
0.458296111
 40
0.4939144609
 40
0.530640801
 40
0.5682481656
 40
0.606550809
 40
0.6453965927
 40
0.6845678627
 40
0.7042320816
 40
0.7239304015
 40
0.7633734
 40
0.8028346612
 40
0.8422807866
 40
0.8817364257
 40
0.9212211722
 40
1.0
 40
1.0
 40
1.0
 40
1.0
 10
10.2991642602
 20
11.7356954021
 30
0.0
 10
10.2991634214
 20
11.7394895088
 30
0.0
 10
10.299090239
 20
11.7467661483
 30
0.0
 10
10.2985941188
 20
11.7571749662
 30
0.0
 10
10.2975628583
 20
11.7665528481
 30
0.0
 10
10.2958621471
 20
11.7748434088
 30
0.0
 10
10.2933879293
 20
11.7820409197
 30
0.0
 10
10.2899960016
 20
11.7881370397
 30
0.0
 10
10.2856641876
 20
11.7931519578
 30
0.0
 10
10.2804155338
 20
11.7971372002
 30
0.0
 10
10.274308967
 20
11.8001955876
 30
0.0
 10
10.2673932961
 20
11.802463557
 30
0.0
 10
10.2597015849
 20
11.8040683856
 30
0.0
 10
10.2512601245
 20
11.8050857088
 30
0.0
 10
10.2421061442
 20
11.8055592675
 30
0.0
 10
10.2322855781
 20
11.8055411983
 30
0.0
 10
10.2218485594
 20
11.8050095957
 30
0.0
 10
10.206846189
 20
11.8035386709
 30
0.0
 10
10.1912681375
 20
11.8009156028
 30
0.0
 10
10.1753726069
 20
11.7968804452
 30
0.0
 10
10.1630726345
 20
11.7929429923
 30
0.0
 10
10.1507804599
 20
11.7880438946
 30
0.0
 10
10.1386875134
 20
11.7820758704
 30
0.0
 10
10.1270103347
 20
11.7749661973
 30
0.0
 10
10.1178063646
 20
11.7680956
 30
0.0
 10
10.1108642239
 20
11.7620254508
 30
0.0
 10
10.1042372835
 20
11.7555669864
 30
0.0
 10
10.0966146767
 20
11.7468258184
 30
0.0
 10
10.0886704297
 20
11.7353955571
 30
0.0
 10
10.0820699251
 20
11.7231379421
 30
0.0
 10
10.0768731046
 20
11.7102176047
 30
0.0
 10
10.071901238
 20
11.6923589597
 30
0.0
 10
10.0703899294
 20
11.6784160422
 30
0.0
 10
10.0703899294
 20
11.6691695021
 30
0.0
  0
SPLINE
  5
325
100
AcDbEntity
  8
0
100
AcDbSpline
 62
7
  6
CONTINUOUS
 70
0
 71
3
 72
30
 73
26
 74
0
 42
0.0000001
 43
0.0000001
 44
0.0000000001
 40
0.0
 40
0.0
 40
0.0
 40
0.0
 40
0.0503501048
 40
0.0983957483
 40
0.1444140007
 40
0.1668860936
 40
0.1891621741
 40
0.2114333292
 40
0.2339413523
 40
0.2569715589
 40
0.2808299449
 40
0.3058175932
 40
0.3321959441
 40
0.3601537666
 40
0.389790886
 40
0.4211158929
 40
0.4540554836
 40
0.4884762776
 40
0.5242102495
 40
0.5988626943
 40
0.6766468462
 40
0.7564110552
 40
0.8372850828
 40
0.9186418773
 40
1.0
 40
1.0
 40
1.0
 40
1.0
 10
11.5762204277
 20
11.0432426747
 30
0.0
 10
11.5762205431
 20
11.038177787
 30
0.0
 10
11.5767527682
 20
11.0282656651
 30
0.0
 10
11.5794636991
 20
11.0139449418
 30
0.0
 10
11.5835376039
 20
11.0028720636
 30
0.0
 10
11.5879845221
 20
10.994879043
 30
0.0
 10
11.5919155752
 20
10.989382377
 30
0.0
 10
11.596496806
 20
10.984406645
 30
0.0
 10
11.6017500954
 20
10.9800234966
 30
0.0
 10
11.6076871729
 20
10.9763099806
 30
0.0
 10
11.6143034632
 20
10.9733397316
 30
0.0
 10
11.6215770421
 20
10.9711772237
 30
0.0
 10
11.6294685538
 20
10.9698726084
 30
0.0
 10
11.6379219284
 20
10.9694544683
 30
0.0
 10
11.6468679335
 20
10.9699288475
 30
0.0
 10
11.6562280477
 20
10.9712801397
 30
0.0
 10
11.6659192554
 20
10.9734722941
 30
0.0
 10
11.6758601275
 20
10.9764518722
 30
0.0
 10
11.6895444528
 20
10.9814650945
 30
0.0
 10
11.7067769072
 20
10.9893696397
 30
0.0
 10
11.7271825643
 20
11.0007721809
 30
0.0
 10
11.7473512668
 20
11.0137750316
 30
0.0
 10
11.7671139301
 20
11.0280035518
 30
0.0
 10
11.7863693189
 20
11.0431678406
 30
0.0
 10
11.7988461421
 20
11.0537682184
 30
0.0
 10
11.8049947561
 20
11.0591695021
 30
0.0
  0
LINE
  5
326
100
AcDbEntity
  8
0
100
AcDbLine
 62
7
  6
CONTINUOUS
 10
15.3176664221
 20
9.5383935815
 11
15.3176923427
 21
9.5381323155
  0
LINE
  5
327
100
AcDbEntity
  8
0
100
AcDbLine
 62
7
  6
CONTINUOUS
 10
6.5576923427
 20
9.5381323155
 11
6.5577182634
 21
9.5383935815
  0
ENDSEC
  0
SECTION
  2
OBJECTS
  0
DICTIONARY
  5
C
100
AcDbDictionary
280
0
281
1
  3
ACAD_GROUP
350
D
  3
ACAD_MLINESTYLE
350
17
  3
ACAD_LAYOUT
350
1A
  3
ACAD_PLOTSETTINGS
350
19
  3
ACAD_PLOTSTYLENAME
350
E
  0
DICTIONARY
  5
D
102
{ACAD_REACTORS
330
C
102
}
100
AcDbDictionary
280
0
281
1
  0
ACDBDICTIONARYWDFLT
  5
E
102
{ACAD_REACTORS
330
C
102
}
100
AcDbDictionary
281
1
  3
Normal
350
F
100
AcDbDictionaryWithDefault
340
F
  0
DICTIONARY
  5
17
102
{ACAD_REACTORS
330
C
102
}
100
AcDbDictionary
280
0
281
1
  3
Standard
350
18
  0
DICTIONARY
  5
19
102
{ACAD_REACTORS
330
C
102
}
100
AcDbDictionary
281
1
  0
DICTIONARY
  5
1A
102
{ACAD_REACTORS
330
C
102
}
100
AcDbDictionary
281
1
  3
Model
350
328
  3
Layout1
350
329
  0
ACDBPLACEHOLDER
  5
F
102
{ACAD_REACTORS
330
E
102
}
  0
MLINESTYLE
  5
18
102
{ACAD_REACTORS
330
17
102
}
100
AcDbMlineStyle
  2
STANDARD
 70
0
  3

 62
256
 51
90.0
 52
90.0
 71
2
 49
0.5
 62
256
  6
BYLAYER
 49
-0.5
 62
256
  6
BYLAYER
  0
LAYOUT
  5
328
102
{ACAD_REACTORS
330
1A
102
}
100
AcDbPlotSettings
  1

  2
none_device
  4
ANSI_C_(22.00_x_17.00_Inches)
  6

 40
0.0
 41
0.0
 42
0.0
 43
0.0
 44
558.8
 45
431.8
 46
0.0
 47
0.0
 48
0.0
 49
0.0
140
0.0
141
0.0
142
1.0
143
1.0
 70
1024
 72
0
 73
0
 74
0
  7

 75
0
147
1.0
148
0.0
149
0.0
100
AcDbLayout
  1
Model
 70
0
 71
0
 10
0.0
 20
0.0
 11
22.0
 21
17.0
 12
0.0
 22
0.0
 32
0.0
 14
0.0
 24
0.0
 34
0.0
 15
0.0
 25
0.0
 35
0.0
146
0.0
 13
0.0
 23
0.0
 33
0.0
 16
1.0
 26
0.0
 36
0.0
 17
0.0
 27
1.0
 37
0.0
 76
0
330
202
345
0
346
0
  0
LAYOUT
  5
329
102
{ACAD_REACTORS
330
1A
102
}
100
AcDbPlotSettings
  1

  2
none_device
  4
ANSI_C_(22.00_x_17.00_Inches)
  6

 40
0.0
 41
0.0
 42
0.0
 43
0.0
 44
558.8
 45
431.8
 46
0.0
 47
0.0
 48
0.0
 49
0.0
140
0.0
141
0.0
142
1.0
143
1.0
 70
0
 72
0
 73
0
 74
0
  7

 75
0
147
1.0
148
0.0
149
0.0
100
AcDbLayout
  1
Layout1
 70
0
 71
1
 10
0.0
 20
0.0
 11
22.0
 21
17.0
 12
0.0
 22
0.0
 32
0.0
 14
0.0
 24
0.0
 34
0.0
 15
0.0
 25
0.0
 35
0.0
146
0.0
 13
0.0
 23
0.0
 33
0.0
 16
1.0
 26
0.0
 36
0.0
 17
0.0
 27
1.0
 37
0.0
 76
0
330
203
345
0
346
0
  0
ENDSEC
  0
EOF
