  0
SECTION
  2
HEADER
  9
$ACADVER
  1
AC1015
  9
$DWGCODEPAGE
  3
ANSI_1252
  9
$EXTMAX
 10
23.3858267717
 20
16.5354330709
 30
0.0
  9
$EXTMIN
 10
0.0
 20
0.0
 30
0.0
  9
$LIMMIN
 10
0.0
 20
0.0
  9
$LIMMAX
 10
23.3858267717
 20
16.5354330709
  9
$VIEWCTR
 10
11.6929133858
 20
8.2677165354
  9
$VIEWSIZE
 40
16.5354330709
  9
$CLAYER
  8
0
  9
$LTSCALE
 40
1.2862204724
  9
$CELTYPE
  6
BYLAYER
  9
$DIMSCALE
 40
1.0
  9
$DIMASZ
 40
0.1875
  9
$DIMEXO
 40
0.1461614173
  9
$DIMDLI
 40
0.8886614173
  9
$DIMEXE
 40
0.4209448819
  9
$DIMCEN
 40
0.2104724409
  9
$DIMLFAC
 40
1.0
  9
$DIMBLK
  1
_CLOSED
  9
$DIMTXT
 40
0.15625
  9
$DIMTOL
 70
0
  9
$DIMLIM
 70
0
  9
$DIMTFAC
 40
1.0
  9
$PDMODE
 70
3
  9
$PDSIZE
 40
0.3125
  9
$HANDSEED
  5
2FF
  9
$TILEMODE
 70
1
  9
$MEASUREMENT
 70
0
  9
$INSUNITS
 70
1
  0
ENDSEC
  0
SECTION
  2
CLASSES
  0
CLASS
  1
ACDBDICTIONARYWDFLT
  2
AcDbDictionaryWithDefault
  3
AutoCAD 2000
 90
0
280
0
281
0
  0
CLASS
  1
ACDBPLACEHOLDER
  2
AcDbPlaceHolder
  3
AutoCAD 2000
 90
0
280
0
281
0
  0
CLASS
  1
LAYOUT
  2
AcDbLayout
  3
AutoCAD 2000
 90
0
280
0
281
0
  0
ENDSEC
  0
SECTION
  2
TABLES
  0
TABLE
  2
VPORT
  5
8
100
AcDbSymbolTable
 70
2
  0
VPORT
  5
1F4
100
AcDbSymbolTableRecord
100
AcDbViewportTableRecord
  2
*ACTIVE
 70
0
 10
0.0
 20
0.0
 11
1.0
 21
1.0
 12
11.6929133858
 22
8.2677165354
 13
0.0
 23
0.0
 14
1.0
 24
1.0
 15
0.0
 25
0.0
 16
0.0
 26
0.0
 36
1.0
 17
0.0
 27
0.0
 37
0.0
 40
16.5354330709
 41
1.4142857143
 42
50.0
 43
0.0
 44
0.0
 50
0.0
 51
0.0
 71
0
 72
100
 73
1
 74
1
 75
0
 76
0
 77
0
 78
0
  0
ENDTAB
  0
TABLE
  2
LTYPE
  5
5
100
AcDbSymbolTable
 70
6
  0
LTYPE
  5
14
100
AcDbSymbolTableRecord
100
AcDbLinetypeTableRecord
  2
BYBLOCK
 70
0
  3

 72
65
 73
0
 40
0.0
  0
LTYPE
  5
15
100
AcDbSymbolTableRecord
100
AcDbLinetypeTableRecord
  2
BYLAYER
 70
0
  3

 72
65
 73
0
 40
0.0
  0
LTYPE
  5
16
100
AcDbSymbolTableRecord
100
AcDbLinetypeTableRecord
  2
CONTINUOUS
 70
64
  3
Solid line
 72
65
 73
0
 40
0.0
  0
LTYPE
  5
1F5
100
AcDbSymbolTableRecord
100
AcDbLinetypeTableRecord
  2
CENTER
 70
64
  3
____ _ ____ _ ____ _ ____ _ ____ _ ____ _ ____
 72
65
 73
4
 40
0.6
 49
0.375
 74
0
 49
-0.075
 74
0
 49
0.075
 74
0
 49
-0.075
 74
0
  0
LTYPE
  5
1F6
100
AcDbSymbolTableRecord
100
AcDbLinetypeTableRecord
  2
HIDDEN
 70
64
  3
- - - - - - - - - - - - - - - - - - - -
 72
65
 73
2
 40
0.2
 49
0.1
 74
0
 49
-0.1
 74
0
  0
LTYPE
  5
1F7
100
AcDbSymbolTableRecord
100
AcDbLinetypeTableRecord
  2
PHANTOM
 70
64
  3
_____ _ _ _____ _ _ _____ _ _ _____
 72
65
 73
6
 40
0.8
 49
0.45
 74
0
 49
-0.05
 74
0
 49
0.1
 74
0
 49
-0.05
 74
0
 49
0.1
 74
0
 49
-0.05
 74
0
  0
LTYPE
  5
1F8
100
AcDbSymbolTableRecord
100
AcDbLinetypeTableRecord
  2
DOT
 70
64
  3
. . . . . . . . . . . . . . . . . . . .
 72
65
 73
2
 40
0.2
 49
0.1
 74
0
 49
-0.1
 74
0
  0
LTYPE
  5
1F9
100
AcDbSymbolTableRecord
100
AcDbLinetypeTableRecord
  2
DASHED
 70
64
  3
- - - - - - - - - - - - - - - - - - - -
 72
65
 73
2
 40
0.2
 49
0.1
 74
0
 49
-0.1
 74
0
  0
ENDTAB
  0
TABLE
  2
LAYER
  5
2
100
AcDbSymbolTable
 70
36
  0
LAYER
  5
10
100
AcDbSymbolTableRecord
100
AcDbLayerTableRecord
  2
0
 70
0
 62
7
  6
CONTINUOUS
370
-3
390
F
  0
LAYER
  5
1FA
100
AcDbSymbolTableRecord
100
AcDbLayerTableRecord
  2
DEFAULT_1
 70
0
 62
7
  6
CENTER
370
-3
390
F
  0
LAYER
  5
1FB
100
AcDbSymbolTableRecord
100
AcDbLayerTableRecord
  2
DEFAULT_2
 70
0
 62
8
  6
HIDDEN
370
-3
390
F
  0
LAYER
  5
1FC
100
AcDbSymbolTableRecord
100
AcDbLayerTableRecord
  2
DEFAULT_3
 70
0
 62
7
  6
PHANTOM
370
-3
390
F
  0
LAYER
  5
1FD
100
AcDbSymbolTableRecord
100
AcDbLayerTableRecord
  2
DEFAULT_COORDINATE_SYSTEM
 70
0
 62
7
  6
CONTINUOUS
370
-3
390
F
  0
LAYER
  5
1FE
100
AcDbSymbolTableRecord
100
AcDbLayerTableRecord
  2
DEFAULT_DATUM_AXES
 70
0
 62
7
  6
CONTINUOUS
370
-3
390
F
  0
LAYER
  5
1FF
100
AcDbSymbolTableRecord
100
AcDbLayerTableRecord
  2
DEFAULT_DATUM_CURVES
 70
0
 62
7
  6
CONTINUOUS
370
-3
390
F
  0
LAYER
  5
200
100
AcDbSymbolTableRecord
100
AcDbLayerTableRecord
  2
DEFAULT_DATUM_PLANES
 70
0
 62
7
  6
CONTINUOUS
370
-3
390
F
  0
ENDTAB
  0
TABLE
  2
STYLE
  5
3
100
AcDbSymbolTable
 70
1
  0
STYLE
  5
11
100
AcDbSymbolTableRecord
100
AcDbTextStyleTableRecord
  2
STANDARD
 70
0
 40
0.0
 41
0.8
 50
0.0
 71
0
 42
0.2
  3
txt
  4

  0
STYLE
  5
201
100
AcDbSymbolTableRecord
100
AcDbTextStyleTableRecord
  2
TEXTSTYLE_1
 70
0
 40
0.0
 41
0.8
 50
0.0
 71
0
 42
0.2
  3
gdt
  4

  0
ENDTAB
  0
TABLE
  2
VIEW
  5
6
100
AcDbSymbolTable
 70
0
  0
ENDTAB
  0
TABLE
  2
UCS
  5
7
100
AcDbSymbolTable
 70
0
  0
ENDTAB
  0
TABLE
  2
APPID
  5
9
100
AcDbSymbolTable
 70
1
  0
APPID
  5
202
100
AcDbSymbolTableRecord
100
AcDbRegAppTableRecord
  2
ACAD
 70
0
  0
ENDTAB
  0
TABLE
  2
BLOCK_RECORD
  5
1
100
AcDbSymbolTable
 70
0
  0
BLOCK_RECORD
  5
203
100
AcDbSymbolTableRecord
100
AcDbBlockTableRecord
  2
*Model_Space
  0
BLOCK_RECORD
  5
204
100
AcDbSymbolTableRecord
100
AcDbBlockTableRecord
  2
*Paper_Space
  0
ENDTAB
  0
TABLE
  2
DIMSTYLE
  5
A
100
AcDbSymbolTable
 70
1
100
AcDbDimStyleTable
 71
0
  0
DIMSTYLE
105
205
100
AcDbSymbolTableRecord
100
AcDbDimStyleTableRecord
  2
STANDARD
 70
0
  3

  4

 40
1.0
 41
0.1875
 42
0.0625
 43
0.38
 44
0.18
 45
0.0
 46
0.0
 47
0.01
 48
0.01
140
0.15625
141
0.09
142
0.0
143
25.4
144
1.0
145
0.0
146
1.0
147
0.09
 71
0.0
 72
0.0
 73
1
 74
1
 75
0
 76
0
 77
0
 78
4
170
0
171
2
172
0
173
0
174
0
175
0
176
0
177
0
178
0
270
2
271
2
272
2
273
2
274
2
275
0
280
0
281
0
282
0
283
1
284
4
285
0
286
0
287
3
288
0
340
11
  0
ENDTAB
  0
ENDSEC
  0
SECTION
  2
BLOCKS
  0
BLOCK
  5
20
100
AcDbEntity
  8
0
100
AcDbBlockBegin
  2
*Model_Space
 70
0
 10
0.0
 20
0.0
 30
0.0
  3
*Model_Space
  1

  0
ENDBLK
  5
21
100
AcDbEntity
  8
0
100
AcDbBlockEnd
  0
BLOCK
  5
1C
100
AcDbEntity
  8
0
100
AcDbBlockBegin
  2
*Paper_Space
 70
0
 10
0.0
 20
0.0
 30
0.0
  3
*Paper_Space
  1

  0
ENDBLK
  5
1D
100
AcDbEntity
  8
0
100
AcDbBlockEnd
  0
ENDSEC
  0
SECTION
  2
ENTITIES
  0
LINE
  5
206
100
AcDbEntity
  8
0
100
AcDbLine
 62
6
  6
CONTINUOUS
 10
12.7034522696
 20
1.6340153255
 11
10.9495422268
 21
1.6340153255
  0
LINE
  5
207
100
AcDbEntity
  8
0
100
AcDbLine
 62
6
  6
CONTINUOUS
 10
10.7265101326
 20
1.6730153255
 11
12.9264843638
 21
1.6730153255
  0
LINE
  5
208
100
AcDbEntity
  8
0
100
AcDbLine
 62
9
  6
CONTINUOUS
 10
10.7264972482
 20
1.8869038677
 11
12.9264972482
 21
1.8869038677
  0
LINE
  5
209
100
AcDbEntity
  8
0
100
AcDbLine
 62
9
  6
CONTINUOUS
 10
10.7743885928
 20
1.9722542516
 11
12.8786059036
 21
1.9722542516
  0
LINE
  5
20A
100
AcDbEntity
  8
0
100
AcDbLine
 62
9
  6
CONTINUOUS
 10
11.0817688868
 20
2.1599180101
 11
12.5712256097
 21
2.1599180101
  0
LINE
  5
20B
100
AcDbEntity
  8
0
100
AcDbLine
 62
6
  6
CONTINUOUS
 10
8.0184972482
 20
3.0870153255
 11
7.9984972482
 21
3.1070153255
  0
LINE
  5
20C
100
AcDbEntity
  8
0
100
AcDbLine
 62
9
  6
CONTINUOUS
 10
11.2014972482
 20
2.3732939698
 11
12.4514972482
 21
2.3732939698
  0
LINE
  5
20D
100
AcDbEntity
  8
0
100
AcDbLine
 62
6
  6
CONTINUOUS
 10
15.6344972482
 20
3.0870153255
 11
15.0184972482
 21
3.0870153255
  0
LINE
  5
20E
100
AcDbEntity
  8
0
100
AcDbLine
 62
6
  6
CONTINUOUS
 10
8.6344972482
 20
3.0870153255
 11
8.0184972482
 21
3.0870153255
  0
LINE
  5
20F
100
AcDbEntity
  8
0
100
AcDbLine
 62
6
  6
CONTINUOUS
 10
15.6544972482
 20
3.1070153255
 11
14.9984972482
 21
3.1070153255
  0
LINE
  5
210
100
AcDbEntity
  8
0
100
AcDbLine
 62
6
  6
CONTINUOUS
 10
8.6544972482
 20
3.1070153255
 11
7.9984972482
 21
3.1070153255
  0
LINE
  5
211
100
AcDbEntity
  8
0
100
AcDbLine
 62
6
  6
CONTINUOUS
 10
12.742929316
 20
3.3741990988
 11
13.2222141561
 21
3.3878929514
  0
LINE
  5
212
100
AcDbEntity
  8
0
100
AcDbLine
 62
6
  6
CONTINUOUS
 10
13.2307820882
 20
3.3880153255
 11
13.2222141561
 21
3.3878929514
  0
LINE
  5
213
100
AcDbEntity
  8
0
100
AcDbLine
 62
6
  6
CONTINUOUS
 10
10.0764972482
 20
3.251327489
 11
9.8764972482
 21
3.251327489
  0
LINE
  5
214
100
AcDbEntity
  8
0
100
AcDbLine
 62
6
  6
CONTINUOUS
 10
13.5764972482
 20
3.251327489
 11
13.7764972482
 21
3.251327489
  0
LINE
  5
215
100
AcDbEntity
  8
0
100
AcDbLine
 62
6
  6
CONTINUOUS
 10
13.9154972482
 20
3.3655153255
 11
13.8764972482
 21
3.3655153255
  0
LINE
  5
216
100
AcDbEntity
  8
0
100
AcDbLine
 62
6
  6
CONTINUOUS
 10
9.7374972482
 20
3.3655153255
 11
9.7764972482
 21
3.3655153255
  0
LINE
  5
217
100
AcDbEntity
  8
0
100
AcDbLine
 62
6
  6
CONTINUOUS
 10
13.4764972482
 20
3.3880153255
 11
13.2307820882
 21
3.3880153255
  0
LINE
  5
218
100
AcDbEntity
  8
0
100
AcDbLine
 62
6
  6
CONTINUOUS
 10
10.1764972482
 20
3.3880153255
 11
10.4222124082
 21
3.3880153255
  0
LINE
  5
219
100
AcDbEntity
  8
0
100
AcDbLine
 62
6
  6
CONTINUOUS
 10
7.9581445732
 20
3.5670153255
 11
8.6948499232
 21
3.5670153255
  0
LINE
  5
21A
100
AcDbEntity
  8
0
100
AcDbLine
 62
6
  6
CONTINUOUS
 10
14.9581445732
 20
3.5670153255
 11
15.6948499232
 21
3.5670153255
  0
LINE
  5
21B
100
AcDbEntity
  8
0
100
AcDbLine
 62
6
  6
CONTINUOUS
 10
10.0764972482
 20
3.6121714072
 11
9.8764972482
 21
3.6121714072
  0
LINE
  5
21C
100
AcDbEntity
  8
0
100
AcDbLine
 62
6
  6
CONTINUOUS
 10
13.5764972482
 20
3.6121714072
 11
13.7764972482
 21
3.6121714072
  0
LINE
  5
21D
100
AcDbEntity
  8
0
100
AcDbLine
 62
6
  6
CONTINUOUS
 10
14.3014972482
 20
3.6230153255
 11
14.2014972482
 21
3.6230153255
  0
LINE
  5
21E
100
AcDbEntity
  8
0
100
AcDbLine
 62
6
  6
CONTINUOUS
 10
9.4514972482
 20
3.6230153255
 11
9.3514972482
 21
3.6230153255
  0
LINE
  5
21F
100
AcDbEntity
  8
0
100
AcDbLine
 62
6
  6
CONTINUOUS
 10
9.3364972482
 20
3.6605153255
 11
8.7308295536
 21
3.6605153255
  0
LINE
  5
220
100
AcDbEntity
  8
0
100
AcDbLine
 62
6
  6
CONTINUOUS
 10
14.3164972482
 20
3.6605153255
 11
14.9221650649
 21
3.6605153255
  0
LINE
  5
221
100
AcDbEntity
  8
0
100
AcDbLine
 62
6
  6
CONTINUOUS
 10
7.9581415727
 20
3.7294153255
 11
8.6254986925
 21
3.7294153255
  0
LINE
  5
222
100
AcDbEntity
  8
0
100
AcDbLine
 62
6
  6
CONTINUOUS
 10
15.027495804
 20
3.7294153255
 11
15.6948529237
 21
3.7294153255
  0
LINE
  5
223
100
AcDbEntity
  8
0
100
AcDbLine
 62
6
  6
CONTINUOUS
 10
10.4307803404
 20
3.3878929514
 11
10.4222124082
 21
3.3880153255
  0
LINE
  5
224
100
AcDbEntity
  8
0
100
AcDbLine
 62
6
  6
CONTINUOUS
 10
10.4307803404
 20
3.3878929514
 11
10.9100651804
 21
3.3741990988
  0
LINE
  5
225
100
AcDbEntity
  8
0
100
AcDbLine
 62
6
  6
CONTINUOUS
 10
12.5712256097
 20
2.1599180101
 11
12.8786059036
 21
1.9722542516
  0
LINE
  5
226
100
AcDbEntity
  8
0
100
AcDbLine
 62
6
  6
CONTINUOUS
 10
15.6948529237
 20
3.8918153255
 11
15.1350440068
 21
3.8918153255
  0
LINE
  5
227
100
AcDbEntity
  8
0
100
AcDbLine
 62
6
  6
CONTINUOUS
 10
7.9581415727
 20
3.8918153255
 11
8.5179504897
 21
3.8918153255
  0
LINE
  5
228
100
AcDbEntity
  8
0
100
AcDbLine
 62
9
  6
CONTINUOUS
 10
11.7939852989
 20
3.9730153255
 11
10.4222124082
 21
3.9730153255
  0
LINE
  5
229
100
AcDbEntity
  8
0
100
AcDbLine
 62
9
  6
CONTINUOUS
 10
11.8590091975
 20
3.9730153255
 11
13.2307820882
 21
3.9730153255
  0
LINE
  5
22A
100
AcDbEntity
  8
0
100
AcDbLine
 62
6
  6
CONTINUOUS
 10
15.6948529237
 20
4.0542153255
 11
15.1350440068
 21
4.0542153255
  0
LINE
  5
22B
100
AcDbEntity
  8
0
100
AcDbLine
 62
6
  6
CONTINUOUS
 10
7.9581415727
 20
4.0542153255
 11
8.5179504897
 21
4.0542153255
  0
LINE
  5
22C
100
AcDbEntity
  8
0
100
AcDbLine
 62
6
  6
CONTINUOUS
 10
7.9581415727
 20
4.2166153255
 11
8.6254986925
 21
4.2166153255
  0
LINE
  5
22D
100
AcDbEntity
  8
0
100
AcDbLine
 62
6
  6
CONTINUOUS
 10
15.027495804
 20
4.2166153255
 11
15.6948529237
 21
4.2166153255
  0
LINE
  5
22E
100
AcDbEntity
  8
0
100
AcDbLine
 62
6
  6
CONTINUOUS
 10
7.9984972482
 20
6.9670153255
 11
7.9984972482
 21
4.3790153255
  0
LINE
  5
22F
100
AcDbEntity
  8
0
100
AcDbLine
 62
6
  6
CONTINUOUS
 10
7.9984972482
 20
3.5670153255
 11
7.9984972482
 21
3.1070153255
  0
LINE
  5
230
100
AcDbEntity
  8
0
100
AcDbLine
 62
6
  6
CONTINUOUS
 10
9.3364972482
 20
4.2855153255
 11
8.7308294315
 21
4.2855153255
  0
LINE
  5
231
100
AcDbEntity
  8
0
100
AcDbLine
 62
6
  6
CONTINUOUS
 10
14.3164972482
 20
4.2855153255
 11
14.9221649428
 21
4.2855153255
  0
LINE
  5
232
100
AcDbEntity
  8
0
100
AcDbLine
 62
6
  6
CONTINUOUS
 10
14.3014972482
 20
4.3230153255
 11
14.2014972482
 21
4.3230153255
  0
LINE
  5
233
100
AcDbEntity
  8
0
100
AcDbLine
 62
6
  6
CONTINUOUS
 10
9.4514972482
 20
4.3230153255
 11
9.3514972482
 21
4.3230153255
  0
LINE
  5
234
100
AcDbEntity
  8
0
100
AcDbLine
 62
6
  6
CONTINUOUS
 10
10.0764972482
 20
4.3338592437
 11
9.8764972482
 21
4.3338592437
  0
LINE
  5
235
100
AcDbEntity
  8
0
100
AcDbLine
 62
6
  6
CONTINUOUS
 10
13.5764972482
 20
4.3338592437
 11
13.7764972482
 21
4.3338592437
  0
LINE
  5
236
100
AcDbEntity
  8
0
100
AcDbLine
 62
6
  6
CONTINUOUS
 10
7.9581445732
 20
4.3790153255
 11
8.6948499232
 21
4.3790153255
  0
LINE
  5
237
100
AcDbEntity
  8
0
100
AcDbLine
 62
6
  6
CONTINUOUS
 10
14.9581445732
 20
4.3790153255
 11
15.6948499232
 21
4.3790153255
  0
LINE
  5
238
100
AcDbEntity
  8
0
100
AcDbLine
 62
6
  6
CONTINUOUS
 10
13.4764972482
 20
4.5580153255
 11
13.3009057852
 21
4.5580153255
  0
LINE
  5
239
100
AcDbEntity
  8
0
100
AcDbLine
 62
6
  6
CONTINUOUS
 10
10.3520887112
 20
4.5580153255
 11
10.1764972482
 21
4.5580153255
  0
LINE
  5
23A
100
AcDbEntity
  8
0
100
AcDbLine
 62
6
  6
CONTINUOUS
 10
13.9154972482
 20
4.5805153255
 11
13.8764972482
 21
4.5805153255
  0
LINE
  5
23B
100
AcDbEntity
  8
0
100
AcDbLine
 62
6
  6
CONTINUOUS
 10
9.7764972482
 20
4.5805153255
 11
9.7374972482
 21
4.5805153255
  0
LINE
  5
23C
100
AcDbEntity
  8
0
100
AcDbLine
 62
6
  6
CONTINUOUS
 10
10.0764972482
 20
4.694703162
 11
9.8764972482
 21
4.694703162
  0
LINE
  5
23D
100
AcDbEntity
  8
0
100
AcDbLine
 62
6
  6
CONTINUOUS
 10
13.5764972482
 20
4.694703162
 11
13.7764972482
 21
4.694703162
  0
LINE
  5
23E
100
AcDbEntity
  8
0
100
AcDbLine
 62
6
  6
CONTINUOUS
 10
10.0764972482
 20
4.694703162
 11
10.1764972482
 21
4.594703162
  0
LINE
  5
23F
100
AcDbEntity
  8
0
100
AcDbLine
 62
6
  6
CONTINUOUS
 10
8.6544972482
 20
6.9670153255
 11
8.6544972482
 21
4.3790153255
  0
LINE
  5
240
100
AcDbEntity
  8
0
100
AcDbLine
 62
6
  6
CONTINUOUS
 10
8.6544972482
 20
3.5670153255
 11
8.6544972482
 21
3.1070153255
  0
LINE
  5
241
100
AcDbEntity
  8
0
100
AcDbLine
 62
6
  6
CONTINUOUS
 10
11.479028176
 20
12.3980281727
 11
11.4361521667
 21
12.3564651366
  0
LINE
  5
242
100
AcDbEntity
  8
0
100
AcDbLine
 62
9
  6
CONTINUOUS
 10
11.5714305092
 20
4.8530153255
 11
12.0815639873
 21
4.8530153255
  0
LINE
  5
243
100
AcDbEntity
  8
0
100
AcDbLine
 62
6
  6
CONTINUOUS
 10
12.4512224175
 20
5.1530153255
 11
11.201772079
 21
5.1530153255
  0
LINE
  5
244
100
AcDbEntity
  8
0
100
AcDbLine
 62
9
  6
CONTINUOUS
 10
11.8745712093
 20
4.6524665979
 11
13.2110796473
 21
4.0811896067
  0
LINE
  5
245
100
AcDbEntity
  8
0
100
AcDbLine
 62
6
  6
CONTINUOUS
 10
8.6544972482
 20
6.9670153255
 11
8.6344972482
 21
6.9870153255
  0
LINE
  5
246
100
AcDbEntity
  8
0
100
AcDbLine
 62
6
  6
CONTINUOUS
 10
12.4504972482
 20
5.4210153255
 11
11.2024972482
 21
5.4210153255
  0
LINE
  5
247
100
AcDbEntity
  8
0
100
AcDbLine
 62
9
  6
CONTINUOUS
 10
12.4504972482
 20
5.4860153255
 11
11.2024972482
 21
5.4860153255
  0
LINE
  5
248
100
AcDbEntity
  8
0
100
AcDbLine
 62
9
  6
CONTINUOUS
 10
12.4410148616
 20
5.5192548359
 11
11.2119796348
 21
5.5192548359
  0
LINE
  5
249
100
AcDbEntity
  8
0
100
AcDbLine
 62
6
  6
CONTINUOUS
 10
12.5694357068
 20
4.9053192831
 11
13.1607132954
 21
4.5927868434
  0
LINE
  5
24A
100
AcDbEntity
  8
0
100
AcDbLine
 62
7
  6
CONTINUOUS
 10
9.3364972482
 20
3.6605153255
 11
9.3364972482
 21
4.2855153255
  0
LINE
  5
24B
100
AcDbEntity
  8
0
100
AcDbLine
 62
6
  6
CONTINUOUS
 10
9.3514972482
 20
4.3230153255
 11
9.3514972482
 21
3.6230153255
  0
LINE
  5
24C
100
AcDbEntity
  8
0
100
AcDbLine
 62
9
  6
CONTINUOUS
 10
9.4514972482
 20
3.5952538329
 11
9.4514972482
 21
4.350776818
  0
LINE
  5
24D
100
AcDbEntity
  8
0
100
AcDbLine
 62
9
  6
CONTINUOUS
 10
9.4583902513
 20
3.5757640228
 11
9.4583902513
 21
4.3702666282
  0
LINE
  5
24E
100
AcDbEntity
  8
0
100
AcDbLine
 62
9
  6
CONTINUOUS
 10
9.7064972482
 20
3.3965153255
 11
9.7064972482
 21
4.5495153255
  0
LINE
  5
24F
100
AcDbEntity
  8
0
100
AcDbLine
 62
9
  6
CONTINUOUS
 10
9.7374972482
 20
3.3655153255
 11
9.7374972482
 21
4.5805153255
  0
LINE
  5
250
100
AcDbEntity
  8
0
100
AcDbLine
 62
6
  6
CONTINUOUS
 10
9.7764972482
 20
4.5805153255
 11
9.7764972482
 21
3.3655153255
  0
LINE
  5
251
100
AcDbEntity
  8
0
100
AcDbLine
 62
9
  6
CONTINUOUS
 10
12.2943060905
 20
5.9597103705
 11
11.358688406
 21
5.9597103705
  0
LINE
  5
252
100
AcDbEntity
  8
0
100
AcDbLine
 62
6
  6
CONTINUOUS
 10
13.5764972482
 20
3.251327489
 11
13.4764972482
 21
3.351327489
  0
LINE
  5
253
100
AcDbEntity
  8
0
100
AcDbLine
 62
6
  6
CONTINUOUS
 10
10.1764972482
 20
3.351327489
 11
10.1764972482
 21
4.594703162
  0
LINE
  5
254
100
AcDbEntity
  8
0
100
AcDbLine
 62
6
  6
CONTINUOUS
 10
7.9984972482
 20
6.9670153255
 11
8.0184972482
 21
6.9870153255
  0
LINE
  5
255
100
AcDbEntity
  8
0
100
AcDbLine
 62
9
  6
CONTINUOUS
 10
12.2614972482
 20
6.3347171535
 11
11.3914972482
 21
6.3347171535
  0
LINE
  5
256
100
AcDbEntity
  8
0
100
AcDbLine
 62
9
  6
CONTINUOUS
 10
12.2306152126
 20
6.3630153255
 11
11.4223792839
 21
6.3630153255
  0
LINE
  5
257
100
AcDbEntity
  8
0
100
AcDbLine
 62
9
  6
CONTINUOUS
 10
10.4222124082
 20
3.9730153255
 11
10.4222124082
 21
3.3880153255
  0
LINE
  5
258
100
AcDbEntity
  8
0
100
AcDbLine
 62
9
  6
CONTINUOUS
 10
10.4307803404
 20
3.3878929514
 11
10.4307803404
 21
3.9730153255
  0
LINE
  5
259
100
AcDbEntity
  8
0
100
AcDbLine
 62
6
  6
CONTINUOUS
 10
10.7264972482
 20
1.6730153255
 11
10.7264972482
 21
1.8869038677
  0
LINE
  5
25A
100
AcDbEntity
  8
0
100
AcDbLine
 62
6
  6
CONTINUOUS
 10
15.6544972482
 20
6.9670153255
 11
14.9984972482
 21
6.9670153255
  0
LINE
  5
25B
100
AcDbEntity
  8
0
100
AcDbLine
 62
6
  6
CONTINUOUS
 10
8.6544972482
 20
6.9670153255
 11
7.9984972482
 21
6.9670153255
  0
LINE
  5
25C
100
AcDbEntity
  8
0
100
AcDbLine
 62
6
  6
CONTINUOUS
 10
15.6344972482
 20
6.9870153255
 11
15.0184972482
 21
6.9870153255
  0
LINE
  5
25D
100
AcDbEntity
  8
0
100
AcDbLine
 62
6
  6
CONTINUOUS
 10
8.6344972482
 20
6.9870153255
 11
8.0184972482
 21
6.9870153255
  0
LINE
  5
25E
100
AcDbEntity
  8
0
100
AcDbLine
 62
6
  6
CONTINUOUS
 10
15.0184972482
 20
3.0870153255
 11
14.9984972482
 21
3.1070153255
  0
LINE
  5
25F
100
AcDbEntity
  8
0
100
AcDbLine
 62
6
  6
CONTINUOUS
 10
11.2014972482
 20
2.3732939698
 11
11.2014972482
 21
3.0743214729
  0
LINE
  5
260
100
AcDbEntity
  8
0
100
AcDbLine
 62
6
  6
CONTINUOUS
 10
11.2024972482
 20
5.4860153255
 11
11.2024972482
 21
5.4210153255
  0
LINE
  5
261
100
AcDbEntity
  8
0
100
AcDbLine
 62
6
  6
CONTINUOUS
 10
11.3719972482
 20
12.3163135573
 11
11.3719972482
 21
11.8239096808
  0
LINE
  5
262
100
AcDbEntity
  8
0
100
AcDbLine
 62
6
  6
CONTINUOUS
 10
11.4734972482
 20
14.6299232157
 11
11.4734972482
 21
12.3926666161
  0
LINE
  5
263
100
AcDbEntity
  8
0
100
AcDbLine
 62
6
  6
CONTINUOUS
 10
11.4734972482
 20
6.3630153255
 11
11.4734972482
 21
11.6205859706
  0
LINE
  5
264
100
AcDbEntity
  8
0
100
AcDbLine
 62
6
  6
CONTINUOUS
 10
11.3914972482
 20
6.3347171535
 11
11.358688406
 21
5.9597103705
  0
LINE
  5
265
100
AcDbEntity
  8
0
100
AcDbLine
 62
9
  6
CONTINUOUS
 10
12.2462449959
 20
11.6633102626
 11
12.2449421953
 21
11.6575719907
  0
LINE
  5
266
100
AcDbEntity
  8
0
100
AcDbLine
 62
6
  6
CONTINUOUS
 10
12.2614972482
 20
6.3347171535
 11
12.2943060905
 21
5.9597103705
  0
LINE
  5
267
100
AcDbEntity
  8
0
100
AcDbLine
 62
6
  6
CONTINUOUS
 10
12.1794972482
 20
14.6299232157
 11
12.1794972482
 21
12.3926666161
  0
LINE
  5
268
100
AcDbEntity
  8
0
100
AcDbLine
 62
6
  6
CONTINUOUS
 10
12.1794972482
 20
6.3630153255
 11
12.1794972482
 21
11.6205863699
  0
LINE
  5
269
100
AcDbEntity
  8
0
100
AcDbLine
 62
6
  6
CONTINUOUS
 10
12.2809972482
 20
12.3163135573
 11
12.2809972482
 21
11.8239096808
  0
LINE
  5
26A
100
AcDbEntity
  8
0
100
AcDbLine
 62
9
  6
CONTINUOUS
 10
11.4080523005
 20
11.6575719919
 11
11.4067495006
 21
11.6633102626
  0
LINE
  5
26B
100
AcDbEntity
  8
0
100
AcDbLine
 62
6
  6
CONTINUOUS
 10
12.4504972482
 20
5.4860153255
 11
12.4504972482
 21
5.4210153255
  0
LINE
  5
26C
100
AcDbEntity
  8
0
100
AcDbLine
 62
6
  6
CONTINUOUS
 10
12.4514972482
 20
3.0743214729
 11
12.4514972482
 21
2.3732939698
  0
LINE
  5
26D
100
AcDbEntity
  8
0
100
AcDbLine
 62
6
  6
CONTINUOUS
 10
12.9264972482
 20
1.8869038677
 11
12.9264972482
 21
1.6730153255
  0
LINE
  5
26E
100
AcDbEntity
  8
0
100
AcDbLine
 62
9
  6
CONTINUOUS
 10
13.2222141561
 20
3.3878929514
 11
13.2222141561
 21
3.9730153255
  0
LINE
  5
26F
100
AcDbEntity
  8
0
100
AcDbLine
 62
9
  6
CONTINUOUS
 10
13.2307820882
 20
3.9730153255
 11
13.2307820882
 21
3.3880153255
  0
LINE
  5
270
100
AcDbEntity
  8
0
100
AcDbLine
 62
6
  6
CONTINUOUS
 10
8.6344972482
 20
3.0870153255
 11
8.6544972482
 21
3.1070153255
  0
LINE
  5
271
100
AcDbEntity
  8
0
100
AcDbLine
 62
6
  6
CONTINUOUS
 10
13.4764972482
 20
4.594703162
 11
13.4764972482
 21
3.351327489
  0
LINE
  5
272
100
AcDbEntity
  8
0
100
AcDbLine
 62
6
  6
CONTINUOUS
 10
13.8764972482
 20
3.3655153255
 11
13.8764972482
 21
4.5805153255
  0
LINE
  5
273
100
AcDbEntity
  8
0
100
AcDbLine
 62
9
  6
CONTINUOUS
 10
13.9154972482
 20
4.5805153255
 11
13.9154972482
 21
3.3655153255
  0
LINE
  5
274
100
AcDbEntity
  8
0
100
AcDbLine
 62
9
  6
CONTINUOUS
 10
13.9464972482
 20
4.5495153255
 11
13.9464972482
 21
3.3965153255
  0
LINE
  5
275
100
AcDbEntity
  8
0
100
AcDbLine
 62
6
  6
CONTINUOUS
 10
15.6544972482
 20
6.9670153255
 11
15.6344972482
 21
6.9870153255
  0
LINE
  5
276
100
AcDbEntity
  8
0
100
AcDbLine
 62
9
  6
CONTINUOUS
 10
14.1946042452
 20
4.3702666282
 11
14.1946042452
 21
3.5757640228
  0
LINE
  5
277
100
AcDbEntity
  8
0
100
AcDbLine
 62
9
  6
CONTINUOUS
 10
14.2014972482
 20
4.350776818
 11
14.2014972482
 21
3.5952538329
  0
LINE
  5
278
100
AcDbEntity
  8
0
100
AcDbLine
 62
6
  6
CONTINUOUS
 10
14.3014972482
 20
3.6230153255
 11
14.3014972482
 21
4.3230153255
  0
LINE
  5
279
100
AcDbEntity
  8
0
100
AcDbLine
 62
7
  6
CONTINUOUS
 10
14.3164972482
 20
4.2855153255
 11
14.3164972482
 21
3.6605153255
  0
LINE
  5
27A
100
AcDbEntity
  8
0
100
AcDbLine
 62
6
  6
CONTINUOUS
 10
10.1764972482
 20
3.351327489
 11
10.0764972482
 21
3.251327489
  0
LINE
  5
27B
100
AcDbEntity
  8
0
100
AcDbLine
 62
6
  6
CONTINUOUS
 10
11.0835587897
 20
4.9053192831
 11
10.492281201
 21
4.5927868434
  0
LINE
  5
27C
100
AcDbEntity
  8
0
100
AcDbLine
 62
6
  6
CONTINUOUS
 10
14.9984972482
 20
6.9670153255
 11
14.9984972482
 21
4.3790153255
  0
LINE
  5
27D
100
AcDbEntity
  8
0
100
AcDbLine
 62
6
  6
CONTINUOUS
 10
14.9984972482
 20
3.5670153255
 11
14.9984972482
 21
3.1070153255
  0
LINE
  5
27E
100
AcDbEntity
  8
0
100
AcDbLine
 62
6
  6
CONTINUOUS
 10
14.9984972482
 20
6.9670153255
 11
15.0184972482
 21
6.9870153255
  0
LINE
  5
27F
100
AcDbEntity
  8
0
100
AcDbLine
 62
9
  6
CONTINUOUS
 10
11.7784232871
 20
4.6524665979
 11
10.4419148491
 21
4.0811896067
  0
LINE
  5
280
100
AcDbEntity
  8
0
100
AcDbLine
 62
6
  6
CONTINUOUS
 10
12.1739663204
 20
12.3980281727
 11
12.2168423297
 21
12.3564651366
  0
LINE
  5
281
100
AcDbEntity
  8
0
100
AcDbLine
 62
6
  6
CONTINUOUS
 10
15.6544972482
 20
6.9670153255
 11
15.6544972482
 21
4.3790153255
  0
LINE
  5
282
100
AcDbEntity
  8
0
100
AcDbLine
 62
6
  6
CONTINUOUS
 10
15.6544972482
 20
3.5670153255
 11
15.6544972482
 21
3.1070153255
  0
LINE
  5
283
100
AcDbEntity
  8
0
100
AcDbLine
 62
6
  6
CONTINUOUS
 10
13.5764972482
 20
4.694703162
 11
13.4764972482
 21
4.594703162
  0
LINE
  5
284
100
AcDbEntity
  8
0
100
AcDbLine
 62
6
  6
CONTINUOUS
 10
10.7743885928
 20
1.9722542516
 11
11.0817688868
 21
2.1599180101
  0
LINE
  5
285
100
AcDbEntity
  8
0
100
AcDbLine
 62
6
  6
CONTINUOUS
 10
15.6344972482
 20
3.0870153255
 11
15.6544972482
 21
3.1070153255
  0
ARC
  5
286
100
AcDbEntity
  8
0
100
AcDbCircle
 62
6
  6
CONTINUOUS
 10
8.6474972482
 20
3.6482153255
 40
0.094
100
AcDbArc
 50
300.2506503162
 51
359.8780939942
  0
ARC
  5
287
100
AcDbEntity
  8
0
100
AcDbCircle
 62
6
  6
CONTINUOUS
 10
8.0054972482
 20
3.6482153255
 40
0.094
100
AcDbArc
 50
120.2506503162
 51
239.7493496838
  0
ARC
  5
288
100
AcDbEntity
  8
0
100
AcDbCircle
 62
6
  6
CONTINUOUS
 10
8.0054972482
 20
3.8106153255
 40
0.094
100
AcDbArc
 50
120.2506503162
 51
239.7493496838
  0
ARC
  5
289
100
AcDbEntity
  8
0
100
AcDbCircle
 62
6
  6
CONTINUOUS
 10
8.0054972482
 20
3.9730153255
 40
0.094
100
AcDbArc
 50
120.2506503162
 51
239.7493496838
  0
ARC
  5
28A
100
AcDbEntity
  8
0
100
AcDbCircle
 62
6
  6
CONTINUOUS
 10
9.4824972482
 20
3.5952538329
 40
0.031
100
AcDbArc
 50
180.0
 51
218.9545376239
  0
ARC
  5
28B
100
AcDbEntity
  8
0
100
AcDbCircle
 62
6
  6
CONTINUOUS
 10
9.7374972482
 20
3.3965153255
 40
0.031
100
AcDbArc
 50
180.0
 51
270.0
  0
ARC
  5
28C
100
AcDbEntity
  8
0
100
AcDbCircle
 62
6
  6
CONTINUOUS
 10
8.6474972482
 20
4.2978153255
 40
0.094
100
AcDbArc
 50
0.1219060058
 51
59.7493496838
  0
ARC
  5
28D
100
AcDbEntity
  8
0
100
AcDbCircle
 62
6
  6
CONTINUOUS
 10
8.0054972482
 20
4.1354153255
 40
0.094
100
AcDbArc
 50
120.2506503162
 51
239.7493496838
  0
ARC
  5
28E
100
AcDbEntity
  8
0
100
AcDbCircle
 62
6
  6
CONTINUOUS
 10
8.0054972482
 20
4.2978153255
 40
0.094
100
AcDbArc
 50
120.2506503162
 51
239.7493496838
  0
ARC
  5
28F
100
AcDbEntity
  8
0
100
AcDbCircle
 62
6
  6
CONTINUOUS
 10
9.4824972482
 20
4.350776818
 40
0.031
100
AcDbArc
 50
141.0454623761
 51
180.0
  0
ARC
  5
290
100
AcDbEntity
  8
0
100
AcDbCircle
 62
6
  6
CONTINUOUS
 10
9.7374972482
 20
4.5495153255
 40
0.031
100
AcDbArc
 50
90.0
 51
180.0
  0
ARC
  5
291
100
AcDbEntity
  8
0
100
AcDbCircle
 62
6
  6
CONTINUOUS
 10
10.1982874853
 20
3.6340167145
 40
0.5
100
AcDbArc
 50
212.4798371001
 51
229.9406724511
  0
ARC
  5
292
100
AcDbEntity
  8
0
100
AcDbCircle
 62
6
  6
CONTINUOUS
 10
9.7989987886
 20
3.8511361788
 40
0.438
100
AcDbArc
 50
218.9545376239
 51
257.807858722
  0
ARC
  5
293
100
AcDbEntity
  8
0
100
AcDbCircle
 62
6
  6
CONTINUOUS
 10
10.9014979187
 20
3.0743221437
 40
0.2999997667
100
AcDbArc
 50
359.9998718816
 51
88.3635472942
  0
ARC
  5
294
100
AcDbEntity
  8
0
100
AcDbCircle
 62
6
  6
CONTINUOUS
 10
10.9514972482
 20
2.3732939698
 40
0.25
100
AcDbArc
 50
301.4051636659
 51
360.0
  0
ARC
  5
295
100
AcDbEntity
  8
0
100
AcDbCircle
 62
6
  6
CONTINUOUS
 10
10.8264972482
 20
1.8869038677
 40
0.1
100
AcDbArc
 50
121.4051636659
 51
180.0
  0
ARC
  5
296
100
AcDbEntity
  8
0
100
AcDbCircle
 62
6
  6
CONTINUOUS
 10
10.9495422268
 20
1.7035153255
 40
0.0695
100
AcDbArc
 50
206.0784065202
 51
270.0
  0
ARC
  5
297
100
AcDbEntity
  8
0
100
AcDbCircle
 62
6
  6
CONTINUOUS
 10
10.1982874853
 20
4.3120139364
 40
0.5
100
AcDbArc
 50
130.0593275489
 51
147.5201628999
  0
ARC
  5
298
100
AcDbEntity
  8
0
100
AcDbCircle
 62
6
  6
CONTINUOUS
 10
9.7989987886
 20
4.0948944722
 40
0.438
100
AcDbArc
 50
102.192141278
 51
141.0454623761
  0
ARC
  5
299
100
AcDbEntity
  8
0
100
AcDbCircle
 62
6
  6
CONTINUOUS
 10
10.3520887115
 20
4.8580151486
 40
0.29999994
100
AcDbArc
 50
269.9999999504
 51
297.8597157623
  0
ARC
  5
29A
100
AcDbEntity
  8
0
100
AcDbCircle
 62
9
  6
CONTINUOUS
 10
10.2434529665
 20
5.7480943103
 40
1.6786775662
100
AcDbArc
 50
275.7000465249
 51
276.7896809214
  0
ARC
  5
29B
100
AcDbEntity
  8
0
100
AcDbCircle
 62
6
  6
CONTINUOUS
 10
10.3624937079
 20
6.0468661132
 40
1.0
100
AcDbArc
 50
328.1557999176
 51
355.0
  0
ARC
  5
29C
100
AcDbEntity
  8
0
100
AcDbCircle
 62
6
  6
CONTINUOUS
 10
11.5264972482
 20
4.8530153255
 40
0.925
100
AcDbArc
 50
15.0232015669
 51
18.9246444161
  0
ARC
  5
29D
100
AcDbEntity
  8
0
100
AcDbCircle
 62
9
  6
CONTINUOUS
 10
10.831469086
 20
5.1862623111
 40
0.8115402562
100
AcDbArc
 50
326.9773564978
 51
335.7552352274
  0
ARC
  5
29E
100
AcDbEntity
  8
0
100
AcDbCircle
 62
6
  6
CONTINUOUS
 10
10.9433668881
 20
5.1705477049
 40
0.2999998908
100
AcDbArc
 50
297.8596060782
 51
344.9767984336
  0
ARC
  5
29F
100
AcDbEntity
  8
0
100
AcDbCircle
 62
6
  6
CONTINUOUS
 10
11.3339972482
 20
5.2866585244
 40
0.188
100
AcDbArc
 50
134.384343958
 51
225.3055886043
  0
ARC
  5
2A0
100
AcDbEntity
  8
0
100
AcDbCircle
 62
6
  6
CONTINUOUS
 10
11.2654972482
 20
5.4860153255
 40
0.063
100
AcDbArc
 50
148.1557999176
 51
180.0
  0
ARC
  5
2A1
100
AcDbEntity
  8
0
100
AcDbCircle
 62
6
  6
CONTINUOUS
 10
11.4223792839
 20
6.3320153255
 40
0.031
100
AcDbArc
 50
90.0
 51
175.0
  0
ARC
  5
2A2
100
AcDbEntity
  8
0
100
AcDbCircle
 62
6
  6
CONTINUOUS
 10
11.7739703567
 20
11.8239846431
 40
0.4019815846
100
AcDbArc
 50
203.6283968234
 51
204.4551506246
  0
ARC
  5
2A3
100
AcDbEntity
  8
0
100
AcDbCircle
 62
6
  6
CONTINUOUS
 10
11.7737671491
 20
11.8239221888
 40
0.4017701083
100
AcDbArc
 50
180.001783739
 51
203.6318519181
  0
ARC
  5
2A4
100
AcDbEntity
  8
0
100
AcDbCircle
 62
6
  6
CONTINUOUS
 10
13.4547070111
 20
3.6340167145
 40
0.5
100
AcDbArc
 50
310.0593275489
 51
327.5201628999
  0
ARC
  5
2A5
100
AcDbEntity
  8
0
100
AcDbCircle
 62
6
  6
CONTINUOUS
 10
13.8539957078
 20
3.8511361788
 40
0.438
100
AcDbArc
 50
282.192141278
 51
321.0454623761
  0
ARC
  5
2A6
100
AcDbEntity
  8
0
100
AcDbCircle
 62
6
  6
CONTINUOUS
 10
12.7514965778
 20
3.0743221437
 40
0.2999997667
100
AcDbArc
 50
91.6364527058
 51
180.0001281184
  0
ARC
  5
2A7
100
AcDbEntity
  8
0
100
AcDbCircle
 62
6
  6
CONTINUOUS
 10
12.7014972482
 20
2.3732939698
 40
0.25
100
AcDbArc
 50
180.0
 51
238.5948363341
  0
ARC
  5
2A8
100
AcDbEntity
  8
0
100
AcDbCircle
 62
6
  6
CONTINUOUS
 10
12.8264972482
 20
1.8869038677
 40
0.1
100
AcDbArc
 50
0.0
 51
58.5948363341
  0
ARC
  5
2A9
100
AcDbEntity
  8
0
100
AcDbCircle
 62
6
  6
CONTINUOUS
 10
12.7034522696
 20
1.7035153255
 40
0.0695
100
AcDbArc
 50
270.0
 51
333.9215934798
  0
ARC
  5
2AA
100
AcDbEntity
  8
0
100
AcDbCircle
 62
6
  6
CONTINUOUS
 10
12.1264972482
 20
4.8530153255
 40
0.925
100
AcDbArc
 50
161.0753555839
 51
164.9767984331
  0
ARC
  5
2AB
100
AcDbEntity
  8
0
100
AcDbCircle
 62
9
  6
CONTINUOUS
 10
12.8215254104
 20
5.1862623111
 40
0.8115402562
100
AcDbArc
 50
204.2447647729
 51
213.0226435024
  0
ARC
  5
2AC
100
AcDbEntity
  8
0
100
AcDbCircle
 62
6
  6
CONTINUOUS
 10
12.7096276084
 20
5.1705477049
 40
0.2999998908
100
AcDbArc
 50
195.0232015664
 51
242.1403939218
  0
ARC
  5
2AD
100
AcDbEntity
  8
0
100
AcDbCircle
 62
6
  6
CONTINUOUS
 10
12.3189972482
 20
5.2866585244
 40
0.188
100
AcDbArc
 50
314.6944113957
 51
45.615656042
  0
ARC
  5
2AE
100
AcDbEntity
  8
0
100
AcDbCircle
 62
6
  6
CONTINUOUS
 10
12.3874972482
 20
5.4860153255
 40
0.063
100
AcDbArc
 50
0.0
 51
31.8442000824
  0
ARC
  5
2AF
100
AcDbEntity
  8
0
100
AcDbCircle
 62
6
  6
CONTINUOUS
 10
12.2306152126
 20
6.3320153255
 40
0.031
100
AcDbArc
 50
5.0
 51
90.0
  0
ARC
  5
2B0
100
AcDbEntity
  8
0
100
AcDbCircle
 62
6
  6
CONTINUOUS
 10
13.4547070111
 20
4.3120139364
 40
0.5
100
AcDbArc
 50
32.4798371001
 51
49.9406724511
  0
ARC
  5
2B1
100
AcDbEntity
  8
0
100
AcDbCircle
 62
6
  6
CONTINUOUS
 10
13.8539957078
 20
4.0948944722
 40
0.438
100
AcDbArc
 50
38.9545376239
 51
77.807858722
  0
ARC
  5
2B2
100
AcDbEntity
  8
0
100
AcDbCircle
 62
6
  6
CONTINUOUS
 10
13.3009057849
 20
4.8580151486
 40
0.29999994
100
AcDbArc
 50
242.1402842377
 51
270.0000000496
  0
ARC
  5
2B3
100
AcDbEntity
  8
0
100
AcDbCircle
 62
9
  6
CONTINUOUS
 10
13.40954153
 20
5.7480943103
 40
1.6786775663
100
AcDbArc
 50
263.2103190787
 51
264.2999534751
  0
ARC
  5
2B4
100
AcDbEntity
  8
0
100
AcDbCircle
 62
6
  6
CONTINUOUS
 10
13.2905007886
 20
6.0468661132
 40
1.0
100
AcDbArc
 50
185.0
 51
211.8442000824
  0
ARC
  5
2B5
100
AcDbEntity
  8
0
100
AcDbCircle
 62
6
  6
CONTINUOUS
 10
15.0054972482
 20
3.6482153255
 40
0.094
100
AcDbArc
 50
180.1219060058
 51
239.7493496838
  0
ARC
  5
2B6
100
AcDbEntity
  8
0
100
AcDbCircle
 62
6
  6
CONTINUOUS
 10
15.6474972482
 20
3.9730153255
 40
0.094
100
AcDbArc
 50
300.2506503162
 51
59.7493496838
  0
ARC
  5
2B7
100
AcDbEntity
  8
0
100
AcDbCircle
 62
6
  6
CONTINUOUS
 10
15.6474972482
 20
3.8106153255
 40
0.094
100
AcDbArc
 50
300.2506503162
 51
59.7493496838
  0
ARC
  5
2B8
100
AcDbEntity
  8
0
100
AcDbCircle
 62
6
  6
CONTINUOUS
 10
15.6474972482
 20
3.6482153255
 40
0.094
100
AcDbArc
 50
300.2506503162
 51
59.7493496838
  0
ARC
  5
2B9
100
AcDbEntity
  8
0
100
AcDbCircle
 62
6
  6
CONTINUOUS
 10
14.1704972482
 20
3.5952538329
 40
0.031
100
AcDbArc
 50
321.0454623761
 51
360.0
  0
ARC
  5
2BA
100
AcDbEntity
  8
0
100
AcDbCircle
 62
6
  6
CONTINUOUS
 10
13.9154972482
 20
3.3965153255
 40
0.031
100
AcDbArc
 50
270.0
 51
360.0
  0
ARC
  5
2BB
100
AcDbEntity
  8
0
100
AcDbCircle
 62
6
  6
CONTINUOUS
 10
15.0054972482
 20
4.2978153255
 40
0.094
100
AcDbArc
 50
120.2506503162
 51
179.8780939942
  0
ARC
  5
2BC
100
AcDbEntity
  8
0
100
AcDbCircle
 62
6
  6
CONTINUOUS
 10
15.6474972482
 20
4.2978153255
 40
0.094
100
AcDbArc
 50
300.2506503162
 51
59.7493496838
  0
ARC
  5
2BD
100
AcDbEntity
  8
0
100
AcDbCircle
 62
6
  6
CONTINUOUS
 10
15.6474972482
 20
4.1354153255
 40
0.094
100
AcDbArc
 50
300.2506503162
 51
59.7493496838
  0
ARC
  5
2BE
100
AcDbEntity
  8
0
100
AcDbCircle
 62
6
  6
CONTINUOUS
 10
14.1704972482
 20
4.350776818
 40
0.031
100
AcDbArc
 50
0.0
 51
38.9545376239
  0
ARC
  5
2BF
100
AcDbEntity
  8
0
100
AcDbCircle
 62
6
  6
CONTINUOUS
 10
13.9154972482
 20
4.5495153255
 40
0.031
100
AcDbArc
 50
0.0
 51
90.0
  0
ARC
  5
2C0
100
AcDbEntity
  8
0
100
AcDbCircle
 62
6
  6
CONTINUOUS
 10
11.8790231347
 20
11.8239851013
 40
0.4019826891
100
AcDbArc
 50
335.5448492235
 51
336.3715901467
  0
ARC
  5
2C1
100
AcDbEntity
  8
0
100
AcDbCircle
 62
6
  6
CONTINUOUS
 10
11.8792273252
 20
11.8239221933
 40
0.4017701305
100
AcDbArc
 50
336.368138154
 51
359.9982156221
  0
ARC
  5
2C2
100
AcDbEntity
  8
0
100
AcDbCircle
 62
6
  6
CONTINUOUS
 10
11.8264972482
 20
14.6300153255
 40
0.353
100
AcDbArc
 50
0.0
 51
180.0
  0
SPLINE
  5
2C3
100
AcDbEntity
  8
0
100
AcDbSpline
 62
6
  6
CONTINUOUS
 70
0
 71
3
 72
65
 73
61
 74
59
 42
0.0000001
 43
0.0000001
 44
0.0000000001
 12
0.3582686814
 22
-0.7877807951
 32
0.0
 13
0.3582686812
 23
0.7877807952
 33
0.0
 40
0.0
 40
0.0
 40
0.0
 40
0.0
 40
0.0033347936
 40
0.006652352
 40
0.0099935001
 40
0.0133887611
 40
0.0168617111
 40
0.0204310548
 40
0.0279252
 40
0.0318853942
 40
0.0360053348
 40
0.0447574938
 40
0.054238074
 40
0.0644806336
 40
0.0755042928
 40
0.0873151412
 40
0.0999110899
 40
0.113283102
 40
0.1274165144
 40
0.1422925017
 40
0.1578882249
 40
0.1741777471
 40
0.1911324183
 40
0.2087209434
 40
0.2456636096
 40
0.284717071
 40
0.3255664131
 40
0.3678762774
 40
0.4112952765
 40
0.4554602077
 40
0.5000000573
 40
0.5445399062
 40
0.5887048351
 40
0.6321238305
 40
0.6744336901
 40
0.7152830262
 40
0.7543364796
 40
0.7912791366
 40
0.8088676576
 40
0.8258223238
 40
0.8421118399
 40
0.8577075587
 40
0.8725835391
 40
0.8867169459
 40
0.9000889529
 40
0.9126848934
 40
0.924495737
 40
0.9355193888
 40
0.9457619414
 40
0.9552425157
 40
0.963994669
 40
0.9681146041
 40
0.9720747934
 40
0.9795689435
 40
0.9831382983
 40
0.9866112539
 40
0.9900065055
 40
0.9933476214
 40
0.9966651568
 40
1.0
 40
1.0
 40
1.0
 40
1.0
 10
11.408052308
 20
11.6575719756
 30
0.0
 10
11.4084505587
 20
11.6566962802
 30
0.0
 10
11.409339911
 20
11.6549910147
 30
0.0
 10
11.4109255643
 20
11.6525785589
 30
0.0
 10
11.4127283495
 20
11.6503023794
 30
0.0
 10
11.4147309277
 20
11.6481393462
 30
0.0
 10
11.4169264778
 20
11.6460757337
 30
0.0
 10
11.4201512542
 20
11.6433921033
 30
0.0
 10
11.4237021443
 20
11.6408935128
 30
0.0
 10
11.4275304779
 20
11.6385411232
 30
0.0
 10
11.4317595885
 20
11.6361530659
 30
0.0
 10
11.4375327592
 20
11.6332711449
 30
0.0
 10
11.4450725318
 20
11.6300033636
 30
0.0
 10
11.4533630357
 20
11.6268437562
 30
0.0
 10
11.4624027601
 20
11.6237832301
 30
0.0
 10
11.4721858347
 20
11.6208189956
 30
0.0
 10
11.4827010992
 20
11.6179507492
 30
0.0
 10
11.4939337289
 20
11.6151803891
 30
0.0
 10
11.5058655252
 20
11.6125108234
 30
0.0
 10
11.5184754255
 20
11.6099457579
 30
0.0
 10
11.5317399034
 20
11.6074892418
 30
0.0
 10
11.5456331941
 20
11.6051455162
 30
0.0
 10
11.5601275761
 20
11.602918874
 30
0.0
 10
11.5805515004
 20
11.6000650873
 30
0.0
 10
11.6073581864
 20
11.5968435349
 30
0.0
 10
11.6409077427
 20
11.5935662066
 30
0.0
 10
11.6760599818
 20
11.590845229
 30
0.0
 10
11.7125136186
 20
11.5887039214
 30
0.0
 10
11.7499546396
 20
11.5871609261
 30
0.0
 10
11.7880592633
 20
11.5862296893
 30
0.0
 10
11.8264972978
 20
11.5859183647
 30
0.0
 10
11.8649353316
 20
11.5862296907
 30
0.0
 10
11.9030399533
 20
11.5871609293
 30
0.0
 10
11.9404809711
 20
11.5887039262
 30
0.0
 10
11.9769346037
 20
11.5908452351
 30
0.0
 10
12.0120868373
 20
11.5935662138
 30
0.0
 10
12.0456363867
 20
11.5968435432
 30
0.0
 10
12.0724430665
 20
11.6000650967
 30
0.0
 10
12.0928669854
 20
11.6029188834
 30
0.0
 10
12.107361363
 20
11.6051455259
 30
0.0
 10
12.1212546491
 20
11.6074892518
 30
0.0
 10
12.134519122
 20
11.6099457676
 30
0.0
 10
12.1471290172
 20
11.6125108335
 30
0.0
 10
12.1590608084
 20
11.6151803985
 30
0.0
 10
12.1702934324
 20
11.6179507587
 30
0.0
 10
12.1808086919
 20
11.620819004
 30
0.0
 10
12.1905917606
 20
11.6237832378
 30
0.0
 10
12.1996314791
 20
11.6268437639
 30
0.0
 10
12.2079219781
 20
11.6300033675
 30
0.0
 10
12.2154617445
 20
11.6332711499
 30
0.0
 10
12.2212349102
 20
11.6361530696
 30
0.0
 10
12.2254640181
 20
11.6385411221
 30
0.0
 10
12.2292923507
 20
11.6408935106
 30
0.0
 10
12.232843241
 20
11.6433921061
 30
0.0
 10
12.2360680246
 20
11.6460757377
 30
0.0
 10
12.2382635732
 20
11.648139355
 30
0.0
 10
12.2402661433
 20
11.6503023811
 30
0.0
 10
12.2420689246
 20
11.6525785398
 30
0.0
 10
12.2436545798
 20
11.6549909928
 30
0.0
 10
12.2445439319
 20
11.6566962671
 30
0.0
 10
12.2449421885
 20
11.6575719756
 30
0.0
 11
11.408052308
 21
11.6575719756
 31
0.0
 11
11.4093839722
 21
11.6550115683
 31
0.0
 11
11.4109559412
 21
11.6526090575
 31
0.0
 11
11.4127465536
 21
11.6503387063
 31
0.0
 11
11.4147395222
 21
11.6481795681
 31
0.0
 11
11.4169258801
 21
11.6461172219
 31
0.0
 11
11.4192972841
 21
11.6441377546
 31
0.0
 11
11.4245837796
 21
11.6403806366
 31
0.0
 11
11.4275017664
 21
11.6385830497
 31
0.0
 11
11.4306050103
 21
11.6368273239
 31
0.0
 11
11.4373719604
 21
11.6334245963
 31
0.0
 11
11.4448928978
 21
11.6301454762
 31
0.0
 11
11.4531704516
 21
11.6269745149
 31
0.0
 11
11.4622026753
 21
11.6239032373
 31
0.0
 11
11.4719817245
 21
11.6209289253
 31
0.0
 11
11.482495895
 21
11.6180514492
 31
0.0
 11
11.4937297386
 21
11.6152726118
 31
0.0
 11
11.5056645011
 21
11.6125953524
 31
0.0
 11
11.5182789512
 21
11.6100232618
 31
0.0
 11
11.5315492147
 21
11.6075603614
 31
0.0
 11
11.5454493531
 21
11.6052108358
 31
0.0
 11
11.5599515578
 21
11.6029789468
 31
0.0
 11
11.5750260936
 21
11.6008689087
 31
0.0
 11
11.606765854
 21
11.5970306906
 31
0.0
 11
11.6404017188
 21
11.5937269845
 31
0.0
 11
11.6756471388
 21
11.5909850474
 31
0.0
 11
11.712199423
 21
11.5888278836
 31
0.0
 11
11.7497430222
 21
11.5872737655
 31
0.0
 11
11.7879528126
 21
11.5863359386
 31
0.0
 11
11.826497298
 21
11.5860224318
 31
0.0
 11
11.8650417828
 21
11.5863359401
 31
0.0
 11
11.9032515711
 21
11.5872737687
 31
0.0
 11
11.940795167
 21
11.5888278884
 31
0.0
 11
11.9773474471
 21
11.5909850535
 31
0.0
 11
12.0125928618
 21
11.5937269918
 31
0.0
 11
12.0462287195
 21
11.597030699
 31
0.0
 11
12.0779684717
 21
11.600868918
 31
0.0
 11
12.093043004
 21
11.6029789563
 31
0.0
 11
12.1075452043
 21
11.6052108456
 31
0.0
 11
12.1214453373
 21
11.6075603713
 31
0.0
 11
12.1347155969
 21
11.6100232718
 31
0.0
 11
12.147330041
 21
11.6125953622
 31
0.0
 11
12.1592647985
 21
11.6152726214
 31
0.0
 11
12.1704986376
 21
11.6180514587
 31
0.0
 11
12.1810128011
 21
11.6209289335
 31
0.0
 11
12.190791846
 21
11.6239032454
 31
0.0
 11
12.1998240633
 21
11.6269745219
 31
0.0
 11
12.2081016115
 21
11.6301454808
 31
0.0
 11
12.2156225433
 21
11.6334246009
 31
0.0
 11
12.2223894889
 21
11.6368273266
 31
0.0
 11
12.2254927294
 21
11.6385830488
 31
0.0
 11
12.2284107127
 21
11.6403806333
 31
0.0
 11
12.2336972106
 21
11.6441377551
 31
0.0
 11
12.2360686226
 21
11.6461172279
 31
0.0
 11
12.238254982
 21
11.6481795795
 31
0.0
 11
12.2402479452
 21
11.6503387117
 31
0.0
 11
12.2420385457
 21
11.6526090368
 31
0.0
 11
12.2436105064
 21
11.6550115292
 31
0.0
 11
12.2449421885
 21
11.6575719756
 31
0.0
  0
SPLINE
  5
2C4
100
AcDbEntity
  8
0
100
AcDbSpline
 62
6
  6
CONTINUOUS
 70
0
 71
3
 72
40
 73
36
 74
34
 42
0.0000001
 43
0.0000001
 44
0.0000000001
 12
0.0
 22
0.4726983386
 32
0.0
 13
0.4726983386
 23
0.0000025581
 33
0.0
 40
0.0
 40
0.0
 40
0.0
 40
0.0
 40
0.004105942
 40
0.0082916417
 40
0.0126304888
 40
0.0171881624
 40
0.022021134
 40
0.0271764464
 40
0.0326920704
 40
0.0385982607
 40
0.0449189916
 40
0.0516731977
 40
0.0588754493
 40
0.0665361758
 40
0.0746630765
 40
0.0832618054
 40
0.1018873725
 40
0.1224263476
 40
0.1448707498
 40
0.1691998457
 40
0.1953787142
 40
0.2233657092
 40
0.2531093034
 40
0.2845513938
 40
0.3176287732
 40
0.3522705105
 40
0.3884029717
 40
0.4259460894
 40
0.4648162681
 40
0.5461837776
 40
0.6317664589
 40
0.7207767972
 40
0.8123903473
 40
0.9057549785
 40
1.0
 40
1.0
 40
1.0
 40
1.0
 10
11.3719972482
 20
12.3163135573
 30
0.0
 10
11.3719972482
 20
12.3169605147
 30
0.0
 10
11.3720907466
 20
12.3182688085
 30
0.0
 10
11.372508913
 20
12.320220489
 30
0.0
 10
11.373203547
 20
12.3221671484
 30
0.0
 10
11.3741725384
 20
12.3241065313
 30
0.0
 10
11.3754141121
 20
12.3260377494
 30
0.0
 10
11.3769268446
 20
12.3279600176
 30
0.0
 10
11.3787090692
 20
12.3298730948
 30
0.0
 10
11.3807594945
 20
12.3317765567
 30
0.0
 10
11.3830769704
 20
12.333669825
 30
0.0
 10
11.3856603936
 20
12.3355521205
 30
0.0
 10
11.3885084462
 20
12.3374225113
 30
0.0
 10
11.3916194183
 20
12.3392801586
 30
0.0
 10
11.3949914808
 20
12.3411240926
 30
0.0
 10
11.3999670713
 20
12.3436300679
 30
0.0
 10
11.4068422402
 20
12.3467016838
 30
0.0
 10
11.4158909226
 20
12.350224985
 30
0.0
 10
11.4259250061
 20
12.3536690221
 30
0.0
 10
11.4369210606
 20
12.3570248412
 30
0.0
 10
11.4488534431
 20
12.3602848738
 30
0.0
 10
11.4616939617
 20
12.3634403801
 30
0.0
 10
11.4754120445
 20
12.3664839336
 30
0.0
 10
11.4899749454
 20
12.3694080403
 30
0.0
 10
11.5053477674
 20
12.3722051642
 30
0.0
 10
11.521493666
 20
12.3748689788
 30
0.0
 10
11.5383738251
 20
12.3773924136
 30
0.0
 10
11.5559477013
 20
12.3797697304
 30
0.0
 10
11.580625956
 20
12.3827825806
 30
0.0
 10
11.6128873407
 20
12.3861192684
 30
0.0
 10
11.6530869103
 20
12.3894025176
 30
0.0
 10
11.6949547065
 20
12.3919904449
 30
0.0
 10
11.7380879682
 20
12.3938575782
 30
0.0
 10
11.7820717289
 20
12.3949853963
 30
0.0
 10
11.8116332794
 20
12.3952365737
 30
0.0
 10
11.8264831011
 20
12.395236654
 30
0.0
 11
11.3719972482
 21
12.3163135573
 31
0.0
 11
11.3721342355
 21
12.318249589
 31
0.0
 11
11.3725449269
 21
12.3201850695
 31
0.0
 11
11.3732289162
 21
12.3221186205
 31
0.0
 11
11.3741857977
 21
12.3240488634
 31
0.0
 11
11.3754151653
 21
12.3259744198
 31
0.0
 11
11.3769164454
 21
12.3278939709
 31
0.0
 11
11.3786885319
 21
12.3298063879
 31
0.0
 11
11.3807302128
 21
12.3317105793
 31
0.0
 11
11.3830402762
 21
12.333605454
 31
0.0
 11
11.3856175096
 21
12.3354899205
 31
0.0
 11
11.3884605009
 21
12.3373628777
 31
0.0
 11
11.3915673294
 21
12.3392231998
 31
0.0
 11
11.3949359949
 21
12.3410697565
 31
0.0
 11
11.3985644971
 21
12.3429014181
 31
0.0
 11
11.4065927751
 21
12.3465155576
 31
0.0
 11
11.415632603
 21
12.3500569037
 31
0.0
 11
11.4256619599
 21
12.3535169672
 31
0.0
 11
11.4366573095
 21
12.3568873861
 31
0.0
 11
11.4485914063
 21
12.3601601098
 31
0.0
 11
11.4614361289
 21
12.3633271725
 31
0.0
 11
11.4751602208
 21
12.3663809905
 31
0.0
 11
11.4897305262
 21
12.3693142122
 31
0.0
 11
11.5051123935
 21
12.3721197143
 31
0.0
 11
11.5212681584
 21
12.3747908351
 31
0.0
 11
11.5381594611
 21
12.3773210336
 31
0.0
 11
11.5557452737
 21
12.3797042921
 31
0.0
 11
11.5739832465
 21
12.3819348533
 31
0.0
 11
11.6122388637
 21
12.3859167166
 31
0.0
 11
11.652557889
 21
12.3892282637
 31
0.0
 11
11.6945519374
 21
12.391837632
 31
0.0
 11
11.737816593
 21
12.3937197114
 31
0.0
 11
11.7819352591
 21
12.3948563757
 31
0.0
 11
11.8264831011
 21
12.395236654
 31
0.0
  0
SPLINE
  5
2C5
100
AcDbEntity
  8
0
100
AcDbSpline
 62
6
  6
CONTINUOUS
 70
0
 71
3
 72
40
 73
36
 74
34
 42
0.0000001
 43
0.0000001
 44
0.0000000001
 12
0.4727266315
 22
0.0000025582
 32
0.0
 13
0.0
 23
-0.4727266315
 33
0.0
 40
0.0
 40
0.0
 40
0.0
 40
0.0
 40
0.0942433835
 40
0.1876068811
 40
0.2792197428
 40
0.3682297751
 40
0.453812468
 40
0.5351802408
 40
0.574050626
 40
0.6115939881
 40
0.6477267254
 40
0.6823687611
 40
0.7154464545
 40
0.7468888677
 40
0.7766327848
 40
0.8046200976
 40
0.8307992706
 40
0.8551286521
 40
0.8775733147
 40
0.8981125183
 40
0.916738277
 40
0.9253370857
 40
0.9334640545
 40
0.941124837
 40
0.9483271318
 40
0.9550813676
 40
0.9614021137
 40
0.9673083045
 40
0.972823914
 40
0.9779791969
 40
0.9828121243
 40
0.9873697403
 40
0.9917085182
 40
0.9958941402
 40
1.0
 40
1.0
 40
1.0
 40
1.0
 10
11.8264831011
 20
12.395236654
 30
0.0
 10
11.8413335535
 20
12.3952367344
 30
0.0
 10
11.8708964395
 20
12.3949858542
 30
0.0
 10
11.914882299
 20
12.3938584212
 30
0.0
 10
11.9580178255
 20
12.3919916064
 30
0.0
 10
11.9998879975
 20
12.3894039297
 30
0.0
 10
12.0400899993
 20
12.3861208627
 30
0.0
 10
12.072353422
 20
12.3827842737
 30
0.0
 10
12.0970332948
 20
12.3797714692
 30
0.0
 10
12.1146083597
 20
12.3773941679
 30
0.0
 10
12.1314896822
 20
12.3748707332
 30
0.0
 10
12.1476367129
 20
12.3722069031
 30
0.0
 10
12.1630106297
 20
12.3694097489
 30
0.0
 10
12.1775745827
 20
12.3664855981
 30
0.0
 10
12.1912936696
 20
12.3634419866
 30
0.0
 10
12.2041351393
 20
12.3602864099
 30
0.0
 10
12.2160684149
 20
12.3570262947
 30
0.0
 10
12.2270653004
 20
12.353670382
 30
0.0
 10
12.2371001486
 20
12.3502262414
 30
0.0
 10
12.2461495257
 20
12.3467028271
 30
0.0
 10
12.2530252278
 20
12.3436311071
 30
0.0
 10
12.2580012069
 20
12.3411250432
 30
0.0
 10
12.2613735322
 20
12.3392810434
 30
0.0
 10
12.2644847473
 20
12.3374233288
 30
0.0
 10
12.267333023
 20
12.3355528691
 30
0.0
 10
12.2699166489
 20
12.3336705035
 30
0.0
 10
12.2722343071
 20
12.3317771638
 30
0.0
 10
12.2742848939
 20
12.3298736295
 30
0.0
 10
12.2760672592
 20
12.3279604788
 30
0.0
 10
12.2775801115
 20
12.3260381362
 30
0.0
 10
12.2788217838
 20
12.3241068427
 30
0.0
 10
12.2797908525
 20
12.3221673833
 30
0.0
 10
12.2804855422
 20
12.3202206464
 30
0.0
 10
12.2809037422
 20
12.3182688875
 30
0.0
 10
12.2809972482
 20
12.3169605404
 30
0.0
 10
12.2809972482
 20
12.3163135573
 30
0.0
 11
11.8264831011
 21
12.395236654
 31
0.0
 11
11.8710328392
 21
12.3948568271
 31
0.0
 11
11.9151536216
 21
12.3937205501
 31
0.0
 11
11.9584205599
 21
12.3918387908
 31
0.0
 11
12.0004170023
 21
12.3892296739
 31
0.0
 11
12.0407384774
 21
12.3859183089
 31
0.0
 11
12.0789965462
 21
12.3819365593
 31
0.0
 11
12.0972357293
 21
12.3797060299
 31
0.0
 11
12.1148227324
 21
12.3773227868
 31
0.0
 11
12.1317152007
 21
12.374792588
 31
0.0
 11
12.1478720994
 21
12.3721214514
 31
0.0
 11
12.1632550633
 21
12.3693159186
 31
0.0
 11
12.1778264228
 21
12.3663826521
 31
0.0
 11
12.1915515201
 21
12.3633287756
 31
0.0
 11
12.2043971954
 21
12.3601616417
 31
0.0
 11
12.2163321867
 21
12.3568888347
 31
0.0
 11
12.2273283684
 21
12.3535183212
 31
0.0
 11
12.2373584911
 21
12.3500581529
 31
0.0
 11
12.2463990143
 21
12.3465166924
 31
0.0
 11
12.2544279143
 21
12.3429024301
 31
0.0
 11
12.2580566988
 21
12.3410707042
 31
0.0
 11
12.261425627
 21
12.3392240813
 31
0.0
 11
12.2645326984
 21
12.3373636916
 31
0.0
 11
12.2673759126
 21
12.3354906651
 31
0.0
 11
12.2699533485
 21
12.333606128
 31
0.0
 11
12.2722635936
 21
12.3317111816
 31
0.0
 11
12.2743054354
 21
12.3298069173
 31
0.0
 11
12.2760776618
 21
12.3278944266
 31
0.0
 11
12.2775790606
 21
12.3259748008
 31
0.0
 11
12.2788085254
 21
12.324049169
 31
0.0
 11
12.2797654826
 21
12.3221188502
 31
0.0
 11
12.2804495262
 21
12.3201852229
 31
0.0
 11
12.28086025
 21
12.3182496657
 31
0.0
 11
12.2809972482
 21
12.3163135573
 31
0.0
  0
SPLINE
  5
2C6
100
AcDbEntity
  8
0
100
AcDbSpline
 62
7
  6
CONTINUOUS
 70
0
 71
3
 72
32
 73
28
 74
26
 42
0.0000001
 43
0.0000001
 44
0.0000000001
 12
0.2240908707
 22
0.0601881523
 32
0.0
 13
-0.1837936599
 23
0.141630585
 33
0.0
 40
0.0
 40
0.0
 40
0.0
 40
0.0
 40
0.0695948296
 40
0.1390787588
 40
0.2083424779
 40
0.2772433814
 40
0.3456437371
 40
0.4133032083
 40
0.4467825881
 40
0.4799645265
 40
0.5128054769
 40
0.5452634684
 40
0.577287374
 40
0.6088283911
 40
0.6702577304
 40
0.7000958789
 40
0.7293036363
 40
0.7578671231
 40
0.7857956204
 40
0.8131216709
 40
0.8399114271
 40
0.8662806257
 40
0.8923915926
 40
0.918485313
 40
0.9448695762
 40
0.9719314763
 40
1.0
 40
1.0
 40
1.0
 40
1.0
 10
8.5179504897
 20
4.0542153255
 30
0.0
 10
8.5231490116
 20
4.0556115869
 30
0.0
 10
8.5334572747
 20
4.0587149736
 30
0.0
 10
8.5485554988
 20
4.0643829056
 30
0.0
 10
8.5631451343
 20
4.07113549
 30
0.0
 10
8.577075685
 20
4.0789964585
 30
0.0
 10
8.5901692807
 20
4.0879693501
 30
0.0
 10
8.6002767578
 20
4.0963573424
 30
0.0
 10
8.6077626721
 20
4.1035661751
 30
0.0
 10
8.6130343728
 20
4.1091776981
 30
0.0
 10
8.6179586352
 20
4.114993436
 30
0.0
 10
8.6225112518
 20
4.120992512
 30
0.0
 10
8.6266718847
 20
4.1271496372
 30
0.0
 10
8.6316220635
 20
4.1354578136
 30
0.0
 10
8.6357594845
 20
4.144040807
 30
0.0
 10
8.6389575302
 20
4.1527991228
 30
0.0
 10
8.6408343304
 20
4.15931648
 30
0.0
 10
8.6421882603
 20
4.1658118641
 30
0.0
 10
8.6429957888
 20
4.1722519235
 30
0.0
 10
8.6432294107
 20
4.1786022959
 30
0.0
 10
8.6428547267
 20
4.1848266977
 30
0.0
 10
8.6418386602
 20
4.1908858698
 30
0.0
 10
8.6401342842
 20
4.1967351081
 30
0.0
 10
8.6376964017
 20
4.2023226799
 30
0.0
 10
8.6344715769
 20
4.207586598
 30
0.0
 10
8.6304156326
 20
4.212441935
 30
0.0
 10
8.627218298
 20
4.215290205
 30
0.0
 10
8.6254986925
 20
4.2166153255
 30
0.0
 11
8.5179504897
 21
4.0542153255
 31
0.0
 11
8.5334080373
 21
4.0588877781
 31
0.0
 11
8.5484946564
 21
4.0645738227
 31
0.0
 11
8.5630726341
 21
4.071339527
 31
0.0
 11
8.5769865016
 21
4.0792133832
 31
0.0
 11
8.5900699153
 21
4.0881976722
 31
0.0
 11
8.6021386059
 21
4.098238221
 31
0.0
 11
8.6077329942
 21
4.1036279938
 31
0.0
 11
8.6130027673
 21
4.1092412643
 31
0.0
 11
8.6179245385
 21
4.115058772
 31
0.0
 11
8.6224752084
 21
4.1210597954
 31
0.0
 11
8.6266326889
 21
4.1272184669
 31
0.0
 11
8.630375114
 21
4.133507787
 31
0.0
 11
8.6365283834
 21
4.146364825
 31
0.0
 11
8.6388970194
 21
4.152870479
 31
0.0
 11
8.6407650865
 21
4.1593851001
 31
0.0
 11
8.6421092668
 21
4.1658750326
 31
0.0
 11
8.6429057871
 21
4.172306229
 31
0.0
 11
8.6431274104
 21
4.1786429011
 31
0.0
 11
8.6427425685
 21
4.1848470854
 31
0.0
 11
8.6417177801
 21
4.1908791797
 31
0.0
 11
8.6400120714
 21
4.1966927222
 31
0.0
 11
8.6375818596
 21
4.2022381993
 31
0.0
 11
8.6343790431
 21
4.2074555842
 31
0.0
 11
8.6303562786
 21
4.2122770373
 31
0.0
 11
8.6254986925
 21
4.2166153255
 31
0.0
  0
SPLINE
  5
2C7
100
AcDbEntity
  8
0
100
AcDbSpline
 62
7
  6
CONTINUOUS
 70
0
 71
3
 72
35
 73
31
 74
29
 42
0.0000001
 43
0.0000001
 44
0.0000000001
 12
0.2123062166
 22
0.073847604
 32
0.0
 13
-0.2123062166
 23
0.073847604
 33
0.0
 40
0.0
 40
0.0
 40
0.0
 40
0.0
 40
0.062477098
 40
0.0937036533
 40
0.1249124333
 40
0.1872227684
 40
0.2183902745
 40
0.2495624074
 40
0.28074741
 40
0.3119626321
 40
0.3432083063
 40
0.3744964726
 40
0.4058260076
 40
0.4371920131
 40
0.4685890164
 40
0.5000000015
 40
0.5314109921
 40
0.5628080102
 40
0.5941740345
 40
0.6255035882
 40
0.6567917737
 40
0.6880374527
 40
0.719252674
 40
0.7504376719
 40
0.7816097849
 40
0.8127772802
 40
0.8750875966
 40
0.90629637
 40
0.9375229165
 40
1.0
 40
1.0
 40
1.0
 40
1.0
 10
8.5179504897
 20
3.8918153255
 30
0.0
 10
8.5223719151
 20
3.8933532535
 30
0.0
 10
8.5289059707
 20
3.8959643288
 30
0.0
 10
8.537287225
 20
3.9001403791
 30
0.0
 10
8.545392887
 20
3.9048026908
 30
0.0
 10
8.5530338125
 20
3.9102405439
 30
0.0
 10
8.5599988502
 20
3.9164744001
 30
0.0
 10
8.564846173
 20
3.9215457191
 30
0.0
 10
8.5692638073
 20
3.9270006458
 30
0.0
 10
8.5732013865
 20
3.9328189443
 30
0.0
 10
8.5766194786
 20
3.9389662605
 30
0.0
 10
8.5794713968
 20
3.9454056796
 30
0.0
 10
8.5817281074
 20
3.9520866943
 30
0.0
 10
8.5833598716
 20
3.9589558862
 30
0.0
 10
8.5843455662
 20
3.9659532151
 30
0.0
 10
8.584677751
 20
3.9730153262
 30
0.0
 10
8.5843455658
 20
3.9800774384
 30
0.0
 10
8.58335987
 20
3.9870747701
 30
0.0
 10
8.5817281055
 20
3.993943966
 30
0.0
 10
8.5794713902
 20
4.0006249836
 30
0.0
 10
8.576619472
 20
4.0070644061
 30
0.0
 10
8.5732013768
 20
4.0132117227
 30
0.0
 10
8.5692637947
 20
4.019030019
 30
0.0
 10
8.5648461638
 20
4.0244849461
 30
0.0
 10
8.55999884
 20
4.0295562606
 30
0.0
 10
8.5530338041
 20
4.0357901131
 30
0.0
 10
8.5453928804
 20
4.0412279641
 30
0.0
 10
8.5372872204
 20
4.0458902741
 30
0.0
 10
8.5289059682
 20
4.0500663236
 30
0.0
 10
8.5223719141
 20
4.0526773978
 30
0.0
 10
8.5179504897
 20
4.0542153255
 30
0.0
 11
8.5179504897
 21
3.8918153255
 31
0.0
 11
8.5309753794
 21
3.8970670182
 31
0.0
 11
8.5372553153
 21
3.9002025496
 31
0.0
 11
8.5433334875
 21
3.9037052485
 31
0.0
 11
8.5547178125
 21
3.9118645195
 31
0.0
 11
8.5599355226
 21
3.9165398263
 31
0.0
 11
8.564773537
 21
3.9216084735
 31
0.0
 11
8.56918191
 21
3.9270586445
 31
0.0
 11
8.5731129407
 21
3.9328707348
 31
0.0
 11
8.5765230648
 21
3.9390108127
 31
0.0
 11
8.5793705217
 21
3.9454416566
 31
0.0
 11
8.5816228147
 21
3.9521141244
 31
0.0
 11
8.5832515606
 21
3.9589739618
 31
0.0
 11
8.5842364797
 21
3.9659624109
 31
0.0
 11
8.5845670062
 21
3.9730153258
 31
0.0
 11
8.5842364792
 21
3.9800682419
 31
0.0
 11
8.5832515593
 21
3.9870566942
 31
0.0
 11
8.5816228121
 21
3.9939165357
 31
0.0
 11
8.5793705158
 21
4.0005890068
 31
0.0
 11
8.5765230572
 21
4.0070198546
 31
0.0
 11
8.5731129307
 21
4.0131599324
 31
0.0
 11
8.569181898
 21
4.0189720212
 31
0.0
 11
8.5647735262
 21
4.0244221918
 31
0.0
 11
8.5599355133
 21
4.0294908342
 31
0.0
 11
8.5547178039
 21
4.0341661383
 31
0.0
 11
8.5433334817
 21
4.0423254058
 31
0.0
 11
8.5372553107
 21
4.0458281038
 31
0.0
 11
8.5309753765
 21
4.0489636342
 31
0.0
 11
8.5179504897
 21
4.0542153255
 31
0.0
  0
SPLINE
  5
2C8
100
AcDbEntity
  8
0
100
AcDbSpline
 62
7
  6
CONTINUOUS
 70
0
 71
3
 72
32
 73
28
 74
26
 42
0.0000001
 43
0.0000001
 44
0.0000000001
 12
0.1837936599
 22
0.141630585
 32
0.0
 13
-0.2240908707
 23
0.0601881523
 33
0.0
 40
0.0
 40
0.0
 40
0.0
 40
0.0
 40
0.028068502
 40
0.0551303223
 40
0.081514563
 40
0.1076082803
 40
0.1337192463
 40
0.1600884397
 40
0.1868781873
 40
0.2142042342
 40
0.2421327158
 40
0.2706961881
 40
0.2999039272
 40
0.3297420566
 40
0.3911713709
 40
0.4227123862
 40
0.4547363018
 40
0.4871942982
 40
0.5200352596
 40
0.5532172282
 40
0.5866966421
 40
0.6543562122
 40
0.7227567067
 40
0.7916576693
 40
0.8609213977
 40
0.9304052421
 40
1.0
 40
1.0
 40
1.0
 40
1.0
 10
8.6254986925
 20
3.7294153255
 30
0.0
 10
8.6272182967
 20
3.7307404449
 30
0.0
 10
8.6304156288
 20
3.7335887059
 30
0.0
 10
8.6344715653
 20
3.7384440374
 30
0.0
 10
8.6376963842
 20
3.7437079489
 30
0.0
 10
8.6401342769
 20
3.7492955139
 30
0.0
 10
8.6418386529
 20
3.7551447518
 30
0.0
 10
8.6428547237
 20
3.7612039218
 30
0.0
 10
8.643229411
 20
3.7674283222
 30
0.0
 10
8.6429957894
 20
3.7737786924
 30
0.0
 10
8.642188268
 20
3.7802187501
 30
0.0
 10
8.64083434
 20
3.7867141308
 30
0.0
 10
8.6389575435
 20
3.7932314848
 30
0.0
 10
8.6357595054
 20
3.8019897983
 30
0.0
 10
8.6316220881
 20
3.8105727897
 30
0.0
 10
8.6266719131
 20
3.8188809667
 30
0.0
 10
8.6225112846
 20
3.8250380962
 30
0.0
 10
8.6179586677
 20
3.8310371745
 30
0.0
 10
8.6130344032
 20
3.8368529153
 30
0.0
 10
8.607762703
 20
3.8424644467
 30
0.0
 10
8.6002767814
 20
3.8496732903
 30
0.0
 10
8.5901692836
 20
3.8580612902
 30
0.0
 10
8.577075675
 20
3.8670342037
 30
0.0
 10
8.563145105
 20
3.8748951711
 30
0.0
 10
8.5485554726
 20
3.8816477583
 30
0.0
 10
8.5334572593
 20
3.8873156875
 30
0.0
 10
8.5231490063
 20
3.8904190655
 30
0.0
 10
8.5179504897
 20
3.8918153255
 30
0.0
 11
8.6254986925
 21
3.7294153255
 31
0.0
 11
8.6303562771
 21
3.7337536079
 31
0.0
 11
8.6343790291
 21
3.7385750472
 31
0.0
 11
8.6375818435
 21
3.7437924272
 31
0.0
 11
8.6400120622
 21
3.7493379005
 31
0.0
 11
8.6417177736
 21
3.755151442
 31
0.0
 11
8.6427425653
 21
3.7611835345
 31
0.0
 11
8.6431274102
 21
3.7673877166
 31
0.0
 11
8.6429057887
 21
3.773724388
 31
0.0
 11
8.6421092735
 21
3.7801555813
 31
0.0
 11
8.6407650963
 21
3.7866455111
 31
0.0
 11
8.6388970329
 21
3.7931601288
 31
0.0
 11
8.6365284023
 21
3.79966578
 31
0.0
 11
8.6303751403
 21
3.8125228151
 31
0.0
 11
8.6266327181
 21
3.8188121365
 31
0.0
 11
8.6224752403
 21
3.8249708126
 31
0.0
 11
8.6179245712
 21
3.830971838
 31
0.0
 11
8.6130027994
 21
3.8367893486
 31
0.0
 11
8.6077330248
 21
3.8424026273
 31
0.0
 11
8.6021386323
 21
3.8477924071
 31
0.0
 11
8.5900699223
 21
3.8578329685
 31
0.0
 11
8.5769864843
 21
3.866817279
 31
0.0
 11
8.5630726026
 21
3.8746911379
 31
0.0
 11
8.5484946232
 21
3.8814568438
 31
0.0
 11
8.5334080225
 21
3.8871428814
 31
0.0
 11
8.5179504897
 21
3.8918153255
 31
0.0
  0
SPLINE
  5
2C9
100
AcDbEntity
  8
0
100
AcDbSpline
 62
7
  6
CONTINUOUS
 70
0
 71
3
 72
22
 73
18
 74
16
 42
0.0000001
 43
0.0000001
 44
0.0000000001
 12
0.1359177452
 22
0.0464339331
 32
0.0
 13
0.0880002852
 23
0.1135170501
 33
0.0
 40
0.0
 40
0.0
 40
0.0
 40
0.0
 40
0.1110076514
 40
0.2181814085
 40
0.3206444586
 40
0.4176846982
 40
0.508623915
 40
0.5928220326
 40
0.6697589116
 40
0.7390197889
 40
0.8003240279
 40
0.8534852998
 40
0.9350916663
 40
0.9635429413
 40
0.9838180177
 40
0.9959595502
 40
1.0
 40
1.0
 40
1.0
 40
1.0
 10
8.6254986925
 20
4.2166153255
 30
0.0
 10
8.6305279957
 20
4.2183334994
 30
0.0
 10
8.6403078026
 20
4.2220271435
 30
0.0
 10
8.6543179883
 20
4.2283239654
 30
0.0
 10
8.6673404619
 20
4.2351237559
 30
0.0
 10
8.6792971671
 20
4.2422361457
 30
0.0
 10
8.6901371784
 20
4.2494781541
 30
0.0
 10
8.6998370025
 20
4.2566664102
 30
0.0
 10
8.7083936626
 20
4.2636331744
 30
0.0
 10
8.715831928
 20
4.2702225281
 30
0.0
 10
8.722189658
 20
4.2763043234
 30
0.0
 10
8.7287503517
 20
4.2830202268
 30
0.0
 10
8.7339765021
 20
4.2888353467
 30
0.0
 10
8.7379835364
 20
4.293619045
 30
0.0
 10
8.7398155269
 20
4.2958854547
 30
0.0
 10
8.7409020893
 20
4.2972515011
 30
0.0
 10
8.7413785152
 20
4.2978624388
 30
0.0
 10
8.7414970355
 20
4.2980153255
 30
0.0
 11
8.6254986925
 21
4.2166153255
 31
0.0
 11
8.6404158118
 21
4.2222450382
 31
0.0
 11
8.6544563867
 21
4.22855534
 31
0.0
 11
8.6675025334
 21
4.2353658513
 31
0.0
 11
8.679481191
 21
4.2424917266
 31
0.0
 11
8.6903420535
 21
4.2497476505
 31
0.0
 11
8.7000574126
 21
4.2569492277
 31
0.0
 11
8.7086264212
 21
4.2639267193
 31
0.0
 11
8.7160715013
 21
4.2705246802
 31
0.0
 11
8.7224338899
 21
4.2766116264
 31
0.0
 11
8.7277683338
 21
4.2820747625
 31
0.0
 11
8.7356013622
 21
4.2907942515
 31
0.0
 11
8.7382241651
 21
4.2939279661
 31
0.0
 11
8.7400566016
 21
4.2961912879
 31
0.0
 11
8.741140234
 21
4.2975576377
 31
0.0
 11
8.7414970355
 21
4.2980153255
 31
0.0
  0
SPLINE
  5
2CA
100
AcDbEntity
  8
0
100
AcDbSpline
 62
7
  6
CONTINUOUS
 70
0
 71
3
 72
22
 73
18
 74
16
 42
0.0000001
 43
0.0000001
 44
0.0000000001
 12
-0.0879991416
 22
0.1135179405
 32
0.0
 13
-0.1359177453
 23
0.0464339332
 33
0.0
 40
0.0
 40
0.0
 40
0.0
 40
0.0
 40
0.0040404607
 40
0.0161820254
 40
0.0364571509
 40
0.0649084536
 40
0.1465148333
 40
0.1996760623
 40
0.2609802849
 40
0.3302411441
 40
0.4071780504
 40
0.4913762505
 40
0.5823156216
 40
0.6793558703
 40
0.781818828
 40
0.888992408
 40
1.0
 40
1.0
 40
1.0
 40
1.0
 10
8.7414970355
 20
3.6480153255
 30
0.0
 10
8.7413785164
 20
3.6481682137
 30
0.0
 10
8.7409020935
 20
3.6487791564
 30
0.0
 10
8.7398155249
 20
3.6501452036
 30
0.0
 10
8.7379835229
 20
3.6524116105
 30
0.0
 10
8.7339765001
 20
3.657195324
 30
0.0
 10
8.7287503391
 20
3.663010435
 30
0.0
 10
8.7221896477
 20
3.6697263371
 30
0.0
 10
8.7158319198
 20
3.6758081295
 30
0.0
 10
8.7083936552
 20
3.6823974834
 30
0.0
 10
8.6998369918
 20
3.6893642505
 30
0.0
 10
8.6901371559
 20
3.6965525122
 30
0.0
 10
8.6792971326
 20
3.7037945237
 30
0.0
 10
8.6673404261
 20
3.7109069181
 30
0.0
 10
8.6543179602
 20
3.7177066965
 30
0.0
 10
8.6403077907
 20
3.724003516
 30
0.0
 10
8.630527993
 20
3.7276971524
 30
0.0
 10
8.6254986925
 20
3.7294153255
 30
0.0
 11
8.7414970355
 21
3.6480153255
 31
0.0
 11
8.7411402364
 21
3.6484730171
 31
0.0
 11
8.7400566007
 21
3.6498393702
 31
0.0
 11
8.7382241541
 21
3.6521026929
 31
0.0
 11
8.7356013526
 21
3.6552364139
 31
0.0
 11
8.727768321
 21
3.6639559025
 31
0.0
 11
8.7224338803
 21
3.6694190331
 31
0.0
 11
8.7160714933
 21
3.6755059776
 31
0.0
 11
8.7086264153
 21
3.6821039371
 31
0.0
 11
8.7000574036
 21
3.6890814311
 31
0.0
 11
8.6903420337
 21
3.6962830136
 31
0.0
 11
8.6794811512
 21
3.7035389475
 31
0.0
 11
8.6675024926
 21
3.7106648236
 31
0.0
 11
8.654456356
 21
3.7174753255
 31
0.0
 11
8.6404158045
 21
3.7237856176
 31
0.0
 11
8.6254986925
 21
3.7294153255
 31
0.0
  0
SPLINE
  5
2CB
100
AcDbEntity
  8
0
100
AcDbSpline
 62
7
  6
CONTINUOUS
 70
0
 71
3
 72
32
 73
28
 74
26
 42
0.0000001
 43
0.0000001
 44
0.0000000001
 12
-0.2240908707
 22
-0.0601881523
 32
0.0
 13
0.1837936599
 23
-0.141630585
 33
0.0
 40
0.0
 40
0.0
 40
0.0
 40
0.0
 40
0.0695948296
 40
0.1390787588
 40
0.2083424779
 40
0.2772433814
 40
0.3456437371
 40
0.4133032083
 40
0.4467825881
 40
0.4799645265
 40
0.5128054769
 40
0.5452634684
 40
0.577287374
 40
0.6088283911
 40
0.6702577304
 40
0.7000958789
 40
0.7293036363
 40
0.7578671231
 40
0.7857956204
 40
0.8131216709
 40
0.8399114271
 40
0.8662806257
 40
0.8923915926
 40
0.918485313
 40
0.9448695762
 40
0.9719314763
 40
1.0
 40
1.0
 40
1.0
 40
1.0
 10
15.1350440068
 20
3.8918153255
 30
0.0
 10
15.1298454848
 20
3.8904190641
 30
0.0
 10
15.1195372218
 20
3.8873156773
 30
0.0
 10
15.1044389977
 20
3.8816477453
 30
0.0
 10
15.0898493622
 20
3.8748951609
 30
0.0
 10
15.0759188114
 20
3.8670341924
 30
0.0
 10
15.0628252158
 20
3.8580613008
 30
0.0
 10
15.0527177386
 20
3.8496733086
 30
0.0
 10
15.0452318243
 20
3.8424644759
 30
0.0
 10
15.0399601237
 20
3.8368529528
 30
0.0
 10
15.0350358613
 20
3.8310372149
 30
0.0
 10
15.0304832447
 20
3.8250381389
 30
0.0
 10
15.0263226118
 20
3.8188810138
 30
0.0
 10
15.0213724329
 20
3.8105728374
 30
0.0
 10
15.0172350119
 20
3.801989844
 30
0.0
 10
15.0140369662
 20
3.7932315281
 30
0.0
 10
15.012160166
 20
3.7867141709
 30
0.0
 10
15.0108062361
 20
3.7802187869
 30
0.0
 10
15.0099987076
 20
3.7737787275
 30
0.0
 10
15.0097650858
 20
3.767428355
 30
0.0
 10
15.0101397697
 20
3.7612039532
 30
0.0
 10
15.0111558362
 20
3.7551447812
 30
0.0
 10
15.0128602122
 20
3.7492955428
 30
0.0
 10
15.0152980947
 20
3.7437079711
 30
0.0
 10
15.0185229196
 20
3.738444053
 30
0.0
 10
15.0225788638
 20
3.7335887159
 30
0.0
 10
15.0257761984
 20
3.7307404459
 30
0.0
 10
15.027495804
 20
3.7294153255
 30
0.0
 11
15.1350440068
 21
3.8918153255
 31
0.0
 11
15.1195864592
 21
3.8871428729
 31
0.0
 11
15.1044998401
 21
3.8814568283
 31
0.0
 11
15.0899218623
 21
3.874691124
 31
0.0
 11
15.0760079948
 21
3.8668172678
 31
0.0
 11
15.0629245811
 21
3.8578329787
 31
0.0
 11
15.0508558905
 21
3.84779243
 31
0.0
 11
15.0452615022
 21
3.8424026572
 31
0.0
 11
15.0399917292
 21
3.8367893867
 31
0.0
 11
15.0350699579
 21
3.8309718789
 31
0.0
 11
15.030519288
 21
3.8249708555
 31
0.0
 11
15.0263618076
 21
3.818812184
 31
0.0
 11
15.0226193825
 21
3.8125228639
 31
0.0
 11
15.0164661131
 21
3.7996658259
 31
0.0
 11
15.0140974771
 21
3.7931601719
 31
0.0
 11
15.0122294099
 21
3.7866455508
 31
0.0
 11
15.0108852297
 21
3.7801556183
 31
0.0
 11
15.0100887093
 21
3.773724422
 31
0.0
 11
15.009867086
 21
3.7673877498
 31
0.0
 11
15.010251928
 21
3.7611835655
 31
0.0
 11
15.0112767164
 21
3.7551514713
 31
0.0
 11
15.012982425
 21
3.7493379287
 31
0.0
 11
15.0154126369
 21
3.7437924516
 31
0.0
 11
15.0186154534
 21
3.7385750667
 31
0.0
 11
15.0226382178
 21
3.7337536137
 31
0.0
 11
15.027495804
 21
3.7294153255
 31
0.0
  0
SPLINE
  5
2CC
100
AcDbEntity
  8
0
100
AcDbSpline
 62
7
  6
CONTINUOUS
 70
0
 71
3
 72
35
 73
31
 74
29
 42
0.0000001
 43
0.0000001
 44
0.0000000001
 12
-0.2123062166
 22
-0.073847604
 32
0.0
 13
0.2123062166
 23
-0.073847604
 33
0.0
 40
0.0
 40
0.0
 40
0.0
 40
0.0
 40
0.062477098
 40
0.0937036533
 40
0.1249124333
 40
0.1872227684
 40
0.2183902745
 40
0.2495624074
 40
0.28074741
 40
0.3119626321
 40
0.3432083063
 40
0.3744964726
 40
0.4058260076
 40
0.4371920131
 40
0.4685890164
 40
0.5000000015
 40
0.5314109921
 40
0.5628080102
 40
0.5941740345
 40
0.6255035882
 40
0.6567917737
 40
0.6880374527
 40
0.719252674
 40
0.7504376719
 40
0.7816097849
 40
0.8127772802
 40
0.8750875966
 40
0.90629637
 40
0.9375229165
 40
1.0
 40
1.0
 40
1.0
 40
1.0
 10
15.1350440068
 20
4.0542153255
 30
0.0
 10
15.1306225813
 20
4.0526773975
 30
0.0
 10
15.1240885257
 20
4.0500663222
 30
0.0
 10
15.1157072715
 20
4.0458902718
 30
0.0
 10
15.1076016094
 20
4.0412279602
 30
0.0
 10
15.0999606839
 20
4.0357901071
 30
0.0
 10
15.0929956462
 20
4.0295562509
 30
0.0
 10
15.0881483234
 20
4.0244849319
 30
0.0
 10
15.0837306891
 20
4.0190300051
 30
0.0
 10
15.0797931099
 20
4.0132117066
 30
0.0
 10
15.0763750178
 20
4.0070643904
 30
0.0
 10
15.0735230996
 20
4.0006249714
 30
0.0
 10
15.0712663891
 20
3.9939439566
 30
0.0
 10
15.0696346249
 20
3.9870747648
 30
0.0
 10
15.0686489302
 20
3.9800774358
 30
0.0
 10
15.0683167455
 20
3.9730153247
 30
0.0
 10
15.0686489307
 20
3.9659532126
 30
0.0
 10
15.0696346264
 20
3.9589558809
 30
0.0
 10
15.0712663909
 20
3.9520866849
 30
0.0
 10
15.0735231062
 20
3.9454056673
 30
0.0
 10
15.0763750244
 20
3.9389662448
 30
0.0
 10
15.0797931197
 20
3.9328189282
 30
0.0
 10
15.0837307017
 20
3.927000632
 30
0.0
 10
15.0881483327
 20
3.9215457049
 30
0.0
 10
15.0929956564
 20
3.9164743903
 30
0.0
 10
15.0999606923
 20
3.9102405378
 30
0.0
 10
15.107601616
 20
3.9048026869
 30
0.0
 10
15.115707276
 20
3.9001403769
 30
0.0
 10
15.1240885282
 20
3.8959643274
 30
0.0
 10
15.1306225824
 20
3.8933532531
 30
0.0
 10
15.1350440068
 20
3.8918153255
 30
0.0
 11
15.1350440068
 21
4.0542153255
 31
0.0
 11
15.1220191171
 21
4.0489636327
 31
0.0
 11
15.1157391811
 21
4.0458281013
 31
0.0
 11
15.1096610089
 21
4.0423254024
 31
0.0
 11
15.098276684
 21
4.0341661315
 31
0.0
 11
15.0930589738
 21
4.0294908246
 31
0.0
 11
15.0882209595
 21
4.0244221774
 31
0.0
 11
15.0838125864
 21
4.0189720064
 31
0.0
 11
15.0798815557
 21
4.0131599161
 31
0.0
 11
15.0764714316
 21
4.0070198382
 31
0.0
 11
15.0736239747
 21
4.0005889944
 31
0.0
 11
15.0713716818
 21
3.9939165265
 31
0.0
 11
15.0697429358
 21
3.9870566891
 31
0.0
 11
15.0687580167
 21
3.9800682401
 31
0.0
 11
15.0684274902
 21
3.9730153252
 31
0.0
 11
15.0687580172
 21
3.965962409
 31
0.0
 11
15.0697429371
 21
3.9589739568
 31
0.0
 11
15.0713716843
 21
3.9521141153
 31
0.0
 11
15.0736239806
 21
3.9454416441
 31
0.0
 11
15.0764714393
 21
3.9390107963
 31
0.0
 11
15.0798815658
 21
3.9328707186
 31
0.0
 11
15.0838125984
 21
3.9270586298
 31
0.0
 11
15.0882209702
 21
3.9216084592
 31
0.0
 11
15.0930589831
 21
3.9165398168
 31
0.0
 11
15.0982766925
 21
3.9118645127
 31
0.0
 11
15.1096610147
 21
3.9037052451
 31
0.0
 11
15.1157391858
 21
3.9002025472
 31
0.0
 11
15.12201912
 21
3.8970670167
 31
0.0
 11
15.1350440068
 21
3.8918153255
 31
0.0
  0
SPLINE
  5
2CD
100
AcDbEntity
  8
0
100
AcDbSpline
 62
7
  6
CONTINUOUS
 70
0
 71
3
 72
32
 73
28
 74
26
 42
0.0000001
 43
0.0000001
 44
0.0000000001
 12
-0.1837936599
 22
-0.141630585
 32
0.0
 13
0.2240908707
 23
-0.0601881523
 33
0.0
 40
0.0
 40
0.0
 40
0.0
 40
0.0
 40
0.028068502
 40
0.0551303223
 40
0.081514563
 40
0.1076082803
 40
0.1337192463
 40
0.1600884397
 40
0.1868781873
 40
0.2142042342
 40
0.2421327158
 40
0.2706961881
 40
0.2999039272
 40
0.3297420566
 40
0.3911713709
 40
0.4227123862
 40
0.4547363018
 40
0.4871942982
 40
0.5200352596
 40
0.5532172282
 40
0.5866966421
 40
0.6543562122
 40
0.7227567067
 40
0.7916576693
 40
0.8609213977
 40
0.9304052421
 40
1.0
 40
1.0
 40
1.0
 40
1.0
 10
15.027495804
 20
4.2166153255
 30
0.0
 10
15.0257761997
 20
4.215290206
 30
0.0
 10
15.0225788677
 20
4.2124419451
 30
0.0
 10
15.0185229311
 20
4.2075866135
 30
0.0
 10
15.0152981123
 20
4.202322702
 30
0.0
 10
15.0128602195
 20
4.196735137
 30
0.0
 10
15.0111558435
 20
4.1908858991
 30
0.0
 10
15.0101397727
 20
4.1848267292
 30
0.0
 10
15.0097650854
 20
4.1786023287
 30
0.0
 10
15.0099987071
 20
4.1722519585
 30
0.0
 10
15.0108062284
 20
4.1658119009
 30
0.0
 10
15.0121601564
 20
4.1593165202
 30
0.0
 10
15.014036953
 20
4.1527991662
 30
0.0
 10
15.017234991
 20
4.1440408527
 30
0.0
 10
15.0213724083
 20
4.1354578613
 30
0.0
 10
15.0263225834
 20
4.1271496842
 30
0.0
 10
15.0304832118
 20
4.1209925548
 30
0.0
 10
15.0350358287
 20
4.1149934764
 30
0.0
 10
15.0399600932
 20
4.1091777357
 30
0.0
 10
15.0452317934
 20
4.1035662043
 30
0.0
 10
15.052717715
 20
4.0963573606
 30
0.0
 10
15.0628252129
 20
4.0879693608
 30
0.0
 10
15.0759188214
 20
4.0789964473
 30
0.0
 10
15.0898493915
 20
4.0711354798
 30
0.0
 10
15.1044390239
 20
4.0643828926
 30
0.0
 10
15.1195372372
 20
4.0587149634
 30
0.0
 10
15.1298454901
 20
4.0556115854
 30
0.0
 10
15.1350440068
 20
4.0542153255
 30
0.0
 11
15.027495804
 21
4.2166153255
 31
0.0
 11
15.0226382194
 21
4.212277043
 31
0.0
 11
15.0186154673
 21
4.2074556038
 31
0.0
 11
15.0154126529
 21
4.2022382237
 31
0.0
 11
15.0129824342
 21
4.1966927505
 31
0.0
 11
15.0112767229
 21
4.1908792089
 31
0.0
 11
15.0102519311
 21
4.1848471164
 31
0.0
 11
15.0098670862
 21
4.1786429343
 31
0.0
 11
15.0100887077
 21
4.1723062629
 31
0.0
 11
15.0108852229
 21
4.1658750696
 31
0.0
 11
15.0122294001
 21
4.1593851399
 31
0.0
 11
15.0140974635
 21
4.1528705222
 31
0.0
 11
15.0164660942
 21
4.1463648709
 31
0.0
 11
15.0226193562
 21
4.1335078358
 31
0.0
 11
15.0263617783
 21
4.1272185145
 31
0.0
 11
15.0305192561
 21
4.1210598383
 31
0.0
 11
15.0350699252
 21
4.1150588129
 31
0.0
 11
15.039991697
 21
4.1092413023
 31
0.0
 11
15.0452614717
 21
4.1036280237
 31
0.0
 11
15.0508558642
 21
4.0982382439
 31
0.0
 11
15.0629245741
 21
4.0881976824
 31
0.0
 11
15.0760080121
 21
4.0792133719
 31
0.0
 11
15.0899218939
 21
4.0713395131
 31
0.0
 11
15.1044998733
 21
4.0645738071
 31
0.0
 11
15.119586474
 21
4.0588877695
 31
0.0
 11
15.1350440068
 21
4.0542153255
 31
0.0
  0
SPLINE
  5
2CE
100
AcDbEntity
  8
0
100
AcDbSpline
 62
7
  6
CONTINUOUS
 70
0
 71
3
 72
22
 73
18
 74
16
 42
0.0000001
 43
0.0000001
 44
0.0000000001
 12
-0.1359177452
 22
-0.0464339331
 32
0.0
 13
-0.0880002852
 23
-0.1135170501
 33
0.0
 40
0.0
 40
0.0
 40
0.0
 40
0.0
 40
0.1110076514
 40
0.2181814085
 40
0.3206444586
 40
0.4176846982
 40
0.508623915
 40
0.5928220326
 40
0.6697589116
 40
0.7390197889
 40
0.8003240279
 40
0.8534852998
 40
0.9350916663
 40
0.9635429413
 40
0.9838180177
 40
0.9959595502
 40
1.0
 40
1.0
 40
1.0
 40
1.0
 10
15.027495804
 20
3.7294153255
 30
0.0
 10
15.0224665008
 20
3.7276971515
 30
0.0
 10
15.0126866939
 20
3.7240035075
 30
0.0
 10
14.9986765082
 20
3.7177066856
 30
0.0
 10
14.9856540345
 20
3.710906895
 30
0.0
 10
14.9736973293
 20
3.7037945052
 30
0.0
 10
14.9628573181
 20
3.6965524968
 30
0.0
 10
14.9531574939
 20
3.6893642407
 30
0.0
 10
14.9446008338
 20
3.6823974765
 30
0.0
 10
14.9371625685
 20
3.6758081229
 30
0.0
 10
14.9308048384
 20
3.6697263275
 30
0.0
 10
14.9242441448
 20
3.6630104242
 30
0.0
 10
14.9190179943
 20
3.6571953043
 30
0.0
 10
14.91501096
 20
3.6524116059
 30
0.0
 10
14.9131789696
 20
3.6501451962
 30
0.0
 10
14.9120924071
 20
3.6487791499
 30
0.0
 10
14.9116159812
 20
3.6481682121
 30
0.0
 10
14.911497461
 20
3.6480153255
 30
0.0
 11
15.027495804
 21
3.7294153255
 31
0.0
 11
15.0125786847
 21
3.7237856127
 31
0.0
 11
14.9985381097
 21
3.7174753109
 31
0.0
 11
14.985491963
 21
3.7106647996
 31
0.0
 11
14.9735133054
 21
3.7035389244
 31
0.0
 11
14.962652443
 21
3.6962830004
 31
0.0
 11
14.9529370839
 21
3.6890814233
 31
0.0
 11
14.9443680752
 21
3.6821039317
 31
0.0
 11
14.9369229951
 21
3.6755059708
 31
0.0
 11
14.9305606066
 21
3.6694190245
 31
0.0
 11
14.9252261626
 21
3.6639558884
 31
0.0
 11
14.9173931342
 21
3.6552363995
 31
0.0
 11
14.9147703313
 21
3.6521026848
 31
0.0
 11
14.9129378949
 21
3.6498393631
 31
0.0
 11
14.9118542624
 21
3.6484730133
 31
0.0
 11
14.911497461
 21
3.6480153255
 31
0.0
  0
SPLINE
  5
2CF
100
AcDbEntity
  8
0
100
AcDbSpline
 62
7
  6
CONTINUOUS
 70
0
 71
3
 72
22
 73
18
 74
16
 42
0.0000001
 43
0.0000001
 44
0.0000000001
 12
0.0879991416
 22
-0.1135179405
 32
0.0
 13
0.1359177453
 23
-0.0464339332
 33
0.0
 40
0.0
 40
0.0
 40
0.0
 40
0.0
 40
0.0040404607
 40
0.0161820254
 40
0.0364571509
 40
0.0649084536
 40
0.1465148333
 40
0.1996760623
 40
0.2609802849
 40
0.3302411441
 40
0.4071780504
 40
0.4913762505
 40
0.5823156216
 40
0.6793558703
 40
0.781818828
 40
0.888992408
 40
1.0
 40
1.0
 40
1.0
 40
1.0
 10
14.911497461
 20
4.2980153255
 30
0.0
 10
14.91161598
 20
4.2978624372
 30
0.0
 10
14.9120924029
 20
4.2972514945
 30
0.0
 10
14.9131789715
 20
4.2958854474
 30
0.0
 10
14.9150109736
 20
4.2936190404
 30
0.0
 10
14.9190179964
 20
4.2888353269
 30
0.0
 10
14.9242441573
 20
4.2830202159
 30
0.0
 10
14.9308048487
 20
4.2763043138
 30
0.0
 10
14.9371625766
 20
4.2702225214
 30
0.0
 10
14.9446008412
 20
4.2636331676
 30
0.0
 10
14.9531575047
 20
4.2566664004
 30
0.0
 10
14.9628573405
 20
4.2494781387
 30
0.0
 10
14.9736973638
 20
4.2422361272
 30
0.0
 10
14.9856540703
 20
4.2351237329
 30
0.0
 10
14.9986765363
 20
4.2283239545
 30
0.0
 10
15.0126867057
 20
4.222027135
 30
0.0
 10
15.0224665034
 20
4.2183334985
 30
0.0
 10
15.027495804
 20
4.2166153255
 30
0.0
 11
14.911497461
 21
4.2980153255
 31
0.0
 11
14.9118542601
 21
4.2975576338
 31
0.0
 11
14.9129378958
 21
4.2961912807
 31
0.0
 11
14.9147703423
 21
4.2939279581
 31
0.0
 11
14.9173931439
 21
4.2907942371
 31
0.0
 11
14.9252261755
 21
4.2820747485
 31
0.0
 11
14.9305606162
 21
4.2766116178
 31
0.0
 11
14.9369230032
 21
4.2705246733
 31
0.0
 11
14.9443680811
 21
4.2639267139
 31
0.0
 11
14.9529370928
 21
4.2569492198
 31
0.0
 11
14.9626524628
 21
4.2497476374
 31
0.0
 11
14.9735133452
 21
4.2424917034
 31
0.0
 11
14.9854920039
 21
4.2353658273
 31
0.0
 11
14.9985381405
 21
4.2285553254
 31
0.0
 11
15.0125786919
 21
4.2222450333
 31
0.0
 11
15.027495804
 21
4.2166153255
 31
0.0
  0
SPLINE
  5
2D0
100
AcDbEntity
  8
0
100
AcDbSpline
 62
6
  6
CONTINUOUS
 70
0
 71
3
 72
37
 73
33
 74
31
 42
0.0000001
 43
0.0000001
 44
0.0000000001
 12
-0.3177684825
 22
-0.2672006122
 32
0.0
 13
0.3177684825
 23
-0.2672006122
 33
0.0
 40
0.0
 40
0.0
 40
0.0
 40
0.0
 40
0.0730601225
 40
0.1078839365
 40
0.141668579
 40
0.1745172791
 40
0.2065306995
 40
0.2378057753
 40
0.2684373328
 40
0.2985135558
 40
0.3281182851
 40
0.3573324249
 40
0.3862307066
 40
0.4148823982
 40
0.4433534588
 40
0.4717062172
 40
0.4999999967
 40
0.5282937689
 40
0.5566464997
 40
0.5851175193
 40
0.6137691761
 40
0.6426674301
 40
0.6718815556
 40
0.7014863218
 40
0.7315626428
 40
0.7621943316
 40
0.7934696234
 40
0.8254834019
 40
0.8583324428
 40
0.8921170236
 40
0.9269403346
 40
1.0
 40
1.0
 40
1.0
 40
1.0
 10
9.8764972482
 20
3.6121714072
 30
0.0
 10
9.8687585135
 20
3.6056641707
 30
0.0
 10
9.8578024015
 20
3.5954658521
 30
0.0
 10
9.8445999541
 20
3.5809618701
 30
0.0
 10
9.8357307445
 20
3.5700668106
 30
0.0
 10
9.8277124328
 20
3.5590089944
 30
0.0
 10
9.8205149166
 20
3.5478108829
 30
0.0
 10
9.8141093238
 20
3.5364931635
 30
0.0
 10
9.8084689057
 20
3.5250737757
 30
0.0
 10
9.803565095
 20
3.5135703723
 30
0.0
 10
9.7993724231
 20
3.5019977571
 30
0.0
 10
9.7958695848
 20
3.4903683894
 30
0.0
 10
9.7930328598
 20
3.4786947977
 30
0.0
 10
9.7908446885
 20
3.4669871584
 30
0.0
 10
9.789294065
 20
3.4552544466
 30
0.0
 10
9.788367103
 20
3.4435059084
 30
0.0
 10
9.7880576111
 20
3.4317494492
 30
0.0
 10
9.7883671159
 20
3.4199929949
 30
0.0
 10
9.7892940514
 20
3.408244465
 30
0.0
 10
9.7908446948
 20
3.3965117694
 30
0.0
 10
9.7930328771
 20
3.3848041481
 30
0.0
 10
9.7958695472
 20
3.373130554
 30
0.0
 10
9.7993724019
 20
3.3615011905
 30
0.0
 10
9.8035650988
 20
3.3499285677
 30
0.0
 10
9.8084688907
 20
3.3384251165
 30
0.0
 10
9.8141093279
 20
3.3270056687
 30
0.0
 10
9.8205149836
 20
3.3156878719
 30
0.0
 10
9.8277126089
 20
3.3044896799
 30
0.0
 10
9.8357309875
 20
3.2934318042
 30
0.0
 10
9.8446001665
 20
3.2825367601
 30
0.0
 10
9.8578025173
 20
3.2680328801
 30
0.0
 10
9.8687585619
 20
3.2578346848
 30
0.0
 10
9.8764972482
 20
3.251327489
 30
0.0
 11
9.8764972482
 21
3.6121714072
 31
0.0
 11
9.8543330615
 21
3.5914630005
 31
0.0
 11
9.844605174
 21
3.5807669932
 31
0.0
 11
9.8357540196
 21
3.569885636
 31
0.0
 11
9.8277512733
 21
3.5588424079
 31
0.0
 11
9.8205675605
 21
3.5476597302
 31
0.0
 11
9.814174175
 21
3.5363580549
 31
0.0
 11
9.8085433848
 21
3.5249549659
 31
0.0
 11
9.8036476228
 21
3.5134677329
 31
0.0
 11
9.7994617469
 21
3.501911219
 31
0.0
 11
9.7959632818
 21
3.4902976403
 31
0.0
 11
9.793130105
 21
3.4786390116
 31
0.0
 11
9.7909449525
 21
3.4669458754
 31
0.0
 11
9.7893953524
 21
3.4552273219
 31
0.0
 11
9.7884693
 21
3.443492356
 31
0.0
 11
9.7881607056
 21
3.4317494483
 31
0.0
 11
9.7884693066
 21
3.4200065439
 31
0.0
 11
9.7893953468
 21
3.4082715885
 31
0.0
 11
9.7909449572
 21
3.3965530535
 31
0.0
 11
9.7931301112
 21
3.3848599323
 31
0.0
 11
9.7959632552
 21
3.3732013075
 31
0.0
 11
9.7994617239
 21
3.3615877361
 31
0.0
 11
9.8036476151
 21
3.3500312114
 31
0.0
 11
9.8085433726
 21
3.3385439324
 31
0.0
 11
9.814174178
 21
3.32714079
 31
0.0
 11
9.8205676222
 21
3.315839045
 31
0.0
 11
9.8277514473
 21
3.3046562626
 31
0.0
 11
9.8357542926
 21
3.2936129315
 31
0.0
 11
9.8446054272
 21
3.2827315911
 31
0.0
 11
9.8543331748
 21
3.2720357389
 31
0.0
 11
9.8764972482
 21
3.251327489
 31
0.0
  0
SPLINE
  5
2D1
100
AcDbEntity
  8
0
100
AcDbSpline
 62
6
  6
CONTINUOUS
 70
0
 71
3
 72
31
 73
27
 74
25
 42
0.0000001
 43
0.0000001
 44
0.0000000001
 12
0.3372031336
 22
0.6744062673
 32
0.0
 13
-0.3372031336
 23
0.6744062673
 33
0.0
 40
0.0
 40
0.0
 40
0.0
 40
0.0
 40
0.0624900108
 40
0.0937394184
 40
0.12498966
 40
0.1874847818
 40
0.2499793177
 40
0.3124751689
 40
0.3437287192
 40
0.3749826104
 40
0.4062358423
 40
0.4374904006
 40
0.4687454966
 40
0.5000000493
 40
0.531254598
 40
0.5625096892
 40
0.593764248
 40
0.625017472
 40
0.6562713491
 40
0.6875248937
 40
0.750020723
 40
0.8125152441
 40
0.8750103452
 40
0.9062605816
 40
0.9375099879
 40
1.0
 40
1.0
 40
1.0
 40
1.0
 10
10.0764972482
 20
3.6121714072
 30
0.0
 10
10.0835211907
 20
3.6262192922
 30
0.0
 10
10.0936918977
 20
3.647479159
 30
0.0
 10
10.10638585
 20
3.6762168064
 30
0.0
 10
10.1184577012
 20
3.7052227605
 30
0.0
 10
10.1322917646
 20
3.7419922885
 30
0.0
 10
10.1465521106
 20
3.7869288943
 30
0.0
 10
10.1562102536
 20
3.8250216475
 30
0.0
 10
10.162427675
 20
3.8558233391
 30
0.0
 10
10.1663032196
 20
3.8790728576
 30
0.0
 10
10.1693579641
 20
3.9024448269
 30
0.0
 10
10.1715571442
 20
3.9259133871
 30
0.0
 10
10.1728867216
 20
3.9494476376
 30
0.0
 10
10.1733342627
 20
3.9730153616
 30
0.0
 10
10.1728867308
 20
3.9965830851
 30
0.0
 10
10.1715571286
 20
4.0201173321
 30
0.0
 10
10.1693579573
 20
4.0435858896
 30
0.0
 10
10.1663032197
 20
4.0669578547
 30
0.0
 10
10.1624276615
 20
4.0902073639
 30
0.0
 10
10.1562102443
 20
4.1210090455
 30
0.0
 10
10.146552103
 20
4.1591017883
 30
0.0
 10
10.1322917567
 20
4.2040383788
 30
0.0
 10
10.1184576986
 20
4.2408078978
 30
0.0
 10
10.1063858493
 20
4.2698138453
 30
0.0
 10
10.0936918976
 20
4.2985514915
 30
0.0
 10
10.0835211909
 20
4.3198113584
 30
0.0
 10
10.0764972482
 20
4.3338592437
 30
0.0
 11
10.0764972482
 21
3.6121714072
 31
0.0
 11
10.0967923993
 21
3.6546945351
 31
0.0
 11
10.106307937
 21
3.6762500064
 31
0.0
 11
10.115356402
 21
3.6980063553
 31
0.0
 11
10.1319017616
 21
3.7421280486
 31
0.0
 11
10.1461068497
 21
3.7870573995
 31
0.0
 11
10.1576383593
 21
3.8327471014
 31
0.0
 11
10.1622963372
 21
3.8558476263
 31
0.0
 11
10.1661664384
 21
3.8790933881
 31
0.0
 11
10.1692153282
 21
3.9024605438
 31
0.0
 11
10.1714121947
 21
3.9259241457
 31
0.0
 11
10.1727397203
 21
3.9494533534
 31
0.0
 11
10.1731850847
 21
3.9730153627
 31
0.0
 11
10.1727397238
 21
3.9965773691
 31
0.0
 11
10.1714121848
 21
4.0201065725
 31
0.0
 11
10.1692153208
 21
4.043570175
 31
0.0
 11
10.1661664349
 21
4.0669373252
 31
0.0
 11
10.1622963269
 21
4.090183075
 31
0.0
 11
10.1576383484
 21
4.1132835955
 31
0.0
 11
10.1461068421
 21
4.1589732812
 31
0.0
 11
10.1319017544
 21
4.2039026206
 31
0.0
 11
10.1153564005
 21
4.2480242993
 31
0.0
 11
10.1063079368
 21
4.2697806444
 31
0.0
 11
10.0967923995
 21
4.2913361148
 31
0.0
 11
10.0764972482
 21
4.3338592437
 31
0.0
  0
SPLINE
  5
2D2
100
AcDbEntity
  8
0
100
AcDbSpline
 62
6
  6
CONTINUOUS
 70
0
 71
3
 72
31
 73
27
 74
25
 42
0.0000001
 43
0.0000001
 44
0.0000000001
 12
-0.3841565328
 22
-0.6460480909
 32
0.0
 13
0.3841565328
 23
-0.6460480909
 33
0.0
 40
0.0
 40
0.0
 40
0.0
 40
0.0
 40
0.0624964977
 40
0.1250059231
 40
0.1875022467
 40
0.2499987186
 40
0.2812510177
 40
0.3125015776
 40
0.3437523142
 40
0.3750025275
 40
0.4062519259
 40
0.4375015161
 40
0.4687510069
 40
0.5000000406
 40
0.531249075
 40
0.5624985688
 40
0.5937481654
 40
0.6249975684
 40
0.6562477823
 40
0.6874985226
 40
0.7187490825
 40
0.7500013749
 40
0.8124978502
 40
0.8749941572
 40
0.9375035248
 40
1.0
 40
1.0
 40
1.0
 40
1.0
 10
9.8764972482
 20
4.3338592437
 30
0.0
 10
9.8684944356
 20
4.3204006627
 30
0.0
 10
9.8537312082
 20
4.2927230353
 30
0.0
 10
9.8351896905
 20
4.2495068355
 30
0.0
 10
9.8200408642
 20
4.2049937167
 30
0.0
 10
9.8100507263
 20
4.167111173
 30
0.0
 10
9.8035296093
 20
4.1364756191
 30
0.0
 10
9.7993470622
 20
4.1133576484
 30
0.0
 10
9.7958525981
 20
4.0901267952
 30
0.0
 10
9.7930223134
 20
4.0668061562
 30
0.0
 10
9.7908389385
 20
4.043416525
 30
0.0
 10
9.7892916409
 20
4.0199765221
 30
0.0
 10
9.7883666091
 20
3.9965039299
 30
0.0
 10
9.7880577454
 20
3.9730152947
 30
0.0
 10
9.788366607
 20
3.9495266586
 30
0.0
 10
9.7892916477
 20
3.9260540643
 30
0.0
 10
9.7908389428
 20
3.9026140578
 30
0.0
 10
9.7930223158
 20
3.8792244234
 30
0.0
 10
9.7958526124
 20
3.8559037835
 30
0.0
 10
9.7993470752
 20
3.8326729291
 30
0.0
 10
9.8035296198
 20
3.8095549586
 30
0.0
 10
9.8100507471
 20
3.7789194078
 30
0.0
 10
9.8200408807
 20
3.7410368682
 30
0.0
 10
9.8351897131
 20
3.6965237702
 30
0.0
 10
9.8537312161
 20
3.6533075908
 30
0.0
 10
9.8684944385
 20
3.6256299834
 30
0.0
 10
9.8764972482
 20
3.6121714072
 30
0.0
 11
9.8764972482
 21
4.3338592437
 31
0.0
 11
9.8543330553
 21
4.2924424081
 31
0.0
 11
9.8357539809
 21
4.2492876089
 31
0.0
 11
9.8205675288
 21
4.20483578
 31
0.0
 11
9.8085433628
 21
4.159426273
 31
0.0
 11
9.8036476101
 21
4.1364518079
 31
0.0
 11
9.7994617349
 21
4.1133387926
 31
0.0
 11
9.795963271
 21
4.0901116528
 31
0.0
 11
9.7931301044
 21
4.0667944069
 31
0.0
 11
9.7909449524
 21
4.0434081476
 31
0.0
 11
9.7893953501
 21
4.0199710504
 31
0.0
 11
9.7884693001
 21
3.9965011184
 31
0.0
 11
9.7881606991
 21
3.9730152948
 31
0.0
 11
9.7884692998
 21
3.9495294708
 31
0.0
 11
9.7893953549
 21
3.9260595367
 31
0.0
 11
9.7909449569
 21
3.9026224348
 31
0.0
 11
9.7931301092
 21
3.8792361719
 31
0.0
 11
9.7959632831
 21
3.8559189264
 31
0.0
 11
9.799461748
 21
3.832691784
 31
0.0
 11
9.8036476226
 21
3.8095787686
 31
0.0
 11
9.8085433793
 21
3.7866043094
 31
0.0
 11
9.8205675492
 21
3.7411948009
 31
0.0
 11
9.835754004
 21
3.6967429861
 31
0.0
 11
9.8543330609
 21
3.6535882266
 31
0.0
 11
9.8764972482
 21
3.6121714072
 31
0.0
  0
SPLINE
  5
2D3
100
AcDbEntity
  8
0
100
AcDbSpline
 62
6
  6
CONTINUOUS
 70
0
 71
3
 72
33
 73
29
 74
27
 42
0.0000001
 43
0.0000001
 44
0.0000000001
 12
0.2970033454
 22
0.2970033454
 32
0.0
 13
-0.2970033454
 23
0.2970033454
 33
0.0
 40
0.0
 40
0.0
 40
0.0
 40
0.0
 40
0.0699789265
 40
0.1042083195
 40
0.1378955952
 40
0.1710193475
 40
0.2035590225
 40
0.2668385458
 40
0.3277640123
 40
0.3574148529
 40
0.386580339
 40
0.4153281635
 40
0.4437447709
 40
0.4719317448
 40
0.5000000438
 40
0.5280683391
 40
0.5562553114
 40
0.5846719185
 40
0.6134197343
 40
0.642585212
 40
0.6722360481
 40
0.733161494
 40
0.7964410052
 40
0.8289806688
 40
0.8621044103
 40
0.8957916807
 40
0.9300210723
 40
1.0
 40
1.0
 40
1.0
 40
1.0
 10
10.0764972482
 20
4.3338592437
 30
0.0
 10
10.08342524
 20
4.3407872355
 30
0.0
 10
10.0935243505
 20
4.3513276744
 30
0.0
 10
10.1063114742
 20
4.3657953271
 30
0.0
 10
10.1153658483
 20
4.3766676333
 30
0.0
 10
10.123918185
 20
4.3876414918
 30
0.0
 10
10.1344985728
 20
4.4022731276
 30
0.0
 10
10.1463040468
 20
4.4208056633
 30
0.0
 10
10.1561047379
 20
4.4400381793
 30
0.0
 10
10.1623924098
 20
4.455589161
 30
0.0
 10
10.1662783332
 20
4.467225742
 30
0.0
 10
10.1693428676
 20
4.478927461
 30
0.0
 10
10.171550295
 20
4.4906822519
 30
0.0
 10
10.1728852397
 20
4.5024724617
 30
0.0
 10
10.1733346886
 20
4.5142812207
 30
0.0
 10
10.1728852488
 20
4.5260899808
 30
0.0
 10
10.1715502794
 20
4.5378801869
 30
0.0
 10
10.169342861
 20
4.5496349773
 30
0.0
 10
10.1662783328
 20
4.5613366959
 30
0.0
 10
10.1623923967
 20
4.5729732695
 30
0.0
 10
10.1561047287
 20
4.5885242474
 30
0.0
 10
10.1463040389
 20
4.6077567587
 30
0.0
 10
10.1344985651
 20
4.626289287
 30
0.0
 10
10.1239181807
 20
4.6409209193
 30
0.0
 10
10.1153658463
 20
4.6518947747
 30
0.0
 10
10.1063114736
 20
4.6627670789
 30
0.0
 10
10.0935243505
 20
4.677234731
 30
0.0
 10
10.0834252401
 20
4.6877751701
 30
0.0
 10
10.0764972482
 20
4.694703162
 30
0.0
 11
10.0764972482
 21
4.3338592437
 31
0.0
 11
10.0967923993
 21
4.3551208077
 31
0.0
 11
10.106307937
 21
4.3658985433
 31
0.0
 11
10.115356402
 21
4.3767767177
 31
0.0
 11
10.1239011675
 21
4.387756434
 31
0.0
 11
10.1319017616
 21
4.3988375644
 31
0.0
 11
10.1461068497
 21
4.4213022399
 31
0.0
 11
10.1576383593
 21
4.4441470908
 31
0.0
 11
10.1622963372
 21
4.4556973533
 31
0.0
 11
10.1661664384
 21
4.4673202342
 31
0.0
 11
10.1692153282
 21
4.479003812
 31
0.0
 11
10.1714121947
 21
4.4907356129
 31
0.0
 11
10.1727397203
 21
4.5025002168
 31
0.0
 11
10.1731850847
 21
4.5142812215
 31
0.0
 11
10.1727397238
 21
4.5260622247
 31
0.0
 11
10.1714121848
 21
4.5378268264
 31
0.0
 11
10.1692153208
 21
4.5495586276
 31
0.0
 11
10.1661664349
 21
4.5612422027
 31
0.0
 11
10.1622963269
 21
4.5728650776
 31
0.0
 11
10.1576383484
 21
4.5844153379
 31
0.0
 11
10.1461068421
 21
4.6072601807
 31
0.0
 11
10.1319017544
 21
4.6297248504
 31
0.0
 11
10.1239011632
 21
4.640805977
 31
0.0
 11
10.1153564005
 21
4.6517856897
 31
0.0
 11
10.1063079368
 21
4.6626638623
 31
0.0
 11
10.0967923995
 21
4.6734415975
 31
0.0
 11
10.0764972482
 21
4.694703162
 31
0.0
  0
SPLINE
  5
2D4
100
AcDbEntity
  8
0
100
AcDbSpline
 62
6
  6
CONTINUOUS
 70
0
 71
3
 72
35
 73
31
 74
29
 42
0.0000001
 43
0.0000001
 44
0.0000000001
 12
-0.3177544448
 22
-0.2671888083
 32
0.0
 13
0.3177544448
 23
-0.2671888083
 33
0.0
 40
0.0
 40
0.0
 40
0.0
 40
0.0
 40
0.0730624057
 40
0.1078864077
 40
0.1416720638
 40
0.1745225936
 40
0.2065378663
 40
0.2378147016
 40
0.2684479321
 40
0.3281089998
 40
0.3862029877
 40
0.4148560789
 40
0.4433285417
 40
0.4716827136
 40
0.4999779156
 40
0.5282731272
 40
0.5566273337
 40
0.585099848
 40
0.6137529831
 40
0.6426527281
 40
0.6718683606
 40
0.7014745305
 40
0.7315521532
 40
0.7621852405
 40
0.7934618442
 40
0.8254767296
 40
0.8583268716
 40
0.8921125586
 40
0.9269370943
 40
1.0
 40
1.0
 40
1.0
 40
1.0
 10
9.8764972482
 20
4.694703162
 30
0.0
 10
9.8687586135
 20
4.6881960096
 30
0.0
 10
9.8578026631
 20
4.677997986
 30
0.0
 10
9.844600479
 20
4.6634942774
 30
0.0
 10
9.8357314278
 20
4.6525993568
 30
0.0
 10
9.8277130436
 20
4.6415415099
 30
0.0
 10
9.8205153169
 20
4.6303434393
 30
0.0
 10
9.8141095456
 20
4.6190252734
 30
0.0
 10
9.8066555188
 20
4.603934761
 30
0.0
 10
9.799103175
 20
4.5847906791
 30
0.0
 10
9.7937752305
 20
4.5651989477
 30
0.0
 10
9.7908447436
 20
4.549519301
 30
0.0
 10
9.7892940779
 20
4.537786273
 30
0.0
 10
9.788367095
 20
4.5260377393
 30
0.0
 10
9.7880575678
 20
4.5142811904
 30
0.0
 10
9.7883670782
 20
4.5025246583
 30
0.0
 10
9.7892941065
 20
4.490776045
 30
0.0
 10
9.7908446942
 20
4.479043251
 30
0.0
 10
9.7930328555
 20
4.4673355278
 30
0.0
 10
9.7958697446
 20
4.4556618954
 30
0.0
 10
9.7993725686
 20
4.4440324514
 30
0.0
 10
9.8035652215
 20
4.4324597663
 30
0.0
 10
9.8084691794
 20
4.4209563679
 30
0.0
 10
9.8141096194
 20
4.4095369331
 30
0.0
 10
9.82051524
 20
4.3982191673
 30
0.0
 10
9.8277128725
 20
4.3870210993
 30
0.0
 10
9.8357311719
 20
4.3759633464
 30
0.0
 10
9.8446002515
 20
4.3650684086
 30
0.0
 10
9.8578025379
 20
4.3505645983
 30
0.0
 10
9.8687585605
 20
4.3403664406
 30
0.0
 10
9.8764972482
 20
4.3338592437
 30
0.0
 11
9.8764972482
 21
4.694703162
 31
0.0
 11
9.8543332891
 21
4.673995086
 31
0.0
 11
9.8446057798
 21
4.6632994926
 31
0.0
 11
9.8357547621
 21
4.6524182804
 31
0.0
 11
9.8277518763
 21
4.6413749593
 31
0.0
 11
9.8205679598
 21
4.6301921963
 31
0.0
 11
9.8141744657
 21
4.6188904023
 31
0.0
 11
9.8085436085
 21
4.6074871983
 31
0.0
 11
9.7994618608
 21
4.5844433394
 31
0.0
 11
9.7931301337
 21
4.561171009
 31
0.0
 11
9.7909449662
 21
4.5494778191
 31
0.0
 11
9.7893953691
 21
4.5377592047
 31
0.0
 11
9.7884692897
 21
4.5260241739
 31
0.0
 11
9.7881606691
 21
4.5142811953
 31
0.0
 11
9.788469283
 21
4.5025382126
 31
0.0
 11
9.7893953769
 21
4.4908031684
 31
0.0
 11
9.7909449631
 21
4.479084531
 31
0.0
 11
9.7931301292
 21
4.4673913223
 31
0.0
 11
9.7959634113
 21
4.4557326395
 31
0.0
 11
9.7994618957
 21
4.444118979
 31
0.0
 11
9.8036477799
 21
4.4325624095
 31
0.0
 11
9.8085436308
 21
4.4210751824
 31
0.0
 11
9.8141744739
 21
4.4096720377
 31
0.0
 11
9.820567907
 21
4.3983703197
 31
0.0
 11
9.8277517034
 21
4.3871876706
 31
0.0
 11
9.8357544767
 21
4.3761444668
 31
0.0
 11
9.8446055059
 21
4.3652632475
 31
0.0
 11
9.8543331645
 21
4.3545674904
 31
0.0
 11
9.8764972482
 21
4.3338592437
 31
0.0
  0
SPLINE
  5
2D5
100
AcDbEntity
  8
0
100
AcDbSpline
 62
9
  6
CONTINUOUS
 70
0
 71
3
 72
66
 73
62
 74
60
 42
0.0000001
 43
0.0000001
 44
0.0000000001
 12
0.482703959
 22
-0.0327628045
 32
0.0
 13
-0.0748340383
 23
-0.4779920281
 33
0.0
 40
0.0
 40
0.0
 40
0.0
 40
0.0
 40
0.0000011496
 40
0.0000045427
 40
0.000010195
 40
0.0000181085
 40
0.0000407208
 40
0.0000723802
 40
0.0001130855
 40
0.000162835
 40
0.0002216271
 40
0.0002894599
 40
0.00045224
 40
0.0006511602
 40
0.000886205
 40
0.0011573591
 40
0.0014646068
 40
0.0018079327
 40
0.0026027569
 40
0.0035417073
 40
0.0046246594
 40
0.0058514888
 40
0.0072220709
 40
0.0087362813
 40
0.0103939955
 40
0.0141394365
 40
0.0184569413
 40
0.0233438147
 40
0.0287971519
 40
0.0348140482
 40
0.0413915989
 40
0.0485268997
 40
0.0562170424
 40
0.0644585501
 40
0.0732467812
 40
0.0924442789
 40
0.1137712681
 40
0.1371888642
 40
0.1626502066
 40
0.1901028993
 40
0.219494432
 40
0.2507694297
 40
0.2838641941
 40
0.3187135241
 40
0.355251972
 40
0.4331096085
 40
0.474278249
 40
0.5168384118
 40
0.5607064012
 40
0.6057959113
 40
0.6520206381
 40
0.6992947587
 40
0.7475336293
 40
0.7719884594
 40
0.796652818
 40
0.8215161576
 40
0.846566947
 40
0.8717908002
 40
0.8971729628
 40
0.948354402
 40
1.0
 40
1.0
 40
1.0
 40
1.0
 10
13.3009057852
 20
4.5580153255
 30
0.0
 10
13.3009059702
 20
4.5580153129
 30
0.0
 10
13.3009056821
 20
4.5580141723
 30
0.0
 10
13.3009058837
 20
4.5580129198
 30
0.0
 10
13.3009055304
 20
4.5580099712
 30
0.0
 10
13.3009051468
 20
4.5580042906
 30
0.0
 10
13.3009041454
 20
4.5579942051
 30
0.0
 10
13.300902681
 20
4.5579790097
 30
0.0
 10
13.3009006728
 20
4.5579593986
 30
0.0
 10
13.3008981891
 20
4.5579354651
 30
0.0
 10
13.3008952033
 20
4.5579071756
 30
0.0
 10
13.3008902559
 20
4.5578607668
 30
0.0
 10
13.3008828209
 20
4.5577918948
 30
0.0
 10
13.300872395
 20
4.5576962235
 30
0.0
 10
13.3008599949
 20
4.5575831859
 30
0.0
 10
13.300845624
 20
4.5574527897
 30
0.0
 10
13.3008292846
 20
4.557305042
 30
0.0
 10
13.3008035959
 20
4.5570733603
 30
0.0
 10
13.3007665682
 20
4.5567404359
 30
0.0
 10
13.300716241
 20
4.5562889746
 30
0.0
 10
13.3006581136
 20
4.5557682812
 30
0.0
 10
13.3005922105
 20
4.5551784135
 30
0.0
 10
13.3005185558
 20
4.5545194294
 30
0.0
 10
13.3004371745
 20
4.5537913868
 30
0.0
 10
13.3003132603
 20
4.5526827161
 30
0.0
 10
13.3001392179
 20
4.5511247416
 30
0.0
 10
13.2999075635
 20
4.5490491923
 30
0.0
 10
13.2996452945
 20
4.5466999146
 30
0.0
 10
13.2993523701
 20
4.5440782932
 30
0.0
 10
13.2990287359
 20
4.5411857484
 30
0.0
 10
13.2986743417
 20
4.5380236999
 30
0.0
 10
13.298289136
 20
4.5345935682
 30
0.0
 10
13.2978730752
 20
4.530896866
 30
0.0
 10
13.2974261577
 20
4.5269353832
 30
0.0
 10
13.2967696304
 20
4.5211299668
 30
0.0
 10
13.2958725857
 20
4.5132279836
 30
0.0
 10
13.2947035417
 20
4.5029824262
 30
0.0
 10
13.2934132243
 20
4.4917339739
 30
0.0
 10
13.2920033446
 20
4.4795048589
 30
0.0
 10
13.2904761745
 20
4.4663194607
 30
0.0
 10
13.2888340448
 20
4.4522035345
 30
0.0
 10
13.2870795971
 20
4.4371846345
 30
0.0
 10
13.2852162115
 20
4.4212922894
 30
0.0
 10
13.2832474678
 20
4.4045576394
 30
0.0
 10
13.2804264236
 20
4.3806544988
 30
0.0
 10
13.2774748998
 20
4.3557405618
 30
0.0
 10
13.2744052341
 20
4.3298626999
 30
0.0
 10
13.2719807826
 20
4.3094282945
 30
0.0
 10
13.2694791157
 20
4.2883662908
 30
0.0
 10
13.2669022918
 20
4.2667180705
 30
0.0
 10
13.2642527646
 20
4.2445253157
 30
0.0
 10
13.2615320626
 20
4.2218295511
 30
0.0
 10
13.2592137394
 20
4.2026215556
 30
0.0
 10
13.2573196491
 20
4.187035138
 30
0.0
 10
13.2558729616
 20
4.1751918942
 30
0.0
 10
13.2544066212
 20
4.1632542281
 30
0.0
 10
13.2529193894
 20
4.1512282218
 30
0.0
 10
13.2513977296
 20
4.139122176
 30
0.0
 10
13.2493004938
 20
4.1228412591
 30
0.0
 10
13.2465306033
 20
4.1023508112
 30
0.0
 10
13.2441026207
 20
4.0859457073
 30
0.0
 10
13.2428143378
 20
4.0777169792
 30
0.0
 11
13.3009057852
 21
4.5580153255
 31
0.0
 11
13.3009058486
 21
4.5580147729
 31
0.0
 11
13.3009057874
 21
4.5580131324
 31
0.0
 11
13.3009056016
 21
4.5580104041
 31
0.0
 11
13.3009052914
 21
4.558006588
 31
0.0
 11
13.3009042975
 21
4.5579956931
 31
0.0
 11
13.3009028063
 21
4.5579804486
 31
0.0
 11
13.300900818
 21
4.5579608554
 31
0.0
 11
13.300898333
 21
4.5579369144
 31
0.0
 11
13.3008953518
 21
4.5579086266
 31
0.0
 11
13.3008918748
 21
4.5578759928
 31
0.0
 11
13.3008834346
 21
4.557797691
 31
0.0
 11
13.3008730157
 21
4.5577020162
 31
0.0
 11
13.3008606211
 21
4.5575889756
 31
0.0
 11
13.300846254
 21
4.5574585764
 31
0.0
 11
13.3008299175
 21
4.5573108259
 31
0.0
 11
13.3008116147
 21
4.5571457312
 31
0.0
 11
13.3007691227
 21
4.5567635386
 31
0.0
 11
13.300718803
 21
4.5563120563
 31
0.0
 11
13.3006606806
 21
4.5557913421
 31
0.0
 11
13.3005947805
 21
4.5552014538
 31
0.0
 11
13.3005211276
 21
4.5545424494
 31
0.0
 11
13.3004397469
 21
4.5538143865
 31
0.0
 11
13.3003506634
 21
4.553017323
 31
0.0
 11
13.3001494878
 21
4.5512164258
 31
0.0
 11
13.29991774
 21
4.5491404495
 31
0.0
 11
13.2996553951
 21
4.546790709
 31
0.0
 11
13.2993624002
 21
4.5441686241
 31
0.0
 11
13.2990387024
 21
4.5412756151
 31
0.0
 11
13.2986842488
 21
4.5381131019
 31
0.0
 11
13.2982989868
 21
4.5346825047
 31
0.0
 11
13.2978828636
 21
4.5309852452
 31
0.0
 11
13.2974358697
 21
4.5270230178
 31
0.0
 11
13.2969580831
 21
4.5227980737
 31
0.0
 11
13.2959104872
 21
4.5135693133
 31
0.0
 11
13.2947407863
 21
4.5033175198
 31
0.0
 11
13.2934497608
 21
4.4920615427
 31
0.0
 11
13.2920390913
 21
4.4798240133
 31
0.0
 11
13.290511083
 21
4.4666301878
 31
0.0
 11
13.2888680539
 21
4.4525053761
 31
0.0
 11
13.287112605
 21
4.4374762511
 31
0.0
 11
13.2852481591
 21
4.4215734436
 31
0.0
 11
13.2832782876
 21
4.404828299
 31
0.0
 11
13.2812066134
 21
4.3872722765
 31
0.0
 11
13.2767775741
 21
4.3498649067
 31
0.0
 11
13.2744315914
 21
4.3300855596
 31
0.0
 11
13.2720051997
 21
4.309637792
 31
0.0
 11
13.2695014785
 21
4.288562016
 31
0.0
 11
13.2669226819
 21
4.2669000142
 31
0.0
 11
13.2642710589
 21
4.244693571
 31
0.0
 11
13.2615475579
 21
4.221984395
 31
0.0
 11
13.2587499512
 21
4.1988140092
 31
0.0
 11
13.2573225133
 21
4.1870688298
 31
0.0
 11
13.2558755351
 21
4.1752239088
 31
0.0
 11
13.2544086765
 21
4.1632844336
 31
0.0
 11
13.2529188291
 21
4.1512564159
 31
0.0
 11
13.2513947355
 21
4.1391482935
 31
0.0
 11
13.249823646
 21
4.1269689483
 31
0.0
 11
13.2464894811
 21
4.1024321176
 31
0.0
 11
13.2428143378
 21
4.0777169792
 31
0.0
  0
SPLINE
  5
2D6
100
AcDbEntity
  8
0
100
AcDbSpline
 62
9
  6
CONTINUOUS
 70
0
 71
3
 72
63
 73
59
 74
57
 42
0.0000001
 43
0.0000001
 44
0.0000000001
 12
0.4908880284
 22
-0.1528676161
 32
0.0
 13
0.0745668643
 23
-0.5087035964
 33
0.0
 40
0.0
 40
0.0
 40
0.0
 40
0.0
 40
0.0000012719
 40
0.0000048671
 40
0.0000107952
 40
0.0000190573
 40
0.0000425842
 40
0.0000754473
 40
0.0001176449
 40
0.000169175
 40
0.0002300355
 40
0.0003002242
 40
0.0004685779
 40
0.0006742184
 40
0.000917128
 40
0.0011972892
 40
0.0015146842
 40
0.0018692953
 40
0.0026900947
 40
0.0036595453
 40
0.0047775054
 40
0.0060438327
 40
0.0074583853
 40
0.0090210213
 40
0.0107315985
 40
0.0145960091
 40
0.01905002
 40
0.0240904817
 40
0.029713919
 40
0.0359168578
 40
0.0426958248
 40
0.050047348
 40
0.0579679561
 40
0.0664535817
 40
0.0754983761
 40
0.0952407555
 40
0.1171456776
 40
0.1411632095
 40
0.1672337099
 40
0.1952890524
 40
0.2252608359
 40
0.2570785998
 40
0.2906638004
 40
0.3259359236
 40
0.3628144022
 40
0.4410576803
 40
0.5247151553
 40
0.5683585349
 40
0.6130936798
 40
0.6588318525
 40
0.7054863167
 40
0.7529765193
 40
0.8012232571
 40
0.8256056419
 40
0.8501469244
 40
0.8996539364
 40
0.9496388405
 40
1.0
 40
1.0
 40
1.0
 40
1.0
 10
13.1607133163
 20
4.5927868828
 30
0.0
 10
13.1607135244
 20
4.592786818
 30
0.0
 10
13.1607133765
 20
4.5927856667
 30
0.0
 10
13.1607138628
 20
4.5927841356
 30
0.0
 10
13.1607140256
 20
4.5927809329
 30
0.0
 10
13.1607147151
 20
4.5927745997
 30
0.0
 10
13.1607155865
 20
4.592763483
 30
0.0
 10
13.1607169773
 20
4.5927466785
 30
0.0
 10
13.1607186504
 20
4.5927250347
 30
0.0
 10
13.1607206683
 20
4.5926986231
 30
0.0
 10
13.1607230071
 20
4.5926674186
 30
0.0
 10
13.1607268003
 20
4.592616248
 30
0.0
 10
13.1607323482
 20
4.592540326
 30
0.0
 10
13.1607399718
 20
4.5924348765
 30
0.0
 10
13.1607489108
 20
4.5923103103
 30
0.0
 10
13.1607591683
 20
4.5921666371
 30
0.0
 10
13.1607707471
 20
4.5920038661
 30
0.0
 10
13.1607888533
 20
4.5917486708
 30
0.0
 10
13.1608147953
 20
4.5913820013
 30
0.0
 10
13.1608499148
 20
4.5908848315
 30
0.0
 10
13.1608903964
 20
4.5903114956
 30
0.0
 10
13.1609362657
 20
4.5896620687
 30
0.0
 10
13.1609875481
 20
4.5889366258
 30
0.0
 10
13.1610442694
 20
4.5881352419
 30
0.0
 10
13.1611307653
 20
4.5869150587
 30
0.0
 10
13.161252628
 20
4.5852006157
 30
0.0
 10
13.1614156328
 20
4.5829169821
 30
0.0
 10
13.1616011867
 20
4.5803327294
 30
0.0
 10
13.1618096419
 20
4.5774496187
 30
0.0
 10
13.1620413555
 20
4.5742694675
 30
0.0
 10
13.1622966831
 20
4.5707940932
 30
0.0
 10
13.1625759814
 20
4.5670253134
 30
0.0
 10
13.1628796006
 20
4.5629650478
 30
0.0
 10
13.1632078558
 20
4.5586156226
 30
0.0
 10
13.1636930543
 20
4.552246268
 30
0.0
 10
13.1643624902
 20
4.54358449
 30
0.0
 10
13.1652461572
 20
4.5323656023
 30
0.0
 10
13.1662337147
 20
4.5200670397
 30
0.0
 10
13.1673258724
 20
4.5067194405
 30
0.0
 10
13.1685225618
 20
4.492356561
 30
0.0
 10
13.1698237047
 20
4.4770140227
 30
0.0
 10
13.1712289918
 20
4.4607292259
 30
0.0
 10
13.1727368227
 20
4.4435415483
 30
0.0
 10
13.1743455243
 20
4.4254921013
 30
0.0
 10
13.1766685935
 20
4.399822513
 30
0.0
 10
13.1798107758
 20
4.3659009232
 30
0.0
 10
13.1831661354
 20
4.3308348964
 30
0.0
 10
13.1860467142
 20
4.3014924311
 30
0.0
 10
13.1883325917
 20
4.2786214638
 30
0.0
 10
13.1907128529
 20
4.2552413593
 30
0.0
 10
13.1931877893
 20
4.2313963319
 30
0.0
 10
13.1957668143
 20
4.2071299459
 30
0.0
 10
13.1980021555
 20
4.1866655958
 30
0.0
 10
13.1998521653
 20
4.1701156133
 30
0.0
 10
13.2017563682
 20
4.1533543923
 30
0.0
 10
13.204240627
 20
4.1322430771
 30
0.0
 10
13.2074640865
 20
4.1067639705
 30
0.0
 10
13.2098278873
 20
4.0897292377
 30
0.0
 10
13.2110796452
 20
4.0811896034
 30
0.0
 11
13.1607133163
 21
4.5927868828
 31
0.0
 11
13.1607134722
 21
4.5927862478
 31
0.0
 11
13.160713709
 21
4.5927844145
 31
0.0
 11
13.1607140268
 21
4.5927813833
 31
0.0
 11
13.1607144257
 21
4.5927771542
 31
0.0
 11
13.1607154669
 21
4.592765103
 31
0.0
 11
13.1607168328
 21
4.5927482621
 31
0.0
 11
13.160718524
 21
4.5927266326
 31
0.0
 11
13.1607205408
 21
4.5927002159
 31
0.0
 11
13.1607228836
 21
4.5926690129
 31
0.0
 11
13.1607255529
 21
4.5926330249
 31
0.0
 11
13.1607318725
 21
4.5925466986
 31
0.0
 11
13.1607395027
 21
4.5924412464
 31
0.0
 11
13.1607484468
 21
4.5923166776
 31
0.0
 11
13.1607587081
 21
4.5921730016
 31
0.0
 11
13.1607702898
 21
4.5920102277
 31
0.0
 11
13.1607831953
 21
4.5918283655
 31
0.0
 11
13.1608129902
 21
4.5914074131
 31
0.0
 11
13.160848119
 21
4.5909102195
 31
0.0
 11
13.1608886076
 21
4.5903368598
 31
0.0
 11
13.1609344821
 21
4.5896874089
 31
0.0
 11
13.1609857686
 21
4.5889619419
 31
0.0
 11
13.1610424931
 21
4.5881605338
 31
0.0
 11
13.1611046817
 21
4.5872832597
 31
0.0
 11
13.1612455552
 21
4.5853014135
 31
0.0
 11
13.161408627
 21
4.5830172436
 31
0.0
 11
13.1615942341
 21
4.5804323977
 31
0.0
 11
13.1618027347
 21
4.5775486935
 31
0.0
 11
13.1620344866
 21
4.5743679485
 31
0.0
 11
13.1622898478
 21
4.5708919802
 31
0.0
 11
13.1625691762
 21
4.5671226064
 31
0.0
 11
13.16287283
 21
4.5630616447
 31
0.0
 11
13.1632011367
 21
4.5587112185
 31
0.0
 11
13.163554334
 21
4.5540743636
 31
0.0
 11
13.1643362837
 21
4.543954188
 31
0.0
 11
13.1652204459
 21
4.5327267595
 31
0.0
 11
13.1662085351
 21
4.5204179903
 31
0.0
 11
13.167301314
 21
4.5070587324
 31
0.0
 11
13.1684987141
 21
4.4926841542
 31
0.0
 11
13.1698006385
 21
4.477329569
 31
0.0
 11
13.1712067084
 21
4.4610313347
 31
0.0
 11
13.1727154422
 21
4.4438298904
 31
0.0
 11
13.1743250888
 21
4.4257666713
 31
0.0
 11
13.1760339121
 21
4.4068831441
 31
0.0
 11
13.1797447365
 21
4.3668266915
 31
0.0
 11
13.1838424141
 21
4.3240107035
 31
0.0
 11
13.1860348971
 21
4.3016792822
 31
0.0
 11
13.1883224425
 21
4.2787932112
 31
0.0
 11
13.1907045319
 21
4.2553983645
 31
0.0
 11
13.193182697
 21
4.2315398122
 31
0.0
 11
13.1957648225
 21
4.2072601342
 31
0.0
 11
13.1984600201
 21
4.1826014293
 31
0.0
 11
13.1998528682
 21
4.1701430976
 31
0.0
 11
13.2012789487
 21
4.1576063003
 31
0.0
 11
13.2042675593
 21
4.132328845
 31
0.0
 11
13.207506928
 21
4.1068346021
 31
0.0
 11
13.2110796452
 21
4.0811896034
 31
0.0
  0
SPLINE
  5
2D7
100
AcDbEntity
  8
0
100
AcDbSpline
 62
9
  6
CONTINUOUS
 70
0
 71
3
 72
30
 73
26
 74
24
 42
0.0000001
 43
0.0000001
 44
0.0000000001
 12
0.0142489285
 22
-0.1079215023
 32
0.0
 13
0.000175919
 23
-0.1088579427
 33
0.0
 40
0.0
 40
0.0
 40
0.0
 40
0.0
 40
0.0620535547
 40
0.124206778
 40
0.1553153594
 40
0.1864418457
 40
0.217584239
 40
0.2487421912
 40
0.3111061367
 40
0.342311918
 40
0.3735329951
 40
0.4047688938
 40
0.4360186977
 40
0.4985533183
 40
0.5611254302
 40
0.6237335972
 40
0.686384573
 40
0.7177271277
 40
0.7490801941
 40
0.8117971638
 40
0.8431546624
 40
0.8745122895
 40
0.9058757435
 40
0.9372476651
 40
1.0
 40
1.0
 40
1.0
 40
1.0
 10
13.2110796541
 20
4.0811896174
 30
0.0
 10
13.2113743863
 20
4.0789573131
 30
0.0
 10
13.2120054171
 20
4.0744945544
 30
0.0
 10
13.2128452153
 20
4.0689217078
 30
0.0
 10
13.2135172295
 20
4.0644584573
 30
0.0
 10
13.2140140054
 20
4.061106768
 30
0.0
 10
13.2144944589
 20
4.0577508793
 30
0.0
 10
13.2151105636
 20
4.0532694414
 30
0.0
 10
13.2157006529
 20
4.0487821767
 30
0.0
 10
13.2162820711
 20
4.0442914994
 30
0.0
 10
13.2167182716
 20
4.0409209573
 30
0.0
 10
13.217159789
 20
4.0375494958
 30
0.0
 10
13.2177562329
 20
4.0330523844
 30
0.0
 10
13.2184985932
 20
4.0274276034
 30
0.0
 10
13.2193386272
 20
4.0206680025
 30
0.0
 10
13.2200776623
 20
4.0138922841
 30
0.0
 10
13.2206212215
 20
4.0082357656
 30
0.0
 10
13.2210217357
 20
4.0037050857
 30
0.0
 10
13.2214036968
 20
3.9991704355
 30
0.0
 10
13.2217399862
 20
3.9946312432
 30
0.0
 10
13.2219873462
 20
3.9900863758
 30
0.0
 10
13.2221165456
 20
3.9866748918
 30
0.0
 10
13.2221837689
 20
3.9832611517
 30
0.0
 10
13.2222188557
 20
3.978707778
 30
0.0
 10
13.2222104775
 20
3.9752923555
 30
0.0
 10
13.2222141573
 20
3.9730153255
 30
0.0
 11
13.2110796541
 21
4.0811896174
 31
0.0
 11
13.2120150349
 21
4.0744996616
 31
0.0
 11
13.2130128889
 21
4.0678077687
 31
0.0
 11
13.2135158504
 21
4.0644589071
 31
0.0
 11
13.2140111587
 21
4.0611069347
 31
0.0
 11
13.2144912584
 21
4.057751001
 31
0.0
 11
13.2149541489
 21
4.0543909406
 31
0.0
 11
13.2158450752
 21
4.0476608349
 31
0.0
 11
13.2162819686
 21
4.0442920452
 31
0.0
 11
13.2167190539
 21
4.0409216014
 31
0.0
 11
13.217160646
 21
4.0375501179
 31
0.0
 11
13.2176067415
 21
4.0341777004
 31
0.0
 11
13.2184898875
 21
4.0274278311
 31
0.0
 11
13.2193215611
 21
4.0206673147
 31
0.0
 11
13.2200629861
 21
4.0138923581
 31
0.0
 11
13.2207183783
 21
4.0071038568
 31
0.0
 11
13.2210193578
 21
4.0037052676
 31
0.0
 11
13.2213043649
 21
4.0003041535
 31
0.0
 11
13.2217944175
 21
3.9934945148
 31
0.0
 11
13.2219779583
 21
3.9900859355
 31
0.0
 11
13.2221062081
 21
3.9866748143
 31
0.0
 11
13.2221769449
 21
3.9832613817
 31
0.0
 11
13.2222062272
 21
3.9798464199
 31
0.0
 11
13.2222141573
 21
3.9730153255
 31
0.0
  0
SPLINE
  5
2D8
100
AcDbEntity
  8
0
100
AcDbSpline
 62
9
  6
CONTINUOUS
 70
0
 71
3
 72
30
 73
26
 74
24
 42
0.0000001
 43
0.0000001
 44
0.0000000001
 12
-0.0162347942
 22
-0.1042612285
 32
0.0
 13
0.0001093708
 23
-0.1055175831
 33
0.0
 40
0.0
 40
0.0
 40
0.0
 40
0.0
 40
0.0618981751
 40
0.1239139076
 40
0.1860386472
 40
0.2171395062
 40
0.2482647609
 40
0.3105832115
 40
0.3729830681
 40
0.4042107521
 40
0.4354562777
 40
0.4980007951
 40
0.5606166776
 40
0.6232967231
 40
0.6546511072
 40
0.6860106578
 40
0.7173749469
 40
0.7487465484
 40
0.7801296814
 40
0.8115255864
 40
0.8429325334
 40
0.8743468505
 40
0.9057638059
 40
0.9371790234
 40
1.0
 40
1.0
 40
1.0
 40
1.0
 10
13.2428143378
 20
4.0777169792
 30
0.0
 10
13.2424793698
 20
4.075565786
 30
0.0
 10
13.2418162199
 20
4.0712581602
 30
0.0
 10
13.2408247076
 20
4.0647902674
 30
0.0
 10
13.2399861664
 20
4.0593947921
 30
0.0
 10
13.2392980692
 20
4.055075517
 30
0.0
 10
13.2385984269
 20
4.0507511975
 30
0.0
 10
13.2377148905
 20
4.0453414633
 30
0.0
 10
13.2368457174
 20
4.0399257185
 30
0.0
 10
13.2361750745
 20
4.0355851018
 30
0.0
 10
13.2355237101
 20
4.03123641
 30
0.0
 10
13.2347444947
 20
4.0257905967
 30
0.0
 10
13.2338644422
 20
4.019242605
 30
0.0
 10
13.2331732375
 20
4.0137761895
 30
0.0
 10
13.2326746797
 20
4.0093939626
 30
0.0
 10
13.232336007
 20
4.0061022952
 30
0.0
 10
13.23203996
 20
4.0028058647
 30
0.0
 10
13.2317955659
 20
3.9995043682
 30
0.0
 10
13.2315940049
 20
3.9961989235
 30
0.0
 10
13.2314237266
 20
3.992890508
 30
0.0
 10
13.2312743774
 20
3.9895800059
 30
0.0
 10
13.2311334892
 20
3.9862684092
 30
0.0
 10
13.230996406
 20
3.982956331
 30
0.0
 10
13.230842085
 20
3.978539525
 30
0.0
 10
13.230779798
 20
3.975224898
 30
0.0
 10
13.2307820882
 20
3.9730153255
 30
0.0
 11
13.2428143378
 21
4.0777169792
 31
0.0
 11
13.2418175322
 21
4.0712621436
 31
0.0
 11
13.2408230602
 21
4.0647943976
 31
0.0
 11
13.2398131259
 21
4.0583174066
 31
0.0
 11
13.239296897
 21
4.0550765746
 31
0.0
 11
13.2387731212
 21
4.0518343462
 31
0.0
 11
13.237718336
 21
4.0453437989
 31
0.0
 11
13.2366804181
 21
4.0388418344
 31
0.0
 11
13.2361776744
 21
4.0355853416
 31
0.0
 11
13.2356891585
 21
4.0323247805
 31
0.0
 11
13.2347541297
 21
4.0257918042
 31
0.0
 11
13.2338732762
 21
4.0192437049
 31
0.0
 11
13.233053252
 21
4.012680887
 31
0.0
 11
13.2326805948
 21
4.0093935011
 31
0.0
 11
13.2323431369
 21
4.0061017677
 31
0.0
 11
13.2320486008
 21
4.0028054145
 31
0.0
 11
13.2318027443
 21
3.9995042998
 31
0.0
 11
13.2315992555
 21
3.9961990837
 31
0.0
 11
13.2314272424
 21
3.9928907307
 31
0.0
 11
13.2312758044
 21
3.9895802057
 31
0.0
 11
13.2311341293
 21
3.9862684701
 31
0.0
 11
13.2309999595
 21
3.9829561434
 31
0.0
 11
13.230886596
 21
3.9796432228
 31
0.0
 11
13.2307820882
 21
3.9730153255
 31
0.0
  0
SPLINE
  5
2D9
100
AcDbEntity
  8
0
100
AcDbSpline
 62
9
  6
CONTINUOUS
 70
0
 71
3
 72
52
 73
48
 74
46
 42
0.0000001
 43
0.0000001
 44
0.0000000001
 12
-0.4521982293
 22
0.0736315151
 32
0.0
 13
-0.4423078116
 23
-0.1194514065
 33
0.0
 40
0.0
 40
0.0
 40
0.0
 40
0.0
 40
0.0000049758
 40
0.000019523
 40
0.0000436389
 40
0.0000773202
 40
0.0001205637
 40
0.0001733659
 40
0.0003076332
 40
0.000480095
 40
0.0006907243
 40
0.0009394941
 40
0.0012263774
 40
0.0015513471
 40
0.0019143763
 40
0.0027545046
 40
0.0037465464
 40
0.0048902852
 40
0.0061855052
 40
0.00763199
 40
0.0092295237
 40
0.0109778903
 40
0.0149262324
 40
0.0194742613
 40
0.0246179116
 40
0.0303530296
 40
0.0366754627
 40
0.0435810602
 40
0.0510656734
 40
0.0591250725
 40
0.0769430442
 40
0.0969766131
 40
0.1191656271
 40
0.1434487066
 40
0.1697544883
 40
0.1980067933
 40
0.2281294828
 40
0.2600446019
 40
0.2936696084
 40
0.3657170777
 40
0.4436143286
 40
0.5267187355
 40
0.6144135613
 40
0.6598031549
 40
0.7061273016
 40
0.8013122257
 40
1.0
 40
1.0
 40
1.0
 40
1.0
 10
12.5694356765
 20
4.9053192258
 30
0.0
 10
12.5694349265
 20
4.9053193479
 30
0.0
 10
12.5694322755
 20
4.9053172446
 30
0.0
 10
12.5694260617
 20
4.9053155105
 30
0.0
 10
12.5694159735
 20
4.905310615
 30
0.0
 10
12.569401797
 20
4.9053046923
 30
0.0
 10
12.5693836399
 20
4.9052967001
 30
0.0
 10
12.5693513923
 20
4.9052826879
 30
0.0
 10
12.5693010751
 20
4.9052606912
 30
0.0
 10
12.56922868
 20
4.9052290536
 30
0.0
 10
12.5691402787
 20
4.9051903621
 30
0.0
 10
12.5690358822
 20
4.9051446391
 30
0.0
 10
12.5689155047
 20
4.9050918773
 30
0.0
 10
12.5687791592
 20
4.9050320799
 30
0.0
 10
12.5685654575
 20
4.9049383022
 30
0.0
 10
12.5682585101
 20
4.9048034938
 30
0.0
 10
12.5678424629
 20
4.9046205952
 30
0.0
 10
12.5673628615
 20
4.9044095677
 30
0.0
 10
12.5668198119
 20
4.9041704168
 30
0.0
 10
12.5662134198
 20
4.9039031479
 30
0.0
 10
12.5655437916
 20
4.9036077652
 30
0.0
 10
12.564524716
 20
4.9031578818
 30
0.0
 10
12.5630937387
 20
4.9025253187
 30
0.0
 10
12.5611888379
 20
4.9016823733
 30
0.0
 10
12.5590343597
 20
4.9007291076
 30
0.0
 10
12.5566317629
 20
4.8996668938
 30
0.0
 10
12.5539824968
 20
4.8984971597
 30
0.0
 10
12.5510880144
 20
4.8972213248
 30
0.0
 10
12.5479497857
 20
4.8958408018
 30
0.0
 10
12.5432843923
 20
4.8937931556
 30
0.0
 10
12.536860569
 20
4.8909834253
 30
0.0
 10
12.5284547334
 20
4.887320442
 30
0.0
 10
12.5191387702
 20
4.8832745164
 30
0.0
 10
12.5089394365
 20
4.8788580215
 30
0.0
 10
12.4978833208
 20
4.8740898901
 30
0.0
 10
12.4859985444
 20
4.8689912659
 30
0.0
 10
12.473314392
 20
4.8635832287
 30
0.0
 10
12.459860789
 20
4.8578879248
 30
0.0
 10
12.4404859311
 20
4.8497562593
 30
0.0
 10
12.4145779145
 20
4.8390456122
 30
0.0
 10
12.381568908
 20
4.8257358385
 30
0.0
 10
12.3461885668
 20
4.8119224429
 30
0.0
 10
12.3152772214
 20
4.8003197672
 30
0.0
 10
12.2895174259
 20
4.7909846245
 30
0.0
 10
12.2626032054
 20
4.7814797998
 30
0.0
 10
12.2133811303
 20
4.7648501933
 30
0.0
 10
12.1703807339
 20
4.7519089293
 30
0.0
 10
12.1410870157
 20
4.7439977513
 30
0.0
 11
12.5694356765
 21
4.9053192258
 31
0.0
 11
12.5694335668
 21
4.905318362
 31
0.0
 11
12.5694274403
 21
4.9053157378
 31
0.0
 11
12.5694172987
 21
4.9053113534
 31
0.0
 11
12.5694031437
 21
4.9053052087
 31
0.0
 11
12.5693849768
 21
4.9052973039
 31
0.0
 11
12.5693627997
 21
4.9052876391
 31
0.0
 11
12.5693064217
 21
4.9052630298
 31
0.0
 11
12.5692340229
 21
4.9052313813
 31
0.0
 11
12.5691456165
 21
4.9051926944
 31
0.0
 11
12.5690412157
 21
4.9051469697
 31
0.0
 11
12.5689208339
 21
4.905094208
 31
0.0
 11
12.5687844841
 21
4.9050344099
 31
0.0
 11
12.5686321797
 21
4.904967576
 31
0.0
 11
12.5682797599
 21
4.9048128039
 31
0.0
 11
12.5678636803
 21
4.9046298971
 31
0.0
 11
12.5673840467
 21
4.9044188609
 31
0.0
 11
12.566840965
 21
4.9041797009
 31
0.0
 11
12.5662345411
 21
4.9039124224
 31
0.0
 11
12.5655648808
 21
4.9036170309
 31
0.0
 11
12.56483209
 21
4.9032935318
 31
0.0
 11
12.5631775465
 21
4.9025622469
 31
0.0
 11
12.5612720134
 21
4.9017191964
 31
0.0
 11
12.5591169194
 21
4.9007657547
 31
0.0
 11
12.5567137151
 21
4.8997033466
 31
0.0
 11
12.5540638514
 21
4.8985333969
 31
0.0
 11
12.551168779
 21
4.8972573304
 31
0.0
 11
12.5480299486
 21
4.8958765719
 31
0.0
 11
12.5446488519
 21
4.8943925484
 31
0.0
 11
12.5371698741
 21
4.8911206218
 31
0.0
 11
12.5287557874
 21
4.8874535838
 31
0.0
 11
12.5194314074
 21
4.8834035127
 31
0.0
 11
12.5092218621
 21
4.8789831799
 31
0.0
 11
12.4981548259
 21
4.8742110074
 31
0.0
 11
12.4862592141
 21
4.8691081711
 31
0.0
 11
12.4735639516
 21
4.8636958691
 31
0.0
 11
12.4600984209
 21
4.8579964597
 31
0.0
 11
12.4458931365
 21
4.8520351743
 31
0.0
 11
12.4153860305
 21
4.839429681
 31
0.0
 11
12.3822829511
 21
4.8260923329
 31
0.0
 11
12.3468125027
 21
4.812253186
 31
0.0
 11
12.3091936946
 21
4.7981438354
 31
0.0
 11
12.2896421176
 21
4.7910596999
 31
0.0
 11
12.2696290171
 21
4.7839945616
 31
0.0
 11
12.228306208
 21
4.7700590342
 31
0.0
 11
12.1410870157
 21
4.7439977513
 31
0.0
  0
SPLINE
  5
2DA
100
AcDbEntity
  8
0
100
AcDbSpline
 62
9
  6
CONTINUOUS
 70
0
 71
3
 72
39
 73
35
 74
33
 42
0.0000001
 43
0.0000001
 44
0.0000000001
 12
-0.2321456032
 22
-0.1853899177
 32
0.0
 13
-0.0169549749
 23
-0.2966033235
 33
0.0
 40
0.0
 40
0.0
 40
0.0
 40
0.0
 40
0.0603987661
 40
0.1212052585
 40
0.1823874581
 40
0.2439163629
 40
0.305763388
 40
0.3679015321
 40
0.4303053403
 40
0.4929494378
 40
0.5558088477
 40
0.6188590286
 40
0.650448221
 40
0.6820761843
 40
0.7137400341
 40
0.7454369426
 40
0.7771641472
 40
0.8089189583
 40
0.8406987681
 40
0.8725009473
 40
0.8884115964
 40
0.9043276087
 40
0.9122888442
 40
0.9202510484
 40
0.9282158849
 40
0.9361839859
 40
0.9441523892
 40
0.952123944
 40
0.9601016842
 40
0.9680791017
 40
0.9760560123
 40
0.9840381357
 40
0.9920231108
 40
1.0
 40
1.0
 40
1.0
 40
1.0
 10
12.0815639873
 20
4.8530153255
 30
0.0
 10
12.0768902179
 20
4.8492828847
 30
0.0
 10
12.0675165465
 20
4.8417860184
 30
0.0
 10
12.0534307059
 20
4.8304805455
 30
0.0
 10
12.0392776812
 20
4.8190800265
 30
0.0
 10
12.0250636228
 20
4.8075910562
 30
0.0
 10
12.0107964835
 20
4.7960172077
 30
0.0
 10
11.9964844621
 20
4.784361201
 30
0.0
 10
11.9821450845
 20
4.7726138877
 30
0.0
 10
11.9677933301
 20
4.7607691312
 30
0.0
 10
11.9534485353
 20
4.7488156694
 30
0.0
 10
11.9415281158
 20
4.7387571343
 30
0.0
 10
11.9320230894
 20
4.7306325232
 30
0.0
 10
11.9249121985
 20
4.7244907993
 30
0.0
 10
11.9178321046
 20
4.7182973476
 30
0.0
 10
11.9107940516
 20
4.7120412779
 30
0.0
 10
11.903814737
 20
4.7057062218
 30
0.0
 10
11.8969193839
 20
4.6992674389
 30
0.0
 10
11.8901508399
 20
4.6926844873
 30
0.0
 10
11.8846777185
 20
4.6870228649
 30
0.0
 10
11.880473489
 20
4.6823283102
 30
0.0
 10
11.8779478915
 20
4.6793024631
 30
0.0
 10
11.8760115271
 20
4.6768136818
 30
0.0
 10
11.8746104243
 20
4.6749071696
 30
0.0
 10
11.8732693738
 20
4.6729570164
 30
0.0
 10
11.8719990102
 20
4.6709591656
 30
0.0
 10
11.8708150807
 20
4.6689078691
 30
0.0
 10
11.8697339726
 20
4.6667991948
 30
0.0
 10
11.868772713
 20
4.6646319964
 30
0.0
 10
11.8679466945
 20
4.6624088616
 30
0.0
 10
11.8672742239
 20
4.6601337144
 30
0.0
 10
11.8667687082
 20
4.6578150428
 30
0.0
 10
11.866418473
 20
4.6554683401
 30
0.0
 10
11.8662824949
 20
4.6538923911
 30
0.0
 10
11.8662374123
 20
4.6531037338
 30
0.0
 11
12.0815639873
 21
4.8530153255
 31
0.0
 11
12.067551295
 21
4.8418072231
 31
0.0
 11
12.0534630411
 21
4.8304997062
 31
0.0
 11
12.039307595
 21
4.819097629
 31
0.0
 11
12.0250915213
 21
4.8076066633
 31
0.0
 11
12.0108225805
 21
4.7960308059
 31
0.0
 11
11.9965104674
 21
4.7843709476
 31
0.0
 11
11.9821705977
 21
4.7726203201
 31
0.0
 11
11.9678191159
 21
4.7607714333
 31
0.0
 11
11.9534753584
 21
4.7488130554
 31
0.0
 11
11.9391641372
 21
4.7367277277
 31
0.0
 11
11.9320312429
 21
4.7306289204
 31
0.0
 11
11.9249213555
 21
4.7244856755
 31
0.0
 11
11.9178427957
 21
4.7182901596
 31
0.0
 11
11.9108071905
 21
4.7120311212
 31
0.0
 11
11.903831749
 21
4.705691712
 31
0.0
 11
11.8969432073
 21
4.6992459718
 31
0.0
 11
11.8901865072
 21
4.6926515225
 31
0.0
 11
11.8836424278
 21
4.6858368095
 31
0.0
 11
11.8804945058
 21
4.6823106572
 31
0.0
 11
11.8774711706
 21
4.6786750455
 31
0.0
 11
11.8760202003
 21
4.6768072179
 31
0.0
 11
11.8746206492
 21
4.6749002012
 31
0.0
 11
11.8732813904
 21
4.6729494214
 31
0.0
 11
11.8720134889
 21
4.6709503784
 31
0.0
 11
11.8708324408
 21
4.6688987211
 31
0.0
 11
11.869754277
 21
4.6667901271
 31
0.0
 11
11.8687952776
 21
4.6646227247
 31
0.0
 11
11.8679722899
 21
4.6624002148
 31
0.0
 11
11.867302207
 21
4.6601270818
 31
0.0
 11
11.8667946464
 21
4.6578106471
 31
0.0
 11
11.8664427546
 21
4.6554646551
 31
0.0
 11
11.8662374123
 21
4.6531037338
 31
0.0
  0
SPLINE
  5
2DB
100
AcDbEntity
  8
0
100
AcDbSpline
 62
9
  6
CONTINUOUS
 70
0
 71
3
 72
49
 73
45
 74
43
 42
0.0000001
 43
0.0000001
 44
0.0000000001
 12
-0.2767883886
 22
-0.0747690693
 32
0.0
 13
0.0273056506
 23
-0.2854060743
 33
0.0
 40
0.0
 40
0.0
 40
0.0
 40
0.0
 40
0.0606933788
 40
0.1217293047
 40
0.1830790393
 40
0.2447182292
 40
0.275639545
 40
0.3066256065
 40
0.3376744803
 40
0.3687837499
 40
0.3999503049
 40
0.4311711468
 40
0.4937652146
 40
0.5565453769
 40
0.6194919208
 40
0.6510217674
 40
0.6825862953
 40
0.714183308
 40
0.7458106607
 40
0.777466267
 40
0.8091480995
 40
0.8249984064
 40
0.8408545421
 40
0.8567164854
 40
0.8725838252
 40
0.8884567645
 40
0.8963953193
 40
0.9043357237
 40
0.912277544
 40
0.9202205962
 40
0.9281667451
 40
0.9361148552
 40
0.9440645564
 40
0.9480429825
 40
0.9520233502
 40
0.959981673
 40
0.9679653242
 40
0.9719737601
 40
0.9759752788
 40
0.979967198
 40
0.9839613349
 40
0.9879717358
 40
0.9919935805
 40
1.0
 40
1.0
 40
1.0
 40
1.0
 10
12.1410872757
 20
4.7439982018
 30
0.0
 10
12.1354875349
 20
4.7424855393
 30
0.0
 10
12.1242564206
 20
4.7394517813
 30
0.0
 10
12.1073676091
 20
4.7348793775
 30
0.0
 10
12.0903974252
 20
4.7302616734
 30
0.0
 10
12.0762116538
 20
4.726372754
 30
0.0
 10
12.0648277874
 20
4.723239015
 30
0.0
 10
12.0562635407
 20
4.72087772
 30
0.0
 10
12.0476817228
 20
4.7185125745
 30
0.0
 10
12.039082756
 20
4.7161447308
 30
0.0
 10
12.0304687568
 20
4.7137695717
 30
0.0
 10
12.0189564087
 20
4.7105859059
 30
0.0
 10
12.0045378463
 20
4.7065759942
 30
0.0
 10
11.9872138373
 20
4.7016974704
 30
0.0
 10
11.9727675356
 20
4.697552899
 30
0.0
 10
11.9612067927
 20
4.6941692848
 30
0.0
 10
11.9525325766
 20
4.6915896575
 30
0.0
 10
11.9438632014
 20
4.6889614506
 30
0.0
 10
11.9352029705
 20
4.6862736367
 30
0.0
 10
11.9265578431
 20
4.6835107615
 30
0.0
 10
11.9193748275
 20
4.6811270773
 30
0.0
 10
11.913647441
 20
4.67915292
 30
0.0
 10
11.9093637421
 20
4.6776305345
 30
0.0
 10
11.9050960605
 20
4.6760589332
 30
0.0
 10
11.9008506815
 20
4.6744234387
 30
0.0
 10
11.8973377431
 20
4.6729944659
 30
0.0
 10
11.8945497286
 20
4.6717961951
 30
0.0
 10
11.892471547
 20
4.6708665366
 30
0.0
 10
11.8904099962
 20
4.6698994021
 30
0.0
 10
11.8883704417
 20
4.6688853178
 30
0.0
 10
11.8863578873
 20
4.6678171518
 30
0.0
 10
11.8843816593
 20
4.666681477
 30
0.0
 10
11.8827778
 20
4.6656620366
 30
0.0
 10
11.881528631
 20
4.6647950024
 30
0.0
 10
11.8803066711
 20
4.663888647
 30
0.0
 10
11.8788453879
 20
4.6626639271
 30
0.0
 10
11.8775225695
 20
4.6612830484
 30
0.0
 10
11.8765867468
 20
4.6600727729
 30
0.0
 10
11.8759618581
 20
4.6591091143
 30
0.0
 10
11.8754316735
 20
4.6580912394
 30
0.0
 10
11.8750164312
 20
4.6570198752
 30
0.0
 10
11.8747266576
 20
4.6559050377
 30
0.0
 10
11.8744984859
 20
4.6543874318
 30
0.0
 10
11.8744983336
 20
4.6532282913
 30
0.0
 10
11.8745712071
 20
4.6524665977
 30
0.0
 11
12.1410872757
 21
4.7439982018
 31
0.0
 11
12.1242884573
 21
4.7394587187
 31
0.0
 11
12.1073975298
 21
4.734883629
 31
0.0
 11
12.0904255772
 21
4.7302635928
 31
0.0
 11
12.0733815148
 21
4.725592594
 31
0.0
 11
12.0648339123
 21
4.72324008
 31
0.0
 11
12.0562692854
 21
4.7208794691
 31
0.0
 11
12.0476872011
 21
4.7185144213
 31
0.0
 11
12.0390881694
 21
4.7161456935
 31
0.0
 11
12.0304740569
 21
4.7137698698
 31
0.0
 11
12.0218466575
 21
4.7113836893
 31
0.0
 11
12.0045575883
 21
4.7065714309
 31
0.0
 11
11.9872331393
 21
4.7016876711
 31
0.0
 11
11.9698874273
 21
4.6967043515
 31
0.0
 11
11.9612118176
 21
4.6941639589
 31
0.0
 11
11.9525378444
 21
4.6915829002
 31
0.0
 11
11.9438688846
 21
4.6889527917
 31
0.0
 11
11.9352093519
 21
4.6862623433
 31
0.0
 11
11.9265653947
 21
4.6834955767
 31
0.0
 11
11.9179462597
 21
4.6806285134
 31
0.0
 11
11.9136503492
 21
4.6791462851
 31
0.0
 11
11.9093671887
 21
4.677622613
 31
0.0
 11
11.9051005107
 21
4.6760485605
 31
0.0
 11
11.9008563381
 21
4.6744104956
 31
0.0
 11
11.8966429817
 21
4.672690468
 31
0.0
 11
11.8945521288
 21
4.6717911504
 31
0.0
 11
11.892474507
 21
4.6708603767
 31
0.0
 11
11.8904138505
 21
4.6698916684
 31
0.0
 11
11.888375294
 21
4.6688764854
 31
0.0
 11
11.8863641987
 21
4.6678060418
 31
0.0
 11
11.8843904911
 21
4.6666670094
 31
0.0
 11
11.8824688467
 21
4.6654413348
 31
0.0
 11
11.8815322676
 21
4.664790254
 31
0.0
 11
11.8806165996
 21
4.6641091456
 31
0.0
 11
11.878875229
 21
4.662634731
 31
0.0
 11
11.8773004119
 21
4.6609735828
 31
0.0
 11
11.8765992732
 21
4.6600629822
 31
0.0
 11
11.8759770592
 21
4.659099092
 31
0.0
 11
11.8754509556
 21
4.6580826561
 31
0.0
 11
11.8750379585
 21
4.6570145662
 31
0.0
 11
11.8747466934
 21
4.6559022492
 31
0.0
 11
11.874574286
 21
4.6547621106
 31
0.0
 11
11.8745712071
 21
4.6524665977
 31
0.0
  0
SPLINE
  5
2DC
100
AcDbEntity
  8
0
100
AcDbSpline
 62
9
  6
CONTINUOUS
 70
0
 71
3
 72
24
 73
20
 74
18
 42
0.0000001
 43
0.0000001
 44
0.0000000001
 12
-0.0350555912
 22
-0.6792626101
 32
0.0
 13
0.0000040223
 23
-0.6801665884
 33
0.0
 40
0.0
 40
0.0
 40
0.0
 40
0.0
 40
0.0312499065
 40
0.0468751296
 40
0.0625002814
 40
0.0937502816
 40
0.1250002458
 40
0.1562502582
 40
0.1875002819
 40
0.2500002383
 40
0.3125002138
 40
0.3750001915
 40
0.4375001711
 40
0.5000001533
 40
0.5625001349
 40
0.6250001166
 40
0.7500000758
 40
0.8750000367
 40
1.0
 40
1.0
 40
1.0
 40
1.0
 10
11.8662374123
 20
4.6531037338
 30
0.0
 10
11.865872251
 20
4.6460281028
 30
0.0
 10
11.8653912947
 20
4.6354110847
 30
0.0
 10
11.8648464756
 20
4.621251353
 30
0.0
 10
11.8643526346
 20
4.6070897077
 30
0.0
 10
11.8638178322
 20
4.589384988
 30
0.0
 10
11.8632776517
 20
4.5681365952
 30
0.0
 10
11.8628153916
 20
4.546886379
 30
0.0
 10
11.8622799742
 20
4.5185511364
 30
0.0
 10
11.8617297639
 20
4.4831299814
 30
0.0
 10
11.8612013019
 20
4.4406228308
 30
0.0
 10
11.8607733948
 20
4.3981145571
 30
0.0
 10
11.8604199622
 20
4.355605613
 30
0.0
 10
11.8601225955
 20
4.3130962447
 30
0.0
 10
11.8598696548
 20
4.270586591
 30
0.0
 10
11.8595845664
 20
4.2139067704
 30
0.0
 10
11.8593072849
 20
4.1430566264
 30
0.0
 10
11.8590748576
 20
4.0580361296
 30
0.0
 10
11.8590090131
 20
4.0013555917
 30
0.0
 10
11.8590091807
 20
3.9730153255
 30
0.0
 11
11.8662374123
 21
4.6531037338
 31
0.0
 11
11.8652631316
 21
4.6318709325
 31
0.0
 11
11.8648528474
 21
4.6212511003
 31
0.0
 11
11.8644815927
 21
4.6106298805
 31
0.0
 11
11.8638347622
 21
4.5893845189
 31
0.0
 11
11.8632906387
 21
4.5681363032
 31
0.0
 11
11.8628255078
 21
4.5468861787
 31
0.0
 11
11.8624217657
 21
4.5256347916
 31
0.0
 11
11.861751729
 21
4.4831296902
 31
0.0
 11
11.861218061
 21
4.440622645
 31
0.0
 11
11.8607858072
 21
4.3981144461
 31
0.0
 11
11.8604293065
 21
4.3556055431
 31
0.0
 11
11.8601299998
 21
4.3130961971
 31
0.0
 11
11.8598761755
 21
4.2705865556
 31
0.0
 11
11.8596611104
 21
4.2280767003
 31
0.0
 11
11.8593240033
 21
4.1430565728
 31
0.0
 11
11.8590971344
 21
4.0580360786
 31
0.0
 11
11.8590091807
 21
3.9730153255
 31
0.0
  0
LINE
  5
2DD
100
AcDbEntity
  8
0
100
AcDbLine
 62
9
  6
CONTINUOUS
 10
11.8662374127
 20
4.6531037338
 11
11.8745712102
 21
4.6524665979
  0
SPLINE
  5
2DE
100
AcDbEntity
  8
0
100
AcDbSpline
 62
9
  6
CONTINUOUS
 70
0
 71
3
 72
24
 73
20
 74
18
 42
0.0000001
 43
0.0000001
 44
0.0000000001
 12
-0.0404396491
 22
-0.6783540036
 32
0.0
 13
0.0000059206
 23
-0.6795583267
 33
0.0
 40
0.0
 40
0.0
 40
0.0
 40
0.0
 40
0.0312498344
 40
0.046875103
 40
0.0625002815
 40
0.0937502653
 40
0.1250002116
 40
0.1562502244
 40
0.1875002532
 40
0.2500001968
 40
0.31250017
 40
0.3750001481
 40
0.43750013
 40
0.5000001162
 40
0.5625001021
 40
0.6250000884
 40
0.7500000558
 40
0.8750000259
 40
1.0
 40
1.0
 40
1.0
 40
1.0
 10
11.8745712102
 20
4.6524665979
 30
0.0
 10
11.8741499661
 20
4.6454004478
 30
0.0
 10
11.8735935902
 20
4.6347965608
 30
0.0
 10
11.8729609666
 20
4.6206531625
 30
0.0
 10
11.8723861543
 20
4.6065072336
 30
0.0
 10
11.8717615865
 20
4.5888212756
 30
0.0
 10
11.8711282468
 20
4.5675944615
 30
0.0
 10
11.8705845071
 20
4.5463651789
 30
0.0
 10
11.8699525414
 20
4.5180572685
 30
0.0
 10
11.8693003705
 20
4.4826694981
 30
0.0
 10
11.8686724018
 20
4.4402017076
 30
0.0
 10
11.8681625438
 20
4.3977323452
 30
0.0
 10
11.8677402808
 20
4.3552620398
 30
0.0
 10
11.8673842661
 20
4.3127911336
 30
0.0
 10
11.8670810684
 20
4.2703198202
 30
0.0
 10
11.8667390212
 20
4.2136909977
 30
0.0
 10
11.8664054325
 20
4.1429044429
 30
0.0
 10
11.8661259833
 20
4.0579601065
 30
0.0
 10
11.8660467295
 20
4.0013302499
 30
0.0
 10
11.8660469762
 20
3.9730153255
 30
0.0
 11
11.8745712102
 21
4.6524665979
 31
0.0
 11
11.8734445407
 21
4.6312604213
 31
0.0
 11
11.8729681924
 21
4.62065283
 31
0.0
 11
11.8725361176
 21
4.6100434044
 31
0.0
 11
11.8717809429
 21
4.5888206493
 31
0.0
 11
11.8711431806
 21
4.5675940669
 31
0.0
 11
11.8705961348
 21
4.5463649075
 31
0.0
 11
11.8701197182
 21
4.5251340349
 31
0.0
 11
11.8693261433
 21
4.4826690923
 31
0.0
 11
11.868692087
 21
4.4402014481
 31
0.0
 11
11.868177143
 21
4.3977321894
 31
0.0
 11
11.8677513222
 21
4.355261941
 31
0.0
 11
11.8673930689
 21
4.3127910658
 31
0.0
 11
11.8670888455
 21
4.2703197696
 31
0.0
 11
11.8668307977
 21
4.2278481674
 31
0.0
 11
11.8664255754
 21
4.1429043652
 31
0.0
 11
11.8661527447
 21
4.0579600328
 31
0.0
 11
11.8660469762
 21
3.9730153255
 31
0.0
  0
SPLINE
  5
2DF
100
AcDbEntity
  8
0
100
AcDbSpline
 62
9
  6
CONTINUOUS
 70
0
 71
3
 72
88
 73
84
 74
82
 42
0.0000001
 43
0.0000001
 44
0.0000000001
 12
-0.0012340764
 22
-1.0778252253
 32
0.0
 13
-0.2163690154
 23
-1.0558850259
 33
0.0
 40
0.0
 40
0.0
 40
0.0
 40
0.0
 40
0.0049157232
 40
0.0073760725
 40
0.0098343495
 40
0.0122925753
 40
0.014749767
 40
0.0172064516
 40
0.0196629779
 40
0.0245747447
 40
0.0294859733
 40
0.0343966455
 40
0.0393067757
 40
0.0491251812
 40
0.0589411312
 40
0.0687543272
 40
0.0785644878
 40
0.0883713322
 40
0.0981745757
 40
0.1177690944
 40
0.1373456979
 40
0.1569019595
 40
0.1764353864
 40
0.1959434131
 40
0.2154233943
 40
0.2348725961
 40
0.2736672275
 40
0.3123032752
 40
0.3507545707
 40
0.3889924477
 40
0.4269851868
 40
0.4646973721
 40
0.5020891367
 40
0.539115245
 40
0.5757239771
 40
0.6118555285
 40
0.6474406928
 40
0.6823988662
 40
0.7166341703
 40
0.7500345579
 40
0.7824657622
 40
0.8137657343
 40
0.8437411635
 40
0.8721572603
 40
0.88569359
 40
0.8987338109
 40
0.9112321137
 40
0.9231390892
 40
0.9344053198
 40
0.9449803311
 40
0.9548061415
 40
0.9638215208
 40
0.971965226
 40
0.9756911312
 40
0.979176852
 40
0.9824156391
 40
0.9854007447
 40
0.9881254214
 40
0.9905829215
 40
0.9927664976
 40
0.9946694532
 40
0.995514036
 40
0.9962868852
 40
0.9969876824
 40
0.9976161092
 40
0.9981718475
 40
0.9986545788
 40
0.9990639849
 40
0.9992410915
 40
0.9993997474
 40
0.9995399128
 40
0.9996615481
 40
0.9997646133
 40
0.9998490686
 40
0.9998843052
 40
0.9999148745
 40
0.9999407714
 40
0.999961991
 40
0.9999785285
 40
0.9999903787
 40
0.9999945447
 40
0.9999975372
 40
1.0
 40
1.0
 40
1.0
 40
1.0
 10
11.8590091807
 20
3.9730153255
 30
0.0
 10
11.8590071586
 20
3.9712492287
 30
0.0
 10
11.8592326473
 20
3.9685942044
 30
0.0
 10
11.859911442
 20
3.9651253885
 30
0.0
 10
11.8605881438
 20
3.9625609935
 30
0.0
 10
11.8614020031
 20
3.9600389083
 30
0.0
 10
11.8623255145
 20
3.9575557489
 30
0.0
 10
11.8633382237
 20
3.9551085502
 30
0.0
 10
11.8647809636
 20
3.951886601
 30
0.0
 10
11.8667213917
 20
3.9479230652
 30
0.0
 10
11.8692062636
 20
3.9432484551
 30
0.0
 10
11.871792759
 20
3.938630267
 30
0.0
 10
11.8753419342
 20
3.9325317448
 30
0.0
 10
11.8799121144
 20
3.9249895442
 30
0.0
 10
11.8855193863
 20
3.9160177324
 30
0.0
 10
11.8912039526
 20
3.9070982673
 30
0.0
 10
11.8969393524
 20
3.8982153718
 30
0.0
 10
11.9027096719
 20
3.8893594059
 30
0.0
 10
11.9104347901
 20
3.8775815811
 30
0.0
 10
11.9201344327
 20
3.8629012431
 30
0.0
 10
11.9318127369
 20
3.8453285901
 30
0.0
 10
11.9435096961
 20
3.827794732
 30
0.0
 10
11.9552139873
 20
3.8102954064
 30
0.0
 10
11.9669180643
 20
3.792828919
 30
0.0
 10
11.978616372
 20
3.7753949973
 30
0.0
 10
11.9941868068
 20
3.752214721
 30
0.0
 10
12.0136108704
 20
3.7233321693
 30
0.0
 10
12.0368610689
 20
3.6887955314
 30
0.0
 10
12.060010608
 20
3.6544322638
 30
0.0
 10
12.0830387973
 20
3.6202659267
 30
0.0
 10
12.1059242529
 20
3.5863236165
 30
0.0
 10
12.1286440271
 20
3.552636227
 30
0.0
 10
12.1511728812
 20
3.5192389637
 30
0.0
 10
12.1734825911
 20
3.4861720832
 30
0.0
 10
12.1955410956
 20
3.4534818945
 30
0.0
 10
12.2173116588
 20
3.4212219412
 30
0.0
 10
12.2387518374
 20
3.3894544343
 30
0.0
 10
12.2598119422
 20
3.3582523308
 30
0.0
 10
12.2804338241
 20
3.3277014469
 30
0.0
 10
12.3005485708
 20
3.2979035947
 30
0.0
 10
12.3200738066
 20
3.2689801806
 30
0.0
 10
12.3389109256
 20
3.2410768809
 30
0.0
 10
12.3569412407
 20
3.2143693893
 30
0.0
 10
12.3714008174
 20
3.1929515329
 30
0.0
 10
12.3824560242
 20
3.1765765145
 30
0.0
 10
12.3903113026
 20
3.1649413206
 30
0.0
 10
12.3978390745
 20
3.1537913249
 30
0.0
 10
12.4050102752
 20
3.1431696028
 30
0.0
 10
12.4117949006
 20
3.1331206182
 30
0.0
 10
12.4181612245
 20
3.1236913885
 30
0.0
 10
12.4240751387
 20
3.1149324432
 30
0.0
 10
12.4295003687
 20
3.1068975175
 30
0.0
 10
12.43369934
 20
3.1006789509
 30
0.0
 10
12.4367866435
 20
3.0961069116
 30
0.0
 10
12.4388878153
 20
3.0929953342
 30
0.0
 10
12.4408400775
 20
3.0901043522
 30
0.0
 10
12.4426393556
 20
3.0874399905
 30
0.0
 10
12.4442815752
 20
3.0850082733
 30
0.0
 10
12.4457626624
 20
3.0828152252
 30
0.0
 10
12.4470785517
 20
3.0808668543
 30
0.0
 10
12.448070143
 20
3.0793987224
 30
0.0
 10
12.4487780655
 20
3.078350612
 30
0.0
 10
12.4492442416
 20
3.0776604141
 30
0.0
 10
12.4496669428
 20
3.0770345663
 30
0.0
 10
12.4500459709
 20
3.0764733487
 30
0.0
 10
12.4503811277
 20
3.0759770415
 30
0.0
 10
12.4506722152
 20
3.0755459249
 30
0.0
 10
12.4508871446
 20
3.0752275245
 30
0.0
 10
12.4510368989
 20
3.0750056055
 30
0.0
 10
12.4511325273
 20
3.0748638575
 30
0.0
 10
12.4512169898
 20
3.0747386172
 30
0.0
 10
12.4512902615
 20
3.0746299199
 30
0.0
 10
12.4513523187
 20
3.0745378006
 30
0.0
 10
12.4513970031
 20
3.0744714063
 30
0.0
 10
12.4514271233
 20
3.0744266038
 30
0.0
 10
12.4514454868
 20
3.074399252
 30
0.0
 10
12.4514610462
 20
3.0743760737
 30
0.0
 10
12.4514737301
 20
3.0743570634
 30
0.0
 10
12.4514837193
 20
3.0743422533
 30
0.0
 10
12.4514899904
 20
3.0743324803
 30
0.0
 10
12.4514940151
 20
3.0743268169
 30
0.0
 10
12.4514954217
 20
3.0743238473
 30
0.0
 10
12.4514974258
 20
3.0743223397
 30
0.0
 10
12.4514972482
 20
3.0743214729
 30
0.0
 11
11.8590091807
 21
3.9730153255
 31
0.0
 11
11.859433681
 21
3.9677340644
 31
0.0
 11
11.8599395345
 21
3.9651309307
 31
0.0
 11
11.8606110601
 21
3.9625678455
 31
0.0
 11
11.8614204321
 21
3.960044955
 31
0.0
 11
11.8623404837
 21
3.9575614777
 31
0.0
 11
11.8633498437
 21
3.9551135291
 31
0.0
 11
11.8644295801
 21
3.9526959838
 31
0.0
 11
11.8667475871
 21
3.9479364045
 31
0.0
 11
11.8692233436
 21
3.9432575972
 31
0.0
 11
11.8718054982
 21
3.9386373444
 31
0.0
 11
11.8744638882
 21
3.9340612064
 31
0.0
 11
11.8799332698
 21
3.9250016342
 31
0.0
 11
11.8855330604
 21
3.9160252027
 31
0.0
 11
11.8912133082
 21
3.9071029854
 31
0.0
 11
11.8969461451
 21
3.8982183606
 31
0.0
 11
11.9027148504
 21
3.8893612479
 31
0.0
 11
11.9085087562
 21
3.8805252404
 31
0.0
 11
11.9201458291
 21
3.8629010813
 31
0.0
 11
11.9318219242
 21
3.8453259279
 31
0.0
 11
11.943517756
 21
3.8277902509
 31
0.0
 11
11.9552215694
 21
3.8102895007
 31
0.0
 11
11.9669255233
 21
3.7928217891
 31
0.0
 11
11.9786239408
 21
3.7753867595
 31
0.0
 11
11.9903124097
 21
3.7579850083
 31
0.0
 11
12.0136453973
 21
3.7232867294
 31
0.0
 11
12.0368999918
 21
3.6887417183
 31
0.0
 11
12.0600547565
 21
3.6543695535
 31
0.0
 11
12.0830889772
 21
3.6201935392
 31
0.0
 11
12.1059813205
 21
3.5862405269
 31
0.0
 11
12.1287089471
 21
3.5525411572
 31
0.0
 11
12.1512467808
 21
3.5191303472
 31
0.0
 11
12.1735668018
 21
3.4860480082
 31
0.0
 11
12.1956372662
 21
3.4533399694
 31
0.0
 11
12.2174216959
 21
3.4210593776
 31
0.0
 11
12.2388780331
 21
3.389267839
 31
0.0
 11
12.2599573926
 21
3.3580371726
 31
0.0
 11
12.2806017847
 21
3.3274529149
 31
0.0
 11
12.3007434815
 21
3.2976150542
 31
0.0
 11
12.320301269
 21
3.2686433704
 31
0.0
 11
12.3391772457
 21
3.2406825065
 31
0.0
 11
12.3572547527
 21
3.213905097
 31
0.0
 11
12.3743921141
 21
3.1885208282
 31
0.0
 11
12.3825557636
 21
3.1764287937
 31
0.0
 11
12.3904202532
 21
3.1647799609
 31
0.0
 11
12.3979579613
 21
3.1536152548
 31
0.0
 11
12.4051391001
 21
3.1429788203
 31
0.0
 11
12.4119338773
 21
3.1329148094
 31
0.0
 11
12.418311862
 21
3.1234683179
 31
0.0
 11
12.4242380913
 21
3.1146911443
 31
0.0
 11
12.4296756407
 21
3.1066379875
 31
0.0
 11
12.4345875777
 21
3.0993635582
 31
0.0
 11
12.4368349415
 21
3.0960354016
 31
0.0
 11
12.4389374709
 21
3.0929218151
 31
0.0
 11
12.4408910906
 21
3.0900288245
 31
0.0
 11
12.4426917263
 21
3.0873624543
 31
0.0
 11
12.4443353037
 21
3.0849287289
 31
0.0
 11
12.4458177487
 21
3.0827336725
 31
0.0
 11
12.4471349869
 21
3.0807833095
 31
0.0
 11
12.4482829745
 21
3.0790836181
 31
0.0
 11
12.4487924903
 21
3.0783292548
 31
0.0
 11
12.4492587291
 21
3.0776389613
 31
0.0
 11
12.4496814927
 21
3.0770130176
 31
0.0
 11
12.4500605826
 21
3.0764517038
 31
0.0
 11
12.4503958005
 21
3.0759552998
 31
0.0
 11
12.450686948
 21
3.0755240858
 31
0.0
 11
12.4509338268
 21
3.0751583417
 31
0.0
 11
12.4510406035
 21
3.0750001084
 31
0.0
 11
12.4511362386
 21
3.0748583477
 31
0.0
 11
12.4512207074
 21
3.0747330944
 31
0.0
 11
12.451293985
 21
3.0746243837
 31
0.0
 11
12.4513560467
 21
3.0745322506
 31
0.0
 11
12.4514068676
 21
3.0744567299
 31
0.0
 11
12.4514280551
 21
3.0744252103
 31
0.0
 11
12.451446423
 21
3.0743978568
 31
0.0
 11
12.4514619684
 21
3.0743746741
 31
0.0
 11
12.4514746881
 21
3.0743556663
 31
0.0
 11
12.4514845791
 21
3.0743408379
 31
0.0
 11
12.4514916381
 21
3.0743301933
 31
0.0
 11
12.4514941047
 21
3.0743264413
 31
0.0
 11
12.4514958622
 21
3.0743237369
 31
0.0
 11
12.4514972482
 21
3.0743214729
 31
0.0
  0
SPLINE
  5
2E0
100
AcDbEntity
  8
0
100
AcDbSpline
 62
9
  6
CONTINUOUS
 70
0
 71
3
 72
91
 73
87
 74
85
 42
0.0000001
 43
0.0000001
 44
0.0000000001
 12
-0.0009393571
 22
-1.0639707408
 32
0.0
 13
1.0275455463
 23
-0.2760158845
 33
0.0
 40
0.0
 40
0.0
 40
0.0
 40
0.0
 40
0.0024637172
 40
0.0037059759
 40
0.0049447904
 40
0.006177703
 40
0.0074093913
 40
0.0086416146
 40
0.0098733638
 40
0.0111036732
 40
0.0123333439
 40
0.014792131
 40
0.0172504731
 40
0.0197086825
 40
0.024623948
 40
0.0295385662
 40
0.034452508
 40
0.0393657599
 40
0.0442782948
 40
0.0491900857
 40
0.0590112882
 40
0.0688291553
 40
0.0786434137
 40
0.0884537881
 40
0.0982599987
 40
0.1178587843
 40
0.1374374665
 40
0.1569936673
 40
0.1765249461
 40
0.1960287925
 40
0.2155026194
 40
0.2349437542
 40
0.2543494296
 40
0.2737167746
 40
0.3123243795
 40
0.3507410257
 40
0.3889387514
 40
0.4268866209
 40
0.4645500955
 40
0.5018902963
 40
0.5388631084
 40
0.5754180759
 40
0.6114968027
 40
0.6470316492
 40
0.6819438536
 40
0.7161395138
 40
0.7495086498
 40
0.7819193921
 40
0.813211768
 40
0.8431951225
 40
0.8716363665
 40
0.8851921644
 40
0.898256648
 40
0.9107838456
 40
0.92272407
 40
0.9340276255
 40
0.9446437195
 40
0.9545135378
 40
0.9635747038
 40
0.9717648246
 40
0.9755137996
 40
0.979022201
 40
0.9822830077
 40
0.9852892005
 40
0.9880337604
 40
0.990509668
 40
0.9927099045
 40
0.9946275003
 40
0.9962573648
 40
0.9969635499
 40
0.997596816
 40
0.9981568476
 40
0.9986433293
 40
0.9990559454
 40
0.9993943805
 40
0.9995356815
 40
0.9996583189
 40
0.9997622532
 40
0.9998474451
 40
0.9999138551
 40
0.9999400046
 40
0.9999614437
 40
0.9999781677
 40
0.9999901717
 40
0.9999974506
 40
1.0
 40
1.0
 40
1.0
 40
1.0
 10
11.8660469761
 20
3.9730153255
 30
0.0
 10
11.8660462047
 20
3.9721415511
 30
0.0
 10
11.866237809
 20
3.970822552
 30
0.0
 10
11.8667694588
 20
3.9691503068
 30
0.0
 10
11.867286877
 20
3.9679366431
 30
0.0
 10
11.8679025487
 20
3.9667750574
 30
0.0
 10
11.8685976127
 20
3.9656622625
 30
0.0
 10
11.8693553601
 20
3.9645921358
 30
0.0
 10
11.8701588803
 20
3.9635568551
 30
0.0
 10
11.8709968963
 20
3.9625505791
 30
0.0
 10
11.8721545447
 20
3.9612452584
 30
0.0
 10
11.8736650831
 20
3.9596722866
 30
0.0
 10
11.8755450544
 20
3.9578530101
 30
0.0
 10
11.8781204288
 20
3.9555017028
 30
0.0
 10
11.8814323024
 20
3.9526674895
 30
0.0
 10
11.8854963439
 20
3.9493766459
 30
0.0
 10
11.8896197719
 20
3.9461618943
 30
0.0
 10
11.8937842556
 20
3.9430019258
 30
0.0
 10
11.897978414
 20
3.9398827957
 30
0.0
 10
11.9035997331
 20
3.9357661931
 30
0.0
 10
11.9106681525
 20
3.9306814985
 30
0.0
 10
11.9191918295
 20
3.924643011
 30
0.0
 10
11.9277423746
 20
3.9186493459
 30
0.0
 10
11.9363109253
 20
3.9126887166
 30
0.0
 10
11.9477494104
 20
3.9047770746
 30
0.0
 10
11.9620672811
 20
3.8949383577
 30
0.0
 10
11.9792653985
 20
3.8831856098
 30
0.0
 10
11.9964648142
 20
3.8714772619
 30
0.0
 10
12.0136577273
 20
3.8598065668
 30
0.0
 10
12.0308383893
 20
3.8481698623
 30
0.0
 10
12.0480021659
 20
3.8365652517
 30
0.0
 10
12.0651450804
 20
3.8249919563
 30
0.0
 10
12.0822635337
 20
3.8134499276
 30
0.0
 10
12.1050260792
 20
3.7981196666
 30
0.0
 10
12.1333943115
 20
3.7790428869
 30
0.0
 10
12.1673223495
 20
3.7562661784
 30
0.0
 10
12.2010720244
 20
3.7336435896
 30
0.0
 10
12.234614287
 20
3.7111913321
 30
0.0
 10
12.2679172688
 20
3.6889283577
 30
0.0
 10
12.3009454392
 20
3.6668765454
 30
0.0
 10
12.3336587054
 20
3.6450611035
 30
0.0
 10
12.3660112713
 20
3.6235111613
 30
0.0
 10
12.3979504305
 20
3.6022605206
 30
0.0
 10
12.4294151142
 20
3.5813485351
 30
0.0
 10
12.460333724
 20
3.5608214636
 30
0.0
 10
12.490622099
 20
3.5407337894
 30
0.0
 10
12.5201803119
 20
3.5211502991
 30
0.0
 10
12.548888742
 20
3.502148478
 30
0.0
 10
12.5766038396
 20
3.4838214961
 30
0.0
 10
12.6031520866
 20
3.4662822835
 30
0.0
 10
12.6244575829
 20
3.4522191124
 30
0.0
 10
12.6407583412
 20
3.441466139
 30
0.0
 10
12.6523492111
 20
3.4338231529
 30
0.0
 10
12.6634630294
 20
3.4264975424
 30
0.0
 10
12.6740565909
 20
3.4195174316
 30
0.0
 10
12.6840852614
 20
3.4129118827
 30
0.0
 10
12.6935017102
 20
3.4067117486
 30
0.0
 10
12.7022547962
 20
3.4009502734
 30
0.0
 10
12.71028993
 20
3.3956629447
 30
0.0
 10
12.716512157
 20
3.3915696611
 30
0.0
 10
12.7210893948
 20
3.388559087
 30
0.0
 10
12.7242061329
 20
3.386509346
 30
0.0
 10
12.7271028541
 20
3.3846044824
 30
0.0
 10
12.7297732922
 20
3.382848561
 30
0.0
 10
12.732211182
 20
3.3812456467
 30
0.0
 10
12.734410258
 20
3.3797998036
 30
0.0
 10
12.7363642712
 20
3.3785150892
 30
0.0
 10
12.7380675388
 20
3.3773951769
 30
0.0
 10
12.7393280274
 20
3.3765663234
 30
0.0
 10
12.7402079219
 20
3.3759877202
 30
0.0
 10
12.7407707936
 20
3.3756175852
 30
0.0
 10
12.7412685641
 20
3.3752902668
 30
0.0
 10
12.7417009562
 20
3.3750059543
 30
0.0
 10
12.7420676927
 20
3.3747648374
 30
0.0
 10
12.7423321509
 20
3.3745909962
 30
0.0
 10
12.7425106847
 20
3.3744736674
 30
0.0
 10
12.7426197244
 20
3.3744020268
 30
0.0
 10
12.7427121409
 20
3.374341324
 30
0.0
 10
12.7427879046
 20
3.3742915945
 30
0.0
 10
12.7428406094
 20
3.374257001
 30
0.0
 10
12.7428744359
 20
3.3742348645
 30
0.0
 10
12.7428934996
 20
3.3742223244
 30
0.0
 10
12.7429084452
 20
3.3742127148
 30
0.0
 10
12.7429190241
 20
3.3742054581
 30
0.0
 10
12.7429257328
 20
3.3742017498
 30
0.0
 10
12.7429284428
 20
3.3741993334
 30
0.0
 10
12.742929316
 20
3.3741990988
 30
0.0
 11
11.8660469761
 21
3.9730153255
 31
0.0
 11
11.866392379
 21
3.9704168574
 31
0.0
 11
11.8667896078
 21
3.9691562335
 31
0.0
 11
11.8673044185
 21
3.9679428664
 31
0.0
 11
11.8679161805
 21
3.9667824686
 31
0.0
 11
11.8686079919
 21
3.9656694738
 31
0.0
 11
11.8693631397
 21
3.9645977444
 31
0.0
 11
11.8701650443
 21
3.9635611737
 31
0.0
 11
11.8710021823
 21
3.9625548354
 31
0.0
 11
11.8718695276
 21
3.96157532
 31
0.0
 11
11.8736764495
 21
3.9596835219
 31
0.0
 11
11.8755537458
 21
3.9578622177
 31
0.0
 11
11.8774830293
 21
3.9560962855
 31
0.0
 11
11.8814475301
 21
3.9526856401
 31
0.0
 11
11.8855065226
 21
3.9493891046
 31
0.0
 11
11.8896269061
 21
3.9461708006
 31
0.0
 11
11.8937895063
 21
3.9430085031
 31
0.0
 11
11.8979824282
 21
3.9398877985
 31
0.0
 11
11.9021978686
 21
3.9367989189
 31
0.0
 11
11.9106764152
 21
3.9306910714
 31
0.0
 11
11.919197877
 21
3.9246493755
 31
0.0
 11
11.9277470699
 21
3.9186536688
 31
0.0
 11
11.936314796
 21
3.9126917077
 31
0.0
 11
11.9448950872
 21
3.9067556271
 31
0.0
 11
11.9620782213
 21
3.8949417187
 31
0.0
 11
11.9792754985
 21
3.8831862689
 31
0.0
 11
11.9964746986
 21
3.8714760817
 31
0.0
 11
12.013667768
 21
3.8598040394
 31
0.0
 11
12.0308488055
 21
3.8481662582
 31
0.0
 11
12.0480131046
 21
3.8365607316
 31
0.0
 11
12.0651566463
 21
3.8249866137
 31
0.0
 11
12.0822758093
 21
3.8134438182
 31
0.0
 11
12.0993671959
 21
3.8019327819
 31
0.0
 11
12.1334535322
 21
3.7790095915
 31
0.0
 11
12.1673894861
 21
3.7562268889
 31
0.0
 11
12.2011480675
 21
3.7335978877
 31
0.0
 11
12.2347003733
 21
3.7111386176
 31
0.0
 11
12.2680147251
 21
3.6888678449
 31
0.0
 11
12.3010558433
 21
3.6668072525
 31
0.0
 11
12.3337839501
 21
3.6449818155
 31
0.0
 11
12.3661537207
 21
3.6234203467
 31
0.0
 11
12.3981128296
 21
3.6021563871
 31
0.0
 11
12.4296007602
 21
3.5812289171
 31
0.0
 11
12.4605471033
 21
3.5606834104
 31
0.0
 11
12.4908679773
 21
3.5405741696
 31
0.0
 11
12.5204651625
 21
3.5209648272
 31
0.0
 11
12.549220897
 21
3.5019316839
 31
0.0
 11
12.57699241
 21
3.4835674295
 31
0.0
 11
12.6036096325
 21
3.4659826537
 31
0.0
 11
12.6288646084
 21
3.4493125028
 31
0.0
 11
12.6409040407
 21
3.4413705659
 31
0.0
 11
12.6525085213
 21
3.4337186034
 31
0.0
 11
12.663637054
 21
3.4263832968
 31
0.0
 11
12.6742453361
 21
3.4193934937
 31
0.0
 11
12.6842890571
 21
3.4127780462
 31
0.0
 11
12.6937229271
 21
3.4065664407
 31
0.0
 11
12.7024944901
 21
3.4007928003
 31
0.0
 11
12.7105481084
 21
3.395493307
 31
0.0
 11
12.7178281294
 21
3.3907041524
 31
0.0
 11
12.7211606978
 21
3.38851223
 31
0.0
 11
12.7242795155
 21
3.3864611194
 31
0.0
 11
12.7271783153
 21
3.384554886
 31
0.0
 11
12.7298508316
 21
3.3827975942
 31
0.0
 11
12.732290799
 21
3.3811933084
 31
0.0
 11
12.7344919518
 21
3.3797460928
 31
0.0
 11
12.7364480246
 21
3.3784600118
 31
0.0
 11
12.7381527968
 21
3.3773391015
 31
0.0
 11
12.73960174
 21
3.3763863337
 31
0.0
 11
12.7402295298
 21
3.3759735111
 31
0.0
 11
12.7407924957
 21
3.3756033157
 31
0.0
 11
12.7412903607
 21
3.3752759371
 31
0.0
 11
12.7417228476
 21
3.3749915653
 31
0.0
 11
12.7420896795
 21
3.3747503898
 31
0.0
 11
12.7423905792
 21
3.3745526004
 31
0.0
 11
12.742516218
 21
3.3744700348
 31
0.0
 11
12.7426252698
 21
3.3743983869
 31
0.0
 11
12.7427177001
 21
3.3743376804
 31
0.0
 11
12.7427934742
 21
3.3742879389
 31
0.0
 11
12.7428525574
 21
3.3742491864
 31
0.0
 11
12.7428758292
 21
3.3742339383
 31
0.0
 11
12.7428949153
 21
3.3742214464
 31
0.0
 11
12.7429098113
 21
3.3742117135
 31
0.0
 11
12.742920513
 21
3.3742047426
 31
0.0
 11
12.742927016
 21
3.3742005367
 31
0.0
 11
12.742929316
 21
3.3741990988
 31
0.0
  0
SPLINE
  5
2E1
100
AcDbEntity
  8
0
100
AcDbSpline
 62
6
  6
CONTINUOUS
 70
0
 71
3
 72
30
 73
26
 74
24
 42
0.0000001
 43
0.0000001
 44
0.0000000001
 12
-0.3546688857
 22
0.0
 32
0.0
 13
-0.2545190207
 23
-0.2470021995
 33
0.0
 40
0.0
 40
0.0
 40
0.0
 40
0.0
 40
0.086497817
 40
0.1724841455
 40
0.2572071586
 40
0.3399948892
 40
0.4202732719
 40
0.4974784818
 40
0.5710635658
 40
0.6404915422
 40
0.7052644778
 40
0.7357712554
 40
0.7649552032
 40
0.7927658016
 40
0.8191592159
 40
0.8441004175
 40
0.8675568483
 40
0.8894985636
 40
0.9098992054
 40
0.928741999
 40
0.9460262035
 40
0.9617611055
 40
0.9759688755
 40
0.9886908856
 40
1.0
 40
1.0
 40
1.0
 40
1.0
 10
11.8264972482
 20
12.4485175223
 30
0.0
 10
11.8162712201
 20
12.4485175223
 30
0.0
 10
11.7958793015
 20
12.4483627596
 30
0.0
 10
11.7654782225
 20
12.4476725104
 30
0.0
 10
11.7355296587
 20
12.446527495
 30
0.0
 10
11.706277286
 20
12.4449349748
 30
0.0
 10
11.6779424694
 20
12.4429104879
 30
0.0
 10
11.6507327397
 20
12.4404667297
 30
0.0
 10
11.6248514883
 20
12.43762531
 30
0.0
 10
11.6004958844
 20
12.4344079307
 30
0.0
 10
11.5812585595
 20
12.4313752863
 30
0.0
 10
11.5667774831
 20
12.4287620782
 30
0.0
 10
11.5566272372
 20
12.4267634106
 30
0.0
 10
11.5469887748
 20
12.4246901569
 30
0.0
 10
11.5378803166
 20
12.4225460036
 30
0.0
 10
11.5293182107
 20
12.4203358029
 30
0.0
 10
11.5213178846
 20
12.4180639904
 30
0.0
 10
11.5138946021
 20
12.4157350932
 30
0.0
 10
11.507063012
 20
12.4133533364
 30
0.0
 10
11.5008359935
 20
12.4109226618
 30
0.0
 10
11.4952237602
 20
12.4084481965
 30
0.0
 10
11.4902351122
 20
12.4059344339
 30
0.0
 10
11.4858779224
 20
12.4033851678
 30
0.0
 10
11.4821603146
 20
12.4008042238
 30
0.0
 10
11.4799906064
 20
12.398959152
 30
0.0
 10
11.4790311448
 20
12.3980280267
 30
0.0
 11
11.8264972482
 21
12.4485175223
 31
0.0
 11
11.7958200465
 21
12.4482848128
 31
0.0
 11
11.7653312936
 21
12.4475897198
 31
0.0
 11
11.7353047989
 21
12.4464369066
 31
0.0
 11
11.7059863059
 21
12.4448348311
 31
0.0
 11
11.6775871095
 21
12.4427966081
 31
0.0
 11
11.6503155627
 21
12.4403364649
 31
0.0
 11
11.6243746824
 21
12.4374739365
 31
0.0
 11
11.5999652613
 21
12.4342306768
 31
0.0
 11
11.5772761516
 21
12.430630608
 31
0.0
 11
11.5666289814
 21
12.4287055254
 31
0.0
 11
11.5564741329
 21
12.4267018375
 31
0.0
 11
11.5468321084
 21
12.4246231217
 31
0.0
 11
11.5377213985
 21
12.4224732749
 31
0.0
 11
11.5291577626
 21
12.4202566278
 31
0.0
 11
11.5211567653
 21
12.4179775421
 31
0.0
 11
11.513733971
 21
12.4156403795
 31
0.0
 11
11.5069049321
 21
12.4132495018
 31
0.0
 11
11.5006834052
 21
12.4108093258
 31
0.0
 11
11.4950794762
 21
12.4083243796
 31
0.0
 11
11.490102782
 21
12.405799205
 31
0.0
 11
11.4857629601
 21
12.4032383438
 31
0.0
 11
11.4820696469
 21
12.400646338
 31
0.0
 11
11.4790311448
 21
12.3980280267
 31
0.0
  0
SPLINE
  5
2E2
100
AcDbEntity
  8
0
100
AcDbSpline
 62
6
  6
CONTINUOUS
 70
0
 71
3
 72
33
 73
29
 74
27
 42
0.0000001
 43
0.0000001
 44
0.0000000001
 12
0.2970033454
 22
0.2970033454
 32
0.0
 13
-0.2970033454
 23
0.2970033454
 33
0.0
 40
0.0
 40
0.0
 40
0.0
 40
0.0
 40
0.0699789265
 40
0.1042083195
 40
0.1378955952
 40
0.1710193475
 40
0.2035590225
 40
0.2668385458
 40
0.3277640123
 40
0.3574148529
 40
0.386580339
 40
0.4153281635
 40
0.4437447709
 40
0.4719317448
 40
0.5000000438
 40
0.5280683391
 40
0.5562553114
 40
0.5846719185
 40
0.6134197343
 40
0.642585212
 40
0.6722360481
 40
0.733161494
 40
0.7964410052
 40
0.8289806688
 40
0.8621044103
 40
0.8957916807
 40
0.9300210723
 40
1.0
 40
1.0
 40
1.0
 40
1.0
 10
10.0764972482
 20
3.251327489
 30
0.0
 10
10.08342524
 20
3.2582554807
 30
0.0
 10
10.0935243505
 20
3.2687959197
 30
0.0
 10
10.1063114742
 20
3.2832635724
 30
0.0
 10
10.1153658483
 20
3.2941358786
 30
0.0
 10
10.123918185
 20
3.3051097371
 30
0.0
 10
10.1344985728
 20
3.3197413729
 30
0.0
 10
10.1463040468
 20
3.3382739085
 30
0.0
 10
10.1561047379
 20
3.3575064246
 30
0.0
 10
10.1623924098
 20
3.3730574063
 30
0.0
 10
10.1662783332
 20
3.3846939873
 30
0.0
 10
10.1693428676
 20
3.3963957063
 30
0.0
 10
10.171550295
 20
3.4081504972
 30
0.0
 10
10.1728852397
 20
3.4199407069
 30
0.0
 10
10.1733346886
 20
3.431749466
 30
0.0
 10
10.1728852488
 20
3.443558226
 30
0.0
 10
10.1715502794
 20
3.4553484322
 30
0.0
 10
10.169342861
 20
3.4671032225
 30
0.0
 10
10.1662783328
 20
3.4788049412
 30
0.0
 10
10.1623923967
 20
3.4904415148
 30
0.0
 10
10.1561047287
 20
3.5059924927
 30
0.0
 10
10.1463040389
 20
3.5252250039
 30
0.0
 10
10.1344985651
 20
3.5437575322
 30
0.0
 10
10.1239181807
 20
3.5583891645
 30
0.0
 10
10.1153658463
 20
3.56936302
 30
0.0
 10
10.1063114736
 20
3.5802353241
 30
0.0
 10
10.0935243505
 20
3.5947029763
 30
0.0
 10
10.0834252401
 20
3.6052434153
 30
0.0
 10
10.0764972482
 20
3.6121714072
 30
0.0
 11
10.0764972482
 21
3.251327489
 31
0.0
 11
10.0967923993
 21
3.2725890529
 31
0.0
 11
10.106307937
 21
3.2833667886
 31
0.0
 11
10.115356402
 21
3.294244963
 31
0.0
 11
10.1239011675
 21
3.3052246792
 31
0.0
 11
10.1319017616
 21
3.3163058097
 31
0.0
 11
10.1461068497
 21
3.3387704851
 31
0.0
 11
10.1576383593
 21
3.3616153361
 31
0.0
 11
10.1622963372
 21
3.3731655985
 31
0.0
 11
10.1661664384
 21
3.3847884794
 31
0.0
 11
10.1692153282
 21
3.3964720573
 31
0.0
 11
10.1714121947
 21
3.4082038582
 31
0.0
 11
10.1727397203
 21
3.4199684621
 31
0.0
 11
10.1731850847
 21
3.4317494667
 31
0.0
 11
10.1727397238
 21
3.4435304699
 31
0.0
 11
10.1714121848
 21
3.4552950716
 31
0.0
 11
10.1692153208
 21
3.4670268729
 31
0.0
 11
10.1661664349
 21
3.478710448
 31
0.0
 11
10.1622963269
 21
3.4903333229
 31
0.0
 11
10.1576383484
 21
3.5018835831
 31
0.0
 11
10.1461068421
 21
3.524728426
 31
0.0
 11
10.1319017544
 21
3.5471930956
 31
0.0
 11
10.1239011632
 21
3.5582742223
 31
0.0
 11
10.1153564005
 21
3.569253935
 31
0.0
 11
10.1063079368
 21
3.5801321076
 31
0.0
 11
10.0967923995
 21
3.5909098428
 31
0.0
 11
10.0764972482
 21
3.6121714072
 31
0.0
  0
SPLINE
  5
2E3
100
AcDbEntity
  8
0
100
AcDbSpline
 62
9
  6
CONTINUOUS
 70
0
 71
3
 72
55
 73
51
 74
49
 42
0.0000001
 43
0.0000001
 44
0.0000000001
 12
-0.0822988555
 22
-0.4066508106
 32
0.0
 13
-0.355336554
 23
-0.214181972
 33
0.0
 40
0.0
 40
0.0
 40
0.0
 40
0.0
 40
0.0000047124
 40
0.0000185505
 40
0.0000415133
 40
0.0000735993
 40
0.0001148065
 40
0.0001651333
 40
0.0002931381
 40
0.0004575993
 40
0.0006585024
 40
0.0008958327
 40
0.0011695758
 40
0.0014797171
 40
0.0018262422
 40
0.0026283853
 40
0.0035758889
 40
0.0046686367
 40
0.0059065124
 40
0.0072893998
 40
0.0088171827
 40
0.0104897448
 40
0.0142687263
 40
0.0186244222
 40
0.0235533698
 40
0.0290519705
 40
0.035116626
 40
0.0417437378
 40
0.0489297079
 40
0.0566709214
 40
0.0738007066
 40
0.0930910798
 40
0.1144987452
 40
0.1379797278
 40
0.16348153
 40
0.1909458634
 40
0.2203143651
 40
0.2515274291
 40
0.2845202164
 40
0.3555806692
 40
0.4329636255
 40
0.5161246386
 40
0.6045229602
 40
0.6505201899
 40
0.6976283227
 40
0.745782782
 40
0.7949204494
 40
0.8449791912
 40
0.8958947504
 40
1.0
 40
1.0
 40
1.0
 40
1.0
 10
12.4198816177
 20
5.0927847322
 30
0.0
 10
12.4198814884
 20
5.0927840935
 30
0.0
 10
12.4198785942
 20
5.0927830206
 30
0.0
 10
12.4198749042
 20
5.0927790005
 30
0.0
 10
12.4198668952
 20
5.0927734474
 30
0.0
 10
12.4198565686
 20
5.0927651884
 30
0.0
 10
12.4198429475
 20
5.0927547977
 30
0.0
 10
12.419818931
 20
5.0927362495
 30
0.0
 10
12.4197813303
 20
5.092707358
 30
0.0
 10
12.4197272469
 20
5.0926657652
 30
0.0
 10
12.4196611515
 20
5.0926149795
 30
0.0
 10
12.4195830706
 20
5.0925549908
 30
0.0
 10
12.4194930028
 20
5.0924858056
 30
0.0
 10
12.4193909567
 20
5.0924074244
 30
0.0
 10
12.4192309542
 20
5.0922845315
 30
0.0
 10
12.4190010462
 20
5.0921079453
 30
0.0
 10
12.4186893034
 20
5.0918684815
 30
0.0
 10
12.4183297903
 20
5.0915922835
 30
0.0
 10
12.4179225555
 20
5.0912793673
 30
0.0
 10
12.4174676474
 20
5.0909297489
 30
0.0
 10
12.4169651147
 20
5.0905434442
 30
0.0
 10
12.4161999247
 20
5.0899550971
 30
0.0
 10
12.4151248509
 20
5.089128154
 30
0.0
 10
12.413693022
 20
5.088026359
 30
0.0
 10
12.4120727672
 20
5.0867794631
 30
0.0
 10
12.4102651533
 20
5.085388497
 30
0.0
 10
12.4082712512
 20
5.0838545175
 30
0.0
 10
12.406092134
 20
5.082178578
 30
0.0
 10
12.4037288769
 20
5.0803617332
 30
0.0
 10
12.4002134843
 20
5.0776603835
 30
0.0
 10
12.3953693656
 20
5.0739407845
 30
0.0
 10
12.3890239999
 20
5.0690729044
 30
0.0
 10
12.3819793021
 20
5.0636735492
 30
0.0
 10
12.3742504459
 20
5.0577546994
 30
0.0
 10
12.3658519282
 20
5.0513326312
 30
0.0
 10
12.3567987457
 20
5.0444262594
 30
0.0
 10
12.3471069806
 20
5.0370547248
 30
0.0
 10
12.3367933265
 20
5.0292378872
 30
0.0
 10
12.3218597911
 20
5.0179708551
 30
0.0
 10
12.3017686757
 20
5.0029382317
 30
0.0
 10
12.2759940005
 20
4.9839213874
 30
0.0
 10
12.2481124419
 20
4.9637232942
 30
0.0
 10
12.2235636887
 20
4.9463258591
 30
0.0
 10
12.2029586513
 20
4.9319894566
 30
0.0
 10
12.1868540521
 20
4.9209304041
 30
0.0
 10
12.1703164533
 20
4.9097353939
 30
0.0
 10
12.1533563541
 20
4.8984375338
 30
0.0
 10
12.1359852142
 20
4.8870690074
 30
0.0
 10
12.1121163652
 20
4.8717490634
 30
0.0
 10
12.0938947875
 20
4.8604478147
 30
0.0
 10
12.0815639873
 20
4.8530153255
 30
0.0
 11
12.4198816177
 21
5.0927847322
 31
0.0
 11
12.4198800983
 21
5.0927835017
 31
0.0
 11
12.4198755728
 21
5.0927799686
 31
0.0
 11
12.4198680419
 21
5.0927741331
 31
0.0
 11
12.4198575064
 21
5.0927659956
 31
0.0
 11
12.419843967
 21
5.0927555562
 31
0.0
 11
12.4198274244
 21
5.0927428152
 31
0.0
 11
12.419785333
 21
5.0927104294
 31
0.0
 11
12.4197312383
 21
5.0926688403
 31
0.0
 11
12.4196651462
 21
5.0926180498
 31
0.0
 11
12.4195870629
 21
5.0925580598
 31
0.0
 11
12.4194969945
 21
5.0924888725
 31
0.0
 11
12.419394947
 21
5.0924104898
 31
0.0
 11
12.4192809265
 21
5.0923229136
 31
0.0
 11
12.4190169907
 21
5.092120189
 31
0.0
 11
12.4187052358
 21
5.0918807146
 31
0.0
 11
12.4183457103
 21
5.0916045064
 31
0.0
 11
12.4179384627
 21
5.0912915803
 31
0.0
 11
12.4174835417
 21
5.0909419524
 31
0.0
 11
12.4169809959
 21
5.0905556384
 31
0.0
 11
12.4164308738
 21
5.0901326544
 31
0.0
 11
12.415188099
 21
5.0891767454
 31
0.0
 11
12.41375586
 21
5.0880746982
 31
0.0
 11
12.4121351937
 21
5.0868275208
 31
0.0
 11
12.4103271719
 21
5.0854362689
 31
0.0
 11
12.4083328662
 21
5.0839019978
 31
0.0
 11
12.4061533484
 21
5.082225763
 31
0.0
 11
12.4037896901
 21
5.0804086199
 31
0.0
 11
12.401242969
 21
5.0784516275
 31
0.0
 11
12.3956060629
 21
5.0741231567
 31
0.0
 11
12.389255982
 21
5.069251586
 31
0.0
 11
12.3822065414
 21
5.0638484219
 31
0.0
 11
12.3744716482
 21
5.0579255146
 31
0.0
 11
12.3660663608
 21
5.0514990311
 31
0.0
 11
12.3570065231
 21
5.0445880808
 31
0.0
 11
12.3473079939
 21
5.0372118302
 31
0.0
 11
12.3369867209
 21
5.0293902141
 31
0.0
 11
12.3260590182
 21
5.021146329
 31
0.0
 11
12.3024499547
 21
5.0034873933
 31
0.0
 11
12.2766104469
 21
4.9844321298
 31
0.0
 11
12.2486652241
 21
4.9641953194
 31
0.0
 11
12.2187393511
 21
4.9429921677
 31
0.0
 11
12.2030737929
 21
4.9320930673
 31
0.0
 11
12.1869612464
 21
4.9210300498
 31
0.0
 11
12.1704153757
 21
4.9098319846
 31
0.0
 11
12.1534472513
 21
4.8985310246
 31
0.0
 11
12.1360678125
 21
4.8871594885
 31
0.0
 11
12.1182877126
 21
4.8757525804
 31
0.0
 11
12.0815639873
 21
4.8530153255
 31
0.0
  0
SPLINE
  5
2E4
100
AcDbEntity
  8
0
100
AcDbSpline
 62
6
  6
CONTINUOUS
 70
0
 71
3
 72
30
 73
26
 74
24
 42
0.0000001
 43
0.0000001
 44
0.0000000001
 12
-0.2545190207
 22
0.2470021995
 32
0.0
 13
-0.3546688857
 23
0.0
 33
0.0
 40
0.0
 40
0.0
 40
0.0
 40
0.0
 40
0.0113091144
 40
0.0240311245
 40
0.0382388945
 40
0.0539737965
 40
0.071258001
 40
0.0901007946
 40
0.1105014364
 40
0.1324431517
 40
0.1558995825
 40
0.1808407841
 40
0.2072341984
 40
0.2350447968
 40
0.2642287446
 40
0.2947355222
 40
0.3595084578
 40
0.4289364342
 40
0.5025215182
 40
0.5797267281
 40
0.6600051108
 40
0.7427928414
 40
0.8275158545
 40
0.913502183
 40
1.0
 40
1.0
 40
1.0
 40
1.0
 10
12.1739633516
 20
12.3980280267
 30
0.0
 10
12.17300389
 20
12.398959152
 30
0.0
 10
12.1708341819
 20
12.4008042238
 30
0.0
 10
12.167116574
 20
12.4033851678
 30
0.0
 10
12.1627593842
 20
12.4059344339
 30
0.0
 10
12.1577707363
 20
12.4084481965
 30
0.0
 10
12.1521585029
 20
12.4109226618
 30
0.0
 10
12.1459314845
 20
12.4133533364
 30
0.0
 10
12.1390998944
 20
12.4157350932
 30
0.0
 10
12.1316766118
 20
12.4180639904
 30
0.0
 10
12.1236762858
 20
12.4203358029
 30
0.0
 10
12.1151141798
 20
12.4225460036
 30
0.0
 10
12.1060057216
 20
12.4246901569
 30
0.0
 10
12.0963672592
 20
12.4267634106
 30
0.0
 10
12.0862170133
 20
12.4287620782
 30
0.0
 10
12.0717359369
 20
12.4313752863
 30
0.0
 10
12.0524986121
 20
12.4344079307
 30
0.0
 10
12.0281430081
 20
12.43762531
 30
0.0
 10
12.0022617567
 20
12.4404667297
 30
0.0
 10
11.975052027
 20
12.4429104879
 30
0.0
 10
11.9467172104
 20
12.4449349748
 30
0.0
 10
11.9174648378
 20
12.446527495
 30
0.0
 10
11.887516274
 20
12.4476725104
 30
0.0
 10
11.8571151949
 20
12.4483627596
 30
0.0
 10
11.8367232763
 20
12.4485175223
 30
0.0
 10
11.8264972482
 20
12.4485175223
 30
0.0
 11
12.1739633516
 21
12.3980280267
 31
0.0
 11
12.1709248495
 21
12.400646338
 31
0.0
 11
12.1672315364
 21
12.4032383438
 31
0.0
 11
12.1628917144
 21
12.405799205
 31
0.0
 11
12.1579150203
 21
12.4083243796
 31
0.0
 11
12.1523110912
 21
12.4108093258
 31
0.0
 11
12.1460895643
 21
12.4132495018
 31
0.0
 11
12.1392605254
 21
12.4156403795
 31
0.0
 11
12.1318377312
 21
12.4179775421
 31
0.0
 11
12.1238367338
 21
12.4202566278
 31
0.0
 11
12.1152730979
 21
12.4224732749
 31
0.0
 11
12.106162388
 21
12.4246231217
 31
0.0
 11
12.0965203635
 21
12.4267018375
 31
0.0
 11
12.086365515
 21
12.4287055254
 31
0.0
 11
12.0757183448
 21
12.430630608
 31
0.0
 11
12.0530292351
 21
12.4342306768
 31
0.0
 11
12.028619814
 21
12.4374739365
 31
0.0
 11
12.0026789338
 21
12.4403364649
 31
0.0
 11
11.9754073869
 21
12.4427966081
 31
0.0
 11
11.9470081905
 21
12.4448348311
 31
0.0
 11
11.9176896975
 21
12.4464369066
 31
0.0
 11
11.8876632028
 21
12.4475897198
 31
0.0
 11
11.85717445
 21
12.4482848128
 31
0.0
 11
11.8264972482
 21
12.4485175223
 31
0.0
  0
SPLINE
  5
2E5
100
AcDbEntity
  8
0
100
AcDbSpline
 62
9
  6
CONTINUOUS
 70
0
 71
3
 72
66
 73
62
 74
60
 42
0.0000001
 43
0.0000001
 44
0.0000000001
 12
-0.482703959
 22
-0.0327628045
 32
0.0
 13
0.0748340383
 23
-0.4779920281
 33
0.0
 40
0.0
 40
0.0
 40
0.0
 40
0.0
 40
0.0000011496
 40
0.0000045427
 40
0.000010195
 40
0.0000181085
 40
0.0000407208
 40
0.0000723802
 40
0.0001130855
 40
0.000162835
 40
0.0002216271
 40
0.0002894599
 40
0.00045224
 40
0.0006511602
 40
0.000886205
 40
0.0011573591
 40
0.0014646068
 40
0.0018079327
 40
0.0026027569
 40
0.0035417073
 40
0.0046246594
 40
0.0058514888
 40
0.0072220709
 40
0.0087362813
 40
0.0103939955
 40
0.0141394365
 40
0.0184569413
 40
0.0233438147
 40
0.0287971519
 40
0.0348140482
 40
0.0413915989
 40
0.0485268997
 40
0.0562170424
 40
0.0644585501
 40
0.0732467812
 40
0.0924442789
 40
0.1137712681
 40
0.1371888642
 40
0.1626502066
 40
0.1901028993
 40
0.219494432
 40
0.2507694297
 40
0.2838641941
 40
0.3187135241
 40
0.355251972
 40
0.4331096085
 40
0.474278249
 40
0.5168384118
 40
0.5607064012
 40
0.6057959113
 40
0.6520206381
 40
0.6992947587
 40
0.7475336293
 40
0.7719884594
 40
0.796652818
 40
0.8215161576
 40
0.846566947
 40
0.8717908002
 40
0.8971729628
 40
0.948354402
 40
1.0
 40
1.0
 40
1.0
 40
1.0
 10
10.3520887112
 20
4.5580153255
 30
0.0
 10
10.3520885263
 20
4.5580153129
 30
0.0
 10
10.3520888143
 20
4.5580141723
 30
0.0
 10
10.3520886127
 20
4.5580129198
 30
0.0
 10
10.352088966
 20
4.5580099712
 30
0.0
 10
10.3520893497
 20
4.5580042906
 30
0.0
 10
10.352090351
 20
4.5579942051
 30
0.0
 10
10.3520918154
 20
4.5579790097
 30
0.0
 10
10.3520938236
 20
4.5579593986
 30
0.0
 10
10.3520963074
 20
4.5579354651
 30
0.0
 10
10.3520992931
 20
4.5579071756
 30
0.0
 10
10.3521042405
 20
4.5578607668
 30
0.0
 10
10.3521116755
 20
4.5577918948
 30
0.0
 10
10.3521221015
 20
4.5576962235
 30
0.0
 10
10.3521345015
 20
4.5575831859
 30
0.0
 10
10.3521488724
 20
4.5574527897
 30
0.0
 10
10.3521652119
 20
4.557305042
 30
0.0
 10
10.3521909005
 20
4.5570733603
 30
0.0
 10
10.3522279282
 20
4.5567404359
 30
0.0
 10
10.3522782554
 20
4.5562889746
 30
0.0
 10
10.3523363828
 20
4.5557682812
 30
0.0
 10
10.352402286
 20
4.5551784135
 30
0.0
 10
10.3524759406
 20
4.5545194294
 30
0.0
 10
10.3525573219
 20
4.5537913868
 30
0.0
 10
10.3526812362
 20
4.5526827161
 30
0.0
 10
10.3528552785
 20
4.5511247416
 30
0.0
 10
10.353086933
 20
4.5490491923
 30
0.0
 10
10.3533492019
 20
4.5466999146
 30
0.0
 10
10.3536421263
 20
4.5440782932
 30
0.0
 10
10.3539657605
 20
4.5411857484
 30
0.0
 10
10.3543201547
 20
4.5380236999
 30
0.0
 10
10.3547053604
 20
4.5345935682
 30
0.0
 10
10.3551214213
 20
4.530896866
 30
0.0
 10
10.3555683387
 20
4.5269353832
 30
0.0
 10
10.3562248661
 20
4.5211299668
 30
0.0
 10
10.3571219108
 20
4.5132279836
 30
0.0
 10
10.3582909547
 20
4.5029824262
 30
0.0
 10
10.3595812721
 20
4.4917339739
 30
0.0
 10
10.3609911518
 20
4.4795048589
 30
0.0
 10
10.3625183219
 20
4.4663194607
 30
0.0
 10
10.3641604516
 20
4.4522035345
 30
0.0
 10
10.3659148994
 20
4.4371846345
 30
0.0
 10
10.3677782849
 20
4.4212922894
 30
0.0
 10
10.3697470286
 20
4.4045576394
 30
0.0
 10
10.3725680728
 20
4.3806544988
 30
0.0
 10
10.3755195966
 20
4.3557405618
 30
0.0
 10
10.3785892624
 20
4.3298626999
 30
0.0
 10
10.3810137138
 20
4.3094282945
 30
0.0
 10
10.3835153808
 20
4.2883662908
 30
0.0
 10
10.3860922047
 20
4.2667180705
 30
0.0
 10
10.3887417318
 20
4.2445253157
 30
0.0
 10
10.3914624338
 20
4.2218295511
 30
0.0
 10
10.393780757
 20
4.2026215556
 30
0.0
 10
10.3956748474
 20
4.187035138
 30
0.0
 10
10.3971215348
 20
4.1751918942
 30
0.0
 10
10.3985878752
 20
4.1632542281
 30
0.0
 10
10.400075107
 20
4.1512282218
 30
0.0
 10
10.4015967668
 20
4.139122176
 30
0.0
 10
10.4036940027
 20
4.1228412591
 30
0.0
 10
10.4064638932
 20
4.1023508112
 30
0.0
 10
10.4088918757
 20
4.0859457073
 30
0.0
 10
10.4101801586
 20
4.0777169792
 30
0.0
 11
10.3520887112
 21
4.5580153255
 31
0.0
 11
10.3520886478
 21
4.5580147729
 31
0.0
 11
10.352088709
 21
4.5580131324
 31
0.0
 11
10.3520888948
 21
4.5580104041
 31
0.0
 11
10.3520892051
 21
4.558006588
 31
0.0
 11
10.3520901989
 21
4.5579956931
 31
0.0
 11
10.3520916902
 21
4.5579804486
 31
0.0
 11
10.3520936785
 21
4.5579608554
 31
0.0
 11
10.3520961634
 21
4.5579369144
 31
0.0
 11
10.3520991446
 21
4.5579086266
 31
0.0
 11
10.3521026217
 21
4.5578759928
 31
0.0
 11
10.3521110618
 21
4.557797691
 31
0.0
 11
10.3521214807
 21
4.5577020162
 31
0.0
 11
10.3521338753
 21
4.5575889756
 31
0.0
 11
10.3521482424
 21
4.5574585764
 31
0.0
 11
10.352164579
 21
4.5573108259
 31
0.0
 11
10.3521828818
 21
4.5571457312
 31
0.0
 11
10.3522253737
 21
4.5567635386
 31
0.0
 11
10.3522756934
 21
4.5563120563
 31
0.0
 11
10.3523338158
 21
4.5557913421
 31
0.0
 11
10.3523997159
 21
4.5552014538
 31
0.0
 11
10.3524733688
 21
4.5545424494
 31
0.0
 11
10.3525547495
 21
4.5538143865
 31
0.0
 11
10.352643833
 21
4.553017323
 31
0.0
 11
10.3528450087
 21
4.5512164258
 31
0.0
 11
10.3530767564
 21
4.5491404495
 31
0.0
 11
10.3533391013
 21
4.546790709
 31
0.0
 11
10.3536320963
 21
4.5441686241
 31
0.0
 11
10.3539557941
 21
4.5412756151
 31
0.0
 11
10.3543102476
 21
4.5381131019
 31
0.0
 11
10.3546955097
 21
4.5346825047
 31
0.0
 11
10.3551116328
 21
4.5309852452
 31
0.0
 11
10.3555586267
 21
4.5270230178
 31
0.0
 11
10.3560364133
 21
4.5227980737
 31
0.0
 11
10.3570840092
 21
4.5135693133
 31
0.0
 11
10.3582537101
 21
4.5033175198
 31
0.0
 11
10.3595447356
 21
4.4920615427
 31
0.0
 11
10.3609554051
 21
4.4798240133
 31
0.0
 11
10.3624834134
 21
4.4666301878
 31
0.0
 11
10.3641264425
 21
4.4525053761
 31
0.0
 11
10.3658818915
 21
4.4374762511
 31
0.0
 11
10.3677463373
 21
4.4215734436
 31
0.0
 11
10.3697162089
 21
4.404828299
 31
0.0
 11
10.3717878831
 21
4.3872722765
 31
0.0
 11
10.3762169223
 21
4.3498649067
 31
0.0
 11
10.3785629051
 21
4.3300855596
 31
0.0
 11
10.3809892967
 21
4.309637792
 31
0.0
 11
10.3834930179
 21
4.288562016
 31
0.0
 11
10.3860718146
 21
4.2669000142
 31
0.0
 11
10.3887234376
 21
4.244693571
 31
0.0
 11
10.3914469385
 21
4.221984395
 31
0.0
 11
10.3942445453
 21
4.1988140092
 31
0.0
 11
10.3956719832
 21
4.1870688298
 31
0.0
 11
10.3971189613
 21
4.1752239088
 31
0.0
 11
10.3985858199
 21
4.1632844336
 31
0.0
 11
10.4000756673
 21
4.1512564159
 31
0.0
 11
10.401599761
 21
4.1391482935
 31
0.0
 11
10.4031708505
 21
4.1269689483
 31
0.0
 11
10.4065050153
 21
4.1024321176
 31
0.0
 11
10.4101801586
 21
4.0777169792
 31
0.0
  0
SPLINE
  5
2E6
100
AcDbEntity
  8
0
100
AcDbSpline
 62
9
  6
CONTINUOUS
 70
0
 71
3
 72
75
 73
71
 74
69
 42
0.0000001
 43
0.0000001
 44
0.0000000001
 12
0.0
 22
0.7342832229
 32
0.0
 13
0.0
 23
-0.7342832229
 33
0.0
 40
0.0
 40
0.0
 40
0.0
 40
0.0
 40
0.0020489254
 40
0.0041390471
 40
0.0063070913
 40
0.0085856675
 40
0.0110025875
 40
0.0135808857
 40
0.0163392757
 40
0.0192927902
 40
0.0224534392
 40
0.0258308017
 40
0.0294325146
 40
0.0332641788
 40
0.037329323
 40
0.0416303302
 40
0.0461687282
 40
0.050945362
 40
0.0612134321
 40
0.0724328594
 40
0.0845961753
 40
0.0976880422
 40
0.1116835716
 40
0.1265553605
 40
0.1422746228
 40
0.158811557
 40
0.176133931
 40
0.1942021765
 40
0.2129744885
 40
0.2324086275
 40
0.273090831
 40
0.3158845412
 40
0.3603885035
 40
0.4061950838
 40
0.4528782708
 40
0.5
 40
0.5471217292
 40
0.5938049162
 40
0.6396114965
 40
0.6841154588
 40
0.726909169
 40
0.7675913725
 40
0.7870255115
 40
0.8057978235
 40
0.823866069
 40
0.841188443
 40
0.8577253772
 40
0.8734446395
 40
0.8883164284
 40
0.9023119578
 40
0.9154038247
 40
0.9275671406
 40
0.9387865679
 40
0.949054638
 40
0.9538312718
 40
0.9583696698
 40
0.962670677
 40
0.9667358212
 40
0.9705674854
 40
0.9741691983
 40
0.9775465608
 40
0.9807072098
 40
0.9836607243
 40
0.9864191143
 40
0.9889974125
 40
0.9914143325
 40
0.9936929087
 40
0.9958609529
 40
0.9979510746
 40
1.0
 40
1.0
 40
1.0
 40
1.0
 10
12.1794972482
 20
12.4955485684
 30
0.0
 10
12.1794972482
 20
12.4960500656
 30
0.0
 10
12.1794242293
 20
12.4970645557
 30
0.0
 10
12.1790982736
 20
12.4985781329
 30
0.0
 10
12.1785574186
 20
12.5000884654
 30
0.0
 10
12.1778036928
 20
12.5015938506
 30
0.0
 10
12.1768388414
 20
12.5030936659
 30
0.0
 10
12.1756642021
 20
12.5045873841
 30
0.0
 10
12.1742807662
 20
12.50607454
 30
0.0
 10
12.1726892958
 20
12.5075545657
 30
0.0
 10
12.170890424
 20
12.5090267731
 30
0.0
 10
12.1688847391
 20
12.51049038
 30
0.0
 10
12.166672872
 20
12.5119443815
 30
0.0
 10
12.1642559643
 20
12.5133878734
 30
0.0
 10
12.1616357877
 20
12.5148203535
 30
0.0
 10
12.158814204
 20
12.5162410461
 30
0.0
 10
12.1557931367
 20
12.5176492286
 30
0.0
 10
12.1513946704
 20
12.5195552215
 30
0.0
 10
12.1454019069
 20
12.5218882315
 30
0.0
 10
12.1376099931
 20
12.5245628883
 30
0.0
 10
12.1290696238
 20
12.5271688695
 30
0.0
 10
12.1198006941
 20
12.5296997261
 30
0.0
 10
12.1098263635
 20
12.5321503078
 30
0.0
 10
12.0991716219
 20
12.5345144666
 30
0.0
 10
12.0878617238
 20
12.5367862019
 30
0.0
 10
12.0759223844
 20
12.5389594103
 30
0.0
 10
12.0633814355
 20
12.5410277972
 30
0.0
 10
12.0502696183
 20
12.542987355
 30
0.0
 10
12.0366196404
 20
12.5448336542
 30
0.0
 10
12.0174526923
 20
12.5471741418
 30
0.0
 10
11.9923955329
 20
12.5497659468
 30
0.0
 10
11.9611727682
 20
12.5523143777
 30
0.0
 10
11.9286541879
 20
12.5543258676
 30
0.0
 10
11.8951529726
 20
12.5557751964
 30
0.0
 10
11.8609910216
 20
12.5566504085
 30
0.0
 10
11.8264972482
 20
12.5569448165
 30
0.0
 10
11.7920034749
 20
12.5566504085
 30
0.0
 10
11.7578415238
 20
12.5557751964
 30
0.0
 10
11.7243403085
 20
12.5543258676
 30
0.0
 10
11.6918217282
 20
12.5523143777
 30
0.0
 10
11.6605989635
 20
12.5497659468
 30
0.0
 10
11.6355418042
 20
12.5471741418
 30
0.0
 10
11.6163748561
 20
12.5448336542
 30
0.0
 10
11.6027248781
 20
12.542987355
 30
0.0
 10
11.5896130609
 20
12.5410277972
 30
0.0
 10
11.577072112
 20
12.5389594103
 30
0.0
 10
11.5651327727
 20
12.5367862019
 30
0.0
 10
11.5538228745
 20
12.5345144666
 30
0.0
 10
11.5431681329
 20
12.5321503078
 30
0.0
 10
11.5331938023
 20
12.5296997261
 30
0.0
 10
11.5239248726
 20
12.5271688695
 30
0.0
 10
11.5153845034
 20
12.5245628883
 30
0.0
 10
11.5075925896
 20
12.5218882315
 30
0.0
 10
11.501599826
 20
12.5195552215
 30
0.0
 10
11.4972013597
 20
12.5176492286
 30
0.0
 10
11.4941802925
 20
12.5162410461
 30
0.0
 10
11.4913587087
 20
12.5148203535
 30
0.0
 10
11.4887385321
 20
12.5133878734
 30
0.0
 10
11.4863216244
 20
12.5119443815
 30
0.0
 10
11.4841097574
 20
12.51049038
 30
0.0
 10
11.4821040724
 20
12.5090267731
 30
0.0
 10
11.4803052006
 20
12.5075545657
 30
0.0
 10
11.4787137303
 20
12.50607454
 30
0.0
 10
11.4773302943
 20
12.5045873841
 30
0.0
 10
11.476155655
 20
12.5030936659
 30
0.0
 10
11.4751908036
 20
12.5015938506
 30
0.0
 10
11.4744370778
 20
12.5000884654
 30
0.0
 10
11.4738962228
 20
12.4985781329
 30
0.0
 10
11.4735702672
 20
12.4970645557
 30
0.0
 10
11.4734972482
 20
12.4960500656
 30
0.0
 10
11.4734972482
 20
12.4955485684
 30
0.0
 11
12.1794972482
 21
12.4955485684
 31
0.0
 11
12.1793904311
 21
12.4970492632
 31
0.0
 11
12.1790704352
 21
12.498550274
 31
0.0
 11
12.1785379436
 21
12.5000505355
 31
0.0
 11
12.1777936397
 21
12.5015489824
 31
0.0
 11
12.1768382064
 21
12.5030445494
 31
0.0
 11
12.175672327
 21
12.5045361713
 31
0.0
 11
12.1742966847
 21
12.5060227827
 31
0.0
 11
12.1727119626
 21
12.5075033183
 31
0.0
 11
12.170918844
 21
12.5089767129
 31
0.0
 11
12.1689180119
 21
12.5104419011
 31
0.0
 11
12.1667101577
 21
12.5118978195
 31
0.0
 11
12.1642964616
 21
12.5133435041
 31
0.0
 11
12.1616788613
 21
12.5147781459
 31
0.0
 11
12.1588593597
 21
12.5162009494
 31
0.0
 11
12.1558399599
 21
12.5176111187
 31
0.0
 11
12.1526226648
 21
12.5190078582
 31
0.0
 11
12.1456024005
 21
12.521757865
 31
0.0
 11
12.1378145905
 21
12.5244446043
 31
0.0
 11
12.1292753168
 21
12.5270617136
 31
0.0
 11
12.1200041678
 21
12.5296030167
 31
0.0
 11
12.1100261657
 21
12.532062626
 31
0.0
 11
12.0993668008
 21
12.5344346787
 31
0.0
 11
12.0880515629
 21
12.536713312
 31
0.0
 11
12.076105942
 21
12.5388926632
 31
0.0
 11
12.0635567163
 21
12.5409671131
 31
0.0
 11
12.0504358168
 21
12.5429320172
 31
0.0
 11
12.0367764628
 21
12.5447829744
 31
0.0
 11
12.0226118733
 21
12.5465155837
 31
0.0
 11
11.9929001349
 21
12.5496082345
 31
0.0
 11
11.9615828188
 21
12.5521796163
 31
0.0
 11
11.9289672424
 21
12.5542067775
 31
0.0
 11
11.8953640001
 21
12.5556681308
 31
0.0
 11
11.8610966788
 21
12.5565505517
 31
0.0
 11
11.8264972482
 21
12.5568463751
 31
0.0
 11
11.7918978176
 21
12.5565505517
 31
0.0
 11
11.7576304964
 21
12.5556681308
 31
0.0
 11
11.724027254
 21
12.5542067775
 31
0.0
 11
11.6914116776
 21
12.5521796163
 31
0.0
 11
11.6600943615
 21
12.5496082345
 31
0.0
 11
11.6303826231
 21
12.5465155837
 31
0.0
 11
11.6162180337
 21
12.5447829744
 31
0.0
 11
11.6025586796
 21
12.5429320172
 31
0.0
 11
11.5894377801
 21
12.5409671131
 31
0.0
 11
11.5768885545
 21
12.5388926632
 31
0.0
 11
11.5649429336
 21
12.536713312
 31
0.0
 11
11.5536276956
 21
12.5344346787
 31
0.0
 11
11.5429683307
 21
12.532062626
 31
0.0
 11
11.5329903287
 21
12.5296030167
 31
0.0
 11
11.5237191796
 21
12.5270617136
 31
0.0
 11
11.515179906
 21
12.5244446043
 31
0.0
 11
11.5073920959
 21
12.521757865
 31
0.0
 11
11.5003718316
 21
12.5190078582
 31
0.0
 11
11.4971545365
 21
12.5176111187
 31
0.0
 11
11.4941351367
 21
12.5162009494
 31
0.0
 11
11.4913156351
 21
12.5147781459
 31
0.0
 11
11.4886980348
 21
12.5133435041
 31
0.0
 11
11.4862843387
 21
12.5118978195
 31
0.0
 11
11.4840764845
 21
12.5104419011
 31
0.0
 11
11.4820756524
 21
12.5089767129
 31
0.0
 11
11.4802825338
 21
12.5075033183
 31
0.0
 11
11.4786978117
 21
12.5060227827
 31
0.0
 11
11.4773221694
 21
12.5045361713
 31
0.0
 11
11.47615629
 21
12.5030445494
 31
0.0
 11
11.4752008568
 21
12.5015489824
 31
0.0
 11
11.4744565528
 21
12.5000505355
 31
0.0
 11
11.4739240613
 21
12.498550274
 31
0.0
 11
11.4736040653
 21
12.4970492632
 31
0.0
 11
11.4734972482
 21
12.4955485684
 31
0.0
  0
SPLINE
  5
2E7
100
AcDbEntity
  8
0
100
AcDbSpline
 62
9
  6
CONTINUOUS
 70
0
 71
3
 72
73
 73
69
 74
67
 42
0.0000001
 43
0.0000001
 44
0.0000000001
 12
0.0
 22
0.9454249701
 32
0.0
 13
0.0
 23
-0.9454249701
 33
0.0
 40
0.0
 40
0.0
 40
0.0
 40
0.0
 40
0.0020529505
 40
0.0041457809
 40
0.0063151871
 40
0.0085940095
 40
0.0110104843
 40
0.0135881331
 40
0.0163459415
 40
0.0192990367
 40
0.022459406
 40
0.0258365165
 40
0.0294376531
 40
0.0332680303
 40
0.0373314977
 40
0.0416308821
 40
0.0509437135
 40
0.0612132582
 40
0.0724355244
 40
0.0846001438
 40
0.0976896541
 40
0.1116832311
 40
0.1265551089
 40
0.1422762348
 40
0.158815003
 40
0.1761359462
 40
0.1942022459
 40
0.2129738658
 40
0.2324090068
 40
0.2730928274
 40
0.3158841709
 40
0.3603892636
 40
0.4061958666
 40
0.4528778987
 40
0.5
 40
0.5471221013
 40
0.5938041334
 40
0.6396107364
 40
0.6841158291
 40
0.7269071726
 40
0.7675909932
 40
0.7870261342
 40
0.8057977541
 40
0.8238640538
 40
0.841184997
 40
0.8577237652
 40
0.8734448911
 40
0.8883167689
 40
0.9023103459
 40
0.9153998562
 40
0.9275644756
 40
0.9387867418
 40
0.9490562865
 40
0.9583691179
 40
0.9626685023
 40
0.9667319697
 40
0.9705623469
 40
0.9741634835
 40
0.977540594
 40
0.9807009633
 40
0.9836540585
 40
0.9864118669
 40
0.9889895157
 40
0.9914059905
 40
0.9936848129
 40
0.9958542191
 40
0.9979470495
 40
1.0
 40
1.0
 40
1.0
 40
1.0
 10
11.3719972482
 20
11.8239096808
 30
0.0
 10
11.3719972482
 20
11.824556651
 30
0.0
 10
11.3720907504
 20
11.8258649715
 30
0.0
 10
11.3725089337
 20
11.8278166912
 30
0.0
 10
11.3732035955
 20
11.8297633893
 30
0.0
 10
11.3741726255
 20
11.8317028105
 30
0.0
 10
11.3754142485
 20
11.8336340663
 30
0.0
 10
11.3769270409
 20
11.8355563717
 30
0.0
 10
11.3787093358
 20
11.8374694857
 30
0.0
 10
11.3807598419
 20
11.8393729838
 30
0.0
 10
11.383077409
 20
11.8412662877
 30
0.0
 10
11.3856609335
 20
11.8431486183
 30
0.0
 10
11.3885090977
 20
11.8450190435
 30
0.0
 10
11.3916201913
 20
11.8468767245
 30
0.0
 10
11.3949923851
 20
11.8487206914
 30
0.0
 10
11.3999681699
 20
11.851226711
 30
0.0
 10
11.4068436054
 20
11.854298379
 30
0.0
 10
11.4158926352
 20
11.8578217367
 30
0.0
 10
11.4259271011
 20
11.8612658255
 30
0.0
 10
11.4369235711
 20
11.8646216914
 30
0.0
 10
11.4488564001
 20
11.8678817654
 30
0.0
 10
11.4616973942
 20
11.8710373068
 30
0.0
 10
11.4754159791
 20
11.8740808894
 30
0.0
 10
11.489979406
 20
11.8770050181
 30
0.0
 10
11.5053527754
 20
11.8798021572
 30
0.0
 10
11.52149924
 20
11.8824659795
 30
0.0
 10
11.5383799809
 20
11.8849894143
 30
0.0
 10
11.5559544514
 20
11.8873667233
 30
0.0
 10
11.5806335151
 20
11.8903795507
 30
0.0
 10
11.6128959192
 20
11.893716189
 30
0.0
 10
11.6530967031
 20
11.8969993472
 30
0.0
 10
11.6949656943
 20
11.8995871492
 30
0.0
 10
11.7381000609
 20
11.9014541232
 30
0.0
 10
11.7820849766
 20
11.9025817488
 30
0.0
 10
11.8264972482
 20
11.9029588808
 30
0.0
 10
11.8709095198
 20
11.9025817488
 30
0.0
 10
11.9148944356
 20
11.9014541232
 30
0.0
 10
11.9580288021
 20
11.8995871492
 30
0.0
 10
11.9998977933
 20
11.8969993472
 30
0.0
 10
12.0400985772
 20
11.893716189
 30
0.0
 10
12.0723609813
 20
11.8903795507
 30
0.0
 10
12.097040045
 20
11.8873667233
 30
0.0
 10
12.1146145155
 20
11.8849894143
 30
0.0
 10
12.1314952564
 20
11.8824659795
 30
0.0
 10
12.147641721
 20
11.8798021572
 30
0.0
 10
12.1630150904
 20
11.8770050181
 30
0.0
 10
12.1775785174
 20
11.8740808894
 30
0.0
 10
12.1912971022
 20
11.8710373068
 30
0.0
 10
12.2041380964
 20
11.8678817654
 30
0.0
 10
12.2160709254
 20
11.8646216914
 30
0.0
 10
12.2270673954
 20
11.8612658255
 30
0.0
 10
12.2371018612
 20
11.8578217367
 30
0.0
 10
12.246150891
 20
11.854298379
 30
0.0
 10
12.2530263265
 20
11.851226711
 30
0.0
 10
12.2580021113
 20
11.8487206914
 30
0.0
 10
12.2613743052
 20
11.8468767245
 30
0.0
 10
12.2644853988
 20
11.8450190435
 30
0.0
 10
12.2673335629
 20
11.8431486183
 30
0.0
 10
12.2699170875
 20
11.8412662877
 30
0.0
 10
12.2722346545
 20
11.8393729838
 30
0.0
 10
12.2742851606
 20
11.8374694857
 30
0.0
 10
12.2760674555
 20
11.8355563717
 30
0.0
 10
12.2775802479
 20
11.8336340663
 30
0.0
 10
12.2788218709
 20
11.8317028105
 30
0.0
 10
12.2797909009
 20
11.8297633893
 30
0.0
 10
12.2804855628
 20
11.8278166912
 30
0.0
 10
12.280903746
 20
11.8258649715
 30
0.0
 10
12.2809972482
 20
11.824556651
 30
0.0
 10
12.2809972482
 20
11.8239096808
 30
0.0
 11
11.3719972482
 21
11.8239096808
 31
0.0
 11
11.372134241
 21
11.8258457508
 31
0.0
 11
11.3725449486
 21
11.8277812697
 31
0.0
 11
11.373228965
 21
11.8297148588
 31
0.0
 11
11.3741858844
 21
11.8316451397
 31
0.0
 11
11.3754153006
 21
11.8335707338
 31
0.0
 11
11.3769166401
 21
11.8354903223
 31
0.0
 11
11.3786887965
 21
11.8374027761
 31
0.0
 11
11.3807305578
 21
11.839307004
 31
0.0
 11
11.3830407121
 21
11.8412019145
 31
0.0
 11
11.3856180467
 21
11.8430864163
 31
0.0
 11
11.3884611495
 21
11.8449594082
 31
0.0
 11
11.3915680994
 21
11.846819764
 31
0.0
 11
11.3949368963
 21
11.8486663538
 31
0.0
 11
11.3985655396
 21
11.8504980476
 31
0.0
 11
11.4065941286
 21
11.8541122485
 31
0.0
 11
11.4156343041
 21
11.8576536518
 31
0.0
 11
11.425664044
 21
11.8611137677
 31
0.0
 11
11.4366598096
 21
11.8644842339
 31
0.0
 11
11.4485943536
 21
11.8677569993
 31
0.0
 11
11.4614395526
 21
11.8709240975
 31
0.0
 11
11.4751641472
 21
11.8739779448
 31
0.0
 11
11.4897349796
 21
11.8769111889
 31
0.0
 11
11.5051173952
 21
11.8797167063
 31
0.0
 11
11.521273727
 21
11.882387835
 31
0.0
 11
11.5381656125
 21
11.8849180337
 31
0.0
 11
11.5557520204
 21
11.8873012845
 31
0.0
 11
11.5739905983
 21
11.8895318298
 31
0.0
 11
11.6122474413
 21
11.8935136363
 31
0.0
 11
11.6525676915
 21
11.8968250924
 31
0.0
 11
11.694562937
 21
11.8994343349
 31
0.0
 11
11.7378287339
 21
11.9013162543
 31
0.0
 11
11.7819484582
 21
11.9024527249
 31
0.0
 11
11.8264972482
 21
11.9028327776
 31
0.0
 11
11.8710460383
 21
11.9024527249
 31
0.0
 11
11.9151657625
 21
11.9013162543
 31
0.0
 11
11.9584315595
 21
11.8994343349
 31
0.0
 11
12.0004268049
 21
11.8968250924
 31
0.0
 11
12.0407470551
 21
11.8935136363
 31
0.0
 11
12.0790038981
 21
11.8895318298
 31
0.0
 11
12.0972424761
 21
11.8873012845
 31
0.0
 11
12.1148288839
 21
11.8849180337
 31
0.0
 11
12.1317207694
 21
11.882387835
 31
0.0
 11
12.1478771012
 21
11.8797167063
 31
0.0
 11
12.1632595168
 21
11.8769111889
 31
0.0
 11
12.1778303493
 21
11.8739779448
 31
0.0
 11
12.1915549438
 21
11.8709240975
 31
0.0
 11
12.2044001428
 21
11.8677569993
 31
0.0
 11
12.2163346869
 21
11.8644842339
 31
0.0
 11
12.2273304525
 21
11.8611137677
 31
0.0
 11
12.2373601923
 21
11.8576536518
 31
0.0
 11
12.2464003678
 21
11.8541122485
 31
0.0
 11
12.2544289568
 21
11.8504980476
 31
0.0
 11
12.2580576002
 21
11.8486663538
 31
0.0
 11
12.261426397
 21
11.846819764
 31
0.0
 11
12.264533347
 21
11.8449594082
 31
0.0
 11
12.2673764497
 21
11.8430864163
 31
0.0
 11
12.2699537844
 21
11.8412019145
 31
0.0
 11
12.2722639386
 21
11.839307004
 31
0.0
 11
12.2743057
 21
11.8374027761
 31
0.0
 11
12.2760778564
 21
11.8354903223
 31
0.0
 11
12.2775791959
 21
11.8335707338
 31
0.0
 11
12.2788086121
 21
11.8316451397
 31
0.0
 11
12.2797655314
 21
11.8297148588
 31
0.0
 11
12.2804495479
 21
11.8277812697
 31
0.0
 11
12.2808602555
 21
11.8258457508
 31
0.0
 11
12.2809972482
 21
11.8239096808
 31
0.0
  0
SPLINE
  5
2E8
100
AcDbEntity
  8
0
100
AcDbSpline
 62
9
  6
CONTINUOUS
 70
0
 71
3
 72
73
 73
69
 74
67
 42
0.0000001
 43
0.0000001
 44
0.0000000001
 12
-0.0
 22
0.8731349103
 32
0.0
 13
-0.0
 23
-0.8731349103
 33
0.0
 40
0.0
 40
0.0
 40
0.0
 40
0.0
 40
0.0020525431
 40
0.0041451523
 40
0.0063145069
 40
0.0085933946
 40
0.0110099736
 40
0.0135877318
 40
0.0163457709
 40
0.0192991483
 40
0.0224597038
 40
0.0258367277
 40
0.0294374903
 40
0.0332676598
 40
0.0373313024
 40
0.0416309744
 40
0.0509436196
 40
0.0612129337
 40
0.0724357611
 40
0.0845999837
 40
0.0976895207
 40
0.1116833352
 40
0.1265549504
 40
0.1422761349
 40
0.1588149948
 40
0.1761358429
 40
0.1942020469
 40
0.2129738771
 40
0.2324088826
 40
0.2730929165
 40
0.3158840866
 40
0.3603891247
 40
0.4061958758
 40
0.4528778847
 40
0.4999999998
 40
0.5471221148
 40
0.5938041238
 40
0.6396108749
 40
0.684115913
 40
0.7269070831
 40
0.767591117
 40
0.7870261225
 40
0.8057979528
 40
0.8238641568
 40
0.8411850049
 40
0.8577238648
 40
0.8734450493
 40
0.8883166645
 40
0.9023104789
 40
0.9154000159
 40
0.9275642386
 40
0.9387870658
 40
0.94905638
 40
0.9583690252
 40
0.9626686972
 40
0.9667323399
 40
0.9705625093
 40
0.9741632718
 40
0.9775402956
 40
0.9807008509
 40
0.9836542281
 40
0.986412267
 40
0.9889900252
 40
0.9914066043
 40
0.9936854923
 40
0.9958548473
 40
0.9979474568
 40
1.0
 40
1.0
 40
1.0
 40
1.0
 10
11.4067495006
 20
11.6633102626
 30
0.0
 10
11.4067495006
 20
11.663907645
 30
0.0
 10
11.4068359064
 20
11.6651157444
 30
0.0
 10
11.4072222389
 20
11.6669179997
 30
0.0
 10
11.4078638815
 20
11.6687157443
 30
0.0
 10
11.4087588203
 20
11.6705069003
 30
0.0
 10
11.4099053381
 20
11.6722906794
 30
0.0
 10
11.4113022002
 20
11.6740663727
 30
0.0
 10
11.4129483172
 20
11.6758333705
 30
0.0
 10
11.4148422406
 20
11.6775913993
 30
0.0
 10
11.4169827484
 20
11.6793399279
 30
0.0
 10
11.4193686529
 20
11.681078293
 30
0.0
 10
11.4219987862
 20
11.6828057287
 30
0.0
 10
11.4248719073
 20
11.6845212906
 30
0.0
 10
11.4279864276
 20
11.6862241006
 30
0.0
 10
11.4325819564
 20
11.6885382625
 30
0.0
 10
11.4389315145
 20
11.6913753016
 30
0.0
 10
11.4472885847
 20
11.6946295127
 30
0.0
 10
11.4565559027
 20
11.6978098486
 30
0.0
 10
11.4667114948
 20
11.7009094687
 30
0.0
 10
11.4777319071
 20
11.7039201299
 30
0.0
 10
11.489591067
 20
11.7068342663
 30
0.0
 10
11.5022606566
 20
11.7096453112
 30
0.0
 10
11.5157105038
 20
11.7123457721
 30
0.0
 10
11.5299083995
 20
11.714929005
 30
0.0
 10
11.5448202217
 20
11.717389175
 30
0.0
 10
11.5604102078
 20
11.7197197176
 30
0.0
 10
11.576640894
 20
11.7219151067
 30
0.0
 10
11.5994329832
 20
11.7246977499
 30
0.0
 10
11.6292285029
 20
11.7277790363
 30
0.0
 10
11.6663553943
 20
11.7308112928
 30
0.0
 10
11.7050229292
 20
11.7332013061
 30
0.0
 10
11.7448591374
 20
11.7349253991
 30
0.0
 10
11.7854808725
 20
11.7359668011
 30
0.0
 10
11.8264972481
 20
11.7363151846
 30
0.0
 10
11.8675136238
 20
11.735966801
 30
0.0
 10
11.9081353588
 20
11.734925399
 30
0.0
 10
11.9479715671
 20
11.7332013059
 30
0.0
 10
11.9866391019
 20
11.7308112926
 30
0.0
 10
12.0237659933
 20
11.7277790362
 30
0.0
 10
12.0535615131
 20
11.7246977497
 30
0.0
 10
12.0763536022
 20
11.7219151065
 30
0.0
 10
12.0925842885
 20
11.7197197172
 30
0.0
 10
12.1081742747
 20
11.7173891747
 30
0.0
 10
12.1230860969
 20
11.7149290047
 30
0.0
 10
12.1372839926
 20
11.7123457718
 30
0.0
 10
12.1507338398
 20
11.7096453108
 30
0.0
 10
12.1634034293
 20
11.7068342658
 30
0.0
 10
12.1752625892
 20
11.7039201293
 30
0.0
 10
12.1862830015
 20
11.7009094684
 30
0.0
 10
12.1964385937
 20
11.6978098486
 30
0.0
 10
12.2057059117
 20
11.6946295129
 30
0.0
 10
12.2140629817
 20
11.6913753012
 30
0.0
 10
12.2204125395
 20
11.6885382614
 30
0.0
 10
12.2250080682
 20
11.6862240992
 30
0.0
 10
12.2281225885
 20
11.6845212891
 30
0.0
 10
12.2309957097
 20
11.6828057275
 30
0.0
 10
12.2336258432
 20
11.6810782922
 30
0.0
 10
12.2360117479
 20
11.6793399278
 30
0.0
 10
12.238152256
 20
11.6775913998
 30
0.0
 10
12.2400461798
 20
11.6758333715
 30
0.0
 10
12.241692297
 20
11.6740663741
 30
0.0
 10
12.243089159
 20
11.6722906808
 30
0.0
 10
12.2442356767
 20
11.6705069014
 30
0.0
 10
12.2451306153
 20
11.6687157452
 30
0.0
 10
12.2457722578
 20
11.6669180002
 30
0.0
 10
12.24615859
 20
11.6651157445
 30
0.0
 10
12.2462449959
 20
11.663907645
 30
0.0
 10
12.2462449959
 20
11.6633102626
 30
0.0
 11
11.4067495006
 21
11.6633102626
 31
0.0
 11
11.4068760675
 21
11.6650979348
 31
0.0
 11
11.4072554733
 21
11.6668852389
 31
0.0
 11
11.4078872753
 21
11.6686709011
 31
0.0
 11
11.408771031
 21
11.6704536479
 31
0.0
 11
11.4099062977
 21
11.6722322055
 31
0.0
 11
11.411292632
 21
11.6740053005
 31
0.0
 11
11.412929352
 21
11.6757717339
 31
0.0
 11
11.4148152172
 21
11.6775304807
 31
0.0
 11
11.4169489073
 21
11.679280541
 31
0.0
 11
11.4193291018
 21
11.6810209148
 31
0.0
 11
11.4219544805
 21
11.6827506021
 31
0.0
 11
11.4248237161
 21
11.6844686028
 31
0.0
 11
11.4279351484
 21
11.6861739066
 31
0.0
 11
11.4312866436
 21
11.6878654889
 31
0.0
 11
11.4387011414
 21
11.6912033871
 31
0.0
 11
11.447049826
 21
11.6944740947
 31
0.0
 11
11.4563131836
 21
11.6976696286
 31
0.0
 11
11.4664678088
 21
11.7007824062
 31
0.0
 11
11.4774898347
 21
11.7038048928
 31
0.0
 11
11.4893530714
 21
11.7067297967
 31
0.0
 11
11.5020279987
 21
11.7095501748
 31
0.0
 11
11.5154847554
 21
11.7122591237
 31
0.0
 11
11.5296910689
 21
11.7148501085
 31
0.0
 11
11.5446119521
 21
11.7173170083
 31
0.0
 11
11.5602121469
 21
11.7196537498
 31
0.0
 11
11.5764540354
 21
11.72185473
 31
0.0
 11
11.5932979122
 21
11.7239147619
 31
0.0
 11
11.6286297142
 21
11.72759205
 31
0.0
 11
11.6658668001
 21
11.7306503484
 31
0.0
 11
11.7046509104
 21
11.7330601382
 31
0.0
 11
11.7446086056
 21
11.734798095
 31
0.0
 11
11.785354782
 21
11.7358476576
 31
0.0
 11
11.8264972481
 21
11.7361986941
 31
0.0
 11
11.8676397143
 21
11.7358476576
 31
0.0
 11
11.9083858906
 21
11.734798095
 31
0.0
 11
11.9483435859
 21
11.7330601381
 31
0.0
 11
11.9871276962
 21
11.7306503483
 31
0.0
 11
12.024364782
 21
11.7275920499
 31
0.0
 11
12.059696584
 21
11.7239147616
 31
0.0
 11
12.0765404609
 21
11.7218547297
 31
0.0
 11
12.0927823494
 21
11.7196537495
 31
0.0
 11
12.1083825442
 21
11.717317008
 31
0.0
 11
12.1233034275
 21
11.7148501082
 31
0.0
 11
12.137509741
 21
11.7122591235
 31
0.0
 11
12.1509664976
 21
11.7095501744
 31
0.0
 11
12.1636414248
 21
11.7067297962
 31
0.0
 11
12.1755046615
 21
11.7038048923
 31
0.0
 11
12.1865266874
 21
11.7007824059
 31
0.0
 11
12.1966813128
 21
11.6976696286
 31
0.0
 11
12.2059446704
 21
11.6944740947
 31
0.0
 11
12.2142933548
 21
11.6912033866
 31
0.0
 11
12.2217078523
 21
11.6878654877
 31
0.0
 11
12.2250593473
 21
11.6861739051
 31
0.0
 11
12.2281707797
 21
11.6844686013
 31
0.0
 11
12.2310400154
 21
11.6827506009
 31
0.0
 11
12.2336653943
 21
11.6810209141
 31
0.0
 11
12.2360455891
 21
11.6792805409
 31
0.0
 11
12.2381792795
 21
11.6775304812
 31
0.0
 11
12.2400651449
 21
11.6757717349
 31
0.0
 11
12.241701865
 21
11.6740053019
 31
0.0
 11
12.2430881994
 21
11.6722322069
 31
0.0
 11
12.244223466
 21
11.6704536491
 31
0.0
 11
12.2451072215
 21
11.668670902
 31
0.0
 11
12.2457390233
 21
11.6668852393
 31
0.0
 11
12.246118429
 21
11.6650979349
 31
0.0
 11
12.2462449959
 21
11.6633102626
 31
0.0
  0
SPLINE
  5
2E9
100
AcDbEntity
  8
0
100
AcDbSpline
 62
9
  6
CONTINUOUS
 70
0
 71
3
 72
73
 73
69
 74
67
 42
0.0000001
 43
0.0000001
 44
0.0000000001
 12
0.0
 22
0.8541407524
 32
0.0
 13
0.0
 23
-0.8541407523
 33
0.0
 40
0.0
 40
0.0
 40
0.0
 40
0.0
 40
0.0020525409
 40
0.0041451435
 40
0.0063144883
 40
0.0085933654
 40
0.0110099362
 40
0.0135876924
 40
0.0163457374
 40
0.0192991267
 40
0.0224596971
 40
0.0258367363
 40
0.0294375118
 40
0.0332676885
 40
0.0373313313
 40
0.0416309978
 40
0.0509436247
 40
0.0612129257
 40
0.0724357521
 40
0.0845999799
 40
0.0976895215
 40
0.1116833351
 40
0.1265549471
 40
0.1422761297
 40
0.158814989
 40
0.1761358375
 40
0.194202042
 40
0.2129738721
 40
0.2324088773
 40
0.2730929115
 40
0.3158840825
 40
0.3603891215
 40
0.4061958739
 40
0.4528778842
 40
0.5000000007
 40
0.5471221172
 40
0.5938041274
 40
0.6396108797
 40
0.6841159185
 40
0.7269070894
 40
0.7675911234
 40
0.7870261285
 40
0.8057979584
 40
0.823864163
 40
0.8411850114
 40
0.8577238706
 40
0.8734450529
 40
0.8883166644
 40
0.9023104778
 40
0.9154000198
 40
0.9275642481
 40
0.9387870744
 40
0.9490563741
 40
0.958368999
 40
0.9626686649
 40
0.9667323076
 40
0.970562485
 40
0.9741632615
 40
0.9775403021
 40
0.9807008738
 40
0.983654264
 40
0.9864123095
 40
0.9889900657
 40
0.991406636
 40
0.9936855124
 40
0.9958548568
 40
0.9979474591
 40
1.0
 40
1.0
 40
1.0
 40
1.0
 10
11.4158806943
 20
11.6574771706
 30
0.0
 10
11.4158806943
 20
11.6580615569
 30
0.0
 10
11.4159652175
 20
11.6592433727
 30
0.0
 10
11.4163431366
 20
11.6610064183
 30
0.0
 10
11.4169708101
 20
11.6627650506
 30
0.0
 10
11.4178462705
 20
11.6645172377
 30
0.0
 10
11.4189678407
 20
11.6662622097
 30
0.0
 10
11.4203343153
 20
11.6679992733
 30
0.0
 10
11.4219446281
 20
11.6697278329
 30
0.0
 10
11.4237973605
 20
11.6714476213
 30
0.0
 10
11.4258913151
 20
11.6731581176
 30
0.0
 10
11.4282253278
 20
11.6748586717
 30
0.0
 10
11.4307982543
 20
11.6765485334
 30
0.0
 10
11.4336088787
 20
11.6782267776
 30
0.0
 10
11.436655646
 20
11.6798925455
 30
0.0
 10
11.4411511973
 20
11.6821563631
 30
0.0
 10
11.4473626173
 20
11.6849316819
 30
0.0
 10
11.4555378798
 20
11.6881150968
 30
0.0
 10
11.4646035941
 20
11.6912262473
 30
0.0
 10
11.4745382637
 20
11.6942584405
 30
0.0
 10
11.4853189404
 20
11.6972036092
 30
0.0
 10
11.4969201164
 20
11.7000543519
 30
0.0
 10
11.5093140904
 20
11.7028042448
 30
0.0
 10
11.5224713485
 20
11.7054459592
 30
0.0
 10
11.5363603828
 20
11.7079729968
 30
0.0
 10
11.5509478135
 20
11.7103796488
 30
0.0
 10
11.5661986557
 20
11.7126594929
 30
0.0
 10
11.5820762599
 20
11.7148071238
 30
0.0
 10
11.6043725304
 20
11.7175292334
 30
0.0
 10
11.6335198793
 20
11.7205434897
 30
0.0
 10
11.6698391137
 20
11.7235097827
 30
0.0
 10
11.7076654767
 20
11.7258478038
 30
0.0
 10
11.74663509
 20
11.727534391
 30
0.0
 10
11.7863731418
 20
11.7285531384
 30
0.0
 10
11.8264972493
 20
11.7288939433
 30
0.0
 10
11.8666213568
 20
11.7285531384
 30
0.0
 10
11.9063594086
 20
11.7275343909
 30
0.0
 10
11.9453290218
 20
11.7258478037
 30
0.0
 10
11.9831553847
 20
11.7235097825
 30
0.0
 10
12.0194746189
 20
11.7205434895
 30
0.0
 10
12.0486219677
 20
11.7175292331
 30
0.0
 10
12.070918238
 20
11.7148071235
 30
0.0
 10
12.0867958422
 20
11.7126594925
 30
0.0
 10
12.1020466843
 20
11.7103796484
 30
0.0
 10
12.1166341151
 20
11.7079729964
 30
0.0
 10
12.1305231492
 20
11.7054459588
 30
0.0
 10
12.143680407
 20
11.7028042444
 30
0.0
 10
12.1560743806
 20
11.7000543514
 30
0.0
 10
12.1676755566
 20
11.6972036086
 30
0.0
 10
12.1784562335
 20
11.69425844
 30
0.0
 10
12.1883909034
 20
11.691226247
 30
0.0
 10
12.1974566175
 20
11.6881150966
 30
0.0
 10
12.2056318789
 20
11.6849316816
 30
0.0
 10
12.2118432976
 20
11.6821563625
 30
0.0
 10
12.2163388479
 20
11.6798925448
 30
0.0
 10
12.2193856152
 20
11.6782267768
 30
0.0
 10
12.2221962401
 20
11.6765485326
 30
0.0
 10
12.2247691677
 20
11.6748586709
 30
0.0
 10
12.2271031818
 20
11.6731581169
 30
0.0
 10
12.2291971378
 20
11.6714476208
 30
0.0
 10
12.2310498714
 20
11.6697278325
 30
0.0
 10
12.232660185
 20
11.6679992731
 30
0.0
 10
12.2340266597
 20
11.6662622095
 30
0.0
 10
12.2351482293
 20
11.6645172376
 30
0.0
 10
12.2360236887
 20
11.6627650505
 30
0.0
 10
12.2366513611
 20
11.6610064182
 30
0.0
 10
12.2370292792
 20
11.6592433726
 30
0.0
 10
12.2371138022
 20
11.6580615568
 30
0.0
 10
12.2371138022
 20
11.6574771706
 30
0.0
 11
11.4158806943
 21
11.6574771706
 31
0.0
 11
11.4160045045
 21
11.6592259521
 31
0.0
 11
11.4163756482
 21
11.6609743713
 31
0.0
 11
11.4169936954
 21
11.6627211831
 31
0.0
 11
11.4178582157
 21
11.664465143
 31
0.0
 11
11.418968779
 21
11.666205006
 31
0.0
 11
11.4203249541
 21
11.6679395277
 31
0.0
 11
11.4219260744
 21
11.6696675359
 31
0.0
 11
11.4237709242
 21
11.6713880274
 31
0.0
 11
11.4258582099
 21
11.6731000226
 31
0.0
 11
11.4281866377
 21
11.6748025422
 31
0.0
 11
11.4307549137
 21
11.6764946069
 31
0.0
 11
11.4335617376
 21
11.6781752371
 31
0.0
 11
11.4366054838
 21
11.6798434441
 31
0.0
 11
11.4398840661
 21
11.6814982264
 31
0.0
 11
11.4471372544
 21
11.6847635064
 31
0.0
 11
11.4553043116
 21
11.6879630588
 31
0.0
 11
11.4643661534
 21
11.6910890772
 31
0.0
 11
11.4742998791
 21
11.694134142
 31
0.0
 11
11.4850821356
 21
11.6970908793
 31
0.0
 11
11.4966872989
 21
11.699952155
 31
0.0
 11
11.5090864934
 21
11.7027111779
 31
0.0
 11
11.5222505106
 21
11.7053611959
 31
0.0
 11
11.5361477797
 21
11.7078958166
 31
0.0
 11
11.5507440746
 21
11.7103090519
 31
0.0
 11
11.5660049036
 21
11.7125949602
 31
0.0
 11
11.5818934662
 21
11.7147480604
 31
0.0
 11
11.5983709215
 21
11.7167632785
 31
0.0
 11
11.6329341165
 21
11.7203605711
 31
0.0
 11
11.6693611483
 21
11.7233523395
 31
0.0
 11
11.7073015507
 21
11.7257097069
 31
0.0
 11
11.7463900082
 21
11.7274098564
 31
0.0
 11
11.7862497943
 21
11.7284365868
 31
0.0
 11
11.8264972493
 21
11.7287799869
 31
0.0
 11
11.8667447044
 21
11.7284365868
 31
0.0
 11
11.9066044904
 21
11.7274098563
 31
0.0
 11
11.9456929478
 21
11.7257097067
 31
0.0
 11
11.98363335
 21
11.7233523393
 31
0.0
 11
12.0200603817
 21
11.7203605708
 31
0.0
 11
12.0546235766
 21
11.7167632782
 31
0.0
 11
12.0711010317
 21
11.7147480601
 31
0.0
 11
12.0869895942
 21
11.7125949599
 31
0.0
 11
12.1022504233
 21
11.7103090515
 31
0.0
 11
12.1168467181
 21
11.7078958162
 31
0.0
 11
12.1307439871
 21
11.7053611955
 31
0.0
 11
12.143908004
 21
11.7027111775
 31
0.0
 11
12.1563071981
 21
11.6999521545
 31
0.0
 11
12.1679123612
 21
11.6970908788
 31
0.0
 11
12.1786946181
 21
11.6941341415
 31
0.0
 11
12.1886283442
 21
11.6910890768
 31
0.0
 11
12.197690186
 21
11.6879630584
 31
0.0
 11
12.2058572419
 21
11.684763506
 31
0.0
 11
12.2131104283
 21
11.6814982258
 31
0.0
 11
12.2163890101
 21
11.6798434435
 31
0.0
 11
12.2194327561
 21
11.6781752364
 31
0.0
 11
12.2222395806
 21
11.6764946062
 31
0.0
 11
12.2248078578
 21
11.6748025415
 31
0.0
 11
12.227136287
 21
11.6731000219
 31
0.0
 11
12.2292235741
 21
11.6713880268
 31
0.0
 11
12.2310684252
 21
11.6696675355
 31
0.0
 11
12.2326695463
 21
11.6679395273
 31
0.0
 11
12.2340257214
 21
11.6662050057
 31
0.0
 11
12.235136284
 21
11.6644651428
 31
0.0
 11
12.2360008033
 21
11.662721183
 31
0.0
 11
12.2366188494
 21
11.6609743712
 31
0.0
 11
12.2369899923
 21
11.6592259521
 31
0.0
 11
12.2371138022
 21
11.6574771706
 31
0.0
  0
SPLINE
  5
2EA
100
AcDbEntity
  8
0
100
AcDbSpline
 62
9
  6
CONTINUOUS
 70
0
 71
3
 72
73
 73
69
 74
67
 42
0.0000001
 43
0.0000001
 44
0.0000000001
 12
0.0
 22
-0.8541407524
 32
0.0
 13
0.0
 23
0.8541407524
 33
0.0
 40
0.0
 40
0.0
 40
0.0
 40
0.0
 40
0.0020525409
 40
0.0041451435
 40
0.0063144883
 40
0.0085933654
 40
0.0110099362
 40
0.0135876924
 40
0.0163457374
 40
0.0192991267
 40
0.0224596971
 40
0.0258367363
 40
0.0294375118
 40
0.0332676885
 40
0.0373313313
 40
0.0416309978
 40
0.0509436247
 40
0.0612129257
 40
0.0724357521
 40
0.0845999799
 40
0.0976895215
 40
0.1116833351
 40
0.1265549471
 40
0.1422761297
 40
0.158814989
 40
0.1761358375
 40
0.194202042
 40
0.2129738721
 40
0.2324088773
 40
0.2730929115
 40
0.3158840825
 40
0.3603891215
 40
0.4061958739
 40
0.4528778842
 40
0.5000000007
 40
0.5471221172
 40
0.5938041274
 40
0.6396108797
 40
0.6841159185
 40
0.7269070894
 40
0.7675911234
 40
0.7870261285
 40
0.8057979584
 40
0.823864163
 40
0.8411850114
 40
0.8577238706
 40
0.8734450529
 40
0.8883166644
 40
0.9023104778
 40
0.9154000198
 40
0.9275642481
 40
0.9387870744
 40
0.9490563741
 40
0.958368999
 40
0.9626686649
 40
0.9667323076
 40
0.970562485
 40
0.9741632615
 40
0.9775403021
 40
0.9807008738
 40
0.983654264
 40
0.9864123095
 40
0.9889900657
 40
0.991406636
 40
0.9936855124
 40
0.9958548568
 40
0.9979474591
 40
1.0
 40
1.0
 40
1.0
 40
1.0
 10
12.2371138022
 20
11.6574771706
 30
0.0
 10
12.2371138022
 20
11.6568927843
 30
0.0
 10
12.2370292789
 20
11.6557109684
 30
0.0
 10
12.2366513598
 20
11.6539479229
 30
0.0
 10
12.2360236864
 20
11.6521892906
 30
0.0
 10
12.2351482259
 20
11.6504371035
 30
0.0
 10
12.2340266557
 20
11.6486921315
 30
0.0
 10
12.2326601812
 20
11.6469550678
 30
0.0
 10
12.2310498683
 20
11.6452265082
 30
0.0
 10
12.2291971359
 20
11.6435067198
 30
0.0
 10
12.2271031814
 20
11.6417962236
 30
0.0
 10
12.2247691686
 20
11.6400956695
 30
0.0
 10
12.2221962421
 20
11.6384058078
 30
0.0
 10
12.2193856177
 20
11.6367275635
 30
0.0
 10
12.2163388504
 20
11.6350617956
 30
0.0
 10
12.2118432992
 20
11.632797978
 30
0.0
 10
12.2056318791
 20
11.6300226593
 30
0.0
 10
12.1974566167
 20
11.6268392443
 30
0.0
 10
12.1883909023
 20
11.6237280938
 30
0.0
 10
12.1784562327
 20
11.6206959007
 30
0.0
 10
12.1676755561
 20
11.617750732
 30
0.0
 10
12.15607438
 20
11.6148999892
 30
0.0
 10
12.143680406
 20
11.6121500963
 30
0.0
 10
12.130523148
 20
11.6095083819
 30
0.0
 10
12.1166341137
 20
11.6069813444
 30
0.0
 10
12.1020466829
 20
11.6045746923
 30
0.0
 10
12.0867958407
 20
11.6022948483
 30
0.0
 10
12.0709182365
 20
11.6001472173
 30
0.0
 10
12.048621966
 20
11.5974251077
 30
0.0
 10
12.0194746171
 20
11.5944108514
 30
0.0
 10
11.9831553827
 20
11.5914445585
 30
0.0
 10
11.9453290197
 20
11.5891065373
 30
0.0
 10
11.9063594065
 20
11.5874199501
 30
0.0
 10
11.8666213546
 20
11.5864012027
 30
0.0
 10
11.8264972471
 20
11.5860603979
 30
0.0
 10
11.7863731396
 20
11.5864012028
 30
0.0
 10
11.7466350878
 20
11.5874199502
 30
0.0
 10
11.7076654746
 20
11.5891065375
 30
0.0
 10
11.6698391118
 20
11.5914445587
 30
0.0
 10
11.6335198775
 20
11.5944108517
 30
0.0
 10
11.6043725288
 20
11.597425108
 30
0.0
 10
11.5820762584
 20
11.6001472177
 30
0.0
 10
11.5661986542
 20
11.6022948487
 30
0.0
 10
11.5509478121
 20
11.6045746927
 30
0.0
 10
11.5363603814
 20
11.6069813448
 30
0.0
 10
11.5224713472
 20
11.6095083823
 30
0.0
 10
11.5093140894
 20
11.6121500967
 30
0.0
 10
11.4969201158
 20
11.6148999898
 30
0.0
 10
11.4853189399
 20
11.6177507326
 30
0.0
 10
11.4745382629
 20
11.6206959012
 30
0.0
 10
11.4646035931
 20
11.6237280942
 30
0.0
 10
11.4555378789
 20
11.6268392445
 30
0.0
 10
11.4473626175
 20
11.6300226596
 30
0.0
 10
11.4411511989
 20
11.6327979786
 30
0.0
 10
11.4366556485
 20
11.6350617964
 30
0.0
 10
11.4336088813
 20
11.6367275643
 30
0.0
 10
11.4307982563
 20
11.6384058086
 30
0.0
 10
11.4282253287
 20
11.6400956702
 30
0.0
 10
11.4258913146
 20
11.6417962242
 30
0.0
 10
11.4237973587
 20
11.6435067204
 30
0.0
 10
11.4219446251
 20
11.6452265086
 30
0.0
 10
11.4203343114
 20
11.646955068
 30
0.0
 10
11.4189678367
 20
11.6486921316
 30
0.0
 10
11.4178462672
 20
11.6504371036
 30
0.0
 10
11.4169708077
 20
11.6521892907
 30
0.0
 10
11.4163431354
 20
11.653947923
 30
0.0
 10
11.4159652172
 20
11.6557109685
 30
0.0
 10
11.4158806943
 20
11.6568927843
 30
0.0
 10
11.4158806943
 20
11.6574771706
 30
0.0
 11
12.2371138022
 21
11.6574771706
 31
0.0
 11
12.236989992
 21
11.655728389
 31
0.0
 11
12.2366188482
 21
11.6539799699
 31
0.0
 11
12.236000801
 21
11.652233158
 31
0.0
 11
12.2351362807
 21
11.6504891982
 31
0.0
 11
12.2340257175
 21
11.6487493351
 31
0.0
 11
12.2326695424
 21
11.6470148134
 31
0.0
 11
12.2310684221
 21
11.6452868052
 31
0.0
 11
12.2292235722
 21
11.6435663138
 31
0.0
 11
12.2271362865
 21
11.6418543186
 31
0.0
 11
12.2248078588
 21
11.6401517989
 31
0.0
 11
12.2222395827
 21
11.6384597342
 31
0.0
 11
12.2194327588
 21
11.636779104
 31
0.0
 11
12.2163890127
 21
11.635110897
 31
0.0
 11
12.2131104303
 21
11.6334561147
 31
0.0
 11
12.205857242
 21
11.6301908347
 31
0.0
 11
12.1976901848
 21
11.6269912823
 31
0.0
 11
12.188628343
 21
11.6238652639
 31
0.0
 11
12.1786946174
 21
11.6208201992
 31
0.0
 11
12.1679123609
 21
11.6178634619
 31
0.0
 11
12.1563071975
 21
11.6150021862
 31
0.0
 11
12.143908003
 21
11.6122431632
 31
0.0
 11
12.1307439858
 21
11.6095931452
 31
0.0
 11
12.1168467167
 21
11.6070585246
 31
0.0
 11
12.1022504218
 21
11.6046452892
 31
0.0
 11
12.0869895928
 21
11.6023593809
 31
0.0
 11
12.0711010302
 21
11.6002062807
 31
0.0
 11
12.054623575
 21
11.5981910627
 31
0.0
 11
12.0200603799
 21
11.5945937701
 31
0.0
 11
11.9836333481
 21
11.5916020016
 31
0.0
 11
11.9456929457
 21
11.5892446342
 31
0.0
 11
11.9066044882
 21
11.5875444848
 31
0.0
 11
11.8667447022
 21
11.5865177543
 31
0.0
 11
11.8264972471
 21
11.5861743543
 31
0.0
 11
11.786249792
 21
11.5865177544
 31
0.0
 11
11.746390006
 21
11.5875444849
 31
0.0
 11
11.7073015486
 21
11.5892446344
 31
0.0
 11
11.6693611464
 21
11.5916020018
 31
0.0
 11
11.6329341147
 21
11.5945937703
 31
0.0
 11
11.5983709198
 21
11.598191063
 31
0.0
 11
11.5818934647
 21
11.6002062811
 31
0.0
 11
11.5660049022
 21
11.6023593813
 31
0.0
 11
11.5507440732
 21
11.6046452896
 31
0.0
 11
11.5361477783
 21
11.607058525
 31
0.0
 11
11.5222505093
 21
11.6095931457
 31
0.0
 11
11.5090864924
 21
11.6122431637
 31
0.0
 11
11.4966872984
 21
11.6150021867
 31
0.0
 11
11.4850821353
 21
11.6178634624
 31
0.0
 11
11.4742998783
 21
11.6208201996
 31
0.0
 11
11.4643661522
 21
11.6238652643
 31
0.0
 11
11.4553043105
 21
11.6269912828
 31
0.0
 11
11.4471372545
 21
11.6301908352
 31
0.0
 11
11.4398840681
 21
11.6334561153
 31
0.0
 11
11.4366054864
 21
11.6351108976
 31
0.0
 11
11.4335617403
 21
11.6367791047
 31
0.0
 11
11.4307549158
 21
11.6384597349
 31
0.0
 11
11.4281866386
 21
11.6401517996
 31
0.0
 11
11.4258582094
 21
11.6418543192
 31
0.0
 11
11.4237709223
 21
11.6435663144
 31
0.0
 11
11.4219260712
 21
11.6452868057
 31
0.0
 11
11.4203249502
 21
11.6470148138
 31
0.0
 11
11.418968775
 21
11.6487493354
 31
0.0
 11
11.4178582124
 21
11.6504891983
 31
0.0
 11
11.4169936931
 21
11.6522331581
 31
0.0
 11
11.416375647
 21
11.6539799699
 31
0.0
 11
11.4160045041
 21
11.655728389
 31
0.0
 11
11.4158806943
 21
11.6574771706
 31
0.0
  0
SPLINE
  5
2EB
100
AcDbEntity
  8
0
100
AcDbSpline
 62
9
  6
CONTINUOUS
 70
0
 71
3
 72
63
 73
59
 74
57
 42
0.0000001
 43
0.0000001
 44
0.0000000001
 12
-0.4908880319
 22
-0.1528676159
 32
0.0
 13
-0.0745668643
 23
-0.5087035964
 33
0.0
 40
0.0
 40
0.0
 40
0.0
 40
0.0
 40
0.0000012719
 40
0.0000048671
 40
0.0000107952
 40
0.0000190573
 40
0.0000425842
 40
0.0000754473
 40
0.0001176449
 40
0.000169175
 40
0.0002300355
 40
0.0003002242
 40
0.0004685779
 40
0.0006742184
 40
0.000917128
 40
0.0011972892
 40
0.0015146842
 40
0.0018692953
 40
0.0026900947
 40
0.0036595453
 40
0.0047775054
 40
0.0060438327
 40
0.0074583853
 40
0.0090210213
 40
0.0107315985
 40
0.0145960091
 40
0.01905002
 40
0.0240904817
 40
0.029713919
 40
0.0359168578
 40
0.0426958248
 40
0.050047348
 40
0.0579679561
 40
0.0664535817
 40
0.0754983761
 40
0.0952407555
 40
0.1171456776
 40
0.1411632095
 40
0.1672337099
 40
0.1952890524
 40
0.2252608359
 40
0.2570785998
 40
0.2906638004
 40
0.3259359236
 40
0.3628144022
 40
0.4410576803
 40
0.5247151553
 40
0.5683585349
 40
0.6130936798
 40
0.6588318525
 40
0.7054863167
 40
0.7529765193
 40
0.8012232571
 40
0.8256056419
 40
0.8501469244
 40
0.8996539364
 40
0.9496388405
 40
1.0
 40
1.0
 40
1.0
 40
1.0
 10
10.4922811802
 20
4.5927868828
 30
0.0
 10
10.4922809721
 20
4.592786818
 30
0.0
 10
10.49228112
 20
4.5927856667
 30
0.0
 10
10.4922806336
 20
4.5927841356
 30
0.0
 10
10.4922804709
 20
4.5927809329
 30
0.0
 10
10.4922797814
 20
4.5927745997
 30
0.0
 10
10.4922789099
 20
4.592763483
 30
0.0
 10
10.4922775191
 20
4.5927466785
 30
0.0
 10
10.492275846
 20
4.5927250347
 30
0.0
 10
10.4922738281
 20
4.5926986231
 30
0.0
 10
10.4922714893
 20
4.5926674186
 30
0.0
 10
10.4922676961
 20
4.592616248
 30
0.0
 10
10.4922621482
 20
4.592540326
 30
0.0
 10
10.4922545246
 20
4.5924348765
 30
0.0
 10
10.4922455857
 20
4.5923103103
 30
0.0
 10
10.4922353281
 20
4.5921666371
 30
0.0
 10
10.4922237493
 20
4.5920038661
 30
0.0
 10
10.4922056432
 20
4.5917486708
 30
0.0
 10
10.4921797012
 20
4.5913820013
 30
0.0
 10
10.4921445816
 20
4.5908848315
 30
0.0
 10
10.4921041
 20
4.5903114956
 30
0.0
 10
10.4920582307
 20
4.5896620687
 30
0.0
 10
10.4920069483
 20
4.5889366258
 30
0.0
 10
10.491950227
 20
4.5881352419
 30
0.0
 10
10.4918637311
 20
4.5869150587
 30
0.0
 10
10.4917418685
 20
4.5852006157
 30
0.0
 10
10.4915788636
 20
4.5829169821
 30
0.0
 10
10.4913933097
 20
4.5803327294
 30
0.0
 10
10.4911848545
 20
4.5774496187
 30
0.0
 10
10.4909531409
 20
4.5742694675
 30
0.0
 10
10.4906978133
 20
4.5707940932
 30
0.0
 10
10.490418515
 20
4.5670253134
 30
0.0
 10
10.4901148959
 20
4.5629650478
 30
0.0
 10
10.4897866406
 20
4.5586156226
 30
0.0
 10
10.4893014422
 20
4.552246268
 30
0.0
 10
10.4886320063
 20
4.54358449
 30
0.0
 10
10.4877483392
 20
4.5323656023
 30
0.0
 10
10.4867607817
 20
4.5200670397
 30
0.0
 10
10.485668624
 20
4.5067194405
 30
0.0
 10
10.4844719347
 20
4.492356561
 30
0.0
 10
10.4831707918
 20
4.4770140227
 30
0.0
 10
10.4817655046
 20
4.4607292259
 30
0.0
 10
10.4802576737
 20
4.4435415483
 30
0.0
 10
10.4786489721
 20
4.4254921013
 30
0.0
 10
10.476325903
 20
4.399822513
 30
0.0
 10
10.4731837206
 20
4.3659009232
 30
0.0
 10
10.469828361
 20
4.3308348964
 30
0.0
 10
10.4669477822
 20
4.3014924311
 30
0.0
 10
10.4646619047
 20
4.2786214638
 30
0.0
 10
10.4622816435
 20
4.2552413593
 30
0.0
 10
10.4598067071
 20
4.2313963319
 30
0.0
 10
10.4572276822
 20
4.2071299459
 30
0.0
 10
10.4549923409
 20
4.1866655958
 30
0.0
 10
10.4531423312
 20
4.1701156133
 30
0.0
 10
10.4512381283
 20
4.1533543923
 30
0.0
 10
10.4487538695
 20
4.1322430771
 30
0.0
 10
10.44553041
 20
4.1067639705
 30
0.0
 10
10.4431666091
 20
4.0897292377
 30
0.0
 10
10.4419148512
 20
4.0811896034
 30
0.0
 11
10.4922811802
 21
4.5927868828
 31
0.0
 11
10.4922810243
 21
4.5927862478
 31
0.0
 11
10.4922807874
 21
4.5927844145
 31
0.0
 11
10.4922804696
 21
4.5927813833
 31
0.0
 11
10.4922800707
 21
4.5927771542
 31
0.0
 11
10.4922790296
 21
4.592765103
 31
0.0
 11
10.4922776636
 21
4.5927482621
 31
0.0
 11
10.4922759725
 21
4.5927266326
 31
0.0
 11
10.4922739556
 21
4.5927002159
 31
0.0
 11
10.4922716128
 21
4.5926690129
 31
0.0
 11
10.4922689435
 21
4.5926330249
 31
0.0
 11
10.492262624
 21
4.5925466986
 31
0.0
 11
10.4922549938
 21
4.5924412464
 31
0.0
 11
10.4922460496
 21
4.5923166776
 31
0.0
 11
10.4922357883
 21
4.5921730016
 31
0.0
 11
10.4922242066
 21
4.5920102277
 31
0.0
 11
10.4922113012
 21
4.5918283655
 31
0.0
 11
10.4921815062
 21
4.5914074131
 31
0.0
 11
10.4921463775
 21
4.5909102195
 31
0.0
 11
10.4921058889
 21
4.5903368598
 31
0.0
 11
10.4920600143
 21
4.5896874089
 31
0.0
 11
10.4920087278
 21
4.5889619419
 31
0.0
 11
10.4919520033
 21
4.5881605338
 31
0.0
 11
10.4918898147
 21
4.5872832597
 31
0.0
 11
10.4917489412
 21
4.5853014135
 31
0.0
 11
10.4915858695
 21
4.5830172436
 31
0.0
 11
10.4914002623
 21
4.5804323977
 31
0.0
 11
10.4911917618
 21
4.5775486935
 31
0.0
 11
10.4909600099
 21
4.5743679485
 31
0.0
 11
10.4907046487
 21
4.5708919802
 31
0.0
 11
10.4904253202
 21
4.5671226064
 31
0.0
 11
10.4901216665
 21
4.5630616447
 31
0.0
 11
10.4897933597
 21
4.5587112185
 31
0.0
 11
10.4894401624
 21
4.5540743636
 31
0.0
 11
10.4886582127
 21
4.543954188
 31
0.0
 11
10.4877740505
 21
4.5327267595
 31
0.0
 11
10.4867859614
 21
4.5204179903
 31
0.0
 11
10.4856931824
 21
4.5070587324
 31
0.0
 11
10.4844957823
 21
4.4926841542
 31
0.0
 11
10.4831938579
 21
4.477329569
 31
0.0
 11
10.481787788
 21
4.4610313347
 31
0.0
 11
10.4802790543
 21
4.4438298904
 31
0.0
 11
10.4786694076
 21
4.4257666713
 31
0.0
 11
10.4769605844
 21
4.4068831441
 31
0.0
 11
10.47324976
 21
4.3668266915
 31
0.0
 11
10.4691520823
 21
4.3240107035
 31
0.0
 11
10.4669595993
 21
4.3016792822
 31
0.0
 11
10.4646720539
 21
4.2787932112
 31
0.0
 11
10.4622899646
 21
4.2553983645
 31
0.0
 11
10.4598117995
 21
4.2315398122
 31
0.0
 11
10.4572296739
 21
4.2072601342
 31
0.0
 11
10.4545344764
 21
4.1826014293
 31
0.0
 11
10.4531416282
 21
4.1701430976
 31
0.0
 11
10.4517155478
 21
4.1576063003
 31
0.0
 11
10.4487269372
 21
4.132328845
 31
0.0
 11
10.4454875685
 21
4.1068346021
 31
0.0
 11
10.4419148512
 21
4.0811896034
 31
0.0
  0
SPLINE
  5
2EC
100
AcDbEntity
  8
0
100
AcDbSpline
 62
6
  6
CONTINUOUS
 70
0
 71
3
 72
37
 73
33
 74
31
 42
0.0000001
 43
0.0000001
 44
0.0000000001
 12
0.3177684825
 22
0.2672006122
 32
0.0
 13
-0.3177684825
 23
0.2672006122
 33
0.0
 40
0.0
 40
0.0
 40
0.0
 40
0.0
 40
0.0730601225
 40
0.1078839365
 40
0.141668579
 40
0.1745172791
 40
0.2065306995
 40
0.2378057753
 40
0.2684373328
 40
0.2985135558
 40
0.3281182851
 40
0.3573324249
 40
0.3862307066
 40
0.4148823982
 40
0.4433534588
 40
0.4717062172
 40
0.4999999967
 40
0.5282937689
 40
0.5566464997
 40
0.5851175193
 40
0.6137691761
 40
0.6426674301
 40
0.6718815556
 40
0.7014863218
 40
0.7315626428
 40
0.7621943316
 40
0.7934696234
 40
0.8254834019
 40
0.8583324428
 40
0.8921170236
 40
0.9269403346
 40
1.0
 40
1.0
 40
1.0
 40
1.0
 10
13.7764972482
 20
4.3338592437
 30
0.0
 10
13.784235983
 20
4.3403664802
 30
0.0
 10
13.7951920949
 20
4.3505647989
 30
0.0
 10
13.8083945423
 20
4.3650687808
 30
0.0
 10
13.817263752
 20
4.3759638404
 30
0.0
 10
13.8252820637
 20
4.3870216565
 30
0.0
 10
13.8324795798
 20
4.398219768
 30
0.0
 10
13.8388851726
 20
4.4095374875
 30
0.0
 10
13.8445255908
 20
4.4209568752
 30
0.0
 10
13.8494294015
 20
4.4324602786
 30
0.0
 10
13.8536220733
 20
4.4440328938
 30
0.0
 10
13.8571249116
 20
4.4556622616
 30
0.0
 10
13.8599616367
 20
4.4673358533
 30
0.0
 10
13.862149808
 20
4.4790434925
 30
0.0
 10
13.8637004314
 20
4.4907762044
 30
0.0
 10
13.8646273935
 20
4.5025247426
 30
0.0
 10
13.8649368854
 20
4.5142812018
 30
0.0
 10
13.8646273805
 20
4.5260376561
 30
0.0
 10
13.863700445
 20
4.5377861859
 30
0.0
 10
13.8621498017
 20
4.5495188815
 30
0.0
 10
13.8599616193
 20
4.5612265029
 30
0.0
 10
13.8571249492
 20
4.572900097
 30
0.0
 10
13.8536220946
 20
4.5845294604
 30
0.0
 10
13.8494293976
 20
4.5961020833
 30
0.0
 10
13.8445256057
 20
4.6076055344
 30
0.0
 10
13.8388851685
 20
4.6190249822
 30
0.0
 10
13.8324795128
 20
4.630342779
 30
0.0
 10
13.8252818876
 20
4.6415409711
 30
0.0
 10
13.817263509
 20
4.6525988467
 30
0.0
 10
13.8083943299
 20
4.6634938909
 30
0.0
 10
13.7951919791
 20
4.6779977708
 30
0.0
 10
13.7842359345
 20
4.6881959662
 30
0.0
 10
13.7764972482
 20
4.694703162
 30
0.0
 11
13.7764972482
 21
4.3338592437
 31
0.0
 11
13.7986614349
 21
4.3545676505
 31
0.0
 11
13.8083893224
 21
4.3652636577
 31
0.0
 11
13.8172404769
 21
4.376145015
 31
0.0
 11
13.8252432231
 21
4.3871882431
 31
0.0
 11
13.832426936
 21
4.3983709207
 31
0.0
 11
13.8388203215
 21
4.409672596
 31
0.0
 11
13.8444511117
 21
4.4210756851
 31
0.0
 11
13.8493468737
 21
4.4325629181
 31
0.0
 11
13.8535327495
 21
4.4441194319
 31
0.0
 11
13.8570312147
 21
4.4557330106
 31
0.0
 11
13.8598643914
 21
4.4673916393
 31
0.0
 11
13.8620495439
 21
4.4790847755
 31
0.0
 11
13.8635991441
 21
4.490803329
 31
0.0
 11
13.8645251964
 21
4.502538295
 31
0.0
 11
13.8648337909
 21
4.5142812026
 31
0.0
 11
13.8645251898
 21
4.526024107
 31
0.0
 11
13.8635991497
 21
4.5377590624
 31
0.0
 11
13.8620495393
 21
4.5494775974
 31
0.0
 11
13.8598643853
 21
4.5611707187
 31
0.0
 11
13.8570312412
 21
4.5728293434
 31
0.0
 11
13.8535327726
 21
4.5844429149
 31
0.0
 11
13.8493468814
 21
4.5959994395
 31
0.0
 11
13.8444511238
 21
4.6074867186
 31
0.0
 11
13.8388203184
 21
4.618889861
 31
0.0
 11
13.8324268742
 21
4.630191606
 31
0.0
 11
13.8252430492
 21
4.6413743883
 31
0.0
 11
13.8172402039
 21
4.6524177194
 31
0.0
 11
13.8083890692
 21
4.6632990598
 31
0.0
 11
13.7986613216
 21
4.673994912
 31
0.0
 11
13.7764972482
 21
4.694703162
 31
0.0
  0
SPLINE
  5
2ED
100
AcDbEntity
  8
0
100
AcDbSpline
 62
6
  6
CONTINUOUS
 70
0
 71
3
 72
31
 73
27
 74
25
 42
0.0000001
 43
0.0000001
 44
0.0000000001
 12
-0.3372031336
 22
-0.6744062673
 32
0.0
 13
0.3372031336
 23
-0.6744062673
 33
0.0
 40
0.0
 40
0.0
 40
0.0
 40
0.0
 40
0.0624900108
 40
0.0937394184
 40
0.12498966
 40
0.1874847818
 40
0.2499793177
 40
0.3124751689
 40
0.3437287192
 40
0.3749826104
 40
0.4062358423
 40
0.4374904006
 40
0.4687454966
 40
0.5000000493
 40
0.531254598
 40
0.5625096892
 40
0.593764248
 40
0.625017472
 40
0.6562713491
 40
0.6875248937
 40
0.750020723
 40
0.8125152441
 40
0.8750103452
 40
0.9062605816
 40
0.9375099879
 40
1.0
 40
1.0
 40
1.0
 40
1.0
 10
13.5764972482
 20
4.3338592437
 30
0.0
 10
13.5694733057
 20
4.3198113587
 30
0.0
 10
13.5593025987
 20
4.2985514919
 30
0.0
 10
13.5466086465
 20
4.2698138446
 30
0.0
 10
13.5345367952
 20
4.2408078905
 30
0.0
 10
13.5207027318
 20
4.2040383625
 30
0.0
 10
13.5064423859
 20
4.1591017566
 30
0.0
 10
13.4967842429
 20
4.1210090034
 30
0.0
 10
13.4905668215
 20
4.0902073119
 30
0.0
 10
13.4866912769
 20
4.0669577933
 30
0.0
 10
13.4836365323
 20
4.043585824
 30
0.0
 10
13.4814373522
 20
4.0201172639
 30
0.0
 10
13.4801077749
 20
3.9965830134
 30
0.0
 10
13.4796602338
 20
3.9730152893
 30
0.0
 10
13.4801077657
 20
3.9494475659
 30
0.0
 10
13.4814373678
 20
3.9259133189
 30
0.0
 10
13.4836365391
 20
3.9024447613
 30
0.0
 10
13.4866912767
 20
3.8790727962
 30
0.0
 10
13.4905668349
 20
3.855823287
 30
0.0
 10
13.4967842522
 20
3.8250216055
 30
0.0
 10
13.5064423934
 20
3.7869288626
 30
0.0
 10
13.5207027398
 20
3.7419922721
 30
0.0
 10
13.5345367979
 20
3.7052227531
 30
0.0
 10
13.5466086472
 20
3.6762168056
 30
0.0
 10
13.5593025988
 20
3.6474791595
 30
0.0
 10
13.5694733056
 20
3.6262192925
 30
0.0
 10
13.5764972482
 20
3.6121714072
 30
0.0
 11
13.5764972482
 21
4.3338592437
 31
0.0
 11
13.5562020972
 21
4.2913361158
 31
0.0
 11
13.5466865594
 21
4.2697806446
 31
0.0
 11
13.5376380944
 21
4.2480242957
 31
0.0
 11
13.5210927348
 21
4.2039026024
 31
0.0
 11
13.5068876468
 21
4.1589732514
 31
0.0
 11
13.4953561372
 21
4.1132835496
 31
0.0
 11
13.4906981593
 21
4.0901830246
 31
0.0
 11
13.486828058
 21
4.0669372628
 31
0.0
 11
13.4837791683
 21
4.0435701071
 31
0.0
 11
13.4815823017
 21
4.0201065053
 31
0.0
 11
13.4802547762
 21
3.9965772976
 31
0.0
 11
13.4798094117
 21
3.9730152882
 31
0.0
 11
13.4802547727
 21
3.9494532818
 31
0.0
 11
13.4815823116
 21
3.9259240784
 31
0.0
 11
13.4837791757
 21
3.902460476
 31
0.0
 11
13.4868280615
 21
3.8790933258
 31
0.0
 11
13.4906981696
 21
3.8558475759
 31
0.0
 11
13.495356148
 21
3.8327470554
 31
0.0
 11
13.5068876543
 21
3.7870573698
 31
0.0
 11
13.521092742
 21
3.7421280304
 31
0.0
 11
13.5376380959
 21
3.6980063517
 31
0.0
 11
13.5466865596
 21
3.6762500065
 31
0.0
 11
13.556202097
 21
3.6546945361
 31
0.0
 11
13.5764972482
 21
3.6121714072
 31
0.0
  0
SPLINE
  5
2EE
100
AcDbEntity
  8
0
100
AcDbSpline
 62
6
  6
CONTINUOUS
 70
0
 71
3
 72
31
 73
27
 74
25
 42
0.0000001
 43
0.0000001
 44
0.0000000001
 12
0.3841565328
 22
0.6460480909
 32
0.0
 13
-0.3841565328
 23
0.6460480909
 33
0.0
 40
0.0
 40
0.0
 40
0.0
 40
0.0
 40
0.0624964977
 40
0.1250059231
 40
0.1875022467
 40
0.2499987186
 40
0.2812510177
 40
0.3125015776
 40
0.3437523142
 40
0.3750025275
 40
0.4062519259
 40
0.4375015161
 40
0.4687510069
 40
0.5000000406
 40
0.531249075
 40
0.5624985688
 40
0.5937481654
 40
0.6249975684
 40
0.6562477823
 40
0.6874985226
 40
0.7187490825
 40
0.7500013749
 40
0.8124978502
 40
0.8749941572
 40
0.9375035248
 40
1.0
 40
1.0
 40
1.0
 40
1.0
 10
13.7764972482
 20
3.6121714072
 30
0.0
 10
13.7845000608
 20
3.6256299882
 30
0.0
 10
13.7992632882
 20
3.6533076157
 30
0.0
 10
13.8178048059
 20
3.6965238154
 30
0.0
 10
13.8329536322
 20
3.7410369343
 30
0.0
 10
13.8429437701
 20
3.7789194779
 30
0.0
 10
13.8494648871
 20
3.8095550318
 30
0.0
 10
13.8536474342
 20
3.8326730025
 30
0.0
 10
13.8571418984
 20
3.8559038557
 30
0.0
 10
13.859972183
 20
3.8792244948
 30
0.0
 10
13.8621555579
 20
3.902614126
 30
0.0
 10
13.8637028556
 20
3.9260541289
 30
0.0
 10
13.8646278874
 20
3.9495267211
 30
0.0
 10
13.8649367511
 20
3.9730153563
 30
0.0
 10
13.8646278895
 20
3.9965039923
 30
0.0
 10
13.8637028488
 20
4.0199765867
 30
0.0
 10
13.8621555536
 20
4.0434165931
 30
0.0
 10
13.8599721806
 20
4.0668062276
 30
0.0
 10
13.8571418841
 20
4.0901268674
 30
0.0
 10
13.8536474212
 20
4.1133577218
 30
0.0
 10
13.8494648766
 20
4.1364756923
 30
0.0
 10
13.8429437493
 20
4.1671112431
 30
0.0
 10
13.8329536157
 20
4.2049937827
 30
0.0
 10
13.8178047834
 20
4.2495068807
 30
0.0
 10
13.7992632804
 20
4.2927230602
 30
0.0
 10
13.784500058
 20
4.3204006675
 30
0.0
 10
13.7764972482
 20
4.3338592437
 30
0.0
 11
13.7764972482
 21
3.6121714072
 31
0.0
 11
13.7986614411
 21
3.6535882428
 31
0.0
 11
13.8172405155
 21
3.696743042
 31
0.0
 11
13.8324269677
 21
3.7411948709
 31
0.0
 11
13.8444511337
 21
3.7866043779
 31
0.0
 11
13.8493468864
 21
3.8095788431
 31
0.0
 11
13.8535327615
 21
3.8326918584
 31
0.0
 11
13.8570312254
 21
3.8559189981
 31
0.0
 11
13.859864392
 21
3.879236244
 31
0.0
 11
13.862049544
 21
3.9026225034
 31
0.0
 11
13.8635991464
 21
3.9260596005
 31
0.0
 11
13.8645251964
 21
3.9495295326
 31
0.0
 11
13.8648337974
 21
3.9730153561
 31
0.0
 11
13.8645251966
 21
3.9965011801
 31
0.0
 11
13.8635991415
 21
4.0199711142
 31
0.0
 11
13.8620495396
 21
4.0434082162
 31
0.0
 11
13.8598643872
 21
4.066794479
 31
0.0
 11
13.8570312134
 21
4.0901117245
 31
0.0
 11
13.8535327485
 21
4.1133388669
 31
0.0
 11
13.8493468738
 21
4.1364518823
 31
0.0
 11
13.8444511171
 21
4.1594263415
 31
0.0
 11
13.8324269472
 21
4.2048358501
 31
0.0
 11
13.8172404924
 21
4.2492876649
 31
0.0
 11
13.7986614355
 21
4.2924424243
 31
0.0
 11
13.7764972482
 21
4.3338592437
 31
0.0
  0
SPLINE
  5
2EF
100
AcDbEntity
  8
0
100
AcDbSpline
 62
6
  6
CONTINUOUS
 70
0
 71
3
 72
33
 73
29
 74
27
 42
0.0000001
 43
0.0000001
 44
0.0000000001
 12
-0.2970033454
 22
-0.2970033454
 32
0.0
 13
0.2970033454
 23
-0.2970033454
 33
0.0
 40
0.0
 40
0.0
 40
0.0
 40
0.0
 40
0.0699789265
 40
0.1042083195
 40
0.1378955952
 40
0.1710193475
 40
0.2035590225
 40
0.2668385458
 40
0.3277640123
 40
0.3574148529
 40
0.386580339
 40
0.4153281635
 40
0.4437447709
 40
0.4719317448
 40
0.5000000438
 40
0.5280683391
 40
0.5562553114
 40
0.5846719185
 40
0.6134197343
 40
0.642585212
 40
0.6722360481
 40
0.733161494
 40
0.7964410052
 40
0.8289806688
 40
0.8621044103
 40
0.8957916807
 40
0.9300210723
 40
1.0
 40
1.0
 40
1.0
 40
1.0
 10
13.5764972482
 20
3.6121714072
 30
0.0
 10
13.5695692565
 20
3.6052434155
 30
0.0
 10
13.5594701459
 20
3.5947029766
 30
0.0
 10
13.5466830222
 20
3.5802353238
 30
0.0
 10
13.5376286482
 20
3.5693630176
 30
0.0
 10
13.5290763114
 20
3.5583891591
 30
0.0
 10
13.5184959236
 20
3.5437575234
 30
0.0
 10
13.5066904497
 20
3.5252249877
 30
0.0
 10
13.4968897585
 20
3.5059924716
 30
0.0
 10
13.4906020866
 20
3.4904414899
 30
0.0
 10
13.4867161632
 20
3.4788049089
 30
0.0
 10
13.4836516288
 20
3.4671031899
 30
0.0
 10
13.4814442014
 20
3.455348399
 30
0.0
 10
13.4801092567
 20
3.4435581893
 30
0.0
 10
13.4796598078
 20
3.4317494302
 30
0.0
 10
13.4801092476
 20
3.4199406702
 30
0.0
 10
13.481444217
 20
3.408150464
 30
0.0
 10
13.4836516354
 20
3.3963956737
 30
0.0
 10
13.4867161636
 20
3.384693955
 30
0.0
 10
13.4906020997
 20
3.3730573814
 30
0.0
 10
13.4968897677
 20
3.3575064036
 30
0.0
 10
13.5066904575
 20
3.3382738923
 30
0.0
 10
13.5184959313
 20
3.319741364
 30
0.0
 10
13.5290763157
 20
3.3051097317
 30
0.0
 10
13.5376286501
 20
3.2941358762
 30
0.0
 10
13.5466830228
 20
3.2832635721
 30
0.0
 10
13.559470146
 20
3.2687959199
 30
0.0
 10
13.5695692563
 20
3.2582554809
 30
0.0
 10
13.5764972482
 20
3.251327489
 30
0.0
 11
13.5764972482
 21
3.6121714072
 31
0.0
 11
13.5562020972
 21
3.5909098433
 31
0.0
 11
13.5466865594
 21
3.5801321077
 31
0.0
 11
13.5376380944
 21
3.5692539332
 31
0.0
 11
13.529093329
 21
3.558274217
 31
0.0
 11
13.5210927348
 21
3.5471930866
 31
0.0
 11
13.5068876468
 21
3.5247284111
 31
0.0
 11
13.4953561372
 21
3.5018835602
 31
0.0
 11
13.4906981593
 21
3.4903332977
 31
0.0
 11
13.486828058
 21
3.4787104168
 31
0.0
 11
13.4837791683
 21
3.4670268389
 31
0.0
 11
13.4815823017
 21
3.455295038
 31
0.0
 11
13.4802547762
 21
3.4435304342
 31
0.0
 11
13.4798094117
 21
3.4317494295
 31
0.0
 11
13.4802547727
 21
3.4199684263
 31
0.0
 11
13.4815823116
 21
3.4082038246
 31
0.0
 11
13.4837791757
 21
3.3964720234
 31
0.0
 11
13.4868280615
 21
3.3847884483
 31
0.0
 11
13.4906981696
 21
3.3731655733
 31
0.0
 11
13.495356148
 21
3.3616153131
 31
0.0
 11
13.5068876543
 21
3.3387704703
 31
0.0
 11
13.521092742
 21
3.3163058006
 31
0.0
 11
13.5290933333
 21
3.3052246739
 31
0.0
 11
13.5376380959
 21
3.2942449612
 31
0.0
 11
13.5466865596
 21
3.2833667886
 31
0.0
 11
13.556202097
 21
3.2725890534
 31
0.0
 11
13.5764972482
 21
3.251327489
 31
0.0
  0
SPLINE
  5
2F0
100
AcDbEntity
  8
0
100
AcDbSpline
 62
6
  6
CONTINUOUS
 70
0
 71
3
 72
35
 73
31
 74
29
 42
0.0000001
 43
0.0000001
 44
0.0000000001
 12
0.3177544448
 22
0.2671888083
 32
0.0
 13
-0.3177544448
 23
0.2671888083
 33
0.0
 40
0.0
 40
0.0
 40
0.0
 40
0.0
 40
0.0730624057
 40
0.1078864077
 40
0.1416720638
 40
0.1745225936
 40
0.2065378663
 40
0.2378147016
 40
0.2684479321
 40
0.3281089998
 40
0.3862029877
 40
0.4148560789
 40
0.4433285417
 40
0.4716827136
 40
0.4999779156
 40
0.5282731272
 40
0.5566273337
 40
0.585099848
 40
0.6137529831
 40
0.6426527281
 40
0.6718683606
 40
0.7014745305
 40
0.7315521532
 40
0.7621852405
 40
0.7934618442
 40
0.8254767296
 40
0.8583268716
 40
0.8921125586
 40
0.9269370943
 40
1.0
 40
1.0
 40
1.0
 40
1.0
 10
13.7764972482
 20
3.251327489
 30
0.0
 10
13.7842358829
 20
3.2578346414
 30
0.0
 10
13.7951918333
 20
3.268032665
 30
0.0
 10
13.8083940175
 20
3.2825363735
 30
0.0
 10
13.8172630687
 20
3.2934312941
 30
0.0
 10
13.8252814528
 20
3.304489141
 30
0.0
 10
13.8324791796
 20
3.3156872116
 30
0.0
 10
13.8388849508
 20
3.3270053775
 30
0.0
 10
13.8463389777
 20
3.34209589
 30
0.0
 10
13.8538913214
 20
3.3612399718
 30
0.0
 10
13.8592192659
 20
3.3808317032
 30
0.0
 10
13.8621497528
 20
3.3965113499
 30
0.0
 10
13.8637004186
 20
3.4082443779
 30
0.0
 10
13.8646274014
 20
3.4199929116
 30
0.0
 10
13.8649369286
 20
3.4317494606
 30
0.0
 10
13.8646274183
 20
3.4435059927
 30
0.0
 10
13.8637003899
 20
3.455254606
 30
0.0
 10
13.8621498022
 20
3.4669873999
 30
0.0
 10
13.8599616409
 20
3.4786951232
 30
0.0
 10
13.8571247518
 20
3.4903687556
 30
0.0
 10
13.8536219279
 20
3.5019981996
 30
0.0
 10
13.849429275
 20
3.5135708847
 30
0.0
 10
13.844525317
 20
3.525074283
 30
0.0
 10
13.838884877
 20
3.5364937179
 30
0.0
 10
13.8324792565
 20
3.5478114836
 30
0.0
 10
13.825281624
 20
3.5590095516
 30
0.0
 10
13.8172633246
 20
3.5700673046
 30
0.0
 10
13.8083942449
 20
3.5809622423
 30
0.0
 10
13.7951919585
 20
3.5954660526
 30
0.0
 10
13.7842359359
 20
3.6056642103
 30
0.0
 10
13.7764972482
 20
3.6121714072
 30
0.0
 11
13.7764972482
 21
3.251327489
 31
0.0
 11
13.7986612073
 21
3.272035565
 31
0.0
 11
13.8083887166
 21
3.2827311584
 31
0.0
 11
13.8172397343
 21
3.2936123706
 31
0.0
 11
13.8252426201
 21
3.3046556916
 31
0.0
 11
13.8324265366
 21
3.3158384546
 31
0.0
 11
13.8388200307
 21
3.3271402487
 31
0.0
 11
13.844450888
 21
3.3385434526
 31
0.0
 11
13.8535326357
 21
3.3615873115
 31
0.0
 11
13.8598643627
 21
3.3848596419
 31
0.0
 11
13.8620495302
 21
3.3965528318
 31
0.0
 11
13.8635991273
 21
3.4082714462
 31
0.0
 11
13.8645252067
 21
3.4200064771
 31
0.0
 11
13.8648338273
 21
3.4317494557
 31
0.0
 11
13.8645252134
 21
3.4434924384
 31
0.0
 11
13.8635991195
 21
3.4552274825
 31
0.0
 11
13.8620495333
 21
3.4669461199
 31
0.0
 11
13.8598643672
 21
3.4786393286
 31
0.0
 11
13.8570310851
 21
3.4902980115
 31
0.0
 11
13.8535326007
 21
3.5019116719
 31
0.0
 11
13.8493467166
 21
3.5134682414
 31
0.0
 11
13.8444508656
 21
3.5249554685
 31
0.0
 11
13.8388200226
 21
3.5363586132
 31
0.0
 11
13.8324265894
 21
3.5476603313
 31
0.0
 11
13.8252427931
 21
3.5588429804
 31
0.0
 11
13.8172400197
 21
3.5698861841
 31
0.0
 11
13.8083889905
 21
3.5807674034
 31
0.0
 11
13.7986613319
 21
3.5914631605
 31
0.0
 11
13.7764972482
 21
3.6121714072
 31
0.0
  0
SPLINE
  5
2F1
100
AcDbEntity
  8
0
100
AcDbSpline
 62
9
  6
CONTINUOUS
 70
0
 71
3
 72
30
 73
26
 74
24
 42
0.0000001
 43
0.0000001
 44
0.0000000001
 12
-0.0142489285
 22
-0.1079215023
 32
0.0
 13
-0.000175919
 23
-0.1088579427
 33
0.0
 40
0.0
 40
0.0
 40
0.0
 40
0.0
 40
0.0620535547
 40
0.124206778
 40
0.1553153594
 40
0.1864418457
 40
0.217584239
 40
0.2487421912
 40
0.3111061367
 40
0.342311918
 40
0.3735329951
 40
0.4047688938
 40
0.4360186977
 40
0.4985533183
 40
0.5611254302
 40
0.6237335972
 40
0.686384573
 40
0.7177271277
 40
0.7490801941
 40
0.8117971638
 40
0.8431546624
 40
0.8745122895
 40
0.9058757435
 40
0.9372476651
 40
1.0
 40
1.0
 40
1.0
 40
1.0
 10
10.4419148424
 20
4.0811896174
 30
0.0
 10
10.4416201101
 20
4.0789573131
 30
0.0
 10
10.4409890793
 20
4.0744945544
 30
0.0
 10
10.4401492811
 20
4.0689217078
 30
0.0
 10
10.4394772669
 20
4.0644584573
 30
0.0
 10
10.4389804911
 20
4.061106768
 30
0.0
 10
10.4385000375
 20
4.0577508793
 30
0.0
 10
10.4378839328
 20
4.0532694414
 30
0.0
 10
10.4372938435
 20
4.0487821767
 30
0.0
 10
10.4367124253
 20
4.0442914994
 30
0.0
 10
10.4362762249
 20
4.0409209573
 30
0.0
 10
10.4358347075
 20
4.0375494958
 30
0.0
 10
10.4352382635
 20
4.0330523844
 30
0.0
 10
10.4344959032
 20
4.0274276034
 30
0.0
 10
10.4336558692
 20
4.0206680025
 30
0.0
 10
10.4329168342
 20
4.0138922841
 30
0.0
 10
10.432373275
 20
4.0082357656
 30
0.0
 10
10.4319727608
 20
4.0037050857
 30
0.0
 10
10.4315907996
 20
3.9991704355
 30
0.0
 10
10.4312545102
 20
3.9946312432
 30
0.0
 10
10.4310071502
 20
3.9900863758
 30
0.0
 10
10.4308779508
 20
3.9866748918
 30
0.0
 10
10.4308107275
 20
3.9832611517
 30
0.0
 10
10.4307756408
 20
3.978707778
 30
0.0
 10
10.4307840189
 20
3.9752923555
 30
0.0
 10
10.4307803392
 20
3.9730153255
 30
0.0
 11
10.4419148424
 21
4.0811896174
 31
0.0
 11
10.4409794615
 21
4.0744996616
 31
0.0
 11
10.4399816075
 21
4.0678077687
 31
0.0
 11
10.439478646
 21
4.0644589071
 31
0.0
 11
10.4389833377
 21
4.0611069347
 31
0.0
 11
10.438503238
 21
4.057751001
 31
0.0
 11
10.4380403475
 21
4.0543909406
 31
0.0
 11
10.4371494212
 21
4.0476608349
 31
0.0
 11
10.4367125278
 21
4.0442920452
 31
0.0
 11
10.4362754425
 21
4.0409216014
 31
0.0
 11
10.4358338504
 21
4.0375501179
 31
0.0
 11
10.4353877549
 21
4.0341777004
 31
0.0
 11
10.4345046089
 21
4.0274278311
 31
0.0
 11
10.4336729353
 21
4.0206673147
 31
0.0
 11
10.4329315103
 21
4.0138923581
 31
0.0
 11
10.4322761182
 21
4.0071038568
 31
0.0
 11
10.4319751387
 21
4.0037052676
 31
0.0
 11
10.4316901315
 21
4.0003041535
 31
0.0
 11
10.4312000789
 21
3.9934945148
 31
0.0
 11
10.4310165381
 21
3.9900859355
 31
0.0
 11
10.4308882883
 21
3.9866748143
 31
0.0
 11
10.4308175516
 21
3.9832613817
 31
0.0
 11
10.4307882692
 21
3.9798464199
 31
0.0
 11
10.4307803392
 21
3.9730153255
 31
0.0
  0
SPLINE
  5
2F2
100
AcDbEntity
  8
0
100
AcDbSpline
 62
9
  6
CONTINUOUS
 70
0
 71
3
 72
30
 73
26
 74
24
 42
0.0000001
 43
0.0000001
 44
0.0000000001
 12
0.0162347942
 22
-0.1042612285
 32
0.0
 13
-0.0001093708
 23
-0.1055175831
 33
0.0
 40
0.0
 40
0.0
 40
0.0
 40
0.0
 40
0.0618981751
 40
0.1239139076
 40
0.1860386472
 40
0.2171395062
 40
0.2482647609
 40
0.3105832115
 40
0.3729830681
 40
0.4042107521
 40
0.4354562777
 40
0.4980007951
 40
0.5606166776
 40
0.6232967231
 40
0.6546511072
 40
0.6860106578
 40
0.7173749469
 40
0.7487465484
 40
0.7801296814
 40
0.8115255864
 40
0.8429325334
 40
0.8743468505
 40
0.9057638059
 40
0.9371790234
 40
1.0
 40
1.0
 40
1.0
 40
1.0
 10
10.4101801586
 20
4.0777169792
 30
0.0
 10
10.4105151267
 20
4.075565786
 30
0.0
 10
10.4111782765
 20
4.0712581602
 30
0.0
 10
10.4121697888
 20
4.0647902674
 30
0.0
 10
10.4130083301
 20
4.0593947921
 30
0.0
 10
10.4136964273
 20
4.055075517
 30
0.0
 10
10.4143960695
 20
4.0507511975
 30
0.0
 10
10.4152796059
 20
4.0453414633
 30
0.0
 10
10.416148779
 20
4.0399257185
 30
0.0
 10
10.4168194219
 20
4.0355851018
 30
0.0
 10
10.4174707863
 20
4.03123641
 30
0.0
 10
10.4182500017
 20
4.0257905967
 30
0.0
 10
10.4191300542
 20
4.019242605
 30
0.0
 10
10.4198212589
 20
4.0137761895
 30
0.0
 10
10.4203198167
 20
4.0093939626
 30
0.0
 10
10.4206584895
 20
4.0061022952
 30
0.0
 10
10.4209545364
 20
4.0028058647
 30
0.0
 10
10.4211989305
 20
3.9995043682
 30
0.0
 10
10.4214004916
 20
3.9961989235
 30
0.0
 10
10.4215707699
 20
3.992890508
 30
0.0
 10
10.4217201191
 20
3.9895800059
 30
0.0
 10
10.4218610072
 20
3.9862684092
 30
0.0
 10
10.4219980904
 20
3.982956331
 30
0.0
 10
10.4221524114
 20
3.978539525
 30
0.0
 10
10.4222146985
 20
3.975224898
 30
0.0
 10
10.4222124082
 20
3.9730153255
 30
0.0
 11
10.4101801586
 21
4.0777169792
 31
0.0
 11
10.4111769642
 21
4.0712621436
 31
0.0
 11
10.4121714363
 21
4.0647943976
 31
0.0
 11
10.4131813705
 21
4.0583174066
 31
0.0
 11
10.4136975994
 21
4.0550765746
 31
0.0
 11
10.4142213752
 21
4.0518343462
 31
0.0
 11
10.4152761604
 21
4.0453437989
 31
0.0
 11
10.4163140783
 21
4.0388418344
 31
0.0
 11
10.416816822
 21
4.0355853416
 31
0.0
 11
10.417305338
 21
4.0323247805
 31
0.0
 11
10.4182403667
 21
4.0257918042
 31
0.0
 11
10.4191212203
 21
4.0192437049
 31
0.0
 11
10.4199412444
 21
4.012680887
 31
0.0
 11
10.4203139016
 21
4.0093935011
 31
0.0
 11
10.4206513596
 21
4.0061017677
 31
0.0
 11
10.4209458956
 21
4.0028054145
 31
0.0
 11
10.4211917521
 21
3.9995042998
 31
0.0
 11
10.4213952409
 21
3.9961990837
 31
0.0
 11
10.421567254
 21
3.9928907307
 31
0.0
 11
10.4217186921
 21
3.9895802057
 31
0.0
 11
10.4218603671
 21
3.9862684701
 31
0.0
 11
10.421994537
 21
3.9829561434
 31
0.0
 11
10.4221079004
 21
3.9796432228
 31
0.0
 11
10.4222124082
 21
3.9730153255
 31
0.0
  0
SPLINE
  5
2F3
100
AcDbEntity
  8
0
100
AcDbSpline
 62
6
  6
CONTINUOUS
 70
0
 71
3
 72
33
 73
29
 74
27
 42
0.0000001
 43
0.0000001
 44
0.0000000001
 12
-0.2970033454
 22
-0.2970033454
 32
0.0
 13
0.2970033454
 23
-0.2970033454
 33
0.0
 40
0.0
 40
0.0
 40
0.0
 40
0.0
 40
0.0699789265
 40
0.1042083195
 40
0.1378955952
 40
0.1710193475
 40
0.2035590225
 40
0.2668385458
 40
0.3277640123
 40
0.3574148529
 40
0.386580339
 40
0.4153281635
 40
0.4437447709
 40
0.4719317448
 40
0.5000000438
 40
0.5280683391
 40
0.5562553114
 40
0.5846719185
 40
0.6134197343
 40
0.642585212
 40
0.6722360481
 40
0.733161494
 40
0.7964410052
 40
0.8289806688
 40
0.8621044103
 40
0.8957916807
 40
0.9300210723
 40
1.0
 40
1.0
 40
1.0
 40
1.0
 10
13.5764972482
 20
4.694703162
 30
0.0
 10
13.5695692565
 20
4.6877751702
 30
0.0
 10
13.5594701459
 20
4.6772347313
 30
0.0
 10
13.5466830222
 20
4.6627670786
 30
0.0
 10
13.5376286482
 20
4.6518947723
 30
0.0
 10
13.5290763114
 20
4.6409209138
 30
0.0
 10
13.5184959236
 20
4.6262892781
 30
0.0
 10
13.5066904497
 20
4.6077567424
 30
0.0
 10
13.4968897585
 20
4.5885242263
 30
0.0
 10
13.4906020866
 20
4.5729732446
 30
0.0
 10
13.4867161632
 20
4.5613366636
 30
0.0
 10
13.4836516288
 20
4.5496349446
 30
0.0
 10
13.4814442014
 20
4.5378801538
 30
0.0
 10
13.4801092567
 20
4.526089944
 30
0.0
 10
13.4796598078
 20
4.5142811849
 30
0.0
 10
13.4801092476
 20
4.5024724249
 30
0.0
 10
13.481444217
 20
4.4906822188
 30
0.0
 10
13.4836516354
 20
4.4789274284
 30
0.0
 10
13.4867161636
 20
4.4672257097
 30
0.0
 10
13.4906020997
 20
4.4555891362
 30
0.0
 10
13.4968897677
 20
4.4400381583
 30
0.0
 10
13.5066904575
 20
4.420805647
 30
0.0
 10
13.5184959313
 20
4.4022731187
 30
0.0
 10
13.5290763157
 20
4.3876414864
 30
0.0
 10
13.5376286501
 20
4.3766676309
 30
0.0
 10
13.5466830228
 20
4.3657953268
 30
0.0
 10
13.559470146
 20
4.3513276746
 30
0.0
 10
13.5695692563
 20
4.3407872356
 30
0.0
 10
13.5764972482
 20
4.3338592437
 30
0.0
 11
13.5764972482
 21
4.694703162
 31
0.0
 11
13.5562020972
 21
4.673441598
 31
0.0
 11
13.5466865594
 21
4.6626638624
 31
0.0
 11
13.5376380944
 21
4.6517856879
 31
0.0
 11
13.529093329
 21
4.6408059717
 31
0.0
 11
13.5210927348
 21
4.6297248413
 31
0.0
 11
13.5068876468
 21
4.6072601658
 31
0.0
 11
13.4953561372
 21
4.5844153149
 31
0.0
 11
13.4906981593
 21
4.5728650524
 31
0.0
 11
13.486828058
 21
4.5612421715
 31
0.0
 11
13.4837791683
 21
4.5495585937
 31
0.0
 11
13.4815823017
 21
4.5378267927
 31
0.0
 11
13.4802547762
 21
4.5260621889
 31
0.0
 11
13.4798094117
 21
4.5142811842
 31
0.0
 11
13.4802547727
 21
4.502500181
 31
0.0
 11
13.4815823116
 21
4.4907355793
 31
0.0
 11
13.4837791757
 21
4.4790037781
 31
0.0
 11
13.4868280615
 21
4.467320203
 31
0.0
 11
13.4906981696
 21
4.4556973281
 31
0.0
 11
13.495356148
 21
4.4441470678
 31
0.0
 11
13.5068876543
 21
4.421302225
 31
0.0
 11
13.521092742
 21
4.3988375553
 31
0.0
 11
13.5290933333
 21
4.3877564287
 31
0.0
 11
13.5376380959
 21
4.3767767159
 31
0.0
 11
13.5466865596
 21
4.3658985434
 31
0.0
 11
13.556202097
 21
4.3551208082
 31
0.0
 11
13.5764972482
 21
4.3338592437
 31
0.0
  0
SPLINE
  5
2F4
100
AcDbEntity
  8
0
100
AcDbSpline
 62
9
  6
CONTINUOUS
 70
0
 71
3
 72
55
 73
51
 74
49
 42
0.0000001
 43
0.0000001
 44
0.0000000001
 12
0.0822988566
 22
-0.4066508108
 32
0.0
 13
0.355336554
 23
-0.214181972
 33
0.0
 40
0.0
 40
0.0
 40
0.0
 40
0.0
 40
0.0000047124
 40
0.0000185505
 40
0.0000415133
 40
0.0000735993
 40
0.0001148065
 40
0.0001651333
 40
0.0002931381
 40
0.0004575993
 40
0.0006585024
 40
0.0008958327
 40
0.0011695758
 40
0.0014797171
 40
0.0018262422
 40
0.0026283853
 40
0.0035758889
 40
0.0046686367
 40
0.0059065124
 40
0.0072893998
 40
0.0088171827
 40
0.0104897448
 40
0.0142687263
 40
0.0186244222
 40
0.0235533698
 40
0.0290519705
 40
0.035116626
 40
0.0417437378
 40
0.0489297079
 40
0.0566709214
 40
0.0738007066
 40
0.0930910798
 40
0.1144987452
 40
0.1379797278
 40
0.16348153
 40
0.1909458634
 40
0.2203143651
 40
0.2515274291
 40
0.2845202164
 40
0.3555806692
 40
0.4329636255
 40
0.5161246386
 40
0.6045229602
 40
0.6505201899
 40
0.6976283227
 40
0.745782782
 40
0.7949204494
 40
0.8449791912
 40
0.8958947504
 40
1.0
 40
1.0
 40
1.0
 40
1.0
 10
11.2331128788
 20
5.0927847322
 30
0.0
 10
11.233113008
 20
5.0927840935
 30
0.0
 10
11.2331159022
 20
5.0927830206
 30
0.0
 10
11.2331195923
 20
5.0927790005
 30
0.0
 10
11.2331276012
 20
5.0927734474
 30
0.0
 10
11.2331379279
 20
5.0927651884
 30
0.0
 10
11.233151549
 20
5.0927547977
 30
0.0
 10
11.2331755654
 20
5.0927362495
 30
0.0
 10
11.2332131661
 20
5.092707358
 30
0.0
 10
11.2332672495
 20
5.0926657652
 30
0.0
 10
11.2333333449
 20
5.0926149795
 30
0.0
 10
11.2334114259
 20
5.0925549908
 30
0.0
 10
11.2335014936
 20
5.0924858056
 30
0.0
 10
11.2336035397
 20
5.0924074244
 30
0.0
 10
11.2337635423
 20
5.0922845315
 30
0.0
 10
11.2339934502
 20
5.0921079453
 30
0.0
 10
11.2343051931
 20
5.0918684815
 30
0.0
 10
11.2346647061
 20
5.0915922835
 30
0.0
 10
11.2350719409
 20
5.0912793673
 30
0.0
 10
11.235526849
 20
5.0909297489
 30
0.0
 10
11.2360293817
 20
5.0905434442
 30
0.0
 10
11.2367945718
 20
5.0899550971
 30
0.0
 10
11.2378696455
 20
5.089128154
 30
0.0
 10
11.2393014744
 20
5.088026359
 30
0.0
 10
11.2409217293
 20
5.0867794631
 30
0.0
 10
11.2427293431
 20
5.085388497
 30
0.0
 10
11.2447232452
 20
5.0838545175
 30
0.0
 10
11.2469023625
 20
5.082178578
 30
0.0
 10
11.2492656196
 20
5.0803617332
 30
0.0
 10
11.2527810121
 20
5.0776603835
 30
0.0
 10
11.2576251309
 20
5.0739407845
 30
0.0
 10
11.2639704965
 20
5.0690729044
 30
0.0
 10
11.2710151943
 20
5.0636735492
 30
0.0
 10
11.2787440506
 20
5.0577546994
 30
0.0
 10
11.2871425682
 20
5.0513326312
 30
0.0
 10
11.2961957508
 20
5.0444262594
 30
0.0
 10
11.3058875158
 20
5.0370547248
 30
0.0
 10
11.31620117
 20
5.0292378872
 30
0.0
 10
11.3311347054
 20
5.0179708551
 30
0.0
 10
11.3512258207
 20
5.0029382317
 30
0.0
 10
11.3770004959
 20
4.9839213874
 30
0.0
 10
11.4048820546
 20
4.9637232942
 30
0.0
 10
11.4294308077
 20
4.9463258591
 30
0.0
 10
11.4500358451
 20
4.9319894566
 30
0.0
 10
11.4661404444
 20
4.9209304041
 30
0.0
 10
11.4826780431
 20
4.9097353939
 30
0.0
 10
11.4996381424
 20
4.8984375338
 30
0.0
 10
11.5170092822
 20
4.8870690074
 30
0.0
 10
11.5408781313
 20
4.8717490634
 30
0.0
 10
11.559099709
 20
4.8604478147
 30
0.0
 10
11.5714305092
 20
4.8530153255
 30
0.0
 11
11.2331128788
 21
5.0927847322
 31
0.0
 11
11.2331143981
 21
5.0927835017
 31
0.0
 11
11.2331189236
 21
5.0927799686
 31
0.0
 11
11.2331264545
 21
5.0927741331
 31
0.0
 11
11.2331369901
 21
5.0927659956
 31
0.0
 11
11.2331505295
 21
5.0927555562
 31
0.0
 11
11.233167072
 21
5.0927428152
 31
0.0
 11
11.2332091634
 21
5.0927104294
 31
0.0
 11
11.2332632582
 21
5.0926688403
 31
0.0
 11
11.2333293502
 21
5.0926180498
 31
0.0
 11
11.2334074335
 21
5.0925580598
 31
0.0
 11
11.2334975019
 21
5.0924888725
 31
0.0
 11
11.2335995494
 21
5.0924104898
 31
0.0
 11
11.2337135699
 21
5.0923229136
 31
0.0
 11
11.2339775057
 21
5.092120189
 31
0.0
 11
11.2342892607
 21
5.0918807146
 31
0.0
 11
11.2346487862
 21
5.0916045064
 31
0.0
 11
11.2350560337
 21
5.0912915803
 31
0.0
 11
11.2355109547
 21
5.0909419524
 31
0.0
 11
11.2360135005
 21
5.0905556384
 31
0.0
 11
11.2365636227
 21
5.0901326544
 31
0.0
 11
11.2378063975
 21
5.0891767454
 31
0.0
 11
11.2392386365
 21
5.0880746982
 31
0.0
 11
11.2408593027
 21
5.0868275208
 31
0.0
 11
11.2426673245
 21
5.0854362689
 31
0.0
 11
11.2446616302
 21
5.0839019978
 31
0.0
 11
11.246841148
 21
5.082225763
 31
0.0
 11
11.2492048064
 21
5.0804086199
 31
0.0
 11
11.2517515275
 21
5.0784516275
 31
0.0
 11
11.2573884335
 21
5.0741231567
 31
0.0
 11
11.2637385144
 21
5.069251586
 31
0.0
 11
11.270787955
 21
5.0638484219
 31
0.0
 11
11.2785228483
 21
5.0579255146
 31
0.0
 11
11.2869281356
 21
5.0514990311
 31
0.0
 11
11.2959879733
 21
5.0445880808
 31
0.0
 11
11.3056865025
 21
5.0372118302
 31
0.0
 11
11.3160077755
 21
5.0293902141
 31
0.0
 11
11.3269354782
 21
5.021146329
 31
0.0
 11
11.3505445417
 21
5.0034873933
 31
0.0
 11
11.3763840496
 21
4.9844321298
 31
0.0
 11
11.4043292723
 21
4.9641953194
 31
0.0
 11
11.4342551453
 21
4.9429921677
 31
0.0
 11
11.4499207035
 21
4.9320930673
 31
0.0
 11
11.4660332501
 21
4.9210300498
 31
0.0
 11
11.4825791207
 21
4.9098319846
 31
0.0
 11
11.4995472451
 21
4.8985310246
 31
0.0
 11
11.5169266839
 21
4.8871594885
 31
0.0
 11
11.5347067838
 21
4.8757525804
 31
0.0
 11
11.5714305092
 21
4.8530153255
 31
0.0
  0
SPLINE
  5
2F5
100
AcDbEntity
  8
0
100
AcDbSpline
 62
9
  6
CONTINUOUS
 70
0
 71
3
 72
52
 73
48
 74
46
 42
0.0000001
 43
0.0000001
 44
0.0000000001
 12
0.4521982296
 22
0.0736315151
 32
0.0
 13
0.4423078116
 23
-0.1194514065
 33
0.0
 40
0.0
 40
0.0
 40
0.0
 40
0.0
 40
0.0000049758
 40
0.000019523
 40
0.0000436389
 40
0.0000773202
 40
0.0001205637
 40
0.0001733659
 40
0.0003076332
 40
0.000480095
 40
0.0006907243
 40
0.0009394941
 40
0.0012263774
 40
0.0015513471
 40
0.0019143763
 40
0.0027545046
 40
0.0037465464
 40
0.0048902852
 40
0.0061855052
 40
0.00763199
 40
0.0092295237
 40
0.0109778903
 40
0.0149262324
 40
0.0194742613
 40
0.0246179116
 40
0.0303530296
 40
0.0366754627
 40
0.0435810602
 40
0.0510656734
 40
0.0591250725
 40
0.0769430442
 40
0.0969766131
 40
0.1191656271
 40
0.1434487066
 40
0.1697544883
 40
0.1980067933
 40
0.2281294828
 40
0.2600446019
 40
0.2936696084
 40
0.3657170777
 40
0.4436143286
 40
0.5267187355
 40
0.6144135613
 40
0.6598031549
 40
0.7061273016
 40
0.8013122257
 40
1.0
 40
1.0
 40
1.0
 40
1.0
 10
11.0835588199
 20
4.9053192258
 30
0.0
 10
11.0835595699
 20
4.9053193479
 30
0.0
 10
11.0835622209
 20
4.9053172446
 30
0.0
 10
11.0835684347
 20
4.9053155105
 30
0.0
 10
11.083578523
 20
4.905310615
 30
0.0
 10
11.0835926994
 20
4.9053046923
 30
0.0
 10
11.0836108565
 20
4.9052967001
 30
0.0
 10
11.0836431041
 20
4.9052826879
 30
0.0
 10
11.0836934213
 20
4.9052606912
 30
0.0
 10
11.0837658164
 20
4.9052290536
 30
0.0
 10
11.0838542177
 20
4.9051903621
 30
0.0
 10
11.0839586142
 20
4.9051446391
 30
0.0
 10
11.0840789917
 20
4.9050918773
 30
0.0
 10
11.0842153372
 20
4.9050320799
 30
0.0
 10
11.0844290389
 20
4.9049383022
 30
0.0
 10
11.0847359864
 20
4.9048034938
 30
0.0
 10
11.0851520336
 20
4.9046205952
 30
0.0
 10
11.0856316349
 20
4.9044095677
 30
0.0
 10
11.0861746846
 20
4.9041704168
 30
0.0
 10
11.0867810767
 20
4.9039031479
 30
0.0
 10
11.0874507048
 20
4.9036077652
 30
0.0
 10
11.0884697804
 20
4.9031578818
 30
0.0
 10
11.0899007578
 20
4.9025253187
 30
0.0
 10
11.0918056585
 20
4.9016823733
 30
0.0
 10
11.0939601368
 20
4.9007291076
 30
0.0
 10
11.0963627336
 20
4.8996668938
 30
0.0
 10
11.0990119997
 20
4.8984971597
 30
0.0
 10
11.101906482
 20
4.8972213248
 30
0.0
 10
11.1050447108
 20
4.8958408018
 30
0.0
 10
11.1097101041
 20
4.8937931556
 30
0.0
 10
11.1161339274
 20
4.8909834253
 30
0.0
 10
11.1245397631
 20
4.887320442
 30
0.0
 10
11.1338557262
 20
4.8832745164
 30
0.0
 10
11.1440550599
 20
4.8788580215
 30
0.0
 10
11.1551111756
 20
4.8740898901
 30
0.0
 10
11.1669959521
 20
4.8689912659
 30
0.0
 10
11.1796801045
 20
4.8635832287
 30
0.0
 10
11.1931337074
 20
4.8578879248
 30
0.0
 10
11.2125085654
 20
4.8497562593
 30
0.0
 10
11.2384165819
 20
4.8390456122
 30
0.0
 10
11.2714255884
 20
4.8257358385
 30
0.0
 10
11.3068059296
 20
4.8119224429
 30
0.0
 10
11.337717275
 20
4.8003197672
 30
0.0
 10
11.3634770705
 20
4.7909846245
 30
0.0
 10
11.390391291
 20
4.7814797998
 30
0.0
 10
11.4396133662
 20
4.7648501933
 30
0.0
 10
11.4826137626
 20
4.7519089293
 30
0.0
 10
11.5119074808
 20
4.7439977513
 30
0.0
 11
11.0835588199
 21
4.9053192258
 31
0.0
 11
11.0835609296
 21
4.905318362
 31
0.0
 11
11.0835670561
 21
4.9053157378
 31
0.0
 11
11.0835771977
 21
4.9053113534
 31
0.0
 11
11.0835913528
 21
4.9053052087
 31
0.0
 11
11.0836095197
 21
4.9052973039
 31
0.0
 11
11.0836316967
 21
4.9052876391
 31
0.0
 11
11.0836880747
 21
4.9052630298
 31
0.0
 11
11.0837604736
 21
4.9052313813
 31
0.0
 11
11.08384888
 21
4.9051926944
 31
0.0
 11
11.0839532807
 21
4.9051469697
 31
0.0
 11
11.0840736626
 21
4.905094208
 31
0.0
 11
11.0842100123
 21
4.9050344099
 31
0.0
 11
11.0843623167
 21
4.904967576
 31
0.0
 11
11.0847147365
 21
4.9048128039
 31
0.0
 11
11.0851308161
 21
4.9046298971
 31
0.0
 11
11.0856104497
 21
4.9044188609
 31
0.0
 11
11.0861535314
 21
4.9041797009
 31
0.0
 11
11.0867599553
 21
4.9039124224
 31
0.0
 11
11.0874296156
 21
4.9036170309
 31
0.0
 11
11.0881624065
 21
4.9032935318
 31
0.0
 11
11.0898169499
 21
4.9025622469
 31
0.0
 11
11.091722483
 21
4.9017191964
 31
0.0
 11
11.0938775771
 21
4.9007657547
 31
0.0
 11
11.0962807813
 21
4.8997033466
 31
0.0
 11
11.098930645
 21
4.8985333969
 31
0.0
 11
11.1018257174
 21
4.8972573304
 31
0.0
 11
11.1049645478
 21
4.8958765719
 31
0.0
 11
11.1083456445
 21
4.8943925484
 31
0.0
 11
11.1158246223
 21
4.8911206218
 31
0.0
 11
11.1242387091
 21
4.8874535838
 31
0.0
 11
11.1335630891
 21
4.8834035127
 31
0.0
 11
11.1437726343
 21
4.8789831799
 31
0.0
 11
11.1548396705
 21
4.8742110074
 31
0.0
 11
11.1667352823
 21
4.8691081711
 31
0.0
 11
11.1794305448
 21
4.8636958691
 31
0.0
 11
11.1928960755
 21
4.8579964597
 31
0.0
 11
11.2071013599
 21
4.8520351743
 31
0.0
 11
11.2376084659
 21
4.839429681
 31
0.0
 11
11.2707115453
 21
4.8260923329
 31
0.0
 11
11.3061819938
 21
4.812253186
 31
0.0
 11
11.3438008018
 21
4.7981438354
 31
0.0
 11
11.3633523788
 21
4.7910596999
 31
0.0
 11
11.3833654793
 21
4.7839945616
 31
0.0
 11
11.4246882884
 21
4.7700590342
 31
0.0
 11
11.5119074808
 21
4.7439977513
 31
0.0
  0
SPLINE
  5
2F6
100
AcDbEntity
  8
0
100
AcDbSpline
 62
9
  6
CONTINUOUS
 70
0
 71
3
 72
39
 73
35
 74
33
 42
0.0000001
 43
0.0000001
 44
0.0000000001
 12
0.2321456032
 22
-0.1853899177
 32
0.0
 13
0.0169549749
 23
-0.2966033235
 33
0.0
 40
0.0
 40
0.0
 40
0.0
 40
0.0
 40
0.0603987661
 40
0.1212052585
 40
0.1823874581
 40
0.2439163629
 40
0.305763388
 40
0.3679015321
 40
0.4303053403
 40
0.4929494378
 40
0.5558088477
 40
0.6188590286
 40
0.650448221
 40
0.6820761843
 40
0.7137400341
 40
0.7454369426
 40
0.7771641472
 40
0.8089189583
 40
0.8406987681
 40
0.8725009473
 40
0.8884115964
 40
0.9043276087
 40
0.9122888442
 40
0.9202510484
 40
0.9282158849
 40
0.9361839859
 40
0.9441523892
 40
0.952123944
 40
0.9601016842
 40
0.9680791017
 40
0.9760560123
 40
0.9840381357
 40
0.9920231108
 40
1.0
 40
1.0
 40
1.0
 40
1.0
 10
11.5714305092
 20
4.8530153255
 30
0.0
 10
11.5761042785
 20
4.8492828847
 30
0.0
 10
11.5854779499
 20
4.8417860184
 30
0.0
 10
11.5995637906
 20
4.8304805455
 30
0.0
 10
11.6137168152
 20
4.8190800265
 30
0.0
 10
11.6279308736
 20
4.8075910562
 30
0.0
 10
11.6421980129
 20
4.7960172077
 30
0.0
 10
11.6565100343
 20
4.784361201
 30
0.0
 10
11.6708494119
 20
4.7726138877
 30
0.0
 10
11.6852011663
 20
4.7607691312
 30
0.0
 10
11.6995459612
 20
4.7488156694
 30
0.0
 10
11.7114663806
 20
4.7387571343
 30
0.0
 10
11.720971407
 20
4.7306325232
 30
0.0
 10
11.7280822979
 20
4.7244907993
 30
0.0
 10
11.7351623918
 20
4.7182973476
 30
0.0
 10
11.7422004448
 20
4.7120412779
 30
0.0
 10
11.7491797594
 20
4.7057062218
 30
0.0
 10
11.7560751126
 20
4.6992674389
 30
0.0
 10
11.7628436565
 20
4.6926844873
 30
0.0
 10
11.7683167779
 20
4.6870228649
 30
0.0
 10
11.7725210074
 20
4.6823283102
 30
0.0
 10
11.7750466049
 20
4.6793024631
 30
0.0
 10
11.7769829693
 20
4.6768136818
 30
0.0
 10
11.7783840722
 20
4.6749071696
 30
0.0
 10
11.7797251226
 20
4.6729570164
 30
0.0
 10
11.7809954862
 20
4.6709591656
 30
0.0
 10
11.7821794157
 20
4.6689078691
 30
0.0
 10
11.7832605238
 20
4.6667991948
 30
0.0
 10
11.7842217834
 20
4.6646319964
 30
0.0
 10
11.7850478019
 20
4.6624088616
 30
0.0
 10
11.7857202725
 20
4.6601337144
 30
0.0
 10
11.7862257882
 20
4.6578150428
 30
0.0
 10
11.7865760234
 20
4.6554683401
 30
0.0
 10
11.7867120015
 20
4.6538923911
 30
0.0
 10
11.7867570841
 20
4.6531037338
 30
0.0
 11
11.5714305092
 21
4.8530153255
 31
0.0
 11
11.5854432015
 21
4.8418072231
 31
0.0
 11
11.5995314554
 21
4.8304997062
 31
0.0
 11
11.6136869014
 21
4.819097629
 31
0.0
 11
11.6279029752
 21
4.8076066633
 31
0.0
 11
11.642171916
 21
4.7960308059
 31
0.0
 11
11.6564840291
 21
4.7843709476
 31
0.0
 11
11.6708238988
 21
4.7726203201
 31
0.0
 11
11.6851753805
 21
4.7607714333
 31
0.0
 11
11.699519138
 21
4.7488130554
 31
0.0
 11
11.7138303592
 21
4.7367277277
 31
0.0
 11
11.7209632535
 21
4.7306289204
 31
0.0
 11
11.7280731409
 21
4.7244856755
 31
0.0
 11
11.7351517007
 21
4.7182901596
 31
0.0
 11
11.7421873059
 21
4.7120311212
 31
0.0
 11
11.7491627475
 21
4.705691712
 31
0.0
 11
11.7560512891
 21
4.6992459718
 31
0.0
 11
11.7628079892
 21
4.6926515225
 31
0.0
 11
11.7693520686
 21
4.6858368095
 31
0.0
 11
11.7724999906
 21
4.6823106572
 31
0.0
 11
11.7755233258
 21
4.6786750455
 31
0.0
 11
11.7769742961
 21
4.6768072179
 31
0.0
 11
11.7783738472
 21
4.6749002012
 31
0.0
 11
11.7797131061
 21
4.6729494214
 31
0.0
 11
11.7809810075
 21
4.6709503784
 31
0.0
 11
11.7821620556
 21
4.6688987211
 31
0.0
 11
11.7832402195
 21
4.6667901271
 31
0.0
 11
11.7841992188
 21
4.6646227247
 31
0.0
 11
11.7850222066
 21
4.6624002148
 31
0.0
 11
11.7856922894
 21
4.6601270818
 31
0.0
 11
11.78619985
 21
4.6578106471
 31
0.0
 11
11.7865517419
 21
4.6554646551
 31
0.0
 11
11.7867570841
 21
4.6531037338
 31
0.0
  0
SPLINE
  5
2F7
100
AcDbEntity
  8
0
100
AcDbSpline
 62
9
  6
CONTINUOUS
 70
0
 71
3
 72
49
 73
45
 74
43
 42
0.0000001
 43
0.0000001
 44
0.0000000001
 12
0.2767883886
 22
-0.0747690693
 32
0.0
 13
-0.0273056506
 23
-0.2854060743
 33
0.0
 40
0.0
 40
0.0
 40
0.0
 40
0.0
 40
0.0606933788
 40
0.1217293047
 40
0.1830790393
 40
0.2447182292
 40
0.275639545
 40
0.3066256065
 40
0.3376744803
 40
0.3687837499
 40
0.3999503049
 40
0.4311711468
 40
0.4937652146
 40
0.5565453769
 40
0.6194919208
 40
0.6510217674
 40
0.6825862953
 40
0.714183308
 40
0.7458106607
 40
0.777466267
 40
0.8091480995
 40
0.8249984064
 40
0.8408545421
 40
0.8567164854
 40
0.8725838252
 40
0.8884567645
 40
0.8963953193
 40
0.9043357237
 40
0.912277544
 40
0.9202205962
 40
0.9281667451
 40
0.9361148552
 40
0.9440645564
 40
0.9480429825
 40
0.9520233502
 40
0.959981673
 40
0.9679653242
 40
0.9719737601
 40
0.9759752788
 40
0.979967198
 40
0.9839613349
 40
0.9879717358
 40
0.9919935805
 40
1.0
 40
1.0
 40
1.0
 40
1.0
 10
11.5119072207
 20
4.7439982018
 30
0.0
 10
11.5175069616
 20
4.7424855393
 30
0.0
 10
11.5287380759
 20
4.7394517813
 30
0.0
 10
11.5456268873
 20
4.7348793775
 30
0.0
 10
11.5625970712
 20
4.7302616734
 30
0.0
 10
11.5767828426
 20
4.726372754
 30
0.0
 10
11.588166709
 20
4.723239015
 30
0.0
 10
11.5967309557
 20
4.72087772
 30
0.0
 10
11.6053127736
 20
4.7185125745
 30
0.0
 10
11.6139117404
 20
4.7161447308
 30
0.0
 10
11.6225257397
 20
4.7137695717
 30
0.0
 10
11.6340380878
 20
4.7105859059
 30
0.0
 10
11.6484566501
 20
4.7065759942
 30
0.0
 10
11.6657806592
 20
4.7016974704
 30
0.0
 10
11.6802269608
 20
4.697552899
 30
0.0
 10
11.6917877037
 20
4.6941692848
 30
0.0
 10
11.7004619198
 20
4.6915896575
 30
0.0
 10
11.709131295
 20
4.6889614506
 30
0.0
 10
11.717791526
 20
4.6862736367
 30
0.0
 10
11.7264366533
 20
4.6835107615
 30
0.0
 10
11.733619669
 20
4.6811270773
 30
0.0
 10
11.7393470554
 20
4.67915292
 30
0.0
 10
11.7436307544
 20
4.6776305345
 30
0.0
 10
11.747898436
 20
4.6760589332
 30
0.0
 10
11.7521438149
 20
4.6744234387
 30
0.0
 10
11.7556567534
 20
4.6729944659
 30
0.0
 10
11.7584447679
 20
4.6717961951
 30
0.0
 10
11.7605229494
 20
4.6708665366
 30
0.0
 10
11.7625845002
 20
4.6698994021
 30
0.0
 10
11.7646240547
 20
4.6688853178
 30
0.0
 10
11.7666366092
 20
4.6678171518
 30
0.0
 10
11.7686128371
 20
4.666681477
 30
0.0
 10
11.7702166964
 20
4.6656620366
 30
0.0
 10
11.7714658655
 20
4.6647950024
 30
0.0
 10
11.7726878253
 20
4.663888647
 30
0.0
 10
11.7741491085
 20
4.6626639271
 30
0.0
 10
11.775471927
 20
4.6612830484
 30
0.0
 10
11.7764077496
 20
4.6600727729
 30
0.0
 10
11.7770326384
 20
4.6591091143
 30
0.0
 10
11.777562823
 20
4.6580912394
 30
0.0
 10
11.7779780652
 20
4.6570198752
 30
0.0
 10
11.7782678389
 20
4.6559050377
 30
0.0
 10
11.7784960105
 20
4.6543874318
 30
0.0
 10
11.7784961628
 20
4.6532282913
 30
0.0
 10
11.7784232893
 20
4.6524665977
 30
0.0
 11
11.5119072207
 21
4.7439982018
 31
0.0
 11
11.5287060392
 21
4.7394587187
 31
0.0
 11
11.5455969666
 21
4.734883629
 31
0.0
 11
11.5625689193
 21
4.7302635928
 31
0.0
 11
11.5796129817
 21
4.725592594
 31
0.0
 11
11.5881605842
 21
4.72324008
 31
0.0
 11
11.596725211
 21
4.7208794691
 31
0.0
 11
11.6053072954
 21
4.7185144213
 31
0.0
 11
11.613906327
 21
4.7161456935
 31
0.0
 11
11.6225204396
 21
4.7137698698
 31
0.0
 11
11.6311478389
 21
4.7113836893
 31
0.0
 11
11.6484369081
 21
4.7065714309
 31
0.0
 11
11.6657613571
 21
4.7016876711
 31
0.0
 11
11.6831070691
 21
4.6967043515
 31
0.0
 11
11.6917826789
 21
4.6941639589
 31
0.0
 11
11.700456652
 21
4.6915829002
 31
0.0
 11
11.7091256119
 21
4.6889527917
 31
0.0
 11
11.7177851445
 21
4.6862623433
 31
0.0
 11
11.7264291017
 21
4.6834955767
 31
0.0
 11
11.7350482367
 21
4.6806285134
 31
0.0
 11
11.7393441473
 21
4.6791462851
 31
0.0
 11
11.7436273077
 21
4.677622613
 31
0.0
 11
11.7478939857
 21
4.6760485605
 31
0.0
 11
11.7521381583
 21
4.6744104956
 31
0.0
 11
11.7563515148
 21
4.672690468
 31
0.0
 11
11.7584423677
 21
4.6717911504
 31
0.0
 11
11.7605199895
 21
4.6708603767
 31
0.0
 11
11.7625806459
 21
4.6698916684
 31
0.0
 11
11.7646192024
 21
4.6688764854
 31
0.0
 11
11.7666302978
 21
4.6678060418
 31
0.0
 11
11.7686040053
 21
4.6666670094
 31
0.0
 11
11.7705256498
 21
4.6654413348
 31
0.0
 11
11.7714622288
 21
4.664790254
 31
0.0
 11
11.7723778969
 21
4.6641091456
 31
0.0
 11
11.7741192675
 21
4.662634731
 31
0.0
 11
11.7756940845
 21
4.6609735828
 31
0.0
 11
11.7763952233
 21
4.6600629822
 31
0.0
 11
11.7770174372
 21
4.659099092
 31
0.0
 11
11.7775435409
 21
4.6580826561
 31
0.0
 11
11.777956538
 21
4.6570145662
 31
0.0
 11
11.778247803
 21
4.6559022492
 31
0.0
 11
11.7784202104
 21
4.6547621106
 31
0.0
 11
11.7784232893
 21
4.6524665977
 31
0.0
  0
SPLINE
  5
2F8
100
AcDbEntity
  8
0
100
AcDbSpline
 62
9
  6
CONTINUOUS
 70
0
 71
3
 72
24
 73
20
 74
18
 42
0.0000001
 43
0.0000001
 44
0.0000000001
 12
0.0350555912
 22
-0.6792626101
 32
0.0
 13
-0.0000040223
 23
-0.6801665884
 33
0.0
 40
0.0
 40
0.0
 40
0.0
 40
0.0
 40
0.0312499065
 40
0.0468751296
 40
0.0625002814
 40
0.0937502816
 40
0.1250002458
 40
0.1562502582
 40
0.1875002819
 40
0.2500002383
 40
0.3125002138
 40
0.3750001915
 40
0.4375001711
 40
0.5000001533
 40
0.5625001349
 40
0.6250001166
 40
0.7500000758
 40
0.8750000367
 40
1.0
 40
1.0
 40
1.0
 40
1.0
 10
11.7867570841
 20
4.6531037338
 30
0.0
 10
11.7871222455
 20
4.6460281028
 30
0.0
 10
11.7876032017
 20
4.6354110847
 30
0.0
 10
11.7881480208
 20
4.621251353
 30
0.0
 10
11.7886418618
 20
4.6070897077
 30
0.0
 10
11.7891766643
 20
4.589384988
 30
0.0
 10
11.7897168448
 20
4.5681365952
 30
0.0
 10
11.7901791048
 20
4.546886379
 30
0.0
 10
11.7907145223
 20
4.5185511364
 30
0.0
 10
11.7912647326
 20
4.4831299814
 30
0.0
 10
11.7917931946
 20
4.4406228308
 30
0.0
 10
11.7922211016
 20
4.3981145571
 30
0.0
 10
11.7925745342
 20
4.355605613
 30
0.0
 10
11.792871901
 20
4.3130962447
 30
0.0
 10
11.7931248416
 20
4.270586591
 30
0.0
 10
11.79340993
 20
4.2139067704
 30
0.0
 10
11.7936872115
 20
4.1430566264
 30
0.0
 10
11.7939196388
 20
4.0580361296
 30
0.0
 10
11.7939854833
 20
4.0013555917
 30
0.0
 10
11.7939853157
 20
3.9730153255
 30
0.0
 11
11.7867570841
 21
4.6531037338
 31
0.0
 11
11.7877313649
 21
4.6318709325
 31
0.0
 11
11.788141649
 21
4.6212511003
 31
0.0
 11
11.7885129037
 21
4.6106298805
 31
0.0
 11
11.7891597343
 21
4.5893845189
 31
0.0
 11
11.7897038577
 21
4.5681363032
 31
0.0
 11
11.7901689886
 21
4.5468861787
 31
0.0
 11
11.7905727307
 21
4.5256347916
 31
0.0
 11
11.7912427675
 21
4.4831296902
 31
0.0
 11
11.7917764354
 21
4.440622645
 31
0.0
 11
11.7922086892
 21
4.3981144461
 31
0.0
 11
11.7925651899
 21
4.3556055431
 31
0.0
 11
11.7928644966
 21
4.3130961971
 31
0.0
 11
11.7931183209
 21
4.2705865556
 31
0.0
 11
11.793333386
 21
4.2280767003
 31
0.0
 11
11.7936704931
 21
4.1430565728
 31
0.0
 11
11.7938973621
 21
4.0580360786
 31
0.0
 11
11.7939853157
 21
3.9730153255
 31
0.0
  0
SPLINE
  5
2F9
100
AcDbEntity
  8
0
100
AcDbSpline
 62
9
  6
CONTINUOUS
 70
0
 71
3
 72
24
 73
20
 74
18
 42
0.0000001
 43
0.0000001
 44
0.0000000001
 12
0.0404396491
 22
-0.6783540036
 32
0.0
 13
-0.0000059206
 23
-0.6795583267
 33
0.0
 40
0.0
 40
0.0
 40
0.0
 40
0.0
 40
0.0312498344
 40
0.046875103
 40
0.0625002815
 40
0.0937502653
 40
0.1250002116
 40
0.1562502244
 40
0.1875002532
 40
0.2500001968
 40
0.31250017
 40
0.3750001481
 40
0.43750013
 40
0.5000001162
 40
0.5625001021
 40
0.6250000884
 40
0.7500000558
 40
0.8750000259
 40
1.0
 40
1.0
 40
1.0
 40
1.0
 10
11.7784232862
 20
4.6524665979
 30
0.0
 10
11.7788445303
 20
4.6454004478
 30
0.0
 10
11.7794009063
 20
4.6347965608
 30
0.0
 10
11.7800335298
 20
4.6206531625
 30
0.0
 10
11.7806083421
 20
4.6065072336
 30
0.0
 10
11.78123291
 20
4.5888212756
 30
0.0
 10
11.7818662497
 20
4.5675944615
 30
0.0
 10
11.7824099893
 20
4.5463651789
 30
0.0
 10
11.7830419551
 20
4.5180572685
 30
0.0
 10
11.783694126
 20
4.4826694981
 30
0.0
 10
11.7843220946
 20
4.4402017076
 30
0.0
 10
11.7848319526
 20
4.3977323452
 30
0.0
 10
11.7852542156
 20
4.3552620398
 30
0.0
 10
11.7856102303
 20
4.3127911336
 30
0.0
 10
11.785913428
 20
4.2703198202
 30
0.0
 10
11.7862554752
 20
4.2136909977
 30
0.0
 10
11.786589064
 20
4.1429044429
 30
0.0
 10
11.7868685131
 20
4.0579601065
 30
0.0
 10
11.786947767
 20
4.0013302499
 30
0.0
 10
11.7869475203
 20
3.9730153255
 30
0.0
 11
11.7784232862
 21
4.6524665979
 31
0.0
 11
11.7795499557
 21
4.6312604213
 31
0.0
 11
11.780026304
 21
4.62065283
 31
0.0
 11
11.7804583788
 21
4.6100434044
 31
0.0
 11
11.7812135535
 21
4.5888206493
 31
0.0
 11
11.7818513159
 21
4.5675940669
 31
0.0
 11
11.7823983617
 21
4.5463649075
 31
0.0
 11
11.7828747783
 21
4.5251340349
 31
0.0
 11
11.7836683531
 21
4.4826690923
 31
0.0
 11
11.7843024095
 21
4.4402014481
 31
0.0
 11
11.7848173534
 21
4.3977321894
 31
0.0
 11
11.7852431742
 21
4.355261941
 31
0.0
 11
11.7856014275
 21
4.3127910658
 31
0.0
 11
11.785905651
 21
4.2703197696
 31
0.0
 11
11.7861636988
 21
4.2278481674
 31
0.0
 11
11.7865689211
 21
4.1429043652
 31
0.0
 11
11.7868417517
 21
4.0579600328
 31
0.0
 11
11.7869475203
 21
3.9730153255
 31
0.0
  0
LINE
  5
2FA
100
AcDbEntity
  8
0
100
AcDbLine
 62
9
  6
CONTINUOUS
 10
11.7867570837
 20
4.6531037338
 11
11.7784232862
 21
4.6524665979
  0
SPLINE
  5
2FB
100
AcDbEntity
  8
0
100
AcDbSpline
 62
9
  6
CONTINUOUS
 70
0
 71
3
 72
91
 73
87
 74
85
 42
0.0000001
 43
0.0000001
 44
0.0000000001
 12
0.0009393571
 22
-1.0639707408
 32
0.0
 13
-1.027545547
 23
-0.2760158847
 33
0.0
 40
0.0
 40
0.0
 40
0.0
 40
0.0
 40
0.0024637172
 40
0.0037059759
 40
0.0049447904
 40
0.006177703
 40
0.0074093913
 40
0.0086416146
 40
0.0098733638
 40
0.0111036732
 40
0.0123333439
 40
0.014792131
 40
0.0172504731
 40
0.0197086825
 40
0.024623948
 40
0.0295385662
 40
0.034452508
 40
0.0393657599
 40
0.0442782948
 40
0.0491900857
 40
0.0590112882
 40
0.0688291553
 40
0.0786434137
 40
0.0884537881
 40
0.0982599987
 40
0.1178587843
 40
0.1374374665
 40
0.1569936673
 40
0.1765249461
 40
0.1960287925
 40
0.2155026194
 40
0.2349437542
 40
0.2543494296
 40
0.2737167746
 40
0.3123243795
 40
0.3507410257
 40
0.3889387514
 40
0.4268866209
 40
0.4645500955
 40
0.5018902963
 40
0.5388631084
 40
0.5754180759
 40
0.6114968027
 40
0.6470316492
 40
0.6819438536
 40
0.7161395138
 40
0.7495086498
 40
0.7819193921
 40
0.813211768
 40
0.8431951225
 40
0.8716363665
 40
0.8851921644
 40
0.898256648
 40
0.9107838456
 40
0.92272407
 40
0.9340276255
 40
0.9446437195
 40
0.9545135378
 40
0.9635747038
 40
0.9717648246
 40
0.9755137996
 40
0.979022201
 40
0.9822830077
 40
0.9852892005
 40
0.9880337604
 40
0.990509668
 40
0.9927099045
 40
0.9946275003
 40
0.9962573648
 40
0.9969635499
 40
0.997596816
 40
0.9981568476
 40
0.9986433293
 40
0.9990559454
 40
0.9993943805
 40
0.9995356815
 40
0.9996583189
 40
0.9997622532
 40
0.9998474451
 40
0.9999138551
 40
0.9999400046
 40
0.9999614437
 40
0.9999781677
 40
0.9999901717
 40
0.9999974506
 40
1.0
 40
1.0
 40
1.0
 40
1.0
 10
11.7869475203
 20
3.9730153255
 30
0.0
 10
11.7869482918
 20
3.9721415511
 30
0.0
 10
11.7867566874
 20
3.970822552
 30
0.0
 10
11.7862250376
 20
3.9691503068
 30
0.0
 10
11.7857076195
 20
3.9679366431
 30
0.0
 10
11.7850919477
 20
3.9667750574
 30
0.0
 10
11.7843968837
 20
3.9656622625
 30
0.0
 10
11.7836391363
 20
3.9645921358
 30
0.0
 10
11.7828356161
 20
3.9635568551
 30
0.0
 10
11.7819976002
 20
3.9625505791
 30
0.0
 10
11.7808399517
 20
3.9612452584
 30
0.0
 10
11.7793294133
 20
3.9596722866
 30
0.0
 10
11.7774494421
 20
3.9578530101
 30
0.0
 10
11.7748740676
 20
3.9555017028
 30
0.0
 10
11.771562194
 20
3.9526674895
 30
0.0
 10
11.7674981526
 20
3.9493766459
 30
0.0
 10
11.7633747245
 20
3.9461618943
 30
0.0
 10
11.7592102409
 20
3.9430019258
 30
0.0
 10
11.7550160825
 20
3.9398827957
 30
0.0
 10
11.7493947634
 20
3.9357661931
 30
0.0
 10
11.742326344
 20
3.9306814985
 30
0.0
 10
11.7338026669
 20
3.924643011
 30
0.0
 10
11.7252521218
 20
3.9186493459
 30
0.0
 10
11.7166835711
 20
3.9126887166
 30
0.0
 10
11.7052450861
 20
3.9047770746
 30
0.0
 10
11.6909272153
 20
3.8949383577
 30
0.0
 10
11.6737290979
 20
3.8831856098
 30
0.0
 10
11.6565296823
 20
3.8714772619
 30
0.0
 10
11.6393367691
 20
3.8598065668
 30
0.0
 10
11.6221561072
 20
3.8481698623
 30
0.0
 10
11.6049923305
 20
3.8365652517
 30
0.0
 10
11.587849416
 20
3.8249919563
 30
0.0
 10
11.5707309628
 20
3.8134499276
 30
0.0
 10
11.5479684173
 20
3.7981196666
 30
0.0
 10
11.5196001849
 20
3.7790428869
 30
0.0
 10
11.485672147
 20
3.7562661784
 30
0.0
 10
11.451922472
 20
3.7336435896
 30
0.0
 10
11.4183802094
 20
3.7111913321
 30
0.0
 10
11.3850772276
 20
3.6889283577
 30
0.0
 10
11.3520490572
 20
3.6668765454
 30
0.0
 10
11.3193357911
 20
3.6450611035
 30
0.0
 10
11.2869832251
 20
3.6235111613
 30
0.0
 10
11.2550440659
 20
3.6022605206
 30
0.0
 10
11.2235793823
 20
3.5813485351
 30
0.0
 10
11.1926607725
 20
3.5608214636
 30
0.0
 10
11.1623723975
 20
3.5407337894
 30
0.0
 10
11.1328141845
 20
3.5211502991
 30
0.0
 10
11.1041057545
 20
3.502148478
 30
0.0
 10
11.0763906568
 20
3.4838214961
 30
0.0
 10
11.0498424099
 20
3.4662822835
 30
0.0
 10
11.0285369136
 20
3.4522191124
 30
0.0
 10
11.0122361553
 20
3.441466139
 30
0.0
 10
11.0006452854
 20
3.4338231529
 30
0.0
 10
10.9895314671
 20
3.4264975424
 30
0.0
 10
10.9789379056
 20
3.4195174316
 30
0.0
 10
10.9689092351
 20
3.4129118827
 30
0.0
 10
10.9594927863
 20
3.4067117486
 30
0.0
 10
10.9507397003
 20
3.4009502734
 30
0.0
 10
10.9427045664
 20
3.3956629447
 30
0.0
 10
10.9364823394
 20
3.3915696611
 30
0.0
 10
10.9319051017
 20
3.388559087
 30
0.0
 10
10.9287883635
 20
3.386509346
 30
0.0
 10
10.9258916424
 20
3.3846044824
 30
0.0
 10
10.9232212043
 20
3.382848561
 30
0.0
 10
10.9207833144
 20
3.3812456467
 30
0.0
 10
10.9185842385
 20
3.3797998036
 30
0.0
 10
10.9166302252
 20
3.3785150892
 30
0.0
 10
10.9149269577
 20
3.3773951769
 30
0.0
 10
10.913666469
 20
3.3765663234
 30
0.0
 10
10.9127865746
 20
3.3759877202
 30
0.0
 10
10.9122237028
 20
3.3756175852
 30
0.0
 10
10.9117259323
 20
3.3752902668
 30
0.0
 10
10.9112935402
 20
3.3750059543
 30
0.0
 10
10.9109268038
 20
3.3747648374
 30
0.0
 10
10.9106623455
 20
3.3745909962
 30
0.0
 10
10.9104838117
 20
3.3744736674
 30
0.0
 10
10.910374772
 20
3.3744020268
 30
0.0
 10
10.9102823555
 20
3.374341324
 30
0.0
 10
10.9102065918
 20
3.3742915945
 30
0.0
 10
10.910153887
 20
3.374257001
 30
0.0
 10
10.9101200605
 20
3.3742348645
 30
0.0
 10
10.9101009968
 20
3.3742223244
 30
0.0
 10
10.9100860512
 20
3.3742127148
 30
0.0
 10
10.9100754724
 20
3.3742054581
 30
0.0
 10
10.9100687637
 20
3.3742017498
 30
0.0
 10
10.9100660536
 20
3.3741993334
 30
0.0
 10
10.9100651804
 20
3.3741990988
 30
0.0
 11
11.7869475203
 21
3.9730153255
 31
0.0
 11
11.7866021174
 21
3.9704168574
 31
0.0
 11
11.7862048886
 21
3.9691562335
 31
0.0
 11
11.7856900779
 21
3.9679428664
 31
0.0
 11
11.7850783159
 21
3.9667824686
 31
0.0
 11
11.7843865046
 21
3.9656694738
 31
0.0
 11
11.7836313568
 21
3.9645977444
 31
0.0
 11
11.7828294522
 21
3.9635611737
 31
0.0
 11
11.7819923142
 21
3.9625548354
 31
0.0
 11
11.7811249688
 21
3.96157532
 31
0.0
 11
11.7793180469
 21
3.9596835219
 31
0.0
 11
11.7774407507
 21
3.9578622177
 31
0.0
 11
11.7755114672
 21
3.9560962855
 31
0.0
 11
11.7715469663
 21
3.9526856401
 31
0.0
 11
11.7674879738
 21
3.9493891046
 31
0.0
 11
11.7633675903
 21
3.9461708006
 31
0.0
 11
11.7592049901
 21
3.9430085031
 31
0.0
 11
11.7550120683
 21
3.9398877985
 31
0.0
 11
11.7507966278
 21
3.9367989189
 31
0.0
 11
11.7423180812
 21
3.9306910714
 31
0.0
 11
11.7337966194
 21
3.9246493755
 31
0.0
 11
11.7252474266
 21
3.9186536688
 31
0.0
 11
11.7166797004
 21
3.9126917077
 31
0.0
 11
11.7080994092
 21
3.9067556271
 31
0.0
 11
11.6909162751
 21
3.8949417187
 31
0.0
 11
11.673718998
 21
3.8831862689
 31
0.0
 11
11.6565197978
 21
3.8714760817
 31
0.0
 11
11.6393267284
 21
3.8598040394
 31
0.0
 11
11.622145691
 21
3.8481662582
 31
0.0
 11
11.6049813918
 21
3.8365607316
 31
0.0
 11
11.5878378501
 21
3.8249866137
 31
0.0
 11
11.5707186871
 21
3.8134438182
 31
0.0
 11
11.5536273005
 21
3.8019327819
 31
0.0
 11
11.5195409642
 21
3.7790095915
 31
0.0
 11
11.4856050103
 21
3.7562268889
 31
0.0
 11
11.451846429
 21
3.7335978877
 31
0.0
 11
11.4182941232
 21
3.7111386176
 31
0.0
 11
11.3849797713
 21
3.6888678449
 31
0.0
 11
11.3519386532
 21
3.6668072525
 31
0.0
 11
11.3192105463
 21
3.6449818155
 31
0.0
 11
11.2868407758
 21
3.6234203467
 31
0.0
 11
11.2548816668
 21
3.6021563871
 31
0.0
 11
11.2233937362
 21
3.5812289171
 31
0.0
 11
11.1924473931
 21
3.5606834104
 31
0.0
 11
11.1621265192
 21
3.5405741696
 31
0.0
 11
11.1325293339
 21
3.5209648272
 31
0.0
 11
11.1037735995
 21
3.5019316839
 31
0.0
 11
11.0760020865
 21
3.4835674295
 31
0.0
 11
11.0493848639
 21
3.4659826537
 31
0.0
 11
11.0241298881
 21
3.4493125028
 31
0.0
 11
11.0120904557
 21
3.4413705659
 31
0.0
 11
11.0004859752
 21
3.4337186034
 31
0.0
 11
10.9893574424
 21
3.4263832968
 31
0.0
 11
10.9787491604
 21
3.4193934937
 31
0.0
 11
10.9687054393
 21
3.4127780462
 31
0.0
 11
10.9592715694
 21
3.4065664407
 31
0.0
 11
10.9505000063
 21
3.4007928003
 31
0.0
 11
10.9424463881
 21
3.395493307
 31
0.0
 11
10.935166367
 21
3.3907041524
 31
0.0
 11
10.9318337987
 21
3.38851223
 31
0.0
 11
10.9287149809
 21
3.3864611194
 31
0.0
 11
10.9258161811
 21
3.384554886
 31
0.0
 11
10.9231436648
 21
3.3827975942
 31
0.0
 11
10.9207036975
 21
3.3811933084
 31
0.0
 11
10.9185025446
 21
3.3797460928
 31
0.0
 11
10.9165464718
 21
3.3784600118
 31
0.0
 11
10.9148416997
 21
3.3773391015
 31
0.0
 11
10.9133927564
 21
3.3763863337
 31
0.0
 11
10.9127649666
 21
3.3759735111
 31
0.0
 11
10.9122020007
 21
3.3756033157
 31
0.0
 11
10.9117041357
 21
3.3752759371
 31
0.0
 11
10.9112716488
 21
3.3749915653
 31
0.0
 11
10.9109048169
 21
3.3747503898
 31
0.0
 11
10.9106039172
 21
3.3745526004
 31
0.0
 11
10.9104782784
 21
3.3744700348
 31
0.0
 11
10.9103692266
 21
3.3743983869
 31
0.0
 11
10.9102767963
 21
3.3743376804
 31
0.0
 11
10.9102010223
 21
3.3742879389
 31
0.0
 11
10.910141939
 21
3.3742491864
 31
0.0
 11
10.9101186672
 21
3.3742339383
 31
0.0
 11
10.9100995812
 21
3.3742214464
 31
0.0
 11
10.9100846851
 21
3.3742117135
 31
0.0
 11
10.9100739834
 21
3.3742047426
 31
0.0
 11
10.9100674804
 21
3.3742005367
 31
0.0
 11
10.9100651804
 21
3.3741990988
 31
0.0
  0
SPLINE
  5
2FC
100
AcDbEntity
  8
0
100
AcDbSpline
 62
9
  6
CONTINUOUS
 70
0
 71
3
 72
88
 73
84
 74
82
 42
0.0000001
 43
0.0000001
 44
0.0000000001
 12
0.0012340764
 22
-1.0778252253
 32
0.0
 13
0.2163690133
 23
-1.0558850262
 33
0.0
 40
0.0
 40
0.0
 40
0.0
 40
0.0
 40
0.0049157232
 40
0.0073760725
 40
0.0098343495
 40
0.0122925753
 40
0.014749767
 40
0.0172064516
 40
0.0196629779
 40
0.0245747447
 40
0.0294859733
 40
0.0343966455
 40
0.0393067757
 40
0.0491251812
 40
0.0589411312
 40
0.0687543272
 40
0.0785644878
 40
0.0883713322
 40
0.0981745757
 40
0.1177690944
 40
0.1373456979
 40
0.1569019595
 40
0.1764353864
 40
0.1959434131
 40
0.2154233943
 40
0.2348725961
 40
0.2736672275
 40
0.3123032752
 40
0.3507545707
 40
0.3889924477
 40
0.4269851868
 40
0.4646973721
 40
0.5020891367
 40
0.539115245
 40
0.5757239771
 40
0.6118555285
 40
0.6474406928
 40
0.6823988662
 40
0.7166341703
 40
0.7500345579
 40
0.7824657622
 40
0.8137657343
 40
0.8437411635
 40
0.8721572603
 40
0.88569359
 40
0.8987338109
 40
0.9112321137
 40
0.9231390892
 40
0.9344053198
 40
0.9449803311
 40
0.9548061415
 40
0.9638215208
 40
0.971965226
 40
0.9756911312
 40
0.979176852
 40
0.9824156391
 40
0.9854007447
 40
0.9881254214
 40
0.9905829215
 40
0.9927664976
 40
0.9946694532
 40
0.995514036
 40
0.9962868852
 40
0.9969876824
 40
0.9976161092
 40
0.9981718475
 40
0.9986545788
 40
0.9990639849
 40
0.9992410915
 40
0.9993997474
 40
0.9995399128
 40
0.9996615481
 40
0.9997646133
 40
0.9998490686
 40
0.9998843052
 40
0.9999148745
 40
0.9999407714
 40
0.999961991
 40
0.9999785285
 40
0.9999903787
 40
0.9999945447
 40
0.9999975372
 40
1.0
 40
1.0
 40
1.0
 40
1.0
 10
11.7939853157
 20
3.9730153255
 30
0.0
 10
11.7939873379
 20
3.9712492287
 30
0.0
 10
11.7937618491
 20
3.9685942044
 30
0.0
 10
11.7930830544
 20
3.9651253885
 30
0.0
 10
11.7924063527
 20
3.9625609935
 30
0.0
 10
11.7915924933
 20
3.9600389083
 30
0.0
 10
11.790668982
 20
3.9575557489
 30
0.0
 10
11.7896562728
 20
3.9551085502
 30
0.0
 10
11.7882135328
 20
3.951886601
 30
0.0
 10
11.7862731047
 20
3.9479230652
 30
0.0
 10
11.7837882328
 20
3.9432484551
 30
0.0
 10
11.7812017375
 20
3.938630267
 30
0.0
 10
11.7776525623
 20
3.9325317448
 30
0.0
 10
11.7730823821
 20
3.9249895442
 30
0.0
 10
11.7674751101
 20
3.9160177324
 30
0.0
 10
11.7617905438
 20
3.9070982673
 30
0.0
 10
11.756055144
 20
3.8982153718
 30
0.0
 10
11.7502848246
 20
3.8893594059
 30
0.0
 10
11.7425597064
 20
3.8775815811
 30
0.0
 10
11.7328600637
 20
3.8629012431
 30
0.0
 10
11.7211817595
 20
3.8453285901
 30
0.0
 10
11.7094848003
 20
3.827794732
 30
0.0
 10
11.6977805092
 20
3.8102954064
 30
0.0
 10
11.6860764321
 20
3.792828919
 30
0.0
 10
11.6743781244
 20
3.7753949973
 30
0.0
 10
11.6588076897
 20
3.752214721
 30
0.0
 10
11.639383626
 20
3.7233321693
 30
0.0
 10
11.6161334275
 20
3.6887955314
 30
0.0
 10
11.5929838884
 20
3.6544322638
 30
0.0
 10
11.5699556992
 20
3.6202659267
 30
0.0
 10
11.5470702436
 20
3.5863236165
 30
0.0
 10
11.5243504694
 20
3.552636227
 30
0.0
 10
11.5018216152
 20
3.5192389637
 30
0.0
 10
11.4795119053
 20
3.4861720832
 30
0.0
 10
11.4574534008
 20
3.4534818945
 30
0.0
 10
11.4356828376
 20
3.4212219412
 30
0.0
 10
11.414242659
 20
3.3894544343
 30
0.0
 10
11.3931825542
 20
3.3582523308
 30
0.0
 10
11.3725606724
 20
3.3277014469
 30
0.0
 10
11.3524459256
 20
3.2979035947
 30
0.0
 10
11.3329206899
 20
3.2689801806
 30
0.0
 10
11.3140835708
 20
3.2410768809
 30
0.0
 10
11.2960532558
 20
3.2143693893
 30
0.0
 10
11.281593679
 20
3.1929515329
 30
0.0
 10
11.2705384722
 20
3.1765765145
 30
0.0
 10
11.2626831939
 20
3.1649413206
 30
0.0
 10
11.2551554219
 20
3.1537913249
 30
0.0
 10
11.2479842212
 20
3.1431696028
 30
0.0
 10
11.2411995958
 20
3.1331206182
 30
0.0
 10
11.2348332719
 20
3.1236913885
 30
0.0
 10
11.2289193577
 20
3.1149324432
 30
0.0
 10
11.2234941278
 20
3.1068975175
 30
0.0
 10
11.2192951565
 20
3.1006789509
 30
0.0
 10
11.2162078529
 20
3.0961069116
 30
0.0
 10
11.2141066811
 20
3.0929953342
 30
0.0
 10
11.2121544189
 20
3.0901043522
 30
0.0
 10
11.2103551408
 20
3.0874399905
 30
0.0
 10
11.2087129212
 20
3.0850082733
 30
0.0
 10
11.207231834
 20
3.0828152252
 30
0.0
 10
11.2059159447
 20
3.0808668543
 30
0.0
 10
11.2049243534
 20
3.0793987224
 30
0.0
 10
11.2042164309
 20
3.078350612
 30
0.0
 10
11.2037502548
 20
3.0776604141
 30
0.0
 10
11.2033275536
 20
3.0770345663
 30
0.0
 10
11.2029485256
 20
3.0764733487
 30
0.0
 10
11.2026133687
 20
3.0759770415
 30
0.0
 10
11.2023222812
 20
3.0755459249
 30
0.0
 10
11.2021073518
 20
3.0752275245
 30
0.0
 10
11.2019575975
 20
3.0750056055
 30
0.0
 10
11.2018619691
 20
3.0748638575
 30
0.0
 10
11.2017775066
 20
3.0747386172
 30
0.0
 10
11.2017042349
 20
3.0746299199
 30
0.0
 10
11.2016421777
 20
3.0745378006
 30
0.0
 10
11.2015974933
 20
3.0744714063
 30
0.0
 10
11.2015673732
 20
3.0744266038
 30
0.0
 10
11.2015490096
 20
3.074399252
 30
0.0
 10
11.2015334502
 20
3.0743760737
 30
0.0
 10
11.2015207664
 20
3.0743570634
 30
0.0
 10
11.2015107771
 20
3.0743422533
 30
0.0
 10
11.201504506
 20
3.0743324803
 30
0.0
 10
11.2015004813
 20
3.0743268169
 30
0.0
 10
11.2014990747
 20
3.0743238473
 30
0.0
 10
11.2014970706
 20
3.0743223397
 30
0.0
 10
11.2014972482
 20
3.0743214729
 30
0.0
 11
11.7939853157
 21
3.9730153255
 31
0.0
 11
11.7935608154
 21
3.9677340644
 31
0.0
 11
11.793054962
 21
3.9651309307
 31
0.0
 11
11.7923834363
 21
3.9625678455
 31
0.0
 11
11.7915740643
 21
3.960044955
 31
0.0
 11
11.7906540127
 21
3.9575614777
 31
0.0
 11
11.7896446527
 21
3.9551135291
 31
0.0
 11
11.7885649163
 21
3.9526959838
 31
0.0
 11
11.7862469093
 21
3.9479364045
 31
0.0
 11
11.7837711529
 21
3.9432575972
 31
0.0
 11
11.7811889982
 21
3.9386373444
 31
0.0
 11
11.7785306082
 21
3.9340612064
 31
0.0
 11
11.7730612266
 21
3.9250016342
 31
0.0
 11
11.767461436
 21
3.9160252027
 31
0.0
 11
11.7617811882
 21
3.9071029854
 31
0.0
 11
11.7560483514
 21
3.8982183606
 31
0.0
 11
11.7502796461
 21
3.8893612479
 31
0.0
 11
11.7444857402
 21
3.8805252404
 31
0.0
 11
11.7328486673
 21
3.8629010813
 31
0.0
 11
11.7211725722
 21
3.8453259279
 31
0.0
 11
11.7094767404
 21
3.8277902509
 31
0.0
 11
11.6977729271
 21
3.8102895007
 31
0.0
 11
11.6860689732
 21
3.7928217891
 31
0.0
 11
11.6743705557
 21
3.7753867595
 31
0.0
 11
11.6626820868
 21
3.7579850083
 31
0.0
 11
11.6393490992
 21
3.7232867294
 31
0.0
 11
11.6160945046
 21
3.6887417183
 31
0.0
 11
11.5929397399
 21
3.6543695535
 31
0.0
 11
11.5699055192
 21
3.6201935392
 31
0.0
 11
11.5470131759
 21
3.5862405269
 31
0.0
 11
11.5242855494
 21
3.5525411572
 31
0.0
 11
11.5017477156
 21
3.5191303472
 31
0.0
 11
11.4794276947
 21
3.4860480082
 31
0.0
 11
11.4573572302
 21
3.4533399694
 31
0.0
 11
11.4355728005
 21
3.4210593776
 31
0.0
 11
11.4141164633
 21
3.389267839
 31
0.0
 11
11.3930371038
 21
3.3580371726
 31
0.0
 11
11.3723927117
 21
3.3274529149
 31
0.0
 11
11.3522510149
 21
3.2976150542
 31
0.0
 11
11.3326932274
 21
3.2686433704
 31
0.0
 11
11.3138172507
 21
3.2406825065
 31
0.0
 11
11.2957397438
 21
3.213905097
 31
0.0
 11
11.2786023823
 21
3.1885208282
 31
0.0
 11
11.2704387329
 21
3.1764287937
 31
0.0
 11
11.2625742432
 21
3.1647799609
 31
0.0
 11
11.2550365352
 21
3.1536152548
 31
0.0
 11
11.2478553963
 21
3.1429788203
 31
0.0
 11
11.2410606192
 21
3.1329148094
 31
0.0
 11
11.2346826344
 21
3.1234683179
 31
0.0
 11
11.2287564051
 21
3.1146911443
 31
0.0
 11
11.2233188558
 21
3.1066379875
 31
0.0
 11
11.2184069187
 21
3.0993635582
 31
0.0
 11
11.216159555
 21
3.0960354016
 31
0.0
 11
11.2140570256
 21
3.0929218151
 31
0.0
 11
11.2121034059
 21
3.0900288245
 31
0.0
 11
11.2103027702
 21
3.0873624543
 31
0.0
 11
11.2086591927
 21
3.0849287289
 31
0.0
 11
11.2071767477
 21
3.0827336725
 31
0.0
 11
11.2058595095
 21
3.0807833095
 31
0.0
 11
11.204711522
 21
3.0790836181
 31
0.0
 11
11.2042020062
 21
3.0783292548
 31
0.0
 11
11.2037357673
 21
3.0776389613
 31
0.0
 11
11.2033130038
 21
3.0770130176
 31
0.0
 11
11.2029339139
 21
3.0764517038
 31
0.0
 11
11.202598696
 21
3.0759552998
 31
0.0
 11
11.2023075484
 21
3.0755240858
 31
0.0
 11
11.2020606696
 21
3.0751583417
 31
0.0
 11
11.2019538929
 21
3.0750001084
 31
0.0
 11
11.2018582578
 21
3.0748583477
 31
0.0
 11
11.2017737891
 21
3.0747330944
 31
0.0
 11
11.2017005115
 21
3.0746243837
 31
0.0
 11
11.2016384498
 21
3.0745322506
 31
0.0
 11
11.2015876288
 21
3.0744567299
 31
0.0
 11
11.2015664414
 21
3.0744252103
 31
0.0
 11
11.2015480734
 21
3.0743978568
 31
0.0
 11
11.201532528
 21
3.0743746741
 31
0.0
 11
11.2015198083
 21
3.0743556663
 31
0.0
 11
11.2015099174
 21
3.0743408379
 31
0.0
 11
11.2015028583
 21
3.0743301933
 31
0.0
 11
11.2015003917
 21
3.0743264413
 31
0.0
 11
11.2014986342
 21
3.0743237369
 31
0.0
 11
11.2014972482
 21
3.0743214729
 31
0.0
  0
ENDSEC
  0
SECTION
  2
OBJECTS
  0
DICTIONARY
  5
C
100
AcDbDictionary
280
0
281
1
  3
ACAD_GROUP
350
D
  3
ACAD_MLINESTYLE
350
17
  3
ACAD_LAYOUT
350
1A
  3
ACAD_PLOTSETTINGS
350
19
  3
ACAD_PLOTSTYLENAME
350
E
  0
DICTIONARY
  5
D
102
{ACAD_REACTORS
330
C
102
}
100
AcDbDictionary
280
0
281
1
  0
ACDBDICTIONARYWDFLT
  5
E
102
{ACAD_REACTORS
330
C
102
}
100
AcDbDictionary
281
1
  3
Normal
350
F
100
AcDbDictionaryWithDefault
340
F
  0
DICTIONARY
  5
17
102
{ACAD_REACTORS
330
C
102
}
100
AcDbDictionary
280
0
281
1
  3
Standard
350
18
  0
DICTIONARY
  5
19
102
{ACAD_REACTORS
330
C
102
}
100
AcDbDictionary
281
1
  0
DICTIONARY
  5
1A
102
{ACAD_REACTORS
330
C
102
}
100
AcDbDictionary
281
1
  3
Model
350
2FD
  3
Layout1
350
2FE
  0
ACDBPLACEHOLDER
  5
F
102
{ACAD_REACTORS
330
E
102
}
  0
MLINESTYLE
  5
18
102
{ACAD_REACTORS
330
17
102
}
100
AcDbMlineStyle
  2
STANDARD
 70
0
  3

 62
256
 51
90.0
 52
90.0
 71
2
 49
0.5
 62
256
  6
BYLAYER
 49
-0.5
 62
256
  6
BYLAYER
  0
LAYOUT
  5
2FD
102
{ACAD_REACTORS
330
1A
102
}
100
AcDbPlotSettings
  1

  2
none_device
  4
ISO_A2_(594.00_x_420.00_MM)
  6

 40
0.0
 41
0.0
 42
0.0
 43
0.0
 44
594.0
 45
420.0
 46
0.0
 47
0.0
 48
0.0
 49
0.0
140
0.0
141
0.0
142
1.0
143
1.0
 70
1024
 72
0
 73
0
 74
0
  7

 75
0
147
1.0
148
0.0
149
0.0
100
AcDbLayout
  1
Model
 70
0
 71
0
 10
0.0
 20
0.0
 11
23.3858267717
 21
16.5354330709
 12
0.0
 22
0.0
 32
0.0
 14
0.0
 24
0.0
 34
0.0
 15
0.0
 25
0.0
 35
0.0
146
0.0
 13
0.0
 23
0.0
 33
0.0
 16
1.0
 26
0.0
 36
0.0
 17
0.0
 27
1.0
 37
0.0
 76
0
330
203
345
0
346
0
  0
LAYOUT
  5
2FE
102
{ACAD_REACTORS
330
1A
102
}
100
AcDbPlotSettings
  1

  2
none_device
  4
ISO_A2_(594.00_x_420.00_MM)
  6

 40
0.0
 41
0.0
 42
0.0
 43
0.0
 44
594.0
 45
420.0
 46
0.0
 47
0.0
 48
0.0
 49
0.0
140
0.0
141
0.0
142
1.0
143
1.0
 70
0
 72
0
 73
0
 74
0
  7

 75
0
147
1.0
148
0.0
149
0.0
100
AcDbLayout
  1
Layout1
 70
0
 71
1
 10
0.0
 20
0.0
 11
23.3858267717
 21
16.5354330709
 12
0.0
 22
0.0
 32
0.0
 14
0.0
 24
0.0
 34
0.0
 15
0.0
 25
0.0
 35
0.0
146
0.0
 13
0.0
 23
0.0
 33
0.0
 16
1.0
 26
0.0
 36
0.0
 17
0.0
 27
1.0
 37
0.0
 76
0
330
204
345
0
346
0
  0
ENDSEC
  0
EOF
