  0
SECTION
  2
HEADER
  9
$ACADVER
  1
AC1015
  9
$DWGCODEPAGE
  3
ANSI_1252
  9
$EXTMAX
 10
23.3858267717
 20
16.5354330709
 30
0.0
  9
$EXTMIN
 10
0.0
 20
0.0
 30
0.0
  9
$LIMMIN
 10
0.0
 20
0.0
  9
$LIMMAX
 10
23.3858267717
 20
16.5354330709
  9
$VIEWCTR
 10
11.6929133858
 20
8.2677165354
  9
$VIEWSIZE
 40
16.5354330709
  9
$CLAYER
  8
0
  9
$LTSCALE
 40
1.2862204724
  9
$CELTYPE
  6
BYLAYER
  9
$DIMSCALE
 40
1.0
  9
$DIMASZ
 40
0.1875
  9
$DIMEXO
 40
0.1461614173
  9
$DIMDLI
 40
0.8886614173
  9
$DIMEXE
 40
0.4209448819
  9
$DIMCEN
 40
0.2104724409
  9
$DIMLFAC
 40
1.0
  9
$DIMBLK
  1
_CLOSED
  9
$DIMTXT
 40
0.15625
  9
$DIMTOL
 70
0
  9
$DIMLIM
 70
0
  9
$DIMTFAC
 40
1.0
  9
$PDMODE
 70
3
  9
$PDSIZE
 40
0.3125
  9
$HANDSEED
  5
29B
  9
$TILEMODE
 70
1
  9
$MEASUREMENT
 70
0
  9
$INSUNITS
 70
1
  0
ENDSEC
  0
SECTION
  2
CLASSES
  0
CLASS
  1
ACDBDICTIONARYWDFLT
  2
AcDbDictionaryWithDefault
  3
AutoCAD 2000
 90
0
280
0
281
0
  0
CLASS
  1
ACDBPLACEHOLDER
  2
AcDbPlaceHolder
  3
AutoCAD 2000
 90
0
280
0
281
0
  0
CLASS
  1
LAYOUT
  2
AcDbLayout
  3
AutoCAD 2000
 90
0
280
0
281
0
  0
ENDSEC
  0
SECTION
  2
TABLES
  0
TABLE
  2
VPORT
  5
8
100
AcDbSymbolTable
 70
2
  0
VPORT
  5
1F4
100
AcDbSymbolTableRecord
100
AcDbViewportTableRecord
  2
*ACTIVE
 70
0
 10
0.0
 20
0.0
 11
1.0
 21
1.0
 12
11.6929133858
 22
8.2677165354
 13
0.0
 23
0.0
 14
1.0
 24
1.0
 15
0.0
 25
0.0
 16
0.0
 26
0.0
 36
1.0
 17
0.0
 27
0.0
 37
0.0
 40
16.5354330709
 41
1.4142857143
 42
50.0
 43
0.0
 44
0.0
 50
0.0
 51
0.0
 71
0
 72
100
 73
1
 74
1
 75
0
 76
0
 77
0
 78
0
  0
ENDTAB
  0
TABLE
  2
LTYPE
  5
5
100
AcDbSymbolTable
 70
6
  0
LTYPE
  5
14
100
AcDbSymbolTableRecord
100
AcDbLinetypeTableRecord
  2
BYBLOCK
 70
0
  3

 72
65
 73
0
 40
0.0
  0
LTYPE
  5
15
100
AcDbSymbolTableRecord
100
AcDbLinetypeTableRecord
  2
BYLAYER
 70
0
  3

 72
65
 73
0
 40
0.0
  0
LTYPE
  5
16
100
AcDbSymbolTableRecord
100
AcDbLinetypeTableRecord
  2
CONTINUOUS
 70
64
  3
Solid line
 72
65
 73
0
 40
0.0
  0
LTYPE
  5
1F5
100
AcDbSymbolTableRecord
100
AcDbLinetypeTableRecord
  2
CENTER
 70
64
  3
____ _ ____ _ ____ _ ____ _ ____ _ ____ _ ____
 72
65
 73
4
 40
0.6
 49
0.375
 74
0
 49
-0.075
 74
0
 49
0.075
 74
0
 49
-0.075
 74
0
  0
LTYPE
  5
1F6
100
AcDbSymbolTableRecord
100
AcDbLinetypeTableRecord
  2
HIDDEN
 70
64
  3
- - - - - - - - - - - - - - - - - - - -
 72
65
 73
2
 40
0.2
 49
0.1
 74
0
 49
-0.1
 74
0
  0
LTYPE
  5
1F7
100
AcDbSymbolTableRecord
100
AcDbLinetypeTableRecord
  2
PHANTOM
 70
64
  3
_____ _ _ _____ _ _ _____ _ _ _____
 72
65
 73
6
 40
0.8
 49
0.45
 74
0
 49
-0.05
 74
0
 49
0.1
 74
0
 49
-0.05
 74
0
 49
0.1
 74
0
 49
-0.05
 74
0
  0
LTYPE
  5
1F8
100
AcDbSymbolTableRecord
100
AcDbLinetypeTableRecord
  2
DOT
 70
64
  3
. . . . . . . . . . . . . . . . . . . .
 72
65
 73
2
 40
0.2
 49
0.1
 74
0
 49
-0.1
 74
0
  0
LTYPE
  5
1F9
100
AcDbSymbolTableRecord
100
AcDbLinetypeTableRecord
  2
DASHED
 70
64
  3
- - - - - - - - - - - - - - - - - - - -
 72
65
 73
2
 40
0.2
 49
0.1
 74
0
 49
-0.1
 74
0
  0
ENDTAB
  0
TABLE
  2
LAYER
  5
2
100
AcDbSymbolTable
 70
36
  0
LAYER
  5
10
100
AcDbSymbolTableRecord
100
AcDbLayerTableRecord
  2
0
 70
0
 62
7
  6
CONTINUOUS
370
-3
390
F
  0
LAYER
  5
1FA
100
AcDbSymbolTableRecord
100
AcDbLayerTableRecord
  2
DEFAULT_1
 70
0
 62
7
  6
CENTER
370
-3
390
F
  0
LAYER
  5
1FB
100
AcDbSymbolTableRecord
100
AcDbLayerTableRecord
  2
DEFAULT_2
 70
0
 62
8
  6
HIDDEN
370
-3
390
F
  0
LAYER
  5
1FC
100
AcDbSymbolTableRecord
100
AcDbLayerTableRecord
  2
DEFAULT_3
 70
0
 62
7
  6
PHANTOM
370
-3
390
F
  0
LAYER
  5
1FD
100
AcDbSymbolTableRecord
100
AcDbLayerTableRecord
  2
DEFAULT_COORDINATE_SYSTEM
 70
0
 62
7
  6
CONTINUOUS
370
-3
390
F
  0
LAYER
  5
1FE
100
AcDbSymbolTableRecord
100
AcDbLayerTableRecord
  2
DEFAULT_DATUM_AXES
 70
0
 62
7
  6
CONTINUOUS
370
-3
390
F
  0
LAYER
  5
1FF
100
AcDbSymbolTableRecord
100
AcDbLayerTableRecord
  2
DEFAULT_DATUM_CURVES
 70
0
 62
7
  6
CONTINUOUS
370
-3
390
F
  0
LAYER
  5
200
100
AcDbSymbolTableRecord
100
AcDbLayerTableRecord
  2
DEFAULT_DATUM_PLANES
 70
0
 62
7
  6
CONTINUOUS
370
-3
390
F
  0
ENDTAB
  0
TABLE
  2
STYLE
  5
3
100
AcDbSymbolTable
 70
1
  0
STYLE
  5
11
100
AcDbSymbolTableRecord
100
AcDbTextStyleTableRecord
  2
STANDARD
 70
0
 40
0.0
 41
0.8
 50
0.0
 71
0
 42
0.2
  3
txt
  4

  0
STYLE
  5
201
100
AcDbSymbolTableRecord
100
AcDbTextStyleTableRecord
  2
TEXTSTYLE_1
 70
0
 40
0.0
 41
0.8
 50
0.0
 71
0
 42
0.2
  3
gdt
  4

  0
ENDTAB
  0
TABLE
  2
VIEW
  5
6
100
AcDbSymbolTable
 70
0
  0
ENDTAB
  0
TABLE
  2
UCS
  5
7
100
AcDbSymbolTable
 70
0
  0
ENDTAB
  0
TABLE
  2
APPID
  5
9
100
AcDbSymbolTable
 70
1
  0
APPID
  5
202
100
AcDbSymbolTableRecord
100
AcDbRegAppTableRecord
  2
ACAD
 70
0
  0
ENDTAB
  0
TABLE
  2
BLOCK_RECORD
  5
1
100
AcDbSymbolTable
 70
0
  0
BLOCK_RECORD
  5
203
100
AcDbSymbolTableRecord
100
AcDbBlockTableRecord
  2
*Model_Space
  0
BLOCK_RECORD
  5
204
100
AcDbSymbolTableRecord
100
AcDbBlockTableRecord
  2
*Paper_Space
  0
ENDTAB
  0
TABLE
  2
DIMSTYLE
  5
A
100
AcDbSymbolTable
 70
1
100
AcDbDimStyleTable
 71
0
  0
DIMSTYLE
105
205
100
AcDbSymbolTableRecord
100
AcDbDimStyleTableRecord
  2
STANDARD
 70
0
  3

  4

 40
1.0
 41
0.1875
 42
0.0625
 43
0.38
 44
0.18
 45
0.0
 46
0.0
 47
0.01
 48
0.01
140
0.15625
141
0.09
142
0.0
143
25.4
144
1.0
145
0.0
146
1.0
147
0.09
 71
0.0
 72
0.0
 73
1
 74
1
 75
0
 76
0
 77
0
 78
4
170
0
171
2
172
0
173
0
174
0
175
0
176
0
177
0
178
0
270
2
271
2
272
2
273
2
274
2
275
0
280
0
281
0
282
0
283
1
284
4
285
0
286
0
287
3
288
0
340
11
  0
ENDTAB
  0
ENDSEC
  0
SECTION
  2
BLOCKS
  0
BLOCK
  5
20
100
AcDbEntity
  8
0
100
AcDbBlockBegin
  2
*Model_Space
 70
0
 10
0.0
 20
0.0
 30
0.0
  3
*Model_Space
  1

  0
ENDBLK
  5
21
100
AcDbEntity
  8
0
100
AcDbBlockEnd
  0
BLOCK
  5
1C
100
AcDbEntity
  8
0
100
AcDbBlockBegin
  2
*Paper_Space
 70
0
 10
0.0
 20
0.0
 30
0.0
  3
*Paper_Space
  1

  0
ENDBLK
  5
1D
100
AcDbEntity
  8
0
100
AcDbBlockEnd
  0
ENDSEC
  0
SECTION
  2
ENTITIES
  0
LINE
  5
206
100
AcDbEntity
  8
0
100
AcDbLine
 62
6
  6
CONTINUOUS
 10
14.9726054682
 20
1.5415626314
 11
13.2186954253
 21
1.5415626314
  0
LINE
  5
207
100
AcDbEntity
  8
0
100
AcDbLine
 62
6
  6
CONTINUOUS
 10
12.9956504468
 20
1.5805626314
 11
15.1956504468
 21
1.5805626314
  0
LINE
  5
208
100
AcDbEntity
  8
0
100
AcDbLine
 62
9
  6
CONTINUOUS
 10
15.1956504468
 20
1.7944511737
 11
12.9956504468
 21
1.7944511737
  0
LINE
  5
209
100
AcDbEntity
  8
0
100
AcDbLine
 62
9
  6
CONTINUOUS
 10
13.0435417913
 20
1.8798015576
 11
15.1477591022
 21
1.8798015576
  0
LINE
  5
20A
100
AcDbEntity
  8
0
100
AcDbLine
 62
9
  6
CONTINUOUS
 10
14.8403788082
 20
2.067465316
 11
13.3509220853
 21
2.067465316
  0
LINE
  5
20B
100
AcDbEntity
  8
0
100
AcDbLine
 62
9
  6
CONTINUOUS
 10
13.4706504468
 20
2.2808412757
 11
14.7206504468
 21
2.2808412757
  0
LINE
  5
20C
100
AcDbEntity
  8
0
100
AcDbLine
 62
6
  6
CONTINUOUS
 10
8.6021535844
 20
12.3560648282
 11
8.5241368984
 21
12.3014369566
  0
LINE
  5
20D
100
AcDbEntity
  8
0
100
AcDbLine
 62
6
  6
CONTINUOUS
 10
13.7876642859
 20
2.9945626314
 11
14.4036366076
 21
2.9945626314
  0
LINE
  5
20E
100
AcDbEntity
  8
0
100
AcDbLine
 62
6
  6
CONTINUOUS
 10
13.7676504468
 20
3.0145626314
 11
14.4236504468
 21
3.0145626314
  0
LINE
  5
20F
100
AcDbEntity
  8
0
100
AcDbLine
 62
6
  6
CONTINUOUS
 10
14.4640061222
 20
3.4745626314
 11
13.7272947713
 21
3.4745626314
  0
LINE
  5
210
100
AcDbEntity
  8
0
100
AcDbLine
 62
6
  6
CONTINUOUS
 10
14.4640061222
 20
3.6369626314
 11
13.7272947713
 21
3.6369626314
  0
LINE
  5
211
100
AcDbEntity
  8
0
100
AcDbLine
 62
6
  6
CONTINUOUS
 10
8.4896929286
 20
12.30278396
 11
8.4028688398
 21
11.8103800835
  0
LINE
  5
212
100
AcDbEntity
  8
0
100
AcDbLine
 62
6
  6
CONTINUOUS
 10
14.4640061222
 20
3.7993626314
 11
13.7272947713
 21
3.7993626314
  0
LINE
  5
213
100
AcDbEntity
  8
0
100
AcDbLine
 62
6
  6
CONTINUOUS
 10
14.4640061222
 20
3.9617626314
 11
13.7272947713
 21
3.9617626314
  0
LINE
  5
214
100
AcDbEntity
  8
0
100
AcDbLine
 62
6
  6
CONTINUOUS
 10
14.4640061222
 20
4.1241626314
 11
13.7272947713
 21
4.1241626314
  0
LINE
  5
215
100
AcDbEntity
  8
0
100
AcDbLine
 62
6
  6
CONTINUOUS
 10
14.4640061222
 20
4.2865626314
 11
13.7272947713
 21
4.2865626314
  0
LINE
  5
216
100
AcDbEntity
  8
0
100
AcDbLine
 62
6
  6
CONTINUOUS
 10
8.6212548839
 20
12.464393681
 11
8.6021535844
 21
12.3560648282
  0
LINE
  5
217
100
AcDbEntity
  8
0
100
AcDbLine
 62
9
  6
CONTINUOUS
 10
13.5250665716
 20
4.7605626314
 11
13.4706504468
 21
4.7605626314
  0
LINE
  5
218
100
AcDbEntity
  8
0
100
AcDbLine
 62
9
  6
CONTINUOUS
 10
14.6662343219
 20
4.7605626314
 11
14.7206504468
 21
4.7605626314
  0
LINE
  5
219
100
AcDbEntity
  8
0
100
AcDbLine
 62
6
  6
CONTINUOUS
 10
15.1477591022
 20
1.8798015576
 11
14.8403788082
 21
2.067465316
  0
LINE
  5
21A
100
AcDbEntity
  8
0
100
AcDbLine
 62
6
  6
CONTINUOUS
 10
9.3165291575
 20
12.3417980676
 11
9.297427858
 21
12.2334692148
  0
LINE
  5
21B
100
AcDbEntity
  8
0
100
AcDbLine
 62
6
  6
CONTINUOUS
 10
9.3418415026
 20
12.1602689164
 11
9.343217816
 21
12.1680743775
  0
LINE
  5
21C
100
AcDbEntity
  8
0
100
AcDbLine
 62
6
  6
CONTINUOUS
 10
9.3848831761
 20
12.1449377665
 11
9.2980590873
 21
11.65253389
  0
LINE
  5
21D
100
AcDbEntity
  8
0
100
AcDbLine
 62
6
  6
CONTINUOUS
 10
13.7676504468
 20
5.0605626314
 11
13.4709303663
 21
5.0605626314
  0
LINE
  5
21E
100
AcDbEntity
  8
0
100
AcDbLine
 62
6
  6
CONTINUOUS
 10
14.4236504468
 20
5.0605626314
 11
14.7203705272
 21
5.0605626314
  0
LINE
  5
21F
100
AcDbEntity
  8
0
100
AcDbLine
 62
6
  6
CONTINUOUS
 10
13.7676504468
 20
3.3482456832
 11
13.4706504468
 21
3.5197187132
  0
LINE
  5
220
100
AcDbEntity
  8
0
100
AcDbLine
 62
6
  6
CONTINUOUS
 10
13.7676504468
 20
5.3285626314
 11
13.4716504468
 21
5.3285626314
  0
LINE
  5
221
100
AcDbEntity
  8
0
100
AcDbLine
 62
6
  6
CONTINUOUS
 10
14.4236504468
 20
5.3285626314
 11
14.7196504468
 21
5.3285626314
  0
LINE
  5
222
100
AcDbEntity
  8
0
100
AcDbLine
 62
9
  6
CONTINUOUS
 10
13.7676504468
 20
5.3935626314
 11
13.4716504468
 21
5.3935626314
  0
LINE
  5
223
100
AcDbEntity
  8
0
100
AcDbLine
 62
9
  6
CONTINUOUS
 10
14.4236504468
 20
5.3935626314
 11
14.7196504468
 21
5.3935626314
  0
LINE
  5
224
100
AcDbEntity
  8
0
100
AcDbLine
 62
9
  6
CONTINUOUS
 10
13.7676504468
 20
5.4268021419
 11
13.4811328334
 21
5.4268021419
  0
LINE
  5
225
100
AcDbEntity
  8
0
100
AcDbLine
 62
9
  6
CONTINUOUS
 10
14.4236504468
 20
5.4268021419
 11
14.7101680601
 21
5.4268021419
  0
LINE
  5
226
100
AcDbEntity
  8
0
100
AcDbLine
 62
6
  6
CONTINUOUS
 10
8.5241538213
 20
12.3013418263
 11
8.5241368984
 21
12.3014369566
  0
LINE
  5
227
100
AcDbEntity
  8
0
100
AcDbLine
 62
9
  6
CONTINUOUS
 10
13.7676504468
 20
5.8672576764
 11
13.6278416045
 21
5.8672576764
  0
LINE
  5
228
100
AcDbEntity
  8
0
100
AcDbLine
 62
9
  6
CONTINUOUS
 10
14.4236504468
 20
5.8672576764
 11
14.563459289
 21
5.8672576764
  0
LINE
  5
229
100
AcDbEntity
  8
0
100
AcDbLine
 62
9
  6
CONTINUOUS
 10
13.7676504468
 20
6.2422644594
 11
13.6606504468
 21
6.2422644594
  0
LINE
  5
22A
100
AcDbEntity
  8
0
100
AcDbLine
 62
9
  6
CONTINUOUS
 10
14.4236504468
 20
6.2422644594
 11
14.5306504468
 21
6.2422644594
  0
LINE
  5
22B
100
AcDbEntity
  8
0
100
AcDbLine
 62
9
  6
CONTINUOUS
 10
13.7676504468
 20
6.2705626314
 11
13.6915372175
 21
6.2705626314
  0
LINE
  5
22C
100
AcDbEntity
  8
0
100
AcDbLine
 62
9
  6
CONTINUOUS
 10
14.4236504468
 20
6.2705626314
 11
14.499763676
 21
6.2705626314
  0
LINE
  5
22D
100
AcDbEntity
  8
0
100
AcDbLine
 62
6
  6
CONTINUOUS
 10
14.4236504468
 20
4.4128795796
 11
14.7206504468
 21
4.2414065496
  0
LINE
  5
22E
100
AcDbEntity
  8
0
100
AcDbLine
 62
6
  6
CONTINUOUS
 10
13.7876504468
 20
2.9945626314
 11
13.7676504468
 21
3.0145626314
  0
LINE
  5
22F
100
AcDbEntity
  8
0
100
AcDbLine
 62
6
  6
CONTINUOUS
 10
13.7676504468
 20
6.8745626314
 11
14.4236504468
 21
6.8745626314
  0
LINE
  5
230
100
AcDbEntity
  8
0
100
AcDbLine
 62
6
  6
CONTINUOUS
 10
13.7876642859
 20
6.8945626314
 11
14.4036366076
 21
6.8945626314
  0
LINE
  5
231
100
AcDbEntity
  8
0
100
AcDbLine
 62
6
  6
CONTINUOUS
 10
9.3417417047
 20
12.1604357587
 11
9.3418415026
 21
12.1602689164
  0
LINE
  5
232
100
AcDbEntity
  8
0
100
AcDbLine
 62
6
  6
CONTINUOUS
 10
9.297427858
 20
12.2334692148
 11
9.343217816
 21
12.1680743775
  0
LINE
  5
233
100
AcDbEntity
  8
0
100
AcDbLine
 62
6
  6
CONTINUOUS
 10
8.5241538213
 20
12.3013418263
 11
8.5311436951
 21
12.2954750715
  0
LINE
  5
234
100
AcDbEntity
  8
0
100
AcDbLine
 62
6
  6
CONTINUOUS
 10
14.4236504468
 20
6.8745626314
 11
14.4036504468
 21
6.8945626314
  0
LINE
  5
235
100
AcDbEntity
  8
0
100
AcDbLine
 62
9
  6
CONTINUOUS
 10
13.4723291711
 20
4.5600139038
 11
13.4971097444
 21
4.2566828323
  0
LINE
  5
236
100
AcDbEntity
  8
0
100
AcDbLine
 62
6
  6
CONTINUOUS
 10
12.9956504468
 20
1.5805626314
 11
12.9956504468
 21
1.7944511737
  0
LINE
  5
237
100
AcDbEntity
  8
0
100
AcDbLine
 62
6
  6
CONTINUOUS
 10
9.3536437411
 20
12.1504461218
 11
9.3418824131
 21
12.1603176585
  0
LINE
  5
238
100
AcDbEntity
  8
0
100
AcDbLine
 62
6
  6
CONTINUOUS
 10
13.4706504468
 20
2.2808412757
 11
13.4706504468
 21
4.7605626314
  0
LINE
  5
239
100
AcDbEntity
  8
0
100
AcDbLine
 62
6
  6
CONTINUOUS
 10
13.4716504468
 20
5.3935626314
 11
13.4716504468
 21
5.3285626314
  0
LINE
  5
23A
100
AcDbEntity
  8
0
100
AcDbLine
 62
6
  6
CONTINUOUS
 10
13.7426504468
 20
6.2705626314
 11
13.7426504468
 21
11.9545626314
  0
LINE
  5
23B
100
AcDbEntity
  8
0
100
AcDbLine
 62
6
  6
CONTINUOUS
 10
13.7676504468
 20
3.0145626314
 11
13.7676504468
 21
3.4745626314
  0
LINE
  5
23C
100
AcDbEntity
  8
0
100
AcDbLine
 62
6
  6
CONTINUOUS
 10
13.7676504468
 20
4.2865626314
 11
13.7676504468
 21
6.8745626314
  0
LINE
  5
23D
100
AcDbEntity
  8
0
100
AcDbLine
 62
6
  6
CONTINUOUS
 10
13.6606504468
 20
6.2422644594
 11
13.6278416045
 21
5.8672576764
  0
LINE
  5
23E
100
AcDbEntity
  8
0
100
AcDbLine
 62
6
  6
CONTINUOUS
 10
14.5306504468
 20
6.2422644594
 11
14.563459289
 21
5.8672576764
  0
LINE
  5
23F
100
AcDbEntity
  8
0
100
AcDbLine
 62
9
  6
CONTINUOUS
 10
14.0956504468
 20
2.9945626314
 11
14.0956504468
 21
2.9818687788
  0
LINE
  5
240
100
AcDbEntity
  8
0
100
AcDbLine
 62
6
  6
CONTINUOUS
 10
13.7676504468
 20
6.8745626314
 11
13.7876504468
 21
6.8945626314
  0
LINE
  5
241
100
AcDbEntity
  8
0
100
AcDbLine
 62
6
  6
CONTINUOUS
 10
14.4236504468
 20
3.0145626314
 11
14.4236504468
 21
3.4745626314
  0
LINE
  5
242
100
AcDbEntity
  8
0
100
AcDbLine
 62
6
  6
CONTINUOUS
 10
14.4236504468
 20
4.2865626314
 11
14.4236504468
 21
6.8745626314
  0
LINE
  5
243
100
AcDbEntity
  8
0
100
AcDbLine
 62
6
  6
CONTINUOUS
 10
14.4486504468
 20
6.2705626314
 11
14.4486504468
 21
11.9545626314
  0
LINE
  5
244
100
AcDbEntity
  8
0
100
AcDbLine
 62
6
  6
CONTINUOUS
 10
14.7196504468
 20
5.3935626314
 11
14.7196504468
 21
5.3285626314
  0
LINE
  5
245
100
AcDbEntity
  8
0
100
AcDbLine
 62
6
  6
CONTINUOUS
 10
14.7206504468
 20
4.7605626314
 11
14.7206504468
 21
2.2808412757
  0
LINE
  5
246
100
AcDbEntity
  8
0
100
AcDbLine
 62
9
  6
CONTINUOUS
 10
8.4167390557
 20
11.6363272928
 11
9.2254957874
 21
11.4937216602
  0
LINE
  5
247
100
AcDbEntity
  8
0
100
AcDbLine
 62
9
  6
CONTINUOUS
 10
8.4087751169
 20
11.643746
 11
9.2355167892
 21
11.4979691371
  0
LINE
  5
248
100
AcDbEntity
  8
0
100
AcDbLine
 62
9
  6
CONTINUOUS
 10
8.4028688398
 20
11.8103800835
 11
9.2980590873
 21
11.65253389
  0
LINE
  5
249
100
AcDbEntity
  8
0
100
AcDbLine
 62
6
  6
CONTINUOUS
 10
15.1956504468
 20
1.7944511737
 11
15.1956504468
 21
1.5805626314
  0
LINE
  5
24A
100
AcDbEntity
  8
0
100
AcDbLine
 62
9
  6
CONTINUOUS
 10
14.7189717224
 20
4.5600139038
 11
14.6941911491
 21
4.2566828323
  0
LINE
  5
24B
100
AcDbEntity
  8
0
100
AcDbLine
 62
6
  6
CONTINUOUS
 10
8.4896929286
 20
12.30278396
 11
9.3848831761
 21
12.1449377665
  0
LINE
  5
24C
100
AcDbEntity
  8
0
100
AcDbLine
 62
6
  6
CONTINUOUS
 10
9.3329357558
 20
12.1698873821
 11
9.343217816
 21
12.1680743775
  0
LINE
  5
24D
100
AcDbEntity
  8
0
100
AcDbLine
 62
6
  6
CONTINUOUS
 10
9.297427858
 20
12.2334692148
 11
8.6021535844
 21
12.3560648282
  0
LINE
  5
24E
100
AcDbEntity
  8
0
100
AcDbLine
 62
9
  6
CONTINUOUS
 10
13.7426504468
 20
11.9545626314
 11
14.4486504468
 21
11.9545626314
  0
LINE
  5
24F
100
AcDbEntity
  8
0
100
AcDbLine
 62
9
  6
CONTINUOUS
 10
9.3165291575
 20
12.3417980676
 11
8.6212548839
 21
12.464393681
  0
LINE
  5
250
100
AcDbEntity
  8
0
100
AcDbLine
 62
6
  6
CONTINUOUS
 10
13.4706504468
 20
4.2414065496
 11
13.7676504468
 21
4.4128795796
  0
LINE
  5
251
100
AcDbEntity
  8
0
100
AcDbLine
 62
6
  6
CONTINUOUS
 10
14.4036504468
 20
2.9945626314
 11
14.4236504468
 21
3.0145626314
  0
LINE
  5
252
100
AcDbEntity
  8
0
100
AcDbLine
 62
6
  6
CONTINUOUS
 10
14.7206504468
 20
3.5197187132
 11
14.4236504468
 21
3.3482456832
  0
LINE
  5
253
100
AcDbEntity
  8
0
100
AcDbLine
 62
6
  6
CONTINUOUS
 10
13.0435417913
 20
1.8798015576
 11
13.3509220853
 21
2.067465316
  0
ARC
  5
254
100
AcDbEntity
  8
0
100
AcDbCircle
 62
6
  6
CONTINUOUS
 10
11.5126504468
 20
11.9545626314
 40
2.936
100
AcDbArc
 50
0.0
 51
170.0
  0
ARC
  5
255
100
AcDbEntity
  8
0
100
AcDbCircle
 62
6
  6
CONTINUOUS
 10
11.5126504468
 20
11.9545626314
 40
2.23
100
AcDbArc
 50
0.0
 51
170.0
  0
ARC
  5
256
100
AcDbEntity
  8
0
100
AcDbCircle
 62
6
  6
CONTINUOUS
 10
8.796791941
 20
11.7409208124
 40
0.4
100
AcDbArc
 50
170.0
 51
194.0599513872
  0
ARC
  5
257
100
AcDbEntity
  8
0
100
AcDbCircle
 62
6
  6
CONTINUOUS
 10
8.9041359861
 20
11.7219931611
 40
0.4
100
AcDbArc
 50
325.9400486128
 51
350.0
  0
ARC
  5
258
100
AcDbEntity
  8
0
100
AcDbCircle
 62
6
  6
CONTINUOUS
 10
9.2272322692
 20
11.5035697377
 40
0.01
100
AcDbArc
 50
259.9999999038
 51
325.9400485711
  0
ARC
  5
259
100
AcDbEntity
  8
0
100
AcDbCircle
 62
6
  6
CONTINUOUS
 10
8.4184755375
 20
11.6461753703
 40
0.01
100
AcDbArc
 50
194.0599514289
 51
260.0000000961
  0
ARC
  5
25A
100
AcDbEntity
  8
0
100
AcDbCircle
 62
9
  6
CONTINUOUS
 10
14.0952917231
 20
3.4097670795
 40
0.4279002832
100
AcDbArc
 50
270.0480332444
 51
283.1351591399
  0
ARC
  5
25B
100
AcDbEntity
  8
0
100
AcDbCircle
 62
6
  6
CONTINUOUS
 10
13.2206504468
 20
2.2808412757
 40
0.25
100
AcDbArc
 50
301.4051636659
 51
360.0
  0
ARC
  5
25C
100
AcDbEntity
  8
0
100
AcDbCircle
 62
6
  6
CONTINUOUS
 10
13.0956504468
 20
1.7944511737
 40
0.1
100
AcDbArc
 50
121.4051636659
 51
180.0
  0
ARC
  5
25D
100
AcDbEntity
  8
0
100
AcDbCircle
 62
6
  6
CONTINUOUS
 10
13.7746504468
 20
3.8805626314
 40
0.094
100
AcDbArc
 50
120.2506503162
 51
239.7493496838
  0
ARC
  5
25E
100
AcDbEntity
  8
0
100
AcDbCircle
 62
6
  6
CONTINUOUS
 10
13.7746504468
 20
3.7181626314
 40
0.094
100
AcDbArc
 50
120.2506503162
 51
239.7493496838
  0
ARC
  5
25F
100
AcDbEntity
  8
0
100
AcDbCircle
 62
6
  6
CONTINUOUS
 10
13.7746504468
 20
3.5557626314
 40
0.094
100
AcDbArc
 50
120.2506503162
 51
239.7493496838
  0
ARC
  5
260
100
AcDbEntity
  8
0
100
AcDbCircle
 62
6
  6
CONTINUOUS
 10
13.2186954253
 20
1.6110626314
 40
0.0695
100
AcDbArc
 50
206.0784065202
 51
270.0
  0
ARC
  5
261
100
AcDbEntity
  8
0
100
AcDbCircle
 62
6
  6
CONTINUOUS
 10
12.6316469064
 20
5.9544134191
 40
1.0
100
AcDbArc
 50
328.1557999176
 51
355.0
  0
ARC
  5
262
100
AcDbEntity
  8
0
100
AcDbCircle
 62
6
  6
CONTINUOUS
 10
13.7956504468
 20
4.7605626314
 40
0.925
100
AcDbArc
 50
0.0
 51
18.9246444161
  0
ARC
  5
263
100
AcDbEntity
  8
0
100
AcDbCircle
 62
6
  6
CONTINUOUS
 10
13.6031504468
 20
5.1942058303
 40
0.188
100
AcDbArc
 50
134.384343958
 51
225.3055886043
  0
ARC
  5
264
100
AcDbEntity
  8
0
100
AcDbCircle
 62
6
  6
CONTINUOUS
 10
13.7746504468
 20
4.0429626314
 40
0.094
100
AcDbArc
 50
120.2506503162
 51
239.7493496838
  0
ARC
  5
265
100
AcDbEntity
  8
0
100
AcDbCircle
 62
6
  6
CONTINUOUS
 10
13.7746504468
 20
4.2053626314
 40
0.094
100
AcDbArc
 50
120.2506503162
 51
239.7493496838
  0
ARC
  5
266
100
AcDbEntity
  8
0
100
AcDbCircle
 62
6
  6
CONTINUOUS
 10
13.5346504468
 20
5.3935626314
 40
0.063
100
AcDbArc
 50
148.1557999176
 51
180.0
  0
ARC
  5
267
100
AcDbEntity
  8
0
100
AcDbCircle
 62
6
  6
CONTINUOUS
 10
13.6915324824
 20
6.2395626314
 40
0.031
100
AcDbArc
 50
90.0
 51
175.0
  0
ARC
  5
268
100
AcDbEntity
  8
0
100
AcDbCircle
 62
6
  6
CONTINUOUS
 10
14.0956504468
 20
3.8805626314
 40
0.6075
100
AcDbArc
 50
302.7077309985
 51
57.2915275915
  0
ARC
  5
269
100
AcDbEntity
  8
0
100
AcDbCircle
 62
6
  6
CONTINUOUS
 10
14.0956504468
 20
3.8805626314
 40
0.6075
100
AcDbArc
 50
122.7077309985
 51
237.2915275915
  0
ARC
  5
26A
100
AcDbEntity
  8
0
100
AcDbCircle
 62
9
  6
CONTINUOUS
 10
14.0956504468
 20
3.8805626314
 40
0.5764999952
100
AcDbArc
 50
304.7713624748
 51
55.2283973543
  0
ARC
  5
26B
100
AcDbEntity
  8
0
100
AcDbCircle
 62
9
  6
CONTINUOUS
 10
14.0956504468
 20
3.8805626314
 40
0.5764999952
100
AcDbArc
 50
124.7713624748
 51
235.2283973543
  0
ARC
  5
26C
100
AcDbEntity
  8
0
100
AcDbCircle
 62
7
  6
CONTINUOUS
 10
14.0956504468
 20
3.8805626314
 40
0.55
100
AcDbArc
 50
226.6393807376
 51
233.3616868322
  0
ARC
  5
26D
100
AcDbEntity
  8
0
100
AcDbCircle
 62
7
  6
CONTINUOUS
 10
14.0956504468
 20
3.8805626314
 40
0.55
100
AcDbArc
 50
136.5656842308
 51
223.4343157692
  0
ARC
  5
26E
100
AcDbEntity
  8
0
100
AcDbCircle
 62
7
  6
CONTINUOUS
 10
14.0956504468
 20
3.8805626314
 40
0.55
100
AcDbArc
 50
126.6383131678
 51
133.3606192624
  0
ARC
  5
26F
100
AcDbEntity
  8
0
100
AcDbCircle
 62
7
  6
CONTINUOUS
 10
14.0956504468
 20
3.8805626314
 40
0.55
100
AcDbArc
 50
306.6383131678
 51
313.3606192624
  0
ARC
  5
270
100
AcDbEntity
  8
0
100
AcDbCircle
 62
7
  6
CONTINUOUS
 10
14.0956504468
 20
3.8805626314
 40
0.55
100
AcDbArc
 50
316.5656842308
 51
43.4343157692
  0
ARC
  5
271
100
AcDbEntity
  8
0
100
AcDbCircle
 62
7
  6
CONTINUOUS
 10
14.0956504468
 20
3.8805626314
 40
0.55
100
AcDbArc
 50
46.6393807376
 51
53.3616868322
  0
ARC
  5
272
100
AcDbEntity
  8
0
100
AcDbCircle
 62
9
  6
CONTINUOUS
 10
14.0960091704
 20
3.4097670795
 40
0.4279002832
100
AcDbArc
 50
256.8648408601
 51
269.9519667556
  0
ARC
  5
273
100
AcDbEntity
  8
0
100
AcDbCircle
 62
9
  6
CONTINUOUS
 10
14.0956504468
 20
3.8805626314
 40
0.3972512915
100
AcDbArc
 50
166.2423472931
 51
170.8785085663
  0
ARC
  5
274
100
AcDbEntity
  8
0
100
AcDbCircle
 62
9
  6
CONTINUOUS
 10
14.0956504468
 20
3.8805626314
 40
0.3972512915
100
AcDbArc
 50
189.1214162954
 51
193.7492879525
  0
ARC
  5
275
100
AcDbEntity
  8
0
100
AcDbCircle
 62
9
  6
CONTINUOUS
 10
14.0956504468
 20
3.8805626314
 40
0.3972512915
100
AcDbArc
 50
346.2423472931
 51
350.8785085663
  0
ARC
  5
276
100
AcDbEntity
  8
0
100
AcDbCircle
 62
9
  6
CONTINUOUS
 10
14.0956504468
 20
3.8805626314
 40
0.3972512915
100
AcDbArc
 50
9.1214162954
 51
13.7492879525
  0
ARC
  5
277
100
AcDbEntity
  8
0
100
AcDbCircle
 62
6
  6
CONTINUOUS
 10
14.9706504468
 20
2.2808412757
 40
0.25
100
AcDbArc
 50
180.0
 51
238.5948363341
  0
ARC
  5
278
100
AcDbEntity
  8
0
100
AcDbCircle
 62
6
  6
CONTINUOUS
 10
15.0956504468
 20
1.7944511737
 40
0.1
100
AcDbArc
 50
0.0
 51
58.5948363341
  0
ARC
  5
279
100
AcDbEntity
  8
0
100
AcDbCircle
 62
6
  6
CONTINUOUS
 10
14.4166504468
 20
3.8805626314
 40
0.094
100
AcDbArc
 50
300.2506503162
 51
59.7493496838
  0
ARC
  5
27A
100
AcDbEntity
  8
0
100
AcDbCircle
 62
6
  6
CONTINUOUS
 10
14.4166504468
 20
3.7181626314
 40
0.094
100
AcDbArc
 50
300.2506503162
 51
59.7493496838
  0
ARC
  5
27B
100
AcDbEntity
  8
0
100
AcDbCircle
 62
6
  6
CONTINUOUS
 10
14.4166504468
 20
3.5557626314
 40
0.094
100
AcDbArc
 50
300.2506503162
 51
59.7493496838
  0
ARC
  5
27C
100
AcDbEntity
  8
0
100
AcDbCircle
 62
6
  6
CONTINUOUS
 10
14.9726054682
 20
1.6110626314
 40
0.0695
100
AcDbArc
 50
270.0
 51
333.9215934798
  0
ARC
  5
27D
100
AcDbEntity
  8
0
100
AcDbCircle
 62
6
  6
CONTINUOUS
 10
15.5596539871
 20
5.9544134191
 40
1.0
100
AcDbArc
 50
185.0
 51
211.8442000824
  0
ARC
  5
27E
100
AcDbEntity
  8
0
100
AcDbCircle
 62
6
  6
CONTINUOUS
 10
14.3956504468
 20
4.7605626314
 40
0.925
100
AcDbArc
 50
161.0753555839
 51
180.0
  0
ARC
  5
27F
100
AcDbEntity
  8
0
100
AcDbCircle
 62
6
  6
CONTINUOUS
 10
14.5881504468
 20
5.1942058303
 40
0.188
100
AcDbArc
 50
314.6944113957
 51
45.615656042
  0
ARC
  5
280
100
AcDbEntity
  8
0
100
AcDbCircle
 62
6
  6
CONTINUOUS
 10
14.4166504468
 20
4.0429626314
 40
0.094
100
AcDbArc
 50
300.2506503162
 51
59.7493496838
  0
ARC
  5
281
100
AcDbEntity
  8
0
100
AcDbCircle
 62
6
  6
CONTINUOUS
 10
14.4166504468
 20
4.2053626314
 40
0.094
100
AcDbArc
 50
300.2506503162
 51
59.7493496838
  0
ARC
  5
282
100
AcDbEntity
  8
0
100
AcDbCircle
 62
6
  6
CONTINUOUS
 10
14.6566504468
 20
5.3935626314
 40
0.063
100
AcDbArc
 50
0.0
 51
31.8442000824
  0
ARC
  5
283
100
AcDbEntity
  8
0
100
AcDbCircle
 62
6
  6
CONTINUOUS
 10
14.4997684111
 20
6.2395626314
 40
0.031
100
AcDbArc
 50
5.0
 51
90.0
  0
SPLINE
  5
284
100
AcDbEntity
  8
0
100
AcDbSpline
 62
9
  6
CONTINUOUS
 70
0
 71
3
 72
19
 73
15
 74
13
 42
0.0000001
 43
0.0000001
 44
0.0000000001
 12
-0.2616304325
 22
-0.0750786482
 32
0.0
 13
-0.2129427946
 23
-0.1695365825
 33
0.0
 40
0.0
 40
0.0
 40
0.0
 40
0.0
 40
0.0820133713
 40
0.1617370464
 40
0.2390841874
 40
0.3139729091
 40
0.3863425255
 40
0.4561335611
 40
0.5877263725
 40
0.6494332242
 40
0.7083422256
 40
0.8175452897
 40
0.9149044182
 40
1.0
 40
1.0
 40
1.0
 40
1.0
 10
13.7671418251
 20
4.7691423315
 30
0.0
 10
13.7599894271
 20
4.7670898471
 30
0.0
 10
13.7459298765
 20
4.762881236
 30
0.0
 10
13.7252972056
 20
4.7561789333
 30
0.0
 10
13.7054373118
 20
4.749208332
 30
0.0
 10
13.686373261
 20
4.7420028154
 30
0.0
 10
13.6681215994
 20
4.7346023841
 30
0.0
 10
13.645332871
 20
4.7247198839
 30
0.0
 10
13.6237739993
 20
4.7144463552
 30
0.0
 10
13.6035022759
 20
4.7038267191
 30
0.0
 10
13.5852798604
 20
4.6936875032
 30
0.0
 10
13.5646773469
 20
4.681188082
 30
0.0
 10
13.5427699678
 20
4.6663265624
 30
0.0
 10
13.529546813
 20
4.6563539953
 30
0.0
 10
13.5235066493
 20
4.6515450572
 30
0.0
 11
13.7671418251
 21
4.7691423315
 31
0.0
 11
13.7457570234
 21
4.7627379851
 31
0.0
 11
13.725119664
 21
4.7560306651
 31
0.0
 11
13.7052559069
 21
4.7490546856
 31
0.0
 11
13.6861894568
 21
4.7418452655
 31
0.0
 11
13.6679358778
 21
4.7344406219
 31
0.0
 11
13.6505090493
 21
4.7268795926
 31
0.0
 11
13.6181876744
 21
4.7114434768
 31
0.0
 11
13.6033116927
 21
4.7036454026
 31
0.0
 11
13.5893024338
 21
4.6958451727
 31
0.0
 11
13.563902157
 21
4.6804069169
 31
0.0
 11
13.5419859475
 21
4.6655093223
 31
0.0
 11
13.5235066493
 21
4.6515450572
 31
0.0
  0
SPLINE
  5
285
100
AcDbEntity
  8
0
100
AcDbSpline
 62
9
  6
CONTINUOUS
 70
0
 71
3
 72
19
 73
15
 74
13
 42
0.0000001
 43
0.0000001
 44
0.0000000001
 12
-0.2802702096
 22
-0.1159427845
 32
0.0
 13
-0.1806827887
 23
-0.2436141407
 33
0.0
 40
0.0
 40
0.0
 40
0.0
 40
0.0
 40
0.1449727416
 40
0.2156050873
 40
0.2849282876
 40
0.4194582167
 40
0.5482314497
 40
0.6709591176
 40
0.7299833537
 40
0.7873957397
 40
0.8431589037
 40
0.8972301067
 40
0.9495386919
 40
1.0
 40
1.0
 40
1.0
 40
1.0
 10
13.7669883135
 20
4.9376182391
 30
0.0
 10
13.7534444666
 20
4.9320153914
 30
0.0
 10
13.7335391895
 20
4.9230880678
 30
0.0
 10
13.7078224782
 20
4.9101005173
 30
0.0
 10
13.6834457946
 20
4.8968301041
 30
0.0
 10
13.654661249
 20
4.8793949556
 30
0.0
 10
13.6226117602
 20
4.857077625
 30
0.0
 10
13.5980689723
 20
4.8374571913
 30
0.0
 10
13.5800056193
 20
4.8213763723
 30
0.0
 10
13.5674188508
 20
4.8093428508
 30
0.0
 10
13.5556259935
 20
4.7972197946
 30
0.0
 10
13.544639028
 20
4.7850483598
 30
0.0
 10
13.5344632754
 20
4.772882416
 30
0.0
 10
13.5281057348
 20
4.7646603275
 30
0.0
 10
13.5250665716
 20
4.7605626314
 30
0.0
 11
13.7669883135
 21
4.9376182391
 31
0.0
 11
13.7268772715
 21
4.9196028697
 31
0.0
 11
13.7077559401
 21
4.9099422928
 31
0.0
 11
13.6892902644
 21
4.8998866712
 31
0.0
 11
13.6544046206
 21
4.8787223334
 31
0.0
 11
13.6223727012
 21
4.8563738922
 31
0.0
 11
13.593324915
 21
4.8330962432
 31
0.0
 11
13.5799566775
 21
4.8211888966
 31
0.0
 11
13.5673735096
 21
4.8091517353
 31
0.0
 11
13.555584567
 21
4.7970241077
 31
0.0
 11
13.544598788
 21
4.7848472687
 31
0.0
 11
13.5344237638
 21
4.7726742619
 31
0.0
 11
13.5250665716
 21
4.7605626314
 31
0.0
  0
SPLINE
  5
286
100
AcDbEntity
  8
0
100
AcDbSpline
 62
9
  6
CONTINUOUS
 70
0
 71
3
 72
22
 73
18
 74
16
 42
0.0000001
 43
0.0000001
 44
0.0000000001
 12
-0.1021382995
 22
-0.1824647313
 32
0.0
 13
-0.0007476806
 23
-0.2091053595
 33
0.0
 40
0.0
 40
0.0
 40
0.0
 40
0.0
 40
0.1214532049
 40
0.241457031
 40
0.3010126008
 40
0.3603304096
 40
0.4785800195
 40
0.5377216851
 40
0.5970430194
 40
0.6567394854
 40
0.7171297725
 40
0.7788286256
 40
0.8432858861
 40
0.8776309277
 40
0.9146274233
 40
0.9555386422
 40
1.0
 40
1.0
 40
1.0
 40
1.0
 10
13.5250665716
 20
4.7605626314
 30
0.0
 10
13.5209315636
 20
4.7531756559
 30
0.0
 10
13.5131374487
 20
4.7382463665
 30
0.0
 10
13.5045391227
 20
4.7190940406
 30
0.0
 10
13.4983980499
 20
4.7036152726
 30
0.0
 10
13.4927581863
 20
4.6880772889
 30
0.0
 10
13.4878275908
 20
4.6723195607
 30
0.0
 10
13.4836211688
 20
4.6563633867
 30
0.0
 10
13.4808218773
 20
4.6442627938
 30
0.0
 10
13.4783767897
 20
4.6319970624
 30
0.0
 10
13.4762833795
 20
4.6194982418
 30
0.0
 10
13.4745388124
 20
4.6066109747
 30
0.0
 10
13.4734028982
 20
4.5954790823
 30
0.0
 10
13.4726956435
 20
4.5860395755
 30
0.0
 10
13.4722681234
 20
4.5782263945
 30
0.0
 10
13.4719902706
 20
4.5697008046
 30
0.0
 10
13.4719262318
 20
4.5637500758
 30
0.0
 10
13.4719151508
 20
4.5606510397
 30
0.0
 11
13.5250665716
 21
4.7605626314
 31
0.0
 11
13.5133176072
 21
4.7380470121
 31
0.0
 11
13.5030415413
 21
4.7151539692
 31
0.0
 11
13.4984493304
 21
4.7035781118
 31
0.0
 11
13.4942184034
 21
4.6919182535
 31
0.0
 11
13.4868375611
 21
4.6683187392
 31
0.0
 11
13.4836851226
 21
4.6563603614
 31
0.0
 11
13.4808893789
 21
4.6442750337
 31
0.0
 11
13.478448945
 21
4.6320329814
 31
0.0
 11
13.4763630876
 21
4.6195784272
 31
0.0
 11
13.4746332454
 21
4.6067932777
 31
0.0
 11
13.4732683864
 21
4.5933841154
 31
0.0
 11
13.4727325933
 21
4.5862223514
 31
0.0
 11
13.4723100524
 21
4.5784976843
 31
0.0
 11
13.472028141
 21
4.5699475208
 31
0.0
 11
13.4719151508
 21
4.5606510397
 31
0.0
  0
SPLINE
  5
287
100
AcDbEntity
  8
0
100
AcDbSpline
 62
9
  6
CONTINUOUS
 70
0
 71
3
 72
11
 73
7
 74
5
 42
0.0000001
 43
0.0000001
 44
0.0000000001
 12
0.0216549985
 22
-0.1077144852
 32
0.0
 13
-0.0266344133
 23
-0.1065924824
 33
0.0
 40
0.0
 40
0.0
 40
0.0
 40
0.0
 40
0.2576910476
 40
0.5100887754
 40
0.7573783029
 40
1.0
 40
1.0
 40
1.0
 40
1.0
 10
13.5250665603
 20
4.7605626314
 30
0.0
 10
13.52692666
 20
4.7513102786
 30
0.0
 10
13.5296857304
 20
4.7327941713
 30
0.0
 10
13.5308451875
 20
4.7050276488
 30
0.0
 10
13.528960717
 20
4.6778516263
 30
0.0
 10
13.5256595532
 20
4.6601660574
 30
0.0
 10
13.5235055243
 20
4.6515455077
 30
0.0
 11
13.5250665603
 21
4.7605626314
 31
0.0
 11
13.5292094985
 21
4.7325549521
 31
0.0
 11
13.5303341857
 21
4.7048469079
 31
0.0
 11
13.5284246573
 21
4.6777444692
 31
0.0
 11
13.5235055243
 21
4.6515455077
 31
0.0
  0
SPLINE
  5
288
100
AcDbEntity
  8
0
100
AcDbSpline
 62
9
  6
CONTINUOUS
 70
0
 71
3
 72
28
 73
24
 74
22
 42
0.0000001
 43
0.0000001
 44
0.0000000001
 12
-0.085271656
 22
-0.0679178526
 32
0.0
 13
0.0001408008
 23
-0.1090140826
 33
0.0
 40
0.0
 40
0.0
 40
0.0
 40
0.0
 40
0.0655535181
 40
0.1290886919
 40
0.1907737787
 40
0.250762206
 40
0.309093848
 40
0.3656942607
 40
0.4207268937
 40
0.4744880796
 40
0.5272812366
 40
0.5794826009
 40
0.631574481
 40
0.684251786
 40
0.7387002639
 40
0.7975379
 40
0.8306829779
 40
0.8695256525
 40
0.8931056077
 40
0.9219364965
 40
0.9582782457
 40
0.9789428127
 40
1.0
 40
1.0
 40
1.0
 40
1.0
 10
13.5235055243
 20
4.6515455077
 30
0.0
 10
13.5216422386
 20
4.650061423
 30
0.0
 10
13.5180169379
 20
4.6470831919
 30
0.0
 10
13.5128083744
 20
4.6425064403
 30
0.0
 10
13.5079142539
 20
4.6378844009
 30
0.0
 10
13.5033334302
 20
4.6332128595
 30
0.0
 10
13.4990648665
 20
4.6285009557
 30
0.0
 10
13.4950986555
 20
4.623764406
 30
0.0
 10
13.4914376898
 20
4.618995489
 30
0.0
 10
13.4880813376
 20
4.6141747887
 30
0.0
 10
13.485024224
 20
4.6092795215
 30
0.0
 10
13.4822632428
 20
4.6042801147
 30
0.0
 10
13.4797945263
 20
4.5991343649
 30
0.0
 10
13.4776134133
 20
4.5937714119
 30
0.0
 10
13.4757105183
 20
4.5880439922
 30
0.0
 10
13.4744008674
 20
4.5828807182
 30
0.0
 10
13.4735150908
 20
4.5782087009
 30
0.0
 10
13.4730342236
 20
4.5747676833
 30
0.0
 10
13.4727060928
 20
4.5714675901
 30
0.0
 10
13.4724881473
 20
4.5682492947
 30
0.0
 10
13.4723765921
 20
4.5651315974
 30
0.0
 10
13.4723342848
 20
4.5622951925
 30
0.0
 10
13.4723282435
 20
4.5607790803
 30
0.0
 10
13.4723292318
 20
4.5600139037
 30
0.0
 11
13.5235055243
 21
4.6515455077
 31
0.0
 11
13.5179862705
 21
4.6470060247
 31
0.0
 11
13.5127861476
 21
4.6424309349
 31
0.0
 11
13.5078999609
 21
4.6378108987
 31
0.0
 11
13.5033230632
 21
4.6331398999
 31
0.0
 11
13.4990542195
 21
4.628426775
 31
0.0
 11
13.4950965283
 21
4.6236929995
 31
0.0
 11
13.4914475065
 21
4.6189309953
 31
0.0
 11
13.4881023101
 21
4.6141187368
 31
0.0
 11
13.4850574381
 21
4.6092349771
 31
0.0
 11
13.4823096276
 21
4.6042516574
 31
0.0
 11
13.4798562677
 21
4.5991302061
 31
0.0
 11
13.4776955232
 21
4.5938096492
 31
0.0
 11
13.4758268414
 21
4.5881758194
 31
0.0
 11
13.474252866
 21
4.5819578015
 31
0.0
 11
13.4735802059
 21
4.5784076826
 31
0.0
 11
13.4729921314
 21
4.5742143153
 31
0.0
 11
13.4727370699
 21
4.5716564515
 31
0.0
 11
13.4725213356
 21
4.5685208887
 31
0.0
 11
13.4723737712
 21
4.5645618721
 31
0.0
 11
13.4723385626
 21
4.5623094166
 31
0.0
 11
13.4723292318
 21
4.5600139037
 31
0.0
  0
LINE
  5
289
100
AcDbEntity
  8
0
100
AcDbLine
 62
9
  6
CONTINUOUS
 10
13.4719151508
 20
4.5606510397
 11
13.4715637934
 21
4.2419339714
  0
LINE
  5
28A
100
AcDbEntity
  8
0
100
AcDbLine
 62
9
  6
CONTINUOUS
 10
13.4719151442
 20
4.5606510397
 11
13.4723291448
 21
4.5600139039
  0
SPLINE
  5
28B
100
AcDbEntity
  8
0
100
AcDbSpline
 62
9
  6
CONTINUOUS
 70
0
 71
3
 72
13
 73
9
 74
7
 42
0.0000001
 43
0.0000001
 44
0.0000000001
 12
-0.0013555648
 22
-0.3179008436
 32
0.0
 13
-0.0001604892
 23
-0.3179036932
 33
0.0
 40
0.0
 40
0.0
 40
0.0
 40
0.0
 40
0.124892787
 40
0.2498611733
 40
0.374861823
 40
0.4998778225
 40
0.749932001
 40
1.0
 40
1.0
 40
1.0
 40
1.0
 10
13.4723291448
 20
4.5600139039
 30
0.0
 10
13.4722727114
 20
4.5467793964
 30
0.0
 10
13.4721877474
 20
4.520302253
 30
0.0
 10
13.472100041
 20
4.4805790242
 30
0.0
 10
13.4720364224
 20
4.4408426921
 30
0.0
 10
13.4719709976
 20
4.3878512709
 30
0.0
 10
13.4719140556
 20
4.3216067065
 30
0.0
 10
13.4718830802
 20
4.2686098128
 30
0.0
 10
13.4718697025
 20
4.2421106327
 30
0.0
 11
13.4723291448
 21
4.5600139039
 31
0.0
 11
13.4721943951
 21
4.5203102492
 31
0.0
 11
13.4721040666
 21
4.4805824353
 31
0.0
 11
13.4720388515
 21
4.4408443155
 31
0.0
 11
13.4719890126
 21
4.4011012938
 31
0.0
 11
13.4719177015
 21
4.3216081688
 31
0.0
 11
13.4718697025
 21
4.2421106327
 31
0.0
  0
SPLINE
  5
28C
100
AcDbEntity
  8
0
100
AcDbSpline
 62
9
  6
CONTINUOUS
 70
0
 71
3
 72
17
 73
13
 74
11
 42
0.0000001
 43
0.0000001
 44
0.0000000001
 12
0.142166226
 22
-0.402801693
 32
0.0
 13
0.3149531164
 23
-0.2885567087
 33
0.0
 40
0.0
 40
0.0
 40
0.0
 40
0.0
 40
0.121563726
 40
0.2437896241
 40
0.3668055524
 40
0.4907596754
 40
0.6158271618
 40
0.6788506454
 40
0.7422326851
 40
0.8060073508
 40
0.8702078402
 40
1.0
 40
1.0
 40
1.0
 40
1.0
 10
13.5418972853
 20
3.4784949618
 30
0.0
 10
13.5476580373
 20
3.4621729369
 30
0.0
 10
13.5599601241
 20
3.4296982639
 30
0.0
 10
13.5807934303
 20
3.3817837311
 30
0.0
 10
13.6041960257
 20
3.3346848774
 30
0.0
 10
13.6303339975
 20
3.28857879
 30
0.0
 10
13.654499358
 20
3.2512580637
 30
0.0
 10
13.6753793966
 20
3.2221637083
 30
0.0
 10
13.6918998198
 20
3.2007016258
 30
0.0
 10
13.7092706618
 20
3.179702295
 30
0.0
 10
13.7336928759
 20
3.1522984338
 30
0.0
 10
13.7532732622
 20
3.13275849
 30
0.0
 10
13.7668994106
 20
3.1202743572
 30
0.0
 11
13.5418972853
 21
3.4784949618
 31
0.0
 11
13.5603106986
 21
3.4299429376
 31
0.0
 11
13.5811500823
 21
3.3820730343
 31
0.0
 11
13.6045574038
 21
3.3350277765
 31
0.0
 11
13.6306991286
 21
3.2889838151
 31
0.0
 11
13.6597689546
 21
3.2441622932
 31
0.0
 11
13.6754701704
 21
3.2222945705
 31
0.0
 11
13.6919892376
 21
3.2008442644
 31
0.0
 11
13.7093581192
 21
3.1798579234
 31
0.0
 11
13.7276098647
 21
3.1593903515
 31
0.0
 11
13.7668994106
 21
3.1202743572
 31
0.0
  0
SPLINE
  5
28D
100
AcDbEntity
  8
0
100
AcDbSpline
 62
9
  6
CONTINUOUS
 70
0
 71
3
 72
19
 73
15
 74
13
 42
0.0000001
 43
0.0000001
 44
0.0000000001
 12
0.2802702096
 22
-0.1159427845
 32
0.0
 13
0.1806827887
 23
-0.2436141407
 33
0.0
 40
0.0
 40
0.0
 40
0.0
 40
0.0
 40
0.1449727416
 40
0.2156050873
 40
0.2849282876
 40
0.4194582167
 40
0.5482314497
 40
0.6709591176
 40
0.7299833537
 40
0.7873957397
 40
0.8431589037
 40
0.8972301067
 40
0.9495386919
 40
1.0
 40
1.0
 40
1.0
 40
1.0
 10
14.42431258
 20
4.9376182391
 30
0.0
 10
14.4378564269
 20
4.9320153914
 30
0.0
 10
14.457761704
 20
4.9230880678
 30
0.0
 10
14.4834784153
 20
4.9101005173
 30
0.0
 10
14.5078550989
 20
4.8968301041
 30
0.0
 10
14.5366396445
 20
4.8793949556
 30
0.0
 10
14.5686891333
 20
4.857077625
 30
0.0
 10
14.5932319212
 20
4.8374571913
 30
0.0
 10
14.6112952742
 20
4.8213763723
 30
0.0
 10
14.6238820427
 20
4.8093428508
 30
0.0
 10
14.6356749
 20
4.7972197946
 30
0.0
 10
14.6466618655
 20
4.7850483598
 30
0.0
 10
14.6568376181
 20
4.772882416
 30
0.0
 10
14.6631951587
 20
4.7646603275
 30
0.0
 10
14.6662343219
 20
4.7605626314
 30
0.0
 11
14.42431258
 21
4.9376182391
 31
0.0
 11
14.464423622
 21
4.9196028697
 31
0.0
 11
14.4835449534
 21
4.9099422928
 31
0.0
 11
14.5020106291
 21
4.8998866712
 31
0.0
 11
14.5368962729
 21
4.8787223334
 31
0.0
 11
14.5689281923
 21
4.8563738922
 31
0.0
 11
14.5979759785
 21
4.8330962432
 31
0.0
 11
14.611344216
 21
4.8211888966
 31
0.0
 11
14.6239273839
 21
4.8091517353
 31
0.0
 11
14.6357163265
 21
4.7970241077
 31
0.0
 11
14.6467021055
 21
4.7848472687
 31
0.0
 11
14.6568771297
 21
4.7726742619
 31
0.0
 11
14.6662343219
 21
4.7605626314
 31
0.0
  0
SPLINE
  5
28E
100
AcDbEntity
  8
0
100
AcDbSpline
 62
9
  6
CONTINUOUS
 70
0
 71
3
 72
19
 73
15
 74
13
 42
0.0000001
 43
0.0000001
 44
0.0000000001
 12
0.2616304325
 22
-0.0750786482
 32
0.0
 13
0.2129427946
 23
-0.1695365825
 33
0.0
 40
0.0
 40
0.0
 40
0.0
 40
0.0
 40
0.0820133713
 40
0.1617370464
 40
0.2390841874
 40
0.3139729091
 40
0.3863425255
 40
0.4561335611
 40
0.5877263725
 40
0.6494332242
 40
0.7083422256
 40
0.8175452897
 40
0.9149044182
 40
1.0
 40
1.0
 40
1.0
 40
1.0
 10
14.4241590684
 20
4.7691423315
 30
0.0
 10
14.4313114664
 20
4.7670898471
 30
0.0
 10
14.445371017
 20
4.762881236
 30
0.0
 10
14.4660036879
 20
4.7561789333
 30
0.0
 10
14.4858635817
 20
4.749208332
 30
0.0
 10
14.5049276325
 20
4.7420028154
 30
0.0
 10
14.5231792941
 20
4.7346023841
 30
0.0
 10
14.5459680225
 20
4.7247198839
 30
0.0
 10
14.5675268942
 20
4.7144463552
 30
0.0
 10
14.5877986176
 20
4.7038267191
 30
0.0
 10
14.6060210331
 20
4.6936875032
 30
0.0
 10
14.6266235466
 20
4.681188082
 30
0.0
 10
14.6485309257
 20
4.6663265624
 30
0.0
 10
14.6617540805
 20
4.6563539953
 30
0.0
 10
14.6677942442
 20
4.6515450572
 30
0.0
 11
14.4241590684
 21
4.7691423315
 31
0.0
 11
14.4455438701
 21
4.7627379851
 31
0.0
 11
14.4661812295
 21
4.7560306651
 31
0.0
 11
14.4860449866
 21
4.7490546856
 31
0.0
 11
14.5051114367
 21
4.7418452655
 31
0.0
 11
14.5233650157
 21
4.7344406219
 31
0.0
 11
14.5407918442
 21
4.7268795926
 31
0.0
 11
14.5731132191
 21
4.7114434768
 31
0.0
 11
14.5879892008
 21
4.7036454026
 31
0.0
 11
14.6019984597
 21
4.6958451727
 31
0.0
 11
14.6273987365
 21
4.6804069169
 31
0.0
 11
14.649314946
 21
4.6655093223
 31
0.0
 11
14.6677942442
 21
4.6515450572
 31
0.0
  0
SPLINE
  5
28F
100
AcDbEntity
  8
0
100
AcDbSpline
 62
9
  6
CONTINUOUS
 70
0
 71
3
 72
22
 73
18
 74
16
 42
0.0000001
 43
0.0000001
 44
0.0000000001
 12
0.1021382995
 22
-0.1824647313
 32
0.0
 13
0.0007476806
 23
-0.2091053595
 33
0.0
 40
0.0
 40
0.0
 40
0.0
 40
0.0
 40
0.1214532049
 40
0.241457031
 40
0.3010126008
 40
0.3603304096
 40
0.4785800195
 40
0.5377216851
 40
0.5970430194
 40
0.6567394854
 40
0.7171297725
 40
0.7788286256
 40
0.8432858861
 40
0.8776309277
 40
0.9146274233
 40
0.9555386422
 40
1.0
 40
1.0
 40
1.0
 40
1.0
 10
14.6662343219
 20
4.7605626314
 30
0.0
 10
14.6703693299
 20
4.7531756559
 30
0.0
 10
14.6781634448
 20
4.7382463665
 30
0.0
 10
14.6867617708
 20
4.7190940406
 30
0.0
 10
14.6929028436
 20
4.7036152726
 30
0.0
 10
14.6985427072
 20
4.6880772889
 30
0.0
 10
14.7034733027
 20
4.6723195607
 30
0.0
 10
14.7076797247
 20
4.6563633867
 30
0.0
 10
14.7104790162
 20
4.6442627938
 30
0.0
 10
14.7129241038
 20
4.6319970624
 30
0.0
 10
14.715017514
 20
4.6194982418
 30
0.0
 10
14.7167620811
 20
4.6066109747
 30
0.0
 10
14.7178979953
 20
4.5954790823
 30
0.0
 10
14.71860525
 20
4.5860395755
 30
0.0
 10
14.7190327701
 20
4.5782263945
 30
0.0
 10
14.7193106229
 20
4.5697008046
 30
0.0
 10
14.7193746617
 20
4.5637500758
 30
0.0
 10
14.7193857427
 20
4.5606510397
 30
0.0
 11
14.6662343219
 21
4.7605626314
 31
0.0
 11
14.6779832863
 21
4.7380470121
 31
0.0
 11
14.6882593522
 21
4.7151539692
 31
0.0
 11
14.6928515631
 21
4.7035781118
 31
0.0
 11
14.6970824901
 21
4.6919182535
 31
0.0
 11
14.7044633324
 21
4.6683187392
 31
0.0
 11
14.7076157709
 21
4.6563603614
 31
0.0
 11
14.7104115146
 21
4.6442750337
 31
0.0
 11
14.7128519485
 21
4.6320329814
 31
0.0
 11
14.7149378059
 21
4.6195784272
 31
0.0
 11
14.7166676481
 21
4.6067932777
 31
0.0
 11
14.7180325071
 21
4.5933841154
 31
0.0
 11
14.7185683002
 21
4.5862223514
 31
0.0
 11
14.7189908411
 21
4.5784976843
 31
0.0
 11
14.7192727525
 21
4.5699475208
 31
0.0
 11
14.7193857427
 21
4.5606510397
 31
0.0
  0
SPLINE
  5
290
100
AcDbEntity
  8
0
100
AcDbSpline
 62
9
  6
CONTINUOUS
 70
0
 71
3
 72
28
 73
24
 74
22
 42
0.0000001
 43
0.0000001
 44
0.0000000001
 12
0.085271656
 22
-0.0679178526
 32
0.0
 13
-0.0001408008
 23
-0.1090140826
 33
0.0
 40
0.0
 40
0.0
 40
0.0
 40
0.0
 40
0.0655535181
 40
0.1290886919
 40
0.1907737787
 40
0.250762206
 40
0.309093848
 40
0.3656942607
 40
0.4207268937
 40
0.4744880796
 40
0.5272812366
 40
0.5794826009
 40
0.631574481
 40
0.684251786
 40
0.7387002639
 40
0.7975379
 40
0.8306829779
 40
0.8695256525
 40
0.8931056077
 40
0.9219364965
 40
0.9582782457
 40
0.9789428127
 40
1.0
 40
1.0
 40
1.0
 40
1.0
 10
14.6677953692
 20
4.6515455077
 30
0.0
 10
14.6696586549
 20
4.650061423
 30
0.0
 10
14.6732839556
 20
4.6470831919
 30
0.0
 10
14.6784925191
 20
4.6425064403
 30
0.0
 10
14.6833866396
 20
4.6378844009
 30
0.0
 10
14.6879674633
 20
4.6332128595
 30
0.0
 10
14.692236027
 20
4.6285009557
 30
0.0
 10
14.696202238
 20
4.623764406
 30
0.0
 10
14.6998632037
 20
4.618995489
 30
0.0
 10
14.7032195559
 20
4.6141747887
 30
0.0
 10
14.7062766695
 20
4.6092795215
 30
0.0
 10
14.7090376507
 20
4.6042801147
 30
0.0
 10
14.7115063673
 20
4.5991343649
 30
0.0
 10
14.7136874802
 20
4.5937714119
 30
0.0
 10
14.7155903752
 20
4.5880439922
 30
0.0
 10
14.7169000261
 20
4.5828807182
 30
0.0
 10
14.7177858027
 20
4.5782087009
 30
0.0
 10
14.7182666699
 20
4.5747676833
 30
0.0
 10
14.7185948007
 20
4.5714675901
 30
0.0
 10
14.7188127462
 20
4.5682492947
 30
0.0
 10
14.7189243014
 20
4.5651315974
 30
0.0
 10
14.7189666087
 20
4.5622951925
 30
0.0
 10
14.71897265
 20
4.5607790803
 30
0.0
 10
14.7189716617
 20
4.5600139037
 30
0.0
 11
14.6677953692
 21
4.6515455077
 31
0.0
 11
14.673314623
 21
4.6470060247
 31
0.0
 11
14.6785147459
 21
4.6424309349
 31
0.0
 11
14.6834009327
 21
4.6378108987
 31
0.0
 11
14.6879778303
 21
4.6331398999
 31
0.0
 11
14.692246674
 21
4.628426775
 31
0.0
 11
14.6962043652
 21
4.6236929995
 31
0.0
 11
14.699853387
 21
4.6189309953
 31
0.0
 11
14.7031985835
 21
4.6141187368
 31
0.0
 11
14.7062434554
 21
4.6092349771
 31
0.0
 11
14.7089912659
 21
4.6042516574
 31
0.0
 11
14.7114446258
 21
4.5991302061
 31
0.0
 11
14.7136053703
 21
4.5938096492
 31
0.0
 11
14.7154740521
 21
4.5881758194
 31
0.0
 11
14.7170480275
 21
4.5819578015
 31
0.0
 11
14.7177206876
 21
4.5784076826
 31
0.0
 11
14.7183087621
 21
4.5742143153
 31
0.0
 11
14.7185638236
 21
4.5716564515
 31
0.0
 11
14.7187795579
 21
4.5685208887
 31
0.0
 11
14.7189271223
 21
4.5645618721
 31
0.0
 11
14.7189623309
 21
4.5623094166
 31
0.0
 11
14.7189716617
 21
4.5600139037
 31
0.0
  0
SPLINE
  5
291
100
AcDbEntity
  8
0
100
AcDbSpline
 62
9
  6
CONTINUOUS
 70
0
 71
3
 72
11
 73
7
 74
5
 42
0.0000001
 43
0.0000001
 44
0.0000000001
 12
-0.0216549985
 22
-0.1077144852
 32
0.0
 13
0.0266344133
 23
-0.1065924824
 33
0.0
 40
0.0
 40
0.0
 40
0.0
 40
0.0
 40
0.2576910476
 40
0.5100887754
 40
0.7573783029
 40
1.0
 40
1.0
 40
1.0
 40
1.0
 10
14.6662343332
 20
4.7605626314
 30
0.0
 10
14.6643742335
 20
4.7513102786
 30
0.0
 10
14.6616151631
 20
4.7327941713
 30
0.0
 10
14.660455706
 20
4.7050276488
 30
0.0
 10
14.6623401765
 20
4.6778516263
 30
0.0
 10
14.6656413403
 20
4.6601660574
 30
0.0
 10
14.6677953692
 20
4.6515455077
 30
0.0
 11
14.6662343332
 21
4.7605626314
 31
0.0
 11
14.662091395
 21
4.7325549521
 31
0.0
 11
14.6609667078
 21
4.7048469079
 31
0.0
 11
14.6628762362
 21
4.6777444692
 31
0.0
 11
14.6677953692
 21
4.6515455077
 31
0.0
  0
LINE
  5
292
100
AcDbEntity
  8
0
100
AcDbLine
 62
9
  6
CONTINUOUS
 10
14.7193857427
 20
4.5606510397
 11
14.7197371001
 21
4.2419339714
  0
SPLINE
  5
293
100
AcDbEntity
  8
0
100
AcDbSpline
 62
9
  6
CONTINUOUS
 70
0
 71
3
 72
13
 73
9
 74
7
 42
0.0000001
 43
0.0000001
 44
0.0000000001
 12
0.0013555648
 22
-0.3179008436
 32
0.0
 13
0.0001604892
 23
-0.3179036932
 33
0.0
 40
0.0
 40
0.0
 40
0.0
 40
0.0
 40
0.124892787
 40
0.2498611733
 40
0.374861823
 40
0.4998778225
 40
0.749932001
 40
1.0
 40
1.0
 40
1.0
 40
1.0
 10
14.7189717487
 20
4.5600139039
 30
0.0
 10
14.7190281821
 20
4.5467793964
 30
0.0
 10
14.7191131461
 20
4.520302253
 30
0.0
 10
14.7192008526
 20
4.4805790242
 30
0.0
 10
14.7192644711
 20
4.4408426921
 30
0.0
 10
14.7193298959
 20
4.3878512709
 30
0.0
 10
14.7193868379
 20
4.3216067065
 30
0.0
 10
14.7194178133
 20
4.2686098128
 30
0.0
 10
14.719431191
 20
4.2421106327
 30
0.0
 11
14.7189717487
 21
4.5600139039
 31
0.0
 11
14.7191064984
 21
4.5203102492
 31
0.0
 11
14.7191968269
 21
4.4805824353
 31
0.0
 11
14.719262042
 21
4.4408443155
 31
0.0
 11
14.7193118809
 21
4.4011012938
 31
0.0
 11
14.719383192
 21
4.3216081688
 31
0.0
 11
14.719431191
 21
4.2421106327
 31
0.0
  0
LINE
  5
294
100
AcDbEntity
  8
0
100
AcDbLine
 62
9
  6
CONTINUOUS
 10
14.7193857493
 20
4.5606510397
 11
14.7189717487
 21
4.5600139039
  0
SPLINE
  5
295
100
AcDbEntity
  8
0
100
AcDbSpline
 62
9
  6
CONTINUOUS
 70
0
 71
3
 72
17
 73
13
 74
11
 42
0.0000001
 43
0.0000001
 44
0.0000000001
 12
-0.142166226
 22
-0.402801693
 32
0.0
 13
-0.3149531164
 23
-0.2885567087
 33
0.0
 40
0.0
 40
0.0
 40
0.0
 40
0.0
 40
0.121563726
 40
0.2437896241
 40
0.3668055524
 40
0.4907596754
 40
0.6158271618
 40
0.6788506454
 40
0.7422326851
 40
0.8060073508
 40
0.8702078402
 40
1.0
 40
1.0
 40
1.0
 40
1.0
 10
14.6494036083
 20
3.4784949618
 30
0.0
 10
14.6436428562
 20
3.4621729369
 30
0.0
 10
14.6313407694
 20
3.4296982639
 30
0.0
 10
14.6105074632
 20
3.3817837311
 30
0.0
 10
14.5871048678
 20
3.3346848774
 30
0.0
 10
14.560966896
 20
3.28857879
 30
0.0
 10
14.5368015355
 20
3.2512580637
 30
0.0
 10
14.5159214969
 20
3.2221637083
 30
0.0
 10
14.4994010737
 20
3.2007016258
 30
0.0
 10
14.4820302317
 20
3.179702295
 30
0.0
 10
14.4576080176
 20
3.1522984338
 30
0.0
 10
14.4380276313
 20
3.13275849
 30
0.0
 10
14.4244014829
 20
3.1202743572
 30
0.0
 11
14.6494036083
 21
3.4784949618
 31
0.0
 11
14.6309901949
 21
3.4299429376
 31
0.0
 11
14.6101508112
 21
3.3820730343
 31
0.0
 11
14.5867434897
 21
3.3350277765
 31
0.0
 11
14.5606017649
 21
3.2889838151
 31
0.0
 11
14.5315319389
 21
3.2441622932
 31
0.0
 11
14.5158307231
 21
3.2222945705
 31
0.0
 11
14.4993116559
 21
3.2008442644
 31
0.0
 11
14.4819427743
 21
3.1798579234
 31
0.0
 11
14.4636910288
 21
3.1593903515
 31
0.0
 11
14.4244014829
 21
3.1202743572
 31
0.0
  0
SPLINE
  5
296
100
AcDbEntity
  8
0
100
AcDbSpline
 62
6
  6
CONTINUOUS
 70
0
 71
3
 72
57
 73
53
 74
51
 42
0.0000001
 43
0.0000001
 44
0.0000000001
 12
0.6712790105
 22
0.4700346233
 32
0.0
 13
0.8123298009
 23
-0.1080201456
 33
0.0
 40
0.0
 40
0.0
 40
0.0
 40
0.0
 40
0.0000423106
 40
0.0000984575
 40
0.0002557565
 40
0.0004755083
 40
0.0007587565
 40
0.0011059231
 40
0.0015171918
 40
0.0019926357
 40
0.0025322701
 40
0.0038040081
 40
0.0053320726
 40
0.0071159566
 40
0.009155077
 40
0.0114488089
 40
0.0139965024
 40
0.0167974887
 40
0.0198506562
 40
0.0267055149
 40
0.0345444987
 40
0.0433508704
 40
0.0531078639
 40
0.0637986779
 40
0.0754035436
 40
0.0878964269
 40
0.1012504917
 40
0.1154388972
 40
0.1304347997
 40
0.1627317444
 40
0.1978713124
 40
0.2355703958
 40
0.2755266666
 40
0.3174042213
 40
0.360862753
 40
0.4055439503
 40
0.4510740498
 40
0.4970779528
 40
0.543175272
 40
0.6341227108
 40
0.720894706
 40
0.8005820139
 40
0.8369134255
 40
0.8704909677
 40
0.901027428
 40
0.9282584559
 40
0.9519651912
 40
0.9719367219
 40
0.9804653924
 40
0.9879977876
 40
0.9945154529
 40
1.0
 40
1.0
 40
1.0
 40
1.0
 10
8.5241368984
 20
12.3014369566
 30
0.0
 10
8.5241463658
 20
12.3014435857
 30
0.0
 10
8.5241709638
 20
12.3014551923
 30
0.0
 10
8.5242381569
 20
12.3014745883
 30
0.0
 10
8.5243559777
 20
12.3014901017
 30
0.0
 10
8.5245360528
 20
12.3014995869
 30
0.0
 10
8.5247684019
 20
12.3015001909
 30
0.0
 10
8.525052839
 20
12.3014920104
 30
0.0
 10
8.5253894738
 20
12.3014747976
 30
0.0
 10
8.5257782199
 20
12.3014485471
 30
0.0
 10
8.5264009001
 20
12.301398593
 30
0.0
 10
8.5273089988
 20
12.3013116938
 30
0.0
 10
8.5285537799
 20
12.3011765162
 30
0.0
 10
8.530005417
 20
12.3010051602
 30
0.0
 10
8.5316633424
 20
12.3007976738
 30
0.0
 10
8.5335269868
 20
12.3005540685
 30
0.0
 10
8.5355957769
 20
12.3002744043
 30
0.0
 10
8.5378690224
 20
12.2999587668
 30
0.0
 10
8.5413061813
 20
12.2994709739
 30
0.0
 10
8.5461031999
 20
12.298771183
 30
0.0
 10
8.5524518822
 20
12.2978214254
 30
0.0
 10
8.5595815516
 20
12.2967342897
 30
0.0
 10
8.5674786204
 20
12.2955121328
 30
0.0
 10
8.5761286953
 20
12.2941574137
 30
0.0
 10
8.5855149017
 20
12.2926730603
 30
0.0
 10
8.5956176823
 20
12.2910625436
 30
0.0
 10
8.6064155738
 20
12.2893296188
 30
0.0
 10
8.6178869006
 20
12.2874780943
 30
0.0
 10
8.6344644807
 20
12.2847892429
 30
0.0
 10
8.6566875573
 20
12.2811613504
 30
0.0
 10
8.6850265719
 20
12.2765059345
 30
0.0
 10
8.715426248
 20
12.2714877523
 30
0.0
 10
8.7476386852
 20
12.2661503828
 30
0.0
 10
8.7814006364
 20
12.2605403202
 30
0.0
 10
8.8164337596
 20
12.2547064824
 30
0.0
 10
8.8524495516
 20
12.2486997063
 30
0.0
 10
8.8891501598
 20
12.2425725276
 30
0.0
 10
8.9262317784
 20
12.2363784351
 30
0.0
 10
8.975549974
 20
12.228139807
 30
0.0
 10
9.0358531186
 20
12.2180718972
 30
0.0
 10
9.1052115379
 20
12.206523561
 30
0.0
 10
9.159861115
 20
12.1974705113
 30
0.0
 10
9.2001827733
 20
12.1908365921
 30
0.0
 10
9.2272606555
 20
12.1864077161
 30
0.0
 10
9.2518901746
 20
12.1824101596
 30
0.0
 10
9.2738640029
 20
12.1788804015
 30
0.0
 10
9.2929952351
 20
12.1758509374
 30
0.0
 10
9.3070875758
 20
12.1736648035
 30
0.0
 10
9.3168196649
 20
12.1721934787
 30
0.0
 10
9.3229209024
 20
12.1712909902
 30
0.0
 10
9.3282027876
 20
12.1705323333
 30
0.0
 10
9.3314506688
 20
12.1700848626
 30
0.0
 10
9.3329357558
 20
12.1698873821
 30
0.0
 11
8.5241368984
 21
12.3014369566
 31
0.0
 11
8.5241677413
 21
12.3014527967
 31
0.0
 11
8.5242117186
 21
12.301466326
 31
0.0
 11
8.5243390403
 21
12.3014864578
 31
0.0
 11
8.524518792
 21
12.3014973639
 31
0.0
 11
8.5247509021
 21
12.3014990557
 31
0.0
 11
8.5250352992
 21
12.3014915449
 31
0.0
 11
8.5253719117
 21
12.3014748433
 31
0.0
 11
8.5257606681
 21
12.3014489623
 31
0.0
 11
8.5262014968
 21
12.3014139137
 31
0.0
 11
8.5272390852
 21
12.3013163601
 31
0.0
 11
8.5284841047
 21
12.3011822757
 31
0.0
 11
8.529935983
 21
12.3010117535
 31
0.0
 11
8.531594148
 21
12.3008048866
 31
0.0
 11
8.5334580273
 21
12.3005617682
 31
0.0
 11
8.5355270488
 21
12.3002824913
 31
0.0
 11
8.5378006376
 21
12.2999671497
 31
0.0
 11
8.5402778704
 21
12.2996159013
 31
0.0
 11
8.5458367243
 21
12.2988068438
 31
0.0
 11
8.5521901137
 21
12.2978577133
 31
0.0
 11
8.5593244599
 21
12.2967709195
 31
0.0
 11
8.5672261845
 21
12.2955488722
 31
0.0
 11
8.5758816947
 21
12.2941939834
 31
0.0
 11
8.5852750111
 21
12.2927090806
 31
0.0
 11
8.5953851022
 21
12.2910978707
 31
0.0
 11
8.6061902933
 21
12.289364172
 31
0.0
 11
8.61766891
 21
12.2875118031
 31
0.0
 11
8.6297992776
 21
12.2855445828
 31
0.0
 11
8.6559205268
 21
12.2812822855
 31
0.0
 11
8.684336077
 21
12.2766157216
 31
0.0
 11
8.7148174152
 21
12.2715852001
 31
0.0
 11
8.7471205251
 21
12.2662337547
 31
0.0
 11
8.7809742966
 21
12.2606091793
 31
0.0
 11
8.8161040709
 21
12.2547598923
 31
0.0
 11
8.8522206615
 21
12.2487368757
 31
0.0
 11
8.8890224141
 21
12.2425933111
 31
0.0
 11
8.9262065984
 21
12.2363825727
 31
0.0
 11
8.9634662194
 21
12.2301588029
 31
0.0
 11
9.0369790331
 21
12.2178895971
 31
0.0
 11
9.1071221807
 21
12.2062157463
 31
0.0
 11
9.1715476703
 21
12.1955512501
 31
0.0
 11
9.2009258262
 21
12.1907192497
 31
0.0
 11
9.2280814081
 21
12.1862794149
 31
0.0
 11
9.2527825716
 21
12.1822725998
 31
0.0
 11
9.2748159096
 21
12.1787364586
 31
0.0
 11
9.2940047085
 21
12.1757022781
 31
0.0
 11
9.3101785978
 21
12.1732002128
 31
0.0
 11
9.3170893357
 21
12.1721567034
 31
0.0
 11
9.3231957715
 21
12.1712550108
 31
0.0
 11
9.3284829099
 21
12.1704977114
 31
0.0
 11
9.3329357558
 21
12.1698873821
 31
0.0
  0
SPLINE
  5
297
100
AcDbEntity
  8
0
100
AcDbSpline
 62
6
  6
CONTINUOUS
 70
0
 71
3
 72
34
 73
30
 74
28
 42
0.0000001
 43
0.0000001
 44
0.0000000001
 12
-0.7881594965
 22
0.0874126038
 32
0.0
 13
-0.7870972007
 23
0.0965108904
 33
0.0
 40
0.0
 40
0.0
 40
0.0
 40
0.0
 40
0.0052034129
 40
0.0112576481
 40
0.0181492053
 40
0.0258644761
 40
0.0437114051
 40
0.0646792764
 40
0.088616992
 40
0.11536664
 40
0.1447570124
 40
0.1765794877
 40
0.2466491371
 40
0.3236747923
 40
0.4055738149
 40
0.4901207664
 40
0.5750251133
 40
0.6579846485
 40
0.7367473743
 40
0.8091827167
 40
0.842401988
 40
0.8733230613
 40
0.9017286921
 40
0.9274274723
 40
0.9502522157
 40
0.9700388352
 40
0.9866562042
 40
0.9937437492
 40
1.0
 40
1.0
 40
1.0
 40
1.0
 10
9.3329357558
 20
12.1698873821
 30
0.0
 10
9.331568716
 20
12.1700389967
 30
0.0
 10
9.3286130965
 20
12.1703849538
 30
0.0
 10
9.3238527605
 20
12.1709803119
 30
0.0
 10
9.3184377288
 20
12.171690312
 30
0.0
 10
9.3099372626
 20
12.1728450972
 30
0.0
 10
9.2977594621
 20
12.1745704362
 30
0.0
 10
9.2813475791
 20
12.1769774374
 30
0.0
 10
9.2626171423
 20
12.1797918919
 30
0.0
 10
9.2416934277
 20
12.1829920285
 30
0.0
 10
9.2187166222
 20
12.1865535774
 30
0.0
 10
9.1844325117
 20
12.1919228139
 30
0.0
 10
9.1377224137
 20
12.1993283063
 30
0.0
 10
9.0779531534
 20
12.2088962168
 30
0.0
 10
9.014414556
 20
12.2191272186
 30
0.0
 10
8.9488246517
 20
12.2297189584
 30
0.0
 10
8.8829586389
 20
12.2403593005
 30
0.0
 10
8.8185986077
 20
12.250734774
 30
0.0
 10
8.7574850021
 20
12.2605390484
 30
0.0
 10
8.7093433053
 20
12.2681983798
 30
0.0
 10
8.6736813617
 20
12.2738125556
 30
0.0
 10
8.6495111073
 20
12.2775841478
 30
0.0
 10
8.6272990386
 20
12.2810109922
 30
0.0
 10
8.6071951945
 20
12.2840667607
 30
0.0
 10
8.5893359152
 20
12.2867282465
 30
0.0
 10
8.573841823
 20
12.2889740981
 30
0.0
 10
8.562455458
 20
12.2905598976
 30
0.0
 10
8.5546042634
 20
12.2915991791
 30
0.0
 10
8.5511050113
 20
12.2920423644
 30
0.0
 10
8.5494635855
 20
12.2922436298
 30
0.0
 11
9.3329357558
 21
12.1698873821
 31
0.0
 11
9.3288370857
 21
12.1703637923
 31
0.0
 11
9.3240729477
 21
12.1709572634
 31
0.0
 11
9.3186541456
 21
12.1716659671
 31
0.0
 11
9.3125914831
 21
12.1724880751
 31
0.0
 11
9.2985777937
 21
12.1744651901
 31
0.0
 11
9.2821256325
 21
12.1768725369
 31
0.0
 11
9.2633533487
 21
12.1796891911
 31
0.0
 11
9.2423844636
 21
12.1828932085
 31
0.0
 11
9.2193528151
 21
12.1864608737
 31
0.0
 11
9.1944214393
 21
12.190363459
 31
0.0
 11
9.1395405083
 21
12.1990534723
 31
0.0
 11
9.0792265728
 21
12.2087015196
 31
0.0
 11
9.0151063517
 21
12.2190207052
 31
0.0
 11
8.9489180197
 21
12.229704552
 31
0.0
 11
8.8824505531
 21
12.2404376209
 31
0.0
 11
8.8175020387
 21
12.2509028567
 31
0.0
 11
8.755831377
 21
12.2607901185
 31
0.0
 11
8.6991027026
 21
12.2698059747
 31
0.0
 11
8.6730803156
 21
12.2739009539
 31
0.0
 11
8.6488530222
 21
12.2776794095
 31
0.0
 11
8.6265905704
 21
12.2811114106
 31
0.0
 11
8.6064425632
 21
12.284170578
 31
0.0
 11
8.5885397387
 21
12.2868338592
 31
0.0
 11
8.5730105081
 21
12.2890786117
 31
0.0
 11
8.5599577016
 21
12.2908867038
 31
0.0
 11
8.5543857019
 21
12.2916224628
 31
0.0
 11
8.5494635855
 21
12.2922436298
 31
0.0
  0
SPLINE
  5
298
100
AcDbEntity
  8
0
100
AcDbSpline
 62
6
  6
CONTINUOUS
 70
0
 71
3
 72
38
 73
34
 74
32
 42
0.0000001
 43
0.0000001
 44
0.0000000001
 12
-0.051676583
 22
-0.2930918629
 32
0.0
 13
-0.2938320008
 23
0.0472870448
 33
0.0
 40
0.0
 40
0.0
 40
0.0
 40
0.0
 40
0.0004887193
 40
0.0006754744
 40
0.0008926244
 40
0.0014224281
 40
0.0020841186
 40
0.0028805245
 40
0.0038132497
 40
0.0048832855
 40
0.0074376058
 40
0.0105468533
 40
0.0142123452
 40
0.018432889
 40
0.0285305543
 40
0.0408213148
 40
0.0552849172
 40
0.0719004029
 40
0.0906464405
 40
0.1114986303
 40
0.1344186945
 40
0.1593641313
 40
0.1862923759
 40
0.2151608203
 40
0.278545559
 40
0.3491101393
 40
0.4263715909
 40
0.5098412077
 40
0.5989800879
 40
0.6931880076
 40
0.791860106
 40
0.8943580407
 40
1.0
 40
1.0
 40
1.0
 40
1.0
 10
9.3418377517
 20
12.1602695772
 30
0.0
 10
9.3418293333
 20
12.1602218307
 30
0.0
 10
9.3417615045
 20
12.1601758705
 30
0.0
 10
9.3416812755
 20
12.1601439145
 30
0.0
 10
9.3415921226
 20
12.1601162846
 30
0.0
 10
9.3414552609
 20
12.1600885878
 30
0.0
 10
9.341259412
 20
12.1600635428
 30
0.0
 10
9.3410228815
 20
12.1600456001
 30
0.0
 10
9.3407453516
 20
12.1600346222
 30
0.0
 10
9.3402932652
 20
12.160029209
 30
0.0
 10
9.3396252522
 20
12.1600431683
 30
0.0
 10
9.3387007529
 20
12.1600869779
 30
0.0
 10
9.3376123197
 20
12.1601592903
 30
0.0
 10
9.335833984
 20
12.1603025819
 30
0.0
 10
9.3332065373
 20
12.1605584834
 30
0.0
 10
9.3295728287
 20
12.1609609582
 30
0.0
 10
9.325301127
 20
12.1614750467
 30
0.0
 10
9.3203978722
 20
12.1620997535
 30
0.0
 10
9.3148697884
 20
12.1628342067
 30
0.0
 10
9.3087252396
 20
12.1636771077
 30
0.0
 10
9.3019745948
 20
12.1646266313
 30
0.0
 10
9.2946299821
 20
12.1656806917
 30
0.0
 10
9.2867039336
 20
12.1668371154
 30
0.0
 10
9.2750079057
 20
12.1685673005
 30
0.0
 10
9.2590357562
 20
12.1709725468
 30
0.0
 10
9.2383242282
 20
12.1741445319
 30
0.0
 10
9.215649899
 20
12.1776618574
 30
0.0
 10
9.1911604987
 20
12.1814988199
 30
0.0
 10
9.165015157
 20
12.1856275114
 30
0.0
 10
9.1373842979
 20
12.190017782
 30
0.0
 10
9.1084480942
 20
12.1946380544
 30
0.0
 10
9.0783946633
 20
12.1994552309
 30
0.0
 10
9.0580080551
 20
12.2027325619
 30
0.0
 10
9.047661059
 20
12.2043977272
 30
0.0
 11
9.3418377517
 21
12.1602695772
 31
0.0
 11
9.341734908
 21
12.1601667249
 31
0.0
 11
9.3416835236
 21
12.1601455387
 31
0.0
 11
9.3416218698
 21
12.1601261634
 31
0.0
 11
9.3414677539
 21
12.1600928449
 31
0.0
 11
9.3412725604
 21
12.1600667696
 31
0.0
 11
9.3410362893
 21
12.1600479374
 31
0.0
 11
9.3407589404
 21
12.1600363483
 31
0.0
 11
9.3404405138
 21
12.1600320023
 31
0.0
 11
9.3396804275
 21
12.1600450396
 31
0.0
 11
9.3387560301
 21
12.1600870494
 31
0.0
 11
9.3376674436
 21
12.1601580101
 31
0.0
 11
9.3364153269
 21
12.1602578056
 31
0.0
 11
9.3334237285
 21
12.1605433321
 31
0.0
 11
9.3297876862
 21
12.1609424914
 31
0.0
 11
9.3255136514
 21
12.1614541459
 31
0.0
 11
9.3206080754
 21
12.1620771581
 31
0.0
 11
9.3150774095
 21
12.1628103906
 31
0.0
 11
9.308928942
 21
12.1636525581
 31
0.0
 11
9.3021739917
 21
12.164601665
 31
0.0
 11
9.2948250892
 21
12.1656555017
 31
0.0
 11
9.2868947655
 21
12.1668118587
 31
0.0
 11
9.2783955515
 21
12.1680685264
 31
0.0
 11
9.2597412077
 21
12.1708738443
 31
0.0
 11
9.2389819115
 21
12.1740503222
 31
0.0
 11
9.2162593588
 21
12.1775729751
 31
0.0
 11
9.1917168852
 21
12.1814165292
 31
0.0
 11
9.1655125136
 21
12.1855531208
 31
0.0
 11
9.1378222238
 21
12.1899517198
 31
0.0
 11
9.1088233416
 21
12.1945810589
 31
0.0
 11
9.078702998
 21
12.199408142
 31
0.0
 11
9.047661059
 21
12.2043977272
 31
0.0
  0
ENDSEC
  0
SECTION
  2
OBJECTS
  0
DICTIONARY
  5
C
100
AcDbDictionary
280
0
281
1
  3
ACAD_GROUP
350
D
  3
ACAD_MLINESTYLE
350
17
  3
ACAD_LAYOUT
350
1A
  3
ACAD_PLOTSETTINGS
350
19
  3
ACAD_PLOTSTYLENAME
350
E
  0
DICTIONARY
  5
D
102
{ACAD_REACTORS
330
C
102
}
100
AcDbDictionary
280
0
281
1
  0
ACDBDICTIONARYWDFLT
  5
E
102
{ACAD_REACTORS
330
C
102
}
100
AcDbDictionary
281
1
  3
Normal
350
F
100
AcDbDictionaryWithDefault
340
F
  0
DICTIONARY
  5
17
102
{ACAD_REACTORS
330
C
102
}
100
AcDbDictionary
280
0
281
1
  3
Standard
350
18
  0
DICTIONARY
  5
19
102
{ACAD_REACTORS
330
C
102
}
100
AcDbDictionary
281
1
  0
DICTIONARY
  5
1A
102
{ACAD_REACTORS
330
C
102
}
100
AcDbDictionary
281
1
  3
Model
350
299
  3
Layout1
350
29A
  0
ACDBPLACEHOLDER
  5
F
102
{ACAD_REACTORS
330
E
102
}
  0
MLINESTYLE
  5
18
102
{ACAD_REACTORS
330
17
102
}
100
AcDbMlineStyle
  2
STANDARD
 70
0
  3

 62
256
 51
90.0
 52
90.0
 71
2
 49
0.5
 62
256
  6
BYLAYER
 49
-0.5
 62
256
  6
BYLAYER
  0
LAYOUT
  5
299
102
{ACAD_REACTORS
330
1A
102
}
100
AcDbPlotSettings
  1

  2
none_device
  4
ISO_A2_(594.00_x_420.00_MM)
  6

 40
0.0
 41
0.0
 42
0.0
 43
0.0
 44
594.0
 45
420.0
 46
0.0
 47
0.0
 48
0.0
 49
0.0
140
0.0
141
0.0
142
1.0
143
1.0
 70
1024
 72
0
 73
0
 74
0
  7

 75
0
147
1.0
148
0.0
149
0.0
100
AcDbLayout
  1
Model
 70
0
 71
0
 10
0.0
 20
0.0
 11
23.3858267717
 21
16.5354330709
 12
0.0
 22
0.0
 32
0.0
 14
0.0
 24
0.0
 34
0.0
 15
0.0
 25
0.0
 35
0.0
146
0.0
 13
0.0
 23
0.0
 33
0.0
 16
1.0
 26
0.0
 36
0.0
 17
0.0
 27
1.0
 37
0.0
 76
0
330
203
345
0
346
0
  0
LAYOUT
  5
29A
102
{ACAD_REACTORS
330
1A
102
}
100
AcDbPlotSettings
  1

  2
none_device
  4
ISO_A2_(594.00_x_420.00_MM)
  6

 40
0.0
 41
0.0
 42
0.0
 43
0.0
 44
594.0
 45
420.0
 46
0.0
 47
0.0
 48
0.0
 49
0.0
140
0.0
141
0.0
142
1.0
143
1.0
 70
0
 72
0
 73
0
 74
0
  7

 75
0
147
1.0
148
0.0
149
0.0
100
AcDbLayout
  1
Layout1
 70
0
 71
1
 10
0.0
 20
0.0
 11
23.3858267717
 21
16.5354330709
 12
0.0
 22
0.0
 32
0.0
 14
0.0
 24
0.0
 34
0.0
 15
0.0
 25
0.0
 35
0.0
146
0.0
 13
0.0
 23
0.0
 33
0.0
 16
1.0
 26
0.0
 36
0.0
 17
0.0
 27
1.0
 37
0.0
 76
0
330
204
345
0
346
0
  0
ENDSEC
  0
EOF
