  0
SECTION
  2
HEADER
  9
$ACADVER
  1
AC1015
  9
$DWGCODEPAGE
  3
ANSI_1252
  9
$EXTMAX
 10
33.1102362205
 20
23.3858267717
 30
0.0
  9
$EXTMIN
 10
0.0
 20
0.0
 30
0.0
  9
$LIMMIN
 10
0.0
 20
0.0
  9
$LIMMAX
 10
33.1102362205
 20
23.3858267717
  9
$VIEWCTR
 10
16.5551181102
 20
11.6929133858
  9
$VIEWSIZE
 40
23.3858267717
  9
$CLAYER
  8
0
  9
$LTSCALE
 40
1.8210629921
  9
$CELTYPE
  6
BYLAYER
  9
$DIMSCALE
 40
1.0
  9
$DIMASZ
 40
0.1875
  9
$DIMEXO
 40
0.2069389764
  9
$DIMDLI
 40
1.2581889764
  9
$DIMEXE
 40
0.595984252
  9
$DIMCEN
 40
0.297992126
  9
$DIMLFAC
 40
1.0
  9
$DIMBLK
  1
_CLOSED
  9
$DIMTXT
 40
0.15625
  9
$DIMTOL
 70
0
  9
$DIMLIM
 70
0
  9
$DIMTFAC
 40
1.0
  9
$PDMODE
 70
3
  9
$PDSIZE
 40
0.3125
  9
$HANDSEED
  5
398
  9
$TILEMODE
 70
1
  9
$MEASUREMENT
 70
0
  9
$INSUNITS
 70
1
  0
ENDSEC
  0
SECTION
  2
CLASSES
  0
CLASS
  1
ACDBDICTIONARYWDFLT
  2
AcDbDictionaryWithDefault
  3
AutoCAD 2000
 90
0
280
0
281
0
  0
CLASS
  1
ACDBPLACEHOLDER
  2
AcDbPlaceHolder
  3
AutoCAD 2000
 90
0
280
0
281
0
  0
CLASS
  1
LAYOUT
  2
AcDbLayout
  3
AutoCAD 2000
 90
0
280
0
281
0
  0
ENDSEC
  0
SECTION
  2
TABLES
  0
TABLE
  2
VPORT
  5
8
100
AcDbSymbolTable
 70
2
  0
VPORT
  5
1F4
100
AcDbSymbolTableRecord
100
AcDbViewportTableRecord
  2
*ACTIVE
 70
0
 10
0.0
 20
0.0
 11
1.0
 21
1.0
 12
16.5551181102
 22
11.6929133858
 13
0.0
 23
0.0
 14
1.0
 24
1.0
 15
0.0
 25
0.0
 16
0.0
 26
0.0
 36
1.0
 17
0.0
 27
0.0
 37
0.0
 40
23.3858267717
 41
1.4158249158
 42
50.0
 43
0.0
 44
0.0
 50
0.0
 51
0.0
 71
0
 72
100
 73
1
 74
1
 75
0
 76
0
 77
0
 78
0
  0
ENDTAB
  0
TABLE
  2
LTYPE
  5
5
100
AcDbSymbolTable
 70
6
  0
LTYPE
  5
14
100
AcDbSymbolTableRecord
100
AcDbLinetypeTableRecord
  2
BYBLOCK
 70
0
  3

 72
65
 73
0
 40
0.0
  0
LTYPE
  5
15
100
AcDbSymbolTableRecord
100
AcDbLinetypeTableRecord
  2
BYLAYER
 70
0
  3

 72
65
 73
0
 40
0.0
  0
LTYPE
  5
16
100
AcDbSymbolTableRecord
100
AcDbLinetypeTableRecord
  2
CONTINUOUS
 70
64
  3
Solid line
 72
65
 73
0
 40
0.0
  0
LTYPE
  5
1F5
100
AcDbSymbolTableRecord
100
AcDbLinetypeTableRecord
  2
CENTER
 70
64
  3
____ _ ____ _ ____ _ ____ _ ____ _ ____ _ ____
 72
65
 73
4
 40
0.6
 49
0.375
 74
0
 49
-0.075
 74
0
 49
0.075
 74
0
 49
-0.075
 74
0
  0
LTYPE
  5
1F6
100
AcDbSymbolTableRecord
100
AcDbLinetypeTableRecord
  2
HIDDEN
 70
64
  3
- - - - - - - - - - - - - - - - - - - -
 72
65
 73
2
 40
0.2
 49
0.1
 74
0
 49
-0.1
 74
0
  0
LTYPE
  5
1F7
100
AcDbSymbolTableRecord
100
AcDbLinetypeTableRecord
  2
PHANTOM
 70
64
  3
_____ _ _ _____ _ _ _____ _ _ _____
 72
65
 73
6
 40
0.8
 49
0.45
 74
0
 49
-0.05
 74
0
 49
0.1
 74
0
 49
-0.05
 74
0
 49
0.1
 74
0
 49
-0.05
 74
0
  0
LTYPE
  5
1F8
100
AcDbSymbolTableRecord
100
AcDbLinetypeTableRecord
  2
DOT
 70
64
  3
. . . . . . . . . . . . . . . . . . . .
 72
65
 73
2
 40
0.2
 49
0.1
 74
0
 49
-0.1
 74
0
  0
LTYPE
  5
1F9
100
AcDbSymbolTableRecord
100
AcDbLinetypeTableRecord
  2
DASHED
 70
64
  3
- - - - - - - - - - - - - - - - - - - -
 72
65
 73
2
 40
0.2
 49
0.1
 74
0
 49
-0.1
 74
0
  0
ENDTAB
  0
TABLE
  2
LAYER
  5
2
100
AcDbSymbolTable
 70
36
  0
LAYER
  5
10
100
AcDbSymbolTableRecord
100
AcDbLayerTableRecord
  2
0
 70
0
 62
7
  6
CONTINUOUS
370
-3
390
F
  0
LAYER
  5
1FA
100
AcDbSymbolTableRecord
100
AcDbLayerTableRecord
  2
DEFAULT_1
 70
0
 62
7
  6
CENTER
370
-3
390
F
  0
LAYER
  5
1FB
100
AcDbSymbolTableRecord
100
AcDbLayerTableRecord
  2
DEFAULT_2
 70
0
 62
8
  6
HIDDEN
370
-3
390
F
  0
LAYER
  5
1FC
100
AcDbSymbolTableRecord
100
AcDbLayerTableRecord
  2
DEFAULT_3
 70
0
 62
7
  6
PHANTOM
370
-3
390
F
  0
LAYER
  5
1FD
100
AcDbSymbolTableRecord
100
AcDbLayerTableRecord
  2
1-001
 70
0
 62
7
  6
CONTINUOUS
370
-3
390
F
  0
LAYER
  5
1FE
100
AcDbSymbolTableRecord
100
AcDbLayerTableRecord
  2
1-002
 70
0
 62
7
  6
CONTINUOUS
370
-3
390
F
  0
LAYER
  5
1FF
100
AcDbSymbolTableRecord
100
AcDbLayerTableRecord
  2
1-022
 70
0
 62
7
  6
CONTINUOUS
370
-3
390
F
  0
LAYER
  5
200
100
AcDbSymbolTableRecord
100
AcDbLayerTableRecord
  2
1-022_1
 70
0
 62
7
  6
CONTINUOUS
370
-3
390
F
  0
LAYER
  5
201
100
AcDbSymbolTableRecord
100
AcDbLayerTableRecord
  2
1-027
 70
0
 62
7
  6
CONTINUOUS
370
-3
390
F
  0
LAYER
  5
202
100
AcDbSymbolTableRecord
100
AcDbLayerTableRecord
  2
1-066
 70
0
 62
7
  6
CONTINUOUS
370
-3
390
F
  0
LAYER
  5
203
100
AcDbSymbolTableRecord
100
AcDbLayerTableRecord
  2
1-526
 70
0
 62
7
  6
CONTINUOUS
370
-3
390
F
  0
LAYER
  5
204
100
AcDbSymbolTableRecord
100
AcDbLayerTableRecord
  2
1-527
 70
0
 62
7
  6
CONTINUOUS
370
-3
390
F
  0
LAYER
  5
205
100
AcDbSymbolTableRecord
100
AcDbLayerTableRecord
  2
1-542
 70
0
 62
7
  6
CONTINUOUS
370
-3
390
F
  0
LAYER
  5
206
100
AcDbSymbolTableRecord
100
AcDbLayerTableRecord
  2
10021
 70
0
 62
7
  6
CONTINUOUS
370
-3
390
F
  0
LAYER
  5
207
100
AcDbSymbolTableRecord
100
AcDbLayerTableRecord
  2
10048
 70
0
 62
7
  6
CONTINUOUS
370
-3
390
F
  0
LAYER
  5
208
100
AcDbSymbolTableRecord
100
AcDbLayerTableRecord
  2
10048_1
 70
0
 62
7
  6
CONTINUOUS
370
-3
390
F
  0
LAYER
  5
209
100
AcDbSymbolTableRecord
100
AcDbLayerTableRecord
  2
10078
 70
0
 62
7
  6
CONTINUOUS
370
-3
390
F
  0
LAYER
  5
20A
100
AcDbSymbolTableRecord
100
AcDbLayerTableRecord
  2
10095
 70
0
 62
7
  6
CONTINUOUS
370
-3
390
F
  0
LAYER
  5
20B
100
AcDbSymbolTableRecord
100
AcDbLayerTableRecord
  2
10095_1
 70
0
 62
7
  6
CONTINUOUS
370
-3
390
F
  0
LAYER
  5
20C
100
AcDbSymbolTableRecord
100
AcDbLayerTableRecord
  2
10096
 70
0
 62
7
  6
CONTINUOUS
370
-3
390
F
  0
LAYER
  5
20D
100
AcDbSymbolTableRecord
100
AcDbLayerTableRecord
  2
10096_1
 70
0
 62
7
  6
CONTINUOUS
370
-3
390
F
  0
LAYER
  5
20E
100
AcDbSymbolTableRecord
100
AcDbLayerTableRecord
  2
10097
 70
0
 62
7
  6
CONTINUOUS
370
-3
390
F
  0
LAYER
  5
20F
100
AcDbSymbolTableRecord
100
AcDbLayerTableRecord
  2
10097_1
 70
0
 62
7
  6
CONTINUOUS
370
-3
390
F
  0
LAYER
  5
210
100
AcDbSymbolTableRecord
100
AcDbLayerTableRecord
  2
10098
 70
0
 62
7
  6
CONTINUOUS
370
-3
390
F
  0
LAYER
  5
211
100
AcDbSymbolTableRecord
100
AcDbLayerTableRecord
  2
10098_1
 70
0
 62
7
  6
CONTINUOUS
370
-3
390
F
  0
LAYER
  5
212
100
AcDbSymbolTableRecord
100
AcDbLayerTableRecord
  2
10156
 70
0
 62
7
  6
CONTINUOUS
370
-3
390
F
  0
LAYER
  5
213
100
AcDbSymbolTableRecord
100
AcDbLayerTableRecord
  2
10156_1
 70
0
 62
7
  6
CONTINUOUS
370
-3
390
F
  0
LAYER
  5
214
100
AcDbSymbolTableRecord
100
AcDbLayerTableRecord
  2
10288
 70
0
 62
7
  6
CONTINUOUS
370
-3
390
F
  0
LAYER
  5
215
100
AcDbSymbolTableRecord
100
AcDbLayerTableRecord
  2
10600
 70
0
 62
7
  6
CONTINUOUS
370
-3
390
F
  0
LAYER
  5
216
100
AcDbSymbolTableRecord
100
AcDbLayerTableRecord
  2
10601
 70
0
 62
7
  6
CONTINUOUS
370
-3
390
F
  0
LAYER
  5
217
100
AcDbSymbolTableRecord
100
AcDbLayerTableRecord
  2
10602
 70
0
 62
7
  6
CONTINUOUS
370
-3
390
F
  0
LAYER
  5
218
100
AcDbSymbolTableRecord
100
AcDbLayerTableRecord
  2
10603
 70
0
 62
7
  6
CONTINUOUS
370
-3
390
F
  0
LAYER
  5
219
100
AcDbSymbolTableRecord
100
AcDbLayerTableRecord
  2
10604
 70
0
 62
7
  6
CONTINUOUS
370
-3
390
F
  0
LAYER
  5
21A
100
AcDbSymbolTableRecord
100
AcDbLayerTableRecord
  2
10605
 70
0
 62
7
  6
CONTINUOUS
370
-3
390
F
  0
LAYER
  5
21B
100
AcDbSymbolTableRecord
100
AcDbLayerTableRecord
  2
11483
 70
0
 62
7
  6
CONTINUOUS
370
-3
390
F
  0
LAYER
  5
21C
100
AcDbSymbolTableRecord
100
AcDbLayerTableRecord
  2
11483_1
 70
0
 62
7
  6
CONTINUOUS
370
-3
390
F
  0
LAYER
  5
21D
100
AcDbSymbolTableRecord
100
AcDbLayerTableRecord
  2
11483_1_1
 70
0
 62
7
  6
CONTINUOUS
370
-3
390
F
  0
LAYER
  5
21E
100
AcDbSymbolTableRecord
100
AcDbLayerTableRecord
  2
2-103C
 70
0
 62
7
  6
CONTINUOUS
370
-3
390
F
  0
LAYER
  5
21F
100
AcDbSymbolTableRecord
100
AcDbLayerTableRecord
  2
2-103H
 70
0
 62
7
  6
CONTINUOUS
370
-3
390
F
  0
LAYER
  5
220
100
AcDbSymbolTableRecord
100
AcDbLayerTableRecord
  2
2-125
 70
0
 62
7
  6
CONTINUOUS
370
-3
390
F
  0
LAYER
  5
221
100
AcDbSymbolTableRecord
100
AcDbLayerTableRecord
  2
2-159
 70
0
 62
7
  6
CONTINUOUS
370
-3
390
F
  0
LAYER
  5
222
100
AcDbSymbolTableRecord
100
AcDbLayerTableRecord
  2
2-235
 70
0
 62
7
  6
CONTINUOUS
370
-3
390
F
  0
LAYER
  5
223
100
AcDbSymbolTableRecord
100
AcDbLayerTableRecord
  2
2-236
 70
0
 62
7
  6
CONTINUOUS
370
-3
390
F
  0
LAYER
  5
224
100
AcDbSymbolTableRecord
100
AcDbLayerTableRecord
  2
91014
 70
0
 62
7
  6
CONTINUOUS
370
-3
390
F
  0
LAYER
  5
225
100
AcDbSymbolTableRecord
100
AcDbLayerTableRecord
  2
91019
 70
0
 62
7
  6
CONTINUOUS
370
-3
390
F
  0
LAYER
  5
226
100
AcDbSymbolTableRecord
100
AcDbLayerTableRecord
  2
91019_1
 70
0
 62
7
  6
CONTINUOUS
370
-3
390
F
  0
LAYER
  5
227
100
AcDbSymbolTableRecord
100
AcDbLayerTableRecord
  2
91019_2
 70
0
 62
7
  6
CONTINUOUS
370
-3
390
F
  0
LAYER
  5
228
100
AcDbSymbolTableRecord
100
AcDbLayerTableRecord
  2
91019_3
 70
0
 62
7
  6
CONTINUOUS
370
-3
390
F
  0
LAYER
  5
229
100
AcDbSymbolTableRecord
100
AcDbLayerTableRecord
  2
91093
 70
0
 62
7
  6
CONTINUOUS
370
-3
390
F
  0
LAYER
  5
22A
100
AcDbSymbolTableRecord
100
AcDbLayerTableRecord
  2
92000
 70
0
 62
7
  6
CONTINUOUS
370
-3
390
F
  0
LAYER
  5
22B
100
AcDbSymbolTableRecord
100
AcDbLayerTableRecord
  2
92000_1
 70
0
 62
7
  6
CONTINUOUS
370
-3
390
F
  0
LAYER
  5
22C
100
AcDbSymbolTableRecord
100
AcDbLayerTableRecord
  2
92000_2
 70
0
 62
7
  6
CONTINUOUS
370
-3
390
F
  0
LAYER
  5
22D
100
AcDbSymbolTableRecord
100
AcDbLayerTableRecord
  2
92000_3
 70
0
 62
7
  6
CONTINUOUS
370
-3
390
F
  0
LAYER
  5
22E
100
AcDbSymbolTableRecord
100
AcDbLayerTableRecord
  2
92012
 70
0
 62
7
  6
CONTINUOUS
370
-3
390
F
  0
LAYER
  5
22F
100
AcDbSymbolTableRecord
100
AcDbLayerTableRecord
  2
92012_1
 70
0
 62
7
  6
CONTINUOUS
370
-3
390
F
  0
LAYER
  5
230
100
AcDbSymbolTableRecord
100
AcDbLayerTableRecord
  2
92029
 70
0
 62
7
  6
CONTINUOUS
370
-3
390
F
  0
LAYER
  5
231
100
AcDbSymbolTableRecord
100
AcDbLayerTableRecord
  2
ALL_ASSEMBLY_MEMBERS
 70
0
 62
7
  6
CONTINUOUS
370
-3
390
F
  0
LAYER
  5
232
100
AcDbSymbolTableRecord
100
AcDbLayerTableRecord
  2
ALL_ASSEMBLY_MEMBERS_10
 70
0
 62
7
  6
CONTINUOUS
370
-3
390
F
  0
LAYER
  5
233
100
AcDbSymbolTableRecord
100
AcDbLayerTableRecord
  2
ALL_ASSEMBLY_MEMBERS_11
 70
0
 62
7
  6
CONTINUOUS
370
-3
390
F
  0
LAYER
  5
234
100
AcDbSymbolTableRecord
100
AcDbLayerTableRecord
  2
ALL_ASSEMBLY_MEMBERS_12
 70
0
 62
7
  6
CONTINUOUS
370
-3
390
F
  0
LAYER
  5
235
100
AcDbSymbolTableRecord
100
AcDbLayerTableRecord
  2
ALL_ASSEMBLY_MEMBERS_13
 70
0
 62
7
  6
CONTINUOUS
370
-3
390
F
  0
LAYER
  5
236
100
AcDbSymbolTableRecord
100
AcDbLayerTableRecord
  2
ALL_ASSEMBLY_MEMBERS_14
 70
0
 62
7
  6
CONTINUOUS
370
-3
390
F
  0
LAYER
  5
237
100
AcDbSymbolTableRecord
100
AcDbLayerTableRecord
  2
ALL_ASSEMBLY_MEMBERS_15
 70
0
 62
7
  6
CONTINUOUS
370
-3
390
F
  0
LAYER
  5
238
100
AcDbSymbolTableRecord
100
AcDbLayerTableRecord
  2
ALL_ASSEMBLY_MEMBERS_2
 70
0
 62
7
  6
CONTINUOUS
370
-3
390
F
  0
LAYER
  5
239
100
AcDbSymbolTableRecord
100
AcDbLayerTableRecord
  2
ALL_ASSEMBLY_MEMBERS_6
 70
0
 62
7
  6
CONTINUOUS
370
-3
390
F
  0
LAYER
  5
23A
100
AcDbSymbolTableRecord
100
AcDbLayerTableRecord
  2
ALL_ASSEMBLY_MEMBERS_8
 70
0
 62
7
  6
CONTINUOUS
370
-3
390
F
  0
LAYER
  5
23B
100
AcDbSymbolTableRecord
100
AcDbLayerTableRecord
  2
ALL_ASSEMBLY_MEMBERS_9
 70
0
 62
7
  6
CONTINUOUS
370
-3
390
F
  0
LAYER
  5
23C
100
AcDbSymbolTableRecord
100
AcDbLayerTableRecord
  2
ALL_FEATURES_7
 70
0
 62
7
  6
CONTINUOUS
370
-3
390
F
  0
LAYER
  5
23D
100
AcDbSymbolTableRecord
100
AcDbLayerTableRecord
  2
COLOR14
 70
0
 62
7
  6
CONTINUOUS
370
-3
390
F
  0
LAYER
  5
23E
100
AcDbSymbolTableRecord
100
AcDbLayerTableRecord
  2
COLOR15
 70
0
 62
7
  6
CONTINUOUS
370
-3
390
F
  0
LAYER
  5
23F
100
AcDbSymbolTableRecord
100
AcDbLayerTableRecord
  2
COLOR17
 70
0
 62
7
  6
CONTINUOUS
370
-3
390
F
  0
LAYER
  5
240
100
AcDbSymbolTableRecord
100
AcDbLayerTableRecord
  2
COLOR18
 70
0
 62
7
  6
CONTINUOUS
370
-3
390
F
  0
LAYER
  5
241
100
AcDbSymbolTableRecord
100
AcDbLayerTableRecord
  2
COLOR19
 70
0
 62
7
  6
CONTINUOUS
370
-3
390
F
  0
LAYER
  5
242
100
AcDbSymbolTableRecord
100
AcDbLayerTableRecord
  2
COLOR20
 70
0
 62
7
  6
CONTINUOUS
370
-3
390
F
  0
LAYER
  5
243
100
AcDbSymbolTableRecord
100
AcDbLayerTableRecord
  2
COLOR21
 70
0
 62
7
  6
CONTINUOUS
370
-3
390
F
  0
LAYER
  5
244
100
AcDbSymbolTableRecord
100
AcDbLayerTableRecord
  2
COLOR22
 70
0
 62
7
  6
CONTINUOUS
370
-3
390
F
  0
LAYER
  5
245
100
AcDbSymbolTableRecord
100
AcDbLayerTableRecord
  2
COLOR26
 70
0
 62
7
  6
CONTINUOUS
370
-3
390
F
  0
LAYER
  5
246
100
AcDbSymbolTableRecord
100
AcDbLayerTableRecord
  2
COLOR27
 70
0
 62
7
  6
CONTINUOUS
370
-3
390
F
  0
LAYER
  5
247
100
AcDbSymbolTableRecord
100
AcDbLayerTableRecord
  2
COLOR28
 70
0
 62
7
  6
CONTINUOUS
370
-3
390
F
  0
LAYER
  5
248
100
AcDbSymbolTableRecord
100
AcDbLayerTableRecord
  2
COLOR3
 70
0
 62
7
  6
CONTINUOUS
370
-3
390
F
  0
LAYER
  5
249
100
AcDbSymbolTableRecord
100
AcDbLayerTableRecord
  2
COLOR30
 70
0
 62
7
  6
CONTINUOUS
370
-3
390
F
  0
LAYER
  5
24A
100
AcDbSymbolTableRecord
100
AcDbLayerTableRecord
  2
COLOR31
 70
0
 62
7
  6
CONTINUOUS
370
-3
390
F
  0
LAYER
  5
24B
100
AcDbSymbolTableRecord
100
AcDbLayerTableRecord
  2
COLOR32
 70
0
 62
7
  6
CONTINUOUS
370
-3
390
F
  0
LAYER
  5
24C
100
AcDbSymbolTableRecord
100
AcDbLayerTableRecord
  2
COLOR5
 70
0
 62
7
  6
CONTINUOUS
370
-3
390
F
  0
LAYER
  5
24D
100
AcDbSymbolTableRecord
100
AcDbLayerTableRecord
  2
COLOR6
 70
0
 62
7
  6
CONTINUOUS
370
-3
390
F
  0
LAYER
  5
24E
100
AcDbSymbolTableRecord
100
AcDbLayerTableRecord
  2
DEFAULT_COORDINATE_SYSTEM
 70
0
 62
7
  6
CONTINUOUS
370
-3
390
F
  0
LAYER
  5
24F
100
AcDbSymbolTableRecord
100
AcDbLayerTableRecord
  2
DEFAULT_DATUM_AXES
 70
0
 62
7
  6
CONTINUOUS
370
-3
390
F
  0
LAYER
  5
250
100
AcDbSymbolTableRecord
100
AcDbLayerTableRecord
  2
DEFAULT_DATUM_CURVES
 70
0
 62
7
  6
CONTINUOUS
370
-3
390
F
  0
LAYER
  5
251
100
AcDbSymbolTableRecord
100
AcDbLayerTableRecord
  2
DEFAULT_DATUM_PLANES
 70
0
 62
7
  6
CONTINUOUS
370
-3
390
F
  0
LAYER
  5
252
100
AcDbSymbolTableRecord
100
AcDbLayerTableRecord
  2
INTF_10021
 70
0
 62
7
  6
CONTINUOUS
370
-3
390
F
  0
LAYER
  5
253
100
AcDbSymbolTableRecord
100
AcDbLayerTableRecord
  2
INTF_10048
 70
0
 62
7
  6
CONTINUOUS
370
-3
390
F
  0
LAYER
  5
254
100
AcDbSymbolTableRecord
100
AcDbLayerTableRecord
  2
INTF_10078
 70
0
 62
7
  6
CONTINUOUS
370
-3
390
F
  0
LAYER
  5
255
100
AcDbSymbolTableRecord
100
AcDbLayerTableRecord
  2
INTF_10095
 70
0
 62
7
  6
CONTINUOUS
370
-3
390
F
  0
LAYER
  5
256
100
AcDbSymbolTableRecord
100
AcDbLayerTableRecord
  2
INTF_10096
 70
0
 62
7
  6
CONTINUOUS
370
-3
390
F
  0
LAYER
  5
257
100
AcDbSymbolTableRecord
100
AcDbLayerTableRecord
  2
INTF_10097
 70
0
 62
7
  6
CONTINUOUS
370
-3
390
F
  0
LAYER
  5
258
100
AcDbSymbolTableRecord
100
AcDbLayerTableRecord
  2
INTF_10098
 70
0
 62
7
  6
CONTINUOUS
370
-3
390
F
  0
LAYER
  5
259
100
AcDbSymbolTableRecord
100
AcDbLayerTableRecord
  2
INTF_10156
 70
0
 62
7
  6
CONTINUOUS
370
-3
390
F
  0
LAYER
  5
25A
100
AcDbSymbolTableRecord
100
AcDbLayerTableRecord
  2
INTF_10288
 70
0
 62
7
  6
CONTINUOUS
370
-3
390
F
  0
LAYER
  5
25B
100
AcDbSymbolTableRecord
100
AcDbLayerTableRecord
  2
INTF_10600
 70
0
 62
7
  6
CONTINUOUS
370
-3
390
F
  0
LAYER
  5
25C
100
AcDbSymbolTableRecord
100
AcDbLayerTableRecord
  2
INTF_10601
 70
0
 62
7
  6
CONTINUOUS
370
-3
390
F
  0
LAYER
  5
25D
100
AcDbSymbolTableRecord
100
AcDbLayerTableRecord
  2
INTF_10602
 70
0
 62
7
  6
CONTINUOUS
370
-3
390
F
  0
LAYER
  5
25E
100
AcDbSymbolTableRecord
100
AcDbLayerTableRecord
  2
INTF_10603
 70
0
 62
7
  6
CONTINUOUS
370
-3
390
F
  0
LAYER
  5
25F
100
AcDbSymbolTableRecord
100
AcDbLayerTableRecord
  2
INTF_10604
 70
0
 62
7
  6
CONTINUOUS
370
-3
390
F
  0
LAYER
  5
260
100
AcDbSymbolTableRecord
100
AcDbLayerTableRecord
  2
INTF_10605
 70
0
 62
7
  6
CONTINUOUS
370
-3
390
F
  0
LAYER
  5
261
100
AcDbSymbolTableRecord
100
AcDbLayerTableRecord
  2
INTF_11483
 70
0
 62
7
  6
CONTINUOUS
370
-3
390
F
  0
LAYER
  5
262
100
AcDbSymbolTableRecord
100
AcDbLayerTableRecord
  2
INTF_91014
 70
0
 62
7
  6
CONTINUOUS
370
-3
390
F
  0
LAYER
  5
263
100
AcDbSymbolTableRecord
100
AcDbLayerTableRecord
  2
INTF_91019
 70
0
 62
7
  6
CONTINUOUS
370
-3
390
F
  0
LAYER
  5
264
100
AcDbSymbolTableRecord
100
AcDbLayerTableRecord
  2
INTF_91093
 70
0
 62
7
  6
CONTINUOUS
370
-3
390
F
  0
LAYER
  5
265
100
AcDbSymbolTableRecord
100
AcDbLayerTableRecord
  2
INTF_92000
 70
0
 62
7
  6
CONTINUOUS
370
-3
390
F
  0
LAYER
  5
266
100
AcDbSymbolTableRecord
100
AcDbLayerTableRecord
  2
INTF_92012
 70
0
 62
7
  6
CONTINUOUS
370
-3
390
F
  0
LAYER
  5
267
100
AcDbSymbolTableRecord
100
AcDbLayerTableRecord
  2
INTF_92029
 70
0
 62
7
  6
CONTINUOUS
370
-3
390
F
  0
LAYER
  5
268
100
AcDbSymbolTableRecord
100
AcDbLayerTableRecord
  2
INTF_YELLOW
 70
0
 62
7
  6
CONTINUOUS
370
-3
390
F
  0
ENDTAB
  0
TABLE
  2
STYLE
  5
3
100
AcDbSymbolTable
 70
1
  0
STYLE
  5
11
100
AcDbSymbolTableRecord
100
AcDbTextStyleTableRecord
  2
STANDARD
 70
0
 40
0.0
 41
0.8
 50
0.0
 71
0
 42
0.2
  3
txt
  4

  0
STYLE
  5
269
100
AcDbSymbolTableRecord
100
AcDbTextStyleTableRecord
  2
TEXTSTYLE_1
 70
0
 40
0.0
 41
0.8
 50
0.0
 71
0
 42
0.2
  3
gdt
  4

  0
ENDTAB
  0
TABLE
  2
VIEW
  5
6
100
AcDbSymbolTable
 70
0
  0
ENDTAB
  0
TABLE
  2
UCS
  5
7
100
AcDbSymbolTable
 70
0
  0
ENDTAB
  0
TABLE
  2
APPID
  5
9
100
AcDbSymbolTable
 70
1
  0
APPID
  5
26A
100
AcDbSymbolTableRecord
100
AcDbRegAppTableRecord
  2
ACAD
 70
0
  0
ENDTAB
  0
TABLE
  2
BLOCK_RECORD
  5
1
100
AcDbSymbolTable
 70
0
  0
BLOCK_RECORD
  5
26B
100
AcDbSymbolTableRecord
100
AcDbBlockTableRecord
  2
*Model_Space
  0
BLOCK_RECORD
  5
26C
100
AcDbSymbolTableRecord
100
AcDbBlockTableRecord
  2
*Paper_Space
  0
ENDTAB
  0
TABLE
  2
DIMSTYLE
  5
A
100
AcDbSymbolTable
 70
1
100
AcDbDimStyleTable
 71
0
  0
DIMSTYLE
105
26D
100
AcDbSymbolTableRecord
100
AcDbDimStyleTableRecord
  2
STANDARD
 70
0
  3

  4

 40
1.0
 41
0.1875
 42
0.0625
 43
0.38
 44
0.18
 45
0.0
 46
0.0
 47
0.01
 48
0.01
140
0.15625
141
0.09
142
0.0
143
25.4
144
1.0
145
0.0
146
1.0
147
0.09
 71
0.0
 72
0.0
 73
1
 74
1
 75
0
 76
0
 77
0
 78
4
170
0
171
2
172
0
173
0
174
0
175
0
176
0
177
0
178
0
270
2
271
2
272
2
273
2
274
2
275
0
280
0
281
0
282
0
283
1
284
4
285
0
286
0
287
3
288
0
340
11
  0
ENDTAB
  0
ENDSEC
  0
SECTION
  2
BLOCKS
  0
BLOCK
  5
20
100
AcDbEntity
  8
0
100
AcDbBlockBegin
  2
*Model_Space
 70
0
 10
0.0
 20
0.0
 30
0.0
  3
*Model_Space
  1

  0
ENDBLK
  5
21
100
AcDbEntity
  8
0
100
AcDbBlockEnd
  0
BLOCK
  5
1C
100
AcDbEntity
  8
0
100
AcDbBlockBegin
  2
*Paper_Space
 70
0
 10
0.0
 20
0.0
 30
0.0
  3
*Paper_Space
  1

  0
ENDBLK
  5
1D
100
AcDbEntity
  8
0
100
AcDbBlockEnd
  0
ENDSEC
  0
SECTION
  2
ENTITIES
  0
LINE
  5
26E
100
AcDbEntity
  8
0
100
AcDbLine
 62
7
  6
CONTINUOUS
 10
9.0504226853
 20
11.6025604599
 11
9.0504226853
 21
10.9865604599
  0
LINE
  5
26F
100
AcDbEntity
  8
0
100
AcDbLine
 62
7
  6
CONTINUOUS
 10
9.0704226853
 20
11.6225604599
 11
9.0704226853
 21
10.9665604599
  0
LINE
  5
270
100
AcDbEntity
  8
0
100
AcDbLine
 62
7
  6
CONTINUOUS
 10
9.0704226853
 20
11.6225604599
 11
9.0504226853
 21
11.6025604599
  0
LINE
  5
271
100
AcDbEntity
  8
0
100
AcDbLine
 62
7
  6
CONTINUOUS
 10
9.0704226853
 20
10.9665604599
 11
9.0504226853
 21
10.9865604599
  0
LINE
  5
272
100
AcDbEntity
  8
0
100
AcDbLine
 62
7
  6
CONTINUOUS
 10
11.2519226853
 20
8.9403104599
 11
11.2519226853
 21
8.8533097843
  0
LINE
  5
273
100
AcDbEntity
  8
0
100
AcDbLine
 62
7
  6
CONTINUOUS
 10
11.6584226853
 20
10.9262622526
 11
11.6584226853
 21
11.6628586673
  0
LINE
  5
274
100
AcDbEntity
  8
0
100
AcDbLine
 62
7
  6
CONTINUOUS
 10
11.7519226853
 20
10.2845604599
 11
11.7519226853
 21
10.8904452936
  0
LINE
  5
275
100
AcDbEntity
  8
0
100
AcDbLine
 62
7
  6
CONTINUOUS
 10
11.8208226853
 20
10.9955590157
 11
11.8208226853
 21
11.6629161225
  0
LINE
  5
276
100
AcDbEntity
  8
0
100
AcDbLine
 62
7
  6
CONTINUOUS
 10
11.8529226853
 20
10.2763104599
 11
11.8529226853
 21
10.2845604599
  0
LINE
  5
277
100
AcDbEntity
  8
0
100
AcDbLine
 62
6
  6
CONTINUOUS
 10
11.8806735584
 20
10.2533104599
 11
11.8806735584
 21
10.2845604599
  0
LINE
  5
278
100
AcDbEntity
  8
0
100
AcDbLine
 62
6
  6
CONTINUOUS
 10
11.8864417641
 20
10.2801591027
 11
11.8864417641
 21
10.2533104599
  0
LINE
  5
279
100
AcDbEntity
  8
0
100
AcDbLine
 62
6
  6
CONTINUOUS
 10
11.9028794916
 20
10.2533104599
 11
11.9028794916
 21
10.2801591027
  0
LINE
  5
27A
100
AcDbEntity
  8
0
100
AcDbLine
 62
6
  6
CONTINUOUS
 10
11.9193059516
 20
10.2845604599
 11
11.9193059516
 21
10.2533104599
  0
LINE
  5
27B
100
AcDbEntity
  8
0
100
AcDbLine
 62
6
  6
CONTINUOUS
 10
11.9422070109
 20
10.2533104599
 11
11.9422070109
 21
10.2845604599
  0
LINE
  5
27C
100
AcDbEntity
  8
0
100
AcDbLine
 62
6
  6
CONTINUOUS
 10
11.9496789116
 20
10.2533104599
 11
11.9496789116
 21
10.2845604599
  0
LINE
  5
27D
100
AcDbEntity
  8
0
100
AcDbLine
 62
6
  6
CONTINUOUS
 10
11.9742628464
 20
10.2845604599
 11
11.9742628464
 21
10.2533104599
  0
LINE
  5
27E
100
AcDbEntity
  8
0
100
AcDbLine
 62
6
  6
CONTINUOUS
 10
11.9930723982
 20
10.2533104599
 11
11.9930723982
 21
10.2845604599
  0
LINE
  5
27F
100
AcDbEntity
  8
0
100
AcDbLine
 62
6
  6
CONTINUOUS
 10
12.0108523958
 20
10.2845604599
 11
12.0108523958
 21
10.2533104599
  0
LINE
  5
280
100
AcDbEntity
  8
0
100
AcDbLine
 62
6
  6
CONTINUOUS
 10
12.013947031
 20
10.2533104599
 11
12.013947031
 21
10.2845604599
  0
LINE
  5
281
100
AcDbEntity
  8
0
100
AcDbLine
 62
6
  6
CONTINUOUS
 10
12.0429457594
 20
10.2845604599
 11
12.0429457594
 21
10.2533104599
  0
LINE
  5
282
100
AcDbEntity
  8
0
100
AcDbLine
 62
6
  6
CONTINUOUS
 10
12.0548002199
 20
10.2533104599
 11
12.0548002199
 21
10.2845604599
  0
LINE
  5
283
100
AcDbEntity
  8
0
100
AcDbLine
 62
6
  6
CONTINUOUS
 10
12.0740451507
 20
10.2845604599
 11
12.0740451507
 21
10.2533104599
  0
LINE
  5
284
100
AcDbEntity
  8
0
100
AcDbLine
 62
6
  6
CONTINUOUS
 10
12.0858996113
 20
10.2533104599
 11
12.0858996113
 21
10.2845604599
  0
LINE
  5
285
100
AcDbEntity
  8
0
100
AcDbLine
 62
6
  6
CONTINUOUS
 10
12.1148983396
 20
10.2845604599
 11
12.1148983396
 21
10.2533104599
  0
LINE
  5
286
100
AcDbEntity
  8
0
100
AcDbLine
 62
6
  6
CONTINUOUS
 10
12.1179929748
 20
10.2533104599
 11
12.1179929748
 21
10.2845604599
  0
LINE
  5
287
100
AcDbEntity
  8
0
100
AcDbLine
 62
7
  6
CONTINUOUS
 10
11.9832239957
 20
11.1031173234
 11
11.9832229185
 21
11.6629165352
  0
LINE
  5
288
100
AcDbEntity
  8
0
100
AcDbLine
 62
6
  6
CONTINUOUS
 10
12.1357729724
 20
10.2845604599
 11
12.1357729724
 21
10.2533104599
  0
LINE
  5
289
100
AcDbEntity
  8
0
100
AcDbLine
 62
7
  6
CONTINUOUS
 10
12.1456224521
 20
11.6629165352
 11
12.1456213749
 21
11.1031173234
  0
LINE
  5
28A
100
AcDbEntity
  8
0
100
AcDbLine
 62
6
  6
CONTINUOUS
 10
12.1545825242
 20
10.2533104599
 11
12.1545825242
 21
10.2845604599
  0
LINE
  5
28B
100
AcDbEntity
  8
0
100
AcDbLine
 62
6
  6
CONTINUOUS
 10
12.179166459
 20
10.2845604599
 11
12.179166459
 21
10.2533104599
  0
LINE
  5
28C
100
AcDbEntity
  8
0
100
AcDbLine
 62
6
  6
CONTINUOUS
 10
12.1866383597
 20
10.2845604599
 11
12.1866383597
 21
10.2533104599
  0
LINE
  5
28D
100
AcDbEntity
  8
0
100
AcDbLine
 62
6
  6
CONTINUOUS
 10
12.209539419
 20
10.2533104599
 11
12.209539419
 21
10.2845604599
  0
LINE
  5
28E
100
AcDbEntity
  8
0
100
AcDbLine
 62
6
  6
CONTINUOUS
 10
12.2259658791
 20
10.2845604599
 11
12.2259658791
 21
10.2533104599
  0
LINE
  5
28F
100
AcDbEntity
  8
0
100
AcDbLine
 62
6
  6
CONTINUOUS
 10
12.2424036065
 20
10.2551351002
 11
12.2424036065
 21
10.2845604599
  0
LINE
  5
290
100
AcDbEntity
  8
0
100
AcDbLine
 62
6
  6
CONTINUOUS
 10
12.2481718123
 20
10.2845604599
 11
12.2481718123
 21
10.2533104599
  0
LINE
  5
291
100
AcDbEntity
  8
0
100
AcDbLine
 62
7
  6
CONTINUOUS
 10
12.2759226853
 20
10.2763104599
 11
12.2759226853
 21
10.2845604599
  0
LINE
  5
292
100
AcDbEntity
  8
0
100
AcDbLine
 62
7
  6
CONTINUOUS
 10
12.3769226853
 20
10.2845604599
 11
12.3769226853
 21
10.8904696157
  0
LINE
  5
293
100
AcDbEntity
  8
0
100
AcDbLine
 62
7
  6
CONTINUOUS
 10
12.4704226853
 20
10.9262622526
 11
12.4704226853
 21
11.6628586673
  0
LINE
  5
294
100
AcDbEntity
  8
0
100
AcDbLine
 62
7
  6
CONTINUOUS
 10
12.3080225918
 20
11.6629159411
 11
12.3080226853
 21
10.9955590157
  0
LINE
  5
295
100
AcDbEntity
  8
0
100
AcDbLine
 62
7
  6
CONTINUOUS
 10
12.8769226853
 20
8.9403104599
 11
12.8769226853
 21
8.8533097843
  0
LINE
  5
296
100
AcDbEntity
  8
0
100
AcDbLine
 62
7
  6
CONTINUOUS
 10
12.9304226853
 20
10.9665604599
 11
12.9304226853
 21
11.6225604599
  0
LINE
  5
297
100
AcDbEntity
  8
0
100
AcDbLine
 62
7
  6
CONTINUOUS
 10
12.9504226853
 20
11.6025604599
 11
12.9504226853
 21
10.9865604599
  0
LINE
  5
298
100
AcDbEntity
  8
0
100
AcDbLine
 62
7
  6
CONTINUOUS
 10
12.4539226853
 20
10.2533104599
 11
12.4739226853
 21
10.2333104599
  0
LINE
  5
299
100
AcDbEntity
  8
0
100
AcDbLine
 62
7
  6
CONTINUOUS
 10
11.6749226853
 20
10.2533104599
 11
11.6549226853
 21
10.2333104599
  0
LINE
  5
29A
100
AcDbEntity
  8
0
100
AcDbLine
 62
7
  6
CONTINUOUS
 10
10.8844226853
 20
8.4783104599
 11
13.2444226853
 21
8.4783104599
  0
LINE
  5
29B
100
AcDbEntity
  8
0
100
AcDbLine
 62
7
  6
CONTINUOUS
 10
15.0519226853
 20
8.4783104599
 11
15.278132519
 21
8.4783104599
  0
LINE
  5
29C
100
AcDbEntity
  8
0
100
AcDbLine
 62
6
  6
CONTINUOUS
 10
15.278132519
 20
8.4783104599
 11
16.8507128517
 21
8.4783104599
  0
LINE
  5
29D
100
AcDbEntity
  8
0
100
AcDbLine
 62
7
  6
CONTINUOUS
 10
16.8507128517
 20
8.4783104599
 11
17.0769226853
 21
8.4783104599
  0
LINE
  5
29E
100
AcDbEntity
  8
0
100
AcDbLine
 62
7
  6
CONTINUOUS
 10
18.8844226853
 20
8.4783104599
 11
21.2444226853
 21
8.4783104599
  0
LINE
  5
29F
100
AcDbEntity
  8
0
100
AcDbLine
 62
7
  6
CONTINUOUS
 10
21.0644226853
 20
8.6653104599
 11
19.0644226853
 21
8.6653104599
  0
LINE
  5
2A0
100
AcDbEntity
  8
0
100
AcDbLine
 62
7
  6
CONTINUOUS
 10
13.0644226853
 20
8.6653104599
 11
11.0644226853
 21
8.6653104599
  0
LINE
  5
2A1
100
AcDbEntity
  8
0
100
AcDbLine
 62
7
  6
CONTINUOUS
 10
12.9504226853
 20
10.9865604599
 11
12.9304226853
 21
10.9665604599
  0
LINE
  5
2A2
100
AcDbEntity
  8
0
100
AcDbLine
 62
9
  6
CONTINUOUS
 10
17.0769226853
 20
8.7272779276
 11
16.766869201
 21
8.7272779276
  0
LINE
  5
2A3
100
AcDbEntity
  8
0
100
AcDbLine
 62
9
  6
CONTINUOUS
 10
15.3716549958
 20
8.7272779276
 11
15.0519226853
 21
8.7272779276
  0
LINE
  5
2A4
100
AcDbEntity
  8
0
100
AcDbLine
 62
7
  6
CONTINUOUS
 10
17.0394226853
 20
8.7983104599
 11
16.7156075942
 21
8.7983104599
  0
LINE
  5
2A5
100
AcDbEntity
  8
0
100
AcDbLine
 62
7
  6
CONTINUOUS
 10
15.4132782946
 20
8.7983104599
 11
15.0894226853
 21
8.7983104599
  0
LINE
  5
2A6
100
AcDbEntity
  8
0
100
AcDbLine
 62
7
  6
CONTINUOUS
 10
20.8774253591
 20
8.8533104599
 11
19.2519226853
 21
8.8533104599
  0
LINE
  5
2A7
100
AcDbEntity
  8
0
100
AcDbLine
 62
7
  6
CONTINUOUS
 10
12.8774253591
 20
8.8533104599
 11
11.2519226853
 21
8.8533104599
  0
LINE
  5
2A8
100
AcDbEntity
  8
0
100
AcDbLine
 62
7
  6
CONTINUOUS
 10
11.2519226853
 20
8.9403104599
 11
12.8769226853
 21
8.9403104599
  0
LINE
  5
2A9
100
AcDbEntity
  8
0
100
AcDbLine
 62
7
  6
CONTINUOUS
 10
19.2519226853
 20
8.9403104599
 11
20.8769226853
 21
8.9403104599
  0
LINE
  5
2AA
100
AcDbEntity
  8
0
100
AcDbLine
 62
6
  6
CONTINUOUS
 10
16.5526375855
 20
8.9783104599
 11
15.5762077851
 21
8.9783104599
  0
LINE
  5
2AB
100
AcDbEntity
  8
0
100
AcDbLine
 62
7
  6
CONTINUOUS
 10
15.9058540882
 20
9.0733104599
 11
16.2229912825
 21
9.0733104599
  0
LINE
  5
2AC
100
AcDbEntity
  8
0
100
AcDbLine
 62
9
  6
CONTINUOUS
 10
16.5274226853
 20
9.2198104599
 11
16.2229912825
 21
9.2198104599
  0
LINE
  5
2AD
100
AcDbEntity
  8
0
100
AcDbLine
 62
9
  6
CONTINUOUS
 10
15.9058540882
 20
9.2198104599
 11
15.6014226853
 21
9.2198104599
  0
LINE
  5
2AE
100
AcDbEntity
  8
0
100
AcDbLine
 62
9
  6
CONTINUOUS
 10
16.5646068001
 20
8.9738258362
 11
15.5642385613
 21
8.9738258281
  0
LINE
  5
2AF
100
AcDbEntity
  8
0
100
AcDbLine
 62
7
  6
CONTINUOUS
 10
15.9163846834
 20
9.2233104599
 11
15.9146895817
 21
9.2232680694
  0
LINE
  5
2B0
100
AcDbEntity
  8
0
100
AcDbLine
 62
7
  6
CONTINUOUS
 10
16.5238603206
 20
9.2233104599
 11
15.60498505
 21
9.2233104599
  0
LINE
  5
2B1
100
AcDbEntity
  8
0
100
AcDbLine
 62
9
  6
CONTINUOUS
 10
15.8302650814
 20
9.3971463713
 11
16.2985802892
 21
9.3971463713
  0
LINE
  5
2B2
100
AcDbEntity
  8
0
100
AcDbLine
 62
9
  6
CONTINUOUS
 10
16.4217944907
 20
9.5722237196
 11
15.7070508799
 21
9.5722237196
  0
LINE
  5
2B3
100
AcDbEntity
  8
0
100
AcDbLine
 62
9
  6
CONTINUOUS
 10
15.6914226983
 20
9.599144106
 11
16.4374226724
 21
9.599144106
  0
LINE
  5
2B4
100
AcDbEntity
  8
0
100
AcDbLine
 62
9
  6
CONTINUOUS
 10
15.3562304877
 20
9.6390556
 11
15.6894813675
 21
9.6390556
  0
LINE
  5
2B5
100
AcDbEntity
  8
0
100
AcDbLine
 62
9
  6
CONTINUOUS
 10
16.4393640031
 20
9.6390556
 11
16.7726148829
 21
9.6390556
  0
LINE
  5
2B6
100
AcDbEntity
  8
0
100
AcDbLine
 62
7
  6
CONTINUOUS
 10
16.4394226853
 20
9.6424354599
 11
15.6894226853
 21
9.6424354599
  0
LINE
  5
2B7
100
AcDbEntity
  8
0
100
AcDbLine
 62
9
  6
CONTINUOUS
 10
15.6584226983
 20
9.6734354599
 11
16.4704226723
 21
9.6734354599
  0
LINE
  5
2B8
100
AcDbEntity
  8
0
100
AcDbLine
 62
7
  6
CONTINUOUS
 10
16.4704226853
 20
9.7034354599
 11
15.6584226983
 21
9.7034354599
  0
LINE
  5
2B9
100
AcDbEntity
  8
0
100
AcDbLine
 62
7
  6
CONTINUOUS
 10
16.2141562771
 20
9.2232679582
 11
16.2124606872
 21
9.2233104599
  0
LINE
  5
2BA
100
AcDbEntity
  8
0
100
AcDbLine
 62
7
  6
CONTINUOUS
 10
12.9504226853
 20
11.6025604599
 11
12.9304226853
 21
11.6225604599
  0
LINE
  5
2BB
100
AcDbEntity
  8
0
100
AcDbLine
 62
7
  6
CONTINUOUS
 10
14.9990450811
 20
12.9463104599
 11
14.9990450811
 21
13.5563104599
  0
LINE
  5
2BC
100
AcDbEntity
  8
0
100
AcDbLine
 62
7
  6
CONTINUOUS
 10
15.0519226853
 20
8.7272779276
 11
15.0519226853
 21
8.4783104599
  0
LINE
  5
2BD
100
AcDbEntity
  8
0
100
AcDbLine
 62
7
  6
CONTINUOUS
 10
16.4704226853
 20
9.7664354599
 11
15.6584226853
 21
9.7664354599
  0
LINE
  5
2BE
100
AcDbEntity
  8
0
100
AcDbLine
 62
9
  6
CONTINUOUS
 10
16.7212932887
 20
9.7816512328
 11
16.4704226723
 21
9.7816512328
  0
LINE
  5
2BF
100
AcDbEntity
  8
0
100
AcDbLine
 62
9
  6
CONTINUOUS
 10
15.6584226983
 20
9.7816512328
 11
15.4075520819
 21
9.7816512328
  0
LINE
  5
2C0
100
AcDbEntity
  8
0
100
AcDbLine
 62
9
  6
CONTINUOUS
 10
16.4704226723
 20
9.7954354599
 11
15.6584226983
 21
9.7954354599
  0
LINE
  5
2C1
100
AcDbEntity
  8
0
100
AcDbLine
 62
7
  6
CONTINUOUS
 10
15.6894813682
 20
9.8264354599
 11
16.4393640024
 21
9.8264354599
  0
LINE
  5
2C2
100
AcDbEntity
  8
0
100
AcDbLine
 62
9
  6
CONTINUOUS
 10
16.4374226724
 20
9.8633143891
 11
15.6914226983
 21
9.8633143891
  0
LINE
  5
2C3
100
AcDbEntity
  8
0
100
AcDbLine
 62
9
  6
CONTINUOUS
 10
15.7157715062
 20
9.8935924611
 11
16.4130738769
 21
9.8935924612
  0
LINE
  5
2C4
100
AcDbEntity
  8
0
100
AcDbLine
 62
7
  6
CONTINUOUS
 10
15.4258944787
 20
12.9300663453
 11
15.4250536418
 21
12.9463104599
  0
LINE
  5
2C5
100
AcDbEntity
  8
0
100
AcDbLine
 62
7
  6
CONTINUOUS
 10
15.197120272
 20
13.5563104599
 11
15.197120272
 21
12.9463104599
  0
LINE
  5
2C6
100
AcDbEntity
  8
0
100
AcDbLine
 62
7
  6
CONTINUOUS
 10
15.3044226853
 20
12.5805712288
 11
15.3044226853
 21
12.0211436077
  0
LINE
  5
2C7
100
AcDbEntity
  8
0
100
AcDbLine
 62
7
  6
CONTINUOUS
 10
15.4250536418
 20
12.9463104599
 11
15.4250536418
 21
13.5563104599
  0
LINE
  5
2C8
100
AcDbEntity
  8
0
100
AcDbLine
 62
7
  6
CONTINUOUS
 10
15.6014226853
 20
8.9783104599
 11
15.6014226853
 21
9.2198104599
  0
LINE
  5
2C9
100
AcDbEntity
  8
0
100
AcDbLine
 62
7
  6
CONTINUOUS
 10
15.4888337525
 20
11.9463104599
 11
15.4075520819
 21
9.7816512328
  0
LINE
  5
2CA
100
AcDbEntity
  8
0
100
AcDbLine
 62
7
  6
CONTINUOUS
 10
17.0544226853
 20
12.8567435308
 11
16.8528914641
 21
12.6504517295
  0
LINE
  5
2CB
100
AcDbEntity
  8
0
100
AcDbLine
 62
7
  6
CONTINUOUS
 10
20.4739226853
 20
10.2333104599
 11
19.6549226853
 21
10.2333104599
  0
LINE
  5
2CC
100
AcDbEntity
  8
0
100
AcDbLine
 62
7
  6
CONTINUOUS
 10
12.4739226853
 20
10.2333104599
 11
11.6549226853
 21
10.2333104599
  0
LINE
  5
2CD
100
AcDbEntity
  8
0
100
AcDbLine
 62
7
  6
CONTINUOUS
 10
11.6749226853
 20
10.2533104599
 11
12.4539226853
 21
10.2533104599
  0
LINE
  5
2CE
100
AcDbEntity
  8
0
100
AcDbLine
 62
7
  6
CONTINUOUS
 10
19.6749226853
 20
10.2533104599
 11
20.4539226853
 21
10.2533104599
  0
LINE
  5
2CF
100
AcDbEntity
  8
0
100
AcDbLine
 62
7
  6
CONTINUOUS
 10
12.2759226853
 20
10.2763104599
 11
12.2481718123
 21
10.2763104599
  0
LINE
  5
2D0
100
AcDbEntity
  8
0
100
AcDbLine
 62
7
  6
CONTINUOUS
 10
11.8806735584
 20
10.2763104599
 11
11.8529226853
 21
10.2763104599
  0
LINE
  5
2D1
100
AcDbEntity
  8
0
100
AcDbLine
 62
7
  6
CONTINUOUS
 10
20.3769226853
 20
10.2845604599
 11
19.7519226853
 21
10.2845604599
  0
LINE
  5
2D2
100
AcDbEntity
  8
0
100
AcDbLine
 62
7
  6
CONTINUOUS
 10
12.3769226853
 20
10.2845604599
 11
11.7519226853
 21
10.2845604599
  0
LINE
  5
2D3
100
AcDbEntity
  8
0
100
AcDbLine
 62
7
  6
CONTINUOUS
 10
15.8302644138
 20
9.3971463713
 11
15.8609163752
 21
9.2233104599
  0
LINE
  5
2D4
100
AcDbEntity
  8
0
100
AcDbLine
 62
7
  6
CONTINUOUS
 10
15.6584226853
 20
9.7954354599
 11
15.6584226853
 21
9.7664354599
  0
LINE
  5
2D5
100
AcDbEntity
  8
0
100
AcDbLine
 62
7
  6
CONTINUOUS
 10
15.6584226853
 20
9.7034354599
 11
15.6584226853
 21
9.6734354599
  0
LINE
  5
2D6
100
AcDbEntity
  8
0
100
AcDbLine
 62
7
  6
CONTINUOUS
 10
15.6914226853
 20
9.8633143891
 11
15.6914226853
 21
9.8264354599
  0
LINE
  5
2D7
100
AcDbEntity
  8
0
100
AcDbLine
 62
7
  6
CONTINUOUS
 10
15.6914226853
 20
9.6424354599
 11
15.6914226853
 21
9.599144106
  0
LINE
  5
2D8
100
AcDbEntity
  8
0
100
AcDbLine
 62
7
  6
CONTINUOUS
 10
15.9032494538
 20
13.5563104599
 11
15.9032494538
 21
12.9463104599
  0
LINE
  5
2D9
100
AcDbEntity
  8
0
100
AcDbLine
 62
7
  6
CONTINUOUS
 10
15.9058540882
 20
9.2198104599
 11
15.9058540882
 21
9.0733104599
  0
LINE
  5
2DA
100
AcDbEntity
  8
0
100
AcDbLine
 62
7
  6
CONTINUOUS
 10
12.9304226853
 20
10.9665604599
 11
12.4704226853
 21
10.9665604599
  0
LINE
  5
2DB
100
AcDbEntity
  8
0
100
AcDbLine
 62
7
  6
CONTINUOUS
 10
11.6584226853
 20
10.9665604599
 11
9.0704226853
 21
10.9665604599
  0
LINE
  5
2DC
100
AcDbEntity
  8
0
100
AcDbLine
 62
7
  6
CONTINUOUS
 10
19.1984226853
 20
10.9665604599
 11
19.6584226853
 21
10.9665604599
  0
LINE
  5
2DD
100
AcDbEntity
  8
0
100
AcDbLine
 62
7
  6
CONTINUOUS
 10
20.4704226853
 20
10.9665604599
 11
23.0584226853
 21
10.9665604599
  0
LINE
  5
2DE
100
AcDbEntity
  8
0
100
AcDbLine
 62
7
  6
CONTINUOUS
 10
16.2229912825
 20
9.0733104599
 11
16.2229912825
 21
9.2198104599
  0
LINE
  5
2DF
100
AcDbEntity
  8
0
100
AcDbLine
 62
7
  6
CONTINUOUS
 10
16.2255959168
 20
12.9463104599
 11
16.2255959168
 21
13.5563104599
  0
LINE
  5
2E0
100
AcDbEntity
  8
0
100
AcDbLine
 62
7
  6
CONTINUOUS
 10
16.4374226853
 20
9.8633143891
 11
16.4374226853
 21
9.8264354599
  0
LINE
  5
2E1
100
AcDbEntity
  8
0
100
AcDbLine
 62
7
  6
CONTINUOUS
 10
16.4374226853
 20
9.6424354599
 11
16.4374226853
 21
9.599144106
  0
LINE
  5
2E2
100
AcDbEntity
  8
0
100
AcDbLine
 62
7
  6
CONTINUOUS
 10
16.4704226853
 20
9.7954354599
 11
16.4704226853
 21
9.7664354599
  0
LINE
  5
2E3
100
AcDbEntity
  8
0
100
AcDbLine
 62
7
  6
CONTINUOUS
 10
16.4704226853
 20
9.7034354599
 11
16.4704226853
 21
9.6734354599
  0
LINE
  5
2E4
100
AcDbEntity
  8
0
100
AcDbLine
 62
7
  6
CONTINUOUS
 10
16.5274226853
 20
8.9783104599
 11
16.5274226853
 21
9.2198104599
  0
LINE
  5
2E5
100
AcDbEntity
  8
0
100
AcDbLine
 62
7
  6
CONTINUOUS
 10
16.7037917288
 20
12.9463104599
 11
16.7029508919
 21
12.9300662828
  0
LINE
  5
2E6
100
AcDbEntity
  8
0
100
AcDbLine
 62
7
  6
CONTINUOUS
 10
16.2985809568
 20
9.3971463713
 11
16.2679289954
 21
9.2233104599
  0
LINE
  5
2E7
100
AcDbEntity
  8
0
100
AcDbLine
 62
7
  6
CONTINUOUS
 10
12.9304226853
 20
11.6225604599
 11
12.4704226853
 21
11.6225604599
  0
LINE
  5
2E8
100
AcDbEntity
  8
0
100
AcDbLine
 62
7
  6
CONTINUOUS
 10
11.6584226853
 20
11.6225604599
 11
9.0704226853
 21
11.6225604599
  0
LINE
  5
2E9
100
AcDbEntity
  8
0
100
AcDbLine
 62
7
  6
CONTINUOUS
 10
19.1984226853
 20
11.6225604599
 11
19.6584226853
 21
11.6225604599
  0
LINE
  5
2EA
100
AcDbEntity
  8
0
100
AcDbLine
 62
7
  6
CONTINUOUS
 10
20.4704226853
 20
11.6225604599
 11
23.0584226853
 21
11.6225604599
  0
LINE
  5
2EB
100
AcDbEntity
  8
0
100
AcDbLine
 62
7
  6
CONTINUOUS
 10
15.0744226853
 20
12.8567435308
 11
15.2759539066
 21
12.6504517295
  0
LINE
  5
2EC
100
AcDbEntity
  8
0
100
AcDbLine
 62
7
  6
CONTINUOUS
 10
16.6400116181
 20
11.9463104599
 11
16.7212932887
 21
9.7816512328
  0
LINE
  5
2ED
100
AcDbEntity
  8
0
100
AcDbLine
 62
7
  6
CONTINUOUS
 10
16.7037917288
 20
13.5563104599
 11
16.7037917288
 21
12.9463104599
  0
LINE
  5
2EE
100
AcDbEntity
  8
0
100
AcDbLine
 62
7
  6
CONTINUOUS
 10
16.8244226853
 20
12.5805712288
 11
16.8244226853
 21
12.0211436077
  0
LINE
  5
2EF
100
AcDbEntity
  8
0
100
AcDbLine
 62
7
  6
CONTINUOUS
 10
16.9317250987
 20
12.9463104599
 11
16.9317250987
 21
13.5563104599
  0
LINE
  5
2F0
100
AcDbEntity
  8
0
100
AcDbLine
 62
7
  6
CONTINUOUS
 10
17.0769226853
 20
8.7272779276
 11
17.0769226853
 21
8.4783104599
  0
LINE
  5
2F1
100
AcDbEntity
  8
0
100
AcDbLine
 62
7
  6
CONTINUOUS
 10
17.1298002895
 20
13.5563104599
 11
17.1298002895
 21
12.9463104599
  0
LINE
  5
2F2
100
AcDbEntity
  8
0
100
AcDbLine
 62
7
  6
CONTINUOUS
 10
15.3244226853
 20
11.9463104599
 11
16.8044226853
 21
11.9463104599
  0
LINE
  5
2F3
100
AcDbEntity
  8
0
100
AcDbLine
 62
9
  6
CONTINUOUS
 10
15.3044226853
 20
12.0211436077
 11
16.8244226853
 21
12.0211436077
  0
LINE
  5
2F4
100
AcDbEntity
  8
0
100
AcDbLine
 62
9
  6
CONTINUOUS
 10
15.3044226853
 20
12.5805712288
 11
16.8244226853
 21
12.5805712288
  0
LINE
  5
2F5
100
AcDbEntity
  8
0
100
AcDbLine
 62
9
  6
CONTINUOUS
 10
16.8528914641
 20
12.6504517295
 11
15.2759539066
 21
12.6504517295
  0
LINE
  5
2F6
100
AcDbEntity
  8
0
100
AcDbLine
 62
7
  6
CONTINUOUS
 10
19.1784226853
 20
11.6025604599
 11
19.1984226853
 21
11.6225604599
  0
LINE
  5
2F7
100
AcDbEntity
  8
0
100
AcDbLine
 62
7
  6
CONTINUOUS
 10
14.9990450811
 20
12.9463104599
 11
15.197120272
 21
12.9463104599
  0
LINE
  5
2F8
100
AcDbEntity
  8
0
100
AcDbLine
 62
7
  6
CONTINUOUS
 10
15.4250536418
 20
12.9463104599
 11
15.9032494538
 21
12.9463104599
  0
LINE
  5
2F9
100
AcDbEntity
  8
0
100
AcDbLine
 62
7
  6
CONTINUOUS
 10
16.2255959168
 20
12.9463104599
 11
16.7037917288
 21
12.9463104599
  0
LINE
  5
2FA
100
AcDbEntity
  8
0
100
AcDbLine
 62
7
  6
CONTINUOUS
 10
16.9317250987
 20
12.9463104599
 11
17.1298002895
 21
12.9463104599
  0
LINE
  5
2FB
100
AcDbEntity
  8
0
100
AcDbLine
 62
9
  6
CONTINUOUS
 10
17.1298002895
 20
13.5563104599
 11
16.9317250987
 21
13.5563104599
  0
LINE
  5
2FC
100
AcDbEntity
  8
0
100
AcDbLine
 62
9
  6
CONTINUOUS
 10
16.7037917288
 20
13.5563104599
 11
16.2255959168
 21
13.5563104599
  0
LINE
  5
2FD
100
AcDbEntity
  8
0
100
AcDbLine
 62
9
  6
CONTINUOUS
 10
15.9032494538
 20
13.5563104599
 11
15.4250536418
 21
13.5563104599
  0
LINE
  5
2FE
100
AcDbEntity
  8
0
100
AcDbLine
 62
9
  6
CONTINUOUS
 10
15.197120272
 20
13.5563104599
 11
14.9990450811
 21
13.5563104599
  0
LINE
  5
2FF
100
AcDbEntity
  8
0
100
AcDbLine
 62
7
  6
CONTINUOUS
 10
16.9919226853
 20
13.7063104599
 11
15.1369226853
 21
13.7063104599
  0
LINE
  5
300
100
AcDbEntity
  8
0
100
AcDbLine
 62
7
  6
CONTINUOUS
 10
19.1784226853
 20
10.9865604599
 11
19.1984226853
 21
10.9665604599
  0
LINE
  5
301
100
AcDbEntity
  8
0
100
AcDbLine
 62
7
  6
CONTINUOUS
 10
20.4539226853
 20
10.2533104599
 11
20.4739226853
 21
10.2333104599
  0
LINE
  5
302
100
AcDbEntity
  8
0
100
AcDbLine
 62
9
  6
CONTINUOUS
 10
15.1552862523
 20
13.7663104599
 11
16.9735591184
 21
13.7663104599
  0
LINE
  5
303
100
AcDbEntity
  8
0
100
AcDbLine
 62
7
  6
CONTINUOUS
 10
19.1784226853
 20
10.9865604599
 11
19.1784226853
 21
11.6025604599
  0
LINE
  5
304
100
AcDbEntity
  8
0
100
AcDbLine
 62
7
  6
CONTINUOUS
 10
19.1984226853
 20
11.6225604599
 11
19.1984226853
 21
10.9665604599
  0
LINE
  5
305
100
AcDbEntity
  8
0
100
AcDbLine
 62
7
  6
CONTINUOUS
 10
19.2519226853
 20
8.9403104599
 11
19.2519226853
 21
8.8533097843
  0
LINE
  5
306
100
AcDbEntity
  8
0
100
AcDbLine
 62
7
  6
CONTINUOUS
 10
19.6749226853
 20
10.2533104599
 11
19.6549226853
 21
10.2333104599
  0
LINE
  5
307
100
AcDbEntity
  8
0
100
AcDbLine
 62
7
  6
CONTINUOUS
 10
19.6584226853
 20
10.9262622526
 11
19.6584226853
 21
11.6628586673
  0
LINE
  5
308
100
AcDbEntity
  8
0
100
AcDbLine
 62
7
  6
CONTINUOUS
 10
19.7519226853
 20
10.2845604599
 11
19.7519226853
 21
10.8904452936
  0
LINE
  5
309
100
AcDbEntity
  8
0
100
AcDbLine
 62
7
  6
CONTINUOUS
 10
19.8208226853
 20
10.9955590157
 11
19.8208226853
 21
11.6629161225
  0
LINE
  5
30A
100
AcDbEntity
  8
0
100
AcDbLine
 62
7
  6
CONTINUOUS
 10
19.8529226853
 20
10.2533104599
 11
19.8529226853
 21
10.2845604599
  0
LINE
  5
30B
100
AcDbEntity
  8
0
100
AcDbLine
 62
6
  6
CONTINUOUS
 10
19.8806735584
 20
10.2533104599
 11
19.8806735584
 21
10.2845604599
  0
LINE
  5
30C
100
AcDbEntity
  8
0
100
AcDbLine
 62
6
  6
CONTINUOUS
 10
19.8864417641
 20
10.2801591027
 11
19.8864417641
 21
10.2533104599
  0
LINE
  5
30D
100
AcDbEntity
  8
0
100
AcDbLine
 62
6
  6
CONTINUOUS
 10
19.9028794916
 20
10.2533104599
 11
19.9028794916
 21
10.2801591027
  0
LINE
  5
30E
100
AcDbEntity
  8
0
100
AcDbLine
 62
6
  6
CONTINUOUS
 10
19.9193059516
 20
10.2845604599
 11
19.9193059516
 21
10.2533104599
  0
LINE
  5
30F
100
AcDbEntity
  8
0
100
AcDbLine
 62
6
  6
CONTINUOUS
 10
19.9422070109
 20
10.2533104599
 11
19.9422070109
 21
10.2845604599
  0
LINE
  5
310
100
AcDbEntity
  8
0
100
AcDbLine
 62
6
  6
CONTINUOUS
 10
19.9496789116
 20
10.2533104599
 11
19.9496789116
 21
10.2845604599
  0
LINE
  5
311
100
AcDbEntity
  8
0
100
AcDbLine
 62
6
  6
CONTINUOUS
 10
19.9742628464
 20
10.2845604599
 11
19.9742628464
 21
10.2533104599
  0
LINE
  5
312
100
AcDbEntity
  8
0
100
AcDbLine
 62
6
  6
CONTINUOUS
 10
19.9930723982
 20
10.2533104599
 11
19.9930723982
 21
10.2845604599
  0
LINE
  5
313
100
AcDbEntity
  8
0
100
AcDbLine
 62
6
  6
CONTINUOUS
 10
20.0108523958
 20
10.2845604599
 11
20.0108523958
 21
10.2533104599
  0
LINE
  5
314
100
AcDbEntity
  8
0
100
AcDbLine
 62
6
  6
CONTINUOUS
 10
20.013947031
 20
10.2533104599
 11
20.013947031
 21
10.2845604599
  0
LINE
  5
315
100
AcDbEntity
  8
0
100
AcDbLine
 62
6
  6
CONTINUOUS
 10
20.0429457594
 20
10.2845604599
 11
20.0429457594
 21
10.2533104599
  0
LINE
  5
316
100
AcDbEntity
  8
0
100
AcDbLine
 62
6
  6
CONTINUOUS
 10
20.0548002199
 20
10.2533104599
 11
20.0548002199
 21
10.2845604599
  0
LINE
  5
317
100
AcDbEntity
  8
0
100
AcDbLine
 62
6
  6
CONTINUOUS
 10
20.0740451507
 20
10.2845604599
 11
20.0740451507
 21
10.2533104599
  0
LINE
  5
318
100
AcDbEntity
  8
0
100
AcDbLine
 62
6
  6
CONTINUOUS
 10
20.0858996113
 20
10.2533104599
 11
20.0858996113
 21
10.2845604599
  0
LINE
  5
319
100
AcDbEntity
  8
0
100
AcDbLine
 62
6
  6
CONTINUOUS
 10
20.1148983396
 20
10.2845604599
 11
20.1148983396
 21
10.2533104599
  0
LINE
  5
31A
100
AcDbEntity
  8
0
100
AcDbLine
 62
6
  6
CONTINUOUS
 10
20.1179929748
 20
10.2533104599
 11
20.1179929748
 21
10.2845604599
  0
LINE
  5
31B
100
AcDbEntity
  8
0
100
AcDbLine
 62
7
  6
CONTINUOUS
 10
19.9832239957
 20
11.1031173234
 11
19.9832229185
 21
11.6629165352
  0
LINE
  5
31C
100
AcDbEntity
  8
0
100
AcDbLine
 62
6
  6
CONTINUOUS
 10
20.1357729724
 20
10.2845604599
 11
20.1357729724
 21
10.2533104599
  0
LINE
  5
31D
100
AcDbEntity
  8
0
100
AcDbLine
 62
7
  6
CONTINUOUS
 10
20.1456224521
 20
11.6629165352
 11
20.1456213749
 21
11.1031173234
  0
LINE
  5
31E
100
AcDbEntity
  8
0
100
AcDbLine
 62
6
  6
CONTINUOUS
 10
20.1545825242
 20
10.2533104599
 11
20.1545825242
 21
10.2845604599
  0
LINE
  5
31F
100
AcDbEntity
  8
0
100
AcDbLine
 62
6
  6
CONTINUOUS
 10
20.179166459
 20
10.2845604599
 11
20.179166459
 21
10.2533104599
  0
LINE
  5
320
100
AcDbEntity
  8
0
100
AcDbLine
 62
6
  6
CONTINUOUS
 10
20.1866383597
 20
10.2845604599
 11
20.1866383597
 21
10.2533104599
  0
LINE
  5
321
100
AcDbEntity
  8
0
100
AcDbLine
 62
6
  6
CONTINUOUS
 10
20.209539419
 20
10.2533104599
 11
20.209539419
 21
10.2845604599
  0
LINE
  5
322
100
AcDbEntity
  8
0
100
AcDbLine
 62
6
  6
CONTINUOUS
 10
20.2259658791
 20
10.2845604599
 11
20.2259658791
 21
10.2533104599
  0
LINE
  5
323
100
AcDbEntity
  8
0
100
AcDbLine
 62
6
  6
CONTINUOUS
 10
20.2424036065
 20
10.2551351002
 11
20.2424036065
 21
10.2845604599
  0
LINE
  5
324
100
AcDbEntity
  8
0
100
AcDbLine
 62
6
  6
CONTINUOUS
 10
20.2481718123
 20
10.2845604599
 11
20.2481718123
 21
10.2533104599
  0
LINE
  5
325
100
AcDbEntity
  8
0
100
AcDbLine
 62
7
  6
CONTINUOUS
 10
20.2759226853
 20
10.2533104599
 11
20.2759226853
 21
10.2845604599
  0
LINE
  5
326
100
AcDbEntity
  8
0
100
AcDbLine
 62
7
  6
CONTINUOUS
 10
20.3080225918
 20
11.6629159411
 11
20.3080226853
 21
10.9955590157
  0
LINE
  5
327
100
AcDbEntity
  8
0
100
AcDbLine
 62
7
  6
CONTINUOUS
 10
20.3769226853
 20
10.2845604599
 11
20.3769226853
 21
10.8904696157
  0
LINE
  5
328
100
AcDbEntity
  8
0
100
AcDbLine
 62
7
  6
CONTINUOUS
 10
20.4704226853
 20
10.9262622526
 11
20.4704226853
 21
11.6628586673
  0
LINE
  5
329
100
AcDbEntity
  8
0
100
AcDbLine
 62
7
  6
CONTINUOUS
 10
20.8769226853
 20
8.9403104599
 11
20.8769226853
 21
8.8533097843
  0
LINE
  5
32A
100
AcDbEntity
  8
0
100
AcDbLine
 62
7
  6
CONTINUOUS
 10
23.0584226853
 20
10.9665604599
 11
23.0784226853
 21
10.9865604599
  0
LINE
  5
32B
100
AcDbEntity
  8
0
100
AcDbLine
 62
7
  6
CONTINUOUS
 10
23.0584226853
 20
11.6225604599
 11
23.0784226853
 21
11.6025604599
  0
LINE
  5
32C
100
AcDbEntity
  8
0
100
AcDbLine
 62
7
  6
CONTINUOUS
 10
23.0584226853
 20
10.9665604599
 11
23.0584226853
 21
11.6225604599
  0
LINE
  5
32D
100
AcDbEntity
  8
0
100
AcDbLine
 62
7
  6
CONTINUOUS
 10
23.0784226853
 20
10.9865604599
 11
23.0784226853
 21
11.6025604599
  0
ARC
  5
32E
100
AcDbEntity
  8
0
100
AcDbCircle
 62
7
  6
CONTINUOUS
 10
11.0715587964
 20
8.4783104599
 40
0.1871361111
100
AcDbArc
 50
92.1854050713
 51
180.0
  0
ARC
  5
32F
100
AcDbEntity
  8
0
100
AcDbCircle
 62
7
  6
CONTINUOUS
 10
11.2514200115
 20
8.6663104599
 40
0.187
100
AcDbArc
 50
89.8459833006
 51
180.3063960031
  0
ARC
  5
330
100
AcDbEntity
  8
0
100
AcDbCircle
 62
7
  6
CONTINUOUS
 10
8.6632328851
 20
10.4564519831
 40
3.0
100
AcDbArc
 50
329.6433854291
 51
355.7343714095
  0
ARC
  5
331
100
AcDbEntity
  8
0
100
AcDbCircle
 62
7
  6
CONTINUOUS
 10
15.7404026773
 20
8.8487784571
 40
1.3
100
AcDbArc
 50
357.7751307227
 51
37.4382101817
  0
ARC
  5
332
100
AcDbEntity
  8
0
100
AcDbCircle
 62
6
  6
CONTINUOUS
 10
15.973202279
 20
8.2954154202
 40
0.9
100
AcDbArc
 50
11.7251268761
 51
48.9196903106
  0
ARC
  5
333
100
AcDbEntity
  8
0
100
AcDbCircle
 62
7
  6
CONTINUOUS
 10
15.5820928601
 20
9.3533870305
 40
0.252
100
AcDbArc
 50
9.9999999997
 51
60.273187351
  0
ARC
  5
334
100
AcDbEntity
  8
0
100
AcDbCircle
 62
7
  6
CONTINUOUS
 10
13.0572865742
 20
8.4783104599
 40
0.1871361111
100
AcDbArc
 50
0.0
 51
87.8145949287
  0
ARC
  5
335
100
AcDbEntity
  8
0
100
AcDbCircle
 62
7
  6
CONTINUOUS
 10
12.8774253591
 20
8.6663104599
 40
0.187
100
AcDbArc
 50
359.6936039969
 51
90.1540166994
  0
ARC
  5
336
100
AcDbEntity
  8
0
100
AcDbCircle
 62
7
  6
CONTINUOUS
 10
15.1379476274
 20
8.7272779276
 40
0.0860249421
100
AcDbArc
 50
124.338423379
 51
180.0
  0
ARC
  5
337
100
AcDbEntity
  8
0
100
AcDbCircle
 62
6
  6
CONTINUOUS
 10
15.5762077851
 20
8.9600955597
 40
0.0182149002
100
AcDbArc
 50
65.5410027194
 51
131.0799643702
  0
ARC
  5
338
100
AcDbEntity
  8
0
100
AcDbCircle
 62
7
  6
CONTINUOUS
 10
15.4656124855
 20
10.4564519831
 40
3.0
100
AcDbArc
 50
184.2656285905
 51
210.3566145709
  0
ARC
  5
339
100
AcDbEntity
  8
0
100
AcDbCircle
 62
7
  6
CONTINUOUS
 10
15.1577281405
 20
9.7910319737
 40
0.25
100
AcDbArc
 50
322.5617898179
 51
357.8495877332
  0
ARC
  5
33A
100
AcDbEntity
  8
0
100
AcDbCircle
 62
7
  6
CONTINUOUS
 10
15.6584226853
 20
9.7349354599
 40
0.0315
100
AcDbArc
 50
90.0
 51
270.0
  0
ARC
  5
33B
100
AcDbEntity
  8
0
100
AcDbCircle
 62
7
  6
CONTINUOUS
 10
15.7224226853
 20
9.8633143891
 40
0.031
100
AcDbArc
 50
102.3893682683
 51
180.0000000007
  0
ARC
  5
33C
100
AcDbEntity
  8
0
100
AcDbCircle
 62
7
  6
CONTINUOUS
 10
15.6894226853
 20
9.7954354599
 40
0.031
100
AcDbArc
 50
89.9999781262
 51
179.9999999993
  0
ARC
  5
33D
100
AcDbEntity
  8
0
100
AcDbCircle
 62
7
  6
CONTINUOUS
 10
15.6894226853
 20
9.6734354599
 40
0.031
100
AcDbArc
 50
180.0000000003
 51
270.0000161059
  0
ARC
  5
33E
100
AcDbEntity
  8
0
100
AcDbCircle
 62
7
  6
CONTINUOUS
 10
15.7224226853
 20
9.599144106
 40
0.031
100
AcDbArc
 50
180.0000000002
 51
240.2731873512
  0
ARC
  5
33F
100
AcDbEntity
  8
0
100
AcDbCircle
 62
7
  6
CONTINUOUS
 10
12.8975402752
 20
11.1012275926
 40
2.7965430869
100
AcDbArc
 50
38.8839479344
 51
41.2825422022
  0
ARC
  5
340
100
AcDbEntity
  8
0
100
AcDbCircle
 62
7
  6
CONTINUOUS
 10
12.5539613852
 20
11.0802852989
 40
0.260136753
100
AcDbArc
 50
200.7088283967
 51
210.9310527363
  0
ARC
  5
341
100
AcDbEntity
  8
0
100
AcDbCircle
 62
7
  6
CONTINUOUS
 10
11.5751318783
 20
11.0801786806
 40
0.2598703744
100
AcDbArc
 50
329.3462657144
 51
338.1922429821
  0
ARC
  5
342
100
AcDbEntity
  8
0
100
AcDbCircle
 62
7
  6
CONTINUOUS
 10
11.5786577701
 20
11.0782199091
 40
0.2558385239
100
AcDbArc
 50
319.1592556056
 51
329.3210465259
  0
ARC
  5
343
100
AcDbEntity
  8
0
100
AcDbCircle
 62
7
  6
CONTINUOUS
 10
12.5501467326
 20
11.0781914238
 40
0.2557883839
100
AcDbArc
 50
210.9679354872
 51
221.1786814413
  0
ARC
  5
344
100
AcDbEntity
  8
0
100
AcDbCircle
 62
7
  6
CONTINUOUS
 10
11.5830028435
 20
11.0769529945
 40
0.251364379
100
AcDbArc
 50
338.2083876529
 51
339.6726688631
  0
ARC
  5
345
100
AcDbEntity
  8
0
100
AcDbCircle
 62
7
  6
CONTINUOUS
 10
12.5418475579
 20
11.0754687609
 40
0.2471024857
100
AcDbArc
 50
198.8678838153
 51
200.6574319261
  0
ARC
  5
346
100
AcDbEntity
  8
0
100
AcDbCircle
 62
7
  6
CONTINUOUS
 10
11.5877261553
 20
11.0752044635
 40
0.2463278093
100
AcDbArc
 50
339.6723990813
 51
341.135502665
  0
ARC
  5
347
100
AcDbEntity
  8
0
100
AcDbCircle
 62
7
  6
CONTINUOUS
 10
15.1369226853
 20
13.5563104599
 40
0.15
100
AcDbArc
 50
90.0
 51
114.6243183522
  0
ARC
  5
348
100
AcDbEntity
  8
0
100
AcDbCircle
 62
7
  6
CONTINUOUS
 10
15.4544226853
 20
12.0211436077
 40
0.15
100
AcDbArc
 50
180.0
 51
209.9264348674
  0
ARC
  5
349
100
AcDbEntity
  8
0
100
AcDbCircle
 62
7
  6
CONTINUOUS
 10
15.2044226853
 20
12.5805712288
 40
0.1
100
AcDbArc
 50
0.0
 51
44.3312080469
  0
ARC
  5
34A
100
AcDbEntity
  8
0
100
AcDbCircle
 62
7
  6
CONTINUOUS
 10
11.7396226853
 20
11.6155604599
 40
0.094
100
AcDbArc
 50
30.2506503161
 51
149.7493496839
  0
ARC
  5
34B
100
AcDbEntity
  8
0
100
AcDbCircle
 62
7
  6
CONTINUOUS
 10
12.0644226853
 20
11.6155604599
 40
0.094
100
AcDbArc
 50
30.2508683644
 51
149.7491316356
  0
ARC
  5
34C
100
AcDbEntity
  8
0
100
AcDbCircle
 62
7
  6
CONTINUOUS
 10
11.9020226853
 20
11.6155604599
 40
0.094
100
AcDbArc
 50
30.2414154727
 51
149.7572151854
  0
ARC
  5
34D
100
AcDbEntity
  8
0
100
AcDbCircle
 62
7
  6
CONTINUOUS
 10
11.7396226853
 20
10.9735604599
 40
0.094
100
AcDbArc
 50
210.2506503161
 51
269.8780939942
  0
ARC
  5
34E
100
AcDbEntity
  8
0
100
AcDbCircle
 62
7
  6
CONTINUOUS
 10
12.2268226853
 20
11.6155604599
 40
0.094
100
AcDbArc
 50
30.2507767033
 51
149.7585845273
  0
ARC
  5
34F
100
AcDbEntity
  8
0
100
AcDbCircle
 62
7
  6
CONTINUOUS
 10
12.3892226853
 20
10.9735604599
 40
0.094
100
AcDbArc
 50
270.1219060058
 51
329.7493496839
  0
ARC
  5
350
100
AcDbEntity
  8
0
100
AcDbCircle
 62
7
  6
CONTINUOUS
 10
12.3892226853
 20
11.6155604599
 40
0.094
100
AcDbArc
 50
30.2506503161
 51
149.7493496839
  0
ARC
  5
351
100
AcDbEntity
  8
0
100
AcDbCircle
 62
7
  6
CONTINUOUS
 10
11.855298704
 20
11.0220523284
 40
0.0434797825
100
AcDbArc
 50
217.5407024591
 51
235.2926971744
  0
ARC
  5
352
100
AcDbEntity
  8
0
100
AcDbCircle
 62
7
  6
CONTINUOUS
 10
15.1595760375
 20
13.736463812
 40
0.0301533521
100
AcDbArc
 50
98.1789688858
 51
270.0
  0
ARC
  5
353
100
AcDbEntity
  8
0
100
AcDbCircle
 62
7
  6
CONTINUOUS
 10
16.0644226853
 20
7.4408946609
 40
6.3904157991
100
AcDbArc
 50
81.821031102
 51
98.178968898
  0
ARC
  5
354
100
AcDbEntity
  8
0
100
AcDbCircle
 62
7
  6
CONTINUOUS
 10
16.0644226853
 20
8.3064354599
 40
1.625
100
AcDbArc
 50
77.6106032066
 51
102.3893967934
  0
ARC
  5
355
100
AcDbEntity
  8
0
100
AcDbCircle
 62
7
  6
CONTINUOUS
 10
16.3884426934
 20
8.8487784571
 40
1.3
100
AcDbArc
 50
142.5617898183
 51
182.2248692773
  0
ARC
  5
356
100
AcDbEntity
  8
0
100
AcDbCircle
 62
6
  6
CONTINUOUS
 10
16.1556430916
 20
8.2954154202
 40
0.9
100
AcDbArc
 50
131.0803096892
 51
168.2748731241
  0
ARC
  5
357
100
AcDbEntity
  8
0
100
AcDbCircle
 62
7
  6
CONTINUOUS
 10
19.0715587964
 20
8.4783104599
 40
0.1871361111
100
AcDbArc
 50
92.1854050713
 51
180.0
  0
ARC
  5
358
100
AcDbEntity
  8
0
100
AcDbCircle
 62
7
  6
CONTINUOUS
 10
19.2514200115
 20
8.6663104599
 40
0.187
100
AcDbArc
 50
89.8459833006
 51
180.3063960031
  0
ARC
  5
359
100
AcDbEntity
  8
0
100
AcDbCircle
 62
7
  6
CONTINUOUS
 10
16.9908977433
 20
8.7272779276
 40
0.0860249421
100
AcDbArc
 50
0.0
 51
55.6615766219
  0
ARC
  5
35A
100
AcDbEntity
  8
0
100
AcDbCircle
 62
7
  6
CONTINUOUS
 10
16.6632328851
 20
10.4564519831
 40
3.0
100
AcDbArc
 50
329.6433854291
 51
355.7343714095
  0
ARC
  5
35B
100
AcDbEntity
  8
0
100
AcDbCircle
 62
7
  6
CONTINUOUS
 10
16.5467525105
 20
9.3533870305
 40
0.252
100
AcDbArc
 50
119.726812649
 51
170.0000000003
  0
ARC
  5
35C
100
AcDbEntity
  8
0
100
AcDbCircle
 62
7
  6
CONTINUOUS
 10
16.9711172301
 20
9.7910319737
 40
0.25
100
AcDbArc
 50
182.1504122668
 51
217.4382101821
  0
ARC
  5
35D
100
AcDbEntity
  8
0
100
AcDbCircle
 62
7
  6
CONTINUOUS
 10
16.4704226853
 20
9.7349354599
 40
0.0315
100
AcDbArc
 50
270.0
 51
90.0
  0
ARC
  5
35E
100
AcDbEntity
  8
0
100
AcDbCircle
 62
7
  6
CONTINUOUS
 10
16.4064226853
 20
9.8633143891
 40
0.031
100
AcDbArc
 50
0.0
 51
77.610603874
  0
ARC
  5
35F
100
AcDbEntity
  8
0
100
AcDbCircle
 62
7
  6
CONTINUOUS
 10
16.4394226853
 20
9.7954354599
 40
0.031
100
AcDbArc
 50
0.0000000007
 51
90.0000218738
  0
ARC
  5
360
100
AcDbEntity
  8
0
100
AcDbCircle
 62
7
  6
CONTINUOUS
 10
16.4394226853
 20
9.6734354599
 40
0.031
100
AcDbArc
 50
269.9999838941
 51
359.9999999997
  0
ARC
  5
361
100
AcDbEntity
  8
0
100
AcDbCircle
 62
7
  6
CONTINUOUS
 10
16.4064226853
 20
9.599144106
 40
0.031
100
AcDbArc
 50
299.7268126492
 51
359.9999999998
  0
ARC
  5
362
100
AcDbEntity
  8
0
100
AcDbCircle
 62
6
  6
CONTINUOUS
 10
16.5526375855
 20
8.9600955597
 40
0.0182149002
100
AcDbArc
 50
48.9200744397
 51
114.4589972653
  0
ARC
  5
363
100
AcDbEntity
  8
0
100
AcDbCircle
 62
7
  6
CONTINUOUS
 10
21.0572865742
 20
8.4783104599
 40
0.1871361111
100
AcDbArc
 50
0.0
 51
87.8145949287
  0
ARC
  5
364
100
AcDbEntity
  8
0
100
AcDbCircle
 62
7
  6
CONTINUOUS
 10
20.8774253591
 20
8.6663104599
 40
0.187
100
AcDbArc
 50
359.6936039969
 51
90.1540166994
  0
ARC
  5
365
100
AcDbEntity
  8
0
100
AcDbCircle
 62
7
  6
CONTINUOUS
 10
23.4656124855
 20
10.4564519831
 40
3.0
100
AcDbArc
 50
184.2656285905
 51
210.3566145709
  0
ARC
  5
366
100
AcDbEntity
  8
0
100
AcDbCircle
 62
7
  6
CONTINUOUS
 10
19.2362012086
 20
11.097107129
 40
2.8029409183
100
AcDbArc
 50
138.7201956428
 51
141.1133142206
  0
ARC
  5
367
100
AcDbEntity
  8
0
100
AcDbCircle
 62
7
  6
CONTINUOUS
 10
20.5542146896
 20
11.0804386064
 40
0.2604328351
100
AcDbArc
 50
202.5588788555
 51
210.9313398587
  0
ARC
  5
368
100
AcDbEntity
  8
0
100
AcDbCircle
 62
7
  6
CONTINUOUS
 10
19.5750714002
 20
11.0802095068
 40
0.2599381183
100
AcDbArc
 50
329.3472170393
 51
338.0944038223
  0
ARC
  5
369
100
AcDbEntity
  8
0
100
AcDbCircle
 62
7
  6
CONTINUOUS
 10
19.5786577701
 20
11.0782199091
 40
0.2558385239
100
AcDbArc
 50
319.1592556056
 51
329.3210465259
  0
ARC
  5
36A
100
AcDbEntity
  8
0
100
AcDbCircle
 62
7
  6
CONTINUOUS
 10
20.5501467326
 20
11.0781914238
 40
0.2557883839
100
AcDbArc
 50
210.9679354872
 51
221.1786814413
  0
ARC
  5
36B
100
AcDbEntity
  8
0
100
AcDbCircle
 62
7
  6
CONTINUOUS
 10
20.5473093916
 20
11.0775344881
 40
0.2529417781
100
AcDbArc
 50
200.3558509448
 51
202.5514458231
  0
ARC
  5
36C
100
AcDbEntity
  8
0
100
AcDbCircle
 62
7
  6
CONTINUOUS
 10
19.5823944049
 20
11.0771899241
 40
0.2520173043
100
AcDbArc
 50
338.1102076027
 51
339.3669322726
  0
ARC
  5
36D
100
AcDbEntity
  8
0
100
AcDbCircle
 62
7
  6
CONTINUOUS
 10
19.5872091928
 20
11.0753865304
 40
0.2468758717
100
AcDbArc
 50
339.3648606114
 51
341.1343103915
  0
ARC
  5
36E
100
AcDbEntity
  8
0
100
AcDbCircle
 62
7
  6
CONTINUOUS
 10
20.5407972739
 20
11.0750950762
 40
0.2459877925
100
AcDbArc
 50
198.8646329119
 51
200.3507655771
  0
ARC
  5
36F
100
AcDbEntity
  8
0
100
AcDbCircle
 62
7
  6
CONTINUOUS
 10
16.9919226853
 20
13.5563104599
 40
0.15
100
AcDbArc
 50
65.3756816478
 51
89.9999999999
  0
ARC
  5
370
100
AcDbEntity
  8
0
100
AcDbCircle
 62
7
  6
CONTINUOUS
 10
16.6744226853
 20
12.0211436077
 40
0.15
100
AcDbArc
 50
330.0735651326
 51
360.0
  0
ARC
  5
371
100
AcDbEntity
  8
0
100
AcDbCircle
 62
7
  6
CONTINUOUS
 10
16.9244226853
 20
12.5805712288
 40
0.1
100
AcDbArc
 50
135.6687919531
 51
180.0
  0
ARC
  5
372
100
AcDbEntity
  8
0
100
AcDbCircle
 62
7
  6
CONTINUOUS
 10
19.7396226853
 20
11.6155604599
 40
0.094
100
AcDbArc
 50
30.2506503161
 51
149.7493496839
  0
ARC
  5
373
100
AcDbEntity
  8
0
100
AcDbCircle
 62
7
  6
CONTINUOUS
 10
20.0644226853
 20
11.6155604599
 40
0.094
100
AcDbArc
 50
30.2508683644
 51
149.7491316356
  0
ARC
  5
374
100
AcDbEntity
  8
0
100
AcDbCircle
 62
7
  6
CONTINUOUS
 10
19.9020226853
 20
11.6155604599
 40
0.094
100
AcDbArc
 50
30.2414154727
 51
149.7572151854
  0
ARC
  5
375
100
AcDbEntity
  8
0
100
AcDbCircle
 62
7
  6
CONTINUOUS
 10
19.7396226853
 20
10.9735604599
 40
0.094
100
AcDbArc
 50
210.2506503161
 51
269.8780939942
  0
ARC
  5
376
100
AcDbEntity
  8
0
100
AcDbCircle
 62
7
  6
CONTINUOUS
 10
20.2268226853
 20
11.6155604599
 40
0.094
100
AcDbArc
 50
30.2507767033
 51
149.7585845273
  0
ARC
  5
377
100
AcDbEntity
  8
0
100
AcDbCircle
 62
7
  6
CONTINUOUS
 10
20.3892226853
 20
10.9735604599
 40
0.094
100
AcDbArc
 50
270.1219060058
 51
329.7493496839
  0
ARC
  5
378
100
AcDbEntity
  8
0
100
AcDbCircle
 62
7
  6
CONTINUOUS
 10
20.3892226853
 20
11.6155604599
 40
0.094
100
AcDbArc
 50
30.2506503161
 51
149.7493496839
  0
ARC
  5
379
100
AcDbEntity
  8
0
100
AcDbCircle
 62
7
  6
CONTINUOUS
 10
20.2734375134
 20
11.022168878
 40
0.0436373566
100
AcDbArc
 50
304.0740716343
 51
322.4252844428
  0
ARC
  5
37A
100
AcDbEntity
  8
0
100
AcDbCircle
 62
7
  6
CONTINUOUS
 10
19.8553015028
 20
11.0220552872
 40
0.0434838046
100
AcDbArc
 50
217.5415467278
 51
234.2255179463
  0
ARC
  5
37B
100
AcDbEntity
  8
0
100
AcDbCircle
 62
7
  6
CONTINUOUS
 10
16.9692693332
 20
13.736463812
 40
0.0301533521
100
AcDbArc
 50
270.0
 51
81.8210311142
  0
SPLINE
  5
37C
100
AcDbEntity
  8
0
100
AcDbSpline
 62
7
  6
CONTINUOUS
 70
0
 71
3
 72
9
 73
5
 74
3
 42
0.0000001
 43
0.0000001
 44
0.0000000001
 12
-0.0075597405
 22
0.0049523079
 32
0.0
 13
-0.0079721082
 23
0.0042614533
 33
0.0
 40
0.0
 40
0.0
 40
0.0
 40
0.0
 40
0.7520781864
 40
1.0
 40
1.0
 40
1.0
 40
1.0
 10
17.0621544754
 20
13.6879940821
 30
0.0
 10
17.0602593034
 20
13.6892355897
 30
0.0
 10
17.0577133728
 20
13.690851204
 30
0.0
 10
17.0550815052
 20
13.6923171923
 30
0.0
 10
17.0544226853
 20
13.6926693614
 30
0.0
 11
17.0621544754
 21
13.6879940821
 31
0.0
 11
17.0563812178
 21
13.6915810946
 31
0.0
 11
17.0544226853
 21
13.6926693614
 31
0.0
  0
SPLINE
  5
37D
100
AcDbEntity
  8
0
100
AcDbSpline
 62
7
  6
CONTINUOUS
 70
0
 71
3
 72
19
 73
15
 74
13
 42
0.0000001
 43
0.0000001
 44
0.0000000001
 12
0.1443316902
 22
-0.0759019309
 32
0.0
 13
0.0
 23
-0.1629956849
 33
0.0
 40
0.0
 40
0.0
 40
0.0
 40
0.0
 40
0.0172369196
 40
0.0389657745
 40
0.0696343577
 40
0.1092960465
 40
0.1577962852
 40
0.2151068334
 40
0.2811985363
 40
0.4356419605
 40
0.6128728478
 40
0.707239492
 40
0.8039345073
 40
1.0
 40
1.0
 40
1.0
 40
1.0
 10
17.0544226853
 20
13.6926693614
 30
0.0
 10
17.0552519632
 20
13.6922332562
 30
0.0
 10
17.057099884
 20
13.6911998458
 30
0.0
 10
17.0603218813
 20
13.6892147479
 30
0.0
 10
17.0645006712
 20
13.6864649725
 30
0.0
 10
17.0697579023
 20
13.6827129938
 30
0.0
 10
17.0759257068
 20
13.6777625272
 30
0.0
 10
17.0828196505
 20
13.6714499102
 30
0.0
 10
17.0932117214
 20
13.6604860268
 30
0.0
 10
17.1062196976
 20
13.6430987443
 30
0.0
 10
17.116693674
 20
13.6223061619
 30
0.0
 10
17.1232818282
 20
13.6033842324
 30
0.0
 10
17.1282398267
 20
13.5829197923
 30
0.0
 10
17.1298002895
 20
13.5669630697
 30
0.0
 10
17.1298002895
 20
13.5563104599
 30
0.0
 11
17.0544226853
 21
13.6926693614
 31
0.0
 11
17.0568780585
 21
13.6913038296
 31
0.0
 11
17.0599003287
 21
13.6894573221
 31
0.0
 11
17.0640770587
 21
13.6867107979
 31
0.0
 11
17.0693339882
 21
13.6829482412
 31
0.0
 11
17.0755011519
 21
13.6780025027
 31
0.0
 11
17.0823955894
 21
13.6716994905
 31
0.0
 11
17.0898140757
 21
13.6638881964
 31
0.0
 11
17.104890662
 21
13.643728651
 31
0.0
 11
17.1179564318
 21
13.6179644377
 31
0.0
 11
17.1230033505
 21
13.6034346505
 31
0.0
 11
17.1267283799
 21
13.5881203047
 31
0.0
 11
17.1298002895
 21
13.5563104599
 31
0.0
  0
SPLINE
  5
37E
100
AcDbEntity
  8
0
100
AcDbSpline
 62
7
  6
CONTINUOUS
 70
0
 71
3
 72
10
 73
6
 74
4
 42
0.0000001
 43
0.0000001
 44
0.0000000001
 12
0.0
 22
0.0635145178
 32
0.0
 13
0.0003551881
 23
0.0635135246
 33
0.0
 40
0.0
 40
0.0
 40
0.0
 40
0.0
 40
0.5170933142
 40
0.765386256
 40
1.0
 40
1.0
 40
1.0
 40
1.0
 10
15.4250536418
 20
13.5563104599
 30
0.0
 10
15.4250536418
 20
13.5672581041
 30
0.0
 10
15.425288912
 20
13.5834620465
 30
0.0
 10
15.4256955793
 20
13.6046292549
 30
0.0
 10
15.4258639428
 20
13.6148521001
 30
0.0
 10
15.4258917202
 20
13.6198191487
 30
0.0
 11
15.4250536418
 21
13.5563104599
 31
0.0
 11
15.425406221
 21
13.5891514999
 31
0.0
 11
15.425693735
 21
13.6049190852
 31
0.0
 11
15.4258917202
 21
13.6198191487
 31
0.0
  0
SPLINE
  5
37F
100
AcDbEntity
  8
0
100
AcDbSpline
 62
7
  6
CONTINUOUS
 70
0
 71
3
 72
20
 73
16
 74
14
 42
0.0000001
 43
0.0000001
 44
0.0000000001
 12
0.0
 22
0.1630230849
 32
0.0
 13
0.1438769922
 23
0.0767958567
 33
0.0
 40
0.0
 40
0.0
 40
0.0
 40
0.0
 40
0.1960988737
 40
0.2928390836
 40
0.387239503
 40
0.4782627866
 40
0.564695946
 40
0.7189946213
 40
0.78513108
 40
0.8425004142
 40
0.8909095364
 40
0.9304529332
 40
0.9610733839
 40
0.9827794008
 40
1.0
 40
1.0
 40
1.0
 40
1.0
 10
14.9990450811
 20
13.5563104599
 30
0.0
 10
14.9990450811
 20
13.5669666744
 30
0.0
 10
15.0006121398
 20
13.5829302884
 30
0.0
 10
15.0055668842
 20
13.6034033019
 30
0.0
 10
15.0106147128
 20
13.617908566
 30
0.0
 10
15.0167350109
 20
13.6313758311
 30
0.0
 10
15.0256044631
 20
13.647092492
 30
0.0
 10
15.0356526583
 20
13.6605144
 30
0.0
 10
15.0460565134
 20
13.6714652639
 30
0.0
 10
15.0529478182
 20
13.6777839682
 30
0.0
 10
15.0591057034
 20
13.6827358308
 30
0.0
 10
15.0643536161
 20
13.6864792617
 30
0.0
 10
15.0685356577
 20
13.6892069029
 30
0.0
 10
15.0717544759
 20
13.6911888875
 30
0.0
 10
15.0735968026
 20
13.6922285378
 30
0.0
 10
15.0744226853
 20
13.6926693614
 30
0.0
 11
14.9990450811
 21
13.5563104599
 31
0.0
 11
15.0021213289
 21
13.5881307499
 31
0.0
 11
15.005846268
 21
13.6034554268
 31
0.0
 11
15.0108973211
 21
13.6179923439
 31
0.0
 11
15.0170354682
 21
13.6315021921
 31
0.0
 11
15.0239765736
 21
13.6437645765
 31
0.0
 11
15.0390477369
 21
13.6639039939
 31
0.0
 11
15.0464781745
 21
13.6717164936
 31
0.0
 11
15.0533782006
 21
13.678029922
 31
0.0
 11
15.0595316004
 21
13.6829712021
 31
0.0
 11
15.0647766709
 21
13.686719058
 31
0.0
 11
15.0689550949
 21
13.6894502195
 31
0.0
 11
15.0719747283
 21
13.6912950434
 31
0.0
 11
15.0744226853
 21
13.6926693614
 31
0.0
  0
SPLINE
  5
380
100
AcDbEntity
  8
0
100
AcDbSpline
 62
7
  6
CONTINUOUS
 70
0
 71
3
 72
9
 73
5
 74
3
 42
0.0000001
 43
0.0000001
 44
0.0000000001
 12
-0.0079389969
 22
-0.0053642055
 32
0.0
 13
-0.0088944109
 23
-0.0035625591
 33
0.0
 40
0.0
 40
0.0
 40
0.0
 40
0.0
 40
0.2520297895
 40
1.0
 40
1.0
 40
1.0
 40
1.0
 10
20.2978859626
 20
10.9860234465
 30
0.0
 10
20.297219008
 20
10.9855727999
 30
0.0
 10
20.2945238257
 20
10.9838578165
 30
0.0
 10
20.2916429865
 20
10.9824370297
 30
0.0
 10
20.2894254017
 20
10.9815488004
 30
0.0
 11
20.2978859626
 21
10.9860234465
 31
0.0
 11
20.2958486828
 21
10.9847270332
 31
0.0
 11
20.2894254017
 21
10.9815488004
 31
0.0
  0
SPLINE
  5
381
100
AcDbEntity
  8
0
100
AcDbSpline
 62
7
  6
CONTINUOUS
 70
0
 71
3
 72
17
 73
13
 74
11
 42
0.0000001
 43
0.0000001
 44
0.0000000001
 12
-0.1933517681
 22
-0.0774449385
 32
0.0
 13
-0.0540144727
 23
0.2011592938
 33
0.0
 40
0.0
 40
0.0
 40
0.0
 40
0.0
 40
0.0514669194
 40
0.1040293788
 40
0.1585285024
 40
0.2152266418
 40
0.334859144
 40
0.4616176518
 40
0.5931227155
 40
0.7276118729
 40
0.8635112954
 40
1.0
 40
1.0
 40
1.0
 40
1.0
 10
20.2894254017
 20
10.9815488004
 30
0.0
 10
20.2861083284
 20
10.9802201829
 30
0.0
 10
20.2790709746
 20
10.9783122473
 30
0.0
 10
20.268029473
 20
10.9776257258
 30
0.0
 10
20.2566754975
 20
10.9787890851
 30
0.0
 10
20.2410740003
 20
10.9826338506
 30
0.0
 10
20.2217670416
 20
10.9914909762
 30
0.0
 10
20.2004905461
 20
11.0070997675
 30
0.0
 10
20.1817130737
 20
11.027063191
 30
0.0
 10
20.1660843207
 20
11.0503164239
 30
0.0
 10
20.1539679067
 20
11.0759328551
 30
0.0
 10
20.1480801404
 20
11.093955228
 30
0.0
 10
20.1456226853
 20
11.1031072185
 30
0.0
 11
20.2894254017
 21
10.9815488004
 31
0.0
 11
20.2790941047
 21
10.978689063
 31
0.0
 11
20.268172537
 21
10.9779291933
 31
0.0
 11
20.2568745557
 21
10.9790286094
 31
0.0
 11
20.2453985408
 21
10.9818146987
 31
0.0
 11
20.2226506998
 21
10.9919845101
 31
0.0
 11
20.201286151
 21
11.0074963086
 31
0.0
 11
20.1824358139
 21
11.0273685444
 31
0.0
 11
20.1667484819
 21
11.0505759487
 31
0.0
 11
20.1545389747
 21
11.0761131095
 31
0.0
 11
20.1456226853
 21
11.1031072185
 31
0.0
  0
SPLINE
  5
382
100
AcDbEntity
  8
0
100
AcDbSpline
 62
7
  6
CONTINUOUS
 70
0
 71
3
 72
11
 73
7
 74
5
 42
0.0000001
 43
0.0000001
 44
0.0000000001
 12
-0.029702684
 22
-0.0343703959
 32
0.0
 13
-0.0362069875
 23
-0.0274477308
 33
0.0
 40
0.0
 40
0.0
 40
0.0
 40
0.0
 40
0.437494598
 40
0.7511698021
 40
0.9381538642
 40
1.0
 40
1.0
 40
1.0
 40
1.0
 10
19.7722073401
 20
10.9109120663
 30
0.0
 10
19.7678757522
 20
10.9058997788
 30
0.0
 10
19.7601029421
 20
10.897571184
 30
0.0
 10
19.7496346681
 20
10.8879597956
 30
0.0
 10
19.743142537
 20
10.8824407725
 30
0.0
 10
19.7401691061
 20
10.8801265181
 30
0.0
 10
19.7394226853
 20
10.8795606727
 30
0.0
 11
19.7722073401
 21
10.9109120663
 31
0.0
 11
19.7586151199
 21
10.8964130087
 31
0.0
 11
19.748145716
 21
10.8867470382
 31
0.0
 11
19.7416409095
 21
10.881284777
 31
0.0
 11
19.7394226853
 21
10.8795606727
 31
0.0
  0
SPLINE
  5
383
100
AcDbEntity
  8
0
100
AcDbSpline
 62
7
  6
CONTINUOUS
 70
0
 71
3
 72
17
 73
13
 74
11
 42
0.0000001
 43
0.0000001
 44
0.0000000001
 12
-0.0568220869
 22
-0.2116153376
 32
0.0
 13
-0.1777730835
 23
0.1280879831
 33
0.0
 40
0.0
 40
0.0
 40
0.0
 40
0.0
 40
0.1378932341
 40
0.2750952044
 40
0.4106027727
 40
0.5425717785
 40
0.6688009398
 40
0.7866925598
 40
0.8422153739
 40
0.8955800466
 40
0.9476176653
 40
1.0
 40
1.0
 40
1.0
 40
1.0
 10
19.9832226853
 20
11.1031072185
 30
0.0
 10
19.9806108915
 20
11.0933804441
 30
0.0
 10
19.9742917005
 20
11.07424576
 30
0.0
 10
19.9610705461
 20
11.0472072175
 30
0.0
 10
19.9439142431
 20
11.0229651408
 30
0.0
 10
19.923300021
 20
11.0026715855
 30
0.0
 10
19.9001573795
 20
10.9875279495
 30
0.0
 10
19.8793626694
 20
10.9798833348
 30
0.0
 10
19.8628877869
 20
10.9776662242
 30
0.0
 10
19.8510701869
 20
10.978074247
 30
0.0
 10
19.8397970126
 20
10.9808892009
 30
0.0
 10
19.832985084
 20
10.9845393057
 30
0.0
 10
19.8298810276
 20
10.9867758215
 30
0.0
 11
19.9832226853
 21
11.1031072185
 31
0.0
 11
19.973637952
 21
11.0744538181
 31
0.0
 11
19.9603122195
 21
11.047506098
 31
0.0
 11
19.9430801568
 21
11.0233270487
 31
0.0
 11
19.9223805913
 21
11.0031365072
 31
0.0
 11
19.8991310935
 21
10.9881552032
 31
0.0
 11
19.8747739866
 21
10.9795533204
 31
0.0
 11
19.8627086905
 21
10.977993698
 31
0.0
 11
19.8510264684
 21
10.9784911265
 31
0.0
 11
19.8399827031
 21
10.9813269065
 31
0.0
 11
19.8298810276
 21
10.9867758215
 31
0.0
  0
SPLINE
  5
384
100
AcDbEntity
  8
0
100
AcDbSpline
 62
7
  6
CONTINUOUS
 70
0
 71
3
 72
19
 73
15
 74
13
 42
0.0000001
 43
0.0000001
 44
0.0000000001
 12
-0.0736885501
 22
-0.2118452845
 32
0.0
 13
-0.0736885501
 23
0.2118452845
 33
0.0
 40
0.0
 40
0.0
 40
0.0
 40
0.0
 40
0.1247392033
 40
0.1871472298
 40
0.2496636042
 40
0.3121719465
 40
0.3747591348
 40
0.5000001183
 40
0.625241132
 40
0.6878283316
 40
0.7503365755
 40
0.8128528855
 40
0.875260877
 40
1.0
 40
1.0
 40
1.0
 40
1.0
 10
20.1456226853
 20
11.1031072185
 30
0.0
 10
20.142558735
 20
11.0942987478
 30
0.0
 10
20.1367279998
 20
11.0814146523
 30
0.0
 10
20.1258809452
 20
11.0661566213
 30
0.0
 10
20.1160941144
 20
11.0560468785
 30
0.0
 10
20.1048003617
 20
11.0476109295
 30
0.0
 10
20.0879871026
 20
11.0391945065
 30
0.0
 10
20.0644226523
 20
11.0346878322
 30
0.0
 10
20.0408582202
 20
11.0391945477
 30
0.0
 10
20.0240449506
 20
11.0476109411
 30
0.0
 10
20.0127512184
 20
11.0560469021
 30
0.0
 10
20.0029644138
 20
11.0661566476
 30
0.0
 10
19.9921173637
 20
11.0814146646
 30
0.0
 10
19.9862866337
 20
11.0942987535
 30
0.0
 10
19.9832226853
 20
11.1031072185
 30
0.0
 11
20.1456226853
 21
11.1031072185
 31
0.0
 11
20.1337641304
 21
11.0777662003
 31
0.0
 11
20.125612278
 21
11.0663869807
 31
0.0
 11
20.115844168
 21
11.0563269456
 31
0.0
 11
20.1045875533
 21
11.0479688129
 31
0.0
 11
20.0920260351
 21
11.041701898
 31
0.0
 11
20.0644226584
 21
11.0364907019
 31
0.0
 11
20.0368192804
 21
11.0417019279
 31
0.0
 11
20.0242577555
 21
11.0479688351
 31
0.0
 11
20.0130011671
 21
11.0563269663
 31
0.0
 11
20.0032330791
 21
11.0663870025
 31
0.0
 11
19.9950812322
 21
11.0777662165
 31
0.0
 11
19.9832226853
 21
11.1031072185
 31
0.0
  0
SPLINE
  5
385
100
AcDbEntity
  8
0
100
AcDbSpline
 62
7
  6
CONTINUOUS
 70
0
 71
3
 72
11
 73
7
 74
5
 42
0.0000001
 43
0.0000001
 44
0.0000000001
 12
-0.034989251
 22
0.026564866
 32
0.0
 13
-0.0289203774
 23
0.0330591399
 33
0.0
 40
0.0
 40
0.0
 40
0.0
 40
0.0
 40
0.0618438026
 40
0.2487770068
 40
0.5623181516
 40
1.0
 40
1.0
 40
1.0
 40
1.0
 10
12.3894226853
 20
10.8795606727
 30
0.0
 10
12.3887013959
 20
10.8801082968
 30
0.0
 10
12.3858274378
 20
10.882346133
 30
0.0
 10
12.3795444524
 20
10.887671309
 30
0.0
 10
12.3693981161
 20
10.8969377676
 30
0.0
 10
12.3618443707
 20
10.9049548045
 30
0.0
 10
12.3576250626
 20
10.909777933
 30
0.0
 11
12.3894226853
 21
10.8795606727
 31
0.0
 11
12.3872783402
 21
10.8812282079
 31
0.0
 11
12.3809840975
 21
10.8865007628
 31
0.0
 11
12.3708401681
 21
10.8958155854
 31
0.0
 11
12.3576250626
 21
10.909777933
 31
0.0
  0
SPLINE
  5
386
100
AcDbEntity
  8
0
100
AcDbSpline
 62
7
  6
CONTINUOUS
 70
0
 71
3
 72
18
 73
14
 74
12
 42
0.0000001
 43
0.0000001
 44
0.0000000001
 12
-0.1414386489
 22
-0.183544585
 32
0.0
 13
-0.0600915091
 23
0.2237912344
 33
0.0
 40
0.0
 40
0.0
 40
0.0
 40
0.0
 40
0.0550059804
 40
0.1077422837
 40
0.160262828
 40
0.2143911538
 40
0.2709194481
 40
0.3300176362
 40
0.4549367619
 40
0.5868109513
 40
0.7228951573
 40
0.8610429147
 40
1.0
 40
1.0
 40
1.0
 40
1.0
 10
12.3080226853
 20
10.9955590157
 30
0.0
 10
12.3054293615
 20
10.9921936657
 30
0.0
 10
12.2993503417
 20
10.9863011431
 30
0.0
 10
12.2882332661
 20
10.9805215148
 30
0.0
 10
12.2760990234
 20
10.9778219687
 30
0.0
 10
12.2634182306
 20
10.9778114302
 30
0.0
 10
12.2504435151
 20
10.9800497263
 30
0.0
 10
12.2327499692
 20
10.9858970686
 30
0.0
 10
12.2113174941
 20
10.9980892425
 30
0.0
 10
12.188636456
 20
11.0185468435
 30
0.0
 10
12.1697134216
 20
11.0437924175
 30
0.0
 10
12.1552124525
 20
11.0723719749
 30
0.0
 10
12.1484060656
 20
11.0927414259
 30
0.0
 10
12.1456226853
 20
11.1031072185
 30
0.0
 11
12.3080226853
 21
10.9955590157
 31
0.0
 11
12.2988587304
 21
10.9867001156
 31
0.0
 11
12.2880395851
 21
10.9810190898
 31
0.0
 11
12.2761805542
 21
10.9782856012
 31
0.0
 11
12.2636386198
 21
10.9781624092
 31
0.0
 11
12.2507194242
 21
10.9803232413
 31
0.0
 11
12.2376998287
 21
10.9845682207
 31
0.0
 11
12.2124041687
 21
10.9986396584
 31
0.0
 11
12.18960213
 21
11.01898272
 31
0.0
 11
12.1705862415
 21
11.0441370685
 31
0.0
 11
12.1559662686
 21
11.072614891
 31
0.0
 11
12.1456226853
 21
11.1031072185
 31
0.0
  0
SPLINE
  5
387
100
AcDbEntity
  8
0
100
AcDbSpline
 62
7
  6
CONTINUOUS
 70
0
 71
3
 72
11
 73
7
 74
5
 42
0.0000001
 43
0.0000001
 44
0.0000000001
 12
-0.029702684
 22
-0.0343703959
 32
0.0
 13
-0.0362069875
 23
-0.0274477308
 33
0.0
 40
0.0
 40
0.0
 40
0.0
 40
0.0
 40
0.437494598
 40
0.7511698021
 40
0.9381538642
 40
1.0
 40
1.0
 40
1.0
 40
1.0
 10
11.7722073401
 20
10.9109120663
 30
0.0
 10
11.7678757522
 20
10.9058997788
 30
0.0
 10
11.7601029421
 20
10.897571184
 30
0.0
 10
11.7496346681
 20
10.8879597956
 30
0.0
 10
11.743142537
 20
10.8824407725
 30
0.0
 10
11.7401691061
 20
10.8801265181
 30
0.0
 10
11.7394226853
 20
10.8795606727
 30
0.0
 11
11.7722073401
 21
10.9109120663
 31
0.0
 11
11.7586151199
 21
10.8964130087
 31
0.0
 11
11.748145716
 21
10.8867470382
 31
0.0
 11
11.7416409095
 21
10.881284777
 31
0.0
 11
11.7394226853
 21
10.8795606727
 31
0.0
  0
SPLINE
  5
388
100
AcDbEntity
  8
0
100
AcDbSpline
 62
7
  6
CONTINUOUS
 70
0
 71
3
 72
17
 73
13
 74
11
 42
0.0000001
 43
0.0000001
 44
0.0000000001
 12
-0.0566140128
 22
-0.2108404334
 32
0.0
 13
-0.1794590418
 23
0.1243112509
 33
0.0
 40
0.0
 40
0.0
 40
0.0
 40
0.0
 40
0.137800811
 40
0.2749179789
 40
0.4103632041
 40
0.5423120124
 40
0.6685978115
 40
0.7866340307
 40
0.8422457159
 40
0.8956868692
 40
0.9477290343
 40
1.0
 40
1.0
 40
1.0
 40
1.0
 10
11.9832226853
 20
11.1031072185
 30
0.0
 10
11.9806221997
 20
11.0934225576
 30
0.0
 10
11.9743348208
 20
11.0743693192
 30
0.0
 10
11.961196167
 20
11.0474338353
 30
0.0
 10
11.9441536295
 20
11.0232615038
 30
0.0
 10
11.9236754595
 20
11.0029864019
 30
0.0
 10
11.900668727
 20
10.9878007069
 30
0.0
 10
11.8799802413
 20
10.9800563237
 30
0.0
 10
11.863563523
 20
10.9777096523
 30
0.0
 10
11.8517754767
 20
10.9779882605
 30
0.0
 10
11.8405091712
 20
10.9806293459
 30
0.0
 10
11.8336688307
 20
10.9841428831
 30
0.0
 10
11.8305419982
 20
10.9863088395
 30
0.0
 11
11.9832226853
 21
11.1031072185
 31
0.0
 11
11.9736873786
 21
11.0745752265
 31
0.0
 11
11.9604449775
 21
11.0477297767
 31
0.0
 11
11.9433280521
 21
11.0236189558
 31
0.0
 11
11.922765548
 21
11.0034460285
 31
0.0
 11
11.8996530295
 21
10.9884167404
 31
0.0
 11
11.8754084058
 21
10.9796870626
 31
0.0
 11
11.8633815834
 21
10.9780293254
 31
0.0
 11
11.8517206962
 21
10.9783971375
 31
0.0
 11
11.8406771861
 21
10.9810653672
 31
0.0
 11
11.8305419982
 21
10.9863088395
 31
0.0
  0
SPLINE
  5
389
100
AcDbEntity
  8
0
100
AcDbSpline
 62
7
  6
CONTINUOUS
 70
0
 71
3
 72
19
 73
15
 74
13
 42
0.0000001
 43
0.0000001
 44
0.0000000001
 12
-0.0736885501
 22
-0.2118452845
 32
0.0
 13
-0.0736885501
 23
0.2118452845
 33
0.0
 40
0.0
 40
0.0
 40
0.0
 40
0.0
 40
0.1247392033
 40
0.1871472298
 40
0.2496636042
 40
0.3121719465
 40
0.3747591348
 40
0.5000001183
 40
0.625241132
 40
0.6878283316
 40
0.7503365755
 40
0.8128528855
 40
0.875260877
 40
1.0
 40
1.0
 40
1.0
 40
1.0
 10
12.1456226853
 20
11.1031072185
 30
0.0
 10
12.142558735
 20
11.0942987478
 30
0.0
 10
12.1367279998
 20
11.0814146523
 30
0.0
 10
12.1258809452
 20
11.0661566213
 30
0.0
 10
12.1160941144
 20
11.0560468785
 30
0.0
 10
12.1048003617
 20
11.0476109295
 30
0.0
 10
12.0879871026
 20
11.0391945065
 30
0.0
 10
12.0644226523
 20
11.0346878322
 30
0.0
 10
12.0408582202
 20
11.0391945477
 30
0.0
 10
12.0240449506
 20
11.0476109411
 30
0.0
 10
12.0127512184
 20
11.0560469021
 30
0.0
 10
12.0029644138
 20
11.0661566476
 30
0.0
 10
11.9921173637
 20
11.0814146646
 30
0.0
 10
11.9862866337
 20
11.0942987535
 30
0.0
 10
11.9832226853
 20
11.1031072185
 30
0.0
 11
12.1456226853
 21
11.1031072185
 31
0.0
 11
12.1337641304
 21
11.0777662003
 31
0.0
 11
12.125612278
 21
11.0663869807
 31
0.0
 11
12.115844168
 21
11.0563269456
 31
0.0
 11
12.1045875533
 21
11.0479688129
 31
0.0
 11
12.0920260351
 21
11.041701898
 31
0.0
 11
12.0644226584
 21
11.0364907019
 31
0.0
 11
12.0368192804
 21
11.0417019279
 31
0.0
 11
12.0242577555
 21
11.0479688351
 31
0.0
 11
12.0130011671
 21
11.0563269663
 31
0.0
 11
12.0032330791
 21
11.0663870025
 31
0.0
 11
11.9950812322
 21
11.0777662165
 31
0.0
 11
11.9832226853
 21
11.1031072185
 31
0.0
  0
SPLINE
  5
38A
100
AcDbEntity
  8
0
100
AcDbSpline
 62
7
  6
CONTINUOUS
 70
0
 71
3
 72
11
 73
7
 74
5
 42
0.0000001
 43
0.0000001
 44
0.0000000001
 12
-0.034989251
 22
0.026564866
 32
0.0
 13
-0.0289203774
 23
0.0330591399
 33
0.0
 40
0.0
 40
0.0
 40
0.0
 40
0.0
 40
0.0618438026
 40
0.2487770068
 40
0.5623181516
 40
1.0
 40
1.0
 40
1.0
 40
1.0
 10
20.3894226853
 20
10.8795606727
 30
0.0
 10
20.3887013959
 20
10.8801082968
 30
0.0
 10
20.3858274378
 20
10.882346133
 30
0.0
 10
20.3795444524
 20
10.887671309
 30
0.0
 10
20.3693981161
 20
10.8969377676
 30
0.0
 10
20.3618443707
 20
10.9049548045
 30
0.0
 10
20.3576250626
 20
10.909777933
 30
0.0
 11
20.3894226853
 21
10.8795606727
 31
0.0
 11
20.3872783402
 21
10.8812282079
 31
0.0
 11
20.3809840975
 21
10.8865007628
 31
0.0
 11
20.3708401681
 21
10.8958155854
 31
0.0
 11
20.3576250626
 21
10.909777933
 31
0.0
  0
LINE
  5
38B
100
AcDbEntity
  8
0
100
AcDbLine
 62
7
  6
CONTINUOUS
 10
15.0744226853
 20
13.6926693614
 11
15.0669276236
 21
13.6881489069
  0
SPLINE
  5
38C
100
AcDbEntity
  8
0
100
AcDbSpline
 62
7
  6
CONTINUOUS
 70
0
 71
3
 72
10
 73
6
 74
4
 42
0.0000001
 43
0.0000001
 44
0.0000000001
 12
0.0003554353
 22
-0.063510714
 32
0.0
 13
0.0
 23
-0.0635117086
 33
0.0
 40
0.0
 40
0.0
 40
0.0
 40
0.0
 40
0.2346155865
 40
0.4829080787
 40
1.0
 40
1.0
 40
1.0
 40
1.0
 10
16.7029536342
 20
13.6198163387
 30
0.0
 10
16.7029814311
 20
13.6148494709
 30
0.0
 10
16.7031498449
 20
13.6046270493
 30
0.0
 10
16.7035565582
 20
13.5834607782
 30
0.0
 10
16.7037917288
 20
13.5672575904
 30
0.0
 10
16.7037917288
 20
13.5563104599
 30
0.0
 11
16.7029536342
 21
13.6198163387
 31
0.0
 11
16.7031516822
 21
13.6049168182
 31
0.0
 11
16.7034392231
 21
13.5891499595
 31
0.0
 11
16.7037917288
 21
13.5563104599
 31
0.0
  0
SPLINE
  5
38D
100
AcDbEntity
  8
0
100
AcDbSpline
 62
7
  6
CONTINUOUS
 70
0
 71
3
 72
9
 73
5
 74
3
 42
0.0000001
 43
0.0000001
 44
0.0000000001
 12
0.0001365607
 22
0.0244193287
 32
0.0
 13
-0.0019314833
 23
0.0243432051
 33
0.0
 40
0.0
 40
0.0
 40
0.0
 40
0.0
 40
0.2671301132
 40
1.0
 40
1.0
 40
1.0
 40
1.0
 10
15.4258917202
 20
13.6198191487
 30
0.0
 10
15.42590388
 20
13.6219935281
 30
0.0
 10
15.4259071715
 20
13.6301323434
 30
0.0
 10
15.4256996489
 20
13.6382797812
 30
0.0
 10
15.4252278069
 20
13.6442265819
 30
0.0
 11
15.4258917202
 21
13.6198191487
 31
0.0
 11
15.4258905951
 21
13.6263423887
 31
0.0
 11
15.4252278069
 21
13.6442265819
 31
0.0
  0
SPLINE
  5
38E
100
AcDbEntity
  8
0
100
AcDbSpline
 62
7
  6
CONTINUOUS
 70
0
 71
3
 72
26
 73
22
 74
20
 42
0.0000001
 43
0.0000001
 44
0.0000000001
 12
-0.0261416486
 22
0.3294729526
 32
0.0
 13
-0.0
 23
-0.3305084149
 33
0.0
 40
0.0
 40
0.0
 40
0.0
 40
0.0
 40
0.0511216445
 40
0.0729539303
 40
0.0928150642
 40
0.1114134593
 40
0.129632771
 40
0.1679090691
 40
0.2120200532
 40
0.263208118
 40
0.3213801914
 40
0.3857907959
 40
0.4556378935
 40
0.5295227159
 40
0.6062601606
 40
0.6845379967
 40
0.7239099191
 40
0.763352717
 40
0.8422640468
 40
0.9212641631
 40
1.0
 40
1.0
 40
1.0
 40
1.0
 10
15.4252278069
 20
13.6442265819
 30
0.0
 10
15.4247823389
 20
13.6498409816
 30
0.0
 10
15.4237530182
 20
13.6578685414
 30
0.0
 10
15.4207041989
 20
13.6676574792
 30
0.0
 10
15.4177677176
 20
13.6736538444
 30
0.0
 10
15.4139760783
 20
13.6786665247
 30
0.0
 10
15.407746626
 20
13.6841893378
 30
0.0
 10
15.3975549108
 20
13.6890251156
 30
0.0
 10
15.3830687686
 20
13.6919872705
 30
0.0
 10
15.3661506314
 20
13.6929363053
 30
0.0
 10
15.346996209
 20
13.6922652085
 30
0.0
 10
15.3259310708
 20
13.6896347713
 30
0.0
 10
15.3034919123
 20
13.6847435944
 30
0.0
 10
15.2804189725
 20
13.6769335831
 30
0.0
 10
15.2578886216
 20
13.6653799241
 30
0.0
 10
15.2406452805
 20
13.6524545768
 30
0.0
 10
15.2284767151
 20
13.6401066241
 30
0.0
 10
15.2176332036
 20
13.6264954434
 30
0.0
 10
15.2067808005
 20
13.6074507214
 30
0.0
 10
15.1989026728
 20
13.5824115187
 30
0.0
 10
15.197120272
 20
13.5649847455
 30
0.0
 10
15.197120272
 20
13.5563104599
 30
0.0
 11
15.4252278069
 21
13.6442265819
 31
0.0
 11
15.4226684786
 21
13.6609277547
 31
0.0
 11
15.4204581787
 21
13.6677966471
 31
0.0
 11
15.4175196237
 21
13.6736664478
 31
0.0
 11
15.4137998503
 21
13.6785601156
 31
0.0
 11
15.4093026606
 21
13.6825645361
 31
0.0
 11
15.3980188942
 21
13.6882842628
 31
0.0
 11
15.3837997781
 21
13.6915038091
 31
0.0
 11
15.3669207284
 21
13.6926524257
 31
0.0
 11
15.3477048205
 21
13.6920185543
 31
0.0
 11
15.3265775736
 21
13.6894053401
 31
0.0
 11
15.3040342259
 21
13.6844337033
 31
0.0
 11
15.2809431203
 21
13.6764891748
 31
0.0
 11
15.258409577
 21
13.6648491877
 31
0.0
 11
15.2377797489
 21
13.6492368895
 31
0.0
 11
15.228653557
 21
13.6399608814
 31
0.0
 11
15.2205274924
 21
13.6297673062
 31
0.0
 11
15.2076413447
 21
13.6070922455
 31
0.0
 11
15.1997639636
 21
13.5821986805
 31
0.0
 11
15.197120272
 21
13.5563104599
 31
0.0
  0
SPLINE
  5
38F
100
AcDbEntity
  8
0
100
AcDbSpline
 62
7
  6
CONTINUOUS
 70
0
 71
3
 72
20
 73
16
 74
14
 42
0.0000001
 43
0.0000001
 44
0.0000000001
 12
0.0003836333
 22
-0.301284633
 32
0.0
 13
0.2263519271
 23
0.1988400925
 33
0.0
 40
0.0
 40
0.0
 40
0.0
 40
0.0
 40
0.0981016302
 40
0.1441453528
 40
0.1888015914
 40
0.2335754379
 40
0.280451195
 40
0.3318624237
 40
0.3895905732
 40
0.4539269922
 40
0.5242619278
 40
0.6767390337
 40
0.75659388
 40
0.8374943969
 40
1.0
 40
1.0
 40
1.0
 40
1.0
 10
16.7029473016
 20
12.9301695495
 30
0.0
 10
16.7029598466
 20
12.9203173783
 30
0.0
 10
16.7044955019
 20
12.905678328
 30
0.0
 10
16.7110762345
 20
12.8877947808
 30
0.0
 10
16.7183725462
 20
12.8761652845
 30
0.0
 10
16.7284216403
 20
12.8666382253
 30
0.0
 10
16.7412869707
 20
12.8598343304
 30
0.0
 10
16.7567724483
 20
12.8565111456
 30
0.0
 10
16.7743067755
 20
12.8567440575
 30
0.0
 10
16.7933542399
 20
12.860441903
 30
0.0
 10
16.8207011601
 20
12.8697879771
 30
0.0
 10
16.8477862844
 20
12.8839393837
 30
0.0
 10
16.8742128083
 20
12.901005111
 30
0.0
 10
16.9005686105
 20
12.9199847287
 30
0.0
 10
16.9194639465
 20
12.9355395835
 30
0.0
 10
16.9317250987
 20
12.9463104599
 30
0.0
 11
16.7029473016
 21
12.9301695495
 31
0.0
 11
16.7066659435
 21
12.9008478746
 31
0.0
 11
16.7115687596
 21
12.8878708768
 31
0.0
 11
16.7188092187
 21
12.87653101
 31
0.0
 11
16.7286211265
 21
12.8672736882
 31
0.0
 11
16.741087621
 21
12.8606370911
 31
0.0
 11
16.7561895369
 21
12.8571940624
 31
0.0
 11
16.7735821309
 21
12.8572232531
 31
0.0
 11
16.7926447206
 21
12.8607362629
 31
0.0
 11
16.8127506351
 21
12.8674298741
 31
0.0
 11
16.8537726574
 21
12.888108115
 31
0.0
 11
16.8740120869
 21
12.9011159489
 31
0.0
 11
16.8938103379
 21
12.9153330555
 31
0.0
 11
16.9317250987
 21
12.9463104599
 31
0.0
  0
SPLINE
  5
390
100
AcDbEntity
  8
0
100
AcDbSpline
 62
7
  6
CONTINUOUS
 70
0
 71
3
 72
11
 73
7
 74
5
 42
0.0000001
 43
0.0000001
 44
0.0000000001
 12
-0.0041228089
 22
0.0090197903
 32
0.0
 13
-0.0099049099
 23
0.0004969199
 33
0.0
 40
0.0
 40
0.0
 40
0.0
 40
0.0
 40
0.249848477
 40
0.4997778243
 40
0.7504936875
 40
1.0
 40
1.0
 40
1.0
 40
1.0
 10
16.2229912825
 20
9.2198104599
 30
0.0
 10
16.2226479233
 20
9.2205616536
 30
0.0
 10
16.2215035917
 20
9.2219212178
 30
0.0
 10
16.2190556225
 20
9.2226041641
 30
0.0
 10
16.216632022
 20
9.2230651834
 30
0.0
 10
16.2149801586
 20
9.2232286699
 30
0.0
 10
16.2141563794
 20
9.2232699981
 30
0.0
 11
16.2229912825
 21
9.2198104599
 31
0.0
 11
16.2213823538
 21
9.2216948789
 31
0.0
 11
16.2190620554
 21
9.2225665883
 31
0.0
 11
16.2166191363
 21
9.223029769
 31
0.0
 11
16.2141563794
 21
9.2232699981
 31
0.0
  0
SPLINE
  5
391
100
AcDbEntity
  8
0
100
AcDbSpline
 62
7
  6
CONTINUOUS
 70
0
 71
3
 72
11
 73
7
 74
5
 42
0.0000001
 43
0.0000001
 44
0.0000000001
 12
-0.0099057412
 22
-0.0004968233
 32
0.0
 13
-0.0040906488
 23
-0.0090353271
 33
0.0
 40
0.0
 40
0.0
 40
0.0
 40
0.0
 40
0.2495131712
 40
0.5002240321
 40
0.7501798371
 40
1.0
 40
1.0
 40
1.0
 40
1.0
 10
15.914689484
 20
9.2232700175
 30
0.0
 10
15.913865613
 20
9.2232286962
 30
0.0
 10
15.912213632
 20
9.2230653854
 30
0.0
 10
15.9097895873
 20
9.2226037581
 30
0.0
 10
15.9073421762
 20
9.2219217301
 30
0.0
 10
15.9061947303
 20
9.2205628622
 30
0.0
 10
15.9058540882
 20
9.2198104599
 30
0.0
 11
15.914689484
 21
9.2232700175
 31
0.0
 11
15.9122264485
 21
9.223029823
 31
0.0
 11
15.9097834046
 21
9.2225664555
 31
0.0
 11
15.9074623925
 21
9.2216953138
 31
0.0
 11
15.9058540882
 21
9.2198104599
 31
0.0
  0
SPLINE
  5
392
100
AcDbEntity
  8
0
100
AcDbSpline
 62
7
  6
CONTINUOUS
 70
0
 71
3
 72
20
 73
16
 74
14
 42
0.0000001
 43
0.0000001
 44
0.0000000001
 12
0.2263519481
 22
-0.198840111
 32
0.0
 13
0.0003836191
 23
0.301284661
 33
0.0
 40
0.0
 40
0.0
 40
0.0
 40
0.0
 40
0.1625056624
 40
0.2434062166
 40
0.3232611718
 40
0.4757383175
 40
0.5460734056
 40
0.6104098193
 40
0.6681378507
 40
0.71954923
 40
0.766424814
 40
0.8111986346
 40
0.8558547709
 40
0.9018983471
 40
1.0
 40
1.0
 40
1.0
 40
1.0
 10
15.197120272
 20
12.9463104599
 30
0.0
 10
15.2093814297
 20
12.9355395786
 30
0.0
 10
15.2282767715
 20
12.9199847117
 30
0.0
 10
15.2546326022
 20
12.9010050921
 30
0.0
 10
15.281059145
 20
12.8839393576
 30
0.0
 10
15.3081442996
 20
12.8697879199
 30
0.0
 10
15.335491247
 20
12.8604418903
 30
0.0
 10
15.3545387115
 20
12.8567439509
 30
0.0
 10
15.3720730409
 20
12.8565112539
 30
0.0
 10
15.3875585166
 20
12.8598343471
 30
0.0
 10
15.4004238365
 20
12.8666382815
 30
0.0
 10
15.4104728576
 20
12.876165366
 30
0.0
 10
15.4177691819
 20
12.8877948194
 30
0.0
 10
15.4243498925
 20
12.9056783574
 30
0.0
 10
15.4258855224
 20
12.9203173965
 30
0.0
 10
15.425898067
 20
12.9301695709
 30
0.0
 11
15.197120272
 21
12.9463104599
 31
0.0
 11
15.2350350501
 21
12.9153330413
 31
0.0
 11
15.2548333168
 21
12.9011159334
 31
0.0
 11
15.2750727774
 21
12.8881080831
 31
0.0
 11
15.3160948175
 21
12.8674298413
 31
0.0
 11
15.3362007802
 21
12.8607362234
 31
0.0
 11
15.3552633677
 21
12.8572232001
 31
0.0
 11
15.3726559278
 21
12.8571941207
 31
0.0
 11
15.387757894
 21
12.8606371395
 31
0.0
 11
15.400224331
 21
12.8672737364
 31
0.0
 11
15.4100362035
 21
12.8765310862
 31
0.0
 11
15.4172766536
 21
12.8878709236
 31
0.0
 11
15.4221794496
 21
12.9008478833
 31
0.0
 11
15.425898067
 21
12.9301695709
 31
0.0
  0
SPLINE
  5
393
100
AcDbEntity
  8
0
100
AcDbSpline
 62
7
  6
CONTINUOUS
 70
0
 71
3
 72
21
 73
17
 74
15
 42
0.0000001
 43
0.0000001
 44
0.0000000001
 12
0.2259862629
 22
-0.3084332833
 32
0.0
 13
0.2259862629
 23
0.3084332833
 33
0.0
 40
0.0
 40
0.0
 40
0.0
 40
0.0
 40
0.1141912163
 40
0.1739232832
 40
0.235522081
 40
0.2990559747
 40
0.3646670083
 40
0.4318206851
 40
0.5000066312
 40
0.568195662
 40
0.6353447832
 40
0.7009521964
 40
0.76448571
 40
0.8260804464
 40
0.8858103574
 40
1.0
 40
1.0
 40
1.0
 40
1.0
 10
15.9032494538
 20
12.9463104599
 30
0.0
 10
15.9118513359
 20
12.934570336
 30
0.0
 10
15.9265144079
 20
12.9177432664
 30
0.0
 10
15.9492323184
 20
12.8980671434
 30
0.0
 10
15.9685641806
 20
12.8845118571
 30
0.0
 10
15.990008927
 20
12.8729318714
 30
0.0
 10
16.0134244277
 20
12.8639162561
 30
0.0
 10
16.0384560072
 20
12.8580645382
 30
0.0
 10
16.0644256839
 20
12.8561213084
 30
0.0
 10
16.0903947372
 20
12.8580639668
 30
0.0
 10
16.1154260967
 20
12.8639146912
 30
0.0
 10
16.1388387497
 20
12.8729347588
 30
0.0
 10
16.160282393
 20
12.8845142168
 30
0.0
 10
16.1796139276
 20
12.8980685824
 30
0.0
 10
16.2023310017
 20
12.9177441344
 30
0.0
 10
16.2169941532
 20
12.9345704978
 30
0.0
 10
16.2255959168
 20
12.9463104599
 30
0.0
 11
15.9032494538
 21
12.9463104599
 31
0.0
 11
15.9320166588
 21
12.9134645488
 31
0.0
 11
15.9492909017
 21
12.8985235462
 31
0.0
 11
15.9685999798
 21
12.885036298
 31
0.0
 11
15.9899897573
 21
12.8735199873
 31
0.0
 11
16.0134116362
 21
12.8645320915
 31
0.0
 11
16.0384284286
 21
12.8587467674
 31
0.0
 11
16.0644252833
 21
12.8567722534
 31
0.0
 11
16.0904233578
 21
12.8587462791
 31
0.0
 11
16.115438402
 21
12.8645314318
 31
0.0
 11
16.1388578076
 21
12.8735219086
 31
0.0
 11
16.1602470962
 21
12.8850388206
 31
0.0
 11
16.1795550967
 21
12.8985248998
 31
0.0
 11
16.1968287808
 21
12.9134652882
 31
0.0
 11
16.2255959168
 21
12.9463104599
 31
0.0
  0
SPLINE
  5
394
100
AcDbEntity
  8
0
100
AcDbSpline
 62
7
  6
CONTINUOUS
 70
0
 71
3
 72
31
 73
27
 74
25
 42
0.0000001
 43
0.0000001
 44
0.0000000001
 12
0.0
 22
0.3549940639
 32
0.0
 13
0.0019866796
 23
-0.3549885048
 33
0.0
 40
0.0
 40
0.0
 40
0.0
 40
0.0
 40
0.0786956804
 40
0.1576328166
 40
0.1971281961
 40
0.2365828914
 40
0.2759724454
 40
0.315277425
 40
0.3931639452
 40
0.4688046447
 40
0.5409067435
 40
0.6078302949
 40
0.638971944
 40
0.6684147012
 40
0.6960357755
 40
0.7217472026
 40
0.7673987198
 40
0.7876059362
 40
0.8064888182
 40
0.8247263492
 40
0.8432225877
 40
0.8629926644
 40
0.8848679661
 40
0.9093535988
 40
0.9367347713
 40
1.0
 40
1.0
 40
1.0
 40
1.0
 10
16.9317250987
 20
13.5563104599
 30
0.0
 10
16.9317250987
 20
13.5656226264
 30
0.0
 10
16.9296771616
 20
13.5843327087
 30
0.0
 10
16.9220924871
 20
13.6066085072
 30
0.0
 10
16.913119824
 20
13.6230358176
 30
0.0
 10
16.9050691504
 20
13.6345292084
 30
0.0
 10
16.895801696
 20
13.6450380936
 30
0.0
 10
16.8820405676
 20
13.6574919385
 30
0.0
 10
16.8628909961
 20
13.670175106
 30
0.0
 10
16.8383040464
 20
13.6808614518
 30
0.0
 10
16.813750439
 20
13.687606086
 30
0.0
 10
16.7938527232
 20
13.6909056715
 30
0.0
 10
16.7788212017
 20
13.6922729006
 30
0.0
 10
16.7683896307
 20
13.692713359
 30
0.0
 10
16.7585887178
 20
13.692664948
 30
0.0
 10
16.7468989027
 20
13.6919621342
 30
0.0
 10
16.7361251526
 20
13.6902161252
 30
0.0
 10
16.726650737
 20
13.6868442001
 30
0.0
 10
16.7206536591
 20
13.6836017608
 30
0.0
 10
16.7155283876
 20
13.6794012468
 30
0.0
 10
16.7113346535
 20
13.6741276196
 30
0.0
 10
16.7081370655
 20
13.6677217161
 30
0.0
 10
16.7058326338
 20
13.6602172372
 30
0.0
 10
16.7042724877
 20
13.6516172715
 30
0.0
 10
16.7029890277
 20
13.6380432679
 30
0.0
 10
16.7029117383
 20
13.6273024817
 30
0.0
 10
16.7029536342
 20
13.6198163387
 30
0.0
 11
16.9317250987
 21
13.5563104599
 31
0.0
 11
16.928679093
 21
13.584080405
 31
0.0
 11
16.9196092903
 21
13.6105942353
 31
0.0
 11
16.9128962107
 21
13.6229032765
 31
0.0
 11
16.9048592208
 21
13.6343741067
 31
0.0
 11
16.8956088161
 21
13.6448600936
 31
0.0
 11
16.8852807373
 21
13.6542418822
 31
0.0
 11
16.8622861324
 21
13.6695953607
 31
0.0
 11
16.8377089429
 21
13.6804116272
 31
0.0
 11
16.8130627611
 21
13.6873189837
 31
0.0
 11
16.7896250443
 21
13.6912036334
 31
0.0
 11
16.7786148817
 21
13.6921994082
 31
0.0
 11
16.7681720718
 21
13.6926377123
 31
0.0
 11
16.7583669839
 21
13.6925706277
 31
0.0
 11
16.749257885
 21
13.6919928553
 31
0.0
 11
16.7333166725
 21
13.6890751933
 31
0.0
 11
16.7265778088
 21
13.6866163351
 31
0.0
 11
16.7207058059
 21
13.6833830766
 31
0.0
 11
16.7157146055
 21
13.6792595609
 31
0.0
 11
16.7116174147
 21
13.6741286639
 31
0.0
 11
16.7084209458
 21
13.6678805795
 31
0.0
 11
16.7060648968
 21
13.6604810112
 31
0.0
 11
16.7044494463
 21
13.6519401913
 31
0.0
 11
16.7034742029
 21
13.6422690855
 31
0.0
 11
16.7029536342
 21
13.6198163387
 31
0.0
  0
SPLINE
  5
395
100
AcDbEntity
  8
0
100
AcDbSpline
 62
7
  6
CONTINUOUS
 70
0
 71
3
 72
31
 73
27
 74
25
 42
0.0000001
 43
0.0000001
 44
0.0000000001
 12
0.0
 22
0.4853161309
 32
0.0
 13
0.0
 23
-0.4853161309
 33
0.0
 40
0.0
 40
0.0
 40
0.0
 40
0.0
 40
0.0657799946
 40
0.1295120609
 40
0.1898830588
 40
0.2192195369
 40
0.2484188864
 40
0.2778238397
 40
0.3077115914
 40
0.3382922796
 40
0.3696165028
 40
0.4015929456
 40
0.4340848695
 40
0.5000003095
 40
0.5659157698
 40
0.5984076674
 40
0.6303840709
 40
0.6617083448
 40
0.6922891066
 40
0.7221768417
 40
0.7515817228
 40
0.7807810851
 40
0.8101176052
 40
0.8704885632
 40
0.9342202661
 40
1.0
 40
1.0
 40
1.0
 40
1.0
 10
16.2255959168
 20
13.5563104599
 30
0.0
 10
16.2255959168
 20
13.5669518241
 30
0.0
 10
16.2239652303
 20
13.5879512932
 30
0.0
 10
16.2162052038
 20
13.6178588657
 30
0.0
 10
16.2045287184
 20
13.6401339321
 30
0.0
 10
16.1919781423
 20
13.6548007585
 30
0.0
 10
16.1812187987
 20
13.6641821186
 30
0.0
 10
16.1691913976
 20
13.6720275427
 30
0.0
 10
16.1560431357
 20
13.6783176172
 30
0.0
 10
16.1419992788
 20
13.6832166779
 30
0.0
 10
16.1272531814
 20
13.6869173814
 30
0.0
 10
16.1119827547
 20
13.6896159046
 30
0.0
 10
16.0910213078
 20
13.6920560308
 30
0.0
 10
16.0644225228
 20
13.6930798209
 30
0.0
 10
16.037823748
 20
13.6920560002
 30
0.0
 10
16.0168623001
 20
13.6896159304
 30
0.0
 10
16.0015918928
 20
13.6869173029
 30
0.0
 10
15.9868458003
 20
13.6832165262
 30
0.0
 10
15.972801941
 20
13.678317432
 30
0.0
 10
15.9596536384
 20
13.6720274496
 30
0.0
 10
15.9476262665
 20
13.6641819837
 30
0.0
 10
15.9368670513
 20
13.6548004867
 30
0.0
 10
15.9243164566
 20
13.6401336826
 30
0.0
 10
15.9126400405
 20
13.617858632
 30
0.0
 10
15.9048801265
 20
13.5879511483
 30
0.0
 10
15.9032494538
 20
13.5669517819
 30
0.0
 10
15.9032494538
 20
13.5563104599
 30
0.0
 11
16.2255959168
 21
13.5563104599
 31
0.0
 11
16.2229947283
 21
13.588128403
 31
0.0
 11
16.2149147721
 21
13.6179845844
 31
0.0
 11
16.2009704866
 21
13.6437525766
 31
0.0
 11
16.1917166951
 21
13.6545725943
 31
0.0
 11
16.1810465686
 21
13.6638980026
 31
0.0
 11
16.1691056107
 21
13.6717124989
 31
0.0
 11
16.1560455663
 21
13.6780236396
 31
0.0
 11
16.1420514582
 21
13.6829662262
 31
0.0
 11
16.1273193591
 21
13.6867173122
 31
0.0
 11
16.1120434232
 21
13.6894514149
 31
0.0
 11
16.0963828943
 21
13.6912965754
 31
0.0
 11
16.0644225272
 21
13.6926691378
 31
0.0
 11
16.0324621508
 21
13.6912965649
 31
0.0
 11
16.0168016335
 21
13.6894514159
 31
0.0
 11
16.0015257297
 21
13.6867172416
 31
0.0
 11
15.9867936241
 21
13.6829660816
 31
0.0
 11
15.9727994874
 21
13.6780234688
 31
0.0
 11
15.9597394274
 21
13.6717123788
 31
0.0
 11
15.9477985255
 21
13.663897861
 31
0.0
 11
15.9371284788
 21
13.6545723518
 31
0.0
 11
15.9278746891
 21
13.6437523058
 31
0.0
 11
15.9139304539
 21
13.6179843084
 31
0.0
 11
15.9058506133
 21
13.5881282784
 31
0.0
 11
15.9032494538
 21
13.5563104599
 31
0.0
  0
ENDSEC
  0
SECTION
  2
OBJECTS
  0
DICTIONARY
  5
C
100
AcDbDictionary
280
0
281
1
  3
ACAD_GROUP
350
D
  3
ACAD_MLINESTYLE
350
17
  3
ACAD_LAYOUT
350
1A
  3
ACAD_PLOTSETTINGS
350
19
  3
ACAD_PLOTSTYLENAME
350
E
  0
DICTIONARY
  5
D
102
{ACAD_REACTORS
330
C
102
}
100
AcDbDictionary
280
0
281
1
  0
ACDBDICTIONARYWDFLT
  5
E
102
{ACAD_REACTORS
330
C
102
}
100
AcDbDictionary
281
1
  3
Normal
350
F
100
AcDbDictionaryWithDefault
340
F
  0
DICTIONARY
  5
17
102
{ACAD_REACTORS
330
C
102
}
100
AcDbDictionary
280
0
281
1
  3
Standard
350
18
  0
DICTIONARY
  5
19
102
{ACAD_REACTORS
330
C
102
}
100
AcDbDictionary
281
1
  0
DICTIONARY
  5
1A
102
{ACAD_REACTORS
330
C
102
}
100
AcDbDictionary
281
1
  3
Model
350
396
  3
Layout1
350
397
  0
ACDBPLACEHOLDER
  5
F
102
{ACAD_REACTORS
330
E
102
}
  0
MLINESTYLE
  5
18
102
{ACAD_REACTORS
330
17
102
}
100
AcDbMlineStyle
  2
STANDARD
 70
0
  3

 62
256
 51
90.0
 52
90.0
 71
2
 49
0.5
 62
256
  6
BYLAYER
 49
-0.5
 62
256
  6
BYLAYER
  0
LAYOUT
  5
396
102
{ACAD_REACTORS
330
1A
102
}
100
AcDbPlotSettings
  1

  2
none_device
  4
ISO_A1_(594.00_x_841.00_MM)
  6

 40
0.0
 41
0.0
 42
0.0
 43
0.0
 44
841.0
 45
594.0
 46
0.0
 47
0.0
 48
0.0
 49
0.0
140
0.0
141
0.0
142
1.0
143
1.0
 70
1024
 72
0
 73
0
 74
0
  7

 75
0
147
1.0
148
0.0
149
0.0
100
AcDbLayout
  1
Model
 70
0
 71
0
 10
0.0
 20
0.0
 11
33.1102362205
 21
23.3858267717
 12
0.0
 22
0.0
 32
0.0
 14
0.0
 24
0.0
 34
0.0
 15
0.0
 25
0.0
 35
0.0
146
0.0
 13
0.0
 23
0.0
 33
0.0
 16
1.0
 26
0.0
 36
0.0
 17
0.0
 27
1.0
 37
0.0
 76
0
330
26B
345
0
346
0
  0
LAYOUT
  5
397
102
{ACAD_REACTORS
330
1A
102
}
100
AcDbPlotSettings
  1

  2
none_device
  4
ISO_A1_(594.00_x_841.00_MM)
  6

 40
0.0
 41
0.0
 42
0.0
 43
0.0
 44
841.0
 45
594.0
 46
0.0
 47
0.0
 48
0.0
 49
0.0
140
0.0
141
0.0
142
1.0
143
1.0
 70
0
 72
0
 73
0
 74
0
  7

 75
0
147
1.0
148
0.0
149
0.0
100
AcDbLayout
  1
Layout1
 70
0
 71
1
 10
0.0
 20
0.0
 11
33.1102362205
 21
23.3858267717
 12
0.0
 22
0.0
 32
0.0
 14
0.0
 24
0.0
 34
0.0
 15
0.0
 25
0.0
 35
0.0
146
0.0
 13
0.0
 23
0.0
 33
0.0
 16
1.0
 26
0.0
 36
0.0
 17
0.0
 27
1.0
 37
0.0
 76
0
330
26C
345
0
346
0
  0
ENDSEC
  0
EOF
