  0
SECTION
  2
HEADER
  9
$ACADVER
  1
AC1015
  9
$DWGCODEPAGE
  3
ANSI_1252
  9
$EXTMAX
 10
33.1102362205
 20
23.3858267717
 30
0.0
  9
$EXTMIN
 10
0.0
 20
0.0
 30
0.0
  9
$LIMMIN
 10
0.0
 20
0.0
  9
$LIMMAX
 10
33.1102362205
 20
23.3858267717
  9
$VIEWCTR
 10
16.5551181102
 20
11.6929133858
  9
$VIEWSIZE
 40
23.3858267717
  9
$CLAYER
  8
0
  9
$LTSCALE
 40
1.8210629921
  9
$CELTYPE
  6
BYLAYER
  9
$DIMSCALE
 40
1.0
  9
$DIMASZ
 40
0.1875
  9
$DIMEXO
 40
0.2069389764
  9
$DIMDLI
 40
1.2581889764
  9
$DIMEXE
 40
0.595984252
  9
$DIMCEN
 40
0.297992126
  9
$DIMLFAC
 40
1.0
  9
$DIMBLK
  1
_CLOSED
  9
$DIMTXT
 40
0.15625
  9
$DIMTOL
 70
0
  9
$DIMLIM
 70
0
  9
$DIMTFAC
 40
1.0
  9
$PDMODE
 70
3
  9
$PDSIZE
 40
0.3125
  9
$HANDSEED
  5
393
  9
$TILEMODE
 70
1
  9
$MEASUREMENT
 70
0
  9
$INSUNITS
 70
1
  0
ENDSEC
  0
SECTION
  2
CLASSES
  0
CLASS
  1
ACDBDICTIONARYWDFLT
  2
AcDbDictionaryWithDefault
  3
AutoCAD 2000
 90
0
280
0
281
0
  0
CLASS
  1
ACDBPLACEHOLDER
  2
AcDbPlaceHolder
  3
AutoCAD 2000
 90
0
280
0
281
0
  0
CLASS
  1
LAYOUT
  2
AcDbLayout
  3
AutoCAD 2000
 90
0
280
0
281
0
  0
ENDSEC
  0
SECTION
  2
TABLES
  0
TABLE
  2
VPORT
  5
8
100
AcDbSymbolTable
 70
2
  0
VPORT
  5
1F4
100
AcDbSymbolTableRecord
100
AcDbViewportTableRecord
  2
*ACTIVE
 70
0
 10
0.0
 20
0.0
 11
1.0
 21
1.0
 12
16.5551181102
 22
11.6929133858
 13
0.0
 23
0.0
 14
1.0
 24
1.0
 15
0.0
 25
0.0
 16
0.0
 26
0.0
 36
1.0
 17
0.0
 27
0.0
 37
0.0
 40
23.3858267717
 41
1.4158249158
 42
50.0
 43
0.0
 44
0.0
 50
0.0
 51
0.0
 71
0
 72
100
 73
1
 74
1
 75
0
 76
0
 77
0
 78
0
  0
ENDTAB
  0
TABLE
  2
LTYPE
  5
5
100
AcDbSymbolTable
 70
6
  0
LTYPE
  5
14
100
AcDbSymbolTableRecord
100
AcDbLinetypeTableRecord
  2
BYBLOCK
 70
0
  3

 72
65
 73
0
 40
0.0
  0
LTYPE
  5
15
100
AcDbSymbolTableRecord
100
AcDbLinetypeTableRecord
  2
BYLAYER
 70
0
  3

 72
65
 73
0
 40
0.0
  0
LTYPE
  5
16
100
AcDbSymbolTableRecord
100
AcDbLinetypeTableRecord
  2
CONTINUOUS
 70
64
  3
Solid line
 72
65
 73
0
 40
0.0
  0
LTYPE
  5
1F5
100
AcDbSymbolTableRecord
100
AcDbLinetypeTableRecord
  2
CENTER
 70
64
  3
____ _ ____ _ ____ _ ____ _ ____ _ ____ _ ____
 72
65
 73
4
 40
0.6
 49
0.375
 74
0
 49
-0.075
 74
0
 49
0.075
 74
0
 49
-0.075
 74
0
  0
LTYPE
  5
1F6
100
AcDbSymbolTableRecord
100
AcDbLinetypeTableRecord
  2
HIDDEN
 70
64
  3
- - - - - - - - - - - - - - - - - - - -
 72
65
 73
2
 40
0.2
 49
0.1
 74
0
 49
-0.1
 74
0
  0
LTYPE
  5
1F7
100
AcDbSymbolTableRecord
100
AcDbLinetypeTableRecord
  2
PHANTOM
 70
64
  3
_____ _ _ _____ _ _ _____ _ _ _____
 72
65
 73
6
 40
0.8
 49
0.45
 74
0
 49
-0.05
 74
0
 49
0.1
 74
0
 49
-0.05
 74
0
 49
0.1
 74
0
 49
-0.05
 74
0
  0
LTYPE
  5
1F8
100
AcDbSymbolTableRecord
100
AcDbLinetypeTableRecord
  2
DOT
 70
64
  3
. . . . . . . . . . . . . . . . . . . .
 72
65
 73
2
 40
0.2
 49
0.1
 74
0
 49
-0.1
 74
0
  0
LTYPE
  5
1F9
100
AcDbSymbolTableRecord
100
AcDbLinetypeTableRecord
  2
DASHED
 70
64
  3
- - - - - - - - - - - - - - - - - - - -
 72
65
 73
2
 40
0.2
 49
0.1
 74
0
 49
-0.1
 74
0
  0
ENDTAB
  0
TABLE
  2
LAYER
  5
2
100
AcDbSymbolTable
 70
36
  0
LAYER
  5
10
100
AcDbSymbolTableRecord
100
AcDbLayerTableRecord
  2
0
 70
0
 62
7
  6
CONTINUOUS
370
-3
390
F
  0
LAYER
  5
1FA
100
AcDbSymbolTableRecord
100
AcDbLayerTableRecord
  2
DEFAULT_1
 70
0
 62
7
  6
CENTER
370
-3
390
F
  0
LAYER
  5
1FB
100
AcDbSymbolTableRecord
100
AcDbLayerTableRecord
  2
DEFAULT_2
 70
0
 62
8
  6
HIDDEN
370
-3
390
F
  0
LAYER
  5
1FC
100
AcDbSymbolTableRecord
100
AcDbLayerTableRecord
  2
DEFAULT_3
 70
0
 62
7
  6
PHANTOM
370
-3
390
F
  0
LAYER
  5
1FD
100
AcDbSymbolTableRecord
100
AcDbLayerTableRecord
  2
1-001
 70
0
 62
7
  6
CONTINUOUS
370
-3
390
F
  0
LAYER
  5
1FE
100
AcDbSymbolTableRecord
100
AcDbLayerTableRecord
  2
1-002
 70
0
 62
7
  6
CONTINUOUS
370
-3
390
F
  0
LAYER
  5
1FF
100
AcDbSymbolTableRecord
100
AcDbLayerTableRecord
  2
1-022
 70
0
 62
7
  6
CONTINUOUS
370
-3
390
F
  0
LAYER
  5
200
100
AcDbSymbolTableRecord
100
AcDbLayerTableRecord
  2
1-022_1
 70
0
 62
7
  6
CONTINUOUS
370
-3
390
F
  0
LAYER
  5
201
100
AcDbSymbolTableRecord
100
AcDbLayerTableRecord
  2
1-027
 70
0
 62
7
  6
CONTINUOUS
370
-3
390
F
  0
LAYER
  5
202
100
AcDbSymbolTableRecord
100
AcDbLayerTableRecord
  2
1-066
 70
0
 62
7
  6
CONTINUOUS
370
-3
390
F
  0
LAYER
  5
203
100
AcDbSymbolTableRecord
100
AcDbLayerTableRecord
  2
1-526
 70
0
 62
7
  6
CONTINUOUS
370
-3
390
F
  0
LAYER
  5
204
100
AcDbSymbolTableRecord
100
AcDbLayerTableRecord
  2
1-527
 70
0
 62
7
  6
CONTINUOUS
370
-3
390
F
  0
LAYER
  5
205
100
AcDbSymbolTableRecord
100
AcDbLayerTableRecord
  2
1-542
 70
0
 62
7
  6
CONTINUOUS
370
-3
390
F
  0
LAYER
  5
206
100
AcDbSymbolTableRecord
100
AcDbLayerTableRecord
  2
10021
 70
0
 62
7
  6
CONTINUOUS
370
-3
390
F
  0
LAYER
  5
207
100
AcDbSymbolTableRecord
100
AcDbLayerTableRecord
  2
10048
 70
0
 62
7
  6
CONTINUOUS
370
-3
390
F
  0
LAYER
  5
208
100
AcDbSymbolTableRecord
100
AcDbLayerTableRecord
  2
10048_1
 70
0
 62
7
  6
CONTINUOUS
370
-3
390
F
  0
LAYER
  5
209
100
AcDbSymbolTableRecord
100
AcDbLayerTableRecord
  2
10078
 70
0
 62
7
  6
CONTINUOUS
370
-3
390
F
  0
LAYER
  5
20A
100
AcDbSymbolTableRecord
100
AcDbLayerTableRecord
  2
10095
 70
0
 62
7
  6
CONTINUOUS
370
-3
390
F
  0
LAYER
  5
20B
100
AcDbSymbolTableRecord
100
AcDbLayerTableRecord
  2
10095_1
 70
0
 62
7
  6
CONTINUOUS
370
-3
390
F
  0
LAYER
  5
20C
100
AcDbSymbolTableRecord
100
AcDbLayerTableRecord
  2
10096
 70
0
 62
7
  6
CONTINUOUS
370
-3
390
F
  0
LAYER
  5
20D
100
AcDbSymbolTableRecord
100
AcDbLayerTableRecord
  2
10096_1
 70
0
 62
7
  6
CONTINUOUS
370
-3
390
F
  0
LAYER
  5
20E
100
AcDbSymbolTableRecord
100
AcDbLayerTableRecord
  2
10097
 70
0
 62
7
  6
CONTINUOUS
370
-3
390
F
  0
LAYER
  5
20F
100
AcDbSymbolTableRecord
100
AcDbLayerTableRecord
  2
10097_1
 70
0
 62
7
  6
CONTINUOUS
370
-3
390
F
  0
LAYER
  5
210
100
AcDbSymbolTableRecord
100
AcDbLayerTableRecord
  2
10098
 70
0
 62
7
  6
CONTINUOUS
370
-3
390
F
  0
LAYER
  5
211
100
AcDbSymbolTableRecord
100
AcDbLayerTableRecord
  2
10098_1
 70
0
 62
7
  6
CONTINUOUS
370
-3
390
F
  0
LAYER
  5
212
100
AcDbSymbolTableRecord
100
AcDbLayerTableRecord
  2
10156
 70
0
 62
7
  6
CONTINUOUS
370
-3
390
F
  0
LAYER
  5
213
100
AcDbSymbolTableRecord
100
AcDbLayerTableRecord
  2
10156_1
 70
0
 62
7
  6
CONTINUOUS
370
-3
390
F
  0
LAYER
  5
214
100
AcDbSymbolTableRecord
100
AcDbLayerTableRecord
  2
10288
 70
0
 62
7
  6
CONTINUOUS
370
-3
390
F
  0
LAYER
  5
215
100
AcDbSymbolTableRecord
100
AcDbLayerTableRecord
  2
10600
 70
0
 62
7
  6
CONTINUOUS
370
-3
390
F
  0
LAYER
  5
216
100
AcDbSymbolTableRecord
100
AcDbLayerTableRecord
  2
10601
 70
0
 62
7
  6
CONTINUOUS
370
-3
390
F
  0
LAYER
  5
217
100
AcDbSymbolTableRecord
100
AcDbLayerTableRecord
  2
10602
 70
0
 62
7
  6
CONTINUOUS
370
-3
390
F
  0
LAYER
  5
218
100
AcDbSymbolTableRecord
100
AcDbLayerTableRecord
  2
10603
 70
0
 62
7
  6
CONTINUOUS
370
-3
390
F
  0
LAYER
  5
219
100
AcDbSymbolTableRecord
100
AcDbLayerTableRecord
  2
10604
 70
0
 62
7
  6
CONTINUOUS
370
-3
390
F
  0
LAYER
  5
21A
100
AcDbSymbolTableRecord
100
AcDbLayerTableRecord
  2
10605
 70
0
 62
7
  6
CONTINUOUS
370
-3
390
F
  0
LAYER
  5
21B
100
AcDbSymbolTableRecord
100
AcDbLayerTableRecord
  2
11483
 70
0
 62
7
  6
CONTINUOUS
370
-3
390
F
  0
LAYER
  5
21C
100
AcDbSymbolTableRecord
100
AcDbLayerTableRecord
  2
11483_1
 70
0
 62
7
  6
CONTINUOUS
370
-3
390
F
  0
LAYER
  5
21D
100
AcDbSymbolTableRecord
100
AcDbLayerTableRecord
  2
11483_1_1
 70
0
 62
7
  6
CONTINUOUS
370
-3
390
F
  0
LAYER
  5
21E
100
AcDbSymbolTableRecord
100
AcDbLayerTableRecord
  2
2-103C
 70
0
 62
7
  6
CONTINUOUS
370
-3
390
F
  0
LAYER
  5
21F
100
AcDbSymbolTableRecord
100
AcDbLayerTableRecord
  2
2-103H
 70
0
 62
7
  6
CONTINUOUS
370
-3
390
F
  0
LAYER
  5
220
100
AcDbSymbolTableRecord
100
AcDbLayerTableRecord
  2
2-125
 70
0
 62
7
  6
CONTINUOUS
370
-3
390
F
  0
LAYER
  5
221
100
AcDbSymbolTableRecord
100
AcDbLayerTableRecord
  2
2-159
 70
0
 62
7
  6
CONTINUOUS
370
-3
390
F
  0
LAYER
  5
222
100
AcDbSymbolTableRecord
100
AcDbLayerTableRecord
  2
2-235
 70
0
 62
7
  6
CONTINUOUS
370
-3
390
F
  0
LAYER
  5
223
100
AcDbSymbolTableRecord
100
AcDbLayerTableRecord
  2
2-236
 70
0
 62
7
  6
CONTINUOUS
370
-3
390
F
  0
LAYER
  5
224
100
AcDbSymbolTableRecord
100
AcDbLayerTableRecord
  2
91014
 70
0
 62
7
  6
CONTINUOUS
370
-3
390
F
  0
LAYER
  5
225
100
AcDbSymbolTableRecord
100
AcDbLayerTableRecord
  2
91019
 70
0
 62
7
  6
CONTINUOUS
370
-3
390
F
  0
LAYER
  5
226
100
AcDbSymbolTableRecord
100
AcDbLayerTableRecord
  2
91019_1
 70
0
 62
7
  6
CONTINUOUS
370
-3
390
F
  0
LAYER
  5
227
100
AcDbSymbolTableRecord
100
AcDbLayerTableRecord
  2
91019_2
 70
0
 62
7
  6
CONTINUOUS
370
-3
390
F
  0
LAYER
  5
228
100
AcDbSymbolTableRecord
100
AcDbLayerTableRecord
  2
91019_3
 70
0
 62
7
  6
CONTINUOUS
370
-3
390
F
  0
LAYER
  5
229
100
AcDbSymbolTableRecord
100
AcDbLayerTableRecord
  2
91093
 70
0
 62
7
  6
CONTINUOUS
370
-3
390
F
  0
LAYER
  5
22A
100
AcDbSymbolTableRecord
100
AcDbLayerTableRecord
  2
92000
 70
0
 62
7
  6
CONTINUOUS
370
-3
390
F
  0
LAYER
  5
22B
100
AcDbSymbolTableRecord
100
AcDbLayerTableRecord
  2
92000_1
 70
0
 62
7
  6
CONTINUOUS
370
-3
390
F
  0
LAYER
  5
22C
100
AcDbSymbolTableRecord
100
AcDbLayerTableRecord
  2
92000_2
 70
0
 62
7
  6
CONTINUOUS
370
-3
390
F
  0
LAYER
  5
22D
100
AcDbSymbolTableRecord
100
AcDbLayerTableRecord
  2
92000_3
 70
0
 62
7
  6
CONTINUOUS
370
-3
390
F
  0
LAYER
  5
22E
100
AcDbSymbolTableRecord
100
AcDbLayerTableRecord
  2
92012
 70
0
 62
7
  6
CONTINUOUS
370
-3
390
F
  0
LAYER
  5
22F
100
AcDbSymbolTableRecord
100
AcDbLayerTableRecord
  2
92012_1
 70
0
 62
7
  6
CONTINUOUS
370
-3
390
F
  0
LAYER
  5
230
100
AcDbSymbolTableRecord
100
AcDbLayerTableRecord
  2
92029
 70
0
 62
7
  6
CONTINUOUS
370
-3
390
F
  0
LAYER
  5
231
100
AcDbSymbolTableRecord
100
AcDbLayerTableRecord
  2
ALL_ASSEMBLY_MEMBERS
 70
0
 62
7
  6
CONTINUOUS
370
-3
390
F
  0
LAYER
  5
232
100
AcDbSymbolTableRecord
100
AcDbLayerTableRecord
  2
ALL_ASSEMBLY_MEMBERS_10
 70
0
 62
7
  6
CONTINUOUS
370
-3
390
F
  0
LAYER
  5
233
100
AcDbSymbolTableRecord
100
AcDbLayerTableRecord
  2
ALL_ASSEMBLY_MEMBERS_11
 70
0
 62
7
  6
CONTINUOUS
370
-3
390
F
  0
LAYER
  5
234
100
AcDbSymbolTableRecord
100
AcDbLayerTableRecord
  2
ALL_ASSEMBLY_MEMBERS_12
 70
0
 62
7
  6
CONTINUOUS
370
-3
390
F
  0
LAYER
  5
235
100
AcDbSymbolTableRecord
100
AcDbLayerTableRecord
  2
ALL_ASSEMBLY_MEMBERS_13
 70
0
 62
7
  6
CONTINUOUS
370
-3
390
F
  0
LAYER
  5
236
100
AcDbSymbolTableRecord
100
AcDbLayerTableRecord
  2
ALL_ASSEMBLY_MEMBERS_14
 70
0
 62
7
  6
CONTINUOUS
370
-3
390
F
  0
LAYER
  5
237
100
AcDbSymbolTableRecord
100
AcDbLayerTableRecord
  2
ALL_ASSEMBLY_MEMBERS_15
 70
0
 62
7
  6
CONTINUOUS
370
-3
390
F
  0
LAYER
  5
238
100
AcDbSymbolTableRecord
100
AcDbLayerTableRecord
  2
ALL_ASSEMBLY_MEMBERS_2
 70
0
 62
7
  6
CONTINUOUS
370
-3
390
F
  0
LAYER
  5
239
100
AcDbSymbolTableRecord
100
AcDbLayerTableRecord
  2
ALL_ASSEMBLY_MEMBERS_6
 70
0
 62
7
  6
CONTINUOUS
370
-3
390
F
  0
LAYER
  5
23A
100
AcDbSymbolTableRecord
100
AcDbLayerTableRecord
  2
ALL_ASSEMBLY_MEMBERS_8
 70
0
 62
7
  6
CONTINUOUS
370
-3
390
F
  0
LAYER
  5
23B
100
AcDbSymbolTableRecord
100
AcDbLayerTableRecord
  2
ALL_ASSEMBLY_MEMBERS_9
 70
0
 62
7
  6
CONTINUOUS
370
-3
390
F
  0
LAYER
  5
23C
100
AcDbSymbolTableRecord
100
AcDbLayerTableRecord
  2
ALL_FEATURES_7
 70
0
 62
7
  6
CONTINUOUS
370
-3
390
F
  0
LAYER
  5
23D
100
AcDbSymbolTableRecord
100
AcDbLayerTableRecord
  2
COLOR14
 70
0
 62
7
  6
CONTINUOUS
370
-3
390
F
  0
LAYER
  5
23E
100
AcDbSymbolTableRecord
100
AcDbLayerTableRecord
  2
COLOR15
 70
0
 62
7
  6
CONTINUOUS
370
-3
390
F
  0
LAYER
  5
23F
100
AcDbSymbolTableRecord
100
AcDbLayerTableRecord
  2
COLOR17
 70
0
 62
7
  6
CONTINUOUS
370
-3
390
F
  0
LAYER
  5
240
100
AcDbSymbolTableRecord
100
AcDbLayerTableRecord
  2
COLOR18
 70
0
 62
7
  6
CONTINUOUS
370
-3
390
F
  0
LAYER
  5
241
100
AcDbSymbolTableRecord
100
AcDbLayerTableRecord
  2
COLOR19
 70
0
 62
7
  6
CONTINUOUS
370
-3
390
F
  0
LAYER
  5
242
100
AcDbSymbolTableRecord
100
AcDbLayerTableRecord
  2
COLOR20
 70
0
 62
7
  6
CONTINUOUS
370
-3
390
F
  0
LAYER
  5
243
100
AcDbSymbolTableRecord
100
AcDbLayerTableRecord
  2
COLOR21
 70
0
 62
7
  6
CONTINUOUS
370
-3
390
F
  0
LAYER
  5
244
100
AcDbSymbolTableRecord
100
AcDbLayerTableRecord
  2
COLOR22
 70
0
 62
7
  6
CONTINUOUS
370
-3
390
F
  0
LAYER
  5
245
100
AcDbSymbolTableRecord
100
AcDbLayerTableRecord
  2
COLOR26
 70
0
 62
7
  6
CONTINUOUS
370
-3
390
F
  0
LAYER
  5
246
100
AcDbSymbolTableRecord
100
AcDbLayerTableRecord
  2
COLOR27
 70
0
 62
7
  6
CONTINUOUS
370
-3
390
F
  0
LAYER
  5
247
100
AcDbSymbolTableRecord
100
AcDbLayerTableRecord
  2
COLOR28
 70
0
 62
7
  6
CONTINUOUS
370
-3
390
F
  0
LAYER
  5
248
100
AcDbSymbolTableRecord
100
AcDbLayerTableRecord
  2
COLOR3
 70
0
 62
7
  6
CONTINUOUS
370
-3
390
F
  0
LAYER
  5
249
100
AcDbSymbolTableRecord
100
AcDbLayerTableRecord
  2
COLOR30
 70
0
 62
7
  6
CONTINUOUS
370
-3
390
F
  0
LAYER
  5
24A
100
AcDbSymbolTableRecord
100
AcDbLayerTableRecord
  2
COLOR31
 70
0
 62
7
  6
CONTINUOUS
370
-3
390
F
  0
LAYER
  5
24B
100
AcDbSymbolTableRecord
100
AcDbLayerTableRecord
  2
COLOR32
 70
0
 62
7
  6
CONTINUOUS
370
-3
390
F
  0
LAYER
  5
24C
100
AcDbSymbolTableRecord
100
AcDbLayerTableRecord
  2
COLOR5
 70
0
 62
7
  6
CONTINUOUS
370
-3
390
F
  0
LAYER
  5
24D
100
AcDbSymbolTableRecord
100
AcDbLayerTableRecord
  2
COLOR6
 70
0
 62
7
  6
CONTINUOUS
370
-3
390
F
  0
LAYER
  5
24E
100
AcDbSymbolTableRecord
100
AcDbLayerTableRecord
  2
DEFAULT_COORDINATE_SYSTEM
 70
0
 62
7
  6
CONTINUOUS
370
-3
390
F
  0
LAYER
  5
24F
100
AcDbSymbolTableRecord
100
AcDbLayerTableRecord
  2
DEFAULT_DATUM_AXES
 70
0
 62
7
  6
CONTINUOUS
370
-3
390
F
  0
LAYER
  5
250
100
AcDbSymbolTableRecord
100
AcDbLayerTableRecord
  2
DEFAULT_DATUM_CURVES
 70
0
 62
7
  6
CONTINUOUS
370
-3
390
F
  0
LAYER
  5
251
100
AcDbSymbolTableRecord
100
AcDbLayerTableRecord
  2
DEFAULT_DATUM_PLANES
 70
0
 62
7
  6
CONTINUOUS
370
-3
390
F
  0
LAYER
  5
252
100
AcDbSymbolTableRecord
100
AcDbLayerTableRecord
  2
INTF_10021
 70
0
 62
7
  6
CONTINUOUS
370
-3
390
F
  0
LAYER
  5
253
100
AcDbSymbolTableRecord
100
AcDbLayerTableRecord
  2
INTF_10048
 70
0
 62
7
  6
CONTINUOUS
370
-3
390
F
  0
LAYER
  5
254
100
AcDbSymbolTableRecord
100
AcDbLayerTableRecord
  2
INTF_10078
 70
0
 62
7
  6
CONTINUOUS
370
-3
390
F
  0
LAYER
  5
255
100
AcDbSymbolTableRecord
100
AcDbLayerTableRecord
  2
INTF_10095
 70
0
 62
7
  6
CONTINUOUS
370
-3
390
F
  0
LAYER
  5
256
100
AcDbSymbolTableRecord
100
AcDbLayerTableRecord
  2
INTF_10096
 70
0
 62
7
  6
CONTINUOUS
370
-3
390
F
  0
LAYER
  5
257
100
AcDbSymbolTableRecord
100
AcDbLayerTableRecord
  2
INTF_10097
 70
0
 62
7
  6
CONTINUOUS
370
-3
390
F
  0
LAYER
  5
258
100
AcDbSymbolTableRecord
100
AcDbLayerTableRecord
  2
INTF_10098
 70
0
 62
7
  6
CONTINUOUS
370
-3
390
F
  0
LAYER
  5
259
100
AcDbSymbolTableRecord
100
AcDbLayerTableRecord
  2
INTF_10156
 70
0
 62
7
  6
CONTINUOUS
370
-3
390
F
  0
LAYER
  5
25A
100
AcDbSymbolTableRecord
100
AcDbLayerTableRecord
  2
INTF_10288
 70
0
 62
7
  6
CONTINUOUS
370
-3
390
F
  0
LAYER
  5
25B
100
AcDbSymbolTableRecord
100
AcDbLayerTableRecord
  2
INTF_10600
 70
0
 62
7
  6
CONTINUOUS
370
-3
390
F
  0
LAYER
  5
25C
100
AcDbSymbolTableRecord
100
AcDbLayerTableRecord
  2
INTF_10601
 70
0
 62
7
  6
CONTINUOUS
370
-3
390
F
  0
LAYER
  5
25D
100
AcDbSymbolTableRecord
100
AcDbLayerTableRecord
  2
INTF_10602
 70
0
 62
7
  6
CONTINUOUS
370
-3
390
F
  0
LAYER
  5
25E
100
AcDbSymbolTableRecord
100
AcDbLayerTableRecord
  2
INTF_10603
 70
0
 62
7
  6
CONTINUOUS
370
-3
390
F
  0
LAYER
  5
25F
100
AcDbSymbolTableRecord
100
AcDbLayerTableRecord
  2
INTF_10604
 70
0
 62
7
  6
CONTINUOUS
370
-3
390
F
  0
LAYER
  5
260
100
AcDbSymbolTableRecord
100
AcDbLayerTableRecord
  2
INTF_10605
 70
0
 62
7
  6
CONTINUOUS
370
-3
390
F
  0
LAYER
  5
261
100
AcDbSymbolTableRecord
100
AcDbLayerTableRecord
  2
INTF_11483
 70
0
 62
7
  6
CONTINUOUS
370
-3
390
F
  0
LAYER
  5
262
100
AcDbSymbolTableRecord
100
AcDbLayerTableRecord
  2
INTF_91014
 70
0
 62
7
  6
CONTINUOUS
370
-3
390
F
  0
LAYER
  5
263
100
AcDbSymbolTableRecord
100
AcDbLayerTableRecord
  2
INTF_91019
 70
0
 62
7
  6
CONTINUOUS
370
-3
390
F
  0
LAYER
  5
264
100
AcDbSymbolTableRecord
100
AcDbLayerTableRecord
  2
INTF_91093
 70
0
 62
7
  6
CONTINUOUS
370
-3
390
F
  0
LAYER
  5
265
100
AcDbSymbolTableRecord
100
AcDbLayerTableRecord
  2
INTF_92000
 70
0
 62
7
  6
CONTINUOUS
370
-3
390
F
  0
LAYER
  5
266
100
AcDbSymbolTableRecord
100
AcDbLayerTableRecord
  2
INTF_92012
 70
0
 62
7
  6
CONTINUOUS
370
-3
390
F
  0
LAYER
  5
267
100
AcDbSymbolTableRecord
100
AcDbLayerTableRecord
  2
INTF_92029
 70
0
 62
7
  6
CONTINUOUS
370
-3
390
F
  0
LAYER
  5
268
100
AcDbSymbolTableRecord
100
AcDbLayerTableRecord
  2
INTF_YELLOW
 70
0
 62
7
  6
CONTINUOUS
370
-3
390
F
  0
ENDTAB
  0
TABLE
  2
STYLE
  5
3
100
AcDbSymbolTable
 70
1
  0
STYLE
  5
11
100
AcDbSymbolTableRecord
100
AcDbTextStyleTableRecord
  2
STANDARD
 70
0
 40
0.0
 41
0.8
 50
0.0
 71
0
 42
0.2
  3
txt
  4

  0
STYLE
  5
269
100
AcDbSymbolTableRecord
100
AcDbTextStyleTableRecord
  2
TEXTSTYLE_1
 70
0
 40
0.0
 41
0.8
 50
0.0
 71
0
 42
0.2
  3
gdt
  4

  0
ENDTAB
  0
TABLE
  2
VIEW
  5
6
100
AcDbSymbolTable
 70
0
  0
ENDTAB
  0
TABLE
  2
UCS
  5
7
100
AcDbSymbolTable
 70
0
  0
ENDTAB
  0
TABLE
  2
APPID
  5
9
100
AcDbSymbolTable
 70
1
  0
APPID
  5
26A
100
AcDbSymbolTableRecord
100
AcDbRegAppTableRecord
  2
ACAD
 70
0
  0
ENDTAB
  0
TABLE
  2
BLOCK_RECORD
  5
1
100
AcDbSymbolTable
 70
0
  0
BLOCK_RECORD
  5
26B
100
AcDbSymbolTableRecord
100
AcDbBlockTableRecord
  2
*Model_Space
  0
BLOCK_RECORD
  5
26C
100
AcDbSymbolTableRecord
100
AcDbBlockTableRecord
  2
*Paper_Space
  0
ENDTAB
  0
TABLE
  2
DIMSTYLE
  5
A
100
AcDbSymbolTable
 70
1
100
AcDbDimStyleTable
 71
0
  0
DIMSTYLE
105
26D
100
AcDbSymbolTableRecord
100
AcDbDimStyleTableRecord
  2
STANDARD
 70
0
  3

  4

 40
1.0
 41
0.1875
 42
0.0625
 43
0.38
 44
0.18
 45
0.0
 46
0.0
 47
0.01
 48
0.01
140
0.15625
141
0.09
142
0.0
143
25.4
144
1.0
145
0.0
146
1.0
147
0.09
 71
0.0
 72
0.0
 73
1
 74
1
 75
0
 76
0
 77
0
 78
4
170
0
171
2
172
0
173
0
174
0
175
0
176
0
177
0
178
0
270
2
271
2
272
2
273
2
274
2
275
0
280
0
281
0
282
0
283
1
284
4
285
0
286
0
287
3
288
0
340
11
  0
ENDTAB
  0
ENDSEC
  0
SECTION
  2
BLOCKS
  0
BLOCK
  5
20
100
AcDbEntity
  8
0
100
AcDbBlockBegin
  2
*Model_Space
 70
0
 10
0.0
 20
0.0
 30
0.0
  3
*Model_Space
  1

  0
ENDBLK
  5
21
100
AcDbEntity
  8
0
100
AcDbBlockEnd
  0
BLOCK
  5
1C
100
AcDbEntity
  8
0
100
AcDbBlockBegin
  2
*Paper_Space
 70
0
 10
0.0
 20
0.0
 30
0.0
  3
*Paper_Space
  1

  0
ENDBLK
  5
1D
100
AcDbEntity
  8
0
100
AcDbBlockEnd
  0
ENDSEC
  0
SECTION
  2
ENTITIES
  0
LINE
  5
26E
100
AcDbEntity
  8
0
100
AcDbLine
 62
7
  6
CONTINUOUS
 10
5.7445930163
 20
9.8375426303
 11
5.7445930163
 21
9.9325426303
  0
LINE
  5
26F
100
AcDbEntity
  8
0
100
AcDbLine
 62
7
  6
CONTINUOUS
 10
5.7725930163
 20
9.9325426303
 11
5.7725930163
 21
10.0825001286
  0
LINE
  5
270
100
AcDbEntity
  8
0
100
AcDbLine
 62
7
  6
CONTINUOUS
 10
6.6425930163
 20
10.0825426303
 11
6.6425930163
 21
9.9325426303
  0
LINE
  5
271
100
AcDbEntity
  8
0
100
AcDbLine
 62
7
  6
CONTINUOUS
 10
6.6705930163
 20
9.8375426303
 11
6.6705930163
 21
9.9325426303
  0
LINE
  5
272
100
AcDbEntity
  8
0
100
AcDbLine
 62
7
  6
CONTINUOUS
 10
9.8015930163
 20
10.6546676303
 11
9.8015930163
 21
10.6256676303
  0
LINE
  5
273
100
AcDbEntity
  8
0
100
AcDbLine
 62
7
  6
CONTINUOUS
 10
9.8015930163
 20
10.5626676303
 11
9.8015930163
 21
10.5326676303
  0
LINE
  5
274
100
AcDbEntity
  8
0
100
AcDbLine
 62
7
  6
CONTINUOUS
 10
9.8345930163
 20
10.7225465594
 11
9.8345930163
 21
10.6856676303
  0
LINE
  5
275
100
AcDbEntity
  8
0
100
AcDbLine
 62
7
  6
CONTINUOUS
 10
9.8345930163
 20
10.5016676303
 11
9.8345930163
 21
10.4583762763
  0
LINE
  5
276
100
AcDbEntity
  8
0
100
AcDbLine
 62
7
  6
CONTINUOUS
 10
10.0775930163
 20
9.6656676303
 11
9.9734347448
 21
10.2563785416
  0
LINE
  5
277
100
AcDbEntity
  8
0
100
AcDbLine
 62
7
  6
CONTINUOUS
 10
10.1138430163
 20
9.6656676303
 11
10.1138430163
 21
9.5875426303
  0
LINE
  5
278
100
AcDbEntity
  8
0
100
AcDbLine
 62
7
  6
CONTINUOUS
 10
10.3013430163
 20
9.6656676303
 11
10.3013430163
 21
9.5875426303
  0
LINE
  5
279
100
AcDbEntity
  8
0
100
AcDbLine
 62
7
  6
CONTINUOUS
 10
10.5805930163
 20
10.7225465594
 11
10.5805930163
 21
10.6856676303
  0
LINE
  5
27A
100
AcDbEntity
  8
0
100
AcDbLine
 62
7
  6
CONTINUOUS
 10
10.5805930163
 20
10.5016676303
 11
10.5805930163
 21
10.4583762763
  0
LINE
  5
27B
100
AcDbEntity
  8
0
100
AcDbLine
 62
7
  6
CONTINUOUS
 10
10.6135930163
 20
10.6546676303
 11
10.6135930163
 21
10.6256676303
  0
LINE
  5
27C
100
AcDbEntity
  8
0
100
AcDbLine
 62
7
  6
CONTINUOUS
 10
10.6135930163
 20
10.5626676303
 11
10.6135930163
 21
10.5326676303
  0
LINE
  5
27D
100
AcDbEntity
  8
0
100
AcDbLine
 62
7
  6
CONTINUOUS
 10
10.4417512877
 20
10.2563785416
 11
10.3375930163
 21
9.6656676303
  0
LINE
  5
27E
100
AcDbEntity
  8
0
100
AcDbLine
 62
6
  6
CONTINUOUS
 10
5.4176568028
 20
9.3375426303
 11
6.9975292297
 21
9.3375426303
  0
LINE
  5
27F
100
AcDbEntity
  8
0
100
AcDbLine
 62
7
  6
CONTINUOUS
 10
9.5515930163
 20
9.3375426303
 11
10.8635930163
 21
9.3375426303
  0
LINE
  5
280
100
AcDbEntity
  8
0
100
AcDbLine
 62
7
  6
CONTINUOUS
 10
17.0275930163
 20
9.3375426303
 11
19.3875930163
 21
9.3375426303
  0
LINE
  5
281
100
AcDbEntity
  8
0
100
AcDbLine
 62
7
  6
CONTINUOUS
 10
26.1951745163
 20
9.3375426303
 11
28.2200115163
 21
9.3375426303
  0
LINE
  5
282
100
AcDbEntity
  8
0
100
AcDbLine
 62
7
  6
CONTINUOUS
 10
10.6871702286
 20
9.4625426303
 11
9.7280158039
 21
9.4625426303
  0
LINE
  5
283
100
AcDbEntity
  8
0
100
AcDbLine
 62
7
  6
CONTINUOUS
 10
19.2075925208
 20
9.5245426303
 11
17.2075935118
 21
9.5245426303
  0
LINE
  5
284
100
AcDbEntity
  8
0
100
AcDbLine
 62
9
  6
CONTINUOUS
 10
28.220092514
 20
9.5865100979
 11
26.1950935186
 21
9.5865100979
  0
LINE
  5
285
100
AcDbEntity
  8
0
100
AcDbLine
 62
7
  6
CONTINUOUS
 10
9.9152658039
 20
9.5875426303
 11
10.4999199624
 21
9.5875426303
  0
LINE
  5
286
100
AcDbEntity
  8
0
100
AcDbLine
 62
7
  6
CONTINUOUS
 10
28.1825928605
 20
9.6575426303
 11
26.2325931721
 21
9.6575426303
  0
LINE
  5
287
100
AcDbEntity
  8
0
100
AcDbLine
 62
7
  6
CONTINUOUS
 10
10.0775930163
 20
9.6656676303
 11
10.3375930163
 21
9.6656676303
  0
LINE
  5
288
100
AcDbEntity
  8
0
100
AcDbLine
 62
7
  6
CONTINUOUS
 10
19.0205956901
 20
9.7125426303
 11
17.3950930163
 21
9.7125426303
  0
LINE
  5
289
100
AcDbEntity
  8
0
100
AcDbLine
 62
7
  6
CONTINUOUS
 10
17.3950931542
 20
9.7995426303
 11
19.0200928784
 21
9.7995426303
  0
LINE
  5
28A
100
AcDbEntity
  8
0
100
AcDbLine
 62
9
  6
CONTINUOUS
 10
6.7077761028
 20
9.8330588914
 11
5.7074097507
 21
9.8330587468
  0
LINE
  5
28B
100
AcDbEntity
  8
0
100
AcDbLine
 62
6
  6
CONTINUOUS
 10
6.6958079164
 20
9.8375426303
 11
5.7193781161
 21
9.8375426303
  0
LINE
  5
28C
100
AcDbEntity
  8
0
100
AcDbLine
 62
7
  6
CONTINUOUS
 10
5.7446322489
 20
9.9325426303
 11
5.7725930163
 21
9.9325426303
  0
LINE
  5
28D
100
AcDbEntity
  8
0
100
AcDbLine
 62
7
  6
CONTINUOUS
 10
6.6425930163
 20
9.9325426303
 11
6.6705537836
 21
9.9325426303
  0
LINE
  5
28E
100
AcDbEntity
  8
0
100
AcDbLine
 62
9
  6
CONTINUOUS
 10
5.7725930163
 20
10.0790426303
 11
6.6425930163
 21
10.0790426303
  0
LINE
  5
28F
100
AcDbEntity
  8
0
100
AcDbLine
 62
7
  6
CONTINUOUS
 10
6.6425930163
 20
10.0825426303
 11
5.7725930163
 21
10.0825426303
  0
LINE
  5
290
100
AcDbEntity
  8
0
100
AcDbLine
 62
9
  6
CONTINUOUS
 10
9.9734347448
 20
10.2563785416
 11
10.4417512877
 21
10.2563785416
  0
LINE
  5
291
100
AcDbEntity
  8
0
100
AcDbLine
 62
9
  6
CONTINUOUS
 10
10.5649648346
 20
10.4314558899
 11
9.850221198
 21
10.4314558899
  0
LINE
  5
292
100
AcDbEntity
  8
0
100
AcDbLine
 62
9
  6
CONTINUOUS
 10
9.8345930163
 20
10.4583762763
 11
10.5805930163
 21
10.4583762763
  0
LINE
  5
293
100
AcDbEntity
  8
0
100
AcDbLine
 62
9
  6
CONTINUOUS
 10
26.4994015636
 20
10.4982877704
 11
27.915784469
 21
10.4982877704
  0
LINE
  5
294
100
AcDbEntity
  8
0
100
AcDbLine
 62
7
  6
CONTINUOUS
 10
10.5825930163
 20
10.5016676303
 11
9.8325930163
 21
10.5016676303
  0
LINE
  5
295
100
AcDbEntity
  8
0
100
AcDbLine
 62
9
  6
CONTINUOUS
 10
9.8015930163
 20
10.5326676303
 11
10.6135930163
 21
10.5326676303
  0
LINE
  5
296
100
AcDbEntity
  8
0
100
AcDbLine
 62
7
  6
CONTINUOUS
 10
10.6135930163
 20
10.5626676303
 11
9.8015930163
 21
10.5626676303
  0
LINE
  5
297
100
AcDbEntity
  8
0
100
AcDbLine
 62
7
  6
CONTINUOUS
 10
10.6135930163
 20
10.6256676303
 11
9.8015930163
 21
10.6256676303
  0
LINE
  5
298
100
AcDbEntity
  8
0
100
AcDbLine
 62
9
  6
CONTINUOUS
 10
27.8644629314
 20
10.6408834031
 11
26.5507231011
 21
10.6408834031
  0
LINE
  5
299
100
AcDbEntity
  8
0
100
AcDbLine
 62
9
  6
CONTINUOUS
 10
10.6135930163
 20
10.6546676303
 11
9.8015930163
 21
10.6546676303
  0
LINE
  5
29A
100
AcDbEntity
  8
0
100
AcDbLine
 62
7
  6
CONTINUOUS
 10
10.5825930163
 20
10.6856676303
 11
9.8325930163
 21
10.6856676303
  0
LINE
  5
29B
100
AcDbEntity
  8
0
100
AcDbLine
 62
9
  6
CONTINUOUS
 10
10.5805930163
 20
10.7225465594
 11
9.8345930163
 21
10.7225465594
  0
LINE
  5
29C
100
AcDbEntity
  8
0
100
AcDbLine
 62
9
  6
CONTINUOUS
 10
9.8589418243
 20
10.7528246314
 11
10.5562442082
 21
10.7528246314
  0
LINE
  5
29D
100
AcDbEntity
  8
0
100
AcDbLine
 62
7
  6
CONTINUOUS
 10
18.6170930032
 20
11.0925426303
 11
17.7980930293
 21
11.0925426303
  0
LINE
  5
29E
100
AcDbEntity
  8
0
100
AcDbLine
 62
7
  6
CONTINUOUS
 10
17.8181535075
 20
11.1125426303
 11
18.597032525
 21
11.1125426303
  0
LINE
  5
29F
100
AcDbEntity
  8
0
100
AcDbLine
 62
7
  6
CONTINUOUS
 10
18.5200930163
 20
11.1437926303
 11
17.8950930163
 21
11.1437926303
  0
LINE
  5
2A0
100
AcDbEntity
  8
0
100
AcDbLine
 62
7
  6
CONTINUOUS
 10
18.2093830143
 20
11.7387974983
 11
18.2075930163
 21
11.738792843
  0
LINE
  5
2A1
100
AcDbEntity
  8
0
100
AcDbLine
 62
7
  6
CONTINUOUS
 10
18.3898392016
 20
11.3437926303
 11
18.3716089662
 21
11.3437926303
  0
LINE
  5
2A2
100
AcDbEntity
  8
0
100
AcDbLine
 62
7
  6
CONTINUOUS
 10
18.2075930163
 20
11.738792843
 11
18.2058032682
 21
11.7387976148
  0
LINE
  5
2A3
100
AcDbEntity
  8
0
100
AcDbLine
 62
7
  6
CONTINUOUS
 10
17.3950930163
 20
9.7995426303
 11
17.3950930163
 21
9.7125419546
  0
LINE
  5
2A4
100
AcDbEntity
  8
0
100
AcDbLine
 62
7
  6
CONTINUOUS
 10
26.4675930163
 20
12.8055426303
 11
27.9475930163
 21
12.8055426303
  0
LINE
  5
2A5
100
AcDbEntity
  8
0
100
AcDbLine
 62
9
  6
CONTINUOUS
 10
26.447593148
 20
12.880375778
 11
27.9675928845
 21
12.880375778
  0
LINE
  5
2A6
100
AcDbEntity
  8
0
100
AcDbLine
 62
7
  6
CONTINUOUS
 10
18.5970930163
 20
11.1125426303
 11
18.6170930163
 21
11.0925426303
  0
LINE
  5
2A7
100
AcDbEntity
  8
0
100
AcDbLine
 62
7
  6
CONTINUOUS
 10
17.8950930163
 20
11.1437926303
 11
17.8950930163
 21
11.882922953
  0
LINE
  5
2A8
100
AcDbEntity
  8
0
100
AcDbLine
 62
7
  6
CONTINUOUS
 10
17.8950930163
 20
12.0274493101
 11
17.8950930163
 21
12.0541545894
  0
LINE
  5
2A9
100
AcDbEntity
  8
0
100
AcDbLine
 62
6
  6
CONTINUOUS
 10
18.0238438893
 20
11.1125426303
 11
18.0238438893
 21
11.1437926303
  0
LINE
  5
2AA
100
AcDbEntity
  8
0
100
AcDbLine
 62
6
  6
CONTINUOUS
 10
18.029612095
 20
11.1437926303
 11
18.029612095
 21
11.1125426303
  0
LINE
  5
2AB
100
AcDbEntity
  8
0
100
AcDbLine
 62
6
  6
CONTINUOUS
 10
18.0460498225
 20
11.1125426303
 11
18.0460498225
 21
11.1437926303
  0
LINE
  5
2AC
100
AcDbEntity
  8
0
100
AcDbLine
 62
6
  6
CONTINUOUS
 10
18.0624762826
 20
11.1437926303
 11
18.0624762826
 21
11.1125426303
  0
LINE
  5
2AD
100
AcDbEntity
  8
0
100
AcDbLine
 62
6
  6
CONTINUOUS
 10
18.0853773419
 20
11.1125426303
 11
18.0853773419
 21
11.1437926303
  0
LINE
  5
2AE
100
AcDbEntity
  8
0
100
AcDbLine
 62
6
  6
CONTINUOUS
 10
18.0928492426
 20
11.1125426303
 11
18.0928492426
 21
11.1437926303
  0
LINE
  5
2AF
100
AcDbEntity
  8
0
100
AcDbLine
 62
6
  6
CONTINUOUS
 10
18.1174331774
 20
11.1437926303
 11
18.1174331774
 21
11.1125426303
  0
LINE
  5
2B0
100
AcDbEntity
  8
0
100
AcDbLine
 62
6
  6
CONTINUOUS
 10
18.1362427292
 20
11.1125426303
 11
18.1362427292
 21
11.1437926303
  0
LINE
  5
2B1
100
AcDbEntity
  8
0
100
AcDbLine
 62
6
  6
CONTINUOUS
 10
18.1540227268
 20
11.1437926303
 11
18.1540227268
 21
11.1125426303
  0
LINE
  5
2B2
100
AcDbEntity
  8
0
100
AcDbLine
 62
6
  6
CONTINUOUS
 10
18.157117362
 20
11.1125426303
 11
18.157117362
 21
11.1437926303
  0
LINE
  5
2B3
100
AcDbEntity
  8
0
100
AcDbLine
 62
7
  6
CONTINUOUS
 10
18.1859430163
 20
11.1125426303
 11
18.1859430163
 21
11.1437926303
  0
LINE
  5
2B4
100
AcDbEntity
  8
0
100
AcDbLine
 62
7
  6
CONTINUOUS
 10
18.2292430163
 20
11.1125426303
 11
18.2292430163
 21
11.1437926303
  0
LINE
  5
2B5
100
AcDbEntity
  8
0
100
AcDbLine
 62
6
  6
CONTINUOUS
 10
18.2580686706
 20
11.1437926303
 11
18.2580686706
 21
11.1125426303
  0
LINE
  5
2B6
100
AcDbEntity
  8
0
100
AcDbLine
 62
6
  6
CONTINUOUS
 10
18.2611633058
 20
11.1125426303
 11
18.2611633058
 21
11.1437926303
  0
LINE
  5
2B7
100
AcDbEntity
  8
0
100
AcDbLine
 62
6
  6
CONTINUOUS
 10
18.2789433034
 20
11.1437926303
 11
18.2789433034
 21
11.1125426303
  0
LINE
  5
2B8
100
AcDbEntity
  8
0
100
AcDbLine
 62
6
  6
CONTINUOUS
 10
18.2977528552
 20
11.1125426303
 11
18.2977528552
 21
11.1437926303
  0
LINE
  5
2B9
100
AcDbEntity
  8
0
100
AcDbLine
 62
6
  6
CONTINUOUS
 10
18.32233679
 20
11.1437926303
 11
18.32233679
 21
11.1125426303
  0
LINE
  5
2BA
100
AcDbEntity
  8
0
100
AcDbLine
 62
6
  6
CONTINUOUS
 10
18.3298086907
 20
11.1437926303
 11
18.3298086907
 21
11.1125426303
  0
LINE
  5
2BB
100
AcDbEntity
  8
0
100
AcDbLine
 62
6
  6
CONTINUOUS
 10
18.35270975
 20
11.1125426303
 11
18.35270975
 21
11.1437926303
  0
LINE
  5
2BC
100
AcDbEntity
  8
0
100
AcDbLine
 62
6
  6
CONTINUOUS
 10
18.36913621
 20
11.1437926303
 11
18.36913621
 21
11.1125426303
  0
LINE
  5
2BD
100
AcDbEntity
  8
0
100
AcDbLine
 62
6
  6
CONTINUOUS
 10
18.3855739375
 20
11.1136669109
 11
18.3855739375
 21
11.1437926303
  0
LINE
  5
2BE
100
AcDbEntity
  8
0
100
AcDbLine
 62
6
  6
CONTINUOUS
 10
18.3913421432
 20
11.1437926303
 11
18.3913421432
 21
11.1125426303
  0
LINE
  5
2BF
100
AcDbEntity
  8
0
100
AcDbLine
 62
7
  6
CONTINUOUS
 10
17.8180930163
 20
11.1125426303
 11
17.7980930163
 21
11.0925426303
  0
LINE
  5
2C0
100
AcDbEntity
  8
0
100
AcDbLine
 62
9
  6
CONTINUOUS
 10
26.447593148
 20
13.4398033991
 11
27.9675928845
 21
13.4398033991
  0
LINE
  5
2C1
100
AcDbEntity
  8
0
100
AcDbLine
 62
9
  6
CONTINUOUS
 10
27.9960616599
 20
13.5096838999
 11
26.4191243726
 21
13.5096838999
  0
LINE
  5
2C2
100
AcDbEntity
  8
0
100
AcDbLine
 62
7
  6
CONTINUOUS
 10
18.3767201359
 20
11.375927647
 11
18.3898392016
 21
11.3437926303
  0
LINE
  5
2C3
100
AcDbEntity
  8
0
100
AcDbLine
 62
7
  6
CONTINUOUS
 10
18.5200930163
 20
11.1437926303
 11
18.5200930163
 21
11.8829233313
  0
LINE
  5
2C4
100
AcDbEntity
  8
0
100
AcDbLine
 62
7
  6
CONTINUOUS
 10
18.5200930163
 20
12.0274540737
 11
18.5200930163
 21
12.0541545317
  0
LINE
  5
2C5
100
AcDbEntity
  8
0
100
AcDbLine
 62
7
  6
CONTINUOUS
 10
19.0200930163
 20
9.7995426303
 11
19.0200930163
 21
9.7125419546
  0
LINE
  5
2C6
100
AcDbEntity
  8
0
100
AcDbLine
 62
7
  6
CONTINUOUS
 10
18.3898392016
 20
11.3437926303
 11
18.377725895
 21
11.31412121
  0
LINE
  5
2C7
100
AcDbEntity
  8
0
100
AcDbLine
 62
7
  6
CONTINUOUS
 10
26.1422154121
 20
13.8055426303
 11
26.3402906029
 21
13.8055426303
  0
LINE
  5
2C8
100
AcDbEntity
  8
0
100
AcDbLine
 62
7
  6
CONTINUOUS
 10
26.5682239728
 20
13.8055426303
 11
27.0464197848
 21
13.8055426303
  0
LINE
  5
2C9
100
AcDbEntity
  8
0
100
AcDbLine
 62
7
  6
CONTINUOUS
 10
27.3687662477
 20
13.8055426303
 11
27.8469620598
 21
13.8055426303
  0
LINE
  5
2CA
100
AcDbEntity
  8
0
100
AcDbLine
 62
7
  6
CONTINUOUS
 10
28.0748954296
 20
13.8055426303
 11
28.2729706204
 21
13.8055426303
  0
LINE
  5
2CB
100
AcDbEntity
  8
0
100
AcDbLine
 62
9
  6
CONTINUOUS
 10
28.2729706204
 20
14.4155426303
 11
28.0748954296
 21
14.4155426303
  0
LINE
  5
2CC
100
AcDbEntity
  8
0
100
AcDbLine
 62
9
  6
CONTINUOUS
 10
27.8469620598
 20
14.4155426303
 11
27.3687662477
 21
14.4155426303
  0
LINE
  5
2CD
100
AcDbEntity
  8
0
100
AcDbLine
 62
9
  6
CONTINUOUS
 10
27.0464197848
 20
14.4155426303
 11
26.5682239728
 21
14.4155426303
  0
LINE
  5
2CE
100
AcDbEntity
  8
0
100
AcDbLine
 62
9
  6
CONTINUOUS
 10
26.3402906029
 20
14.4155426303
 11
26.1422154121
 21
14.4155426303
  0
LINE
  5
2CF
100
AcDbEntity
  8
0
100
AcDbLine
 62
7
  6
CONTINUOUS
 10
28.1350930163
 20
14.5655426303
 11
26.2800930163
 21
14.5655426303
  0
LINE
  5
2D0
100
AcDbEntity
  8
0
100
AcDbLine
 62
9
  6
CONTINUOUS
 10
26.2984616176
 20
14.6255433321
 11
28.116724415
 21
14.6255433321
  0
LINE
  5
2D1
100
AcDbEntity
  8
0
100
AcDbLine
 62
7
  6
CONTINUOUS
 10
28.1993508141
 20
13.7177750218
 11
27.996061795
 21
13.5096838999
  0
LINE
  5
2D2
100
AcDbEntity
  8
0
100
AcDbLine
 62
7
  6
CONTINUOUS
 10
26.2158352184
 20
13.7177750218
 11
26.4191242375
 21
13.5096838999
  0
LINE
  5
2D3
100
AcDbEntity
  8
0
100
AcDbLine
 62
7
  6
CONTINUOUS
 10
26.1422154121
 20
13.8055426303
 11
26.1422154121
 21
14.4155426303
  0
LINE
  5
2D4
100
AcDbEntity
  8
0
100
AcDbLine
 62
7
  6
CONTINUOUS
 10
26.1950930163
 20
9.5865100979
 11
26.1950930163
 21
9.3375426303
  0
LINE
  5
2D5
100
AcDbEntity
  8
0
100
AcDbLine
 62
7
  6
CONTINUOUS
 10
26.3402906029
 20
14.4155426303
 11
26.3402906029
 21
13.8055426303
  0
LINE
  5
2D6
100
AcDbEntity
  8
0
100
AcDbLine
 62
7
  6
CONTINUOUS
 10
26.5690648203
 20
13.78929869
 11
26.5682239728
 21
13.8055426303
  0
LINE
  5
2D7
100
AcDbEntity
  8
0
100
AcDbLine
 62
7
  6
CONTINUOUS
 10
26.4475930163
 20
13.4398033991
 11
26.4475930163
 21
12.880375778
  0
LINE
  5
2D8
100
AcDbEntity
  8
0
100
AcDbLine
 62
7
  6
CONTINUOUS
 10
26.5682239728
 20
13.8055426303
 11
26.5682239728
 21
14.4155426303
  0
LINE
  5
2D9
100
AcDbEntity
  8
0
100
AcDbLine
 62
7
  6
CONTINUOUS
 10
27.0464197848
 20
14.4155426303
 11
27.0464197848
 21
13.8055426303
  0
LINE
  5
2DA
100
AcDbEntity
  8
0
100
AcDbLine
 62
7
  6
CONTINUOUS
 10
26.6320040835
 20
12.8055426303
 11
26.5507224129
 21
10.6408834031
  0
LINE
  5
2DB
100
AcDbEntity
  8
0
100
AcDbLine
 62
7
  6
CONTINUOUS
 10
27.7831819491
 20
12.8055426303
 11
27.8644636197
 21
10.6408834031
  0
LINE
  5
2DC
100
AcDbEntity
  8
0
100
AcDbLine
 62
7
  6
CONTINUOUS
 10
27.3687662477
 20
13.8055426303
 11
27.3687662477
 21
14.4155426303
  0
LINE
  5
2DD
100
AcDbEntity
  8
0
100
AcDbLine
 62
7
  6
CONTINUOUS
 10
27.8469620598
 20
14.4155426303
 11
27.8469620598
 21
13.8055426303
  0
LINE
  5
2DE
100
AcDbEntity
  8
0
100
AcDbLine
 62
7
  6
CONTINUOUS
 10
27.9675930163
 20
13.4398033991
 11
27.9675930163
 21
12.880375778
  0
LINE
  5
2DF
100
AcDbEntity
  8
0
100
AcDbLine
 62
7
  6
CONTINUOUS
 10
28.0748954296
 20
13.8055426303
 11
28.0748954296
 21
14.4155426303
  0
LINE
  5
2E0
100
AcDbEntity
  8
0
100
AcDbLine
 62
7
  6
CONTINUOUS
 10
28.2200930163
 20
9.5865100979
 11
28.2200930163
 21
9.3375426303
  0
LINE
  5
2E1
100
AcDbEntity
  8
0
100
AcDbLine
 62
7
  6
CONTINUOUS
 10
28.2729706204
 20
14.4155426303
 11
28.2729706204
 21
13.8055426303
  0
LINE
  5
2E2
100
AcDbEntity
  8
0
100
AcDbLine
 62
7
  6
CONTINUOUS
 10
27.8469620598
 20
13.8055426303
 11
27.8461212124
 21
13.7892985873
  0
ARC
  5
2E3
100
AcDbEntity
  8
0
100
AcDbCircle
 62
7
  6
CONTINUOUS
 10
10.2075930163
 20
9.1656676302
 40
1.625
100
AcDbArc
 50
77.6106032069
 51
102.3893967931
  0
ARC
  5
2E4
100
AcDbEntity
  8
0
100
AcDbCircle
 62
6
  6
CONTINUOUS
 10
6.11637261
 20
9.1546475906
 40
0.9
100
AcDbArc
 50
11.7251799087
 51
48.9197997167
  0
ARC
  5
2E5
100
AcDbEntity
  8
0
100
AcDbCircle
 62
6
  6
CONTINUOUS
 10
6.2988134226
 20
9.1546475906
 40
0.9
100
AcDbArc
 50
131.0801321709
 51
168.2748200911
  0
ARC
  5
2E6
100
AcDbEntity
  8
0
100
AcDbCircle
 62
7
  6
CONTINUOUS
 10
9.7252631911
 20
10.2126192008
 40
0.252
100
AcDbArc
 50
9.9999999997
 51
60.273187351
  0
ARC
  5
2E7
100
AcDbEntity
  8
0
100
AcDbCircle
 62
7
  6
CONTINUOUS
 10
10.6899228415
 20
10.2126192008
 40
0.252
100
AcDbArc
 50
119.726812649
 51
170.0000000003
  0
ARC
  5
2E8
100
AcDbEntity
  8
0
100
AcDbCircle
 62
7
  6
CONTINUOUS
 10
10.4999202286
 20
9.4005426303
 40
0.187
100
AcDbArc
 50
19.3629299219
 51
90.0000000001
  0
ARC
  5
2E9
100
AcDbEntity
  8
0
100
AcDbCircle
 62
7
  6
CONTINUOUS
 10
9.9152658039
 20
9.4005426303
 40
0.187
100
AcDbArc
 50
89.9999999999
 51
160.6370700781
  0
ARC
  5
2EA
100
AcDbEntity
  8
0
100
AcDbCircle
 62
7
  6
CONTINUOUS
 10
10.6871702286
 20
9.2755426303
 40
0.187
100
AcDbArc
 50
19.3629299219
 51
90.0000000001
  0
ARC
  5
2EB
100
AcDbEntity
  8
0
100
AcDbCircle
 62
7
  6
CONTINUOUS
 10
9.7280158039
 20
9.2755426303
 40
0.187
100
AcDbArc
 50
89.9999999999
 51
160.6370700781
  0
ARC
  5
2EC
100
AcDbEntity
  8
0
100
AcDbCircle
 62
6
  6
CONTINUOUS
 10
6.6958079165
 20
9.8193277301
 40
0.0182149002
100
AcDbArc
 50
48.9283355836
 51
90.000000008
  0
ARC
  5
2ED
100
AcDbEntity
  8
0
100
AcDbCircle
 62
6
  6
CONTINUOUS
 10
5.7193781161
 20
9.8193277301
 40
0.0182149002
100
AcDbArc
 50
89.9999999918
 51
131.0752794066
  0
ARC
  5
2EE
100
AcDbEntity
  8
0
100
AcDbCircle
 62
7
  6
CONTINUOUS
 10
9.8015930163
 20
10.5941676303
 40
0.0315
100
AcDbArc
 50
90.0
 51
270.0
  0
ARC
  5
2EF
100
AcDbEntity
  8
0
100
AcDbCircle
 62
7
  6
CONTINUOUS
 10
10.6135930163
 20
10.5941676303
 40
0.0315
100
AcDbArc
 50
270.0
 51
90.0
  0
ARC
  5
2F0
100
AcDbEntity
  8
0
100
AcDbCircle
 62
7
  6
CONTINUOUS
 10
10.5825930163
 20
10.5326676303
 40
0.031
100
AcDbArc
 50
270.0
 51
360.0
  0
ARC
  5
2F1
100
AcDbEntity
  8
0
100
AcDbCircle
 62
7
  6
CONTINUOUS
 10
9.8325930163
 20
10.6546676303
 40
0.031
100
AcDbArc
 50
90.0
 51
180.0
  0
ARC
  5
2F2
100
AcDbEntity
  8
0
100
AcDbCircle
 62
7
  6
CONTINUOUS
 10
9.8655930163
 20
10.7225465594
 40
0.031
100
AcDbArc
 50
102.3893967946
 51
180.0
  0
ARC
  5
2F3
100
AcDbEntity
  8
0
100
AcDbCircle
 62
7
  6
CONTINUOUS
 10
10.5495930163
 20
10.7225465594
 40
0.031
100
AcDbArc
 50
0.0
 51
77.6106032054
  0
ARC
  5
2F4
100
AcDbEntity
  8
0
100
AcDbCircle
 62
7
  6
CONTINUOUS
 10
10.5825930163
 20
10.6546676303
 40
0.031
100
AcDbArc
 50
0.0
 51
90.0
  0
ARC
  5
2F5
100
AcDbEntity
  8
0
100
AcDbCircle
 62
7
  6
CONTINUOUS
 10
9.8325930163
 20
10.5326676303
 40
0.031
100
AcDbArc
 50
180.0000000009
 51
270.0
  0
ARC
  5
2F6
100
AcDbEntity
  8
0
100
AcDbCircle
 62
7
  6
CONTINUOUS
 10
10.5495930163
 20
10.4583762763
 40
0.031
100
AcDbArc
 50
299.7268126481
 51
359.9999999987
  0
ARC
  5
2F7
100
AcDbEntity
  8
0
100
AcDbCircle
 62
7
  6
CONTINUOUS
 10
9.8655930163
 20
10.4583762763
 40
0.031
100
AcDbArc
 50
180.0000000013
 51
240.2731873518
  0
ARC
  5
2F8
100
AcDbEntity
  8
0
100
AcDbCircle
 62
7
  6
CONTINUOUS
 10
17.2147291274
 20
9.3375426303
 40
0.1871361111
100
AcDbArc
 50
92.1854050713
 51
180.0
  0
ARC
  5
2F9
100
AcDbEntity
  8
0
100
AcDbCircle
 62
7
  6
CONTINUOUS
 10
17.3945903425
 20
9.5255426303
 40
0.187
100
AcDbArc
 50
89.8459833005
 51
180.3063960031
  0
ARC
  5
2FA
100
AcDbEntity
  8
0
100
AcDbCircle
 62
7
  6
CONTINUOUS
 10
14.8064032161
 20
11.3156841535
 40
3.0
100
AcDbArc
 50
329.6433854291
 51
355.7343714095
  0
ARC
  5
2FB
100
AcDbEntity
  8
0
100
AcDbCircle
 62
7
  6
CONTINUOUS
 10
19.2004569052
 20
9.3375426303
 40
0.1871361111
100
AcDbArc
 50
0.0
 51
87.8145949287
  0
ARC
  5
2FC
100
AcDbEntity
  8
0
100
AcDbCircle
 62
7
  6
CONTINUOUS
 10
19.0205956901
 20
9.5255426303
 40
0.187
100
AcDbArc
 50
359.6936039969
 51
90.1540166995
  0
ARC
  5
2FD
100
AcDbEntity
  8
0
100
AcDbCircle
 62
7
  6
CONTINUOUS
 10
21.6087828165
 20
11.3156841535
 40
3.0
100
AcDbArc
 50
184.2656285905
 51
210.3566145709
  0
ARC
  5
2FE
100
AcDbEntity
  8
0
100
AcDbCircle
 62
7
  6
CONTINUOUS
 10
18.4860150977
 20
11.3517599546
 40
0.1183668605
100
AcDbArc
 50
185.6023191175
 51
191.2093059726
  0
ARC
  5
2FF
100
AcDbEntity
  8
0
100
AcDbCircle
 62
7
  6
CONTINUOUS
 10
18.3571289226
 20
11.3488487704
 40
0.0925182834
100
AcDbArc
 50
353.9768418821
 51
356.8672212106
  0
ARC
  5
300
100
AcDbEntity
  8
0
100
AcDbCircle
 62
7
  6
CONTINUOUS
 10
18.3133045861
 20
11.3487936846
 40
0.0921479129
100
AcDbArc
 50
350.601413773
 51
356.8889131548
  0
ARC
  5
301
100
AcDbEntity
  8
0
100
AcDbCircle
 62
7
  6
CONTINUOUS
 10
18.3388842919
 20
11.3488052263
 40
0.091434595
100
AcDbArc
 50
353.5615189795
 51
356.857374936
  0
ARC
  5
302
100
AcDbEntity
  8
0
100
AcDbCircle
 62
7
  6
CONTINUOUS
 10
18.3612218513
 20
11.3486783843
 40
0.0911867387
100
AcDbArc
 50
344.7796560942
 51
353.6238002242
  0
ARC
  5
303
100
AcDbEntity
  8
0
100
AcDbCircle
 62
7
  6
CONTINUOUS
 10
18.3177550401
 20
11.3485388905
 40
0.0904538682
100
AcDbArc
 50
342.9086977571
 51
0.905476489
  0
ARC
  5
304
100
AcDbEntity
  8
0
100
AcDbCircle
 62
7
  6
CONTINUOUS
 10
18.3150468073
 20
11.3487584632
 40
0.0904031311
100
AcDbArc
 50
356.8969244055
 51
5.7608760234
  0
ARC
  5
305
100
AcDbEntity
  8
0
100
AcDbCircle
 62
7
  6
CONTINUOUS
 10
18.4613809078
 20
11.3484902734
 40
0.0902372769
100
AcDbArc
 50
187.3470912789
 51
193.5878788168
  0
ARC
  5
306
100
AcDbEntity
  8
0
100
AcDbCircle
 62
7
  6
CONTINUOUS
 10
18.362196542
 20
11.3486129506
 40
0.0902108208
100
AcDbArc
 50
353.5963520857
 51
356.9370015582
  0
ARC
  5
307
100
AcDbEntity
  8
0
100
AcDbCircle
 62
7
  6
CONTINUOUS
 10
18.452497629
 20
11.3445478373
 40
0.0894990272
100
AcDbArc
 50
146.9063348665
 51
155.4178274396
  0
ARC
  5
308
100
AcDbEntity
  8
0
100
AcDbCircle
 62
7
  6
CONTINUOUS
 10
18.3066005187
 20
11.3438095668
 40
0.0862544759
100
AcDbArc
 50
352.9730966605
 51
7.0399992549
  0
ARC
  5
309
100
AcDbEntity
  8
0
100
AcDbCircle
 62
7
  6
CONTINUOUS
 10
18.448768288
 20
11.3470703892
 40
0.0849973613
100
AcDbArc
 50
138.2043732748
 51
146.9582978364
  0
ARC
  5
30A
100
AcDbEntity
  8
0
100
AcDbCircle
 62
7
  6
CONTINUOUS
 10
18.4451403001
 20
11.3503175763
 40
0.0801284281
100
AcDbArc
 50
133.3817628041
 51
138.2064469127
  0
ARC
  5
30B
100
AcDbEntity
  8
0
100
AcDbCircle
 62
7
  6
CONTINUOUS
 10
18.3695890407
 20
11.3451252115
 40
0.0794922101
100
AcDbArc
 50
335.8720820382
 51
338.1353424717
  0
ARC
  5
30C
100
AcDbEntity
  8
0
100
AcDbCircle
 62
7
  6
CONTINUOUS
 10
18.442044348
 20
11.3536350492
 40
0.0755908423
100
AcDbArc
 50
129.1448207489
 51
133.4033722178
  0
ARC
  5
30D
100
AcDbEntity
  8
0
100
AcDbCircle
 62
7
  6
CONTINUOUS
 10
18.3493547079
 20
11.360872894
 40
0.0754140163
100
AcDbArc
 50
30.2451198155
 51
32.5105622736
  0
ARC
  5
30E
100
AcDbEntity
  8
0
100
AcDbCircle
 62
7
  6
CONTINUOUS
 10
18.4449363891
 20
11.3419646164
 40
0.0724943671
100
AcDbArc
 50
207.3176645475
 51
211.1048832707
  0
ARC
  5
30F
100
AcDbEntity
  8
0
100
AcDbCircle
 62
7
  6
CONTINUOUS
 10
18.3545477698
 20
11.3642690408
 40
0.0692095088
100
AcDbArc
 50
32.4502052368
 51
37.5944913492
  0
ARC
  5
310
100
AcDbEntity
  8
0
100
AcDbCircle
 62
7
  6
CONTINUOUS
 10
18.3749347109
 20
11.3265324682
 40
0.0678700081
100
AcDbArc
 50
310.9165617932
 51
314.7189949049
  0
ARC
  5
311
100
AcDbEntity
  8
0
100
AcDbCircle
 62
7
  6
CONTINUOUS
 10
18.3376443666
 20
11.3380603365
 40
0.0653334244
100
AcDbArc
 50
322.0935220355
 51
325.8646724001
  0
ARC
  5
312
100
AcDbEntity
  8
0
100
AcDbCircle
 62
7
  6
CONTINUOUS
 10
18.3588520369
 20
11.367573943
 40
0.0637828121
100
AcDbArc
 50
37.6010186164
 51
40.7132938711
  0
ARC
  5
313
100
AcDbEntity
  8
0
100
AcDbCircle
 62
7
  6
CONTINUOUS
 10
18.4365266412
 20
11.3361630974
 40
0.0622655847
100
AcDbArc
 50
217.784183463
 51
221.4501785719
  0
ARC
  5
314
100
AcDbEntity
  8
0
100
AcDbCircle
 62
7
  6
CONTINUOUS
 10
18.3297226722
 20
11.3522623549
 40
0.0614868684
100
AcDbArc
 50
29.4253209613
 51
33.2357832882
  0
ARC
  5
315
100
AcDbEntity
  8
0
100
AcDbCircle
 62
7
  6
CONTINUOUS
 10
18.3688160472
 20
11.3297198652
 40
0.052985715
100
AcDbArc
 50
308.2480925398
 51
313.7580511205
  0
ARC
  5
316
100
AcDbEntity
  8
0
100
AcDbCircle
 62
7
  6
CONTINUOUS
 10
18.3540503484
 20
11.3650354882
 40
0.0474883473
100
AcDbArc
 50
38.7435217846
 51
42.5135805531
  0
ARC
  5
317
100
AcDbEntity
  8
0
100
AcDbCircle
 62
7
  6
CONTINUOUS
 10
18.4223698862
 20
11.3187591061
 40
0.0401124035
100
AcDbArc
 50
284.3571131602
 51
288.8547208754
  0
ARC
  5
318
100
AcDbEntity
  8
0
100
AcDbCircle
 62
7
  6
CONTINUOUS
 10
18.400727404
 20
11.3168560836
 40
0.038157404
100
AcDbArc
 50
262.4344352584
 51
286.6912771877
  0
ARC
  5
319
100
AcDbEntity
  8
0
100
AcDbCircle
 62
7
  6
CONTINUOUS
 10
18.4228081013
 20
11.3161563241
 40
0.0374640439
100
AcDbArc
 50
264.4304122301
 51
270.0162805396
  0
ARC
  5
31A
100
AcDbEntity
  8
0
100
AcDbCircle
 62
7
  6
CONTINUOUS
 10
18.4136315283
 20
11.3757965302
 40
0.033451545
100
AcDbArc
 50
116.4185577472
 51
120.7188640677
  0
ARC
  5
31B
100
AcDbEntity
  8
0
100
AcDbCircle
 62
7
  6
CONTINUOUS
 10
18.3895082618
 20
11.379875223
 40
0.0290252614
100
AcDbArc
 50
70.8583549551
 51
81.7751950424
  0
ARC
  5
31C
100
AcDbEntity
  8
0
100
AcDbCircle
 62
7
  6
CONTINUOUS
 10
18.4117899184
 20
11.3809128159
 40
0.0279732478
100
AcDbArc
 50
74.4447398961
 51
90.0402237528
  0
ARC
  5
31D
100
AcDbEntity
  8
0
100
AcDbCircle
 62
7
  6
CONTINUOUS
 10
27.2075930163
 20
8.3001268312
 40
6.3904157991
100
AcDbArc
 50
81.8210311
 51
98.1789688982
  0
ARC
  5
31E
100
AcDbEntity
  8
0
100
AcDbCircle
 62
7
  6
CONTINUOUS
 10
26.8835730082
 20
9.7080106275
 40
1.3
100
AcDbArc
 50
357.7751307227
 51
37.4382101817
  0
ARC
  5
31F
100
AcDbEntity
  8
0
100
AcDbCircle
 62
7
  6
CONTINUOUS
 10
27.5316130243
 20
9.7080106275
 40
1.3
100
AcDbArc
 50
142.5617898182
 51
182.2248692774
  0
ARC
  5
320
100
AcDbEntity
  8
0
100
AcDbCircle
 62
7
  6
CONTINUOUS
 10
26.2811179583
 20
9.5865100979
 40
0.0860249421
100
AcDbArc
 50
124.3384233781
 51
180.0
  0
ARC
  5
321
100
AcDbEntity
  8
0
100
AcDbCircle
 62
7
  6
CONTINUOUS
 10
28.1340680742
 20
9.5865100979
 40
0.0860249421
100
AcDbArc
 50
0.0
 51
55.661576621
  0
ARC
  5
322
100
AcDbEntity
  8
0
100
AcDbCircle
 62
7
  6
CONTINUOUS
 10
28.1142875611
 20
10.650264144
 40
0.25
100
AcDbArc
 50
182.150412266
 51
217.4382101812
  0
ARC
  5
323
100
AcDbEntity
  8
0
100
AcDbCircle
 62
7
  6
CONTINUOUS
 10
26.3008984715
 20
10.650264144
 40
0.25
100
AcDbArc
 50
322.5617898179
 51
357.8495877333
  0
ARC
  5
324
100
AcDbEntity
  8
0
100
AcDbCircle
 62
7
  6
CONTINUOUS
 10
24.1878843855
 20
12.0802608551
 40
2.6067772004
100
AcDbArc
 50
38.9144175601
 51
39.3355351385
  0
CIRCLE
  5
325
100
AcDbEntity
  8
0
100
AcDbCircle
 62
7
  6
CONTINUOUS
 10
18.2075930163
 20
12.1537926303
 40
0.415
  0
CIRCLE
  5
326
100
AcDbEntity
  8
0
100
AcDbCircle
 62
7
  6
CONTINUOUS
 10
18.2075930163
 20
12.1537926303
 40
0.3683556755
  0
CIRCLE
  5
327
100
AcDbEntity
  8
0
100
AcDbCircle
 62
7
  6
CONTINUOUS
 10
18.2075930163
 20
12.1537926303
 40
0.34
  0
CIRCLE
  5
328
100
AcDbEntity
  8
0
100
AcDbCircle
 62
7
  6
CONTINUOUS
 10
18.2075930163
 20
12.1537926303
 40
0.328
  0
CIRCLE
  5
329
100
AcDbEntity
  8
0
100
AcDbCircle
 62
7
  6
CONTINUOUS
 10
18.2075930163
 20
12.1537926303
 40
0.308
  0
ARC
  5
32A
100
AcDbEntity
  8
0
100
AcDbCircle
 62
7
  6
CONTINUOUS
 10
30.4113145869
 20
11.9293645064
 40
2.8447423911
100
AcDbArc
 50
138.7363594698
 51
141.0489089859
  0
ARC
  5
32B
100
AcDbEntity
  8
0
100
AcDbCircle
 62
7
  6
CONTINUOUS
 10
26.5975930163
 20
12.880375778
 40
0.15
100
AcDbArc
 50
180.0
 51
209.9264348667
  0
ARC
  5
32C
100
AcDbEntity
  8
0
100
AcDbCircle
 62
7
  6
CONTINUOUS
 10
27.8175930163
 20
12.880375778
 40
0.15
100
AcDbArc
 50
330.0735651326
 51
360.0
  0
ARC
  5
32D
100
AcDbEntity
  8
0
100
AcDbCircle
 62
7
  6
CONTINUOUS
 10
28.3399237966
 20
14.482215305
 40
0.4938099275
100
AcDbArc
 50
179.5214939514
 51
180.3683103923
  0
ARC
  5
32E
100
AcDbEntity
  8
0
100
AcDbCircle
 62
7
  6
CONTINUOUS
 10
26.2800930163
 20
14.4155426303
 40
0.15
100
AcDbArc
 50
90.0
 51
114.625518316
  0
ARC
  5
32F
100
AcDbEntity
  8
0
100
AcDbCircle
 62
7
  6
CONTINUOUS
 10
28.1350930163
 20
14.4155426303
 40
0.15
100
AcDbArc
 50
65.374481684
 51
90.0000000001
  0
ARC
  5
330
100
AcDbEntity
  8
0
100
AcDbCircle
 62
7
  6
CONTINUOUS
 10
26.2862599307
 20
14.4305675612
 40
0.1394493987
100
AcDbArc
 50
123.1737825458
 51
125.7583261194
  0
ARC
  5
331
100
AcDbEntity
  8
0
100
AcDbCircle
 62
7
  6
CONTINUOUS
 10
28.0675930163
 20
13.4398033991
 40
0.1
100
AcDbArc
 50
135.6687919558
 51
180.000000001
  0
ARC
  5
332
100
AcDbEntity
  8
0
100
AcDbCircle
 62
7
  6
CONTINUOUS
 10
26.3475930163
 20
13.4398033991
 40
0.1
100
AcDbArc
 50
0.0000000001
 51
44.3312080474
  0
ARC
  5
333
100
AcDbEntity
  8
0
100
AcDbCircle
 62
7
  6
CONTINUOUS
 10
26.3027463684
 20
14.5956959824
 40
0.0301533521
100
AcDbArc
 50
98.1697126713
 51
269.9999999997
  0
ARC
  5
334
100
AcDbEntity
  8
0
100
AcDbCircle
 62
7
  6
CONTINUOUS
 10
28.1124396641
 20
14.5956959824
 40
0.0301533521
100
AcDbArc
 50
270.000000005
 51
81.8302873244
  0
SPLINE
  5
335
100
AcDbEntity
  8
0
100
AcDbSpline
 62
7
  6
CONTINUOUS
 70
0
 71
3
 72
10
 73
6
 74
4
 42
0.0000001
 43
0.0000001
 44
0.0000000001
 12
0.0179113379
 22
0.0363120161
 32
0.0
 13
-0.0040653439
 23
0.0402846312
 33
0.0
 40
0.0
 40
0.0
 40
0.0
 40
0.0
 40
0.2289931492
 40
0.6054238379
 40
1.0
 40
1.0
 40
1.0
 40
1.0
 10
18.4674326441
 20
11.3209883891
 30
0.0
 10
18.4687998353
 20
11.3237601234
 30
0.0
 10
18.4718211503
 20
11.3313894832
 30
0.0
 10
18.4744470417
 20
11.3447264143
 30
0.0
 10
18.4744242831
 20
11.3552098393
 30
0.0
 10
18.4738895872
 20
11.360508291
 30
0.0
 11
18.4674326441
 21
11.3209883891
 31
0.0
 11
18.4708805767
 21
11.3295952043
 31
0.0
 11
18.4739113673
 21
11.344532217
 31
0.0
 11
18.4738895872
 21
11.360508291
 31
0.0
  0
SPLINE
  5
336
100
AcDbEntity
  8
0
100
AcDbSpline
 62
7
  6
CONTINUOUS
 70
0
 71
3
 72
10
 73
6
 74
4
 42
0.0000001
 43
0.0000001
 44
0.0000000001
 12
-0.004116445
 22
0.0407910061
 32
0.0
 13
-0.0266677975
 23
0.0311396833
 33
0.0
 40
0.0
 40
0.0
 40
0.0
 40
0.0
 40
0.277877944
 40
0.5381866538
 40
1.0
 40
1.0
 40
1.0
 40
1.0
 10
18.4738895872
 20
11.360508291
 30
0.0
 10
18.4735082974
 20
11.364286598
 30
0.0
 10
18.4722213796
 20
11.3715640197
 30
0.0
 10
18.4679506188
 20
11.384569178
 30
0.0
 10
18.4628206278
 20
11.3932436721
 30
0.0
 10
18.4587154461
 20
11.3980372459
 30
0.0
 11
18.4738895872
 21
11.360508291
 31
0.0
 11
18.4719097
 21
11.3717274227
 31
0.0
 11
18.468545334
 21
11.3818554321
 31
0.0
 11
18.4587154461
 21
11.3980372459
 31
0.0
  0
SPLINE
  5
337
100
AcDbEntity
  8
0
100
AcDbSpline
 62
7
  6
CONTINUOUS
 70
0
 71
3
 72
9
 73
5
 74
3
 42
0.0000001
 43
0.0000001
 44
0.0000000001
 12
-0.0131452812
 22
0.0153495951
 32
0.0
 13
-0.0180896382
 23
0.0090096326
 33
0.0
 40
0.0
 40
0.0
 40
0.0
 40
0.0
 40
0.5092912148
 40
1.0
 40
1.0
 40
1.0
 40
1.0
 10
18.4587154461
 20
11.3980372459
 30
0.0
 10
18.4564838541
 20
11.4006430505
 30
0.0
 10
18.4516082598
 20
11.4053632548
 30
0.0
 10
18.4458724995
 20
11.408996473
 30
0.0
 10
18.4429135847
 20
11.4104701749
 30
0.0
 11
18.4587154461
 21
11.3980372459
 31
0.0
 11
18.4512945517
 21
11.4051690279
 31
0.0
 11
18.4429135847
 21
11.4104701749
 31
0.0
  0
SPLINE
  5
338
100
AcDbEntity
  8
0
100
AcDbSpline
 62
7
  6
CONTINUOUS
 70
0
 71
3
 72
9
 73
5
 74
3
 42
0.0000001
 43
0.0000001
 44
0.0000000001
 12
-0.0200224587
 22
0.0099722833
 32
0.0
 13
-0.0223435012
 23
0.0010551022
 33
0.0
 40
0.0
 40
0.0
 40
0.0
 40
0.0
 40
0.4940624851
 40
1.0
 40
1.0
 40
1.0
 40
1.0
 10
18.4429135847
 20
11.4104701749
 30
0.0
 10
18.4396161361
 20
11.4121124853
 30
0.0
 10
18.4325407238
 20
11.4146764942
 30
0.0
 10
18.4251021695
 20
11.4157012096
 30
0.0
 10
18.421334031
 20
11.4158791482
 30
0.0
 11
18.4429135847
 21
11.4104701749
 31
0.0
 11
18.4325361024
 21
11.4142703084
 31
0.0
 11
18.421334031
 21
11.4158791482
 31
0.0
  0
SPLINE
  5
339
100
AcDbEntity
  8
0
100
AcDbSpline
 62
7
  6
CONTINUOUS
 70
0
 71
3
 72
9
 73
5
 74
3
 42
0.0000001
 43
0.0000001
 44
0.0000000001
 12
-0.0100705869
 22
0.0004755521
 32
0.0
 13
-0.0100346722
 23
-0.0009737675
 33
0.0
 40
0.0
 40
0.0
 40
0.0
 40
0.0
 40
0.2462996359
 40
1.0
 40
1.0
 40
1.0
 40
1.0
 10
18.421334031
 20
11.4158791482
 30
0.0
 10
18.4205072371
 20
11.4159181909
 30
0.0
 10
18.4171473841
 20
11.4160104885
 30
0.0
 10
18.4137820728
 20
11.4158476092
 30
0.0
 10
18.4112610274
 20
11.4156029662
 30
0.0
 11
18.421334031
 21
11.4158791482
 31
0.0
 11
18.4188518448
 21
11.4159481767
 31
0.0
 11
18.4112610274
 21
11.4156029662
 31
0.0
  0
SPLINE
  5
33A
100
AcDbEntity
  8
0
100
AcDbSpline
 62
7
  6
CONTINUOUS
 70
0
 71
3
 72
9
 73
5
 74
3
 42
0.0000001
 43
0.0000001
 44
0.0000000001
 12
-0.0171963909
 22
-0.0016687427
 32
0.0
 13
-0.0165927423
 23
-0.0048147134
 33
0.0
 40
0.0
 40
0.0
 40
0.0
 40
0.0
 40
0.2440801833
 40
1.0
 40
1.0
 40
1.0
 40
1.0
 10
18.4112610274
 20
11.4156029662
 30
0.0
 10
18.409861928
 20
11.4154671972
 30
0.0
 10
18.4041449968
 20
11.4147566572
 30
0.0
 10
18.3985060851
 20
11.4134729186
 30
0.0
 10
18.3943251576
 20
11.4122597395
 30
0.0
 11
18.4112610274
 21
11.4156029662
 31
0.0
 11
18.4070757968
 21
11.4150861913
 31
0.0
 11
18.3943251576
 21
11.4122597395
 31
0.0
  0
SPLINE
  5
33B
100
AcDbEntity
  8
0
100
AcDbSpline
 62
7
  6
CONTINUOUS
 70
0
 71
3
 72
9
 73
5
 74
3
 42
0.0000001
 43
0.0000001
 44
0.0000000001
 12
-0.0085625977
 22
-0.0265273214
 32
0.0
 13
-0.0177671767
 23
-0.0214789266
 33
0.0
 40
0.0
 40
0.0
 40
0.0
 40
0.0
 40
0.2594289536
 40
1.0
 40
1.0
 40
1.0
 40
1.0
 10
18.4674316292
 20
11.3209889046
 30
0.0
 10
18.4666911673
 20
11.3186949195
 30
0.0
 10
18.4634634862
 20
11.3099836473
 30
0.0
 10
18.4587212141
 20
11.3017851937
 30
0.0
 10
18.4543352619
 20
11.29648297
 30
0.0
 11
18.4674316292
 21
11.3209889046
 31
0.0
 11
18.4649145224
 21
11.3142095215
 31
0.0
 11
18.4543352619
 21
11.29648297
 31
0.0
  0
SPLINE
  5
33C
100
AcDbEntity
  8
0
100
AcDbSpline
 62
7
  6
CONTINUOUS
 70
0
 71
3
 72
9
 73
5
 74
3
 42
0.0000001
 43
0.0000001
 44
0.0000000001
 12
-0.0157460632
 22
-0.0190355812
 32
0.0
 13
-0.0228668277
 23
-0.0093487992
 33
0.0
 40
0.0
 40
0.0
 40
0.0
 40
0.0
 40
0.515924669
 40
1.0
 40
1.0
 40
1.0
 40
1.0
 10
18.4543352619
 20
11.29648297
 30
0.0
 10
18.4516273344
 20
11.293209328
 30
0.0
 10
18.4456947709
 20
11.2873881466
 30
0.0
 10
18.4385055737
 20
11.2831522163
 30
0.0
 10
18.4348158179
 20
11.2816437086
 30
0.0
 11
18.4543352619
 21
11.29648297
 31
0.0
 11
18.4451713341
 21
11.2876247052
 31
0.0
 11
18.4348158179
 21
11.2816437086
 31
0.0
  0
SPLINE
  5
33D
100
AcDbEntity
  8
0
100
AcDbSpline
 62
7
  6
CONTINUOUS
 70
0
 71
3
 72
9
 73
5
 74
3
 42
0.0000001
 43
0.0000001
 44
0.0000000001
 12
-0.0139841884
 22
-0.0057172499
 32
0.0
 13
-0.0151077602
 23
-0.0000072977
 33
0.0
 40
0.0
 40
0.0
 40
0.0
 40
0.0
 40
0.2543098548
 40
1.0
 40
1.0
 40
1.0
 40
1.0
 10
18.4348158179
 20
11.2816437086
 30
0.0
 10
18.433630379
 20
11.2811590576
 30
0.0
 10
18.428883297
 20
11.279470476
 30
0.0
 10
18.4238066741
 20
11.2787045962
 30
0.0
 10
18.4200514382
 20
11.2787027823
 30
0.0
 11
18.4348158179
 21
11.2816437086
 31
0.0
 11
18.431194607
 21
11.2803598861
 31
0.0
 11
18.4200514382
 21
11.2787027823
 31
0.0
  0
SPLINE
  5
33E
100
AcDbEntity
  8
0
100
AcDbSpline
 62
7
  6
CONTINUOUS
 70
0
 71
3
 72
9
 73
5
 74
3
 42
0.0000001
 43
0.0000001
 44
0.0000000001
 12
-0.0025549834
 22
-0.0242230506
 32
0.0
 13
-0.0090725837
 23
-0.0226046974
 33
0.0
 40
0.0
 40
0.0
 40
0.0
 40
0.0
 40
0.252919041
 40
1.0
 40
1.0
 40
1.0
 40
1.0
 10
18.4491364649
 20
11.3391407875
 30
0.0
 10
18.4489210636
 20
11.3370986306
 30
0.0
 10
18.447802181
 20
11.3290560743
 30
0.0
 10
18.4456223885
 20
11.3211502693
 30
0.0
 10
18.4433630703
 20
11.3155210897
 30
0.0
 11
18.4491364649
 21
11.3391407875
 31
0.0
 11
18.4482872259
 21
11.333039147
 31
0.0
 11
18.4433630703
 21
11.3155210897
 31
0.0
  0
SPLINE
  5
33F
100
AcDbEntity
  8
0
100
AcDbSpline
 62
7
  6
CONTINUOUS
 70
0
 71
3
 72
11
 73
7
 74
5
 42
0.0000001
 43
0.0000001
 44
0.0000000001
 12
-0.0182828782
 22
-0.0408108135
 32
0.0
 13
-0.0417869685
 23
-0.0159259347
 33
0.0
 40
0.0
 40
0.0
 40
0.0
 40
0.0
 40
0.2702246182
 40
0.5272471337
 40
0.7699375507
 40
1.0
 40
1.0
 40
1.0
 40
1.0
 10
18.4421364223
 20
11.3126307675
 30
0.0
 10
18.4404895944
 20
11.3089547386
 30
0.0
 10
18.4367204163
 20
11.3020134703
 30
0.0
 10
18.4295829703
 20
11.2929451994
 30
0.0
 10
18.421254875
 20
11.2858315383
 30
0.0
 10
18.4149646715
 20
11.2824927069
 30
0.0
 10
18.4117601341
 20
11.2812713871
 30
0.0
 11
18.4421364223
 21
11.3126307675
 31
0.0
 11
18.4363322365
 21
11.3020317817
 31
0.0
 11
18.4291669831
 21
11.293044782
 31
0.0
 11
18.420874847
 21
11.2860429852
 31
0.0
 11
18.4117601341
 21
11.2812713871
 31
0.0
  0
SPLINE
  5
340
100
AcDbEntity
  8
0
100
AcDbSpline
 62
7
  6
CONTINUOUS
 70
0
 71
3
 72
9
 73
5
 74
3
 42
0.0000001
 43
0.0000001
 44
0.0000000001
 12
-0.0011884141
 22
-0.0221844475
 32
0.0
 13
-0.0065547273
 23
-0.021227284
 33
0.0
 40
0.0
 40
0.0
 40
0.0
 40
0.0
 40
0.2512046759
 40
1.0
 40
1.0
 40
1.0
 40
1.0
 10
18.4274131187
 20
11.3437926248
 30
0.0
 10
18.427313607
 20
11.3419350125
 30
0.0
 10
18.426690256
 20
11.3345543482
 30
0.0
 10
18.4251703019
 20
11.3272475945
 30
0.0
 10
18.4235342522
 20
11.3219492975
 30
0.0
 11
18.4274131187
 21
11.3437926248
 31
0.0
 11
18.4269438506
 21
11.3382315617
 31
0.0
 11
18.4235342522
 21
11.3219492975
 31
0.0
  0
SPLINE
  5
341
100
AcDbEntity
  8
0
100
AcDbSpline
 62
7
  6
CONTINUOUS
 70
0
 71
3
 72
9
 73
5
 74
3
 42
0.0000001
 43
0.0000001
 44
0.0000000001
 12
-0.0062818768
 22
-0.0203436661
 32
0.0
 13
-0.011573894
 23
-0.0178709738
 33
0.0
 40
0.0
 40
0.0
 40
0.0
 40
0.0
 40
0.2563354081
 40
1.0
 40
1.0
 40
1.0
 40
1.0
 10
18.4235342522
 20
11.3219492975
 30
0.0
 10
18.4229974964
 20
11.3202110302
 30
0.0
 10
18.4206934166
 20
11.3134979956
 30
0.0
 10
18.4175084233
 20
11.3070754739
 30
0.0
 10
18.4146393915
 20
11.3026454704
 30
0.0
 11
18.4235342522
 21
11.3219492975
 31
0.0
 11
18.421758379
 21
11.3167885423
 31
0.0
 11
18.4146393915
 21
11.3026454704
 31
0.0
  0
SPLINE
  5
342
100
AcDbEntity
  8
0
100
AcDbSpline
 62
7
  6
CONTINUOUS
 70
0
 71
3
 72
9
 73
5
 74
3
 42
0.0000001
 43
0.0000001
 44
0.0000000001
 12
-0.0078790362
 22
-0.0121658318
 32
0.0
 13
-0.010472864
 23
-0.0100202692
 33
0.0
 40
0.0
 40
0.0
 40
0.0
 40
0.0
 40
0.2566400765
 40
1.0
 40
1.0
 40
1.0
 40
1.0
 10
18.4146393915
 20
11.3026454704
 30
0.0
 10
18.4139653661
 20
11.3016047237
 30
0.0
 10
18.4112312971
 20
11.2976211097
 30
0.0
 10
18.4080567747
 20
11.2939329321
 30
0.0
 10
18.4054617389
 20
11.2914500433
 30
0.0
 11
18.4146393915
 21
11.3026454704
 31
0.0
 11
18.4125330126
 21
11.2995794724
 31
0.0
 11
18.4054617389
 21
11.2914500433
 31
0.0
  0
LINE
  5
343
100
AcDbEntity
  8
0
100
AcDbLine
 62
7
  6
CONTINUOUS
 10
26.2161789026
 20
13.717731076
 11
26.2175366052
 21
13.7160498748
  0
LINE
  5
344
100
AcDbEntity
  8
0
100
AcDbLine
 62
7
  6
CONTINUOUS
 10
28.1990071299
 20
13.717731076
 11
28.1976494273
 21
13.7160498748
  0
SPLINE
  5
345
100
AcDbEntity
  8
0
100
AcDbSpline
 62
7
  6
CONTINUOUS
 70
0
 71
3
 72
9
 73
5
 74
3
 42
0.0000001
 43
0.0000001
 44
0.0000000001
 12
-0.0135767741
 22
0.0131077932
 32
0.0
 13
-0.0153013158
 23
0.0110459392
 33
0.0
 40
0.0
 40
0.0
 40
0.0
 40
0.0
 40
0.2875699737
 40
1.0
 40
1.0
 40
1.0
 40
1.0
 10
28.2248646014
 20
14.5316062354
 30
0.0
 10
28.2235631772
 20
14.5328627046
 30
0.0
 10
28.2189555033
 20
14.5371463328
 30
0.0
 10
28.2140486156
 20
14.5411067679
 30
0.0
 10
28.21041491
 20
14.5437299208
 30
0.0
 11
28.2248646014
 21
14.5316062354
 31
0.0
 11
28.2208883759
 21
14.5352996634
 31
0.0
 11
28.21041491
 21
14.5437299208
 31
0.0
  0
LINE
  5
346
100
AcDbEntity
  8
0
100
AcDbLine
 62
7
  6
CONTINUOUS
 10
28.2052344638
 20
14.5472858782
 11
28.1975930163
 21
14.5519013082
  0
SPLINE
  5
347
100
AcDbEntity
  8
0
100
AcDbSpline
 62
7
  6
CONTINUOUS
 70
0
 71
3
 72
10
 73
6
 74
4
 42
0.0000001
 43
0.0000001
 44
0.0000000001
 12
0.0
 22
0.0635068948
 32
0.0
 13
0.0003554806
 23
0.0635058999
 33
0.0
 40
0.0
 40
0.0
 40
0.0
 40
0.0
 40
0.5170864012
 40
0.7653796231
 40
1.0
 40
1.0
 40
1.0
 40
1.0
 10
26.5682239728
 20
14.4155426303
 30
0.0
 10
26.5682239728
 20
14.4264888142
 30
0.0
 10
26.5684591809
 20
14.4426906717
 30
0.0
 10
26.5688658088
 20
14.4638553396
 30
0.0
 10
26.5690341442
 20
14.4740771041
 30
0.0
 10
26.5690619452
 20
14.4790436968
 30
0.0
 11
26.5682239728
 21
14.4155426303
 31
0.0
 11
26.5685764796
 21
14.4483792899
 31
0.0
 11
26.5688639585
 21
14.4641450007
 31
0.0
 11
26.5690619452
 21
14.4790436968
 31
0.0
  0
SPLINE
  5
348
100
AcDbEntity
  8
0
100
AcDbSpline
 62
7
  6
CONTINUOUS
 70
0
 71
3
 72
29
 73
25
 74
23
 42
0.0000001
 43
0.0000001
 44
0.0000000001
 12
0.0
 22
0.1630175387
 32
0.0
 13
0.1215707752
 23
-0.108606006
 33
0.0
 40
0.0
 40
0.0
 40
0.0
 40
0.0
 40
0.1960897647
 40
0.292815326
 40
0.3872011684
 40
0.5644553516
 40
0.6450524481
 40
0.7189294248
 40
0.7850635105
 40
0.8424104066
 40
0.8908430927
 40
0.9117450053
 40
0.9304283085
 40
0.9468754284
 40
0.9610722819
 40
0.9730348432
 40
0.9827836924
 40
0.9903378918
 40
0.993297556
 40
0.9957150015
 40
0.9975921732
 40
0.9989309166
 40
0.9997329772
 40
1.0
 40
1.0
 40
1.0
 40
1.0
 10
26.1422154121
 20
14.4155426303
 30
0.0
 10
26.1422154121
 20
14.4261979872
 30
0.0
 10
26.143780285
 20
14.4421590062
 30
0.0
 10
26.1487347117
 20
14.4626317734
 30
0.0
 10
26.1553256911
 20
14.4815580862
 30
0.0
 10
26.1640000045
 20
14.4987564944
 30
0.0
 10
26.1742351018
 20
14.5136160751
 30
0.0
 10
26.1818293188
 20
14.5229081174
 30
0.0
 10
26.1892180658
 20
14.5306933173
 30
0.0
 10
26.1961082824
 20
14.537011834
 30
0.0
 10
26.2014779906
 20
14.5413266055
 30
0.0
 10
26.2053370643
 20
14.5441528107
 30
0.0
 10
26.2078383362
 20
14.5458894507
 30
0.0
 10
26.2100716554
 20
14.5473718911
 30
0.0
 10
26.2120195938
 20
14.5486232443
 30
0.0
 10
26.2136771911
 20
14.5496530163
 30
0.0
 10
26.2150407169
 20
14.5504708841
 30
0.0
 10
26.2159935361
 20
14.5510242181
 30
0.0
 10
26.216605611
 20
14.5513671513
 30
0.0
 10
26.2169510974
 20
14.5515616156
 30
0.0
 10
26.2172188854
 20
14.5516979391
 30
0.0
 10
26.2174144328
 20
14.5518224561
 30
0.0
 10
26.2175253797
 20
14.551844832
 30
0.0
 10
26.2175821955
 20
14.5519109749
 30
0.0
 10
26.2175930163
 20
14.5519013082
 30
0.0
 11
26.1422154121
 21
14.4155426303
 31
0.0
 11
26.1452897755
 21
14.4473605179
 31
0.0
 11
26.149014173
 21
14.4626823167
 31
0.0
 11
26.1540638126
 21
14.477216655
 31
0.0
 11
26.1671391348
 21
14.5029846239
 31
0.0
 11
26.1745925741
 21
14.5138046396
 31
0.0
 11
26.1822133611
 21
14.5231300513
 31
0.0
 11
26.1896405955
 21
14.5309445567
 31
0.0
 11
26.1965373135
 21
14.5372557107
 31
0.0
 11
26.2026942341
 21
14.5421983123
 31
0.0
 11
26.2054431182
 21
14.5442117331
 31
0.0
 11
26.207944476
 21
14.5459494141
 31
0.0
 11
26.2101774542
 21
14.547433488
 31
0.0
 11
26.2121251553
 21
14.5486835328
 31
0.0
 11
26.2137822108
 21
14.5497116796
 31
0.0
 11
26.2151453409
 21
14.5505287102
 31
0.0
 11
26.2162112661
 21
14.5511454065
 31
0.0
 11
26.216631752
 21
14.5513819986
 31
0.0
 11
26.2169767068
 21
14.5515725503
 31
0.0
 11
26.2172457206
 21
14.5517184094
 31
0.0
 11
26.2174383834
 21
14.5518209236
 31
0.0
 11
26.2175542853
 21
14.5518814406
 31
0.0
 11
26.2175930163
 21
14.5519013082
 31
0.0
  0
SPLINE
  5
349
100
AcDbEntity
  8
0
100
AcDbSpline
 62
7
  6
CONTINUOUS
 70
0
 71
3
 72
10
 73
6
 74
4
 42
0.0000001
 43
0.0000001
 44
0.0000000001
 12
0.0003557156
 22
-0.0635032061
 32
0.0
 13
0.0
 23
-0.0635042023
 33
0.0
 40
0.0
 40
0.0
 40
0.0
 40
0.0
 40
0.2346221224
 40
0.4829148888
 40
1.0
 40
1.0
 40
1.0
 40
1.0
 10
27.8461240716
 20
14.4790410035
 30
0.0
 10
27.8461518912
 20
14.4740745845
 30
0.0
 10
27.8463202759
 20
14.463853227
 30
0.0
 10
27.8467269501
 20
14.4426894575
 30
0.0
 10
27.8469620598
 20
14.4264883228
 30
0.0
 10
27.8469620598
 20
14.4155426303
 30
0.0
 11
27.8461240716
 21
14.4790410035
 31
0.0
 11
27.8463221195
 21
14.4641428291
 31
0.0
 11
27.8466096253
 21
14.4483778164
 31
0.0
 11
27.8469620598
 21
14.4155426303
 31
0.0
  0
SPLINE
  5
34A
100
AcDbEntity
  8
0
100
AcDbSpline
 62
7
  6
CONTINUOUS
 70
0
 71
3
 72
30
 73
26
 74
24
 42
0.0000001
 43
0.0000001
 44
0.0000000001
 12
-0.0452196394
 22
-0.156649916
 32
0.0
 13
0.0
 23
-0.1630460425
 33
0.0
 40
0.0
 40
0.0
 40
0.0
 40
0.0
 40
0.0002669591
 40
0.0010688558
 40
0.002407335
 40
0.0042841427
 40
0.0067011248
 40
0.0096602268
 40
0.0172130091
 40
0.0269600588
 40
0.03892045
 40
0.0531147771
 40
0.0695590887
 40
0.0882393417
 40
0.1091378739
 40
0.1575624525
 40
0.2148988748
 40
0.2810212808
 40
0.3548859714
 40
0.4354693807
 40
0.521874443
 40
0.6128673786
 40
0.7072366229
 40
0.8039448664
 40
1.0
 40
1.0
 40
1.0
 40
1.0
 10
28.1975930163
 20
14.5519013082
 30
0.0
 10
28.1975889924
 20
14.5518873685
 30
0.0
 10
28.1976819608
 20
14.5518787171
 30
0.0
 10
28.1977579251
 20
14.55180072
 30
0.0
 10
28.1979734473
 20
14.5517079748
 30
0.0
 10
28.1982323813
 20
14.5515575836
 30
0.0
 10
28.1985813026
 20
14.5513685946
 30
0.0
 10
28.1991917317
 20
14.5510230643
 30
0.0
 10
28.2001456327
 20
14.5504714761
 30
0.0
 10
28.2015086812
 20
14.5496528776
 30
0.0
 10
28.2031664433
 20
14.5486233898
 30
0.0
 10
28.2051143044
 20
14.5473719196
 30
0.0
 10
28.2073476315
 20
14.5458894696
 30
0.0
 10
28.2098489174
 20
14.5441527958
 30
0.0
 10
28.2137080346
 20
14.5413265745
 30
0.0
 10
28.219077788
 20
14.5370118276
 30
0.0
 10
28.2259679686
 20
14.5306933597
 30
0.0
 10
28.2333569195
 20
14.5229080438
 30
0.0
 10
28.2409500794
 20
14.5136162686
 30
0.0
 10
28.2483871703
 20
14.5028241443
 30
0.0
 10
28.25528896
 20
14.4905979323
 30
0.0
 10
28.2614040809
 20
14.4771326565
 30
0.0
 10
28.2664512308
 20
14.4626300434
 30
0.0
 10
28.2714059479
 20
14.442159957
 30
0.0
 10
28.2729706204
 20
14.4261979681
 30
0.0
 10
28.2729706204
 20
14.4155426303
 30
0.0
 11
28.1975930163
 21
14.5519013082
 31
0.0
 11
28.1976317368
 21
14.5518814263
 31
0.0
 11
28.197747631
 21
14.551820903
 31
0.0
 11
28.1979402885
 21
14.5517183893
 31
0.0
 11
28.1982092988
 21
14.551572536
 31
0.0
 11
28.1985542515
 21
14.5513819943
 31
0.0
 11
28.1989747363
 21
14.551145415
 31
0.0
 11
28.2000406601
 21
14.5505287476
 31
0.0
 11
28.2014037868
 21
14.5497117415
 31
0.0
 11
28.2030608331
 21
14.5486836044
 31
0.0
 11
28.2050085157
 21
14.5474335441
 31
0.0
 11
28.2072414841
 21
14.5459494357
 31
0.0
 11
28.2097428636
 21
14.5442117243
 31
0.0
 11
28.2124917866
 21
14.5421982811
 31
0.0
 11
28.2186487776
 21
14.5372556735
 31
0.0
 11
28.2255454594
 21
14.5309445882
 31
0.0
 11
28.2329726559
 21
14.5231300735
 31
0.0
 11
28.2405934873
 21
14.5138045655
 31
0.0
 11
28.2480469973
 21
14.5029845188
 31
0.0
 11
28.2549872852
 21
14.4907246556
 31
0.0
 11
28.2611222764
 21
14.4772165133
 31
0.0
 11
28.2661719285
 21
14.4626821962
 31
0.0
 11
28.2698963344
 21
14.4473604679
 31
0.0
 11
28.2729706204
 21
14.4155426303
 31
0.0
  0
LINE
  5
34B
100
AcDbEntity
  8
0
100
AcDbLine
 62
7
  6
CONTINUOUS
 10
26.2175930163
 20
14.5519013082
 11
26.2099559699
 21
14.547288769
  0
LINE
  5
34C
100
AcDbEntity
  8
0
100
AcDbLine
 62
7
  6
CONTINUOUS
 10
28.1976128355
 20
13.7160044246
 11
28.2110585573
 21
13.7325479135
  0
SPLINE
  5
34D
100
AcDbEntity
  8
0
100
AcDbSpline
 62
7
  6
CONTINUOUS
 70
0
 71
3
 72
22
 73
18
 74
16
 42
0.0000001
 43
0.0000001
 44
0.0000000001
 12
-0.0873248399
 22
0.0779241624
 32
0.0
 13
-0.0771791537
 23
0.0879839814
 33
0.0
 40
0.0
 40
0.0
 40
0.0
 40
0.0
 40
0.0013635349
 40
0.0054365344
 40
0.0122180559
 40
0.0217070686
 40
0.0338723003
 40
0.0486081514
 40
0.0853244902
 40
0.1309217473
 40
0.1844657765
 40
0.2450630248
 40
0.3119808103
 40
0.4620080655
 40
0.6291372011
 40
0.8094498435
 40
1.0
 40
1.0
 40
1.0
 40
1.0
 10
26.2175731971
 20
13.7160044246
 30
0.0
 10
26.2175335069
 20
13.7160398421
 30
0.0
 10
26.2174151335
 20
13.7162190624
 30
0.0
 10
26.217101033
 20
13.7165759661
 30
0.0
 10
26.2166104122
 20
13.717201097
 30
0.0
 10
26.2159095684
 20
13.7180605081
 30
0.0
 10
26.21501868
 20
13.7191660561
 30
0.0
 10
26.2134572086
 20
13.7210950855
 30
0.0
 10
26.211073367
 20
13.7240366091
 30
0.0
 10
26.207727766
 20
13.7281473743
 30
0.0
 10
26.2037835226
 20
13.7329721539
 30
0.0
 10
26.1992987204
 20
13.7384293251
 30
0.0
 10
26.1924015417
 20
13.7467759842
 30
0.0
 10
26.1828060086
 20
13.7582842582
 30
0.0
 10
26.170277975
 20
13.7731067664
 30
0.0
 10
26.1566159527
 20
13.7890400822
 30
0.0
 10
26.1471175787
 20
13.7999541765
 30
0.0
 10
26.1422154121
 20
13.8055426303
 30
0.0
 11
26.2175731971
 21
13.7160044246
 31
0.0
 11
26.2174727831
 21
13.7161284584
 31
0.0
 11
26.2171730951
 21
13.7164991663
 31
0.0
 11
26.2166742108
 21
13.7171164695
 31
0.0
 11
26.2159762138
 21
13.7179802802
 31
0.0
 11
26.2150812658
 21
13.7190876397
 31
0.0
 11
26.2139966355
 21
13.7204285315
 31
0.0
 11
26.2112904848
 21
13.7237665868
 31
0.0
 11
26.2079220756
 21
13.7279057964
 31
0.0
 11
26.2039557216
 21
13.7327575106
 31
0.0
 11
26.1994529441
 21
13.7382368983
 31
0.0
 11
26.1944641501
 21
13.744274328
 31
0.0
 11
26.1832190802
 21
13.757759912
 31
0.0
 11
26.170593025
 21
13.7726995166
 31
0.0
 11
26.1568568978
 21
13.788720461
 31
0.0
 11
26.1422154121
 21
13.8055426303
 31
0.0
  0
SPLINE
  5
34E
100
AcDbEntity
  8
0
100
AcDbSpline
 62
7
  6
CONTINUOUS
 70
0
 71
3
 72
9
 73
5
 74
3
 42
0.0000001
 43
0.0000001
 44
0.0000000001
 12
-0.0134832488
 22
-0.0000098292
 32
0.0
 13
-0.0120777519
 23
-0.0059938304
 33
0.0
 40
0.0
 40
0.0
 40
0.0
 40
0.0
 40
0.4928496764
 40
1.0
 40
1.0
 40
1.0
 40
1.0
 10
18.4117702801
 20
11.4088860569
 30
0.0
 10
18.4095552086
 20
11.4088844421
 30
0.0
 10
18.4050459092
 20
11.4083405494
 30
0.0
 10
18.4007898358
 20
11.406767911
 30
0.0
 10
18.3987480906
 20
11.4057546533
 30
0.0
 11
18.4117702801
 21
11.4088860569
 31
0.0
 11
18.4051719039
 21
11.4080984443
 31
0.0
 11
18.3987480906
 21
11.4057546533
 31
0.0
  0
SPLINE
  5
34F
100
AcDbEntity
  8
0
100
AcDbSpline
 62
7
  6
CONTINUOUS
 70
0
 71
3
 72
10
 73
6
 74
4
 42
0.0000001
 43
0.0000001
 44
0.0000000001
 12
-0.0392892053
 22
-0.023324202
 32
0.0
 13
-0.0092810137
 23
-0.0447383822
 33
0.0
 40
0.0
 40
0.0
 40
0.0
 40
0.0
 40
0.4581621975
 40
0.7200696426
 40
1.0
 40
1.0
 40
1.0
 40
1.0
 10
18.3965436098
 20
11.4045542927
 30
0.0
 10
18.3905433335
 20
11.4009922035
 30
0.0
 10
18.3827742226
 20
11.3925065067
 30
0.0
 10
18.3761183661
 20
11.3787956834
 30
0.0
 10
18.3737946567
 20
11.3708189319
 30
0.0
 10
18.3729286442
 20
11.3666443881
 30
0.0
 11
18.3965436098
 21
11.4045542927
 31
0.0
 11
18.381861749
 21
11.3896321912
 31
0.0
 11
18.3765380174
 21
11.3789148227
 31
0.0
 11
18.3729286442
 21
11.3666443881
 31
0.0
  0
SPLINE
  5
350
100
AcDbEntity
  8
0
100
AcDbSpline
 62
7
  6
CONTINUOUS
 70
0
 71
3
 72
9
 73
5
 74
3
 42
0.0000001
 43
0.0000001
 44
0.0000000001
 12
-0.0060476975
 22
-0.0291524408
 32
0.0
 13
0.0038070815
 23
-0.0295287246
 33
0.0
 40
0.0
 40
0.0
 40
0.0
 40
0.0
 40
0.2451447299
 40
1.0
 40
1.0
 40
1.0
 40
1.0
 10
18.3729286442
 20
11.3666443881
 30
0.0
 10
18.3724344571
 20
11.364262199
 30
0.0
 10
18.3708554609
 20
11.3544583731
 30
0.0
 10
18.3709242377
 20
11.3443958398
 30
0.0
 10
18.3718821695
 20
11.3369658687
 30
0.0
 11
18.3729286442
 21
11.3666443881
 31
0.0
 11
18.3717593164
 21
11.3594399392
 31
0.0
 11
18.3718821695
 21
11.3369658687
 31
0.0
  0
SPLINE
  5
351
100
AcDbEntity
  8
0
100
AcDbSpline
 62
7
  6
CONTINUOUS
 70
0
 71
3
 72
9
 73
5
 74
3
 42
0.0000001
 43
0.0000001
 44
0.0000000001
 12
0.0046640201
 22
-0.0192893253
 32
0.0
 13
0.0091115671
 23
-0.0176298185
 33
0.0
 40
0.0
 40
0.0
 40
0.0
 40
0.0
 40
0.2544788494
 40
1.0
 40
1.0
 40
1.0
 40
1.0
 10
18.3736693069
 20
11.3272902447
 30
0.0
 10
18.3740649384
 20
11.325654003
 30
0.0
 10
18.3758004303
 20
11.3192702793
 30
0.0
 10
18.3782626105
 20
11.3130763821
 30
0.0
 10
18.3805268992
 20
11.3086952479
 30
0.0
 11
18.3736693069
 21
11.3272902447
 31
0.0
 11
18.3749952903
 21
11.3224172507
 31
0.0
 11
18.3805268992
 21
11.3086952479
 31
0.0
  0
SPLINE
  5
352
100
AcDbEntity
  8
0
100
AcDbSpline
 62
7
  6
CONTINUOUS
 70
0
 71
3
 72
9
 73
5
 74
3
 42
0.0000001
 43
0.0000001
 44
0.0000000001
 12
0.0040729071
 22
-0.0067465701
 32
0.0
 13
0.0048304075
 23
-0.0062267122
 33
0.0
 40
0.0
 40
0.0
 40
0.0
 40
0.0
 40
0.2532243531
 40
1.0
 40
1.0
 40
1.0
 40
1.0
 10
18.3828650404
 20
11.3045135692
 30
0.0
 10
18.3832088268
 20
11.3039441039
 30
0.0
 10
18.3845980447
 20
11.3017145143
 30
0.0
 10
18.3861142341
 20
11.29956365
 30
0.0
 10
18.3873166443
 20
11.2980136643
 30
0.0
 11
18.3828650404
 21
11.3045135692
 31
0.0
 11
18.3839205362
 21
11.3028199792
 31
0.0
 11
18.3873166443
 21
11.2980136643
 31
0.0
  0
SPLINE
  5
353
100
AcDbEntity
  8
0
100
AcDbSpline
 62
7
  6
CONTINUOUS
 70
0
 71
3
 72
9
 73
5
 74
3
 42
0.0000001
 43
0.0000001
 44
0.0000000001
 12
0.0068351988
 22
-0.0077340356
 32
0.0
 13
0.0081633569
 23
-0.0063162373
 33
0.0
 40
0.0
 40
0.0
 40
0.0
 40
0.0
 40
0.2552368548
 40
1.0
 40
1.0
 40
1.0
 40
1.0
 10
18.3898566168
 20
11.2949452389
 30
0.0
 10
18.3904381483
 20
11.2942872352
 30
0.0
 10
18.3927723031
 20
11.2917594358
 30
0.0
 10
18.3953347515
 20
11.2894393197
 30
0.0
 10
18.3973613406
 20
11.2878712861
 30
0.0
 11
18.3898566168
 21
11.2949452389
 31
0.0
 11
18.3916445454
 21
11.2930103898
 31
0.0
 11
18.3973613406
 21
11.2878712861
 31
0.0
  0
SPLINE
  5
354
100
AcDbEntity
  8
0
100
AcDbSpline
 62
7
  6
CONTINUOUS
 70
0
 71
3
 72
9
 73
5
 74
3
 42
0.0000001
 43
0.0000001
 44
0.0000000001
 12
0.0125655233
 22
-0.0097223273
 32
0.0
 13
0.0151650686
 23
-0.0047367413
 33
0.0
 40
0.0
 40
0.0
 40
0.0
 40
0.0
 40
0.2577494306
 40
1.0
 40
1.0
 40
1.0
 40
1.0
 10
18.3973613406
 20
11.2878712861
 30
0.0
 10
18.3984409261
 20
11.287035978
 30
0.0
 10
18.402759326
 20
11.2839689406
 30
0.0
 10
18.4076116936
 20
11.2816355056
 30
0.0
 10
18.4113637872
 20
11.280463556
 30
0.0
 11
18.3973613406
 21
11.2878712861
 31
0.0
 11
18.4007025304
 21
11.2855036604
 31
0.0
 11
18.4113637872
 21
11.280463556
 31
0.0
  0
SPLINE
  5
355
100
AcDbEntity
  8
0
100
AcDbSpline
 62
7
  6
CONTINUOUS
 70
0
 71
3
 72
9
 73
5
 74
3
 42
0.0000001
 43
0.0000001
 44
0.0000000001
 12
0.0076144224
 22
-0.0023783307
 32
0.0
 13
0.0079394987
 23
-0.0007747552
 33
0.0
 40
0.0
 40
0.0
 40
0.0
 40
0.0
 40
0.2521398164
 40
1.0
 40
1.0
 40
1.0
 40
1.0
 10
18.4113637872
 20
11.280463556
 30
0.0
 10
18.4120037536
 20
11.2802636654
 30
0.0
 10
18.4145609959
 20
11.2795337359
 30
0.0
 10
18.4171928309
 20
11.2790622821
 30
0.0
 10
18.4191720425
 20
11.2788691459
 30
0.0
 11
18.4113637872
 21
11.280463556
 31
0.0
 11
18.413298061
 21
11.2799120092
 31
0.0
 11
18.4191720425
 21
11.2788691459
 31
0.0
  0
SPLINE
  5
356
100
AcDbEntity
  8
0
100
AcDbSpline
 62
7
  6
CONTINUOUS
 70
0
 71
3
 72
9
 73
5
 74
3
 42
0.0000001
 43
0.0000001
 44
0.0000000001
 12
0.0087754274
 22
0.0000055814
 32
0.0
 13
0.0083581143
 23
-0.0026739636
 33
0.0
 40
0.0
 40
0.0
 40
0.0
 40
0.0
 40
0.2482796161
 40
1.0
 40
1.0
 40
1.0
 40
1.0
 10
18.409002636
 20
11.408892302
 30
0.0
 10
18.4097288893
 20
11.4088927639
 30
0.0
 10
18.4126534329
 20
11.4087781428
 30
0.0
 10
18.415555525
 20
11.4081908792
 30
0.0
 10
18.4176498466
 20
11.4075208549
 30
0.0
 11
18.409002636
 21
11.408892302
 31
0.0
 11
18.4111797144
 21
11.4088067127
 31
0.0
 11
18.4176498466
 21
11.4075208549
 31
0.0
  0
SPLINE
  5
357
100
AcDbEntity
  8
0
100
AcDbSpline
 62
7
  6
CONTINUOUS
 70
0
 71
3
 72
9
 73
5
 74
3
 42
0.0000001
 43
0.0000001
 44
0.0000000001
 12
0.0159832825
 22
-0.0051134399
 32
0.0
 13
0.0119002068
 23
-0.0118320608
 33
0.0
 40
0.0
 40
0.0
 40
0.0
 40
0.0
 40
0.4832537431
 40
1.0
 40
1.0
 40
1.0
 40
1.0
 10
18.4176498466
 20
11.4075208549
 30
0.0
 10
18.420224507
 20
11.4066971585
 30
0.0
 10
18.4253371284
 20
11.4042655824
 30
0.0
 10
18.4297182902
 20
11.4007065914
 30
0.0
 10
18.431768086
 20
11.3986685337
 30
0.0
 11
18.4176498466
 21
11.4075208549
 31
0.0
 11
18.4249950731
 21
11.4040837321
 31
0.0
 11
18.431768086
 21
11.3986685337
 31
0.0
  0
LINE
  5
358
100
AcDbEntity
  8
0
100
AcDbLine
 62
7
  6
CONTINUOUS
 10
18.431768086
 20
11.3986685337
 11
18.4349082579
 21
11.3952071503
  0
SPLINE
  5
359
100
AcDbEntity
  8
0
100
AcDbSpline
 62
7
  6
CONTINUOUS
 70
0
 71
3
 72
9
 73
5
 74
3
 42
0.0000001
 43
0.0000001
 44
0.0000000001
 12
0.0162562071
 22
-0.0197998316
 32
0.0
 13
0.0070311927
 23
-0.0246345271
 33
0.0
 40
0.0
 40
0.0
 40
0.0
 40
0.0
 40
0.2350040484
 40
1.0
 40
1.0
 40
1.0
 40
1.0
 10
18.4349082579
 20
11.3952071503
 30
0.0
 10
18.4361816827
 20
11.3936561368
 30
0.0
 10
18.4411988572
 20
11.3867282919
 30
0.0
 10
18.4446219757
 20
11.3787146566
 30
0.0
 10
18.4464149204
 20
11.3724328854
 30
0.0
 11
18.4349082579
 21
11.3952071503
 31
0.0
 11
18.4384517606
 21
11.3903400287
 31
0.0
 11
18.4464149204
 21
11.3724328854
 31
0.0
  0
SPLINE
  5
35A
100
AcDbEntity
  8
0
100
AcDbSpline
 62
7
  6
CONTINUOUS
 70
0
 71
3
 72
9
 73
5
 74
3
 42
0.0000001
 43
0.0000001
 44
0.0000000001
 12
0.0079266893
 22
-0.0277719938
 32
0.0
 13
-0.001577107
 23
-0.0288379746
 33
0.0
 40
0.0
 40
0.0
 40
0.0
 40
0.0
 40
0.2431842161
 40
1.0
 40
1.0
 40
1.0
 40
1.0
 10
18.4464149204
 20
11.3724328854
 30
0.0
 10
18.447057469
 20
11.3701816485
 30
0.0
 10
18.4492818879
 20
11.3608087506
 30
0.0
 10
18.4499068037
 20
11.3510676516
 30
0.0
 10
18.4495089438
 20
11.3437926402
 30
0.0
 11
18.4464149204
 21
11.3724328854
 31
0.0
 11
18.4480447638
 21
11.365601192
 31
0.0
 11
18.4495089438
 21
11.3437926402
 31
0.0
  0
SPLINE
  5
35B
100
AcDbEntity
  8
0
100
AcDbSpline
 62
7
  6
CONTINUOUS
 70
0
 71
3
 72
9
 73
5
 74
3
 42
0.0000001
 43
0.0000001
 44
0.0000000001
 12
0.016653408
 22
-0.0076355847
 32
0.0
 13
0.0114621721
 23
-0.0142918425
 33
0.0
 40
0.0
 40
0.0
 40
0.0
 40
0.0
 40
0.4807105435
 40
1.0
 40
1.0
 40
1.0
 40
1.0
 10
18.399010053
 20
11.4061838468
 30
0.0
 10
18.4016785426
 20
11.4049603448
 30
0.0
 10
18.4068945714
 20
11.4016469003
 30
0.0
 10
18.4111940612
 20
11.3972378702
 30
0.0
 10
18.4131781229
 20
11.3947640025
 30
0.0
 11
18.399010053
 21
11.4061838468
 31
0.0
 11
18.4064815464
 21
11.4015215586
 31
0.0
 11
18.4131781229
 21
11.3947640025
 31
0.0
  0
SPLINE
  5
35C
100
AcDbEntity
  8
0
100
AcDbSpline
 62
7
  6
CONTINUOUS
 70
0
 71
3
 72
9
 73
5
 74
3
 42
0.0000001
 43
0.0000001
 44
0.0000000001
 12
0.0158822328
 22
-0.019803085
 32
0.0
 13
0.0068800142
 23
-0.0244350751
 33
0.0
 40
0.0
 40
0.0
 40
0.0
 40
0.0
 40
0.2352495294
 40
1.0
 40
1.0
 40
1.0
 40
1.0
 10
18.4131781229
 20
11.3947640025
 30
0.0
 10
18.4144235522
 20
11.3932111137
 30
0.0
 10
18.4193163549
 20
11.3862905097
 30
0.0
 10
18.4226598173
 20
11.3783378503
 30
0.0
 10
18.4244136487
 20
11.3721089386
 30
0.0
 11
18.4131781229
 21
11.3947640025
 31
0.0
 11
18.4166398672
 21
11.3898978597
 31
0.0
 11
18.4244136487
 21
11.3721089386
 31
0.0
  0
SPLINE
  5
35D
100
AcDbEntity
  8
0
100
AcDbSpline
 62
7
  6
CONTINUOUS
 70
0
 71
3
 72
9
 73
5
 74
3
 42
0.0000001
 43
0.0000001
 44
0.0000000001
 12
0.0077367323
 22
-0.027477797
 32
0.0
 13
-0.0015270226
 23
-0.0285053426
 33
0.0
 40
0.0
 40
0.0
 40
0.0
 40
0.0
 40
0.2432337443
 40
1.0
 40
1.0
 40
1.0
 40
1.0
 10
18.4244136487
 20
11.3721089386
 30
0.0
 10
18.4250409268
 20
11.3698810961
 30
0.0
 10
18.4272027739
 20
11.3606078155
 30
0.0
 10
18.4277983184
 20
11.3509832519
 30
0.0
 10
18.4274131187
 20
11.3437926248
 30
0.0
 11
18.4244136487
 21
11.3721089386
 31
0.0
 11
18.4259999285
 21
11.3653491637
 31
0.0
 11
18.4274131187
 21
11.3437926248
 31
0.0
  0
SPLINE
  5
35E
100
AcDbEntity
  8
0
100
AcDbSpline
 62
7
  6
CONTINUOUS
 70
0
 71
3
 72
9
 73
5
 74
3
 42
0.0000001
 43
0.0000001
 44
0.0000000001
 12
0.015891256
 22
-0.019790828
 32
0.0
 13
0.0068748096
 23
-0.024432476
 33
0.0
 40
0.0
 40
0.0
 40
0.0
 40
0.0
 40
0.2352064772
 40
1.0
 40
1.0
 40
1.0
 40
1.0
 10
18.3910891342
 20
11.3947553718
 30
0.0
 10
18.392335043
 20
11.3932037281
 30
0.0
 10
18.3972284416
 20
11.3862847784
 30
0.0
 10
18.4005658659
 20
11.3783307472
 30
0.0
 10
18.4023184692
 20
11.3721021474
 30
0.0
 11
18.3910891342
 21
11.3947553718
 31
0.0
 11
18.3945508813
 21
11.3898917017
 31
0.0
 11
18.4023184692
 21
11.3721021474
 31
0.0
  0
SPLINE
  5
35F
100
AcDbEntity
  8
0
100
AcDbSpline
 62
7
  6
CONTINUOUS
 70
0
 71
3
 72
9
 73
5
 74
3
 42
0.0000001
 43
0.0000001
 44
0.0000000001
 12
0.0039351261
 22
-0.0139850961
 32
0.0
 13
0.0014599238
 23
-0.0144546447
 33
0.0
 40
0.0
 40
0.0
 40
0.0
 40
0.0
 40
0.245397344
 40
1.0
 40
1.0
 40
1.0
 40
1.0
 10
18.4023184692
 20
11.3721021474
 30
0.0
 10
18.402640359
 20
11.3709581789
 30
0.0
 10
18.4038437776
 20
11.3662664425
 30
0.0
 10
18.404626135
 20
11.3614686895
 30
0.0
 10
18.4049933558
 20
11.3578328517
 30
0.0
 11
18.4023184692
 21
11.3721021474
 31
0.0
 11
18.4032056342
 21
11.3686491153
 31
0.0
 11
18.4049933558
 21
11.3578328517
 31
0.0
  0
SPLINE
  5
360
100
AcDbEntity
  8
0
100
AcDbSpline
 62
7
  6
CONTINUOUS
 70
0
 71
3
 72
9
 73
5
 74
3
 42
0.0000001
 43
0.0000001
 44
0.0000000001
 12
0.0056758788
 22
0.008367102
 32
0.0
 13
0.0044496009
 23
0.0090788242
 33
0.0
 40
0.0
 40
0.0
 40
0.0
 40
0.0
 40
0.2463437123
 40
1.0
 40
1.0
 40
1.0
 40
1.0
 10
18.3917217891
 20
11.301398521
 30
0.0
 10
18.3921878614
 20
11.302085582
 30
0.0
 10
18.394027892
 20
11.3049096199
 30
0.0
 10
18.3956626731
 20
11.3078663542
 30
0.0
 10
18.3967804963
 20
11.3101471252
 30
0.0
 11
18.3917217891
 21
11.301398521
 31
0.0
 11
18.3930819657
 21
11.3034850026
 31
0.0
 11
18.3967804963
 21
11.3101471252
 31
0.0
  0
SPLINE
  5
361
100
AcDbEntity
  8
0
100
AcDbSpline
 62
7
  6
CONTINUOUS
 70
0
 71
3
 72
9
 73
5
 74
3
 42
0.0000001
 43
0.0000001
 44
0.0000000001
 12
0.005229794
 22
0.0106707055
 32
0.0
 13
0.0036143624
 23
0.0113203836
 33
0.0
 40
0.0
 40
0.0
 40
0.0
 40
0.0
 40
0.24684709
 40
1.0
 40
1.0
 40
1.0
 40
1.0
 10
18.3967804963
 20
11.3101471252
 30
0.0
 10
18.3972108161
 20
11.311025136
 30
0.0
 10
18.3988861666
 20
11.31461502
 30
0.0
 10
18.4002922684
 20
11.3183297746
 30
0.0
 10
18.4011996576
 20
11.3211717679
 30
0.0
 11
18.3967804963
 21
11.3101471252
 31
0.0
 11
18.3980215206
 21
11.3128050497
 31
0.0
 11
18.4011996576
 21
11.3211717679
 31
0.0
  0
SPLINE
  5
362
100
AcDbEntity
  8
0
100
AcDbSpline
 62
7
  6
CONTINUOUS
 70
0
 71
3
 72
9
 73
5
 74
3
 42
0.0000001
 43
0.0000001
 44
0.0000000001
 12
0.003934842
 22
0.0123241434
 32
0.0
 13
0.0021111047
 23
0.0127636487
 33
0.0
 40
0.0
 40
0.0
 40
0.0
 40
0.0
 40
0.2483446328
 40
1.0
 40
1.0
 40
1.0
 40
1.0
 10
18.4011996576
 20
11.3211717679
 30
0.0
 10
18.4015253899
 20
11.3221919795
 30
0.0
 10
18.4027587563
 20
11.3263246969
 30
0.0
 10
18.4036865821
 20
11.3305478263
 30
0.0
 10
18.4042155231
 20
11.3337457813
 30
0.0
 11
18.4011996576
 21
11.3211717679
 31
0.0
 11
18.4021191455
 21
11.324250232
 31
0.0
 11
18.4042155231
 21
11.3337457813
 31
0.0
  0
SPLINE
  5
363
100
AcDbEntity
  8
0
100
AcDbSpline
 62
7
  6
CONTINUOUS
 70
0
 71
3
 72
18
 73
14
 74
12
 42
0.0000001
 43
0.0000001
 44
0.0000000001
 12
0.0
 22
0.2426265882
 32
0.0
 13
-0.2426265882
 23
0.0
 33
0.0
 40
0.0
 40
0.0
 40
0.0
 40
0.0
 40
0.131586874
 40
0.2590927688
 40
0.3798714744
 40
0.4385570535
 40
0.4969669175
 40
0.5557848587
 40
0.6155443231
 40
0.7392011766
 40
0.8032236221
 40
0.8683051949
 40
1.0
 40
1.0
 40
1.0
 40
1.0
 10
27.3687662477
 20
14.4155426303
 30
0.0
 10
27.3687662477
 20
14.4261847884
 30
0.0
 10
27.3671355403
 20
14.4471872322
 30
0.0
 10
27.3593713096
 20
14.4770984367
 30
0.0
 10
27.3476934666
 20
14.4993771914
 30
0.0
 10
27.3351402376
 20
14.5140456278
 30
0.0
 10
27.324373019
 20
14.5234191114
 30
0.0
 10
27.3123457134
 20
14.5312613494
 30
0.0
 10
27.2946351366
 20
14.539744907
 30
0.0
 10
27.2752706359
 20
14.5452972639
 30
0.0
 10
27.2551371784
 20
14.5488464501
 30
0.0
 10
27.2341741152
 20
14.5512829957
 30
0.0
 10
27.2182439034
 20
14.5519015317
 30
0.0
 10
27.2075930163
 20
14.5519015317
 30
0.0
 11
27.3687662477
 21
14.4155426303
 31
0.0
 11
27.3661645357
 21
14.4473629203
 31
0.0
 11
27.3580811507
 21
14.4772245142
 31
0.0
 11
27.3441339724
 21
14.5029967469
 31
0.0
 11
27.3348776001
 21
14.5138161569
 31
0.0
 11
27.3242015998
 21
14.5231361642
 31
0.0
 11
27.3122592182
 21
14.5309486639
 31
0.0
 11
27.2992066922
 21
14.5372620924
 31
0.0
 11
27.2704900533
 21
14.5459512283
 31
0.0
 11
27.2551984917
 21
14.5486823898
 31
0.0
 11
27.2395161084
 21
14.5505272138
 31
0.0
 11
27.2075930163
 21
14.5519015317
 31
0.0
  0
SPLINE
  5
364
100
AcDbEntity
  8
0
100
AcDbSpline
 62
7
  6
CONTINUOUS
 70
0
 71
3
 72
30
 73
26
 74
24
 42
0.0000001
 43
0.0000001
 44
0.0000000001
 12
0.0
 22
0.3477099526
 32
0.0
 13
-0.0030046443
 23
-0.3476969704
 33
0.0
 40
0.0
 40
0.0
 40
0.0
 40
0.0
 40
0.0788037781
 40
0.15785568
 40
0.1974076289
 40
0.236921577
 40
0.276374586
 40
0.3157474493
 40
0.3938533775
 40
0.4699057436
 40
0.5426110754
 40
0.6104422888
 40
0.6721953836
 40
0.7005183737
 40
0.7269896105
 40
0.7742445885
 40
0.7951931961
 40
0.8146349138
 40
0.833106486
 40
0.8513827351
 40
0.8704093825
 40
0.8911221206
 40
0.9141632869
 40
0.939913851
 40
1.0
 40
1.0
 40
1.0
 40
1.0
 10
28.0748954296
 20
14.4155426303
 30
0.0
 10
28.0748954296
 20
14.4246762496
 30
0.0
 10
28.0729242
 20
14.4430258101
 30
0.0
 10
28.0656301782
 20
14.4649160464
 30
0.0
 10
28.0569869373
 20
14.4811138941
 30
0.0
 10
28.0492223257
 20
14.4924789862
 30
0.0
 10
28.0402777431
 20
14.5029153789
 30
0.0
 10
28.0269625823
 20
14.5153513523
 30
0.0
 10
28.0083423165
 20
14.5281191703
 30
0.0
 10
27.9843151387
 20
14.5390635567
 30
0.0
 10
27.9601525461
 20
14.5461053549
 30
0.0
 10
27.937043167
 20
14.5502672387
 30
0.0
 10
27.9187770064
 20
14.5517972195
 30
0.0
 10
27.9052636234
 20
14.5519681329
 30
0.0
 10
27.8934451914
 20
14.5515272825
 30
0.0
 10
27.8824989999
 20
14.5501216499
 30
0.0
 10
27.8727365496
 20
14.5472335082
 30
0.0
 10
27.8664876201
 20
14.54443113
 30
0.0
 10
27.8610546658
 20
14.5407714251
 30
0.0
 10
27.8564882
 20
14.5361296743
 30
0.0
 10
27.8528523211
 20
14.5304179484
 30
0.0
 10
27.8501512811
 20
14.523626258
 30
0.0
 10
27.8482328008
 20
14.5157837152
 30
0.0
 10
27.8464848765
 20
14.5032711426
 30
0.0
 10
27.8461912692
 20
14.4933032376
 30
0.0
 10
27.84613109
 20
14.4863393136
 30
0.0
 11
28.0748954296
 21
14.4155426303
 31
0.0
 11
28.0719649844
 21
14.4427863361
 31
0.0
 11
28.0632373334
 21
14.4688510746
 31
0.0
 11
28.0567701798
 21
14.4809882119
 31
0.0
 11
28.0490192234
 21
14.492332532
 31
0.0
 11
28.0400887746
 21
14.5027458023
 31
0.0
 11
28.0300989696
 21
14.5121068444
 31
0.0
 11
28.0077609971
 21
14.5275529857
 31
0.0
 11
27.9837409922
 21
14.5386134199
 31
0.0
 11
27.9595080105
 21
14.5458147794
 31
0.0
 11
27.9362977709
 21
14.5500058098
 31
0.0
 11
27.9148984512
 21
14.5517730154
 31
0.0
 11
27.9050509153
 21
14.5518861344
 31
0.0
 11
27.8958540072
 21
14.5515170148
 31
0.0
 11
27.8795960774
 21
14.5491382885
 31
0.0
 11
27.8726254553
 21
14.5470246053
 31
0.0
 11
27.8664790668
 21
14.5442102541
 31
0.0
 11
27.8611733449
 21
14.54059072
 31
0.0
 11
27.8567215882
 21
14.5360557698
 31
0.0
 11
27.853136969
 21
14.5304953098
 31
0.0
 11
27.8504026674
 21
14.5238325205
 31
0.0
 11
27.8484332413
 21
14.5160667121
 31
0.0
 11
27.8471336935
 21
14.507207795
 31
0.0
 11
27.84613109
 21
14.4863393136
 31
0.0
  0
SPLINE
  5
365
100
AcDbEntity
  8
0
100
AcDbSpline
 62
7
  6
CONTINUOUS
 70
0
 71
3
 72
18
 73
14
 74
12
 42
0.0000001
 43
0.0000001
 44
0.0000000001
 12
-0.2425845214
 22
-0.0
 32
0.0
 13
0.0
 23
-0.2425845214
 33
0.0
 40
0.0
 40
0.0
 40
0.0
 40
0.0
 40
0.131784203
 40
0.1969290085
 40
0.2610107253
 40
0.3237190034
 40
0.3848915109
 40
0.4446445717
 40
0.5034310846
 40
0.6202330898
 40
0.7409867371
 40
0.8684330092
 40
1.0
 40
1.0
 40
1.0
 40
1.0
 10
27.2075930163
 20
14.5519015317
 30
0.0
 10
27.196936747
 20
14.5519015317
 30
0.0
 10
27.1809955774
 20
14.5512919016
 30
0.0
 10
27.1600215291
 20
14.5488572463
 30
0.0
 10
27.1447291906
 20
14.5461444386
 30
0.0
 10
27.1299742705
 20
14.5424312059
 30
0.0
 10
27.1159335461
 20
14.5375281442
 30
0.0
 10
27.1027869535
 20
14.5312455842
 30
0.0
 10
27.0868058107
 20
14.5208294654
 30
0.0
 10
27.0696602938
 20
14.5035451499
 30
0.0
 10
27.0558116575
 20
14.4770775688
 30
0.0
 10
27.0480516335
 20
14.4471716867
 30
0.0
 10
27.0464197848
 20
14.4261813354
 30
0.0
 10
27.0464197848
 20
14.4155426303
 30
0.0
 11
27.2075930163
 21
14.5519015317
 31
0.0
 11
27.1756533858
 21
14.5505359999
 31
0.0
 11
27.1599585122
 21
14.5486894924
 31
0.0
 11
27.1446578304
 21
14.5459429683
 31
0.0
 11
27.1299184321
 21
14.5421804115
 31
0.0
 11
27.1159273444
 21
14.5372346731
 31
0.0
 11
27.1028743018
 21
14.5309316608
 31
0.0
 11
27.0909431998
 21
14.5231203667
 31
0.0
 11
27.0710326849
 21
14.5029608213
 31
0.0
 11
27.0570941356
 21
14.4771966081
 31
0.0
 11
27.049022131
 21
14.447352475
 31
0.0
 11
27.0464197848
 21
14.4155426303
 31
0.0
  0
SPLINE
  5
366
100
AcDbEntity
  8
0
100
AcDbSpline
 62
7
  6
CONTINUOUS
 70
0
 71
3
 72
9
 73
5
 74
3
 42
0.0000001
 43
0.0000001
 44
0.0000000001
 12
-0.0097122522
 22
-0.0405932782
 32
0.0
 13
0.0040752
 23
-0.0415395573
 33
0.0
 40
0.0
 40
0.0
 40
0.0
 40
0.0
 40
0.2484436064
 40
1.0
 40
1.0
 40
1.0
 40
1.0
 10
18.3711102933
 20
11.3817792416
 30
0.0
 10
18.3703059777
 20
11.3784175281
 30
0.0
 10
18.3676327932
 20
11.3647589875
 30
0.0
 10
18.3671874166
 20
11.3506535472
 30
0.0
 10
18.3682083308
 20
11.3402471073
 30
0.0
 11
18.3711102933
 21
11.3817792416
 31
0.0
 11
18.3691152162
 21
11.3716031894
 31
0.0
 11
18.3682083308
 21
11.3402471073
 31
0.0
  0
SPLINE
  5
367
100
AcDbEntity
  8
0
100
AcDbSpline
 62
7
  6
CONTINUOUS
 70
0
 71
3
 72
9
 73
5
 74
3
 42
0.0000001
 43
0.0000001
 44
0.0000000001
 12
0.0062882534
 22
-0.031723875
 32
0.0
 13
0.0152490525
 23
-0.0285203923
 33
0.0
 40
0.0
 40
0.0
 40
0.0
 40
0.0
 40
0.2537478085
 40
1.0
 40
1.0
 40
1.0
 40
1.0
 10
18.3699062514
 20
11.3287501855
 30
0.0
 10
18.3704381282
 20
11.3260668976
 30
0.0
 10
18.3729007454
 20
11.315570336
 30
0.0
 10
18.3768488866
 20
11.3054057121
 30
0.0
 10
18.3806420995
 20
11.2983112437
 30
0.0
 11
18.3699062514
 21
11.3287501855
 31
0.0
 11
18.3717835455
 21
11.3207613114
 31
0.0
 11
18.3806420995
 21
11.2983112437
 31
0.0
  0
SPLINE
  5
368
100
AcDbEntity
  8
0
100
AcDbSpline
 62
7
  6
CONTINUOUS
 70
0
 71
3
 72
9
 73
5
 74
3
 42
0.0000001
 43
0.0000001
 44
0.0000000001
 12
0.010983492
 22
-0.0205424895
 32
0.0
 13
0.0161901925
 23
-0.0167483921
 33
0.0
 40
0.0
 40
0.0
 40
0.0
 40
0.0
 40
0.2567530324
 40
1.0
 40
1.0
 40
1.0
 40
1.0
 10
18.3806420995
 20
11.2983112437
 30
0.0
 10
18.3815821145
 20
11.2965531282
 30
0.0
 10
18.3854481391
 20
11.289820285
 30
0.0
 10
18.3901732503
 20
11.2835561385
 30
0.0
 10
18.3941843541
 20
11.2794067413
 30
0.0
 11
18.3806420995
 21
11.2983112437
 31
0.0
 11
18.3836239744
 21
11.2931266699
 31
0.0
 11
18.3941843541
 21
11.2794067413
 31
0.0
  0
SPLINE
  5
369
100
AcDbEntity
  8
0
100
AcDbSpline
 62
7
  6
CONTINUOUS
 70
0
 71
3
 72
9
 73
5
 74
3
 42
0.0000001
 43
0.0000001
 44
0.0000000001
 12
0.0070905653
 22
-0.0073350313
 32
0.0
 13
0.0081856487
 23
-0.0060888386
 33
0.0
 40
0.0
 40
0.0
 40
0.0
 40
0.0
 40
0.2546876452
 40
1.0
 40
1.0
 40
1.0
 40
1.0
 10
18.3941843541
 20
11.2794067413
 30
0.0
 10
18.3947863139
 20
11.2787840274
 30
0.0
 10
18.3971949543
 20
11.2763834142
 30
0.0
 10
18.3997886324
 20
11.2741654786
 30
0.0
 10
18.4018222541
 20
11.2726527831
 30
0.0
 11
18.3941843541
 21
11.2794067413
 31
0.0
 11
18.3960252184
 21
11.2775730639
 31
0.0
 11
18.4018222541
 21
11.2726527831
 31
0.0
  0
SPLINE
  5
36A
100
AcDbEntity
  8
0
100
AcDbSpline
 62
7
  6
CONTINUOUS
 70
0
 71
3
 72
9
 73
5
 74
3
 42
0.0000001
 43
0.0000001
 44
0.0000000001
 12
0.0109231545
 22
-0.0081251135
 32
0.0
 13
0.0128643439
 23
-0.0044543719
 33
0.0
 40
0.0
 40
0.0
 40
0.0
 40
0.0
 40
0.2593447146
 40
1.0
 40
1.0
 40
1.0
 40
1.0
 10
18.4018222541
 20
11.2726527831
 30
0.0
 10
18.4027665416
 20
11.2719503813
 30
0.0
 10
18.4064903891
 20
11.2693592964
 30
0.0
 10
18.4105825747
 20
11.2672648015
 30
0.0
 10
18.4137585895
 20
11.2661650835
 30
0.0
 11
18.4018222541
 21
11.2726527831
 31
0.0
 11
18.4047228362
 21
11.2706398135
 31
0.0
 11
18.4137585895
 21
11.2661650835
 31
0.0
  0
SPLINE
  5
36B
100
AcDbEntity
  8
0
100
AcDbSpline
 62
7
  6
CONTINUOUS
 70
0
 71
3
 72
11
 73
7
 74
5
 42
0.0000001
 43
0.0000001
 44
0.0000000001
 12
0.0369495636
 22
-0.0127940532
 32
0.0
 13
0.0246288081
 23
0.0303707072
 33
0.0
 40
0.0
 40
0.0
 40
0.0
 40
0.0
 40
0.2526511421
 40
0.494610838
 40
0.7392726563
 40
1.0
 40
1.0
 40
1.0
 40
1.0
 10
18.4137585895
 20
11.2661650835
 30
0.0
 10
18.4168703726
 20
11.2650876061
 30
0.0
 10
18.4233059859
 20
11.2638099338
 30
0.0
 10
18.4330539506
 20
11.2650926123
 30
0.0
 10
18.441799933
 20
11.2697746759
 30
0.0
 10
18.4465324499
 20
11.2744704894
 30
0.0
 10
18.4486729178
 20
11.2771099806
 30
0.0
 11
18.4137585895
 21
11.2661650835
 31
0.0
 11
18.4234676069
 21
11.2643396117
 31
0.0
 11
18.4328398788
 21
11.2656329006
 31
0.0
 11
18.4413349376
 21
11.2700325022
 31
0.0
 11
18.4486729178
 21
11.2771099806
 31
0.0
  0
SPLINE
  5
36C
100
AcDbEntity
  8
0
100
AcDbSpline
 62
7
  6
CONTINUOUS
 70
0
 71
3
 72
9
 73
5
 74
3
 42
0.0000001
 43
0.0000001
 44
0.0000000001
 12
0.0168876704
 22
0.0208248198
 32
0.0
 13
0.0076303805
 23
0.0257029926
 33
0.0
 40
0.0
 40
0.0
 40
0.0
 40
0.0
 40
0.4809863737
 40
1.0
 40
1.0
 40
1.0
 40
1.0
 10
18.4486729178
 20
11.2771099806
 30
0.0
 10
18.4513804976
 20
11.2804487988
 30
0.0
 10
18.4560596944
 20
11.2881689808
 30
0.0
 10
18.4592047694
 20
11.2965742574
 30
0.0
 10
18.4605248599
 20
11.3010209918
 30
0.0
 11
18.4486729178
 21
11.2771099806
 31
0.0
 11
18.4555268416
 21
11.2880338987
 31
0.0
 11
18.4605248599
 21
11.3010209918
 31
0.0
  0
SPLINE
  5
36D
100
AcDbEntity
  8
0
100
AcDbSpline
 62
7
  6
CONTINUOUS
 70
0
 71
3
 72
9
 73
5
 74
3
 42
0.0000001
 43
0.0000001
 44
0.0000000001
 12
0.0097417406
 22
0.0187908184
 32
0.0
 13
0.0043864646
 23
0.020706407
 33
0.0
 40
0.0
 40
0.0
 40
0.0
 40
0.0
 40
0.2382449159
 40
1.0
 40
1.0
 40
1.0
 40
1.0
 10
18.4605248599
 20
11.3010209918
 30
0.0
 10
18.4612985
 20
11.3025132642
 30
0.0
 10
18.4642926086
 20
11.3089078902
 30
0.0
 10
18.4663188402
 20
11.3157306522
 30
0.0
 10
18.4674326441
 20
11.3209883891
 30
0.0
 11
18.4605248599
 21
11.3010209918
 31
0.0
 11
18.4626702249
 21
11.3055845397
 31
0.0
 11
18.4674326441
 21
11.3209883891
 31
0.0
  0
SPLINE
  5
36E
100
AcDbEntity
  8
0
100
AcDbSpline
 62
7
  6
CONTINUOUS
 70
0
 71
3
 72
9
 73
5
 74
3
 42
0.0000001
 43
0.0000001
 44
0.0000000001
 12
-0.0003498788
 22
0.0222819478
 32
0.0
 13
-0.0060195644
 23
0.0214562918
 33
0.0
 40
0.0
 40
0.0
 40
0.0
 40
0.0
 40
0.2549599559
 40
1.0
 40
1.0
 40
1.0
 40
1.0
 10
18.4082016657
 20
11.3500772366
 30
0.0
 10
18.4081719307
 20
11.3519709048
 30
0.0
 10
18.407825276
 20
11.3593915542
 30
0.0
 10
18.4065782492
 20
11.3667801293
 30
0.0
 10
18.4050833103
 20
11.3721087282
 30
0.0
 11
18.4082016657
 21
11.3500772366
 31
0.0
 11
18.4079366363
 21
11.3557527567
 31
0.0
 11
18.4050833103
 21
11.3721087282
 31
0.0
  0
SPLINE
  5
36F
100
AcDbEntity
  8
0
100
AcDbSpline
 62
7
  6
CONTINUOUS
 70
0
 71
3
 72
9
 73
5
 74
3
 42
0.0000001
 43
0.0000001
 44
0.0000000001
 12
-0.0068545466
 22
0.0244325241
 32
0.0
 13
-0.0158991399
 23
0.0197775224
 33
0.0
 40
0.0
 40
0.0
 40
0.0
 40
0.0
 40
0.2655701725
 40
1.0
 40
1.0
 40
1.0
 40
1.0
 10
18.4050833103
 20
11.3721087282
 30
0.0
 10
18.4044765226
 20
11.374271578
 30
0.0
 10
18.4018365119
 20
11.382303892
 30
0.0
 10
18.3977441616
 20
11.3899195979
 30
0.0
 10
18.393851894
 20
11.394761332
 30
0.0
 11
18.4050833103
 21
11.3721087282
 31
0.0
 11
18.4029718765
 21
11.3785084817
 31
0.0
 11
18.393851894
 21
11.394761332
 31
0.0
  0
LINE
  5
370
100
AcDbEntity
  8
0
100
AcDbLine
 62
7
  6
CONTINUOUS
 10
18.393851894
 20
11.394761332
 11
18.3904398204
 21
11.3985655149
  0
SPLINE
  5
371
100
AcDbEntity
  8
0
100
AcDbSpline
 62
7
  6
CONTINUOUS
 70
0
 71
3
 72
9
 73
5
 74
3
 42
0.0000001
 43
0.0000001
 44
0.0000000001
 12
-0.0054338526
 22
0.0054158141
 32
0.0
 13
-0.0063619789
 23
0.0042875425
 33
0.0
 40
0.0
 40
0.0
 40
0.0
 40
0.0
 40
0.2562929051
 40
1.0
 40
1.0
 40
1.0
 40
1.0
 10
18.3904398204
 20
11.3985655149
 30
0.0
 10
18.3899756011
 20
11.3990281931
 30
0.0
 10
18.3881244822
 20
11.4007927703
 30
0.0
 10
18.3861112727
 20
11.4023895215
 30
0.0
 10
18.3845341231
 20
11.4034524134
 30
0.0
 11
18.3904398204
 21
11.3985655149
 31
0.0
 11
18.3890160968
 21
11.3999216665
 31
0.0
 11
18.3845341231
 21
11.4034524134
 31
0.0
  0
SPLINE
  5
372
100
AcDbEntity
  8
0
100
AcDbSpline
 62
7
  6
CONTINUOUS
 70
0
 71
3
 72
9
 73
5
 74
3
 42
0.0000001
 43
0.0000001
 44
0.0000000001
 12
0.0015625201
 22
0.0285237379
 32
0.0
 13
-0.0077263014
 23
0.0275018065
 33
0.0
 40
0.0
 40
0.0
 40
0.0
 40
0.0
 40
0.5071758542
 40
1.0
 40
1.0
 40
1.0
 40
1.0
 10
18.4301813841
 20
11.3437926303
 30
0.0
 10
18.4304455416
 20
11.348614814
 30
0.0
 10
18.4301976684
 20
11.3581778705
 30
0.0
 10
18.4284501264
 20
11.3675891203
 30
0.0
 10
18.4271808905
 20
11.3721069718
 30
0.0
 11
18.4301813841
 21
11.3437926303
 31
0.0
 11
18.4298083552
 21
11.3582760679
 31
0.0
 11
18.4271808905
 21
11.3721069718
 31
0.0
  0
SPLINE
  5
373
100
AcDbEntity
  8
0
100
AcDbSpline
 62
7
  6
CONTINUOUS
 70
0
 71
3
 72
11
 73
7
 74
5
 42
0.0000001
 43
0.0000001
 44
0.0000000001
 12
-0.012624723
 22
0.0449377612
 32
0.0
 13
-0.0441037166
 23
0.0152855551
 33
0.0
 40
0.0
 40
0.0
 40
0.0
 40
0.0
 40
0.2833513355
 40
0.5444595084
 40
0.7822602503
 40
1.0
 40
1.0
 40
1.0
 40
1.0
 10
18.4271808905
 20
11.3721069718
 30
0.0
 10
18.4259884797
 20
11.3763513633
 30
0.0
 10
18.4229911549
 20
11.384333574
 30
0.0
 10
18.4165355796
 20
11.3947600559
 30
0.0
 10
18.4085466226
 20
11.4026985562
 30
0.0
 10
18.4022268238
 20
11.4061862773
 30
0.0
 10
18.3990257797
 20
11.4072957017
 30
0.0
 11
18.4271808905
 21
11.3721069718
 31
0.0
 11
18.4224635724
 21
11.3844632348
 31
0.0
 11
18.4159475981
 21
11.394763051
 31
0.0
 11
18.4079846522
 21
11.4024961025
 31
0.0
 11
18.3990257797
 21
11.4072957017
 31
0.0
  0
SPLINE
  5
374
100
AcDbEntity
  8
0
100
AcDbSpline
 62
7
  6
CONTINUOUS
 70
0
 71
3
 72
9
 73
5
 74
3
 42
0.0000001
 43
0.0000001
 44
0.0000000001
 12
0.0015682691
 22
0.029385912
 32
0.0
 13
-0.0082623399
 23
0.0282440265
 33
0.0
 40
0.0
 40
0.0
 40
0.0
 40
0.0
 40
0.5076178504
 40
1.0
 40
1.0
 40
1.0
 40
1.0
 10
18.4522784864
 20
11.3437926303
 30
0.0
 10
18.4525438468
 20
11.3487649014
 30
0.0
 10
18.452261196
 20
11.3586171345
 30
0.0
 10
18.4503947907
 20
11.3683034607
 30
0.0
 10
18.4490387144
 20
11.3729390789
 30
0.0
 11
18.4522784864
 21
11.3437926303
 31
0.0
 11
18.4518487943
 21
11.35872449
 31
0.0
 11
18.4490387144
 21
11.3729390789
 31
0.0
  0
SPLINE
  5
375
100
AcDbEntity
  8
0
100
AcDbSpline
 62
7
  6
CONTINUOUS
 70
0
 71
3
 72
11
 73
7
 74
5
 42
0.0000001
 43
0.0000001
 44
0.0000000001
 12
-0.013380806
 22
0.0457410179
 32
0.0
 13
-0.0459160552
 23
0.0127672457
 33
0.0
 40
0.0
 40
0.0
 40
0.0
 40
0.0
 40
0.2846429484
 40
0.5458452834
 40
0.7828746905
 40
1.0
 40
1.0
 40
1.0
 40
1.0
 10
18.4490387144
 20
11.3729390789
 30
0.0
 10
18.4477691304
 20
11.3772790316
 30
0.0
 10
18.444583481
 20
11.3854099758
 30
0.0
 10
18.437735985
 20
11.3959156894
 30
0.0
 10
18.429296473
 20
11.4037167806
 30
0.0
 10
18.4226691184
 20
11.406925822
 30
0.0
 10
18.4193459392
 20
11.4078498527
 30
0.0
 11
18.4490387144
 21
11.3729390789
 31
0.0
 11
18.4440146729
 21
11.385539964
 31
0.0
 11
18.4371067551
 21
11.3958957824
 31
0.0
 11
18.4287158732
 21
11.4034588946
 31
0.0
 11
18.4193459392
 21
11.4078498527
 31
0.0
  0
SPLINE
  5
376
100
AcDbEntity
  8
0
100
AcDbSpline
 62
7
  6
CONTINUOUS
 70
0
 71
3
 72
9
 73
5
 74
3
 42
0.0000001
 43
0.0000001
 44
0.0000000001
 12
0.0051686262
 22
0.0061661359
 32
0.0
 13
0.0043709111
 23
0.0067550769
 33
0.0
 40
0.0
 40
0.0
 40
0.0
 40
0.0
 40
0.2466358104
 40
1.0
 40
1.0
 40
1.0
 40
1.0
 10
18.3905498618
 20
11.2961756654
 30
0.0
 10
18.3909747846
 20
11.2966825954
 30
0.0
 10
18.3926646932
 20
11.2987654405
 30
0.0
 10
18.3942229844
 20
11.3009546183
 30
0.0
 10
18.3953206137
 20
11.3026509627
 30
0.0
 11
18.3905498618
 21
11.2961756654
 31
0.0
 11
18.3918003623
 21
11.2977164719
 31
0.0
 11
18.3953206137
 21
11.3026509627
 31
0.0
  0
SPLINE
  5
377
100
AcDbEntity
  8
0
100
AcDbSpline
 62
7
  6
CONTINUOUS
 70
0
 71
3
 72
9
 73
5
 74
3
 42
0.0000001
 43
0.0000001
 44
0.0000000001
 12
0.0115670397
 22
0.01787642
 32
0.0
 13
0.0062827464
 23
0.0203442841
 33
0.0
 40
0.0
 40
0.0
 40
0.0
 40
0.0
 40
0.2437792275
 40
1.0
 40
1.0
 40
1.0
 40
1.0
 10
18.3953206137
 20
11.3026509627
 30
0.0
 10
18.3962605484
 20
11.3041035959
 30
0.0
 10
18.3998891314
 20
11.3102078973
 30
0.0
 10
18.4026305376
 20
11.3168266735
 30
0.0
 10
18.4042142521
 20
11.3219549302
 30
0.0
 11
18.3953206137
 21
11.3026509627
 31
0.0
 11
18.3979769713
 21
11.3071103741
 31
0.0
 11
18.4042142521
 21
11.3219549302
 31
0.0
  0
SPLINE
  5
378
100
AcDbEntity
  8
0
100
AcDbSpline
 62
7
  6
CONTINUOUS
 70
0
 71
3
 72
21
 73
17
 74
15
 42
0.0000001
 43
0.0000001
 44
0.0000000001
 12
0.0003675633
 22
-0.3013294622
 32
0.0
 13
0.2263855917
 23
0.1988696653
 33
0.0
 40
0.0
 40
0.0
 40
0.0
 40
0.0
 40
0.0980951898
 40
0.1441440063
 40
0.1888015372
 40
0.2335748109
 40
0.2804651131
 40
0.3318574461
 40
0.3895946968
 40
0.4539240719
 40
0.5242285517
 40
0.5990218964
 40
0.6768047151
 40
0.756634804
 40
0.8375197715
 40
1.0
 40
1.0
 40
1.0
 40
1.0
 10
27.846117555
 20
13.7894085097
 30
0.0
 10
27.8461295737
 20
13.7795555194
 30
0.0
 10
27.8476657977
 20
13.7649144444
 30
0.0
 10
27.8542456353
 20
13.7470279322
 30
0.0
 10
27.8615405935
 20
13.7353939862
 30
0.0
 10
27.8715977091
 20
13.7258691488
 30
0.0
 10
27.8844652278
 20
13.7190690325
 30
0.0
 10
27.8999515741
 20
13.7157329031
 30
0.0
 10
27.917487316
 20
13.7159866978
 30
0.0
 10
27.9365350653
 20
13.7196724837
 30
0.0
 10
27.9564858044
 20
13.7264920129
 30
0.0
 10
27.9768643055
 20
13.7358283151
 30
0.0
 10
27.9972547714
 20
13.7472340846
 30
0.0
 10
28.0173876161
 20
13.760239743
 30
0.0
 10
28.0437385581
 20
13.779215762
 30
0.0
 10
28.0626343687
 20
13.794771834
 30
0.0
 10
28.0748954296
 20
13.8055426303
 30
0.0
 11
27.846117555
 21
13.7894085097
 31
0.0
 11
27.849835544
 21
13.7600842772
 31
0.0
 11
27.8547381763
 21
13.7471033636
 31
0.0
 11
27.8619787923
 21
13.735760761
 31
0.0
 11
27.8717952065
 21
13.7265055446
 31
0.0
 11
27.8842685868
 21
13.7198680857
 31
0.0
 11
27.8993662125
 21
13.7164214939
 31
0.0
 11
27.9167641168
 21
13.7164603404
 31
0.0
 11
27.9358281017
 21
13.7199699728
 31
0.0
 11
27.9559276776
 21
13.7266635471
 31
0.0
 11
27.9764554592
 21
13.7359666146
 31
0.0
 11
27.9969476665
 21
13.7473429959
 31
0.0
 11
28.0171842634
 21
13.7603480574
 31
0.0
 11
28.0369813465
 21
13.7745649723
 31
0.0
 11
28.0748954296
 21
13.8055426303
 31
0.0
  0
SPLINE
  5
379
100
AcDbEntity
  8
0
100
AcDbSpline
 62
7
  6
CONTINUOUS
 70
0
 71
3
 72
30
 73
26
 74
24
 42
0.0000001
 43
0.0000001
 44
0.0000000001
 12
0.0019870652
 22
0.3549851864
 32
0.0
 13
-0.0
 23
-0.3549907477
 33
0.0
 40
0.0
 40
0.0
 40
0.0
 40
0.0
 40
0.0632693029
 40
0.0906517335
 40
0.1151381006
 40
0.1370150027
 40
0.15678905
 40
0.1752914704
 40
0.1935358976
 40
0.2124241474
 40
0.2326342339
 40
0.2783008821
 40
0.3316195238
 40
0.3610669085
 40
0.3922106926
 40
0.4591105853
 40
0.5311935111
 40
0.606830081
 40
0.6847166582
 40
0.72402274
 40
0.7634131137
 40
0.8028683194
 40
0.8423641072
 40
0.9213025062
 40
1.0
 40
1.0
 40
1.0
 40
1.0
 10
26.5690619452
 20
14.4790436968
 30
0.0
 10
26.569103852
 20
14.4865302519
 30
0.0
 10
26.56902665
 20
14.4972715532
 30
0.0
 10
26.5677438986
 20
14.5108462077
 30
0.0
 10
26.566184153
 20
14.5194466087
 30
0.0
 10
26.5638796418
 20
14.526951765
 30
0.0
 10
26.5606815237
 20
14.5333589357
 30
0.0
 10
26.5564859251
 20
14.5386336472
 30
0.0
 10
26.5513584026
 20
14.5428348198
 30
0.0
 10
26.54535955
 20
14.5460773513
 30
0.0
 10
26.5358816364
 20
14.5494495273
 30
0.0
 10
26.5218651286
 20
14.5517223835
 30
0.0
 10
26.5066505874
 20
14.5520656632
 30
0.0
 10
26.4931794835
 20
14.5514988558
 30
0.0
 10
26.4781497572
 20
14.5501346366
 30
0.0
 10
26.458256534
 20
14.5468376241
 30
0.0
 10
26.4337096441
 20
14.5400907601
 30
0.0
 10
26.409124373
 20
14.5294084106
 30
0.0
 10
26.3899756297
 20
14.5167246952
 30
0.0
 10
26.3762145565
 20
14.5042707694
 30
0.0
 10
26.3669468332
 20
14.4937619077
 30
0.0
 10
26.3588960039
 20
14.4822685322
 30
0.0
 10
26.3499231716
 20
14.4658412157
 30
0.0
 10
26.3423384644
 20
14.4435652008
 30
0.0
 10
26.3402906029
 20
14.4248549243
 30
0.0
 10
26.3402906029
 20
14.4155426303
 30
0.0
 11
26.5690619452
 21
14.4790436968
 31
0.0
 11
26.5685417299
 21
14.5014976886
 31
0.0
 11
26.567566942
 21
14.511169198
 31
0.0
 11
26.5659518673
 21
14.5197102716
 31
0.0
 11
26.5635958396
 21
14.5271103668
 31
0.0
 11
26.5603987283
 21
14.5333596322
 31
0.0
 11
26.5562997118
 21
14.5384918011
 31
0.0
 11
26.5513061327
 21
14.5426161861
 31
0.0
 11
26.545432133
 21
14.5458496389
 31
0.0
 11
26.5386922079
 21
14.5483083652
 31
0.0
 11
26.5227466084
 21
14.5512310492
 31
0.0
 11
26.503829662
 21
14.5518667445
 31
0.0
 11
26.493385435
 21
14.5514253699
 31
0.0
 11
26.4823744536
 21
14.5504313823
 31
0.0
 11
26.4589449641
 21
14.5465498155
 31
0.0
 11
26.4343060209
 21
14.539642738
 31
0.0
 11
26.4097299158
 21
14.5288282695
 31
0.0
 11
26.3867355981
 21
14.5134747897
 31
0.0
 11
26.3764073755
 21
14.5040927713
 31
0.0
 11
26.3671567504
 21
14.4936067651
 31
0.0
 11
26.359119614
 21
14.482135976
 31
0.0
 11
26.3524064404
 21
14.4698269702
 31
0.0
 11
26.3433365755
 21
14.443312964
 31
0.0
 11
26.3402906029
 21
14.4155426303
 31
0.0
  0
SPLINE
  5
37A
100
AcDbEntity
  8
0
100
AcDbSpline
 62
7
  6
CONTINUOUS
 70
0
 71
3
 72
9
 73
5
 74
3
 42
0.0000001
 43
0.0000001
 44
0.0000000001
 12
0.0088577972
 22
-0.0349793579
 32
0.0
 13
-0.0027603758
 23
-0.0359777206
 33
0.0
 40
0.0
 40
0.0
 40
0.0
 40
0.0
 40
0.2446922071
 40
1.0
 40
1.0
 40
1.0
 40
1.0
 10
18.4679334202
 20
11.3758224512
 30
0.0
 10
18.4686558981
 20
11.3729693924
 30
0.0
 10
18.4711113835
 20
11.361187732
 30
0.0
 10
18.4715971531
 20
11.349008605
 30
0.0
 10
18.4709021754
 20
11.3399505208
 30
0.0
 11
18.4679334202
 21
11.3758224512
 31
0.0
 11
18.4697396391
 21
11.3671798334
 31
0.0
 11
18.4709021754
 21
11.3399505208
 31
0.0
  0
SPLINE
  5
37B
100
AcDbEntity
  8
0
100
AcDbSpline
 62
7
  6
CONTINUOUS
 70
0
 71
3
 72
11
 73
7
 74
5
 42
0.0000001
 43
0.0000001
 44
0.0000000001
 12
-0.0251076762
 22
-0.0576118812
 32
0.0
 13
-0.061276359
 23
-0.0139546438
 33
0.0
 40
0.0
 40
0.0
 40
0.0
 40
0.0
 40
0.2741376603
 40
0.5319048604
 40
0.7727502598
 40
1.0
 40
1.0
 40
1.0
 40
1.0
 10
18.4622909976
 20
11.304510047
 30
0.0
 10
18.4599966777
 20
11.2992455182
 30
0.0
 10
18.4546502881
 20
11.2893851601
 30
0.0
 10
18.4441970082
 20
11.2768608906
 30
0.0
 10
18.4318921556
 20
11.2676783383
 30
0.0
 10
18.4226311551
 20
11.264011784
 30
0.0
 10
18.4179894762
 20
11.262954721
 30
0.0
 11
18.4622909976
 21
11.304510047
 31
0.0
 11
18.4539946313
 21
11.2894109474
 31
0.0
 11
18.4435117366
 21
11.2770606102
 31
0.0
 11
18.4313106902
 21
11.2681033466
 31
0.0
 11
18.4179894762
 21
11.262954721
 31
0.0
  0
SPLINE
  5
37C
100
AcDbEntity
  8
0
100
AcDbSpline
 62
7
  6
CONTINUOUS
 70
0
 71
3
 72
9
 73
5
 74
3
 42
0.0000001
 43
0.0000001
 44
0.0000000001
 12
0.0152712248
 22
-0.0114007175
 32
0.0
 13
0.0108267645
 23
-0.0156833618
 33
0.0
 40
0.0
 40
0.0
 40
0.0
 40
0.0
 40
0.2393169601
 40
1.0
 40
1.0
 40
1.0
 40
1.0
 10
18.4205490775
 20
11.4173770832
 30
0.0
 10
18.4217672985
 20
11.4164676215
 30
0.0
 10
18.4266834405
 20
11.412435532
 30
0.0
 10
18.4308760184
 20
11.4075525259
 30
0.0
 10
18.4336212638
 20
11.4035758368
 30
0.0
 11
18.4205490775
 21
11.4173770832
 31
0.0
 11
18.4240788904
 21
11.4144889925
 31
0.0
 11
18.4336212638
 21
11.4035758368
 31
0.0
  0
SPLINE
  5
37D
100
AcDbEntity
  8
0
100
AcDbSpline
 62
7
  6
CONTINUOUS
 70
0
 71
3
 72
9
 73
5
 74
3
 42
0.0000001
 43
0.0000001
 44
0.0000000001
 12
-0.0122086651
 22
-0.0258999175
 32
0.0
 13
-0.0203522963
 23
-0.0201405378
 33
0.0
 40
0.0
 40
0.0
 40
0.0
 40
0.0
 40
0.5133377862
 40
1.0
 40
1.0
 40
1.0
 40
1.0
 10
18.4389386094
 20
11.3017491194
 30
0.0
 10
18.436849553
 20
11.2973173173
 30
0.0
 10
18.4321201962
 20
11.2889725434
 30
0.0
 10
18.4259916703
 20
11.2815735444
 30
0.0
 10
18.4226901058
 20
11.2783063315
 30
0.0
 11
18.4389386094
 21
11.3017491194
 31
0.0
 11
18.4316253349
 21
11.2889991683
 31
0.0
 11
18.4226901058
 21
11.2783063315
 31
0.0
  0
SPLINE
  5
37E
100
AcDbEntity
  8
0
100
AcDbSpline
 62
7
  6
CONTINUOUS
 70
0
 71
3
 72
9
 73
5
 74
3
 42
0.0000001
 43
0.0000001
 44
0.0000000001
 12
0.0060646372
 22
-0.005290588
 32
0.0
 13
0.005251451
 23
-0.0060985579
 33
0.0
 40
0.0
 40
0.0
 40
0.0
 40
0.0
 40
0.2451790987
 40
1.0
 40
1.0
 40
1.0
 40
1.0
 10
18.4015397985
 20
11.4148952168
 30
0.0
 10
18.4020354393
 20
11.4144628362
 30
0.0
 10
18.404023788
 20
11.4126614424
 30
0.0
 10
18.4058770235
 20
11.4107122712
 30
0.0
 10
18.4071983252
 20
11.4091778315
 30
0.0
 11
18.4015397985
 21
11.4148952168
 31
0.0
 11
18.4030023203
 21
11.4135706247
 31
0.0
 11
18.4071983252
 21
11.4091778315
 31
0.0
  0
SPLINE
  5
37F
100
AcDbEntity
  8
0
100
AcDbSpline
 62
7
  6
CONTINUOUS
 70
0
 71
3
 72
9
 73
5
 74
3
 42
0.0000001
 43
0.0000001
 44
0.0000000001
 12
-0.0059433741
 22
-0.0098216616
 32
0.0
 13
-0.0072435025
 23
-0.0089062002
 33
0.0
 40
0.0
 40
0.0
 40
0.0
 40
0.0
 40
0.2540082254
 40
1.0
 40
1.0
 40
1.0
 40
1.0
 10
18.4124114133
 20
11.293468962
 30
0.0
 10
18.4119081913
 20
11.2926373677
 30
0.0
 10
18.4098730829
 20
11.2893965866
 30
0.0
 10
18.4076201929
 20
11.2862915106
 30
0.0
 10
18.4058189952
 20
11.2840768599
 30
0.0
 11
18.4124114133
 21
11.293468962
 31
0.0
 11
18.4108602714
 21
11.2909997533
 31
0.0
 11
18.4058189952
 21
11.2840768599
 31
0.0
  0
SPLINE
  5
380
100
AcDbEntity
  8
0
100
AcDbSpline
 62
7
  6
CONTINUOUS
 70
0
 71
3
 72
9
 73
5
 74
3
 42
0.0000001
 43
0.0000001
 44
0.0000000001
 12
-0.0053691395
 22
-0.0066015897
 32
0.0
 13
-0.0061018496
 23
-0.0059309424
 33
0.0
 40
0.0
 40
0.0
 40
0.0
 40
0.0
 40
0.2534078225
 40
1.0
 40
1.0
 40
1.0
 40
1.0
 10
18.4058189952
 20
11.2840768599
 30
0.0
 10
18.4053654678
 20
11.2835192284
 30
0.0
 10
18.4035452565
 20
11.2813437552
 30
0.0
 10
18.4016016566
 20
11.2792709201
 30
0.0
 10
18.4000831255
 20
11.2777949217
 30
0.0
 11
18.4058189952
 21
11.2840768599
 31
0.0
 11
18.4044350328
 21
11.2824232555
 31
0.0
 11
18.4000831255
 21
11.2777949217
 31
0.0
  0
SPLINE
  5
381
100
AcDbEntity
  8
0
100
AcDbSpline
 62
7
  6
CONTINUOUS
 70
0
 71
3
 72
9
 73
5
 74
3
 42
0.0000001
 43
0.0000001
 44
0.0000000001
 12
0.0095880327
 22
0.0000026403
 32
0.0
 13
0.0092890487
 23
0.0023757005
 33
0.0
 40
0.0
 40
0.0
 40
0.0
 40
0.0
 40
0.7481059937
 40
1.0
 40
1.0
 40
1.0
 40
1.0
 10
18.4228187467
 20
11.2786922817
 30
0.0
 10
18.4252097016
 20
11.2786929401
 30
0.0
 10
18.4284167789
 20
11.2790023679
 30
0.0
 10
18.4315363991
 20
11.2796999766
 30
0.0
 10
18.432316351
 20
11.2798994515
 30
0.0
 11
18.4228187467
 21
11.2786922817
 31
0.0
 11
18.4299592226
 21
11.27937316
 31
0.0
 11
18.432316351
 21
11.2798994515
 31
0.0
  0
SPLINE
  5
382
100
AcDbEntity
  8
0
100
AcDbSpline
 62
7
  6
CONTINUOUS
 70
0
 71
3
 72
9
 73
5
 74
3
 42
0.0000001
 43
0.0000001
 44
0.0000000001
 12
0.0065801629
 22
0.0022458882
 32
0.0
 13
0.0061211125
 23
0.0032976566
 33
0.0
 40
0.0
 40
0.0
 40
0.0
 40
0.0
 40
0.2472403433
 40
1.0
 40
1.0
 40
1.0
 40
1.0
 10
18.4353329978
 20
11.2807990922
 30
0.0
 10
18.4358752917
 20
11.2809841836
 30
0.0
 10
18.4380526855
 20
11.2817790467
 30
0.0
 10
18.4401625889
 20
11.282757469
 30
0.0
 10
18.4416984977
 20
11.2835849166
 30
0.0
 11
18.4353329978
 21
11.2807990922
 31
0.0
 11
18.4369478453
 21
11.2813884486
 31
0.0
 11
18.4416984977
 21
11.2835849166
 31
0.0
  0
SPLINE
  5
383
100
AcDbEntity
  8
0
100
AcDbSpline
 62
7
  6
CONTINUOUS
 70
0
 71
3
 72
9
 73
5
 74
3
 42
0.0000001
 43
0.0000001
 44
0.0000000001
 12
0.0227042332
 22
0.0122315616
 32
0.0
 13
0.014620852
 23
0.0212443873
 33
0.0
 40
0.0
 40
0.0
 40
0.0
 40
0.0
 40
0.2392921034
 40
1.0
 40
1.0
 40
1.0
 40
1.0
 10
18.4416984977
 20
11.2835849166
 30
0.0
 10
18.443509479
 20
11.2845605553
 30
0.0
 10
18.450788461
 20
11.2891700318
 30
0.0
 10
18.4568123905
 20
11.2956258413
 30
0.0
 10
18.4605197897
 20
11.3010127657
 30
0.0
 11
18.4416984977
 21
11.2835849166
 31
0.0
 11
18.4469212196
 21
11.2868723003
 31
0.0
 11
18.4605197897
 21
11.3010127657
 31
0.0
  0
SPLINE
  5
384
100
AcDbEntity
  8
0
100
AcDbSpline
 62
7
  6
CONTINUOUS
 70
0
 71
3
 72
11
 73
7
 74
5
 42
0.0000001
 43
0.0000001
 44
0.0000000001
 12
0.0486904051
 22
0.0145275195
 32
0.0
 13
0.0188755194
 23
0.0471754082
 33
0.0
 40
0.0
 40
0.0
 40
0.0
 40
0.0
 40
0.2278259699
 40
0.4694747176
 40
0.7271990118
 40
1.0
 40
1.0
 40
1.0
 40
1.0
 10
18.4117121677
 20
11.2803123667
 30
0.0
 10
18.4154098139
 20
11.2814156155
 30
0.0
 10
18.4227180855
 20
11.2848311085
 30
0.0
 10
18.4323012947
 20
11.2927406003
 30
0.0
 10
18.4403520185
 20
11.3031640661
 30
0.0
 10
18.4444186503
 20
11.3112409515
 30
0.0
 10
18.4461350704
 20
11.3155307841
 30
0.0
 11
18.4117121677
 21
11.2803123667
 31
0.0
 11
18.4222388192
 21
11.2851287261
 31
0.0
 11
18.4317676191
 21
11.292872379
 31
0.0
 11
18.4398491813
 21
11.303176576
 31
0.0
 11
18.4461350704
 21
11.3155307841
 31
0.0
  0
SPLINE
  5
385
100
AcDbEntity
  8
0
100
AcDbSpline
 62
7
  6
CONTINUOUS
 70
0
 71
3
 72
9
 73
5
 74
3
 42
0.0000001
 43
0.0000001
 44
0.0000000001
 12
0.0036074811
 22
0.0090161436
 32
0.0
 13
0.002552803
 23
0.0093695231
 33
0.0
 40
0.0
 40
0.0
 40
0.0
 40
0.0
 40
0.2478889248
 40
1.0
 40
1.0
 40
1.0
 40
1.0
 10
18.4461350704
 20
11.3155307841
 30
0.0
 10
18.4464331552
 20
11.3162757849
 30
0.0
 10
18.4475903738
 20
11.3192991405
 30
0.0
 10
18.4485700665
 20
11.3223899908
 30
0.0
 10
18.4492100636
 20
11.3247389648
 30
0.0
 11
18.4461350704
 21
11.3155307841
 31
0.0
 11
18.4469959698
 21
11.3177788451
 31
0.0
 11
18.4492100636
 21
11.3247389648
 31
0.0
  0
SPLINE
  5
386
100
AcDbEntity
  8
0
100
AcDbSpline
 62
7
  6
CONTINUOUS
 70
0
 71
3
 72
9
 73
5
 74
3
 42
0.0000001
 43
0.0000001
 44
0.0000000001
 12
0.0114378156
 22
0.0034273865
 32
0.0
 13
0.0100642435
 23
0.0064250764
 33
0.0
 40
0.0
 40
0.0
 40
0.0
 40
0.0
 40
0.2455327222
 40
1.0
 40
1.0
 40
1.0
 40
1.0
 10
18.3896592866
 20
11.2803255934
 30
0.0
 10
18.390595406
 20
11.2806061053
 30
0.0
 10
18.3943649403
 20
11.2818901123
 30
0.0
 10
18.3979412957
 20
11.2837223697
 30
0.0
 10
18.4004723431
 20
11.2853382063
 30
0.0
 11
18.3896592866
 21
11.2803255934
 31
0.0
 11
18.392434848
 21
11.2812696888
 31
0.0
 11
18.4004723431
 21
11.2853382063
 31
0.0
  0
SPLINE
  5
387
100
AcDbEntity
  8
0
100
AcDbSpline
 62
7
  6
CONTINUOUS
 70
0
 71
3
 72
9
 73
5
 74
3
 42
0.0000001
 43
0.0000001
 44
0.0000000001
 12
0.0100341653
 22
0.0064058743
 32
0.0
 13
0.0083123908
 23
0.0085219633
 33
0.0
 40
0.0
 40
0.0
 40
0.0
 40
0.0
 40
0.2444981082
 40
1.0
 40
1.0
 40
1.0
 40
1.0
 10
18.4004723431
 20
11.2853382063
 30
0.0
 10
18.4012901213
 20
11.285860281
 30
0.0
 10
18.4045691852
 20
11.2880974734
 30
0.0
 10
18.4075770381
 20
11.2907261196
 30
0.0
 10
18.4096703804
 20
11.2928722394
 30
0.0
 11
18.4004723431
 21
11.2853382063
 31
0.0
 11
18.4028773583
 21
11.2869776605
 31
0.0
 11
18.4096703804
 21
11.2928722394
 31
0.0
  0
SPLINE
  5
388
100
AcDbEntity
  8
0
100
AcDbSpline
 62
7
  6
CONTINUOUS
 70
0
 71
3
 72
9
 73
5
 74
3
 42
0.0000001
 43
0.0000001
 44
0.0000000001
 12
0.0188027904
 22
0.0192768476
 32
0.0
 13
0.0099941787
 23
0.0250051629
 33
0.0
 40
0.0
 40
0.0
 40
0.0
 40
0.0
 40
0.2396991087
 40
1.0
 40
1.0
 40
1.0
 40
1.0
 10
18.4096703804
 20
11.2928722394
 30
0.0
 10
18.4111727178
 20
11.2944124538
 30
0.0
 10
18.4170714087
 20
11.3011949339
 30
0.0
 10
18.4215050649
 20
11.3091935289
 30
0.0
 10
18.4240379259
 20
11.3155306782
 30
0.0
 11
18.4096703804
 21
11.2928722394
 31
0.0
 11
18.4139163652
 21
11.2977338354
 31
0.0
 11
18.4240379259
 21
11.3155306782
 31
0.0
  0
SPLINE
  5
389
100
AcDbEntity
  8
0
100
AcDbSpline
 62
7
  6
CONTINUOUS
 70
0
 71
3
 72
9
 73
5
 74
3
 42
0.0000001
 43
0.0000001
 44
0.0000000001
 12
0.0088173798
 22
0.0220608442
 32
0.0
 13
0.0026614472
 23
0.0236081286
 33
0.0
 40
0.0
 40
0.0
 40
0.0
 40
0.0
 40
0.2470043602
 40
1.0
 40
1.0
 40
1.0
 40
1.0
 10
18.4240379259
 20
11.3155306782
 30
0.0
 10
18.424763903
 20
11.3173470531
 30
0.0
 10
18.4274314891
 20
11.3248072252
 30
0.0
 10
18.429074174
 20
11.3326264793
 30
0.0
 10
18.4297421934
 20
11.3385520853
 30
0.0
 11
18.4240379259
 21
11.3155306782
 31
0.0
 11
18.4260191834
 21
11.3210543512
 31
0.0
 11
18.4297421934
 21
11.3385520853
 31
0.0
  0
SPLINE
  5
38A
100
AcDbEntity
  8
0
100
AcDbSpline
 62
7
  6
CONTINUOUS
 70
0
 71
3
 72
9
 73
5
 74
3
 42
0.0000001
 43
0.0000001
 44
0.0000000001
 12
-0.0020448836
 22
0.0165846716
 32
0.0
 13
-0.0053680012
 23
0.0158245836
 33
0.0
 40
0.0
 40
0.0
 40
0.0
 40
0.0
 40
0.2535349528
 40
1.0
 40
1.0
 40
1.0
 40
1.0
 10
18.3922022449
 20
11.3543777458
 30
0.0
 10
18.3920294284
 20
11.3557793438
 30
0.0
 10
18.3912130806
 20
11.3612896146
 30
0.0
 10
18.3898598221
 20
11.3667243525
 30
0.0
 10
18.3885241471
 20
11.370661852
 30
0.0
 11
18.3922022449
 21
11.3543777458
 31
0.0
 11
18.3915809704
 21
11.358568581
 31
0.0
 11
18.3885241471
 21
11.370661852
 31
0.0
  0
SPLINE
  5
38B
100
AcDbEntity
  8
0
100
AcDbSpline
 62
7
  6
CONTINUOUS
 70
0
 71
3
 72
9
 73
5
 74
3
 42
0.0000001
 43
0.0000001
 44
0.0000000001
 12
-0.0041542272
 22
0.0122464422
 32
0.0
 13
-0.0063576165
 23
0.0112611573
 33
0.0
 40
0.0
 40
0.0
 40
0.0
 40
0.0
 40
0.2557695353
 40
1.0
 40
1.0
 40
1.0
 40
1.0
 10
18.3885241471
 20
11.370661852
 30
0.0
 10
18.3881699721
 20
11.371705941
 30
0.0
 10
18.3866944942
 20
11.3757564568
 30
0.0
 10
18.3848547138
 20
11.379676528
 30
0.0
 10
18.3832775365
 20
11.3824701601
 30
0.0
 11
18.3885241471
 21
11.370661852
 31
0.0
 11
18.3873913756
 21
11.3737694046
 31
0.0
 11
18.3832775365
 21
11.3824701601
 31
0.0
  0
SPLINE
  5
38C
100
AcDbEntity
  8
0
100
AcDbSpline
 62
7
  6
CONTINUOUS
 70
0
 71
3
 72
9
 73
5
 74
3
 42
0.0000001
 43
0.0000001
 44
0.0000000001
 12
0.0062356683
 22
0.0111214857
 32
0.0
 13
0.0040950505
 23
0.0120748319
 33
0.0
 40
0.0
 40
0.0
 40
0.0
 40
0.0
 40
0.2444047466
 40
1.0
 40
1.0
 40
1.0
 40
1.0
 10
18.3833695101
 20
11.3052785877
 30
0.0
 10
18.3838775191
 20
11.3061846356
 30
0.0
 10
18.3858654427
 20
11.3099421542
 30
0.0
 10
18.387494514
 20
11.3138873778
 30
0.0
 10
18.3885259143
 20
11.3169286064
 30
0.0
 11
18.3833695101
 21
11.3052785877
 31
0.0
 11
18.3848277994
 21
11.3080325587
 31
0.0
 11
18.3885259143
 21
11.3169286064
 31
0.0
  0
SPLINE
  5
38D
100
AcDbEntity
  8
0
100
AcDbSpline
 62
7
  6
CONTINUOUS
 70
0
 71
3
 72
9
 73
5
 74
3
 42
0.0000001
 43
0.0000001
 44
0.0000000001
 12
0.0053660197
 22
0.0158224631
 32
0.0
 13
0.0020441039
 23
0.0165821031
 33
0.0
 40
0.0
 40
0.0
 40
0.0
 40
0.0
 40
0.2460156549
 40
1.0
 40
1.0
 40
1.0
 40
1.0
 10
18.3885259143
 20
11.3169286064
 30
0.0
 10
18.3889659559
 20
11.3182261309
 30
0.0
 10
18.3906081742
 20
11.3235492384
 30
0.0
 10
18.3916887934
 20
11.3290422469
 30
0.0
 10
18.3922025342
 20
11.3332097957
 30
0.0
 11
18.3885259143
 21
11.3169286064
 31
0.0
 11
18.3897399886
 21
11.3208555495
 31
0.0
 11
18.3922025342
 21
11.3332097957
 31
0.0
  0
SPLINE
  5
38E
100
AcDbEntity
  8
0
100
AcDbSpline
 62
7
  6
CONTINUOUS
 70
0
 71
3
 72
21
 73
17
 74
15
 42
0.0000001
 43
0.0000001
 44
0.0000000001
 12
0.2263856517
 22
-0.1988697181
 32
0.0
 13
0.0003674112
 23
0.3013295423
 33
0.0
 40
0.0
 40
0.0
 40
0.0
 40
0.0
 40
0.162480331
 40
0.2433653942
 40
0.3231957034
 40
0.4009786192
 40
0.4757718531
 40
0.546076457
 40
0.6104057449
 40
0.6681428033
 40
0.7195351923
 40
0.7664253095
 40
0.8111985435
 40
0.8558560361
 40
0.9019048068
 40
1.0
 40
1.0
 40
1.0
 40
1.0
 10
26.3402906029
 20
13.8055426303
 30
0.0
 10
26.3525516748
 20
13.7947718244
 30
0.0
 10
26.3714475202
 20
13.7792157515
 30
0.0
 10
26.3977985269
 20
13.7602397362
 30
0.0
 10
26.4179314082
 20
13.7472340476
 30
0.0
 10
26.4383218803
 20
13.7358282347
 30
0.0
 10
26.4587004089
 20
13.7264919414
 30
0.0
 10
26.4786511523
 20
13.7196724581
 30
0.0
 10
26.4976988865
 20
13.7159865802
 30
0.0
 10
26.5152346097
 20
13.7157330062
 30
0.0
 10
26.5307209349
 20
13.7190690601
 30
0.0
 10
26.5435884288
 20
13.7258692173
 30
0.0
 10
26.5536454841
 20
13.7353940779
 30
0.0
 10
26.5609404406
 20
13.7470280122
 30
0.0
 10
26.5675202563
 20
13.7649145316
 30
0.0
 10
26.5690564626
 20
13.7795556063
 30
0.0
 10
26.5690684763
 20
13.7894085995
 30
0.0
 11
26.3402906029
 21
13.8055426303
 31
0.0
 11
26.3782047407
 21
13.7745649699
 31
0.0
 11
26.398001866
 21
13.7603480532
 31
0.0
 11
26.4182385215
 21
13.7473429485
 31
0.0
 11
26.4387307502
 21
13.7359665324
 31
0.0
 11
26.4592585132
 21
13.7266634903
 31
0.0
 11
26.4793581349
 21
13.7199699174
 31
0.0
 11
26.4984220969
 21
13.7164602771
 31
0.0
 11
26.5158199481
 21
13.7164215494
 31
0.0
 11
26.5309175956
 21
13.7198681399
 31
0.0
 11
26.5433909147
 21
13.7265056031
 31
0.0
 11
26.5532072931
 21
13.7357608453
 31
0.0
 11
26.5604478972
 21
13.7471034461
 31
0.0
 11
26.5653505138
 21
13.7600843547
 31
0.0
 11
26.5690684763
 21
13.7894085995
 31
0.0
  0
SPLINE
  5
38F
100
AcDbEntity
  8
0
100
AcDbSpline
 62
7
  6
CONTINUOUS
 70
0
 71
3
 72
11
 73
7
 74
5
 42
0.0000001
 43
0.0000001
 44
0.0000000001
 12
0.1128118781
 22
-0.1539692613
 32
0.0
 13
0.1908744437
 23
-0.0
 33
0.0
 40
0.0
 40
0.0
 40
0.0
 40
0.0
 40
0.2288681905
 40
0.4715602974
 40
0.7296396658
 40
1.0
 40
1.0
 40
1.0
 40
1.0
 10
27.0464197848
 20
13.8055426303
 30
0.0
 10
27.0550261349
 20
13.7937964082
 30
0.0
 10
27.0748583895
 20
13.7710492165
 30
0.0
 10
27.1116422427
 20
13.7422016669
 30
0.0
 10
27.1565705737
 20
13.7212634726
 30
0.0
 10
27.1903913901
 20
13.7159757011
 30
0.0
 10
27.2075930163
 20
13.7159757011
 30
0.0
 11
27.0464197848
 21
13.8055426303
 31
0.0
 11
27.0752052988
 21
13.7726826067
 31
0.0
 11
27.1117897067
 21
13.7442666215
 31
0.0
 11
27.1565783267
 21
13.7237580482
 31
0.0
 11
27.2075930163
 21
13.7159757011
 31
0.0
  0
SPLINE
  5
390
100
AcDbEntity
  8
0
100
AcDbSpline
 62
7
  6
CONTINUOUS
 70
0
 71
3
 72
11
 73
7
 74
5
 42
0.0000001
 43
0.0000001
 44
0.0000000001
 12
0.1908754363
 22
-0.0
 32
0.0
 13
0.1128124648
 23
0.153970062
 33
0.0
 40
0.0
 40
0.0
 40
0.0
 40
0.0
 40
0.2703693813
 40
0.5284437333
 40
0.7711318941
 40
1.0
 40
1.0
 40
1.0
 40
1.0
 10
27.2075930163
 20
13.7159757011
 30
0.0
 10
27.2247953075
 20
13.7159757011
 30
0.0
 10
27.2586189627
 20
13.7212540072
 30
0.0
 10
27.3035413483
 20
13.7422067976
 30
0.0
 10
27.3403288223
 20
13.7710475666
 30
0.0
 10
27.360159856
 20
13.7937963515
 30
0.0
 10
27.3687662477
 20
13.8055426303
 30
0.0
 11
27.2075930163
 21
13.7159757011
 31
0.0
 11
27.2586103797
 21
13.7237537492
 31
0.0
 11
27.3033954946
 21
13.7442682919
 31
0.0
 11
27.3399808442
 21
13.7726822294
 31
0.0
 11
27.3687662477
 21
13.8055426303
 31
0.0
  0
ENDSEC
  0
SECTION
  2
OBJECTS
  0
DICTIONARY
  5
C
100
AcDbDictionary
280
0
281
1
  3
ACAD_GROUP
350
D
  3
ACAD_MLINESTYLE
350
17
  3
ACAD_LAYOUT
350
1A
  3
ACAD_PLOTSETTINGS
350
19
  3
ACAD_PLOTSTYLENAME
350
E
  0
DICTIONARY
  5
D
102
{ACAD_REACTORS
330
C
102
}
100
AcDbDictionary
280
0
281
1
  0
ACDBDICTIONARYWDFLT
  5
E
102
{ACAD_REACTORS
330
C
102
}
100
AcDbDictionary
281
1
  3
Normal
350
F
100
AcDbDictionaryWithDefault
340
F
  0
DICTIONARY
  5
17
102
{ACAD_REACTORS
330
C
102
}
100
AcDbDictionary
280
0
281
1
  3
Standard
350
18
  0
DICTIONARY
  5
19
102
{ACAD_REACTORS
330
C
102
}
100
AcDbDictionary
281
1
  0
DICTIONARY
  5
1A
102
{ACAD_REACTORS
330
C
102
}
100
AcDbDictionary
281
1
  3
Model
350
391
  3
Layout1
350
392
  0
ACDBPLACEHOLDER
  5
F
102
{ACAD_REACTORS
330
E
102
}
  0
MLINESTYLE
  5
18
102
{ACAD_REACTORS
330
17
102
}
100
AcDbMlineStyle
  2
STANDARD
 70
0
  3

 62
256
 51
90.0
 52
90.0
 71
2
 49
0.5
 62
256
  6
BYLAYER
 49
-0.5
 62
256
  6
BYLAYER
  0
LAYOUT
  5
391
102
{ACAD_REACTORS
330
1A
102
}
100
AcDbPlotSettings
  1

  2
none_device
  4
ISO_A1_(594.00_x_841.00_MM)
  6

 40
0.0
 41
0.0
 42
0.0
 43
0.0
 44
841.0
 45
594.0
 46
0.0
 47
0.0
 48
0.0
 49
0.0
140
0.0
141
0.0
142
1.0
143
1.0
 70
1024
 72
0
 73
0
 74
0
  7

 75
0
147
1.0
148
0.0
149
0.0
100
AcDbLayout
  1
Model
 70
0
 71
0
 10
0.0
 20
0.0
 11
33.1102362205
 21
23.3858267717
 12
0.0
 22
0.0
 32
0.0
 14
0.0
 24
0.0
 34
0.0
 15
0.0
 25
0.0
 35
0.0
146
0.0
 13
0.0
 23
0.0
 33
0.0
 16
1.0
 26
0.0
 36
0.0
 17
0.0
 27
1.0
 37
0.0
 76
0
330
26B
345
0
346
0
  0
LAYOUT
  5
392
102
{ACAD_REACTORS
330
1A
102
}
100
AcDbPlotSettings
  1

  2
none_device
  4
ISO_A1_(594.00_x_841.00_MM)
  6

 40
0.0
 41
0.0
 42
0.0
 43
0.0
 44
841.0
 45
594.0
 46
0.0
 47
0.0
 48
0.0
 49
0.0
140
0.0
141
0.0
142
1.0
143
1.0
 70
0
 72
0
 73
0
 74
0
  7

 75
0
147
1.0
148
0.0
149
0.0
100
AcDbLayout
  1
Layout1
 70
0
 71
1
 10
0.0
 20
0.0
 11
33.1102362205
 21
23.3858267717
 12
0.0
 22
0.0
 32
0.0
 14
0.0
 24
0.0
 34
0.0
 15
0.0
 25
0.0
 35
0.0
146
0.0
 13
0.0
 23
0.0
 33
0.0
 16
1.0
 26
0.0
 36
0.0
 17
0.0
 27
1.0
 37
0.0
 76
0
330
26C
345
0
346
0
  0
ENDSEC
  0
EOF
