999
DXF file: 9208_top.dxf
999
Pro/ENGINEER 2018400 by Parametric Technology Corporation
  0
SECTION
  2
HEADER
  9
$ACADVER
  1
AC1027
  9
$DWGCODEPAGE
  3
ANSI_1252
  9
$EXTMAX
 10
11.0
 20
8.5
 30
0.0
  9
$EXTMIN
 10
0.0
 20
0.0
 30
0.0
  9
$LIMMIN
 10
0.0
 20
0.0
  9
$LIMMAX
 10
11.0
 20
8.5
  9
$VIEWCTR
 10
5.5
 20
4.25
  9
$VIEWSIZE
 40
8.5
  9
$CLAYER
  8
0
  9
$LTSCALE
 40
0.605
  9
$CELTYPE
  6
BYLAYER
  9
$DIMSCALE
 40
1.0
  9
$DIMASZ
 40
0.1
  9
$DIMEXO
 40
0.0625
  9
$DIMDLI
 40
0.418
  9
$DIMEXE
 40
0.125
  9
$DIMCEN
 40
0.099
  9
$DIMLFAC
 40
1.0
  9
$DIMBLK
  1
_FILLED
  9
$DIMALT
 70
1
  9
$DIMALTD
 70
1
  9
$DIMALTTD
 70
2
  9
$DIMALTF
 40
25.4
  9
$DIMTXT
 40
0.08
  9
$DIMTOL
 70
1
  9
$DIMLIM
 70
0
  9
$DIMTFAC
 40
1.0
  9
$DIMTP
 40
0.01
  9
$DIMTM
 40
0.01
  9
$DIMGAP
 40
0.09
  9
$DIMDSEP
 70
46
  9
$AUNITS
 70
0
  9
$PDMODE
 70
3
  9
$PDSIZE
 40
0.3125
  9
$HANDSEED
  5
2B5
  9
$TILEMODE
 70
1
  9
$MEASUREMENT
 70
0
  9
$INSUNITS
 70
1
  0
ENDSEC
  0
SECTION
  2
CLASSES
  0
CLASS
  1
ACDBDICTIONARYWDFLT
  2
AcDbDictionaryWithDefault
  3
AutoCAD 2000
 90
0
 91
1
280
0
281
0
  0
CLASS
  1
ACDBPLACEHOLDER
  2
AcDbPlaceHolder
  3
AutoCAD 2000
 90
0
 91
1
280
0
281
0
  0
CLASS
  1
LAYOUT
  2
AcDbLayout
  3
AutoCAD 2000
 90
0
 91
0
280
0
281
0
  0
ENDSEC
  0
SECTION
  2
TABLES
  0
TABLE
  2
VPORT
  5
8
100
AcDbSymbolTable
 70
2
  0
VPORT
  5
1F4
100
AcDbSymbolTableRecord
100
AcDbViewportTableRecord
  2
*ACTIVE
 70
0
 10
0.0
 20
0.0
 11
1.0
 21
1.0
 12
5.5
 22
4.25
 13
0.0
 23
0.0
 14
1.0
 24
1.0
 15
0.0
 25
0.0
 16
0.0
 26
0.0
 36
1.0
 17
0.0
 27
0.0
 37
0.0
 40
8.5
 41
1.2941176471
 42
50.0
 43
0.0
 44
0.0
 50
0.0
 51
0.0
 71
0
 72
100
 73
1
 74
1
 75
0
 76
0
 77
0
 78
0
  0
ENDTAB
  0
TABLE
  2
LTYPE
  5
5
100
AcDbSymbolTable
 70
6
  0
LTYPE
  5
14
100
AcDbSymbolTableRecord
100
AcDbLinetypeTableRecord
  2
BYBLOCK
 70
0
  3

 72
65
 73
0
 40
0.0
  0
LTYPE
  5
15
100
AcDbSymbolTableRecord
100
AcDbLinetypeTableRecord
  2
BYLAYER
 70
0
  3

 72
65
 73
0
 40
0.0
  0
LTYPE
  5
16
100
AcDbSymbolTableRecord
100
AcDbLinetypeTableRecord
  2
CONTINUOUS
 70
64
  3
Solid line
 72
65
 73
0
 40
0.0
  0
LTYPE
  5
1F5
100
AcDbSymbolTableRecord
100
AcDbLinetypeTableRecord
  2
CENTER
 70
64
  3
____ _ ____ _ ____ _ ____ _ ____ _ ____ _ ____
 72
65
 73
4
 40
0.6
 49
0.375
 74
0
 49
-0.075
 74
0
 49
0.075
 74
0
 49
-0.075
 74
0
  0
LTYPE
  5
1F6
100
AcDbSymbolTableRecord
100
AcDbLinetypeTableRecord
  2
HIDDEN
 70
64
  3
- - - - - - - - - - - - - - - - - - - -
 72
65
 73
2
 40
0.2
 49
0.1
 74
0
 49
-0.1
 74
0
  0
LTYPE
  5
1F7
100
AcDbSymbolTableRecord
100
AcDbLinetypeTableRecord
  2
PHANTOM
 70
64
  3
_____ _ _ _____ _ _ _____ _ _ _____
 72
65
 73
6
 40
0.8
 49
0.45
 74
0
 49
-0.05
 74
0
 49
0.1
 74
0
 49
-0.05
 74
0
 49
0.1
 74
0
 49
-0.05
 74
0
  0
LTYPE
  5
1F8
100
AcDbSymbolTableRecord
100
AcDbLinetypeTableRecord
  2
DOT
 70
64
  3
. . . . . . . . . . . . . . . . . . . .
 72
65
 73
2
 40
0.2
 49
0.1
 74
0
 49
-0.1
 74
0
  0
LTYPE
  5
1F9
100
AcDbSymbolTableRecord
100
AcDbLinetypeTableRecord
  2
DASHED
 70
64
  3
- - - - - - - - - - - - - - - - - - - -
 72
65
 73
2
 40
0.2
 49
0.1
 74
0
 49
-0.1
 74
0
  0
ENDTAB
  0
TABLE
  2
LAYER
  5
2
100
AcDbSymbolTable
 70
36
  0
LAYER
  5
10
100
AcDbSymbolTableRecord
100
AcDbLayerTableRecord
  2
0
 70
0
 62
7
  6
CONTINUOUS
370
-3
390
F
  0
LAYER
  5
1FA
100
AcDbSymbolTableRecord
100
AcDbLayerTableRecord
  2
DEFAULT_1
 70
0
 62
7
  6
CENTER
370
-3
390
F
  0
LAYER
  5
1FB
100
AcDbSymbolTableRecord
100
AcDbLayerTableRecord
  2
DEFAULT_2
 70
0
 62
8
  6
HIDDEN
370
-3
390
F
  0
LAYER
  5
1FC
100
AcDbSymbolTableRecord
100
AcDbLayerTableRecord
  2
DEFAULT_3
 70
0
 62
7
  6
PHANTOM
370
-3
390
F
  0
LAYER
  5
1FD
100
AcDbSymbolTableRecord
100
AcDbLayerTableRecord
  2
DEFAULT_COORDINATE_SYSTEM
 70
0
 62
7
  6
CONTINUOUS
370
-3
390
F
  0
LAYER
  5
1FE
100
AcDbSymbolTableRecord
100
AcDbLayerTableRecord
  2
DEFAULT_DATUM_AXES
 70
0
 62
7
  6
CONTINUOUS
370
-3
390
F
  0
LAYER
  5
1FF
100
AcDbSymbolTableRecord
100
AcDbLayerTableRecord
  2
DEFAULT_DATUM_PLANES
 70
0
 62
7
  6
CONTINUOUS
370
-3
390
F
  0
ENDTAB
  0
TABLE
  2
STYLE
  5
3
100
AcDbSymbolTable
 70
1
  0
STYLE
  5
11
100
AcDbSymbolTableRecord
100
AcDbTextStyleTableRecord
  2
STANDARD
 70
0
 40
0.0
 41
0.8
 50
0.0
 71
0
 42
0.2
  3
txt
  4

  0
STYLE
  5
200
100
AcDbSymbolTableRecord
100
AcDbTextStyleTableRecord
  2
TEXTSTYLE_1
 70
0
 40
0.0
 41
0.8
 50
0.0
 71
0
 42
0.2
  3
gdt
  4

  0
ENDTAB
  0
TABLE
  2
VIEW
  5
6
100
AcDbSymbolTable
 70
0
  0
ENDTAB
  0
TABLE
  2
UCS
  5
7
100
AcDbSymbolTable
 70
0
  0
ENDTAB
  0
TABLE
  2
APPID
  5
9
100
AcDbSymbolTable
 70
1
  0
APPID
  5
201
100
AcDbSymbolTableRecord
100
AcDbRegAppTableRecord
  2
ACAD
 70
0
  0
ENDTAB
  0
TABLE
  2
BLOCK_RECORD
  5
1
100
AcDbSymbolTable
 70
0
  0
BLOCK_RECORD
  5
202
100
AcDbSymbolTableRecord
100
AcDbBlockTableRecord
  2
*Model_Space
  0
BLOCK_RECORD
  5
203
100
AcDbSymbolTableRecord
100
AcDbBlockTableRecord
  2
*Paper_Space
  0
BLOCK_RECORD
  5
204
100
AcDbSymbolTableRecord
100
AcDbBlockTableRecord
  2
_FILLED
  0
ENDTAB
  0
TABLE
  2
DIMSTYLE
  5
A
100
AcDbSymbolTable
 70
1
100
AcDbDimStyleTable
 71
0
  0
DIMSTYLE
105
205
100
AcDbSymbolTableRecord
100
AcDbDimStyleTableRecord
  2
STANDARD
 70
0
  3

  4

 40
1.0
 41
0.1
 42
0.0625
 43
0.38
 44
0.125
 45
0.0
 46
0.0
 47
0.01
 48
0.01
140
0.08
141
0.09
142
0.0
143
25.4
144
1.0
145
0.0
146
1.0
147
0.09
 71
1.0
 72
0.0
 73
1
 74
1
 75
0
 76
0
 77
0
 78
4
 79
1
170
1
171
1
172
0
173
0
174
0
175
0
176
0
177
0
178
0
270
2
179
2
271
2
272
2
273
2
274
2
275
0
280
0
281
0
282
0
283
1
284
4
285
0
286
0
287
3
288
0
340
11
278
46
341
204
342
204
343
204
344
204
  0
ENDTAB
  0
ENDSEC
  0
SECTION
  2
BLOCKS
  0
BLOCK
  5
20
100
AcDbEntity
  8
0
100
AcDbBlockBegin
  2
*Model_Space
 70
0
 10
0.0
 20
0.0
 30
0.0
  3
*Model_Space
  1

  0
ENDBLK
  5
21
100
AcDbEntity
  8
0
100
AcDbBlockEnd
  0
BLOCK
  5
1C
100
AcDbEntity
  8
0
100
AcDbBlockBegin
  2
*Paper_Space
 70
0
 10
0.0
 20
0.0
 30
0.0
  3
*Paper_Space
  1

  0
ENDBLK
  5
1D
100
AcDbEntity
  8
0
100
AcDbBlockEnd
  0
BLOCK
  5
206
100
AcDbEntity
  8
0
100
AcDbBlockBegin
  2
_FILLED
 70
64
 10
0.0
 20
0.0
  3
_FILLED
  1

  0
SOLID
  5
207
100
AcDbEntity
  8
0
  6
BYBLOCK
 62
0
100
AcDbTrace
 10
0.0
 20
0.0
 11
-1.0
 21
0.2
 12
-1.0
 22
-0.2
 13
-1.0
 23
-0.2
  0
ENDBLK
  5
208
100
AcDbEntity
  8
0
  6
BYBLOCK
 62
0
100
AcDbBlockEnd
  0
ENDSEC
  0
SECTION
  2
ENTITIES
  0
MTEXT
  5
209
100
AcDbEntity
  8
0
100
AcDbMText
 62
2
  6
CONTINUOUS
  7
STANDARD
 71
3
 72
1
 10
4.9696428571
 20
1.8648426746
 30
0.0
 11
1.0
 21
0.0
 31
0.0
 73
2
 44
0.9
  1
SCALE  .500
 40
0.08
 41
0.704
  0
LINE
  5
20A
100
AcDbEntity
  8
0
100
AcDbLine
 62
7
  6
CONTINUOUS
 10
0.0
 20
0.0
 11
0.0
 21
8.5
  0
LINE
  5
20B
100
AcDbEntity
  8
0
100
AcDbLine
 62
7
  6
CONTINUOUS
 10
0.0
 20
0.0
 11
11.0
 21
0.0
  0
LINE
  5
20C
100
AcDbEntity
  8
0
100
AcDbLine
 62
7
  6
CONTINUOUS
 10
0.0
 20
8.5
 11
11.0
 21
8.5
  0
LINE
  5
20D
100
AcDbEntity
  8
0
100
AcDbLine
 62
7
  6
CONTINUOUS
 10
11.0
 20
0.0
 11
11.0
 21
8.5
  0
LINE
  5
20E
100
AcDbEntity
  8
0
100
AcDbLine
 62
7
  6
CONTINUOUS
 10
4.3759262679
 20
3.1469197478
 11
4.8946482663
 21
3.1469197478
  0
LINE
  5
20F
100
AcDbEntity
  8
0
100
AcDbLine
 62
7
  6
CONTINUOUS
 10
4.37563075
 20
3.1736183802
 11
4.8949437842
 21
3.1736183802
  0
LWPOLYLINE
  5
210
100
AcDbEntity
  8
0
100
AcDbPolyline
 62
7
  6
CONTINUOUS
 90
4
 70
0
 10
4.3859282101
 20
2.5853032951
 10
4.386072289
 20
2.5838879884
 10
4.3862275518
 20
2.5824300234
 10
4.3864992991
 20
2.5800252908
  0
LINE
  5
211
100
AcDbEntity
  8
0
100
AcDbLine
 62
7
  6
CONTINUOUS
 10
4.3856694893
 20
2.5880176442
 11
4.3859282101
 21
2.5853032951
  0
LINE
  5
212
100
AcDbEntity
  8
0
100
AcDbLine
 62
7
  6
CONTINUOUS
 10
4.3854447917
 20
2.5905866737
 11
4.3856694893
 21
2.5880176442
  0
LINE
  5
213
100
AcDbEntity
  8
0
100
AcDbLine
 62
7
  6
CONTINUOUS
 10
4.3852472935
 20
2.5930387962
 11
4.3854447917
 21
2.5905866737
  0
LINE
  5
214
100
AcDbEntity
  8
0
100
AcDbLine
 62
7
  6
CONTINUOUS
 10
4.3850716274
 20
2.5953984633
 11
4.3852472935
 21
2.5930387962
  0
LINE
  5
215
100
AcDbEntity
  8
0
100
AcDbLine
 62
7
  6
CONTINUOUS
 10
4.3849120428
 20
2.5977094559
 11
4.3850716274
 21
2.5953984633
  0
LINE
  5
216
100
AcDbEntity
  8
0
100
AcDbLine
 62
7
  6
CONTINUOUS
 10
4.3847644922
 20
2.6000059762
 11
4.3849120428
 21
2.5977094559
  0
LINE
  5
217
100
AcDbEntity
  8
0
100
AcDbLine
 62
7
  6
CONTINUOUS
 10
4.3845597236
 20
2.6034793528
 11
4.3847644922
 21
2.6000059762
  0
LINE
  5
218
100
AcDbEntity
  8
0
100
AcDbLine
 62
7
  6
CONTINUOUS
 10
4.3843683113
 20
2.6070626724
 11
4.3845597236
 21
2.6034793528
  0
LINE
  5
219
100
AcDbEntity
  8
0
100
AcDbLine
 62
7
  6
CONTINUOUS
 10
4.3841260974
 20
2.6121171416
 11
4.3843683113
 21
2.6070626724
  0
LINE
  5
21A
100
AcDbEntity
  8
0
100
AcDbLine
 62
7
  6
CONTINUOUS
 10
4.3838927628
 20
2.6175870256
 11
4.3841260974
 21
2.6121171416
  0
LINE
  5
21B
100
AcDbEntity
  8
0
100
AcDbLine
 62
7
  6
CONTINUOUS
 10
4.3836065406
 20
2.6251623128
 11
4.3838927628
 21
2.6175870256
  0
LINE
  5
21C
100
AcDbEntity
  8
0
100
AcDbLine
 62
7
  6
CONTINUOUS
 10
4.3832622437
 20
2.6356047143
 11
4.3836065406
 21
2.6251623128
  0
LINE
  5
21D
100
AcDbEntity
  8
0
100
AcDbLine
 62
7
  6
CONTINUOUS
 10
4.3827906748
 20
2.652340353
 11
4.3832622437
 21
2.6356047143
  0
LINE
  5
21E
100
AcDbEntity
  8
0
100
AcDbLine
 62
7
  6
CONTINUOUS
 10
4.382106814
 20
2.6816311639
 11
4.3827906748
 21
2.652340353
  0
LINE
  5
21F
100
AcDbEntity
  8
0
100
AcDbLine
 62
7
  6
CONTINUOUS
 10
4.381028415
 20
2.73942531
 11
4.382106814
 21
2.6816311639
  0
LINE
  5
220
100
AcDbEntity
  8
0
100
AcDbLine
 62
7
  6
CONTINUOUS
 10
4.3800766167
 20
2.8011613433
 11
4.381028415
 21
2.73942531
  0
LINE
  5
221
100
AcDbEntity
  8
0
100
AcDbLine
 62
7
  6
CONTINUOUS
 10
4.3796904588
 20
2.8287450988
 11
4.3800766167
 21
2.8011613433
  0
LINE
  5
222
100
AcDbEntity
  8
0
100
AcDbLine
 62
7
  6
CONTINUOUS
 10
4.3794525881
 20
2.846393719
 11
4.3796904588
 21
2.8287450988
  0
LINE
  5
223
100
AcDbEntity
  8
0
100
AcDbLine
 62
7
  6
CONTINUOUS
 10
4.3792097561
 20
2.864893961
 11
4.3794525881
 21
2.846393719
  0
LINE
  5
224
100
AcDbEntity
  8
0
100
AcDbLine
 62
7
  6
CONTINUOUS
 10
4.3790449834
 20
2.8777106386
 11
4.3792097561
 21
2.864893961
  0
LINE
  5
225
100
AcDbEntity
  8
0
100
AcDbLine
 62
7
  6
CONTINUOUS
 10
4.3787932838
 20
2.8976757348
 11
4.3790449834
 21
2.8777106386
  0
LINE
  5
226
100
AcDbEntity
  8
0
100
AcDbLine
 62
7
  6
CONTINUOUS
 10
4.3786223274
 20
2.9114876392
 11
4.3787932838
 21
2.8976757348
  0
LINE
  5
227
100
AcDbEntity
  8
0
100
AcDbLine
 62
7
  6
CONTINUOUS
 10
4.355287754
 20
4.9911186321
 11
4.3742237282
 21
3.3007007868
  0
LINE
  5
228
100
AcDbEntity
  8
0
100
AcDbLine
 62
7
  6
CONTINUOUS
 10
4.3742237282
 20
3.3007007868
 11
4.37563075
 21
3.1736183802
  0
LINE
  5
229
100
AcDbEntity
  8
0
100
AcDbLine
 62
7
  6
CONTINUOUS
 10
4.37563075
 20
3.1736183802
 11
4.3786223274
 21
2.9114876392
  0
LINE
  5
22A
100
AcDbEntity
  8
0
100
AcDbLine
 62
7
  6
CONTINUOUS
 10
4.3552872671
 20
4.9911577832
 11
4.3552877537
 21
4.9910708192
  0
LINE
  5
22B
100
AcDbEntity
  8
0
100
AcDbLine
 62
7
  6
CONTINUOUS
 10
4.2952872671
 20
5.2143851274
 11
4.2952872671
 21
5.0934197478
  0
LINE
  5
22C
100
AcDbEntity
  8
0
100
AcDbLine
 62
7
  6
CONTINUOUS
 10
4.3552872671
 20
5.0934197478
 11
4.3552872671
 21
4.9912050198
  0
LINE
  5
22D
100
AcDbEntity
  8
0
100
AcDbLine
 62
7
  6
CONTINUOUS
 10
4.4382872671
 20
3.8770580032
 11
4.4382872671
 21
3.8594028101
  0
LINE
  5
22E
100
AcDbEntity
  8
0
100
AcDbLine
 62
7
  6
CONTINUOUS
 10
4.5177872671
 20
5.1757132051
 11
4.5177872671
 21
5.1606270645
  0
LINE
  5
22F
100
AcDbEntity
  8
0
100
AcDbLine
 62
7
  6
CONTINUOUS
 10
4.5402872671
 20
5.4587595737
 11
4.5402872671
 21
5.2044890854
  0
LINE
  5
230
100
AcDbEntity
  8
0
100
AcDbLine
 62
7
  6
CONTINUOUS
 10
4.7302872671
 20
5.4587595737
 11
4.7302872671
 21
5.2044765781
  0
LINE
  5
231
100
AcDbEntity
  8
0
100
AcDbLine
 62
7
  6
CONTINUOUS
 10
4.7527872671
 20
5.1757132051
 11
4.7527872671
 21
5.1606270645
  0
LINE
  5
232
100
AcDbEntity
  8
0
100
AcDbLine
 62
7
  6
CONTINUOUS
 10
4.8322872671
 20
3.8770580032
 11
4.8322872671
 21
3.8594028101
  0
LINE
  5
233
100
AcDbEntity
  8
0
100
AcDbLine
 62
7
  6
CONTINUOUS
 10
4.9152872671
 20
5.0934197478
 11
4.9152872671
 21
4.9912050198
  0
LINE
  5
234
100
AcDbEntity
  8
0
100
AcDbLine
 62
7
  6
CONTINUOUS
 10
4.9152867802
 20
4.9910721499
 11
4.9152872671
 21
4.9911577625
  0
LINE
  5
235
100
AcDbEntity
  8
0
100
AcDbLine
 62
7
  6
CONTINUOUS
 10
4.9007213579
 20
3.6931758178
 11
4.9152867802
 21
4.9911186321
  0
LINE
  5
236
100
AcDbEntity
  8
0
100
AcDbLine
 62
7
  6
CONTINUOUS
 10
4.8920448443
 20
2.9190523857
 11
4.9007213586
 21
3.6931758798
  0
LINE
  5
237
100
AcDbEntity
  8
0
100
AcDbLine
 62
7
  6
CONTINUOUS
 10
4.8918663628
 20
2.9045276062
 11
4.8920448443
 21
2.9190523857
  0
LINE
  5
238
100
AcDbEntity
  8
0
100
AcDbLine
 62
7
  6
CONTINUOUS
 10
4.8916038294
 20
2.8835549807
 11
4.8918663628
 21
2.9045276062
  0
LINE
  5
239
100
AcDbEntity
  8
0
100
AcDbLine
 62
7
  6
CONTINUOUS
 10
4.8914321107
 20
2.8701063357
 11
4.8916038294
 21
2.8835549807
  0
LINE
  5
23A
100
AcDbEntity
  8
0
100
AcDbLine
 62
7
  6
CONTINUOUS
 10
4.8911792325
 20
2.8507151341
 11
4.8914321107
 21
2.8701063357
  0
LINE
  5
23B
100
AcDbEntity
  8
0
100
AcDbLine
 62
7
  6
CONTINUOUS
 10
4.8909317444
 20
2.8322429957
 11
4.8911792325
 21
2.8507151341
  0
LINE
  5
23C
100
AcDbEntity
  8
0
100
AcDbLine
 62
7
  6
CONTINUOUS
 10
4.8904517627
 20
2.797957046
 11
4.8909317444
 21
2.8322429957
  0
LINE
  5
23D
100
AcDbEntity
  8
0
100
AcDbLine
 62
7
  6
CONTINUOUS
 10
4.888972574
 20
2.7069776851
 11
4.8904517627
 21
2.797957046
  0
LINE
  5
23E
100
AcDbEntity
  8
0
100
AcDbLine
 62
7
  6
CONTINUOUS
 10
4.8881021858
 20
2.6652402344
 11
4.888972574
 21
2.7069776851
  0
LINE
  5
23F
100
AcDbEntity
  8
0
100
AcDbLine
 62
7
  6
CONTINUOUS
 10
4.8875378692
 20
2.6432566317
 11
4.8881021858
 21
2.6652402344
  0
LINE
  5
240
100
AcDbEntity
  8
0
100
AcDbLine
 62
7
  6
CONTINUOUS
 10
4.9752872671
 20
5.2143851274
 11
4.9752872671
 21
5.0934197478
  0
LINE
  5
241
100
AcDbEntity
  8
0
100
AcDbLine
 62
7
  6
CONTINUOUS
 10
4.8871152266
 20
2.6294468438
 11
4.8875378692
 21
2.6432566317
  0
LINE
  5
242
100
AcDbEntity
  8
0
100
AcDbLine
 62
7
  6
CONTINUOUS
 10
4.8868168196
 20
2.6210391996
 11
4.8871152266
 21
2.6294468438
  0
LINE
  5
243
100
AcDbEntity
  8
0
100
AcDbLine
 62
7
  6
CONTINUOUS
 10
4.886575657
 20
2.6150233832
 11
4.8868168196
 21
2.6210391996
  0
LINE
  5
244
100
AcDbEntity
  8
0
100
AcDbLine
 62
7
  6
CONTINUOUS
 10
4.8863269982
 20
2.6095069352
 11
4.886575657
 21
2.6150233832
  0
LINE
  5
245
100
AcDbEntity
  8
0
100
AcDbLine
 62
7
  6
CONTINUOUS
 10
4.8861312879
 20
2.6056187749
 11
4.8863269982
 21
2.6095069352
  0
LINE
  5
246
100
AcDbEntity
  8
0
100
AcDbLine
 62
7
  6
CONTINUOUS
 10
4.8859227773
 20
2.6018747137
 11
4.8861312879
 21
2.6056187749
  0
LINE
  5
247
100
AcDbEntity
  8
0
100
AcDbLine
 62
7
  6
CONTINUOUS
 10
4.8857733175
 20
2.5994190922
 11
4.8859227773
 21
2.6018747137
  0
LINE
  5
248
100
AcDbEntity
  8
0
100
AcDbLine
 62
7
  6
CONTINUOUS
 10
4.8856125737
 20
2.596968197
 11
4.8857733175
 21
2.5994190922
  0
LINE
  5
249
100
AcDbEntity
  8
0
100
AcDbLine
 62
7
  6
CONTINUOUS
 10
4.8854370352
 20
2.5944922999
 11
4.8856125737
 21
2.596968197
  0
LINE
  5
24A
100
AcDbEntity
  8
0
100
AcDbLine
 62
7
  6
CONTINUOUS
 10
4.8852416584
 20
2.5919518865
 11
4.8854370352
 21
2.5944922999
  0
LINE
  5
24B
100
AcDbEntity
  8
0
100
AcDbLine
 62
7
  6
CONTINUOUS
 10
4.8850211039
 20
2.5893175605
 11
4.8852416584
 21
2.5919518865
  0
LWPOLYLINE
  5
24C
100
AcDbEntity
  8
0
100
AcDbPolyline
 62
7
  6
CONTINUOUS
 90
7
 70
0
 10
4.8840752875
 20
2.5800257384
 10
4.8841347753
 20
2.5805374425
 10
4.8843103055
 20
2.5820950154
 10
4.8844739632
 20
2.5836174324
 10
4.8846260339
 20
2.585100101
 10
4.8847672136
 20
2.5865420921
 10
4.8850211039
 20
2.5893175605
  0
LINE
  5
24D
100
AcDbEntity
  8
0
100
AcDbLine
 62
7
  6
CONTINUOUS
 10
4.9752872671
 20
5.0934197478
 11
4.7847764539
 21
5.0934197478
  0
LINE
  5
24E
100
AcDbEntity
  8
0
100
AcDbLine
 62
7
  6
CONTINUOUS
 10
4.485797068
 20
5.0934197478
 11
4.2952872671
 21
5.0934197478
  0
ARC
  5
24F
100
AcDbEntity
  8
0
100
AcDbCircle
 62
7
  6
CONTINUOUS
 10
4.6273671752
 20
2.5992285778
 40
0.2996714063
100
AcDbArc
 50
145.4549578311
 51
179.9606557474
  0
ARC
  5
250
100
AcDbEntity
  8
0
100
AcDbCircle
 62
7
  6
CONTINUOUS
 10
4.6278991084
 20
2.6091745398
 40
0.2441956887
100
AcDbArc
 50
186.5344974355
 51
186.8875619018
  0
ARC
  5
251
100
AcDbEntity
  8
0
100
AcDbCircle
 62
7
  6
CONTINUOUS
 10
4.6277625559
 20
2.6091588755
 40
0.2440584456
100
AcDbArc
 50
177.9781789129
 51
180.0000530138
  0
ARC
  5
252
100
AcDbEntity
  8
0
100
AcDbCircle
 62
7
  6
CONTINUOUS
 10
4.6277157717
 20
2.6091580053
 40
0.2440116614
100
AcDbArc
 50
179.9998486908
 51
186.5355392419
  0
ARC
  5
253
100
AcDbEntity
  8
0
100
AcDbCircle
 62
7
  6
CONTINUOUS
 10
4.6352872671
 20
3.8742389253
 40
0.15
100
AcDbArc
 50
210.7244199729
 51
329.2755800271
  0
ARC
  5
254
100
AcDbEntity
  8
0
100
AcDbCircle
 62
7
  6
CONTINUOUS
 10
4.5048581649
 20
3.8659897981
 40
0.0671232784
100
AcDbArc
 50
229.5830685932
 51
231.1700947461
  0
ARC
  5
255
100
AcDbEntity
  8
0
100
AcDbCircle
 62
7
  6
CONTINUOUS
 10
0.806329493
 20
4.7763454353
 40
3.7348427883
100
AcDbArc
 50
353.4822576496
 51
355.1887256491
  0
ARC
  5
256
100
AcDbEntity
  8
0
100
AcDbCircle
 62
7
  6
CONTINUOUS
 10
2.5238558511
 20
4.5799425177
 40
2.0061233664
100
AcDbArc
 50
346.0268940545
 51
353.4872725337
  0
ARC
  5
257
100
AcDbEntity
  8
0
100
AcDbCircle
 62
7
  6
CONTINUOUS
 10
3.6533842084
 20
4.2983840006
 40
0.8420272779
100
AcDbArc
 50
333.652429732
 51
346.0598138788
  0
ARC
  5
258
100
AcDbEntity
  8
0
100
AcDbCircle
 62
7
  6
CONTINUOUS
 10
4.6352872671
 20
5.6344197478
 40
0.6175
100
AcDbArc
 50
241.1810186734
 51
243.0340789583
  0
ARC
  5
259
100
AcDbEntity
  8
0
100
AcDbCircle
 62
7
  6
CONTINUOUS
 10
4.6352872671
 20
5.6344197478
 40
0.6175
100
AcDbArc
 50
296.9659210417
 51
298.8189813266
  0
ARC
  5
25A
100
AcDbEntity
  8
0
100
AcDbCircle
 62
7
  6
CONTINUOUS
 10
4.6352872671
 20
5.6344197478
 40
0.6175
100
AcDbArc
 50
303.4114570805
 51
236.5885429195
  0
ARC
  5
25B
100
AcDbEntity
  8
0
100
AcDbCircle
 62
7
  6
CONTINUOUS
 10
4.6352872671
 20
5.6344197478
 40
0.6093331325
100
AcDbArc
 50
297.3641946978
 51
297.3805201148
  0
ARC
  5
25C
100
AcDbEntity
  8
0
100
AcDbCircle
 62
7
  6
CONTINUOUS
 10
4.6352872671
 20
5.6344197478
 40
0.6093331325
100
AcDbArc
 50
242.6194798852
 51
242.6358053022
  0
ARC
  5
25D
100
AcDbEntity
  8
0
100
AcDbCircle
 62
7
  6
CONTINUOUS
 10
4.6352872671
 20
5.6344197478
 40
0.6093331325
100
AcDbArc
 50
303.9176153881
 51
236.0823846119
  0
ARC
  5
25E
100
AcDbEntity
  8
0
100
AcDbCircle
 62
7
  6
CONTINUOUS
 10
4.6352872671
 20
5.6344197478
 40
0.5498458636
100
AcDbArc
 50
308.1988033855
 51
231.8011966145
  0
ARC
  5
25F
100
AcDbEntity
  8
0
100
AcDbCircle
 62
7
  6
CONTINUOUS
 10
4.6352872671
 20
5.6344197478
 40
0.5404186632
100
AcDbArc
 50
285.2930214191
 51
254.7075141437
  0
ARC
  5
260
100
AcDbEntity
  8
0
100
AcDbCircle
 62
7
  6
CONTINUOUS
 10
4.6352872671
 20
5.6344197478
 40
0.512590247
100
AcDbArc
 50
284.2699625381
 51
255.7290677705
  0
ARC
  5
261
100
AcDbEntity
  8
0
100
AcDbCircle
 62
7
  6
CONTINUOUS
 10
4.6352872671
 20
5.6344197478
 40
0.4913332555
100
AcDbArc
 50
283.8119616339
 51
256.1880003378
  0
ARC
  5
262
100
AcDbEntity
  8
0
100
AcDbCircle
 62
7
  6
CONTINUOUS
 10
4.6352872671
 20
5.6344197478
 40
0.4683814181
100
AcDbArc
 50
284.4539021773
 51
255.5471218964
  0
ARC
  5
263
100
AcDbEntity
  8
0
100
AcDbCircle
 62
7
  6
CONTINUOUS
 10
4.6352872671
 20
5.6344197478
 40
0.4162132034
100
AcDbArc
 50
283.1943264758
 51
256.8056735242
  0
ARC
  5
264
100
AcDbEntity
  8
0
100
AcDbCircle
 62
7
  6
CONTINUOUS
 10
4.6352872671
 20
5.6344197478
 40
0.2581491817
100
AcDbArc
 50
291.5947800911
 51
248.4052199089
  0
ARC
  5
265
100
AcDbEntity
  8
0
100
AcDbCircle
 62
7
  6
CONTINUOUS
 10
4.6352872671
 20
5.0525309357
 40
0.155
100
AcDbArc
 50
346.2048903678
 51
20.3384307505
  0
ARC
  5
266
100
AcDbEntity
  8
0
100
AcDbCircle
 62
7
  6
CONTINUOUS
 10
4.6352872671
 20
5.0525309357
 40
0.155
100
AcDbArc
 50
159.6615692495
 51
193.7951096322
  0
ARC
  5
267
100
AcDbEntity
  8
0
100
AcDbCircle
 62
7
  6
CONTINUOUS
 10
4.6432073576
 20
2.5992285775
 40
0.2996714065
100
AcDbArc
 50
0.0393443241
 51
34.5450459323
  0
ARC
  5
268
100
AcDbEntity
  8
0
100
AcDbCircle
 62
7
  6
CONTINUOUS
 10
4.6426768051
 20
2.6091743575
 40
0.244194298
100
AcDbArc
 50
353.1126474413
 51
353.4889087813
  0
ARC
  5
269
100
AcDbEntity
  8
0
100
AcDbCircle
 62
7
  6
CONTINUOUS
 10
4.642809913
 20
2.6091588235
 40
0.2440605107
100
AcDbArc
 50
359.9999592881
 51
2.0202371254
  0
ARC
  5
26A
100
AcDbEntity
  8
0
100
AcDbCircle
 62
7
  6
CONTINUOUS
 10
4.6428591612
 20
2.6091579932
 40
0.2440112625
100
AcDbArc
 50
353.4878710245
 51
0.0001542423
  0
ARC
  5
26B
100
AcDbEntity
  8
0
100
AcDbCircle
 62
7
  6
CONTINUOUS
 10
8.4649124987
 20
4.7764116389
 40
3.7355134467
100
AcDbArc
 50
184.8114275482
 51
186.517589153
  0
ARC
  5
26C
100
AcDbEntity
  8
0
100
AcDbCircle
 62
7
  6
CONTINUOUS
 10
6.746718709
 20
4.5799425224
 40
2.0061233927
100
AcDbArc
 50
186.5127275152
 51
193.9731058965
  0
ARC
  5
26D
100
AcDbEntity
  8
0
100
AcDbCircle
 62
7
  6
CONTINUOUS
 10
5.617190326
 20
4.298384001
 40
0.8420272785
100
AcDbArc
 50
193.9401861434
 51
206.3475702852
  0
ARC
  5
26E
100
AcDbEntity
  8
0
100
AcDbCircle
 62
7
  6
CONTINUOUS
 10
4.7613026172
 20
5.09923981
 40
0.0206065764
100
AcDbArc
 50
20.3429645303
 51
22.4124128707
  0
SPLINE
  5
26F
100
AcDbEntity
  8
0
100
AcDbSpline
 62
7
  6
CONTINUOUS
 70
0
 71
3
 72
40
 73
36
 74
0
 42
0.0000001
 43
0.0000001
 44
0.0000000001
 40
0.0
 40
0.0
 40
0.0
 40
0.0
 40
0.0312378526
 40
0.062448759
 40
0.0936343595
 40
0.1247967945
 40
0.1559386616
 40
0.1870629748
 40
0.2181730979
 40
0.2492726749
 40
0.2803655591
 40
0.3114557324
 40
0.3425472326
 40
0.3736440747
 40
0.40475017
 40
0.4358692435
 40
0.4670047573
 40
0.4981598477
 40
0.5293372593
 40
0.5605392997
 40
0.5917677892
 40
0.6230240207
 40
0.6386652158
 40
0.654313577
 40
0.6856269504
 40
0.7169685921
 40
0.7483375619
 40
0.7797323772
 40
0.8111510486
 40
0.8425911144
 40
0.8740496382
 40
0.9055236232
 40
0.9370086749
 40
0.9685031504
 40
1.0
 40
1.0
 40
1.0
 40
1.0
 10
4.8903119652
 20
2.7866969381
 30
0.0
 10
4.8951511804
 20
2.7808039523
 30
0.0
 10
4.9044132625
 20
2.7686774663
 30
0.0
 10
4.9169790065
 20
2.7495631768
 30
0.0
 10
4.9281521632
 20
2.7296225494
 30
0.0
 10
4.9378760618
 20
2.7089553804
 30
0.0
 10
4.9461024743
 20
2.6876637211
 30
0.0
 10
4.9527902692
 20
2.665853173
 30
0.0
 10
4.9579060503
 20
2.6436318729
 30
0.0
 10
4.961424224
 20
2.6211100824
 30
0.0
 10
4.9633271611
 20
2.5983995968
 30
0.0
 10
4.9636053238
 20
2.5756131899
 30
0.0
 10
4.96225736
 20
2.5528640235
 30
0.0
 10
4.959290029
 20
2.5302650601
 30
0.0
 10
4.9547181769
 20
2.5079284914
 30
0.0
 10
4.9485646554
 20
2.4859651672
 30
0.0
 10
4.9408601895
 20
2.4644840445
 30
0.0
 10
4.9316432523
 20
2.4435916021
 30
0.0
 10
4.9209599142
 20
2.4233913479
 30
0.0
 10
4.9088633293
 20
2.4039831009
 30
0.0
 10
4.8954142255
 20
2.3854633425
 30
0.0
 10
4.883136238
 20
2.3708480689
 30
0.0
 10
4.8727099897
 20
2.3596910293
 30
0.0
 10
4.8618879871
 20
2.3488976562
 30
0.0
 10
4.8476485866
 20
2.336120846
 30
0.0
 10
4.8295184607
 20
2.3220168714
 30
0.0
 10
4.8104289935
 20
2.3092046701
 30
0.0
 10
4.7904752039
 20
2.2977477005
 30
0.0
 10
4.7697556371
 20
2.2877021042
 30
0.0
 10
4.7483727331
 20
2.2791172658
 30
0.0
 10
4.7264320442
 20
2.2720351708
 30
0.0
 10
4.7040420906
 20
2.2664907203
 30
0.0
 10
4.6813126455
 20
2.2625106163
 30
0.0
 10
4.6583575966
 20
2.2601150036
 30
0.0
 10
4.6429757951
 20
2.2595816652
 30
0.0
 10
4.6352872671
 20
2.2595816652
 30
0.0
  0
SPLINE
  5
270
100
AcDbEntity
  8
0
100
AcDbSpline
 62
7
  6
CONTINUOUS
 70
0
 71
3
 72
40
 73
36
 74
0
 42
0.0000001
 43
0.0000001
 44
0.0000000001
 40
0.0
 40
0.0
 40
0.0
 40
0.0
 40
0.0314968505
 40
0.0629913262
 40
0.0944763776
 40
0.1259503617
 40
0.1574088841
 40
0.1888489481
 40
0.2202676171
 40
0.2516624298
 40
0.2830313967
 40
0.3143730352
 40
0.3456864053
 40
0.3613347648
 40
0.3769759584
 40
0.4082321866
 40
0.4394606731
 40
0.4706627106
 40
0.5018401197
 40
0.5329952079
 40
0.5641307201
 40
0.5952497925
 40
0.6263558872
 40
0.6574527293
 40
0.6885442301
 40
0.7196344046
 40
0.7507272908
 40
0.7818268704
 40
0.8129369967
 40
0.8440613135
 40
0.8752031848
 40
0.9063656245
 40
0.9375512301
 40
0.9687621418
 40
1.0
 40
1.0
 40
1.0
 40
1.0
 10
4.6352872671
 20
2.2595816652
 30
0.0
 10
4.6275987378
 20
2.2595816652
 30
0.0
 10
4.6122169338
 20
2.2601150038
 30
0.0
 10
4.5892618815
 20
2.2625106173
 30
0.0
 10
4.5665324335
 20
2.2664907223
 30
0.0
 10
4.5441424775
 20
2.2720351743
 30
0.0
 10
4.5222017868
 20
2.279117271
 30
0.0
 10
4.5008188815
 20
2.2877021111
 30
0.0
 10
4.4800993137
 20
2.2977477091
 30
0.0
 10
4.4601455236
 20
2.3092046805
 30
0.0
 10
4.4410560563
 20
2.3220168837
 30
0.0
 10
4.4229259307
 20
2.3361208602
 30
0.0
 10
4.4086865306
 20
2.348897672
 30
0.0
 10
4.3978645281
 20
2.359691046
 30
0.0
 10
4.3874382803
 20
2.3708480868
 30
0.0
 10
4.3751602932
 20
2.3854633618
 30
0.0
 10
4.3617111903
 20
2.4039831221
 30
0.0
 10
4.3496146066
 20
2.4233913713
 30
0.0
 10
4.3389312697
 20
2.4435916277
 30
0.0
 10
4.3297143338
 20
2.4644840725
 30
0.0
 10
4.3220098686
 20
2.4859651977
 30
0.0
 10
4.3158563487
 20
2.5079285248
 30
0.0
 10
4.3112844988
 20
2.5302650969
 30
0.0
 10
4.3083171704
 20
2.5528640638
 30
0.0
 10
4.3069692097
 20
2.5756132341
 30
0.0
 10
4.3072473756
 20
2.5983996451
 30
0.0
 10
4.3091503159
 20
2.6211101351
 30
0.0
 10
4.3126684944
 20
2.6436319301
 30
0.0
 10
4.3177842812
 20
2.6658532345
 30
0.0
 10
4.3244720828
 20
2.6876637869
 30
0.0
 10
4.3326985025
 20
2.7089554501
 30
0.0
 10
4.3424224087
 20
2.7296226229
 30
0.0
 10
4.3535955738
 20
2.7495632535
 30
0.0
 10
4.3661613271
 20
2.7686775455
 30
0.0
 10
4.3754234165
 20
2.780804032
 30
0.0
 10
4.3802626349
 20
2.7866970184
 30
0.0
  0
SPLINE
  5
271
100
AcDbEntity
  8
0
100
AcDbSpline
 62
7
  6
CONTINUOUS
 70
0
 71
3
 72
11
 73
7
 74
0
 42
0.0000001
 43
0.0000001
 44
0.0000000001
 40
0.0
 40
0.0
 40
0.0
 40
0.0
 40
0.252460234
 40
0.5028306674
 40
0.7523360707
 40
1.0
 40
1.0
 40
1.0
 40
1.0
 10
4.5177872671
 20
5.1606270645
 30
0.0
 10
4.5177872671
 20
5.1595916863
 30
0.0
 10
4.5179054465
 20
5.1575274746
 30
0.0
 10
4.5184349211
 20
5.1544813981
 30
0.0
 10
4.5192905666
 20
5.1515314489
 30
0.0
 10
4.5200625414
 20
5.1496397279
 30
0.0
 10
4.520493332
 20
5.1487199008
 30
0.0
  0
SPLINE
  5
272
100
AcDbEntity
  8
0
100
AcDbSpline
 62
7
  6
CONTINUOUS
 70
0
 71
3
 72
11
 73
7
 74
0
 42
0.0000001
 43
0.0000001
 44
0.0000000001
 40
0.0
 40
0.0
 40
0.0
 40
0.0
 40
0.2476534981
 40
0.4971580464
 40
0.7475509119
 40
1.0
 40
1.0
 40
1.0
 40
1.0
 10
4.7500787498
 20
5.1487147025
 30
0.0
 10
4.7505099048
 20
5.1496348351
 30
0.0
 10
4.7512826093
 20
5.151527241
 30
0.0
 10
4.7521390362
 20
5.1544785148
 30
0.0
 10
4.7526689265
 20
5.1575260302
 30
0.0
 10
4.7527872671
 20
5.1595912488
 30
0.0
 10
4.7527872671
 20
5.1606270645
 30
0.0
  0
SPLINE
  5
273
100
AcDbEntity
  8
0
100
AcDbSpline
 62
7
  6
CONTINUOUS
 70
0
 71
3
 72
19
 73
15
 74
0
 42
0.0000001
 43
0.0000001
 44
0.0000000001
 40
0.0
 40
0.0
 40
0.0
 40
0.0
 40
0.061526384
 40
0.1226114809
 40
0.2444146504
 40
0.3666861281
 40
0.4903429725
 40
0.6157098218
 40
0.6790342128
 40
0.742709518
 40
0.8066908589
 40
0.8709318821
 40
0.9353718628
 40
1.0
 40
1.0
 40
1.0
 40
1.0
 10
4.5682581717
 20
5.1730538992
 30
0.0
 10
4.5661588343
 20
5.1724332603
 30
0.0
 10
4.5619970845
 20
5.1711202953
 30
0.0
 10
4.5538115295
 20
5.1681785053
 30
0.0
 10
4.5438296236
 20
5.1638666958
 30
0.0
 10
4.5323534934
 20
5.1575347911
 30
0.0
 10
4.5215259848
 20
5.1499161634
 30
0.0
 10
4.5132491518
 20
5.1424512681
 30
0.0
 10
4.5071929455
 20
5.1358141461
 30
0.0
 10
4.5029549083
 20
5.1304954973
 30
0.0
 10
4.4990727016
 20
5.1248721463
 30
0.0
 10
4.4955791477
 20
5.1189673689
 30
0.0
 10
4.4925029399
 20
5.1128093088
 30
0.0
 10
4.4907498161
 20
5.1085596163
 30
0.0
 10
4.4899505841
 20
5.1064034574
 30
0.0
  0
SPLINE
  5
274
100
AcDbEntity
  8
0
100
AcDbSpline
 62
7
  6
CONTINUOUS
 70
0
 71
3
 72
30
 73
26
 74
0
 42
0.0000001
 43
0.0000001
 44
0.0000000001
 40
0.0
 40
0.0
 40
0.0
 40
0.0
 40
0.0629672663
 40
0.0944544412
 40
0.1259338063
 40
0.1888470975
 40
0.2517083306
 40
0.2831243155
 40
0.3145222512
 40
0.3459007468
 40
0.3772585859
 40
0.4398899314
 40
0.5024294372
 40
0.564875198
 40
0.6272288461
 40
0.65838213
 40
0.6895146449
 40
0.7206275585
 40
0.7517222243
 40
0.8138440312
 40
0.8759134269
 40
0.9069430971
 40
0.9379659153
 40
0.9689841326
 40
1.0
 40
1.0
 40
1.0
 40
1.0
 10
4.6352872671
 20
2.2845422968
 30
0.0
 10
4.6252259724
 20
2.2845422968
 30
0.0
 10
4.6101201425
 20
2.2852730277
 30
0.0
 10
4.5901389876
 20
2.2877003311
 30
0.0
 10
4.5703053966
 20
2.291089198
 30
0.0
 10
4.5458690165
 20
2.2971157242
 30
0.0
 10
4.5221399403
 20
2.3054766082
 30
0.0
 10
4.5037297808
 20
2.3135130343
 30
0.0
 10
4.4902394713
 20
2.320200152
 30
0.0
 10
4.4770984544
 20
2.3275310059
 30
0.0
 10
4.4600950966
 20
2.3381342275
 30
0.0
 10
4.439861309
 20
2.3529098797
 30
0.0
 10
4.4174596125
 20
2.3729026151
 30
0.0
 10
4.3971546112
 20
2.394961614
 30
0.0
 10
4.3821361625
 20
2.4149016079
 30
0.0
 10
4.3713611916
 20
2.4316586685
 30
0.0
 10
4.3639163112
 20
2.4446001656
 30
0.0
 10
4.3571255655
 20
2.4578860408
 30
0.0
 10
4.3489682716
 20
2.4760076118
 30
0.0
 10
4.3404786622
 20
2.4993688579
 30
0.0
 10
4.3343539018
 20
2.5234479373
 30
0.0
 10
4.3309112559
 20
2.5429867426
 30
0.0
 10
4.3290623744
 20
2.5577493237
 30
0.0
 10
4.3279511353
 20
2.5725827419
 30
0.0
 10
4.3277041066
 20
2.5824967234
 30
0.0
 10
4.3277041066
 20
2.5874526283
 30
0.0
  0
SPLINE
  5
275
100
AcDbEntity
  8
0
100
AcDbSpline
 62
7
  6
CONTINUOUS
 70
0
 71
3
 72
30
 73
26
 74
0
 42
0.0000001
 43
0.0000001
 44
0.0000000001
 40
0.0
 40
0.0
 40
0.0
 40
0.0
 40
0.0629672663
 40
0.0944544412
 40
0.1259338063
 40
0.1888470975
 40
0.2517083306
 40
0.2831243155
 40
0.3145222512
 40
0.3459007468
 40
0.3772585859
 40
0.4398899314
 40
0.5024294372
 40
0.564875198
 40
0.6272288461
 40
0.65838213
 40
0.6895146449
 40
0.7206275585
 40
0.7517222243
 40
0.8138440312
 40
0.8759134269
 40
0.9069430971
 40
0.9379659153
 40
0.9689841326
 40
1.0
 40
1.0
 40
1.0
 40
1.0
 10
4.6352872671
 20
2.2845422968
 30
0.0
 10
4.6453485618
 20
2.2845422968
 30
0.0
 10
4.6604543916
 20
2.2852730277
 30
0.0
 10
4.6804355465
 20
2.2877003311
 30
0.0
 10
4.7002691376
 20
2.291089198
 30
0.0
 10
4.7247055176
 20
2.2971157242
 30
0.0
 10
4.7484345938
 20
2.3054766082
 30
0.0
 10
4.7668447533
 20
2.3135130343
 30
0.0
 10
4.7803350629
 20
2.320200152
 30
0.0
 10
4.7934760798
 20
2.3275310059
 30
0.0
 10
4.8104794375
 20
2.3381342275
 30
0.0
 10
4.8307132251
 20
2.3529098797
 30
0.0
 10
4.8531149217
 20
2.3729026151
 30
0.0
 10
4.873419923
 20
2.394961614
 30
0.0
 10
4.8884383717
 20
2.4149016079
 30
0.0
 10
4.8992133426
 20
2.4316586685
 30
0.0
 10
4.906658223
 20
2.4446001656
 30
0.0
 10
4.9134489686
 20
2.4578860408
 30
0.0
 10
4.9216062626
 20
2.4760076118
 30
0.0
 10
4.9300958719
 20
2.4993688579
 30
0.0
 10
4.9362206324
 20
2.5234479373
 30
0.0
 10
4.9396632782
 20
2.5429867426
 30
0.0
 10
4.9415121598
 20
2.5577493237
 30
0.0
 10
4.9426233988
 20
2.5725827419
 30
0.0
 10
4.9428704276
 20
2.5824967234
 30
0.0
 10
4.9428704276
 20
2.5874526283
 30
0.0
  0
SPLINE
  5
276
100
AcDbEntity
  8
0
100
AcDbSpline
 62
7
  6
CONTINUOUS
 70
0
 71
3
 72
22
 73
18
 74
0
 42
0.0000001
 43
0.0000001
 44
0.0000000001
 40
0.0
 40
0.0
 40
0.0
 40
0.0
 40
0.0646278213
 40
0.1290486868
 40
0.193282203
 40
0.257258835
 40
0.32092682
 40
0.3842421596
 40
0.4471634497
 40
0.5096547739
 40
0.5717086961
 40
0.6333440469
 40
0.6946161574
 40
0.7556348826
 40
0.877406723
 40
0.9384787323
 40
1.0
 40
1.0
 40
1.0
 40
1.0
 10
4.78062395
 20
5.1064034574
 30
0.0
 10
4.7798245999
 20
5.108559935
 30
0.0
 10
4.7780715243
 20
5.1128096602
 30
0.0
 10
4.7749951272
 20
5.1189677334
 30
0.0
 10
4.7715015607
 20
5.1248724065
 30
0.0
 10
4.7676191257
 20
5.1304960769
 30
0.0
 10
4.7633812127
 20
5.1358149562
 30
0.0
 10
4.7588221815
 20
5.140810149
 30
0.0
 10
4.7539792507
 20
5.1454699459
 30
0.0
 10
4.7488876781
 20
5.1497870494
 30
0.0
 10
4.743582665
 20
5.153762526
 30
0.0
 10
4.7380945265
 20
5.1574024254
 30
0.0
 10
4.7324486934
 20
5.1607199745
 30
0.0
 10
4.7247419896
 20
5.1647315114
 30
0.0
 10
4.716762577
 20
5.1681787684
 30
0.0
 10
4.7085776808
 20
5.1711203114
 30
0.0
 10
4.7044158458
 20
5.1724332171
 30
0.0
 10
4.7023163625
 20
5.1730538992
 30
0.0
  0
SPLINE
  5
277
100
AcDbEntity
  8
0
100
AcDbSpline
 62
7
  6
CONTINUOUS
 70
0
 71
3
 72
26
 73
22
 74
0
 42
0.0000001
 43
0.0000001
 44
0.0000000001
 40
0.0
 40
0.0
 40
0.0
 40
0.0
 40
0.0692407642
 40
0.136460504
 40
0.265698796
 40
0.32835306
 40
0.3900890983
 40
0.4512519515
 40
0.5121134035
 40
0.5729336604
 40
0.6033790868
 40
0.633865878
 40
0.6949125531
 40
0.756044181
 40
0.7866347607
 40
0.8172178831
 40
0.8477776002
 40
0.8782877857
 40
0.908717041
 40
0.9390886479
 40
1.0
 40
1.0
 40
1.0
 40
1.0
 10
4.8316386689
 20
3.851416978
 30
0.0
 10
4.8333705771
 20
3.852486593
 30
0.0
 10
4.8367368545
 20
3.8546727876
 30
0.0
 10
4.8430651241
 20
3.859254734
 30
0.0
 10
4.848860353
 20
3.8642355884
 30
0.0
 10
4.8539792169
 20
3.8696652991
 30
0.0
 10
4.8574065145
 20
3.8739170589
 30
0.0
 10
4.8604309082
 20
3.8784021339
 30
0.0
 10
4.863008764
 20
3.8831285978
 30
0.0
 10
4.8647422779
 20
3.8872612154
 30
0.0
 10
4.8658525283
 20
3.8906657773
 30
0.0
 10
4.8667698962
 20
3.8941341598
 30
0.0
 10
4.8675421083
 20
3.8985664569
 30
0.0
 10
4.8677791003
 20
3.903063012
 30
0.0
 10
4.8676450885
 20
3.9066579167
 30
0.0
 10
4.8673819844
 20
3.9093435953
 30
0.0
 10
4.8669598479
 20
3.9120063459
 30
0.0
 10
4.8663851549
 20
3.914635675
 30
0.0
 10
4.8656628655
 20
3.917222686
 30
0.0
 10
4.8645083418
 20
3.920610888
 30
0.0
 10
4.863434947
 20
3.9230776032
 30
0.0
 10
4.8626388479
 20
3.9246816155
 30
0.0
  0
SPLINE
  5
278
100
AcDbEntity
  8
0
100
AcDbSpline
 62
7
  6
CONTINUOUS
 70
0
 71
3
 72
26
 73
22
 74
0
 42
0.0000001
 43
0.0000001
 44
0.0000000001
 40
0.0
 40
0.0
 40
0.0
 40
0.0
 40
0.0609082107
 40
0.0912802426
 40
0.1217110349
 40
0.1522217708
 40
0.1827811927
 40
0.2133637115
 40
0.243953849
 40
0.3050848927
 40
0.3661320399
 40
0.3966184088
 40
0.4270636993
 40
0.4878844351
 40
0.5487456362
 40
0.6099089353
 40
0.671644998
 40
0.7342996211
 40
0.863538562
 40
0.9307587315
 40
1.0
 40
1.0
 40
1.0
 40
1.0
 10
4.4079356863
 20
3.9246816155
 30
0.0
 10
4.4071396119
 20
3.9230776532
 30
0.0
 10
4.4060662373
 20
3.9206109565
 30
0.0
 10
4.4049117088
 20
3.9172227161
 30
0.0
 10
4.4041893673
 20
3.9146355865
 30
0.0
 10
4.403614604
 20
3.9120061632
 30
0.0
 10
4.4031924461
 20
3.909343368
 30
0.0
 10
4.4029294612
 20
3.9066576626
 30
0.0
 10
4.4027954252
 20
3.9030627345
 30
0.0
 10
4.40303251
 20
3.898566108
 30
0.0
 10
4.4038046975
 20
3.8941337313
 30
0.0
 10
4.4047221364
 20
3.8906652925
 30
0.0
 10
4.4058324932
 20
3.8872606922
 30
0.0
 10
4.4075660315
 20
3.8831279834
 30
0.0
 10
4.4101440494
 20
3.8784014574
 30
0.0
 10
4.4131685559
 20
3.8739163198
 30
0.0
 10
4.4165959971
 20
3.8696644998
 30
0.0
 10
4.4217150804
 20
3.8642347457
 30
0.0
 10
4.4275105194
 20
3.8592538322
 30
0.0
 10
4.43383903
 20
3.8546718674
 30
0.0
 10
4.4372054249
 20
3.8524856535
 30
0.0
 10
4.4389373947
 20
3.8514160311
 30
0.0
  0
SPLINE
  5
279
100
AcDbEntity
  8
0
100
AcDbSpline
 62
7
  6
CONTINUOUS
 70
0
 71
3
 72
13
 73
9
 74
0
 42
0.0000001
 43
0.0000001
 44
0.0000000001
 40
0.0
 40
0.0
 40
0.0
 40
0.0
 40
0.1244248827
 40
0.249142524
 40
0.4991330447
 40
0.7495476809
 40
0.8748044858
 40
1.0
 40
1.0
 40
1.0
 40
1.0
 10
4.7858162356
 20
5.0155710977
 30
0.0
 10
4.7803124449
 20
4.9931554166
 30
0.0
 10
4.7702052035
 20
4.9480407287
 30
0.0
 10
4.7536469667
 20
4.8569210608
 30
0.0
 10
4.7398852164
 20
4.7416397395
 30
0.0
 10
4.7355077204
 20
4.6255225746
 30
0.0
 10
4.7376568703
 20
4.5326138958
 30
0.0
 10
4.740614426
 20
4.4862320962
 30
0.0
 10
4.742562441
 20
4.4630895072
 30
0.0
  0
SPLINE
  5
27A
100
AcDbEntity
  8
0
100
AcDbSpline
 62
7
  6
CONTINUOUS
 70
0
 71
3
 72
13
 73
9
 74
0
 42
0.0000001
 43
0.0000001
 44
0.0000000001
 40
0.0
 40
0.0
 40
0.0
 40
0.0
 40
0.1251954522
 40
0.2504521536
 40
0.5008667498
 40
0.7508573257
 40
0.8755750609
 40
1.0
 40
1.0
 40
1.0
 40
1.0
 10
4.5280120931
 20
4.4630895072
 30
0.0
 10
4.5299601072
 20
4.4862320848
 30
0.0
 10
4.5329176643
 20
4.5326138535
 30
0.0
 10
4.5350668124
 20
4.6255224942
 30
0.0
 10
4.5306893258
 20
4.7416396428
 30
0.0
 10
4.5169275801
 20
4.8569209853
 30
0.0
 10
4.5003693366
 20
4.9480406907
 30
0.0
 10
4.4902620917
 20
4.9931554064
 30
0.0
 10
4.4847582985
 20
5.0155710977
 30
0.0
  0
SPLINE
  5
27B
100
AcDbEntity
  8
0
100
AcDbSpline
 62
7
  6
CONTINUOUS
 70
0
 71
3
 72
27
 73
23
 74
0
 42
0.0000001
 43
0.0000001
 44
0.0000000001
 40
0.0
 40
0.0
 40
0.0
 40
0.0
 40
0.0818736983
 40
0.1630668198
 40
0.2429051395
 40
0.320750778
 40
0.396004144
 40
0.468128502
 40
0.5366675622
 40
0.6012722049
 40
0.6617333573
 40
0.7180261259
 40
0.7703666177
 40
0.8192774004
 40
0.8427232988
 40
0.8656644267
 40
0.888245931
 40
0.9106234752
 40
0.9329318049
 40
0.9552527822
 40
0.9775516645
 40
1.0
 40
1.0
 40
1.0
 40
1.0
 10
4.6352872672
 20
5.2224803705
 30
0.0
 10
4.6315782691
 20
5.2224803705
 30
0.0
 10
4.624190467
 20
5.2223538794
 30
0.0
 10
4.6131990596
 20
5.2217856151
 30
0.0
 10
4.6024162361
 20
5.2208439053
 30
0.0
 10
4.5919425368
 20
5.2195367729
 30
0.0
 10
4.5818730017
 20
5.2178746043
 30
0.0
 10
4.5722959901
 20
5.2158696854
 30
0.0
 10
4.5632909473
 20
5.2135347833
 30
0.0
 10
4.5549263874
 20
5.210881194
 30
0.0
 10
4.5472580497
 20
5.2079155163
 30
0.0
 10
4.5403270196
 20
5.2046339468
 30
0.0
 10
4.5341633791
 20
5.2010150631
 30
0.0
 10
4.5296219967
 20
5.1976277682
 30
0.0
 10
4.526451833
 20
5.1946919189
 30
0.0
 10
4.5243302361
 20
5.1923933219
 30
0.0
 10
4.5224498669
 20
5.1899534193
 30
0.0
 10
4.520832666
 20
5.1873641023
 30
0.0
 10
4.5195154859
 20
5.1846218308
 30
0.0
 10
4.5185344714
 20
5.1817447857
 30
0.0
 10
4.5179239107
 20
5.1787600247
 30
0.0
 10
4.5177872671
 20
5.1767301475
 30
0.0
 10
4.5177872671
 20
5.1757132051
 30
0.0
  0
SPLINE
  5
27C
100
AcDbEntity
  8
0
100
AcDbSpline
 62
7
  6
CONTINUOUS
 70
0
 71
3
 72
27
 73
23
 74
0
 42
0.0000001
 43
0.0000001
 44
0.0000000001
 40
0.0
 40
0.0
 40
0.0
 40
0.0
 40
0.0224677121
 40
0.044751392
 40
0.0670634229
 40
0.08938495
 40
0.1342935347
 40
0.1806441338
 40
0.2295590128
 40
0.2552707565
 40
0.2819199826
 40
0.3095593602
 40
0.3382274111
 40
0.3986915734
 40
0.4632999621
 40
0.5318434051
 40
0.6039723392
 40
0.6792302134
 40
0.757080826
 40
0.8369228782
 40
0.918122688
 40
1.0
 40
1.0
 40
1.0
 40
1.0
 10
4.7527872671
 20
5.1757132051
 30
0.0
 10
4.7527872671
 20
5.1767309609
 30
0.0
 10
4.7526506903
 20
5.1787609054
 30
0.0
 10
4.7520402073
 20
5.1817452826
 30
0.0
 10
4.7510580687
 20
5.1846213188
 30
0.0
 10
4.7493002011
 20
5.188285786
 30
0.0
 10
4.7463148882
 20
5.1925230669
 30
0.0
 10
4.7417846185
 20
5.197006082
 30
0.0
 10
4.7373807785
 20
5.2002926814
 30
0.0
 10
4.7334917322
 20
5.2027285809
 30
0.0
 10
4.730327991
 20
5.204498967
 30
0.0
 10
4.7269688234
 20
5.2061858279
 30
0.0
 10
4.7221487307
 20
5.2083673898
 30
0.0
 10
4.7156476441
 20
5.2108812507
 30
0.0
 10
4.7072834559
 20
5.2135348436
 30
0.0
 10
4.6982783305
 20
5.2158697408
 30
0.0
 10
4.6887013499
 20
5.2178746395
 30
0.0
 10
4.6786318133
 20
5.2195367988
 30
0.0
 10
4.668158181
 20
5.2208438964
 30
0.0
 10
4.6573753456
 20
5.2217856335
 30
0.0
 10
4.6463839961
 20
5.222353865
 30
0.0
 10
4.6389961945
 20
5.2224803705
 30
0.0
 10
4.6352872672
 20
5.2224803705
 30
0.0
  0
SPLINE
  5
27D
100
AcDbEntity
  8
0
100
AcDbSpline
 62
7
  6
CONTINUOUS
 70
0
 71
3
 72
18
 73
14
 74
0
 42
0.0000001
 43
0.0000001
 44
0.0000000001
 40
0.0
 40
0.0
 40
0.0
 40
0.0
 40
0.123431902
 40
0.2457931351
 40
0.3684258175
 40
0.4919560423
 40
0.6168574107
 40
0.6799443116
 40
0.7434406306
 40
0.8072765435
 40
0.8713016562
 40
0.9354810945
 40
1.0
 40
1.0
 40
1.0
 40
1.0
 10
4.8078033742
 20
3.8137000383
 30
0.0
 10
4.8095229944
 20
3.8150843971
 30
0.0
 10
4.8128507243
 20
3.8179647856
 30
0.0
 10
4.8174649465
 20
3.82268012
 30
0.0
 10
4.8216298717
 20
3.8278022872
 30
0.0
 10
4.8252686214
 20
3.8333676282
 30
0.0
 10
4.8277713461
 20
3.8383618486
 30
0.0
 10
4.8294058935
 20
3.8425549572
 30
0.0
 10
4.8304361146
 20
3.8458037535
 30
0.0
 10
4.831253206
 20
3.8491298328
 30
0.0
 10
4.8318471423
 20
3.8525155321
 30
0.0
 10
4.8322070454
 20
3.855946257
 30
0.0
 10
4.8322872671
 20
3.8582488734
 30
0.0
 10
4.8322872671
 20
3.8594028101
 30
0.0
  0
SPLINE
  5
27E
100
AcDbEntity
  8
0
100
AcDbSpline
 62
7
  6
CONTINUOUS
 70
0
 71
3
 72
18
 73
14
 74
0
 42
0.0000001
 43
0.0000001
 44
0.0000000001
 40
0.0
 40
0.0
 40
0.0
 40
0.0
 40
0.0645186179
 40
0.1286971666
 40
0.1927227626
 40
0.2565591481
 40
0.3200552758
 40
0.3831421653
 40
0.5080436513
 40
0.6315740138
 40
0.7542065311
 40
0.8765698963
 40
1.0
 40
1.0
 40
1.0
 40
1.0
 10
4.4382872671
 20
3.8594028101
 30
0.0
 10
4.4382872671
 20
3.8582488785
 30
0.0
 10
4.438367481
 20
3.8559462829
 30
0.0
 10
4.4387273903
 20
3.8525155708
 30
0.0
 10
4.4393213294
 20
3.8491298715
 30
0.0
 10
4.4401384013
 20
3.8458037731
 30
0.0
 10
4.4411686372
 20
3.8425549762
 30
0.0
 10
4.4428031782
 20
3.838361867
 30
0.0
 10
4.445305909
 20
3.8333676445
 30
0.0
 10
4.4489446519
 20
3.827802298
 30
0.0
 10
4.4531095955
 20
3.822680096
 30
0.0
 10
4.4577238396
 20
3.817964779
 30
0.0
 10
4.4610515648
 20
3.8150843769
 30
0.0
 10
4.46277116
 20
3.8137000383
 30
0.0
  0
SPLINE
  5
27F
100
AcDbEntity
  8
0
100
AcDbSpline
 62
7
  6
CONTINUOUS
 70
0
 71
3
 72
11
 73
7
 74
0
 42
0.0000001
 43
0.0000001
 44
0.0000000001
 40
0.0
 40
0.0
 40
0.0
 40
0.0
 40
0.2481165911
 40
0.4970633458
 40
0.7475784497
 40
1.0
 40
1.0
 40
1.0
 40
1.0
 10
4.7544860565
 20
3.7832107361
 30
0.0
 10
4.7592306076
 20
3.7850762113
 30
0.0
 10
4.7686185474
 20
3.7891210679
 30
0.0
 10
4.7822750744
 20
3.7961825027
 30
0.0
 10
4.7954315291
 20
3.8043099384
 30
0.0
 10
4.8037632912
 20
3.81044762
 30
0.0
 10
4.8078033742
 20
3.8137000383
 30
0.0
  0
SPLINE
  5
280
100
AcDbEntity
  8
0
100
AcDbSpline
 62
7
  6
CONTINUOUS
 70
0
 71
3
 72
11
 73
7
 74
0
 42
0.0000001
 43
0.0000001
 44
0.0000000001
 40
0.0
 40
0.0
 40
0.0
 40
0.0
 40
0.2524237214
 40
0.5029425715
 40
0.7518883949
 40
1.0
 40
1.0
 40
1.0
 40
1.0
 10
4.46277116
 20
3.8137000383
 30
0.0
 10
4.4668099763
 20
3.8104486398
 30
0.0
 10
4.4751390776
 20
3.8043127782
 30
0.0
 10
4.4882910519
 20
3.7961873861
 30
0.0
 10
4.501942751
 20
3.789127517
 30
0.0
 10
4.5113272056
 20
3.7850832058
 30
0.0
 10
4.5160700003
 20
3.7832180314
 30
0.0
  0
SPLINE
  5
281
100
AcDbEntity
  8
0
100
AcDbSpline
 62
7
  6
CONTINUOUS
 70
0
 71
3
 72
15
 73
11
 74
0
 42
0.0000001
 43
0.0000001
 44
0.0000000001
 40
0.0
 40
0.0
 40
0.0
 40
0.0
 40
0.1095002335
 40
0.2250062165
 40
0.3458002624
 40
0.4710985454
 40
0.6000639659
 40
0.7318079819
 40
0.8654427444
 40
1.0
 40
1.0
 40
1.0
 40
1.0
 10
4.7023163559
 20
5.1730538966
 30
0.0
 10
4.6999437074
 20
5.1737553519
 30
0.0
 10
4.6950315679
 20
5.1750745226
 30
0.0
 10
4.6874028604
 20
5.1767726819
 30
0.0
 10
4.6793621316
 20
5.178233349
 30
0.0
 10
4.6709729594
 20
5.1794447525
 30
0.0
 10
4.6623016327
 20
5.1803971152
 30
0.0
 10
4.6534163131
 20
5.1810830002
 30
0.0
 10
4.6443878287
 20
5.1814966232
 30
0.0
 10
4.6383275992
 20
5.1815887399
 30
0.0
 10
4.6352872671
 20
5.1815887399
 30
0.0
  0
SPLINE
  5
282
100
AcDbEntity
  8
0
100
AcDbSpline
 62
7
  6
CONTINUOUS
 70
0
 71
3
 72
23
 73
19
 74
0
 42
0.0000001
 43
0.0000001
 44
0.0000000001
 40
0.0
 40
0.0
 40
0.0
 40
0.0
 40
0.066301383
 40
0.1324684944
 40
0.1983550376
 40
0.2638420522
 40
0.3288132891
 40
0.3931738521
 40
0.4568487128
 40
0.5197874743
 40
0.5819667602
 40
0.6433920579
 40
0.7040985703
 40
0.7641508434
 40
0.8236410578
 40
0.882685888
 40
0.9414219593
 40
1.0
 40
1.0
 40
1.0
 40
1.0
 10
4.6352872671
 20
5.542639595
 30
0.0
 10
4.6321805766
 20
5.542639595
 30
0.0
 10
4.625970119
 20
5.5423704867
 30
0.0
 10
4.6167432291
 20
5.5411633619
 30
0.0
 10
4.6076932631
 20
5.5391638538
 30
0.0
 10
4.5989081002
 20
5.5363915188
 30
0.0
 10
4.5904716219
 20
5.5328723129
 30
0.0
 10
4.5824649679
 20
5.5286398738
 30
0.0
 10
4.5749651243
 20
5.5237343549
 30
0.0
 10
4.5680443545
 20
5.5182024836
 30
0.0
 10
4.5617694818
 20
5.5120970016
 30
0.0
 10
4.5562012881
 20
5.5054762085
 30
0.0
 10
4.551393918
 20
5.4984034774
 30
0.0
 10
4.5473943336
 20
5.4909466647
 30
0.0
 10
4.5442418065
 20
5.4831776724
 30
0.0
 10
4.5419674428
 20
5.4751712129
 30
0.0
 10
4.5405937334
 20
5.4670062462
 30
0.0
 10
4.5402873126
 20
5.4615043708
 30
0.0
 10
4.5402873126
 20
5.4587595737
 30
0.0
  0
SPLINE
  5
283
100
AcDbEntity
  8
0
100
AcDbSpline
 62
7
  6
CONTINUOUS
 70
0
 71
3
 72
23
 73
19
 74
0
 42
0.0000001
 43
0.0000001
 44
0.0000000001
 40
0.0
 40
0.0
 40
0.0
 40
0.0
 40
0.0663013832
 40
0.1324684949
 40
0.1983550386
 40
0.2638420538
 40
0.3288132907
 40
0.3931738539
 40
0.4568487152
 40
0.5197874768
 40
0.5819667627
 40
0.6433920607
 40
0.7040985732
 40
0.7641508451
 40
0.823641057
 40
0.8826858861
 40
0.9414219584
 40
1.0
 40
1.0
 40
1.0
 40
1.0
 10
4.6352872671
 20
5.454222015
 30
0.0
 10
4.6321805766
 20
5.454222015
 30
0.0
 10
4.625970119
 20
5.4539529067
 30
0.0
 10
4.616743229
 20
5.4527457819
 30
0.0
 10
4.607693263
 20
5.4507462738
 30
0.0
 10
4.5989081
 20
5.4479739387
 30
0.0
 10
4.5904716217
 20
5.4444547328
 30
0.0
 10
4.5824649677
 20
5.4402222936
 30
0.0
 10
4.574965124
 20
5.4353167748
 30
0.0
 10
4.5680443543
 20
5.4297849034
 30
0.0
 10
4.5617694816
 20
5.4236794213
 30
0.0
 10
4.5562012878
 20
5.4170586282
 30
0.0
 10
4.5513939179
 20
5.4099858972
 30
0.0
 10
4.5473943335
 20
5.4025290845
 30
0.0
 10
4.5442418066
 20
5.3947600925
 30
0.0
 10
4.5419674428
 20
5.3867536331
 30
0.0
 10
4.5405937334
 20
5.3785886663
 30
0.0
 10
4.5402873126
 20
5.3730867908
 30
0.0
 10
4.5402873126
 20
5.3703419937
 30
0.0
  0
SPLINE
  5
284
100
AcDbEntity
  8
0
100
AcDbSpline
 62
7
  6
CONTINUOUS
 70
0
 71
3
 72
29
 73
25
 74
0
 42
0.0000001
 43
0.0000001
 44
0.0000000001
 40
0.0
 40
0.0
 40
0.0
 40
0.0
 40
0.0876651661
 40
0.1745929644
 40
0.260033788
 40
0.3432823026
 40
0.4236488217
 40
0.5004898912
 40
0.5732129914
 40
0.6412924916
 40
0.7042860991
 40
0.7618568302
 40
0.7885465304
 40
0.8138190464
 40
0.8376789881
 40
0.8601461281
 40
0.8812584417
 40
0.9010773587
 40
0.9196890162
 40
0.937211974
 40
0.9537981983
 40
0.9696370891
 40
0.9849533242
 40
1.0
 40
1.0
 40
1.0
 40
1.0
 10
4.6352872671
 20
5.2676020449
 30
0.0
 10
4.6321830573
 20
5.2676020449
 30
0.0
 10
4.6260002393
 20
5.267498576
 30
0.0
 10
4.6168025085
 20
5.2670339995
 30
0.0
 10
4.6077819992
 20
5.2662645927
 30
0.0
 10
4.5990256577
 20
5.26519809
 30
0.0
 10
4.5906171099
 20
5.2638447429
 30
0.0
 10
4.5826368753
 20
5.2622178308
 30
0.0
 10
4.5751610635
 20
5.2603331642
 30
0.0
 10
4.5682604391
 20
5.2582090333
 30
0.0
 10
4.562000444
 20
5.2558659416
 30
0.0
 10
4.557251806
 20
5.2536977605
 30
0.0
 10
4.553835809
 20
5.2518583136
 30
0.0
 10
4.551534456
 20
5.2504732492
 30
0.0
 10
4.5494339278
 20
5.2490511072
 30
0.0
 10
4.5475391134
 20
5.2475950691
 30
0.0
 10
4.5458545684
 20
5.2461082129
 30
0.0
 10
4.5443841247
 20
5.2445939065
 30
0.0
 10
4.5431316569
 20
5.2430550042
 30
0.0
 10
4.5421003206
 20
5.2414947862
 30
0.0
 10
4.541293485
 20
5.2399163251
 30
0.0
 10
4.5407142292
 20
5.2383230643
 30
0.0
 10
4.5403651856
 20
5.2367196297
 30
0.0
 10
4.5402873126
 20
5.2356429317
 30
0.0
 10
4.5402873126
 20
5.2351101313
 30
0.0
  0
SPLINE
  5
285
100
AcDbEntity
  8
0
100
AcDbSpline
 62
7
  6
CONTINUOUS
 70
0
 71
3
 72
34
 73
30
 74
0
 42
0.0000001
 43
0.0000001
 44
0.0000000001
 40
0.0
 40
0.0
 40
0.0
 40
0.0
 40
0.094266355
 40
0.1874308304
 40
0.2784160169
 40
0.3661797728
 40
0.4497441277
 40
0.4896719357
 40
0.5282228858
 40
0.5653034468
 40
0.6008281568
 40
0.6347230771
 40
0.6669248854
 40
0.6973855529
 40
0.7260718694
 40
0.7529714688
 40
0.7780940186
 40
0.8014788894
 40
0.8231995215
 40
0.8433729992
 40
0.8621677152
 40
0.8798119948
 40
0.8965977795
 40
0.9128751623
 40
0.929034385
 40
0.9454755902
 40
0.9625754318
 40
0.9806618162
 40
1.0
 40
1.0
 40
1.0
 40
1.0
 10
4.6352872671
 20
3.8546954935
 30
0.0
 10
4.6301436735
 20
3.8546954935
 30
0.0
 10
4.6199154409
 20
3.8544951361
 30
0.0
 10
4.6047465745
 20
3.8535957526
 30
0.0
 10
4.5899797818
 20
3.8521103302
 30
0.0
 10
4.5758098996
 20
3.8500587459
 30
0.0
 10
4.5644873266
 20
3.8478685274
 30
0.0
 10
4.5558802772
 20
3.8458403472
 30
0.0
 10
4.5497856495
 20
3.844219921
 30
0.0
 10
4.5439735051
 20
3.8424827622
 30
0.0
 10
4.5384629508
 20
3.8406343859
 30
0.0
 10
4.5332720182
 20
3.8386811388
 30
0.0
 10
4.5284177334
 20
3.8366291912
 30
0.0
 10
4.523915818
 20
3.834485526
 30
0.0
 10
4.5197809418
 20
3.8322567932
 30
0.0
 10
4.5160262882
 20
3.829950366
 30
0.0
 10
4.5126639775
 20
3.8275731382
 30
0.0
 10
4.5097045878
 20
3.825132451
 30
0.0
 10
4.5071577754
 20
3.8226350388
 30
0.0
 10
4.5050320185
 20
3.8200876993
 30
0.0
 10
4.5033354451
 20
3.8174968232
 30
0.0
 10
4.5020760323
 20
3.8148692308
 30
0.0
 10
4.5012617319
 20
3.8122130977
 30
0.0
 10
4.5008997207
 20
3.8095391832
 30
0.0
 10
4.5009936144
 20
3.8068610063
 30
0.0
 10
4.5015426691
 20
3.804192948
 30
0.0
 10
4.5025411167
 20
3.8015473293
 30
0.0
 10
4.5039814452
 20
3.7989342714
 30
0.0
 10
4.505186688
 20
3.7972791192
 30
0.0
 10
4.5058517246
 20
3.7964598962
 30
0.0
  0
LINE
  5
286
100
AcDbEntity
  8
0
100
AcDbLine
 62
7
  6
CONTINUOUS
 10
4.5058517246
 20
3.7964598962
 11
4.5093145408
 21
3.7927970847
  0
SPLINE
  5
287
100
AcDbEntity
  8
0
100
AcDbSpline
 62
7
  6
CONTINUOUS
 70
0
 71
3
 72
31
 73
27
 74
0
 42
0.0000001
 43
0.0000001
 44
0.0000000001
 40
0.0
 40
0.0
 40
0.0
 40
0.0
 40
0.0150240759
 40
0.0304527958
 40
0.0465139868
 40
0.063403783
 40
0.0812849692
 40
0.1002853443
 40
0.1205030108
 40
0.1420085519
 40
0.1648496964
 40
0.1890555876
 40
0.2146378412
 40
0.2415960655
 40
0.2699164825
 40
0.2995767218
 40
0.3305449458
 40
0.3627818432
 40
0.4308669727
 40
0.503405481
 40
0.579887289
 40
0.6597412697
 40
0.742349573
 40
0.8270522653
 40
0.9131736692
 40
1.0
 40
1.0
 40
1.0
 40
1.0
 10
4.7425624152
 20
4.4630895069
 30
0.0
 10
4.7425124291
 20
4.4636831195
 30
0.0
 10
4.7423255604
 20
4.4648806706
 30
0.0
 10
4.7417958524
 20
4.4666525219
 30
0.0
 10
4.741016904
 20
4.4684107311
 30
0.0
 10
4.7399921906
 20
4.4701509436
 30
0.0
 10
4.7387247226
 20
4.4718695381
 30
0.0
 10
4.7372182798
 20
4.4735633493
 30
0.0
 10
4.7354763933
 20
4.4752289122
 30
0.0
 10
4.7335032223
 20
4.4768629442
 30
0.0
 10
4.7313032565
 20
4.4784620629
 30
0.0
 10
4.7288814059
 20
4.4800226978
 30
0.0
 10
4.7262432446
 20
4.4815416155
 30
0.0
 10
4.723394654
 20
4.4830151742
 30
0.0
 10
4.7203422144
 20
4.4844402567
 30
0.0
 10
4.7170928469
 20
4.4858134275
 30
0.0
 10
4.7136540276
 20
4.4871316498
 30
0.0
 10
4.7087369168
 20
4.4888430754
 30
0.0
 10
4.7021678055
 20
4.4908115621
 30
0.0
 10
4.6938058972
 20
4.4928692182
 30
0.0
 10
4.6849033504
 20
4.4946441134
 30
0.0
 10
4.675542284
 20
4.4961196537
 30
0.0
 10
4.6658090386
 20
4.4972818884
 30
0.0
 10
4.6557932775
 20
4.4981200371
 30
0.0
 10
4.6455880054
 20
4.4986260158
 30
0.0
 10
4.6387299823
 20
4.4987386899
 30
0.0
 10
4.6352872671
 20
4.4987386899
 30
0.0
  0
SPLINE
  5
288
100
AcDbEntity
  8
0
100
AcDbSpline
 62
7
  6
CONTINUOUS
 70
0
 71
3
 72
33
 73
29
 74
0
 42
0.0000001
 43
0.0000001
 44
0.0000000001
 40
0.0
 40
0.0
 40
0.0
 40
0.0
 40
0.0876653531
 40
0.174585821
 40
0.2600263436
 40
0.3432714196
 40
0.4236356261
 40
0.5004741201
 40
0.5373863221
 40
0.5732003957
 40
0.6078523762
 40
0.6412844663
 40
0.6734436956
 40
0.7042845989
 40
0.7337680485
 40
0.7618644976
 40
0.7885530075
 40
0.8138250168
 40
0.8376840598
 40
0.8601504972
 40
0.8812622193
 40
0.9010804063
 40
0.9196915698
 40
0.9372139572
 40
0.9537996109
 40
0.9696381007
 40
0.9849537629
 40
1.0
 40
1.0
 40
1.0
 40
1.0
 10
4.6352872671
 20
3.9444359714
 30
0.0
 10
4.6288498995
 20
3.9444359714
 30
0.0
 10
4.6160288064
 20
3.9442214678
 30
0.0
 10
4.5969555635
 20
3.9432579753
 30
0.0
 10
4.5782501017
 20
3.9416626021
 30
0.0
 10
4.5600920337
 20
3.9394509388
 30
0.0
 10
4.542655614
 20
3.9366445067
 30
0.0
 10
4.52868382
 20
3.9337963233
 30
0.0
 10
4.5180047262
 20
3.9312278967
 30
0.0
 10
4.5103848806
 20
3.9291973223
 30
0.0
 10
4.5030654872
 20
3.9270415112
 30
0.0
 10
4.4960640227
 20
3.9247658585
 30
0.0
 10
4.4893972943
 20
3.9223755975
 30
0.0
 10
4.4830811717
 20
3.9198767343
 30
0.0
 10
4.4771307827
 20
3.9172749761
 30
0.0
 10
4.4715601857
 20
3.9145768058
 30
0.0
 10
4.4663826735
 20
3.9117883111
 30
0.0
 10
4.4616103366
 20
3.9089163278
 30
0.0
 10
4.4572545338
 20
3.9059671677
 30
0.0
 10
4.4533252921
 20
3.9029478158
 30
0.0
 10
4.4498320448
 20
3.8998645805
 30
0.0
 10
4.4467828606
 20
3.8967243313
 30
0.0
 10
4.4441855964
 20
3.8935331755
 30
0.0
 10
4.4420469149
 20
3.8902977736
 30
0.0
 10
4.4403738926
 20
3.8870245039
 30
0.0
 10
4.4391724922
 20
3.8837206483
 30
0.0
 10
4.4384489968
 20
3.8803955672
 30
0.0
 10
4.4382872671
 20
3.8781628657
 30
0.0
 10
4.4382872671
 20
3.8770580032
 30
0.0
  0
SPLINE
  5
289
100
AcDbEntity
  8
0
100
AcDbSpline
 62
7
  6
CONTINUOUS
 70
0
 71
3
 72
33
 73
29
 74
0
 42
0.0000001
 43
0.0000001
 44
0.0000000001
 40
0.0
 40
0.0
 40
0.0
 40
0.0
 40
0.0900031611
 40
0.179158352
 40
0.2666288971
 40
0.3516041955
 40
0.4333108912
 40
0.5110277835
 40
0.5481855977
 40
0.584107567
 40
0.6187250166
 40
0.6519771235
 40
0.6838096214
 40
0.7141780758
 40
0.7430469485
 40
0.7703934021
 40
0.7962071002
 40
0.8204948201
 40
0.8432815339
 40
0.8646162287
 40
0.8845747878
 40
0.9032669935
 40
0.9208405229
 40
0.937486535
 40
0.9534397244
 40
0.9689743558
 40
0.9843914075
 40
1.0
 40
1.0
 40
1.0
 40
1.0
 10
4.6352872671
 20
5.0715597349
 30
0.0
 10
4.630088686
 20
5.0715597349
 30
0.0
 10
4.6197395559
 20
5.071377421
 30
0.0
 10
4.6043576781
 20
5.0705586993
 30
0.0
 10
4.5893048995
 20
5.069204013
 30
0.0
 10
4.5747415014
 20
5.0673280909
 30
0.0
 10
4.5608224085
 20
5.0649511925
 30
0.0
 10
4.5497219939
 20
5.0625398645
 30
0.0
 10
4.5412864323
 20
5.0603671354
 30
0.0
 10
4.5353054663
 20
5.0586542435
 30
0.0
 10
4.5295912469
 20
5.0568381187
 30
0.0
 10
4.5241588869
 20
5.0549237731
 30
0.0
 10
4.519022825
 20
5.0529161105
 30
0.0
 10
4.5141965814
 20
5.0508206722
 30
0.0
 10
4.5096929279
 20
5.0486427801
 30
0.0
 10
4.5055236065
 20
5.0463883531
 30
0.0
 10
4.501699584
 20
5.0440630136
 30
0.0
 10
4.4982306972
 20
5.0416728842
 30
0.0
 10
4.4951260455
 20
5.0392236838
 30
0.0
 10
4.4923935766
 20
5.0367214773
 30
0.0
 10
4.4900407067
 20
5.0341718179
 30
0.0
 10
4.4880739084
 20
5.031580492
 30
0.0
 10
4.4864996224
 20
5.0289529643
 30
0.0
 10
4.4853237399
 20
5.0262953534
 30
0.0
 10
4.4845522816
 20
5.0236146447
 30
0.0
 10
4.4841899549
 20
5.0209193942
 30
0.0
 10
4.4842395179
 20
5.0182205443
 30
0.0
 10
4.4845433647
 20
5.0164466502
 30
0.0
 10
4.4847583179
 20
5.0155710983
 30
0.0
  0
SPLINE
  5
28A
100
AcDbEntity
  8
0
100
AcDbSpline
 62
7
  6
CONTINUOUS
 70
0
 71
3
 72
29
 73
25
 74
0
 42
0.0000001
 43
0.0000001
 44
0.0000000001
 40
0.0
 40
0.0
 40
0.0
 40
0.0
 40
0.0839427464
 40
0.1672869904
 40
0.2494263129
 40
0.3297841419
 40
0.4077946687
 40
0.4829236317
 40
0.5546710132
 40
0.6225813928
 40
0.6862538932
 40
0.745354929
 40
0.7731137808
 40
0.7996441241
 40
0.8249324771
 40
0.8489727006
 40
0.8717699834
 40
0.8933404784
 40
0.9137145021
 40
0.9329389225
 40
0.9510789681
 40
0.9682230071
 40
0.9844832831
 40
1.0
 40
1.0
 40
1.0
 40
1.0
 10
4.6352872671
 20
5.1502075205
 30
0.0
 10
4.6308835149
 20
5.1502075205
 30
0.0
 10
4.6221067989
 20
5.1500723733
 30
0.0
 10
4.6090336038
 20
5.1494653124
 30
0.0
 10
4.5961734836
 20
5.1484589636
 30
0.0
 10
4.5836313243
 20
5.1470618262
 30
0.0
 10
4.5715086206
 20
5.1452852669
 30
0.0
 10
4.5599037316
 20
5.1431439991
 30
0.0
 10
4.548910537
 20
5.1406556171
 30
0.0
 10
4.5386175698
 20
5.1378405676
 30
0.0
 10
4.5291078915
 20
5.1347219174
 30
0.0
 10
4.5217516651
 20
5.1318337389
 30
0.0
 10
4.5163327861
 20
5.1293771008
 30
0.0
 10
4.512595859
 20
5.127513578
 30
0.0
 10
4.509108144
 20
5.1255944537
 30
0.0
 10
4.5058767017
 20
5.1236232528
 30
0.0
 10
4.5029079014
 20
5.1216040339
 30
0.0
 10
4.5002076843
 20
5.1195406005
 30
0.0
 10
4.4977814652
 20
5.1174368349
 30
0.0
 10
4.4956340113
 20
5.1152967206
 30
0.0
 10
4.4937699767
 20
5.1131239159
 30
0.0
 10
4.4921931297
 20
5.1109223322
 30
0.0
 10
4.4909077161
 20
5.1086960529
 30
0.0
 10
4.4902335493
 20
5.1071667283
 30
0.0
 10
4.4899506034
 20
5.1064034565
 30
0.0
  0
LINE
  5
28B
100
AcDbEntity
  8
0
100
AcDbLine
 62
7
  6
CONTINUOUS
 10
4.7612593972
 20
3.792796534
 11
4.7647228447
 21
3.7964599394
  0
SPLINE
  5
28C
100
AcDbEntity
  8
0
100
AcDbSpline
 62
7
  6
CONTINUOUS
 70
0
 71
3
 72
34
 73
30
 74
0
 42
0.0000001
 43
0.0000001
 44
0.0000000001
 40
0.0
 40
0.0
 40
0.0
 40
0.0
 40
0.019338157
 40
0.0374245197
 40
0.0545243452
 40
0.0709655403
 40
0.0871247588
 40
0.1034021428
 40
0.1201879334
 40
0.1378322228
 40
0.1566269514
 40
0.1768004433
 40
0.1985210902
 40
0.2219059752
 40
0.2470285382
 40
0.2739281492
 40
0.3026144761
 40
0.3330751526
 40
0.3652769687
 40
0.3991718955
 40
0.4346966106
 40
0.4717771749
 40
0.5103281266
 40
0.5502559344
 40
0.6338202846
 40
0.7215840307
 40
0.8125692036
 40
0.9057336627
 40
1.0
 40
1.0
 40
1.0
 40
1.0
 10
4.7647228447
 20
3.7964599394
 30
0.0
 10
4.7653878786
 20
3.7972791622
 30
0.0
 10
4.7665931162
 20
3.7989343141
 30
0.0
 10
4.7680334368
 20
3.8015473712
 30
0.0
 10
4.7690318769
 20
3.8041929889
 30
0.0
 10
4.7695809244
 20
3.806861046
 30
0.0
 10
4.7696748115
 20
3.8095392215
 30
0.0
 10
4.769312794
 20
3.8122131344
 30
0.0
 10
4.768498488
 20
3.8148692657
 30
0.0
 10
4.7672390702
 20
3.8174968563
 30
0.0
 10
4.7655424924
 20
3.8200877306
 30
0.0
 10
4.7634167315
 20
3.8226350682
 30
0.0
 10
4.7608699156
 20
3.8251324785
 30
0.0
 10
4.7579105231
 20
3.8275731637
 30
0.0
 10
4.7545482101
 20
3.8299503895
 30
0.0
 10
4.7507935548
 20
3.8322568147
 30
0.0
 10
4.7466586774
 20
3.8344855455
 30
0.0
 10
4.7421567614
 20
3.8366292088
 30
0.0
 10
4.7373024763
 20
3.8386811546
 30
0.0
 10
4.7321115439
 20
3.8406343999
 30
0.0
 10
4.7266009903
 20
3.8424827744
 30
0.0
 10
4.7207888469
 20
3.8442199316
 30
0.0
 10
4.7146942208
 20
3.8458403562
 30
0.0
 10
4.7060871742
 20
3.8478685344
 30
0.0
 10
4.6947646056
 20
3.8500587507
 30
0.0
 10
4.6805947296
 20
3.8521103329
 30
0.0
 10
4.6658279439
 20
3.8535957537
 30
0.0
 10
4.6506590852
 20
3.8544951363
 30
0.0
 10
4.640430858
 20
3.8546954935
 30
0.0
 10
4.6352872671
 20
3.8546954935
 30
0.0
  0
SPLINE
  5
28D
100
AcDbEntity
  8
0
100
AcDbSpline
 62
7
  6
CONTINUOUS
 70
0
 71
3
 72
39
 73
35
 74
0
 42
0.0000001
 43
0.0000001
 44
0.0000000001
 40
0.0
 40
0.0
 40
0.0
 40
0.0
 40
0.0961623504
 40
0.1910345992
 40
0.2833612062
 40
0.3281922445
 40
0.3719402042
 40
0.4144671964
 40
0.4556430859
 40
0.4953458481
 40
0.5334628081
 40
0.5698928547
 40
0.6045470497
 40
0.6373515183
 40
0.6682499951
 40
0.6972062652
 40
0.7242097372
 40
0.7492800861
 40
0.7724746124
 40
0.7938984921
 40
0.813714766
 40
0.8321568132
 40
0.849536663
 40
0.8579549061
 40
0.8662590216
 40
0.874506377
 40
0.8827557859
 40
0.8910660041
 40
0.8994942552
 40
0.9169049265
 40
0.9353899827
 40
0.9552586466
 40
0.9767417261
 40
1.0
 40
1.0
 40
1.0
 40
1.0
 10
4.6352872671
 20
3.9028761203
 30
0.0
 10
4.6429723484
 20
3.9028761203
 30
0.0
 10
4.6582414697
 20
3.9025559973
 30
0.0
 10
4.6808479189
 20
3.9011194052
 30
0.0
 10
4.6992910902
 20
3.8991261041
 30
0.0
 10
4.7136010815
 20
3.8970570766
 30
0.0
 10
4.7239315832
 20
3.8952999268
 30
0.0
 10
4.7339259098
 20
3.8933289807
 30
0.0
 10
4.7435462997
 20
3.8911518147
 30
0.0
 10
4.7527563679
 20
3.8887767292
 30
0.0
 10
4.7615213324
 20
3.8862126876
 30
0.0
 10
4.7698081963
 20
3.883469576
 30
0.0
 10
4.7775857996
 20
3.8805576905
 30
0.0
 10
4.7848250281
 20
3.8774880249
 30
0.0
 10
4.7914989638
 20
3.8742721668
 30
0.0
 10
4.7975828589
 20
3.8709218291
 30
0.0
 10
4.8030544465
 20
3.8674492357
 30
0.0
 10
4.807893831
 20
3.8638665279
 30
0.0
 10
4.8120833038
 20
3.860185434
 30
0.0
 10
4.8156073777
 20
3.8564175941
 30
0.0
 10
4.8184516364
 20
3.8525733536
 30
0.0
 10
4.8206018674
 20
3.8486644718
 30
0.0
 10
4.8218162891
 20
3.845325602
 30
0.0
 10
4.8224107477
 20
3.8426627685
 30
0.0
 10
4.8226734697
 20
3.8406818881
 30
0.0
 10
4.8227569549
 20
3.8386989348
 30
0.0
 10
4.8226609975
 20
3.8367160598
 30
0.0
 10
4.8223858373
 20
3.8347354099
 30
0.0
 10
4.82177453
 20
3.8320725535
 30
0.0
 10
4.8205389159
 20
3.8287344119
 30
0.0
 10
4.8183643307
 20
3.824827627
 30
0.0
 10
4.8154961587
 20
3.8209858029
 30
0.0
 10
4.8119489315
 20
3.817220999
 30
0.0
 10
4.8092512529
 20
3.8148656219
 30
0.0
 10
4.8078033695
 20
3.8137000389
 30
0.0
  0
SPLINE
  5
28E
100
AcDbEntity
  8
0
100
AcDbSpline
 62
7
  6
CONTINUOUS
 70
0
 71
3
 72
33
 73
29
 74
0
 42
0.0000001
 43
0.0000001
 44
0.0000000001
 40
0.0
 40
0.0
 40
0.0
 40
0.0
 40
0.0876653505
 40
0.1745858308
 40
0.2600263353
 40
0.3432714337
 40
0.4236356134
 40
0.5004741344
 40
0.5373863227
 40
0.5732003814
 40
0.607852374
 40
0.6412844786
 40
0.6734436967
 40
0.7042845855
 40
0.733768044
 40
0.7618645061
 40
0.7885530089
 40
0.8138250069
 40
0.8376840557
 40
0.860150503
 40
0.8812622215
 40
0.901080401
 40
0.9196915668
 40
0.9372139594
 40
0.9537996122
 40
0.9696380989
 40
0.9849537609
 40
1.0
 40
1.0
 40
1.0
 40
1.0
 10
4.6352872671
 20
3.9267807783
 30
0.0
 10
4.6417246345
 20
3.9267807783
 30
0.0
 10
4.6545457283
 20
3.9265662747
 30
0.0
 10
4.6736189705
 20
3.9256027822
 30
0.0
 10
4.6923244336
 20
3.9240074089
 30
0.0
 10
4.7104825
 20
3.9217957457
 30
0.0
 10
4.7279189213
 20
3.9189893134
 30
0.0
 10
4.7418907142
 20
3.9161411299
 30
0.0
 10
4.7525698081
 20
3.913572704
 30
0.0
 10
4.7601896525
 20
3.9115421295
 30
0.0
 10
4.7675090465
 20
3.9093863177
 30
0.0
 10
4.7745105122
 20
3.9071106651
 30
0.0
 10
4.78117724
 20
3.9047204048
 30
0.0
 10
4.7874933613
 20
3.9022215416
 30
0.0
 10
4.7934437506
 20
3.8996197828
 30
0.0
 10
4.7990143489
 20
3.8969216125
 30
0.0
 10
4.8041918609
 20
3.8941331185
 30
0.0
 10
4.8089641968
 20
3.8912611352
 30
0.0
 10
4.8133199995
 20
3.8883119745
 30
0.0
 10
4.8172492423
 20
3.8852926225
 30
0.0
 10
4.8207424899
 20
3.8822093876
 30
0.0
 10
4.8237916733
 20
3.8790691385
 30
0.0
 10
4.8263889371
 20
3.8758779824
 30
0.0
 10
4.8285276193
 20
3.8726425804
 30
0.0
 10
4.8302006419
 20
3.8693693107
 30
0.0
 10
4.8314020418
 20
3.8660654553
 30
0.0
 10
4.8321255372
 20
3.8627403744
 30
0.0
 10
4.8322872671
 20
3.8605076727
 30
0.0
 10
4.8322872671
 20
3.8594028101
 30
0.0
  0
SPLINE
  5
28F
100
AcDbEntity
  8
0
100
AcDbSpline
 62
7
  6
CONTINUOUS
 70
0
 71
3
 72
44
 73
40
 74
0
 42
0.0000001
 43
0.0000001
 44
0.0000000001
 40
0.0
 40
0.0
 40
0.0
 40
0.0
 40
0.0967558045
 40
0.1921246788
 40
0.238869204
 40
0.28476404
 40
0.329650358
 40
0.3733750271
 40
0.4157919617
 40
0.4567632352
 40
0.496160883
 40
0.5338680392
 40
0.5697804685
 40
0.603809398
 40
0.6358836166
 40
0.6659525287
 40
0.6939912691
 40
0.7200058108
 40
0.7440402232
 40
0.7661872726
 40
0.7866000327
 40
0.8055052172
 40
0.8144937109
 40
0.8232299791
 40
0.8317668041
 40
0.8401613725
 40
0.8484744378
 40
0.8567689267
 40
0.8651082082
 40
0.8735545336
 40
0.8821672929
 40
0.8910019548
 40
0.9095209087
 40
0.9193026066
 40
0.9294754231
 40
0.9510956684
 40
0.9625946697
 40
0.9745718339
 40
1.0
 40
1.0
 40
1.0
 40
1.0
 10
4.6352872671
 20
3.9616598793
 30
0.0
 10
4.6446223436
 20
3.9616598793
 30
0.0
 10
4.663161052
 20
3.9612580839
 30
0.0
 10
4.6861659012
 20
3.9597464694
 30
0.0
 10
4.7042153135
 20
3.9579294737
 30
0.0
 10
4.7173830877
 20
3.9562860704
 30
0.0
 10
4.7302179609
 20
3.9543598379
 30
0.0
 10
4.7426680569
 20
3.9521586432
 30
0.0
 10
4.7546829694
 20
3.9496915007
 30
0.0
 10
4.7662141003
 20
3.9469683886
 30
0.0
 10
4.7772149017
 20
3.9440004819
 30
0.0
 10
4.7876410351
 20
3.9407998878
 30
0.0
 10
4.7974505432
 20
3.9373795052
 30
0.0
 10
4.8066041402
 20
3.9337532424
 30
0.0
 10
4.8150653402
 20
3.9299356992
 30
0.0
 10
4.8228005703
 20
3.9259419175
 30
0.0
 10
4.8297794742
 20
3.9217875471
 30
0.0
 10
4.8359749392
 20
3.9174882979
 30
0.0
 10
4.8413628565
 20
3.9130596306
 30
0.0
 10
4.8459222565
 20
3.9085161177
 30
0.0
 10
4.8496337319
 20
3.9038729294
 30
0.0
 10
4.8520446154
 20
3.8998633532
 30
0.0
 10
4.8535004062
 20
3.8966393441
 30
0.0
 10
4.8543518802
 20
3.8942497225
 30
0.0
 10
4.8549800184
 20
3.8918509808
 30
0.0
 10
4.8553838168
 20
3.8894456516
 30
0.0
 10
4.8555624136
 20
3.8870365596
 30
0.0
 10
4.8555157464
 20
3.8846266238
 30
0.0
 10
4.8552437962
 20
3.8822187303
 30
0.0
 10
4.8547469136
 20
3.879815825
 30
0.0
 10
4.8540260726
 20
3.8774204725
 30
0.0
 10
4.8527482044
 20
3.8741906409
 30
0.0
 10
4.851027733
 20
3.8710296772
 30
0.0
 10
4.8489280336
 20
3.867966621
 30
0.0
 10
4.8464503441
 20
3.8648089343
 30
0.0
 10
4.843578196
 20
3.8617626421
 30
0.0
 10
4.8403671582
 20
3.8588251856
 30
0.0
 10
4.8367404903
 20
3.855804646
 30
0.0
 10
4.8338184331
 20
3.8536781411
 30
0.0
 10
4.831785499
 20
3.8523048222
 30
0.0
  0
SPLINE
  5
290
100
AcDbEntity
  8
0
100
AcDbSpline
 62
7
  6
CONTINUOUS
 70
0
 71
3
 72
33
 73
29
 74
0
 42
0.0000001
 43
0.0000001
 44
0.0000000001
 40
0.0
 40
0.0
 40
0.0
 40
0.0
 40
0.0876653531
 40
0.174585821
 40
0.2600263436
 40
0.3432714196
 40
0.4236356261
 40
0.5004741201
 40
0.5373863221
 40
0.5732003957
 40
0.6078523762
 40
0.6412844663
 40
0.6734436956
 40
0.7042845989
 40
0.7337680485
 40
0.7618644976
 40
0.7885530075
 40
0.8138250168
 40
0.8376840598
 40
0.8601504972
 40
0.8812622193
 40
0.9010804063
 40
0.9196915698
 40
0.9372139572
 40
0.9537996109
 40
0.9696381007
 40
0.9849537629
 40
1.0
 40
1.0
 40
1.0
 40
1.0
 10
4.6352872671
 20
3.9444359714
 30
0.0
 10
4.6417246347
 20
3.9444359714
 30
0.0
 10
4.6545457278
 20
3.9442214678
 30
0.0
 10
4.6736189706
 20
3.9432579753
 30
0.0
 10
4.6923244324
 20
3.9416626021
 30
0.0
 10
4.7104825005
 20
3.9394509388
 30
0.0
 10
4.7279189202
 20
3.9366445067
 30
0.0
 10
4.7418907141
 20
3.9337963233
 30
0.0
 10
4.752569808
 20
3.9312278967
 30
0.0
 10
4.7601896536
 20
3.9291973223
 30
0.0
 10
4.7675090469
 20
3.9270415112
 30
0.0
 10
4.7745105115
 20
3.9247658585
 30
0.0
 10
4.7811772399
 20
3.9223755975
 30
0.0
 10
4.7874933625
 20
3.9198767343
 30
0.0
 10
4.7934437515
 20
3.9172749761
 30
0.0
 10
4.7990143485
 20
3.9145768058
 30
0.0
 10
4.8041918606
 20
3.9117883111
 30
0.0
 10
4.8089641976
 20
3.9089163278
 30
0.0
 10
4.8133200003
 20
3.9059671677
 30
0.0
 10
4.8172492421
 20
3.9029478158
 30
0.0
 10
4.8207424894
 20
3.8998645805
 30
0.0
 10
4.8237916736
 20
3.8967243313
 30
0.0
 10
4.8263889378
 20
3.8935331755
 30
0.0
 10
4.8285276193
 20
3.8902977736
 30
0.0
 10
4.8302006416
 20
3.8870245039
 30
0.0
 10
4.8314020419
 20
3.8837206483
 30
0.0
 10
4.8321255374
 20
3.8803955672
 30
0.0
 10
4.8322872671
 20
3.8781628657
 30
0.0
 10
4.8322872671
 20
3.8770580032
 30
0.0
  0
SPLINE
  5
291
100
AcDbEntity
  8
0
100
AcDbSpline
 62
7
  6
CONTINUOUS
 70
0
 71
3
 72
34
 73
30
 74
0
 42
0.0000001
 43
0.0000001
 44
0.0000000001
 40
0.0
 40
0.0
 40
0.0
 40
0.0
 40
0.0928569677
 40
0.1847104598
 40
0.2745755727
 40
0.3614992328
 40
0.4445811754
 40
0.4844220762
 40
0.5229986382
 40
0.560221599
 40
0.5960098598
 40
0.6302900985
 40
0.6629993535
 40
0.6940851782
 40
0.7235085956
 40
0.7512453036
 40
0.7772893803
 40
0.8016562175
 40
0.8243876254
 40
0.8455572887
 40
0.8652777275
 40
0.8837078384
 40
0.9010592478
 40
0.9175995789
 40
0.9336473859
 40
0.9495571944
 40
0.9656942221
 40
0.9824060855
 40
1.0
 40
1.0
 40
1.0
 40
1.0
 10
4.6352872671
 20
3.8515710592
 30
0.0
 10
4.6304405338
 20
3.8515710592
 30
0.0
 10
4.6207984268
 20
3.8513893224
 30
0.0
 10
4.606486626
 20
3.8505733974
 30
0.0
 10
4.5925257414
 20
3.8492248563
 30
0.0
 10
4.579086327
 20
3.8473603937
 30
0.0
 10
4.5683110735
 20
3.845369427
 30
0.0
 10
4.560084988
 20
3.8435246893
 30
0.0
 10
4.5542317478
 20
3.842047716
 30
0.0
 10
4.5486263497
 20
3.8404625003
 30
0.0
 10
4.5432858137
 20
3.83877401
 30
0.0
 10
4.5382264052
 20
3.8369872839
 30
0.0
 10
4.5334634332
 20
3.8351079082
 30
0.0
 10
4.5290113266
 20
3.8331414727
 30
0.0
 10
4.5248834508
 20
3.831094022
 30
0.0
 10
4.5210922008
 20
3.8289715714
 30
0.0
 10
4.5176488246
 20
3.8267804331
 30
0.0
 10
4.5145635457
 20
3.8245268184
 30
0.0
 10
4.5118454625
 20
3.8222169976
 30
0.0
 10
4.5095027399
 20
3.8198570257
 30
0.0
 10
4.5075427536
 20
3.8174527849
 30
0.0
 10
4.5059723999
 20
3.8150100608
 30
0.0
 10
4.5047985372
 20
3.8125348951
 30
0.0
 10
4.5040277986
 20
3.8100345198
 30
0.0
 10
4.5036661721
 20
3.8075181291
 30
0.0
 10
4.5037168406
 20
3.8049971576
 30
0.0
 10
4.5041795628
 20
3.8024836597
 30
0.0
 10
4.5050497351
 20
3.7999889835
 30
0.0
 10
4.5058729219
 20
3.7983919434
 30
0.0
 10
4.5063421163
 20
3.7976025258
 30
0.0
  0
SPLINE
  5
292
100
AcDbEntity
  8
0
100
AcDbSpline
 62
7
  6
CONTINUOUS
 70
0
 71
3
 72
31
 73
27
 74
0
 42
0.0000001
 43
0.0000001
 44
0.0000000001
 40
0.0
 40
0.0
 40
0.0
 40
0.0
 40
0.0876643557
 40
0.1745891174
 40
0.2600289437
 40
0.3432756365
 40
0.4236405688
 40
0.5004801075
 40
0.5732018536
 40
0.641280201
 40
0.6734397202
 40
0.7042810342
 40
0.733764844
 40
0.7618615613
 40
0.7885505603
 40
0.8138226082
 40
0.8376822779
 40
0.8601486368
 40
0.881260962
 40
0.9010790711
 40
0.9196906866
 40
0.9372131454
 40
0.9537990667
 40
0.9696377331
 40
0.9849535716
 40
1.0
 40
1.0
 40
1.0
 40
1.0
 10
4.6352872671
 20
5.2008144313
 30
0.0
 10
4.6314478109
 20
5.2008144313
 30
0.0
 10
4.6238006612
 20
5.2006864676
 30
0.0
 10
4.6124245128
 20
5.2001118414
 30
0.0
 10
4.6012676062
 20
5.1991602275
 30
0.0
 10
4.5904373735
 20
5.1978411166
 30
0.0
 10
4.5800373551
 20
5.1961672352
 30
0.0
 10
4.5701670154
 20
5.194155006
 30
0.0
 10
4.5609207839
 20
5.1918239448
 30
0.0
 10
4.5536765854
 20
5.1895943227
 30
0.0
 10
4.5482716885
 20
5.1876566096
 30
0.0
 10
4.5445044521
 20
5.1861661476
 30
0.0
 10
4.5409553608
 20
5.184614354
 30
0.0
 10
4.5376328096
 20
5.1830050038
 30
0.0
 10
4.534544673
 20
5.1813418778
 30
0.0
 10
4.5316982721
 20
5.1796288049
 30
0.0
 10
4.5291002051
 20
5.1778698985
 30
0.0
 10
4.5267567007
 20
5.1760688936
 30
0.0
 10
4.524673073
 20
5.1742300309
 30
0.0
 10
4.5228544949
 20
5.1723569303
 30
0.0
 10
4.5213052779
 20
5.1704536613
 30
0.0
 10
4.520029738
 20
5.16852386
 30
0.0
 10
4.5190318285
 20
5.1665715584
 30
0.0
 10
4.518315263
 20
5.1646009767
 30
0.0
 10
4.5178837602
 20
5.1626177416
 30
0.0
 10
4.5177872671
 20
5.1612860564
 30
0.0
 10
4.5177872671
 20
5.1606270645
 30
0.0
  0
SPLINE
  5
293
100
AcDbEntity
  8
0
100
AcDbSpline
 62
7
  6
CONTINUOUS
 70
0
 71
3
 72
29
 73
25
 74
0
 42
0.0000001
 43
0.0000001
 44
0.0000000001
 40
0.0
 40
0.0
 40
0.0
 40
0.0
 40
0.0326996423
 40
0.0504255856
 40
0.0691768657
 40
0.0890177157
 40
0.1099948651
 40
0.1321394901
 40
0.1554702508
 40
0.179994093
 40
0.2057091357
 40
0.2326044581
 40
0.2606628242
 40
0.2898598173
 40
0.3201663486
 40
0.3839597499
 40
0.4517226919
 40
0.5230708822
 40
0.5975729293
 40
0.6747588429
 40
0.754128039
 40
0.8351547525
 40
0.9172977152
 40
1.0
 40
1.0
 40
1.0
 40
1.0
 10
4.4079357014
 20
3.9246816146
 30
0.0
 10
4.409118796
 20
3.9270654508
 30
0.0
 10
4.4113555277
 20
3.9305454439
 30
0.0
 10
4.4149721014
 20
3.9348632752
 30
0.0
 10
4.418180217
 20
3.9381437004
 30
0.0
 10
4.421802846
 20
3.9413703197
 30
0.0
 10
4.4258339277
 20
3.9445386833
 30
0.0
 10
4.4302655674
 20
3.9476429169
 30
0.0
 10
4.4350895906
 20
3.9506773285
 30
0.0
 10
4.440296817
 20
3.9536364768
 30
0.0
 10
4.4458775202
 20
3.9565146251
 30
0.0
 10
4.451821059
 20
3.9593065831
 30
0.0
 10
4.4581162327
 20
3.9620067955
 30
0.0
 10
4.464751023
 20
3.9646104202
 30
0.0
 10
4.4741955313
 20
3.9680041603
 30
0.0
 10
4.4867706982
 20
3.9719494426
 30
0.0
 10
4.5027470625
 20
3.9761472145
 30
0.0
 10
4.5197372503
 20
3.9798535366
 30
0.0
 10
4.5376114779
 20
3.9830396963
 30
0.0
 10
4.5562334929
 20
3.9856809896
 30
0.0
 10
4.5754608538
 20
3.9877568823
 30
0.0
 10
4.5951465909
 20
3.9892513133
 30
0.0
 10
4.6151396167
 20
3.9901526062
 30
0.0
 10
4.6285565031
 20
3.990353198
 30
0.0
 10
4.6352872671
 20
3.990353198
 30
0.0
  0
SPLINE
  5
294
100
AcDbEntity
  8
0
100
AcDbSpline
 62
7
  6
CONTINUOUS
 70
0
 71
3
 72
31
 73
27
 74
0
 42
0.0000001
 43
0.0000001
 44
0.0000000001
 40
0.0
 40
0.0
 40
0.0
 40
0.0
 40
0.0876643557
 40
0.1745891174
 40
0.2600289436
 40
0.3432756364
 40
0.4236405688
 40
0.5004801075
 40
0.5732018536
 40
0.6412802009
 40
0.6734397202
 40
0.7042810342
 40
0.7337648439
 40
0.7618615613
 40
0.7885505603
 40
0.8138226082
 40
0.8376822779
 40
0.8601486368
 40
0.881260962
 40
0.9010790711
 40
0.9196906866
 40
0.9372131454
 40
0.9537990667
 40
0.9696377331
 40
0.9849535716
 40
1.0
 40
1.0
 40
1.0
 40
1.0
 10
4.6352872671
 20
5.215900572
 30
0.0
 10
4.6391267233
 20
5.215900572
 30
0.0
 10
4.6467738729
 20
5.2157726082
 30
0.0
 10
4.6581500214
 20
5.215197982
 30
0.0
 10
4.669306928
 20
5.2142463681
 30
0.0
 10
4.6801371607
 20
5.2129272572
 30
0.0
 10
4.6905371791
 20
5.2112533758
 30
0.0
 10
4.7004075187
 20
5.2092411466
 30
0.0
 10
4.7096537502
 20
5.2069100854
 30
0.0
 10
4.7168979488
 20
5.2046804633
 30
0.0
 10
4.7223028456
 20
5.2027427502
 30
0.0
 10
4.726070082
 20
5.2012522882
 30
0.0
 10
4.7296191734
 20
5.1997004947
 30
0.0
 10
4.7329417246
 20
5.1980911444
 30
0.0
 10
4.7360298612
 20
5.1964280184
 30
0.0
 10
4.7388762621
 20
5.1947149455
 30
0.0
 10
4.741474329
 20
5.1929560392
 30
0.0
 10
4.7438178334
 20
5.1911550342
 30
0.0
 10
4.7459014611
 20
5.1893161715
 30
0.0
 10
4.7477200393
 20
5.187443071
 30
0.0
 10
4.7492692563
 20
5.1855398019
 30
0.0
 10
4.7505447961
 20
5.1836100006
 30
0.0
 10
4.7515427056
 20
5.181657699
 30
0.0
 10
4.7522592711
 20
5.1796871173
 30
0.0
 10
4.7526907739
 20
5.1777038822
 30
0.0
 10
4.7527872671
 20
5.176372197
 30
0.0
 10
4.7527872671
 20
5.1757132051
 30
0.0
  0
SPLINE
  5
295
100
AcDbEntity
  8
0
100
AcDbSpline
 62
7
  6
CONTINUOUS
 70
0
 71
3
 72
31
 73
27
 74
0
 42
0.0000001
 43
0.0000001
 44
0.0000000001
 40
0.0
 40
0.0
 40
0.0
 40
0.0
 40
0.0851671461
 40
0.1696892457
 40
0.2529212838
 40
0.3342420641
 40
0.4130484585
 40
0.4887710463
 40
0.5608801531
 40
0.6288970657
 40
0.6612412194
 40
0.6924122603
 40
0.7223706632
 40
0.7510829477
 40
0.7785222942
 40
0.8046703388
 40
0.8295169569
 40
0.8530636423
 40
0.8753230164
 40
0.8963234995
 40
0.9161094931
 40
0.9347466846
 40
0.9523235842
 40
0.9689561995
 40
0.9847898016
 40
1.0
 40
1.0
 40
1.0
 40
1.0
 10
4.6352872671
 20
4.1472602336
 30
0.0
 10
4.6301781433
 20
4.1472602336
 30
0.0
 10
4.6199978424
 20
4.147099049
 30
0.0
 10
4.6048400372
 20
4.1463750023
 30
0.0
 10
4.589943652
 20
4.1451751875
 30
0.0
 10
4.5754369843
 20
4.1435101992
 30
0.0
 10
4.5614443428
 20
4.141394463
 30
0.0
 10
4.5480856009
 20
4.1388464911
 30
0.0
 10
4.5354752888
 20
4.1358884255
 30
0.0
 10
4.5255187254
 20
4.1330576044
 30
0.0
 10
4.5180215402
 20
4.1305945286
 30
0.0
 10
4.5127456381
 20
4.1286925634
 30
0.0
 10
4.5077333531
 20
4.1267090996
 30
0.0
 10
4.502995354
 20
4.1246483867
 30
0.0
 10
4.4985417749
 20
4.1225147309
 30
0.0
 10
4.4943820113
 20
4.1203128236
 30
0.0
 10
4.4905249597
 20
4.118047082
 30
0.0
 10
4.486978633
 20
4.1157224807
 30
0.0
 10
4.4837506401
 20
4.1133434959
 30
0.0
 10
4.4808475986
 20
4.1109151785
 30
0.0
 10
4.4782758425
 20
4.1084420033
 30
0.0
 10
4.4760407736
 20
4.1059288502
 30
0.0
 10
4.4741476555
 20
4.1033802315
 30
0.0
 10
4.4726011289
 20
4.1008007212
 30
0.0
 10
4.4714058615
 20
4.0981958169
 30
0.0
 10
4.4708368468
 20
4.0964165073
 30
0.0
 10
4.4706164085
 20
4.0955310852
 30
0.0
  0
SPLINE
  5
296
100
AcDbEntity
  8
0
100
AcDbSpline
 62
7
  6
CONTINUOUS
 70
0
 71
3
 72
31
 73
27
 74
0
 42
0.0000001
 43
0.0000001
 44
0.0000000001
 40
0.0
 40
0.0
 40
0.0
 40
0.0
 40
0.0868263306
 40
0.1729477344
 40
0.2576504268
 40
0.3402587302
 40
0.4201127108
 40
0.4965945189
 40
0.5691330272
 40
0.6372181567
 40
0.6694550541
 40
0.7004232781
 40
0.7300835175
 40
0.7584039345
 40
0.7853621588
 40
0.8109444123
 40
0.8351503035
 40
0.8579914481
 40
0.8794969892
 40
0.8997146557
 40
0.9187150308
 40
0.936596217
 40
0.9534860132
 40
0.9695472042
 40
0.9849759241
 40
1.0
 40
1.0
 40
1.0
 40
1.0
 10
4.6352872671
 20
4.4987386899
 30
0.0
 10
4.6318445519
 20
4.4987386899
 30
0.0
 10
4.6249865288
 20
4.4986260158
 30
0.0
 10
4.6147812567
 20
4.4981200371
 30
0.0
 10
4.6047654956
 20
4.4972818884
 30
0.0
 10
4.5950322502
 20
4.4961196537
 30
0.0
 10
4.5856711837
 20
4.4946441134
 30
0.0
 10
4.576768637
 20
4.4928692182
 30
0.0
 10
4.5684067287
 20
4.4908115621
 30
0.0
 10
4.5618376174
 20
4.4888430754
 30
0.0
 10
4.5569205065
 20
4.4871316498
 30
0.0
 10
4.5534816873
 20
4.4858134275
 30
0.0
 10
4.5502323198
 20
4.4844402567
 30
0.0
 10
4.5471798801
 20
4.4830151742
 30
0.0
 10
4.5443312896
 20
4.4815416155
 30
0.0
 10
4.5416931282
 20
4.4800226978
 30
0.0
 10
4.5392712776
 20
4.4784620629
 30
0.0
 10
4.5370713118
 20
4.4768629442
 30
0.0
 10
4.5350981408
 20
4.4752289122
 30
0.0
 10
4.5333562544
 20
4.4735633493
 30
0.0
 10
4.5318498116
 20
4.4718695381
 30
0.0
 10
4.5305823435
 20
4.4701509436
 30
0.0
 10
4.5295576302
 20
4.4684107311
 30
0.0
 10
4.5287786817
 20
4.4666525219
 30
0.0
 10
4.5282489738
 20
4.4648806706
 30
0.0
 10
4.5280621051
 20
4.4636831195
 30
0.0
 10
4.528012119
 20
4.4630895069
 30
0.0
  0
SPLINE
  5
297
100
AcDbEntity
  8
0
100
AcDbSpline
 62
7
  6
CONTINUOUS
 70
0
 71
3
 72
31
 73
27
 74
0
 42
0.0000001
 43
0.0000001
 44
0.0000000001
 40
0.0
 40
0.0
 40
0.0
 40
0.0
 40
0.0865244189
 40
0.1723560701
 40
0.2567922171
 40
0.3391686066
 40
0.4188354109
 40
0.495183881
 40
0.5676504655
 40
0.6357307351
 40
0.6679914178
 40
0.6990009822
 40
0.7287202211
 40
0.7571165958
 40
0.7841671339
 40
0.8098567775
 40
0.8341833159
 40
0.8571562224
 40
0.8788011417
 40
0.8991620407
 40
0.9183038851
 40
0.9363184185
 40
0.9533253973
 40
0.9694783946
 40
0.9849638673
 40
1.0
 40
1.0
 40
1.0
 40
1.0
 10
4.6352872671
 20
4.3912958837
 30
0.0
 10
4.6315161163
 20
4.3912958837
 30
0.0
 10
4.6240034215
 20
4.3911732692
 30
0.0
 10
4.6128227677
 20
4.3906226476
 30
0.0
 10
4.6018469703
 20
4.3897104643
 30
0.0
 10
4.5911766201
 20
4.3884454121
 30
0.0
 10
4.5809087021
 20
4.3868390592
 30
0.0
 10
4.5711366883
 20
4.3849063907
 30
0.0
 10
4.5619495345
 20
4.3826652371
 30
0.0
 10
4.5547252935
 20
4.3805210601
 30
0.0
 10
4.5493117174
 20
4.37865664
 30
0.0
 10
4.5455212542
 20
4.377219872
 30
0.0
 10
4.5419359237
 20
4.3757229436
 30
0.0
 10
4.5385638863
 20
4.3741690583
 30
0.0
 10
4.5354126803
 20
4.3725619626
 30
0.0
 10
4.5324894905
 20
4.3709050058
 30
0.0
 10
4.5298007761
 20
4.3692020844
 30
0.0
 10
4.5273526
 20
4.3674567687
 30
0.0
 10
4.5251504234
 20
4.3656728161
 30
0.0
 10
4.523199101
 20
4.363854014
 30
0.0
 10
4.5215032802
 20
4.3620038198
 30
0.0
 10
4.52006678
 20
4.3601260671
 30
0.0
 10
4.5188937107
 20
4.3582241451
 30
0.0
 10
4.5179874181
 20
4.3563018883
 30
0.0
 10
4.517351552
 20
4.3543639283
 30
0.0
 10
4.5171075163
 20
4.353051252
 30
0.0
 10
4.5170331111
 20
4.3524001424
 30
0.0
  0
SPLINE
  5
298
100
AcDbEntity
  8
0
100
AcDbSpline
 62
7
  6
CONTINUOUS
 70
0
 71
3
 72
29
 73
25
 74
0
 42
0.0000001
 43
0.0000001
 44
0.0000000001
 40
0.0
 40
0.0
 40
0.0
 40
0.0
 40
0.0827022848
 40
0.1648452474
 40
0.2458719609
 40
0.3252411571
 40
0.4024270707
 40
0.4769291178
 40
0.5482773081
 40
0.6160402501
 40
0.6798336514
 40
0.7101401827
 40
0.7393371758
 40
0.7673955419
 40
0.7942908643
 40
0.820005907
 40
0.8445297492
 40
0.8678605099
 40
0.8900051349
 40
0.9109822843
 40
0.9308231343
 40
0.9495744144
 40
0.9673003577
 40
1.0
 40
1.0
 40
1.0
 40
1.0
 10
4.6352872671
 20
3.990353198
 30
0.0
 10
4.642018031
 20
3.990353198
 30
0.0
 10
4.6554349175
 20
3.9901526062
 30
0.0
 10
4.6754279432
 20
3.9892513133
 30
0.0
 10
4.6951136803
 20
3.9877568823
 30
0.0
 10
4.7143410413
 20
3.9856809896
 30
0.0
 10
4.7329630562
 20
3.9830396963
 30
0.0
 10
4.7508372839
 20
3.9798535366
 30
0.0
 10
4.7678274717
 20
3.9761472145
 30
0.0
 10
4.783803836
 20
3.9719494426
 30
0.0
 10
4.7963790028
 20
3.9680041603
 30
0.0
 10
4.8058235112
 20
3.9646104202
 30
0.0
 10
4.8124583014
 20
3.9620067955
 30
0.0
 10
4.8187534751
 20
3.9593065831
 30
0.0
 10
4.824697014
 20
3.9565146251
 30
0.0
 10
4.8302777172
 20
3.9536364768
 30
0.0
 10
4.8354849435
 20
3.9506773285
 30
0.0
 10
4.8403089667
 20
3.9476429169
 30
0.0
 10
4.8447406065
 20
3.9445386833
 30
0.0
 10
4.8487716882
 20
3.9413703197
 30
0.0
 10
4.8523943171
 20
3.9381437004
 30
0.0
 10
4.8556024328
 20
3.9348632752
 30
0.0
 10
4.8592190064
 20
3.9305454439
 30
0.0
 10
4.8614557382
 20
3.9270654508
 30
0.0
 10
4.8626388328
 20
3.9246816146
 30
0.0
  0
SPLINE
  5
299
100
AcDbEntity
  8
0
100
AcDbSpline
 62
7
  6
CONTINUOUS
 70
0
 71
3
 72
31
 73
27
 74
0
 42
0.0000001
 43
0.0000001
 44
0.0000000001
 40
0.0
 40
0.0
 40
0.0
 40
0.0
 40
0.0851671461
 40
0.1696892457
 40
0.2529212838
 40
0.3342420641
 40
0.4130484585
 40
0.4887710463
 40
0.5608801531
 40
0.6288970657
 40
0.6612412194
 40
0.6924122603
 40
0.7223706632
 40
0.7510829477
 40
0.7785222942
 40
0.8046703388
 40
0.8295169569
 40
0.8530636423
 40
0.8753230164
 40
0.8963234995
 40
0.9161094931
 40
0.9347466846
 40
0.9523235842
 40
0.9689561995
 40
0.9847898016
 40
1.0
 40
1.0
 40
1.0
 40
1.0
 10
4.6352872671
 20
4.1472602336
 30
0.0
 10
4.6403963909
 20
4.1472602336
 30
0.0
 10
4.6505766917
 20
4.147099049
 30
0.0
 10
4.665734497
 20
4.1463750023
 30
0.0
 10
4.6806308822
 20
4.1451751875
 30
0.0
 10
4.6951375498
 20
4.1435101992
 30
0.0
 10
4.7091301913
 20
4.141394463
 30
0.0
 10
4.7224889332
 20
4.1388464911
 30
0.0
 10
4.7350992453
 20
4.1358884255
 30
0.0
 10
4.7450558087
 20
4.1330576044
 30
0.0
 10
4.752552994
 20
4.1305945286
 30
0.0
 10
4.7578288961
 20
4.1286925634
 30
0.0
 10
4.762841181
 20
4.1267090996
 30
0.0
 10
4.7675791801
 20
4.1246483867
 30
0.0
 10
4.7720327593
 20
4.1225147309
 30
0.0
 10
4.7761925228
 20
4.1203128236
 30
0.0
 10
4.7800495745
 20
4.118047082
 30
0.0
 10
4.7835959012
 20
4.1157224807
 30
0.0
 10
4.786823894
 20
4.1133434959
 30
0.0
 10
4.7897269355
 20
4.1109151785
 30
0.0
 10
4.7922986916
 20
4.1084420033
 30
0.0
 10
4.7945337606
 20
4.1059288502
 30
0.0
 10
4.7964268787
 20
4.1033802315
 30
0.0
 10
4.7979734053
 20
4.1008007212
 30
0.0
 10
4.7991686726
 20
4.0981958169
 30
0.0
 10
4.7997376873
 20
4.0964165073
 30
0.0
 10
4.7999581257
 20
4.0955310852
 30
0.0
  0
SPLINE
  5
29A
100
AcDbEntity
  8
0
100
AcDbSpline
 62
7
  6
CONTINUOUS
 70
0
 71
3
 72
31
 73
27
 74
0
 42
0.0000001
 43
0.0000001
 44
0.0000000001
 40
0.0
 40
0.0
 40
0.0
 40
0.0
 40
0.0865244189
 40
0.1723560701
 40
0.2567922171
 40
0.3391686066
 40
0.4188354109
 40
0.495183881
 40
0.5676504655
 40
0.6357307351
 40
0.6679914178
 40
0.6990009822
 40
0.7287202211
 40
0.7571165958
 40
0.7841671339
 40
0.8098567775
 40
0.8341833159
 40
0.8571562224
 40
0.8788011417
 40
0.8991620407
 40
0.9183038851
 40
0.9363184185
 40
0.9533253973
 40
0.9694783946
 40
0.9849638673
 40
1.0
 40
1.0
 40
1.0
 40
1.0
 10
4.6352872671
 20
4.3912958837
 30
0.0
 10
4.6390584179
 20
4.3912958837
 30
0.0
 10
4.6465711127
 20
4.3911732692
 30
0.0
 10
4.6577517665
 20
4.3906226476
 30
0.0
 10
4.6687275639
 20
4.3897104643
 30
0.0
 10
4.6793979141
 20
4.3884454121
 30
0.0
 10
4.689665832
 20
4.3868390592
 30
0.0
 10
4.6994378459
 20
4.3849063907
 30
0.0
 10
4.7086249996
 20
4.3826652371
 30
0.0
 10
4.7158492407
 20
4.3805210601
 30
0.0
 10
4.7212628167
 20
4.37865664
 30
0.0
 10
4.72505328
 20
4.377219872
 30
0.0
 10
4.7286386105
 20
4.3757229436
 30
0.0
 10
4.7320106479
 20
4.3741690583
 30
0.0
 10
4.7351618539
 20
4.3725619626
 30
0.0
 10
4.7380850436
 20
4.3709050058
 30
0.0
 10
4.7407737581
 20
4.3692020844
 30
0.0
 10
4.7432219342
 20
4.3674567687
 30
0.0
 10
4.7454241107
 20
4.3656728161
 30
0.0
 10
4.7473754332
 20
4.363854014
 30
0.0
 10
4.749071254
 20
4.3620038198
 30
0.0
 10
4.7505077542
 20
4.3601260671
 30
0.0
 10
4.7516808235
 20
4.3582241451
 30
0.0
 10
4.7525871161
 20
4.3563018883
 30
0.0
 10
4.7532229822
 20
4.3543639283
 30
0.0
 10
4.7534670178
 20
4.353051252
 30
0.0
 10
4.7535414231
 20
4.3524001424
 30
0.0
  0
SPLINE
  5
29B
100
AcDbEntity
  8
0
100
AcDbSpline
 62
7
  6
CONTINUOUS
 70
0
 71
3
 72
31
 73
27
 74
0
 42
0.0000001
 43
0.0000001
 44
0.0000000001
 40
0.0
 40
0.0
 40
0.0
 40
0.0
 40
0.0150464284
 40
0.0303622669
 40
0.0462009333
 40
0.0627868546
 40
0.0803093134
 40
0.0989209289
 40
0.118739038
 40
0.1398513632
 40
0.1623177221
 40
0.1861773918
 40
0.2114494397
 40
0.2381384387
 40
0.266235156
 40
0.2957189658
 40
0.3265602798
 40
0.358719799
 40
0.4267981464
 40
0.4995198925
 40
0.5763594312
 40
0.6567243635
 40
0.7399710563
 40
0.8254108826
 40
0.9123356443
 40
1.0
 40
1.0
 40
1.0
 40
1.0
 10
4.7527872671
 20
5.1606270645
 30
0.0
 10
4.7527872671
 20
5.1612860564
 30
0.0
 10
4.7526907739
 20
5.1626177416
 30
0.0
 10
4.7522592711
 20
5.1646009767
 30
0.0
 10
4.7515427056
 20
5.1665715584
 30
0.0
 10
4.7505447961
 20
5.16852386
 30
0.0
 10
4.7492692563
 20
5.1704536613
 30
0.0
 10
4.7477200393
 20
5.1723569303
 30
0.0
 10
4.7459014611
 20
5.1742300309
 30
0.0
 10
4.7438178334
 20
5.1760688936
 30
0.0
 10
4.741474329
 20
5.1778698985
 30
0.0
 10
4.7388762621
 20
5.1796288049
 30
0.0
 10
4.7360298612
 20
5.1813418778
 30
0.0
 10
4.7329417246
 20
5.1830050038
 30
0.0
 10
4.7296191734
 20
5.184614354
 30
0.0
 10
4.726070082
 20
5.1861661476
 30
0.0
 10
4.7223028456
 20
5.1876566096
 30
0.0
 10
4.7168979488
 20
5.1895943227
 30
0.0
 10
4.7096537502
 20
5.1918239448
 30
0.0
 10
4.7004075187
 20
5.194155006
 30
0.0
 10
4.6905371791
 20
5.1961672352
 30
0.0
 10
4.6801371607
 20
5.1978411166
 30
0.0
 10
4.669306928
 20
5.1991602275
 30
0.0
 10
4.6581500214
 20
5.2001118414
 30
0.0
 10
4.6467738729
 20
5.2006864676
 30
0.0
 10
4.6391267233
 20
5.2008144313
 30
0.0
 10
4.6352872671
 20
5.2008144313
 30
0.0
  0
SPLINE
  5
29C
100
AcDbEntity
  8
0
100
AcDbSpline
 62
7
  6
CONTINUOUS
 70
0
 71
3
 72
31
 73
27
 74
0
 42
0.0000001
 43
0.0000001
 44
0.0000000001
 40
0.0
 40
0.0
 40
0.0
 40
0.0
 40
0.0150464284
 40
0.0303622669
 40
0.0462009333
 40
0.0627868546
 40
0.0803093134
 40
0.0989209289
 40
0.118739038
 40
0.1398513632
 40
0.1623177221
 40
0.1861773918
 40
0.2114494397
 40
0.2381384387
 40
0.2662351561
 40
0.2957189658
 40
0.3265602798
 40
0.3587197991
 40
0.4267981464
 40
0.4995198925
 40
0.5763594312
 40
0.6567243636
 40
0.7399710564
 40
0.8254108826
 40
0.9123356443
 40
1.0
 40
1.0
 40
1.0
 40
1.0
 10
4.5177872671
 20
5.1757132051
 30
0.0
 10
4.5177872671
 20
5.176372197
 30
0.0
 10
4.5178837602
 20
5.1777038822
 30
0.0
 10
4.518315263
 20
5.1796871173
 30
0.0
 10
4.5190318285
 20
5.181657699
 30
0.0
 10
4.520029738
 20
5.1836100006
 30
0.0
 10
4.5213052779
 20
5.1855398019
 30
0.0
 10
4.5228544949
 20
5.187443071
 30
0.0
 10
4.524673073
 20
5.1893161715
 30
0.0
 10
4.5267567007
 20
5.1911550342
 30
0.0
 10
4.5291002051
 20
5.1929560392
 30
0.0
 10
4.5316982721
 20
5.1947149455
 30
0.0
 10
4.534544673
 20
5.1964280184
 30
0.0
 10
4.5376328096
 20
5.1980911444
 30
0.0
 10
4.5409553608
 20
5.1997004947
 30
0.0
 10
4.5445044521
 20
5.2012522882
 30
0.0
 10
4.5482716885
 20
5.2027427502
 30
0.0
 10
4.5536765854
 20
5.2046804633
 30
0.0
 10
4.560920784
 20
5.2069100854
 30
0.0
 10
4.5701670154
 20
5.2092411466
 30
0.0
 10
4.5800373551
 20
5.2112533758
 30
0.0
 10
4.5904373735
 20
5.2129272572
 30
0.0
 10
4.6012676062
 20
5.2142463681
 30
0.0
 10
4.6124245128
 20
5.215197982
 30
0.0
 10
4.6238006612
 20
5.2157726082
 30
0.0
 10
4.6314478109
 20
5.215900572
 30
0.0
 10
4.6352872671
 20
5.215900572
 30
0.0
  0
SPLINE
  5
29D
100
AcDbEntity
  8
0
100
AcDbSpline
 62
7
  6
CONTINUOUS
 70
0
 71
3
 72
34
 73
30
 74
0
 42
0.0000001
 43
0.0000001
 44
0.0000000001
 40
0.0
 40
0.0
 40
0.0
 40
0.0
 40
0.0175939144
 40
0.034305778
 40
0.0504428058
 40
0.0663526144
 40
0.0824004212
 40
0.0989407522
 40
0.1162921616
 40
0.1347222727
 40
0.154442712
 40
0.1756123757
 40
0.1983437838
 40
0.2227106208
 40
0.2487546969
 40
0.2764914041
 40
0.3059148211
 40
0.3370006455
 40
0.3697099008
 40
0.4039901398
 40
0.4397784009
 40
0.4770013619
 40
0.515577924
 40
0.5554188247
 40
0.6385007673
 40
0.7254244274
 40
0.8152895403
 40
0.9071430323
 40
1.0
 40
1.0
 40
1.0
 40
1.0
 10
4.7642324179
 20
3.7976025258
 30
0.0
 10
4.7647016123
 20
3.7983919433
 30
0.0
 10
4.765524799
 20
3.7999889835
 30
0.0
 10
4.7663949714
 20
3.8024836597
 30
0.0
 10
4.7668576936
 20
3.8049971576
 30
0.0
 10
4.7669083621
 20
3.8075181291
 30
0.0
 10
4.7665467356
 20
3.8100345198
 30
0.0
 10
4.765775997
 20
3.8125348951
 30
0.0
 10
4.7646021343
 20
3.8150100608
 30
0.0
 10
4.7630317805
 20
3.8174527849
 30
0.0
 10
4.7610717942
 20
3.8198570258
 30
0.0
 10
4.7587290716
 20
3.8222169977
 30
0.0
 10
4.7560109884
 20
3.8245268186
 30
0.0
 10
4.7529257094
 20
3.8267804331
 30
0.0
 10
4.7494823333
 20
3.8289715714
 30
0.0
 10
4.7456910833
 20
3.831094022
 30
0.0
 10
4.7415632077
 20
3.8331414726
 30
0.0
 10
4.7371111011
 20
3.8351079082
 30
0.0
 10
4.7323481291
 20
3.8369872838
 30
0.0
 10
4.7272887205
 20
3.83877401
 30
0.0
 10
4.7219481845
 20
3.8404625003
 30
0.0
 10
4.7163427863
 20
3.842047716
 30
0.0
 10
4.7104895461
 20
3.8435246893
 30
0.0
 10
4.7022634606
 20
3.845369427
 30
0.0
 10
4.6914882072
 20
3.8473603937
 30
0.0
 10
4.6780487927
 20
3.8492248563
 30
0.0
 10
4.6640879082
 20
3.8505733974
 30
0.0
 10
4.6497761073
 20
3.8513893224
 30
0.0
 10
4.6401340003
 20
3.8515710592
 30
0.0
 10
4.6352872671
 20
3.8515710592
 30
0.0
  0
SPLINE
  5
29E
100
AcDbEntity
  8
0
100
AcDbSpline
 62
7
  6
CONTINUOUS
 70
0
 71
3
 72
29
 73
25
 74
0
 42
0.0000001
 43
0.0000001
 44
0.0000000001
 40
0.0
 40
0.0
 40
0.0
 40
0.0
 40
0.0156485161
 40
0.0320740446
 40
0.0494052283
 40
0.067744585
 40
0.0871721134
 40
0.1077460544
 40
0.1295081621
 40
0.1524840548
 40
0.1766870196
 40
0.2021193978
 40
0.2287734485
 40
0.2566343688
 40
0.3158718999
 40
0.3795887822
 40
0.4474535092
 40
0.5190706454
 40
0.5939927284
 40
0.6717297008
 40
0.7517588681
 40
0.8335270275
 40
0.9164716948
 40
1.0
 40
1.0
 40
1.0
 40
1.0
 10
4.780352644
 20
5.1070964931
 30
0.0
 10
4.7800412473
 20
5.1078518916
 30
0.0
 10
4.7793122831
 20
5.1093640375
 30
0.0
 10
4.7779541171
 20
5.1115618081
 30
0.0
 10
4.7763112593
 20
5.1137343468
 30
0.0
 10
4.7743877535
 20
5.1158776315
 30
0.0
 10
4.7721873952
 20
5.1179878635
 30
0.0
 10
4.7697148341
 20
5.1200615265
 30
0.0
 10
4.7669747503
 20
5.1220946154
 30
0.0
 10
4.7639726212
 20
5.1240835061
 30
0.0
 10
4.7607142565
 20
5.1260243472
 30
0.0
 10
4.7572060323
 20
5.1279133372
 30
0.0
 10
4.7534548754
 20
5.1297469774
 30
0.0
 10
4.7480276036
 20
5.1321623637
 30
0.0
 10
4.740676684
 20
5.1350012777
 30
0.0
 10
4.7311920714
 20
5.138066458
 30
0.0
 10
4.720945152
 20
5.1408319929
 30
0.0
 10
4.7100170634
 20
5.1432756448
 30
0.0
 10
4.6984941653
 20
5.1453777194
 30
0.0
 10
4.6864679056
 20
5.1471212824
 30
0.0
 10
4.6740340125
 20
5.1484921699
 30
0.0
 10
4.6612911608
 20
5.149479457
 30
0.0
 10
4.6483413166
 20
5.1500749499
 30
0.0
 10
4.6396485774
 20
5.1502075205
 30
0.0
 10
4.6352872671
 20
5.1502075205
 30
0.0
  0
SPLINE
  5
29F
100
AcDbEntity
  8
0
100
AcDbSpline
 62
7
  6
CONTINUOUS
 70
0
 71
3
 72
33
 73
29
 74
0
 42
0.0000001
 43
0.0000001
 44
0.0000000001
 40
0.0
 40
0.0
 40
0.0
 40
0.0
 40
0.0156085925
 40
0.0310256442
 40
0.0465602756
 40
0.062513465
 40
0.0791594771
 40
0.0967330065
 40
0.1154252122
 40
0.1353837713
 40
0.1567184661
 40
0.1795051799
 40
0.2037928998
 40
0.2296065978
 40
0.2569530515
 40
0.2858219241
 40
0.3161903786
 40
0.3480228765
 40
0.3812749833
 40
0.4158924329
 40
0.4518144022
 40
0.4889722164
 40
0.5666891087
 40
0.6483958044
 40
0.7333711028
 40
0.8208416478
 40
0.9099968387
 40
1.0
 40
1.0
 40
1.0
 40
1.0
 10
4.7858162163
 20
5.0155710983
 30
0.0
 10
4.7860311695
 20
5.0164466502
 30
0.0
 10
4.7863350163
 20
5.0182205443
 30
0.0
 10
4.7863845793
 20
5.0209193942
 30
0.0
 10
4.7860222526
 20
5.0236146447
 30
0.0
 10
4.7852507942
 20
5.0262953534
 30
0.0
 10
4.7840749118
 20
5.0289529643
 30
0.0
 10
4.7825006258
 20
5.031580492
 30
0.0
 10
4.7805338275
 20
5.0341718179
 30
0.0
 10
4.7781809576
 20
5.0367214773
 30
0.0
 10
4.7754484886
 20
5.0392236838
 30
0.0
 10
4.7723438369
 20
5.0416728842
 30
0.0
 10
4.7688749502
 20
5.0440630136
 30
0.0
 10
4.7650509277
 20
5.0463883531
 30
0.0
 10
4.7608816063
 20
5.0486427801
 30
0.0
 10
4.7563779527
 20
5.0508206722
 30
0.0
 10
4.7515517092
 20
5.0529161105
 30
0.0
 10
4.7464156473
 20
5.0549237731
 30
0.0
 10
4.7409832872
 20
5.0568381187
 30
0.0
 10
4.7352690678
 20
5.0586542435
 30
0.0
 10
4.7292881018
 20
5.0603671354
 30
0.0
 10
4.7208525403
 20
5.0625398645
 30
0.0
 10
4.7097521257
 20
5.0649511925
 30
0.0
 10
4.6958330328
 20
5.0673280909
 30
0.0
 10
4.6812696347
 20
5.069204013
 30
0.0
 10
4.666216856
 20
5.0705586993
 30
0.0
 10
4.6508349782
 20
5.071377421
 30
0.0
 10
4.6404858482
 20
5.0715597349
 30
0.0
 10
4.6352872671
 20
5.0715597349
 30
0.0
  0
SPLINE
  5
2A0
100
AcDbEntity
  8
0
100
AcDbSpline
 62
7
  6
CONTINUOUS
 70
0
 71
3
 72
44
 73
40
 74
0
 42
0.0000001
 43
0.0000001
 44
0.0000000001
 40
0.0
 40
0.0
 40
0.0
 40
0.0
 40
0.0254280218
 40
0.0374051175
 40
0.0489040534
 40
0.0705241783
 40
0.0806969409
 40
0.0904785897
 40
0.1089974619
 40
0.1178320921
 40
0.1264448264
 40
0.1348911337
 40
0.1432304041
 40
0.1515248888
 40
0.1598379566
 40
0.1682325338
 40
0.1767693731
 40
0.1855056607
 40
0.1944941781
 40
0.2133994197
 40
0.2338122454
 40
0.2559593643
 40
0.2799938463
 40
0.3060084554
 40
0.3340472589
 40
0.3641162287
 40
0.3961904988
 40
0.4302194731
 40
0.4661319401
 40
0.5038391272
 40
0.5432367989
 40
0.5842080898
 40
0.6266250356
 40
0.6703497102
 40
0.7152360284
 40
0.7611308601
 40
0.8078753771
 40
0.9032442264
 40
1.0
 40
1.0
 40
1.0
 40
1.0
 10
4.4387885966
 20
3.8523051185
 30
0.0
 10
4.4367556847
 20
3.8536784374
 30
0.0
 10
4.4338336608
 20
3.8558049421
 30
0.0
 10
4.430207038
 20
3.8588254805
 30
0.0
 10
4.4269960428
 20
3.8617629354
 30
0.0
 10
4.424123937
 20
3.8648092253
 30
0.0
 10
4.4216462896
 20
3.8679669083
 30
0.0
 10
4.4195466291
 20
3.8710299615
 30
0.0
 10
4.4178261965
 20
3.874190921
 30
0.0
 10
4.4165483663
 20
3.8774207466
 30
0.0
 10
4.4158275522
 20
3.8798160948
 30
0.0
 10
4.4153306957
 20
3.8822189956
 30
0.0
 10
4.4150587707
 20
3.8846268842
 30
0.0
 10
4.4150121277
 20
3.8870368149
 30
0.0
 10
4.4151907477
 20
3.8894459014
 30
0.0
 10
4.4155945684
 20
3.8918512248
 30
0.0
 10
4.4162227277
 20
3.8942499604
 30
0.0
 10
4.4170742218
 20
3.8966395759
 30
0.0
 10
4.4185300385
 20
3.8998635768
 30
0.0
 10
4.4209409513
 20
3.9038731415
 30
0.0
 10
4.4246524565
 20
3.9085163156
 30
0.0
 10
4.4292118818
 20
3.9130598141
 30
0.0
 10
4.4345998201
 20
3.917488467
 30
0.0
 10
4.4407953017
 20
3.9217877018
 30
0.0
 10
4.4477742179
 20
3.9259420577
 30
0.0
 10
4.4555094561
 20
3.9299358252
 30
0.0
 10
4.4639706601
 20
3.9337533545
 30
0.0
 10
4.473124257
 20
3.9373796038
 30
0.0
 10
4.482933761
 20
3.9407999732
 30
0.0
 10
4.4933598868
 20
3.9440005548
 30
0.0
 10
4.5043606769
 20
3.9469684498
 30
0.0
 10
4.5158917934
 20
3.9496915509
 30
0.0
 10
4.5279066884
 20
3.9521586832
 30
0.0
 10
4.5403567643
 20
3.9543598689
 30
0.0
 10
4.5531916147
 20
3.9562860933
 30
0.0
 10
4.5663593643
 20
3.9579294897
 30
0.0
 10
4.5844087403
 20
3.9597464776
 30
0.0
 10
4.6074135415
 20
3.9612580856
 30
0.0
 10
4.6259522107
 20
3.9616598793
 30
0.0
 10
4.6352872671
 20
3.9616598793
 30
0.0
  0
SPLINE
  5
2A1
100
AcDbEntity
  8
0
100
AcDbSpline
 62
7
  6
CONTINUOUS
 70
0
 71
3
 72
33
 73
29
 74
0
 42
0.0000001
 43
0.0000001
 44
0.0000000001
 40
0.0
 40
0.0
 40
0.0
 40
0.0
 40
0.015046239
 40
0.030361901
 40
0.0462003877
 40
0.0627860405
 40
0.0803084333
 40
0.0989195992
 40
0.1187377788
 40
0.1398494971
 40
0.1623159439
 40
0.1861749921
 40
0.2114469897
 40
0.2381354922
 40
0.2662319542
 40
0.2957154129
 40
0.326556302
 40
0.3587155204
 40
0.3921476253
 40
0.4267996181
 40
0.4626136767
 40
0.499525865
 40
0.5763643861
 40
0.6567285662
 40
0.7399736647
 40
0.8254141692
 40
0.9123346495
 40
1.0
 40
1.0
 40
1.0
 40
1.0
 10
4.4382872671
 20
3.8594028101
 30
0.0
 10
4.4382872671
 20
3.8605076727
 30
0.0
 10
4.438448997
 20
3.8627403744
 30
0.0
 10
4.4391724923
 20
3.8660654553
 30
0.0
 10
4.4403738922
 20
3.8693693107
 30
0.0
 10
4.4420469148
 20
3.8726425804
 30
0.0
 10
4.444185597
 20
3.8758779825
 30
0.0
 10
4.4467828609
 20
3.8790691385
 30
0.0
 10
4.4498320443
 20
3.8822093877
 30
0.0
 10
4.4533252918
 20
3.8852926225
 30
0.0
 10
4.4572545345
 20
3.8883119744
 30
0.0
 10
4.4616103372
 20
3.8912611351
 30
0.0
 10
4.466382673
 20
3.8941331183
 30
0.0
 10
4.471560185
 20
3.8969216123
 30
0.0
 10
4.4771307832
 20
3.8996197826
 30
0.0
 10
4.4830811725
 20
3.9022215415
 30
0.0
 10
4.4893972939
 20
3.9047204047
 30
0.0
 10
4.4960640217
 20
3.907110665
 30
0.0
 10
4.5030654875
 20
3.9093863177
 30
0.0
 10
4.5103848816
 20
3.9115421294
 30
0.0
 10
4.5180047259
 20
3.9135727039
 30
0.0
 10
4.5286838198
 20
3.9161411299
 30
0.0
 10
4.5426556127
 20
3.9189893134
 30
0.0
 10
4.5600920341
 20
3.9217957457
 30
0.0
 10
4.5782501006
 20
3.9240074089
 30
0.0
 10
4.5969555636
 20
3.9256027822
 30
0.0
 10
4.6160288059
 20
3.9265662747
 30
0.0
 10
4.6288498997
 20
3.9267807783
 30
0.0
 10
4.6352872671
 20
3.9267807783
 30
0.0
  0
SPLINE
  5
2A2
100
AcDbEntity
  8
0
100
AcDbSpline
 62
7
  6
CONTINUOUS
 70
0
 71
3
 72
40
 73
36
 74
0
 42
0.0000001
 43
0.0000001
 44
0.0000000001
 40
0.0
 40
0.0
 40
0.0
 40
0.0
 40
0.0226222404
 40
0.0435346254
 40
0.0629145406
 40
0.0810095899
 40
0.089680887
 40
0.098159129
 40
0.1064960572
 40
0.1147465561
 40
0.1229675047
 40
0.1312165733
 40
0.139550677
 40
0.1480247624
 40
0.1655825811
 40
0.1842683379
 40
0.2043689771
 40
0.2260969999
 40
0.2495987779
 40
0.2749670459
 40
0.3022504623
 40
0.3314622296
 40
0.3625876746
 40
0.3955880197
 40
0.4304054077
 40
0.4669657019
 40
0.5051801844
 40
0.5449486523
 40
0.5861600199
 40
0.6286940797
 40
0.6724230286
 40
0.7172115922
 40
0.8093947304
 40
0.9040667874
 40
1.0
 40
1.0
 40
1.0
 40
1.0
 10
4.4613391287
 20
3.8148857083
 30
0.0
 10
4.4599736299
 20
3.81604916
 30
0.0
 10
4.4574368993
 20
3.8183993827
 30
0.0
 10
4.454132926
 20
3.8221507546
 30
0.0
 10
4.451498583
 20
3.8259731709
 30
0.0
 10
4.4498499517
 20
3.8292567086
 30
0.0
 10
4.4489003842
 20
3.8318882018
 30
0.0
 10
4.4483722657
 20
3.833841576
 30
0.0
 10
4.448019077
 20
3.8358001732
 30
0.0
 10
4.4478411646
 20
3.8377620061
 30
0.0
 10
4.4478389822
 20
3.8397249551
 30
0.0
 10
4.4480125157
 20
3.8416868237
 30
0.0
 10
4.4483614061
 20
3.8436455989
 30
0.0
 10
4.4490677287
 20
3.8462806445
 30
0.0
 10
4.4504127103
 20
3.8495792446
 30
0.0
 10
4.4526984338
 20
3.8534342492
 30
0.0
 10
4.4556610388
 20
3.8572238168
 30
0.0
 10
4.4592869821
 20
3.8609364315
 30
0.0
 10
4.4635620317
 20
3.8645619557
 30
0.0
 10
4.4684708031
 20
3.8680889762
 30
0.0
 10
4.4739957737
 20
3.8715059063
 30
0.0
 10
4.4801171548
 20
3.8748010521
 30
0.0
 10
4.4868129761
 20
3.8779625153
 30
0.0
 10
4.4940588736
 20
3.8809789597
 30
0.0
 10
4.5018283921
 20
3.8838392807
 30
0.0
 10
4.5100930327
 20
3.8865328069
 30
0.0
 10
4.5188223168
 20
3.8890496704
 30
0.0
 10
4.5279840273
 20
3.8913803715
 30
0.0
 10
4.5375442627
 20
3.8935162446
 30
0.0
 10
4.5474675813
 20
3.8954493594
 30
0.0
 10
4.5577172419
 20
3.8971724085
 30
0.0
 10
4.571903687
 20
3.8992004864
 30
0.0
 10
4.590175821
 20
3.9011542836
 30
0.0
 10
4.6125628638
 20
3.9025623684
 30
0.0
 10
4.6276797955
 20
3.9028761203
 30
0.0
 10
4.6352872671
 20
3.9028761203
 30
0.0
  0
SPLINE
  5
2A3
100
AcDbEntity
  8
0
100
AcDbSpline
 62
7
  6
CONTINUOUS
 70
0
 71
3
 72
28
 73
24
 74
0
 42
0.0000001
 43
0.0000001
 44
0.0000000001
 40
0.0
 40
0.0
 40
0.0
 40
0.0
 40
0.0629310958
 40
0.094401246
 40
0.125863254
 40
0.1887482978
 40
0.25158914
 40
0.282996604
 40
0.3143883891
 40
0.377103921
 40
0.4397428472
 40
0.5022991942
 40
0.5647695425
 40
0.6271533504
 40
0.6583215233
 40
0.6894691464
 40
0.7205969505
 40
0.7517058165
 40
0.8138547788
 40
0.875942355
 40
0.9069750471
 40
0.937997101
 40
1.0
 40
1.0
 40
1.0
 40
1.0
 10
4.6352877998
 20
2.3613976083
 30
0.0
 10
4.6428973452
 20
2.3613976083
 30
0.0
 10
4.6543208346
 20
2.3619085195
 30
0.0
 10
4.6694486715
 20
2.3636064259
 30
0.0
 10
4.6844810493
 20
2.3659779221
 30
0.0
 10
4.703041198
 20
2.3701978666
 30
0.0
 10
4.7211431654
 20
2.376059846
 30
0.0
 10
4.7352530789
 20
2.3817034923
 30
0.0
 10
4.7490816425
 20
2.3879682783
 30
0.0
 10
4.7658045423
 20
2.3969481376
 30
0.0
 10
4.7847992051
 20
2.4094724151
 30
0.0
 10
4.8025641932
 20
2.4236417156
 30
0.0
 10
4.8189514439
 20
2.4393379915
 30
0.0
 10
4.8313540407
 20
2.4535919593
 30
0.0
 10
4.8404546038
 20
2.4656198797
 30
0.0
 10
4.8468564301
 20
2.4749353308
 30
0.0
 10
4.8528226608
 20
2.4845271447
 30
0.0
 10
4.8601765498
 20
2.4976523194
 30
0.0
 10
4.868224771
 20
2.5146560386
 30
0.0
 10
4.874676955
 20
2.5323172576
 30
0.0
 10
4.8788457262
 20
2.5467429631
 30
0.0
 10
4.8823443785
 20
2.5613340074
 30
0.0
 10
4.8842098969
 20
2.5724479329
 30
0.0
 10
4.8851089572
 20
2.5798911401
 30
0.0
  0
SPLINE
  5
2A4
100
AcDbEntity
  8
0
100
AcDbSpline
 62
7
  6
CONTINUOUS
 70
0
 71
3
 72
31
 73
27
 74
0
 42
0.0000001
 43
0.0000001
 44
0.0000000001
 40
0.0
 40
0.0
 40
0.0
 40
0.0
 40
0.0629293119
 40
0.1258436998
 40
0.1887268559
 40
0.2515658334
 40
0.3143469795
 40
0.3457200251
 40
0.3770748868
 40
0.4084105351
 40
0.4397258716
 40
0.5022783562
 40
0.5335307752
 40
0.5647615769
 40
0.5959703307
 40
0.6271576896
 40
0.6583237347
 40
0.6894688548
 40
0.7205944247
 40
0.7517010925
 40
0.8138462861
 40
0.8449035706
 40
0.8759474589
 40
0.9069788212
 40
0.9379993487
 40
1.0
 40
1.0
 40
1.0
 40
1.0
 10
4.635286741
 20
2.3613976076
 30
0.0
 10
4.6276899407
 20
2.3613976076
 30
0.0
 10
4.6124893888
 20
2.3620915885
 30
0.0
 10
4.5898865036
 20
2.3651715085
 30
0.0
 10
4.5676561018
 20
2.3702485268
 30
0.0
 10
4.5459822344
 20
2.3772791372
 30
0.0
 10
4.5285297363
 20
2.384741008
 30
0.0
 10
4.515035495
 20
2.3916404998
 30
0.0
 10
4.50516786
 20
2.3972675994
 30
0.0
 10
4.4955703183
 20
2.4033309336
 30
0.0
 10
4.483164924
 20
2.4119720969
 30
0.0
 10
4.4713613726
 20
2.4214357437
 30
0.0
 10
4.4602468114
 20
2.4316543126
 30
0.0
 10
4.4522724972
 20
2.4396811869
 30
0.0
 10
4.4446789699
 20
2.4480582879
 30
0.0
 10
4.4374848235
 20
2.4567707617
 30
0.0
 10
4.4307040176
 20
2.4657990457
 30
0.0
 10
4.4243505904
 20
2.4751238672
 30
0.0
 10
4.4184334851
 20
2.4847233637
 30
0.0
 10
4.4111416624
 20
2.4978530489
 30
0.0
 10
4.404754403
 20
2.5114598252
 30
0.0
 10
4.3993212708
 20
2.5254443926
 30
0.0
 10
4.3957315387
 20
2.5361031619
 30
0.0
 10
4.3926375214
 20
2.5469118383
 30
0.0
 10
4.3891904095
 20
2.5614890787
 30
0.0
 10
4.3873700635
 20
2.5725914231
 30
0.0
 10
4.3864991753
 20
2.5800252767
 30
0.0
  0
SPLINE
  5
2A5
100
AcDbEntity
  8
0
100
AcDbSpline
 62
7
  6
CONTINUOUS
 70
0
 71
3
 72
29
 73
25
 74
0
 42
0.0000001
 43
0.0000001
 44
0.0000000001
 40
0.0
 40
0.0
 40
0.0
 40
0.0
 40
0.0150466758
 40
0.0303629109
 40
0.0462018017
 40
0.062788026
 40
0.0803109838
 40
0.0989226413
 40
0.1187415583
 40
0.1398538719
 40
0.1623210119
 40
0.1861809536
 40
0.2114534696
 40
0.2381431698
 40
0.2957139009
 40
0.3587075084
 40
0.4267870086
 40
0.4995101088
 40
0.5763511783
 40
0.6567176974
 40
0.739966212
 40
0.8254070356
 40
0.9123348339
 40
1.0
 40
1.0
 40
1.0
 40
1.0
 10
4.7302872216
 20
5.2351101313
 30
0.0
 10
4.7302872216
 20
5.2356429317
 30
0.0
 10
4.7302093486
 20
5.2367196297
 30
0.0
 10
4.7298603049
 20
5.2383230643
 30
0.0
 10
4.7292810491
 20
5.2399163251
 30
0.0
 10
4.7284742135
 20
5.2414947862
 30
0.0
 10
4.7274428772
 20
5.2430550042
 30
0.0
 10
4.7261904095
 20
5.2445939065
 30
0.0
 10
4.7247199658
 20
5.2461082129
 30
0.0
 10
4.7230354208
 20
5.2475950691
 30
0.0
 10
4.7211406064
 20
5.2490511072
 30
0.0
 10
4.7190400782
 20
5.2504732492
 30
0.0
 10
4.7167387251
 20
5.2518583136
 30
0.0
 10
4.7133227282
 20
5.2536977605
 30
0.0
 10
4.7085740902
 20
5.2558659416
 30
0.0
 10
4.7023140951
 20
5.2582090333
 30
0.0
 10
4.6954134707
 20
5.2603331642
 30
0.0
 10
4.6879376588
 20
5.2622178308
 30
0.0
 10
4.6799574243
 20
5.2638447429
 30
0.0
 10
4.6715488764
 20
5.26519809
 30
0.0
 10
4.6627925349
 20
5.2662645927
 30
0.0
 10
4.6537720257
 20
5.2670339995
 30
0.0
 10
4.6445742949
 20
5.267498576
 30
0.0
 10
4.6383914768
 20
5.2676020449
 30
0.0
 10
4.6352872671
 20
5.2676020449
 30
0.0
  0
SPLINE
  5
2A6
100
AcDbEntity
  8
0
100
AcDbSpline
 62
7
  6
CONTINUOUS
 70
0
 71
3
 72
62
 73
58
 74
0
 42
0.0000001
 43
0.0000001
 44
0.0000000001
 40
0.0
 40
0.0
 40
0.0
 40
0.0
 40
0.0265584233
 40
0.0528731507
 40
0.1047629786
 40
0.1556600368
 40
0.2055674651
 40
0.2544667327
 40
0.2785259005
 40
0.3023140286
 40
0.3258196261
 40
0.3490282681
 40
0.3719233054
 40
0.3944848802
 40
0.4166770067
 40
0.4384554541
 40
0.4597790171
 40
0.4702592189
 40
0.4806147444
 40
0.5009572425
 40
0.5208189567
 40
0.5402087585
 40
0.5591326722
 40
0.5956421204
 40
0.6132645654
 40
0.630488567
 40
0.6473271064
 40
0.6637892248
 40
0.6798870044
 40
0.6956366513
 40
0.7261494865
 40
0.7554509543
 40
0.7836692496
 40
0.8108532721
 40
0.8240591295
 40
0.8369829648
 40
0.8618279514
 40
0.8736596408
 40
0.8850270147
 40
0.8958647092
 40
0.9061032791
 40
0.9156732774
 40
0.9245076024
 40
0.9325596521
 40
0.9398789069
 40
0.9465445843
 40
0.9526308236
 40
0.9582117
 40
0.9633687591
 40
0.9681812708
 40
0.9727199994
 40
0.9770724735
 40
0.9813458117
 40
0.9856634357
 40
0.9901549943
 40
0.9949144645
 40
1.0
 40
1.0
 40
1.0
 40
1.0
 10
4.4821060047
 20
5.0289021255
 30
0.0
 10
4.4809020238
 20
5.0288643423
 30
0.0
 10
4.4785054404
 20
5.0287769878
 30
0.0
 10
4.4737598625
 20
5.0285354317
 30
0.0
 10
4.4679192187
 20
5.0281036244
 30
0.0
 10
4.4610331235
 20
5.0273496113
 30
0.0
 10
4.4543171874
 20
5.0263380476
 30
0.0
 10
4.4488407075
 20
5.0253001955
 30
0.0
 10
4.4445521573
 20
5.024370481
 30
0.0
 10
4.4414009753
 20
5.0236327364
 30
0.0
 10
4.4382977299
 20
5.0228610372
 30
0.0
 10
4.4352424892
 20
5.0220650808
 30
0.0
 10
4.4322352891
 20
5.0212550706
 30
0.0
 10
4.4292772711
 20
5.0204400187
 30
0.0
 10
4.4263682382
 20
5.0196378352
 30
0.0
 10
4.4235080296
 20
5.018869943
 30
0.0
 10
4.4211522286
 20
5.0182723984
 30
0.0
 10
4.4192912447
 20
5.0178327654
 30
0.0
 10
4.4174682509
 20
5.0174265375
 30
0.0
 10
4.4152211605
 20
5.0169680265
 30
0.0
 10
4.4125613811
 20
5.0164859679
 30
0.0
 10
4.409956271
 20
5.0160660855
 30
0.0
 10
4.4065969313
 20
5.0155837056
 30
0.0
 10
4.4033085394
 20
5.0151755327
 30
0.0
 10
4.4000969066
 20
5.0147761183
 30
0.0
 10
4.3977729219
 20
5.0144685088
 30
0.0
 10
4.3955053618
 20
5.0141369695
 30
0.0
 10
4.3932942488
 20
5.0137744833
 30
0.0
 10
4.3911399657
 20
5.0133731709
 30
0.0
 10
4.3883738548
 20
5.0127815835
 30
0.0
 10
4.3850554422
 20
5.0119147103
 30
0.0
 10
4.3812684767
 20
5.0106373395
 30
0.0
 10
4.3777334988
 20
5.0091229603
 30
0.0
 10
4.3749715857
 20
5.0076826703
 30
0.0
 10
4.3728929975
 20
5.0064462895
 30
0.0
 10
4.3709461833
 20
5.0051985423
 30
0.0
 10
4.369104343
 20
5.0039050217
 30
0.0
 10
4.3673583795
 20
5.0026011588
 30
0.0
 10
4.3661344714
 20
5.0016602161
 30
0.0
 10
4.3649748055
 20
5.0007544106
 30
0.0
 10
4.3638798594
 20
4.9998981672
 30
0.0
 10
4.3628500526
 20
4.9991061798
 30
0.0
 10
4.3618858088
 20
4.9983917078
 30
0.0
 10
4.3609817688
 20
4.9977684141
 30
0.0
 10
4.3601421794
 20
4.997225937
 30
0.0
 10
4.3593689131
 20
4.9967455217
 30
0.0
 10
4.3586617039
 20
4.99630822
 30
0.0
 10
4.3580201147
 20
4.9958949317
 30
0.0
 10
4.3574449566
 20
4.9954859996
 30
0.0
 10
4.3569370691
 20
4.9950664505
 30
0.0
 10
4.3564952245
 20
4.9946278123
 30
0.0
 10
4.3561201829
 20
4.9941613467
 30
0.0
 10
4.3558130468
 20
4.9936589864
 30
0.0
 10
4.3555749662
 20
4.9931134203
 30
0.0
 10
4.3554071033
 20
4.9925195155
 30
0.0
 10
4.355308052
 20
4.9918754617
 30
0.0
 10
4.355287914
 20
4.9914285178
 30
0.0
 10
4.3552879373
 20
4.9911978602
 30
0.0
  0
SPLINE
  5
2A7
100
AcDbEntity
  8
0
100
AcDbSpline
 62
7
  6
CONTINUOUS
 70
0
 71
3
 72
23
 73
19
 74
0
 42
0.0000001
 43
0.0000001
 44
0.0000000001
 40
0.0
 40
0.0
 40
0.0
 40
0.0
 40
0.0585780416
 40
0.1173141139
 40
0.176358943
 40
0.2358491549
 40
0.2959014268
 40
0.3566079393
 40
0.4180332373
 40
0.4802125232
 40
0.5431512848
 40
0.6068261461
 40
0.6711867093
 40
0.7361579462
 40
0.8016449614
 40
0.8675315051
 40
0.9336986168
 40
1.0
 40
1.0
 40
1.0
 40
1.0
 10
4.7302872216
 20
5.3703419937
 30
0.0
 10
4.7302872216
 20
5.3730867908
 30
0.0
 10
4.7299808007
 20
5.3785886663
 30
0.0
 10
4.7286070913
 20
5.3867536331
 30
0.0
 10
4.7263327276
 20
5.3947600925
 30
0.0
 10
4.7231802007
 20
5.4025290845
 30
0.0
 10
4.7191806163
 20
5.4099858972
 30
0.0
 10
4.7143732463
 20
5.4170586282
 30
0.0
 10
4.7088050526
 20
5.4236794213
 30
0.0
 10
4.7025301799
 20
5.4297849034
 30
0.0
 10
4.6956094101
 20
5.4353167748
 30
0.0
 10
4.6881095665
 20
5.4402222936
 30
0.0
 10
4.6801029125
 20
5.4444547328
 30
0.0
 10
4.6716664342
 20
5.4479739387
 30
0.0
 10
4.6628812712
 20
5.4507462738
 30
0.0
 10
4.6538313052
 20
5.4527457819
 30
0.0
 10
4.6446044152
 20
5.4539529067
 30
0.0
 10
4.6383939576
 20
5.454222015
 30
0.0
 10
4.6352872671
 20
5.454222015
 30
0.0
  0
SPLINE
  5
2A8
100
AcDbEntity
  8
0
100
AcDbSpline
 62
7
  6
CONTINUOUS
 70
0
 71
3
 72
15
 73
11
 74
0
 42
0.0000001
 43
0.0000001
 44
0.0000000001
 40
0.0
 40
0.0
 40
0.0
 40
0.0
 40
0.1095002335
 40
0.2250062165
 40
0.3458002624
 40
0.4710985454
 40
0.6000639659
 40
0.7318079819
 40
0.8654427444
 40
1.0
 40
1.0
 40
1.0
 40
1.0
 10
4.5682581782
 20
5.1730538966
 30
0.0
 10
4.5706308268
 20
5.1737553519
 30
0.0
 10
4.5755429663
 20
5.1750745226
 30
0.0
 10
4.5831716738
 20
5.1767726819
 30
0.0
 10
4.5912124026
 20
5.178233349
 30
0.0
 10
4.5996015748
 20
5.1794447525
 30
0.0
 10
4.6082729014
 20
5.1803971152
 30
0.0
 10
4.617158221
 20
5.1810830002
 30
0.0
 10
4.6261867055
 20
5.1814966232
 30
0.0
 10
4.632246935
 20
5.1815887399
 30
0.0
 10
4.6352872671
 20
5.1815887399
 30
0.0
  0
SPLINE
  5
2A9
100
AcDbEntity
  8
0
100
AcDbSpline
 62
7
  6
CONTINUOUS
 70
0
 71
3
 72
23
 73
19
 74
0
 42
0.0000001
 43
0.0000001
 44
0.0000000001
 40
0.0
 40
0.0
 40
0.0
 40
0.0
 40
0.0585780408
 40
0.1173141127
 40
0.1763589425
 40
0.2358491559
 40
0.2959014294
 40
0.3566079423
 40
0.4180332398
 40
0.4802125253
 40
0.5431512868
 40
0.6068261476
 40
0.6711867106
 40
0.7361579474
 40
0.8016449621
 40
0.8675315054
 40
0.9336986169
 40
1.0
 40
1.0
 40
1.0
 40
1.0
 10
4.7302872216
 20
5.4587595737
 30
0.0
 10
4.7302872216
 20
5.4615043708
 30
0.0
 10
4.7299808008
 20
5.4670062462
 30
0.0
 10
4.7286070914
 20
5.475171213
 30
0.0
 10
4.7263327276
 20
5.4831776725
 30
0.0
 10
4.7231802006
 20
5.4909466647
 30
0.0
 10
4.7191806161
 20
5.4984034774
 30
0.0
 10
4.7143732461
 20
5.5054762085
 30
0.0
 10
4.7088050523
 20
5.5120970016
 30
0.0
 10
4.7025301797
 20
5.5182024836
 30
0.0
 10
4.6956094099
 20
5.5237343549
 30
0.0
 10
4.6881095663
 20
5.5286398737
 30
0.0
 10
4.6801029123
 20
5.5328723129
 30
0.0
 10
4.671666434
 20
5.5363915188
 30
0.0
 10
4.6628812711
 20
5.5391638538
 30
0.0
 10
4.6538313051
 20
5.5411633619
 30
0.0
 10
4.6446044152
 20
5.5423704867
 30
0.0
 10
4.6383939576
 20
5.542639595
 30
0.0
 10
4.6352872671
 20
5.542639595
 30
0.0
  0
SPLINE
  5
2AA
100
AcDbEntity
  8
0
100
AcDbSpline
 62
7
  6
CONTINUOUS
 70
0
 71
3
 72
34
 73
30
 74
0
 42
0.0000001
 43
0.0000001
 44
0.0000000001
 40
0.0
 40
0.0
 40
0.0
 40
0.0
 40
0.0998214036
 40
0.1971004624
 40
0.2911361613
 40
0.3812791213
 40
0.4669655004
 40
0.5476435837
 40
0.6227683214
 40
0.6580816201
 40
0.6918075397
 40
0.723886869
 40
0.7542824223
 40
0.7829641831
 40
0.809904252
 40
0.8350775508
 40
0.8584628221
 40
0.8800440767
 40
0.8998127442
 40
0.91777095
 40
0.9339366397
 40
0.9483520223
 40
0.9611079372
 40
0.9723639006
 40
0.9823533631
 40
0.986979171
 40
0.9914223415
 40
0.9957414033
 40
1.0
 40
1.0
 40
1.0
 40
1.0
 10
4.6933078718
 20
3.7359180865
 30
0.0
 10
4.7005313918
 20
3.7356515355
 30
0.0
 10
4.7147909396
 20
3.735023321
 30
0.0
 10
4.7358371633
 20
3.7337775635
 30
0.0
 10
4.7561617267
 20
3.7322434727
 30
0.0
 10
4.7756203353
 20
3.7304292398
 30
0.0
 10
4.794079915
 20
3.7283536483
 30
0.0
 10
4.8114138312
 20
3.7260335557
 30
0.0
 10
4.8250847389
 20
3.7238690516
 30
0.0
 10
4.8353583116
 20
3.7220135146
 30
0.0
 10
4.8425431802
 20
3.7205994187
 30
0.0
 10
4.8493543166
 20
3.7191357037
 30
0.0
 10
4.8557807316
 20
3.717625704
 30
0.0
 10
4.8618133715
 20
3.7160725999
 30
0.0
 10
4.8674436055
 20
3.7144794544
 30
0.0
 10
4.8726628569
 20
3.7128493504
 30
0.0
 10
4.877462628
 20
3.711185374
 30
0.0
 10
4.8818345356
 20
3.7094906014
 30
0.0
 10
4.8857703822
 20
3.7077680781
 30
0.0
 10
4.8892622084
 20
3.7060207062
 30
0.0
 10
4.8923025522
 20
3.7042511923
 30
0.0
 10
4.8948848602
 20
3.702460808
 30
0.0
 10
4.8970050404
 20
3.7006492217
 30
0.0
 10
4.8986625726
 20
3.6988178184
 30
0.0
 10
4.8996817753
 20
3.6972313847
 30
0.0
 10
4.9002364331
 20
3.6959649071
 30
0.0
 10
4.9005236133
 20
3.6950365604
 30
0.0
 10
4.9006919851
 20
3.6941065007
 30
0.0
 10
4.9007248164
 20
3.6934842412
 30
0.0
 10
4.9007213586
 20
3.6931758798
 30
0.0
  0
SPLINE
  5
2AB
100
AcDbEntity
  8
0
100
AcDbSpline
 62
7
  6
CONTINUOUS
 70
0
 71
3
 72
58
 73
54
 74
0
 42
0.0000001
 43
0.0000001
 44
0.0000000001
 40
0.0
 40
0.0
 40
0.0
 40
0.0
 40
0.0098169687
 40
0.014317181
 40
0.0186405448
 40
0.0229089788
 40
0.0272542531
 40
0.0317902337
 40
0.0366094048
 40
0.041784346
 40
0.0473803945
 40
0.0534738296
 40
0.060136889
 40
0.0674410385
 40
0.0754621012
 40
0.0842688331
 40
0.0938342921
 40
0.1040842772
 40
0.1149411384
 40
0.1263269963
 40
0.1381687272
 40
0.1630116779
 40
0.1891292067
 40
0.2163124124
 40
0.2445324696
 40
0.2738350181
 40
0.3043481318
 40
0.3361929101
 40
0.3526553611
 40
0.3694940085
 40
0.40434064
 40
0.4408523996
 40
0.4597770977
 40
0.4791657545
 40
0.4990254766
 40
0.5193669723
 40
0.5297231018
 40
0.5402045148
 40
0.5615304778
 40
0.5833108623
 40
0.6055040532
 40
0.628065595
 40
0.6509606541
 40
0.6741696597
 40
0.6976758257
 40
0.7214646169
 40
0.7455245066
 40
0.7944253645
 40
0.844334347
 40
0.8952328117
 40
0.9471244135
 40
0.9734403538
 40
1.0
 40
1.0
 40
1.0
 40
1.0
 10
4.9152865969
 20
4.991197842
 30
0.0
 10
4.9152865517
 20
4.9916430835
 30
0.0
 10
4.915229395
 20
4.9922968177
 30
0.0
 10
4.9149993661
 20
4.9931124592
 30
0.0
 10
4.9147617198
 20
4.9936587592
 30
0.0
 10
4.9144544083
 20
4.9941606836
 30
0.0
 10
4.9140791882
 20
4.9946261156
 30
0.0
 10
4.9136371913
 20
4.9950643277
 30
0.0
 10
4.9131291654
 20
4.9954851247
 30
0.0
 10
4.9125549007
 20
4.995898326
 30
0.0
 10
4.9119133925
 20
4.9963151179
 30
0.0
 10
4.9112061024
 20
4.9967539461
 30
0.0
 10
4.9104327808
 20
4.9972333099
 30
0.0
 10
4.9095933678
 20
4.9977718748
 30
0.0
 10
4.9086881511
 20
4.9983874551
 30
0.0
 10
4.9077230346
 20
4.9990959428
 30
0.0
 10
4.9066940515
 20
4.9998874295
 30
0.0
 10
4.9055996756
 20
5.0007462482
 30
0.0
 10
4.9044405742
 20
5.0016563138
 30
0.0
 10
4.9032171433
 20
5.0026013452
 30
0.0
 10
4.9014715929
 20
5.0039077266
 30
0.0
 10
4.8991391957
 20
5.0055446471
 30
0.0
 10
4.8961230993
 20
5.0074109509
 30
0.0
 10
4.8928415872
 20
5.0091220182
 30
0.0
 10
4.8893068823
 20
5.0106370926
 30
0.0
 10
4.8855199317
 20
5.0119146703
 30
0.0
 10
4.881494957
 20
5.0129664343
 30
0.0
 10
4.8779859995
 20
5.013658685
 30
0.0
 10
4.8750701907
 20
5.0141366309
 30
0.0
 10
4.8720117597
 20
5.0145839135
 30
0.0
 10
4.8680423071
 20
5.0150794184
 30
0.0
 10
4.8639787963
 20
5.015584816
 30
0.0
 10
4.8606194268
 20
5.0160669191
 30
0.0
 10
4.8580142617
 20
5.0164852563
 30
0.0
 10
4.8553544761
 20
5.0169657994
 30
0.0
 10
4.8531074491
 20
5.0174237981
 30
0.0
 10
4.851284625
 20
5.0178307161
 30
0.0
 10
4.8494237586
 20
5.0182714302
 30
0.0
 10
4.8470679795
 20
5.018869774
 30
0.0
 10
4.844207741
 20
5.019638159
 30
0.0
 10
4.8412986621
 20
5.0204403454
 30
0.0
 10
4.8383405359
 20
5.0212548439
 30
0.0
 10
4.835333349
 20
5.0220646082
 30
0.0
 10
4.832278156
 20
5.0228605479
 30
0.0
 10
4.8291749542
 20
5.0236323312
 30
0.0
 10
4.8260237857
 20
5.0243701059
 30
0.0
 10
4.8217352138
 20
5.0252997466
 30
0.0
 10
4.8162587401
 20
5.0263376766
 30
0.0
 10
4.8095428267
 20
5.0273494329
 30
0.0
 10
4.8026567358
 20
5.0281035929
 30
0.0
 10
4.7968160733
 20
5.0285354905
 30
0.0
 10
4.7920704561
 20
5.0287772659
 30
0.0
 10
4.7896738331
 20
5.0288646563
 30
0.0
 10
4.7884698295
 20
5.028902354
 30
0.0
  0
SPLINE
  5
2AC
100
AcDbEntity
  8
0
100
AcDbSpline
 62
7
  6
CONTINUOUS
 70
0
 71
3
 72
31
 73
27
 74
0
 42
0.0000001
 43
0.0000001
 44
0.0000000001
 40
0.0
 40
0.0
 40
0.0
 40
0.0
 40
0.0620006559
 40
0.09302118
 40
0.1240525479
 40
0.1550964358
 40
0.1861537185
 40
0.2482989134
 40
0.2794055817
 40
0.3105311492
 40
0.3416762687
 40
0.3728423171
 40
0.4040296728
 40
0.4352384254
 40
0.4664692297
 40
0.4977216478
 40
0.5602741303
 40
0.5915894667
 40
0.6229251156
 40
0.6542799752
 40
0.6856530216
 40
0.7484341666
 40
0.8112731454
 40
0.8741562988
 40
0.93707069
 40
1.0
 40
1.0
 40
1.0
 40
1.0
 10
4.8840754077
 20
2.5800257247
 30
0.0
 10
4.8832045307
 20
2.57259186
 30
0.0
 10
4.8813842312
 20
2.5614894933
 30
0.0
 10
4.8779371143
 20
2.5469122337
 30
0.0
 10
4.8748431052
 20
2.5361035409
 30
0.0
 10
4.8712533944
 20
2.5254447495
 30
0.0
 10
4.8658202772
 20
2.5114601564
 30
0.0
 10
4.8594330257
 20
2.4978533561
 30
0.0
 10
4.8521412154
 20
2.4847236431
 30
0.0
 10
4.8462241149
 20
2.4751241275
 30
0.0
 10
4.8398706837
 20
2.4657992921
 30
0.0
 10
4.8330898846
 20
2.456770986
 30
0.0
 10
4.8258957495
 20
2.4480584848
 30
0.0
 10
4.8183022129
 20
2.4396813735
 30
0.0
 10
4.8103278963
 20
2.4316544823
 30
0.0
 10
4.7992133333
 20
2.421435888
 30
0.0
 10
4.7874097746
 20
2.411972221
 30
0.0
 10
4.775004372
 20
2.4033310376
 30
0.0
 10
4.7654068246
 20
2.3972676867
 30
0.0
 10
4.7555391807
 20
2.3916405744
 30
0.0
 10
4.7420449226
 20
2.3847410757
 30
0.0
 10
4.7245924132
 20
2.3772791722
 30
0.0
 10
4.7029185191
 20
2.3702485523
 30
0.0
 10
4.6806880924
 20
2.365171518
 30
0.0
 10
4.6580851798
 20
2.362091591
 30
0.0
 10
4.6428846091
 20
2.3613976083
 30
0.0
 10
4.6352877998
 20
2.3613976083
 30
0.0
  0
SPLINE
  5
2AD
100
AcDbEntity
  8
0
100
AcDbSpline
 62
7
  6
CONTINUOUS
 70
0
 71
3
 72
30
 73
26
 74
0
 42
0.0000001
 43
0.0000001
 44
0.0000000001
 40
0.0
 40
0.0
 40
0.0
 40
0.0
 40
0.0629672663
 40
0.0944544412
 40
0.1259338063
 40
0.1888470975
 40
0.2517083306
 40
0.2831243155
 40
0.3145222512
 40
0.3459007468
 40
0.3772585859
 40
0.4398899314
 40
0.5024294372
 40
0.5648751979
 40
0.6272288461
 40
0.65838213
 40
0.6895146449
 40
0.7206275585
 40
0.7517222243
 40
0.8138440312
 40
0.8759134269
 40
0.9069430971
 40
0.9379659153
 40
0.9689841326
 40
1.0
 40
1.0
 40
1.0
 40
1.0
 10
4.6352872671
 20
2.296524021
 30
0.0
 10
4.6252259724
 20
2.296524021
 30
0.0
 10
4.6101201425
 20
2.297254752
 30
0.0
 10
4.5901389876
 20
2.2996820554
 30
0.0
 10
4.5703053966
 20
2.3030709223
 30
0.0
 10
4.5458690165
 20
2.3090974485
 30
0.0
 10
4.5221399403
 20
2.3174583325
 30
0.0
 10
4.5037297808
 20
2.3254947585
 30
0.0
 10
4.4902394712
 20
2.3321818763
 30
0.0
 10
4.4770984544
 20
2.3395127301
 30
0.0
 10
4.4600950966
 20
2.3501159517
 30
0.0
 10
4.439861309
 20
2.364891604
 30
0.0
 10
4.4174596125
 20
2.3848843394
 30
0.0
 10
4.3971546112
 20
2.4069433383
 30
0.0
 10
4.3821361625
 20
2.4268833321
 30
0.0
 10
4.3713611915
 20
2.4436403927
 30
0.0
 10
4.3639163112
 20
2.4565818898
 30
0.0
 10
4.3571255655
 20
2.4698677651
 30
0.0
 10
4.3489682716
 20
2.4879893361
 30
0.0
 10
4.3404786622
 20
2.5113505822
 30
0.0
 10
4.3343539018
 20
2.5354296616
 30
0.0
 10
4.3309112559
 20
2.5549684669
 30
0.0
 10
4.3290623744
 20
2.569731048
 30
0.0
 10
4.3279511353
 20
2.5845644662
 30
0.0
 10
4.3277041066
 20
2.5944784476
 30
0.0
 10
4.3277041066
 20
2.5994343525
 30
0.0
  0
SPLINE
  5
2AE
100
AcDbEntity
  8
0
100
AcDbSpline
 62
7
  6
CONTINUOUS
 70
0
 71
3
 72
30
 73
26
 74
0
 42
0.0000001
 43
0.0000001
 44
0.0000000001
 40
0.0
 40
0.0
 40
0.0
 40
0.0
 40
0.0629672663
 40
0.0944544412
 40
0.1259338063
 40
0.1888470975
 40
0.2517083306
 40
0.2831243155
 40
0.3145222512
 40
0.3459007468
 40
0.3772585859
 40
0.4398899314
 40
0.5024294372
 40
0.5648751979
 40
0.6272288461
 40
0.65838213
 40
0.6895146449
 40
0.7206275585
 40
0.7517222243
 40
0.8138440312
 40
0.8759134269
 40
0.9069430971
 40
0.9379659153
 40
0.9689841326
 40
1.0
 40
1.0
 40
1.0
 40
1.0
 10
4.6352872671
 20
2.296524021
 30
0.0
 10
4.6453485618
 20
2.296524021
 30
0.0
 10
4.6604543916
 20
2.297254752
 30
0.0
 10
4.6804355465
 20
2.2996820554
 30
0.0
 10
4.7002691376
 20
2.3030709223
 30
0.0
 10
4.7247055176
 20
2.3090974485
 30
0.0
 10
4.7484345938
 20
2.3174583325
 30
0.0
 10
4.7668447533
 20
2.3254947585
 30
0.0
 10
4.7803350629
 20
2.3321818763
 30
0.0
 10
4.7934760798
 20
2.3395127301
 30
0.0
 10
4.8104794375
 20
2.3501159517
 30
0.0
 10
4.8307132251
 20
2.364891604
 30
0.0
 10
4.8531149217
 20
2.3848843394
 30
0.0
 10
4.873419923
 20
2.4069433383
 30
0.0
 10
4.8884383717
 20
2.4268833321
 30
0.0
 10
4.8992133426
 20
2.4436403927
 30
0.0
 10
4.906658223
 20
2.4565818898
 30
0.0
 10
4.9134489686
 20
2.4698677651
 30
0.0
 10
4.9216062626
 20
2.4879893361
 30
0.0
 10
4.9300958719
 20
2.5113505822
 30
0.0
 10
4.9362206324
 20
2.5354296616
 30
0.0
 10
4.9396632782
 20
2.5549684669
 30
0.0
 10
4.9415121598
 20
2.569731048
 30
0.0
 10
4.9426233988
 20
2.5845644662
 30
0.0
 10
4.9428704276
 20
2.5944784476
 30
0.0
 10
4.9428704276
 20
2.5994343525
 30
0.0
  0
SPLINE
  5
2AF
100
AcDbEntity
  8
0
100
AcDbSpline
 62
7
  6
CONTINUOUS
 70
0
 71
3
 72
34
 73
30
 74
0
 42
0.0000001
 43
0.0000001
 44
0.0000000001
 40
0.0
 40
0.0
 40
0.0
 40
0.0
 40
0.0042585247
 40
0.0085775169
 40
0.0130206227
 40
0.0176463723
 40
0.0276357425
 40
0.03889165
 40
0.0516475463
 40
0.0660629453
 40
0.08222868
 40
0.1001869554
 40
0.1199557138
 40
0.1415370776
 40
0.164922474
 40
0.1900959113
 40
0.2170361297
 40
0.2457180491
 40
0.276113768
 40
0.3081932682
 40
0.3419193546
 40
0.3772328066
 40
0.4523577982
 40
0.5330360451
 40
0.6187224742
 40
0.7088653476
 40
0.8029007882
 40
0.9001793541
 40
1.0
 40
1.0
 40
1.0
 40
1.0
 10
4.3698531756
 20
3.6931758798
 30
0.0
 10
4.3698497177
 20
3.6934842497
 30
0.0
 10
4.3698825511
 20
3.6941065269
 30
0.0
 10
4.3700509325
 20
3.6950366126
 30
0.0
 10
4.3703381292
 20
3.6959649852
 30
0.0
 10
4.3708928189
 20
3.6972314992
 30
0.0
 10
4.3719120805
 20
3.6988179778
 30
0.0
 10
4.3735697053
 20
3.7006494299
 30
0.0
 10
4.3756900032
 20
3.7024610636
 30
0.0
 10
4.378272454
 20
3.7042514938
 30
0.0
 10
4.3813129645
 20
3.7060210525
 30
0.0
 10
4.3848049809
 20
3.7077684675
 30
0.0
 10
4.3887410403
 20
3.7094910318
 30
0.0
 10
4.3931131828
 20
3.7111858432
 30
0.0
 10
4.3979132102
 20
3.712849856
 30
0.0
 10
4.4031327384
 20
3.7144799936
 30
0.0
 10
4.4087632691
 20
3.7160731696
 30
0.0
 10
4.4147962249
 20
3.7176263009
 30
0.0
 10
4.4212229742
 20
3.7191363243
 30
0.0
 10
4.4280344621
 20
3.7206000589
 30
0.0
 10
4.4352196973
 20
3.7220141706
 30
0.0
 10
4.4454937835
 20
3.7238697237
 30
0.0
 10
4.4591653577
 20
3.7260342373
 30
0.0
 10
4.4765000973
 20
3.7283543246
 30
0.0
 10
4.4949605243
 20
3.7304298923
 30
0.0
 10
4.5144199926
 20
3.732244081
 30
0.0
 10
4.5347454137
 20
3.7337781065
 30
0.0
 10
4.5557924765
 20
3.7350237815
 30
0.0
 10
4.5700525751
 20
3.7356519299
 30
0.0
 10
4.5772763648
 20
3.7359184445
 30
0.0
  0
SPLINE
  5
2B0
100
AcDbEntity
  8
0
100
AcDbSpline
 62
7
  6
CONTINUOUS
 70
0
 71
3
 72
28
 73
24
 74
0
 42
0.0000001
 43
0.0000001
 44
0.0000000001
 40
0.0
 40
0.0
 40
0.0
 40
0.0
 40
0.0629310968
 40
0.0944012431
 40
0.1258632502
 40
0.188748295
 40
0.2515891357
 40
0.2829965995
 40
0.3143883845
 40
0.3771039162
 40
0.4397428425
 40
0.50229919
 40
0.5647695389
 40
0.6271533477
 40
0.6583215208
 40
0.6894691445
 40
0.7205969488
 40
0.7517058154
 40
0.8138547786
 40
0.8759423552
 40
0.9069750474
 40
0.9379971017
 40
1.0
 40
1.0
 40
1.0
 40
1.0
 10
4.635286741
 20
2.3613976076
 30
0.0
 10
4.6276772137
 20
2.3613976076
 30
0.0
 10
4.616253752
 20
2.3619085163
 30
0.0
 10
4.6011259514
 20
2.3636064145
 30
0.0
 10
4.5860936091
 20
2.3659778987
 30
0.0
 10
4.5675335027
 20
2.3701978223
 30
0.0
 10
4.5494315742
 20
2.3760597732
 30
0.0
 10
4.5353216897
 20
2.3817033932
 30
0.0
 10
4.5214931523
 20
2.3879681487
 30
0.0
 10
4.504770282
 20
2.3969479663
 30
0.0
 10
4.4857756466
 20
2.4094721862
 30
0.0
 10
4.4680106775
 20
2.4236414232
 30
0.0
 10
4.4516234364
 20
2.4393376306
 30
0.0
 10
4.439220839
 20
2.4535915379
 30
0.0
 10
4.4301202705
 20
2.4656194092
 30
0.0
 10
4.4237184369
 20
2.4749348226
 30
0.0
 10
4.4177521962
 20
2.4845265985
 30
0.0
 10
4.4103982907
 20
2.4976517229
 30
0.0
 10
4.4023500408
 20
2.5146553788
 30
0.0
 10
4.3958978202
 20
2.5323165363
 30
0.0
 10
4.3917290105
 20
2.5467421934
 30
0.0
 10
4.3882303209
 20
2.5613331918
 30
0.0
 10
4.386364768
 20
2.5724470838
 30
0.0
 10
4.3854656827
 20
2.5798902699
 30
0.0
  0
SPLINE
  5
2B1
100
AcDbEntity
  8
0
100
AcDbSpline
 62
7
  6
CONTINUOUS
 70
0
 71
3
 72
28
 73
24
 74
0
 42
0.0000001
 43
0.0000001
 44
0.0000000001
 40
0.0
 40
0.0
 40
0.0
 40
0.0
 40
0.0303553434
 40
0.0605271584
 40
0.0905393455
 40
0.1204186252
 40
0.1501942945
 40
0.1798976174
 40
0.209561191
 40
0.2392184738
 40
0.2689029442
 40
0.298647628
 40
0.3584060626
 40
0.4187623419
 40
0.4799009785
 40
0.5419487922
 40
0.6049720897
 40
0.6689759803
 40
0.733904991
 40
0.799647644
 40
0.8660455979
 40
0.9329032624
 40
1.0
 40
1.0
 40
1.0
 40
1.0
 10
4.7302885879
 20
5.4244622632
 30
0.0
 10
4.7312665699
 20
5.426226634
 30
0.0
 10
4.7330981058
 20
5.4298120058
 30
0.0
 10
4.735461456
 20
5.4353502828
 30
0.0
 10
4.7374234579
 20
5.4410100379
 30
0.0
 10
4.7389755438
 20
5.4467683811
 30
0.0
 10
4.7401118675
 20
5.4526021348
 30
0.0
 10
4.7408275022
 20
5.4584878778
 30
0.0
 10
4.7411196925
 20
5.4644019216
 30
0.0
 10
4.7409873016
 20
5.4703203801
 30
0.0
 10
4.7404305416
 20
5.4762197609
 30
0.0
 10
4.7391247018
 20
5.4840377291
 30
0.0
 10
4.7364352505
 20
5.4936644166
 30
0.0
 10
4.7315904701
 20
5.5047335384
 30
0.0
 10
4.72520257
 20
5.5151683101
 30
0.0
 10
4.717377333
 20
5.5248002604
 30
0.0
 10
4.7082426502
 20
5.5334771477
 30
0.0
 10
4.6979462888
 20
5.5410624035
 30
0.0
 10
4.6866533077
 20
5.5474373202
 30
0.0
 10
4.6745439591
 20
5.5525022392
 30
0.0
 10
4.6618102039
 20
5.5561779339
 30
0.0
 10
4.648656345
 20
5.5584067895
 30
0.0
 10
4.6397462342
 20
5.5589044219
 30
0.0
 10
4.6352872671
 20
5.5589044219
 30
0.0
  0
SPLINE
  5
2B2
100
AcDbEntity
  8
0
100
AcDbSpline
 62
7
  6
CONTINUOUS
 70
0
 71
3
 72
28
 73
24
 74
0
 42
0.0000001
 43
0.0000001
 44
0.0000000001
 40
0.0
 40
0.0
 40
0.0
 40
0.0
 40
0.0670982309
 40
0.1339569955
 40
0.200355607
 40
0.2660984767
 40
0.3310272533
 40
0.3950304444
 40
0.4580523116
 40
0.5200985512
 40
0.5812362096
 40
0.6415926361
 40
0.7013516861
 40
0.7310965279
 40
0.7607810766
 40
0.7904384311
 40
0.8201020889
 40
0.8498055032
 40
0.8795812548
 40
0.9094605881
 40
0.9394728134
 40
0.9696446475
 40
1.0
 40
1.0
 40
1.0
 40
1.0
 10
4.6352872671
 20
5.5589044219
 30
0.0
 10
4.6308282696
 20
5.5589044219
 30
0.0
 10
4.6219181239
 20
5.5584067855
 30
0.0
 10
4.6087642567
 20
5.5561779162
 30
0.0
 10
4.5960305754
 20
5.5525022317
 30
0.0
 10
4.5839213728
 20
5.5474373812
 30
0.0
 10
4.5726285938
 20
5.5410626135
 30
0.0
 10
4.5623324822
 20
5.5334776209
 30
0.0
 10
4.5531980323
 20
5.5248011336
 30
0.0
 10
4.5453729423
 20
5.5151696572
 30
0.0
 10
4.5389850004
 20
5.5047353247
 30
0.0
 10
4.5341400292
 20
5.4936665059
 30
0.0
 10
4.5314503583
 20
5.4840399788
 30
0.0
 10
4.5301442935
 20
5.4762221145
 30
0.0
 10
4.5295873892
 20
5.4703228193
 30
0.0
 10
4.5294547968
 20
5.4644044413
 30
0.0
 10
4.5297468254
 20
5.4584904647
 30
0.0
 10
4.5304622415
 20
5.4526047706
 30
0.0
 10
4.5315983777
 20
5.4467710582
 30
0.0
 10
4.533150244
 20
5.4410127399
 30
0.0
 10
4.5351120296
 20
5.4353529997
 30
0.0
 10
4.5374751615
 20
5.4298147262
 30
0.0
 10
4.5393065426
 20
5.4262293433
 30
0.0
 10
4.540284447
 20
5.4244649644
 30
0.0
  0
ENDSEC
  0
SECTION
  2
OBJECTS
  0
DICTIONARY
  5
C
100
AcDbDictionary
280
0
281
1
  3
ACAD_GROUP
350
D
  3
ACAD_MLINESTYLE
350
17
  3
ACAD_LAYOUT
350
1A
  3
ACAD_PLOTSETTINGS
350
19
  3
ACAD_PLOTSTYLENAME
350
E
  0
DICTIONARY
  5
D
102
{ACAD_REACTORS
330
C
102
}
100
AcDbDictionary
280
0
281
1
  0
ACDBDICTIONARYWDFLT
  5
E
102
{ACAD_REACTORS
330
C
102
}
100
AcDbDictionary
281
1
  3
Normal
350
F
100
AcDbDictionaryWithDefault
340
F
  0
DICTIONARY
  5
17
102
{ACAD_REACTORS
330
C
102
}
100
AcDbDictionary
280
0
281
1
  3
Standard
350
18
  0
DICTIONARY
  5
19
102
{ACAD_REACTORS
330
C
102
}
100
AcDbDictionary
281
1
  0
DICTIONARY
  5
1A
102
{ACAD_REACTORS
330
C
102
}
100
AcDbDictionary
281
1
  3
Model
350
2B3
  3
Layout1
350
2B4
  0
ACDBPLACEHOLDER
  5
F
102
{ACAD_REACTORS
330
E
102
}
  0
MLINESTYLE
  5
18
102
{ACAD_REACTORS
330
17
102
}
100
AcDbMlineStyle
  2
STANDARD
 70
0
  3

 62
256
 51
90.0
 52
90.0
 71
2
 49
0.5
 62
256
  6
BYLAYER
 49
-0.5
 62
256
  6
BYLAYER
  0
LAYOUT
  5
2B3
102
{ACAD_REACTORS
330
1A
102
}
100
AcDbPlotSettings
  1

  2
none_device
  4
ANSI_A_(11.00_x_8.50_Inches)
  6

 40
0.0
 41
0.0
 42
0.0
 43
0.0
 44
279.4
 45
215.9
 46
0.0
 47
0.0
 48
0.0
 49
0.0
140
0.0
141
0.0
142
1.0
143
1.0
 70
1024
 72
0
 73
0
 74
0
  7

 75
0
147
1.0
148
0.0
149
0.0
100
AcDbLayout
  1
Model
 70
0
 71
0
 10
0.0
 20
0.0
 11
11.0
 21
8.5
 12
0.0
 22
0.0
 32
0.0
 14
0.0
 24
0.0
 34
0.0
 15
0.0
 25
0.0
 35
0.0
146
0.0
 13
0.0
 23
0.0
 33
0.0
 16
1.0
 26
0.0
 36
0.0
 17
0.0
 27
1.0
 37
0.0
 76
0
330
202
345
0
346
0
  0
LAYOUT
  5
2B4
102
{ACAD_REACTORS
330
1A
102
}
100
AcDbPlotSettings
  1

  2
none_device
  4
ANSI_A_(11.00_x_8.50_Inches)
  6

 40
0.0
 41
0.0
 42
0.0
 43
0.0
 44
279.4
 45
215.9
 46
0.0
 47
0.0
 48
0.0
 49
0.0
140
0.0
141
0.0
142
1.0
143
1.0
 70
0
 72
0
 73
0
 74
0
  7

 75
0
147
1.0
148
0.0
149
0.0
100
AcDbLayout
  1
Layout1
 70
0
 71
1
 10
0.0
 20
0.0
 11
11.0
 21
8.5
 12
0.0
 22
0.0
 32
0.0
 14
0.0
 24
0.0
 34
0.0
 15
0.0
 25
0.0
 35
0.0
146
0.0
 13
0.0
 23
0.0
 33
0.0
 16
1.0
 26
0.0
 36
0.0
 17
0.0
 27
1.0
 37
0.0
 76
0
330
203
345
0
346
0
  0
ENDSEC
  0
EOF
