999
DXF file: E:\BT Custom\CADOUTPUT\_TOP.dxf
999
Pro/ENGINEER 2018400 by Parametric Technology Corporation
  0
SECTION
  2
HEADER
  9
$ACADVER
  1
AC1018
  9
$DWGCODEPAGE
  3
ANSI_1252
  9
$EXTMAX
 10
22.0
 20
17.0
 30
0.0
  9
$EXTMIN
 10
0.0
 20
0.0
 30
0.0
  9
$LIMMIN
 10
0.0
 20
0.0
  9
$LIMMAX
 10
22.0
 20
17.0
  9
$VIEWCTR
 10
11.0
 20
8.5
  9
$VIEWSIZE
 40
17.0
  9
$CLAYER
  8
0
  9
$LTSCALE
 40
1.21
  9
$CELTYPE
  6
BYLAYER
  9
$DIMSCALE
 40
1.0
  9
$DIMASZ
 40
0.1
  9
$DIMEXO
 40
0.0625
  9
$DIMDLI
 40
0.836
  9
$DIMEXE
 40
0.125
  9
$DIMCEN
 40
0.198
  9
$DIMLFAC
 40
1.0
  9
$DIMBLK
  1
_FILLED
  9
$DIMALT
 70
1
  9
$DIMALTD
 70
2
  9
$DIMALTTD
 70
2
  9
$DIMALTF
 40
25.4
  9
$DIMTXT
 40
0.08
  9
$DIMTOL
 70
1
  9
$DIMLIM
 70
0
  9
$DIMTFAC
 40
1.0
  9
$DIMTP
 40
0.001
  9
$DIMTM
 40
0.001
  9
$DIMGAP
 40
0.09
  9
$DIMDSEP
 70
46
  9
$AUNITS
 70
0
  9
$PDMODE
 70
3
  9
$PDSIZE
 40
0.06
  9
$HANDSEED
  5
3EF
  9
$TILEMODE
 70
1
  9
$MEASUREMENT
 70
0
  9
$INSUNITS
 70
1
  0
ENDSEC
  0
SECTION
  2
CLASSES
  0
CLASS
  1
ACDBDICTIONARYWDFLT
  2
AcDbDictionaryWithDefault
  3
AutoCAD 2000
 90
0
 91
1
280
0
281
0
  0
CLASS
  1
ACDBPLACEHOLDER
  2
AcDbPlaceHolder
  3
AutoCAD 2000
 90
0
 91
1
280
0
281
0
  0
CLASS
  1
LAYOUT
  2
AcDbLayout
  3
AutoCAD 2000
 90
0
 91
0
280
0
281
0
  0
ENDSEC
  0
SECTION
  2
TABLES
  0
TABLE
  2
VPORT
  5
8
100
AcDbSymbolTable
 70
2
  0
VPORT
  5
1F4
100
AcDbSymbolTableRecord
100
AcDbViewportTableRecord
  2
*ACTIVE
 70
0
 10
0.0
 20
0.0
 11
1.0
 21
1.0
 12
11.0
 22
8.5
 13
0.0
 23
0.0
 14
1.0
 24
1.0
 15
0.0
 25
0.0
 16
0.0
 26
0.0
 36
1.0
 17
0.0
 27
0.0
 37
0.0
 40
17.0
 41
1.2941176471
 42
50.0
 43
0.0
 44
0.0
 50
0.0
 51
0.0
 71
0
 72
100
 73
1
 74
1
 75
0
 76
0
 77
0
 78
0
  0
ENDTAB
  0
TABLE
  2
LTYPE
  5
5
100
AcDbSymbolTable
 70
6
  0
LTYPE
  5
14
100
AcDbSymbolTableRecord
100
AcDbLinetypeTableRecord
  2
BYBLOCK
 70
0
  3

 72
65
 73
0
 40
0.0
  0
LTYPE
  5
15
100
AcDbSymbolTableRecord
100
AcDbLinetypeTableRecord
  2
BYLAYER
 70
0
  3

 72
65
 73
0
 40
0.0
  0
LTYPE
  5
16
100
AcDbSymbolTableRecord
100
AcDbLinetypeTableRecord
  2
CONTINUOUS
 70
64
  3
Solid line
 72
65
 73
0
 40
0.0
  0
LTYPE
  5
1F5
100
AcDbSymbolTableRecord
100
AcDbLinetypeTableRecord
  2
CENTER
 70
64
  3
____ _ ____ _ ____ _ ____ _ ____ _ ____ _ ____
 72
65
 73
4
 40
0.6
 49
0.375
 74
0
 49
-0.075
 74
0
 49
0.075
 74
0
 49
-0.075
 74
0
  0
LTYPE
  5
1F6
100
AcDbSymbolTableRecord
100
AcDbLinetypeTableRecord
  2
HIDDEN
 70
64
  3
- - - - - - - - - - - - - - - - - - - -
 72
65
 73
2
 40
0.2
 49
0.1
 74
0
 49
-0.1
 74
0
  0
LTYPE
  5
1F7
100
AcDbSymbolTableRecord
100
AcDbLinetypeTableRecord
  2
PHANTOM
 70
64
  3
_____ _ _ _____ _ _ _____ _ _ _____
 72
65
 73
6
 40
0.8
 49
0.45
 74
0
 49
-0.05
 74
0
 49
0.1
 74
0
 49
-0.05
 74
0
 49
0.1
 74
0
 49
-0.05
 74
0
  0
LTYPE
  5
1F8
100
AcDbSymbolTableRecord
100
AcDbLinetypeTableRecord
  2
DOT
 70
64
  3
. . . . . . . . . . . . . . . . . . . .
 72
65
 73
2
 40
0.2
 49
0.1
 74
0
 49
-0.1
 74
0
  0
LTYPE
  5
1F9
100
AcDbSymbolTableRecord
100
AcDbLinetypeTableRecord
  2
DASHED
 70
64
  3
- - - - - - - - - - - - - - - - - - - -
 72
65
 73
2
 40
0.2
 49
0.1
 74
0
 49
-0.1
 74
0
  0
ENDTAB
  0
TABLE
  2
LAYER
  5
2
100
AcDbSymbolTable
 70
36
  0
LAYER
  5
10
100
AcDbSymbolTableRecord
100
AcDbLayerTableRecord
  2
0
 70
0
 62
7
  6
CONTINUOUS
370
-3
390
F
  0
LAYER
  5
1FA
100
AcDbSymbolTableRecord
100
AcDbLayerTableRecord
  2
DEFAULT_1
 70
0
 62
7
  6
CENTER
370
-3
390
F
  0
LAYER
  5
1FB
100
AcDbSymbolTableRecord
100
AcDbLayerTableRecord
  2
DEFAULT_2
 70
0
 62
8
  6
HIDDEN
370
-3
390
F
  0
LAYER
  5
1FC
100
AcDbSymbolTableRecord
100
AcDbLayerTableRecord
  2
DEFAULT_3
 70
0
 62
7
  6
PHANTOM
370
-3
390
F
  0
LAYER
  5
1FD
100
AcDbSymbolTableRecord
100
AcDbLayerTableRecord
  2
ALL_FEATURES
 70
0
 62
7
  6
CONTINUOUS
370
-3
390
F
  0
LAYER
  5
1FE
100
AcDbSymbolTableRecord
100
AcDbLayerTableRecord
  2
AXES_FEATURES
 70
0
 62
7
  6
CONTINUOUS
370
-3
390
F
  0
LAYER
  5
1FF
100
AcDbSymbolTableRecord
100
AcDbLayerTableRecord
  2
DIMENSIONS
 70
0
 62
7
  6
CONTINUOUS
370
-3
390
F
  0
ENDTAB
  0
TABLE
  2
STYLE
  5
3
100
AcDbSymbolTable
 70
1
  0
STYLE
  5
11
100
AcDbSymbolTableRecord
100
AcDbTextStyleTableRecord
  2
STANDARD
 70
0
 40
0.0
 41
0.8
 50
0.0
 71
0
 42
0.2
  3
txt
  4

  0
STYLE
  5
200
100
AcDbSymbolTableRecord
100
AcDbTextStyleTableRecord
  2
TEXTSTYLE_1
 70
0
 40
0.0
 41
0.8
 50
0.0
 71
0
 42
0.2
  3
gdt
  4

  0
ENDTAB
  0
TABLE
  2
VIEW
  5
6
100
AcDbSymbolTable
 70
0
  0
ENDTAB
  0
TABLE
  2
UCS
  5
7
100
AcDbSymbolTable
 70
0
  0
ENDTAB
  0
TABLE
  2
APPID
  5
9
100
AcDbSymbolTable
 70
1
  0
APPID
  5
201
100
AcDbSymbolTableRecord
100
AcDbRegAppTableRecord
  2
ACAD
 70
0
  0
ENDTAB
  0
TABLE
  2
BLOCK_RECORD
  5
1
100
AcDbSymbolTable
 70
0
  0
BLOCK_RECORD
  5
202
100
AcDbSymbolTableRecord
100
AcDbBlockTableRecord
  2
*Model_Space
  0
BLOCK_RECORD
  5
203
100
AcDbSymbolTableRecord
100
AcDbBlockTableRecord
  2
*Paper_Space
  0
BLOCK_RECORD
  5
204
100
AcDbSymbolTableRecord
100
AcDbBlockTableRecord
  2
_FILLED
  0
ENDTAB
  0
TABLE
  2
DIMSTYLE
  5
A
100
AcDbSymbolTable
 70
1
100
AcDbDimStyleTable
 71
0
  0
DIMSTYLE
105
205
100
AcDbSymbolTableRecord
100
AcDbDimStyleTableRecord
  2
STANDARD
 70
0
  3

  4

 40
1.0
 41
0.1
 42
0.0625
 43
0.38
 44
0.125
 45
0.0
 46
0.0
 47
0.001
 48
0.001
140
0.08
141
0.09
142
0.0
143
25.4
144
1.0
145
0.0
146
1.0
147
0.09
 71
1.0
 72
0.0
 73
1
 74
1
 75
0
 76
0
 77
0
 78
4
 79
1
170
1
171
2
172
0
173
0
174
0
175
0
176
0
177
0
178
0
270
2
179
3
271
3
272
3
273
2
274
2
275
0
280
0
281
0
282
0
283
1
284
4
285
0
286
0
287
3
288
0
340
11
278
46
341
204
342
204
343
204
344
204
  0
ENDTAB
  0
ENDSEC
  0
SECTION
  2
BLOCKS
  0
BLOCK
  5
20
100
AcDbEntity
  8
0
100
AcDbBlockBegin
  2
*Model_Space
 70
0
 10
0.0
 20
0.0
 30
0.0
  3
*Model_Space
  1

  0
ENDBLK
  5
21
100
AcDbEntity
  8
0
100
AcDbBlockEnd
  0
BLOCK
  5
1C
100
AcDbEntity
  8
0
100
AcDbBlockBegin
  2
*Paper_Space
 70
0
 10
0.0
 20
0.0
 30
0.0
  3
*Paper_Space
  1

  0
ENDBLK
  5
1D
100
AcDbEntity
  8
0
100
AcDbBlockEnd
  0
BLOCK
  5
206
100
AcDbEntity
  8
0
100
AcDbBlockBegin
  2
_FILLED
 70
64
 10
0.0
 20
0.0
  3
_FILLED
  1

  0
SOLID
  5
207
100
AcDbEntity
  8
0
  6
BYBLOCK
 62
0
100
AcDbTrace
 10
0.0
 20
0.0
 11
-1.0
 21
0.2
 12
-1.0
 22
-0.2
 13
-1.0
 23
-0.2
  0
ENDBLK
  5
208
100
AcDbEntity
  8
0
  6
BYBLOCK
 62
0
100
AcDbBlockEnd
  0
ENDSEC
  0
SECTION
  2
ENTITIES
  0
LINE
  5
209
100
AcDbEntity
  8
0
100
AcDbLine
 62
9
  6
CONTINUOUS
 10
6.4819867016
 20
10.9359998593
 11
6.1634113207
 21
10.6174244784
  0
LINE
  5
20A
100
AcDbEntity
  8
0
100
AcDbLine
 62
9
  6
CONTINUOUS
 10
6.2621013469
 20
10.600022764
 11
6.499388416
 21
10.8373098331
  0
LINE
  5
20B
100
AcDbEntity
  8
0
100
AcDbLine
 62
7
  6
CONTINUOUS
 10
6.5322531683
 20
10.8345686152
 11
6.2648425648
 21
10.5671580117
  0
LINE
  5
20C
100
AcDbEntity
  8
0
100
AcDbLine
 62
9
  6
CONTINUOUS
 10
6.2811298619
 20
10.5482834927
 11
6.5511276873
 21
10.8182813181
  0
LINE
  5
20D
100
AcDbEntity
  8
0
100
AcDbLine
 62
7
  6
CONTINUOUS
 10
6.2892580864
 20
10.0520939703
 11
6.5045085709
 21
10.4249187457
  0
LINE
  5
20E
100
AcDbEntity
  8
0
100
AcDbLine
 62
7
  6
CONTINUOUS
 10
6.6245674523
 20
10.6328668282
 11
6.6682871351
 21
10.7085915401
  0
LINE
  5
20F
100
AcDbEntity
  8
0
100
AcDbLine
 62
9
  6
CONTINUOUS
 10
6.5397260165
 20
10.2956827031
 11
6.5531445676
 21
10.3091012543
  0
LINE
  5
210
100
AcDbEntity
  8
0
100
AcDbLine
 62
9
  6
CONTINUOUS
 10
6.7894146909
 20
10.5453713775
 11
6.8037284769
 21
10.5596851635
  0
LINE
  5
211
100
AcDbEntity
  8
0
100
AcDbLine
 62
7
  6
CONTINUOUS
 10
6.499388416
 20
9.2668758504
 11
6.4819867016
 21
9.1681858241
  0
LINE
  5
212
100
AcDbEntity
  8
0
100
AcDbLine
 62
7
  6
CONTINUOUS
 10
7.164698064
 20
10.2882665066
 11
7.05792494
 21
10.1814933827
  0
LINE
  5
213
100
AcDbEntity
  8
0
100
AcDbLine
 62
7
  6
CONTINUOUS
 10
6.915796477
 20
10.0393649197
 11
6.864177682
 21
9.9877461246
  0
LINE
  5
214
100
AcDbEntity
  8
0
100
AcDbLine
 62
7
  6
CONTINUOUS
 10
6.8521568667
 20
9.9757253093
 11
6.8005380716
 21
9.9241065143
  0
LINE
  5
215
100
AcDbEntity
  8
0
100
AcDbLine
 62
7
  6
CONTINUOUS
 10
7.0908741824
 20
10.1891282023
 11
7.109119471
 21
10.2073734909
  0
LINE
  5
216
100
AcDbEntity
  8
0
100
AcDbLine
 62
7
  6
CONTINUOUS
 10
7.1388179558
 20
10.2370719757
 11
7.1570632443
 21
10.2553172642
  0
LINE
  5
217
100
AcDbEntity
  8
0
100
AcDbLine
 62
7
  6
CONTINUOUS
 10
6.9207068921
 20
9.9446519433
 11
6.895251048
 21
9.9191960992
  0
LINE
  5
218
100
AcDbEntity
  8
0
100
AcDbLine
 62
7
  6
CONTINUOUS
 10
6.9069576422
 20
9.9060752914
 11
6.9338276999
 21
9.9329453491
  0
LINE
  5
219
100
AcDbEntity
  8
0
100
AcDbLine
 62
7
  6
CONTINUOUS
 10
6.9200391177
 20
9.8046054683
 11
6.9716579127
 21
9.8562242633
  0
LINE
  5
21A
100
AcDbEntity
  8
0
100
AcDbLine
 62
7
  6
CONTINUOUS
 10
6.983678728
 20
9.8682450786
 11
7.035297523
 21
9.9198638736
  0
LINE
  5
21B
100
AcDbEntity
  8
0
100
AcDbLine
 62
7
  6
CONTINUOUS
 10
7.2050031505
 20
10.0895695011
 11
7.2566219455
 21
10.1411882961
  0
LINE
  5
21C
100
AcDbEntity
  8
0
100
AcDbLine
 62
7
  6
CONTINUOUS
 10
7.1862752284
 20
10.2674172642
 11
7.1862752284
 21
10.2794172642
  0
LINE
  5
21D
100
AcDbEntity
  8
0
100
AcDbLine
 62
7
  6
CONTINUOUS
 10
7.5952482606
 20
10.8373098331
 11
7.612649975
 21
10.9359998593
  0
LINE
  5
21E
100
AcDbEntity
  8
0
100
AcDbLine
 62
7
  6
CONTINUOUS
 10
7.8053784061
 20
10.0520913944
 11
7.5901281057
 21
9.6792669377
  0
LINE
  5
21F
100
AcDbEntity
  8
0
100
AcDbLine
 62
7
  6
CONTINUOUS
 10
7.4700692243
 20
9.4713188552
 11
7.4263495415
 21
9.3955941434
  0
LINE
  5
220
100
AcDbEntity
  8
0
100
AcDbLine
 62
9
  6
CONTINUOUS
 10
7.5549106601
 20
9.8085029803
 11
7.54149212
 21
9.7950844402
  0
LINE
  5
221
100
AcDbEntity
  8
0
100
AcDbLine
 62
9
  6
CONTINUOUS
 10
7.3052220052
 20
9.5588143255
 11
7.2909081997
 21
9.5445005199
  0
LINE
  5
222
100
AcDbEntity
  8
0
100
AcDbLine
 62
7
  6
CONTINUOUS
 10
6.499388416
 20
10.8373098331
 11
6.4819867016
 21
10.9359998593
  0
LINE
  5
223
100
AcDbEntity
  8
0
100
AcDbLine
 62
9
  6
CONTINUOUS
 10
7.5435089893
 20
9.2859043653
 11
7.8135068147
 21
9.5559021907
  0
LINE
  5
224
100
AcDbEntity
  8
0
100
AcDbLine
 62
7
  6
CONTINUOUS
 10
7.5623835083
 20
9.2696170683
 11
7.8297941117
 21
9.5370276717
  0
LINE
  5
225
100
AcDbEntity
  8
0
100
AcDbLine
 62
9
  6
CONTINUOUS
 10
7.8325353296
 20
9.5041629194
 11
7.5952482606
 21
9.2668758504
  0
LINE
  5
226
100
AcDbEntity
  8
0
100
AcDbLine
 62
9
  6
CONTINUOUS
 10
7.612649975
 20
9.1681858241
 11
7.9312253559
 21
9.486761205
  0
LINE
  5
227
100
AcDbEntity
  8
0
100
AcDbLine
 62
7
  6
CONTINUOUS
 10
7.5952482606
 20
9.2668758504
 11
7.612649975
 21
9.1681858241
  0
LINE
  5
228
100
AcDbEntity
  8
0
100
AcDbLine
 62
7
  6
CONTINUOUS
 10
6.6682871352
 20
9.3955941431
 11
6.6244877344
 21
9.4714569306
  0
LINE
  5
229
100
AcDbEntity
  8
0
100
AcDbLine
 62
7
  6
CONTINUOUS
 10
6.5045005862
 20
9.6792807676
 11
6.2892580864
 21
10.0520917131
  0
LINE
  5
22A
100
AcDbEntity
  8
0
100
AcDbLine
 62
7
  6
CONTINUOUS
 10
7.05792494
 20
10.1814933827
 11
7.0667741824
 21
10.1599162182
  0
LINE
  5
22B
100
AcDbEntity
  8
0
100
AcDbLine
 62
9
  6
CONTINUOUS
 10
9.867779265
 20
10.0850712372
 11
10.4289886733
 21
11.0571144462
  0
LINE
  5
22C
100
AcDbEntity
  8
0
100
AcDbLine
 62
9
  6
CONTINUOUS
 10
10.353815716
 20
10.0520927024
 11
10.7005671477
 21
10.6526837999
  0
LINE
  5
22D
100
AcDbEntity
  8
0
100
AcDbLine
 62
7
  6
CONTINUOUS
 10
10.3779182085
 20
10.0520928417
 11
10.7126182734
 21
10.6318103595
  0
LINE
  5
22E
100
AcDbEntity
  8
0
100
AcDbLine
 62
9
  6
CONTINUOUS
 10
6.1634113207
 20
9.486761205
 11
6.4819867016
 21
9.1681858241
  0
LINE
  5
22F
100
AcDbEntity
  8
0
100
AcDbLine
 62
9
  6
CONTINUOUS
 10
6.499388416
 20
9.2668758504
 11
6.2621013469
 21
9.5041629194
  0
LINE
  5
230
100
AcDbEntity
  8
0
100
AcDbLine
 62
7
  6
CONTINUOUS
 10
6.2648404162
 20
9.5370298203
 11
6.5322553169
 21
9.2696149196
  0
LINE
  5
231
100
AcDbEntity
  8
0
100
AcDbLine
 62
9
  6
CONTINUOUS
 10
6.2811298619
 20
9.5559021907
 11
6.5511276873
 21
9.2859043653
  0
LINE
  5
232
100
AcDbEntity
  8
0
100
AcDbLine
 62
9
  6
CONTINUOUS
 10
6.8037284769
 20
9.5445005199
 11
6.7893978748
 21
9.558831122
  0
LINE
  5
233
100
AcDbEntity
  8
0
100
AcDbLine
 62
9
  6
CONTINUOUS
 10
6.5541510736
 20
9.7940779233
 11
6.5397260165
 21
9.8085029803
  0
LINE
  5
234
100
AcDbEntity
  8
0
100
AcDbLine
 62
7
  6
CONTINUOUS
 10
6.8005380716
 20
9.9241065143
 11
6.8132659937
 21
9.9113785923
  0
LINE
  5
235
100
AcDbEntity
  8
0
100
AcDbLine
 62
7
  6
CONTINUOUS
 10
6.9030685549
 20
9.8215760311
 11
6.9200391177
 21
9.8046054683
  0
LINE
  5
236
100
AcDbEntity
  8
0
100
AcDbLine
 62
7
  6
CONTINUOUS
 10
6.8410538945
 20
9.9069252152
 11
6.8986151779
 21
9.8493639319
  0
LINE
  5
237
100
AcDbEntity
  8
0
100
AcDbLine
 62
7
  6
CONTINUOUS
 10
7.4263494697
 20
10.7085916644
 11
7.4701489421
 21
10.6327287529
  0
LINE
  5
238
100
AcDbEntity
  8
0
100
AcDbLine
 62
7
  6
CONTINUOUS
 10
7.5901360904
 20
10.4249049158
 11
7.8053784061
 21
10.0520942891
  0
LINE
  5
239
100
AcDbEntity
  8
0
100
AcDbLine
 62
7
  6
CONTINUOUS
 10
6.9268994491
 20
9.8776482031
 11
6.9069576422
 21
9.89759001
  0
LINE
  5
23A
100
AcDbEntity
  8
0
100
AcDbLine
 62
7
  6
CONTINUOUS
 10
6.8867657666
 20
9.9191960992
 11
6.8697952039
 21
9.9361666619
  0
LINE
  5
23B
100
AcDbEntity
  8
0
100
AcDbLine
 62
7
  6
CONTINUOUS
 10
6.9716579127
 20
9.8562242633
 11
6.9546873499
 21
9.8731948261
  0
LINE
  5
23C
100
AcDbEntity
  8
0
100
AcDbLine
 62
7
  6
CONTINUOUS
 10
6.8648847887
 20
9.9629973873
 11
6.8521568667
 21
9.9757253093
  0
LINE
  5
23D
100
AcDbEntity
  8
0
100
AcDbLine
 62
7
  6
CONTINUOUS
 10
6.864177682
 20
9.9877461246
 11
6.876905604
 21
9.9750182026
  0
LINE
  5
23E
100
AcDbEntity
  8
0
100
AcDbLine
 62
7
  6
CONTINUOUS
 10
6.9667081652
 20
9.8852156414
 11
6.983678728
 21
9.8682450786
  0
LINE
  5
23F
100
AcDbEntity
  8
0
100
AcDbLine
 62
7
  6
CONTINUOUS
 10
6.9037363294
 20
9.9701077874
 11
6.9207068921
 21
9.9531372247
  0
LINE
  5
240
100
AcDbEntity
  8
0
100
AcDbLine
 62
7
  6
CONTINUOUS
 10
6.9423129813
 20
9.9329453491
 11
6.9622547882
 21
9.9130035422
  0
LINE
  5
241
100
AcDbEntity
  8
0
100
AcDbLine
 62
7
  6
CONTINUOUS
 10
6.9905390594
 20
9.9412878134
 11
6.9329777761
 21
9.9988490968
  0
LINE
  5
242
100
AcDbEntity
  8
0
100
AcDbLine
 62
7
  6
CONTINUOUS
 10
7.035297523
 20
9.9198638736
 11
7.0183269603
 21
9.9368344364
  0
LINE
  5
243
100
AcDbEntity
  8
0
100
AcDbLine
 62
7
  6
CONTINUOUS
 10
6.928524399
 20
10.0266369976
 11
6.915796477
 21
10.0393649197
  0
LINE
  5
244
100
AcDbEntity
  8
0
100
AcDbLine
 62
7
  6
CONTINUOUS
 10
7.1880325877
 20
10.1065400639
 11
7.2050031505
 21
10.0895695011
  0
LINE
  5
245
100
AcDbEntity
  8
0
100
AcDbLine
 62
7
  6
CONTINUOUS
 10
7.1133621116
 20
10.2073734909
 11
7.1788682771
 21
10.1418673254
  0
LINE
  5
246
100
AcDbEntity
  8
0
100
AcDbLine
 62
7
  6
CONTINUOUS
 10
7.2043241212
 20
10.1673231696
 11
7.1388179558
 21
10.232829335
  0
LINE
  5
247
100
AcDbEntity
  8
0
100
AcDbLine
 62
7
  6
CONTINUOUS
 10
7.2566219455
 20
10.1411882961
 11
7.2396513828
 21
10.1581588589
  0
LINE
  5
248
100
AcDbEntity
  8
0
100
AcDbLine
 62
7
  6
CONTINUOUS
 10
10.477293724
 20
4.6927418742
 11
10.4740484288
 21
4.3927362159
  0
LWPOLYLINE
  5
249
100
AcDbEntity
  8
0
100
AcDbPolyline
 62
7
  6
CONTINUOUS
 90
4
 70
0
 10
10.4761220011
 20
4.5844241795
 10
10.475154887
 20
4.5392232186
 10
10.471914347
 20
4.4822087534
 10
10.4682899631
 20
4.4497482763
  0
LINE
  5
24A
100
AcDbEntity
  8
0
100
AcDbLine
 62
7
  6
CONTINUOUS
 10
11.7167184682
 20
10.0520928417
 11
11.4341801442
 21
9.5627221049
  0
LINE
  5
24B
100
AcDbEntity
  8
0
100
AcDbLine
 62
9
  6
CONTINUOUS
 10
11.7408208614
 20
10.052092809
 11
11.621937164
 21
9.8461802049
  0
LINE
  5
24C
100
AcDbEntity
  8
0
100
AcDbLine
 62
9
  6
CONTINUOUS
 10
7.2909081997
 20
10.5596851635
 11
7.3052388261
 21
10.5453545371
  0
LINE
  5
24D
100
AcDbEntity
  8
0
100
AcDbLine
 62
9
  6
CONTINUOUS
 10
7.5404855695
 20
10.3101077937
 11
7.5549106601
 21
10.2956827031
  0
LINE
  5
24E
100
AcDbEntity
  8
0
100
AcDbLine
 62
9
  6
CONTINUOUS
 10
11.0473183386
 20
3.8122783873
 11
11.0472983855
 21
4.3625292805
  0
LINE
  5
24F
100
AcDbEntity
  8
0
100
AcDbLine
 62
9
  6
CONTINUOUS
 10
11.0473186122
 20
9.1123225965
 11
11.047318591
 21
6.8804250973
  0
LINE
  5
250
100
AcDbEntity
  8
0
100
AcDbLine
 62
9
  6
CONTINUOUS
 10
11.0473183386
 20
3.7325724163
 11
11.0473183386
 21
3.8122783873
  0
LINE
  5
251
100
AcDbEntity
  8
0
100
AcDbLine
 62
9
  6
CONTINUOUS
 10
11.047365737
 20
9.472375324
 11
11.0473186124
 21
9.1123225965
  0
LWPOLYLINE
  5
252
100
AcDbEntity
  8
0
100
AcDbPolyline
 62
7
  6
CONTINUOUS
 90
4
 70
0
 10
10.4667904734
 20
4.4347292356
 10
10.4665249256
 20
4.4309522936
 10
10.4653315991
 20
4.415917995
 10
10.464947106
 20
4.4119415957
  0
LINE
  5
253
100
AcDbEntity
  8
0
100
AcDbLine
 62
7
  6
CONTINUOUS
 10
10.4683046133
 20
4.4497703416
 11
10.4667904734
 21
4.4347292356
  0
LINE
  5
254
100
AcDbEntity
  8
0
100
AcDbLine
 62
7
  6
CONTINUOUS
 10
10.4820786217
 20
4.7344299247
 11
10.4772937299
 21
4.6927419446
  0
LINE
  5
255
100
AcDbEntity
  8
0
100
AcDbLine
 62
9
  6
CONTINUOUS
 10
12.2268574116
 20
10.0191144462
 11
11.8982546343
 21
9.4499577403
  0
LINE
  5
256
100
AcDbEntity
  8
0
100
AcDbLine
 62
9
  6
CONTINUOUS
 10
14.4819867016
 20
10.9359998593
 11
14.1634113207
 21
10.6174244784
  0
LINE
  5
257
100
AcDbEntity
  8
0
100
AcDbLine
 62
7
  6
CONTINUOUS
 10
14.9946541969
 20
10.2249651359
 11
14.9497376025
 21
10.193514198
  0
LINE
  5
258
100
AcDbEntity
  8
0
100
AcDbLine
 62
9
  6
CONTINUOUS
 10
7.8135068147
 20
10.5482834927
 11
7.5435089893
 21
10.8182813181
  0
LINE
  5
259
100
AcDbEntity
  8
0
100
AcDbLine
 62
7
  6
CONTINUOUS
 10
7.8297962604
 20
10.5671558631
 11
7.5623813597
 21
10.8345707638
  0
LINE
  5
25A
100
AcDbEntity
  8
0
100
AcDbLine
 62
9
  6
CONTINUOUS
 10
7.5952482606
 20
10.8373098331
 11
7.8325353296
 21
10.600022764
  0
LINE
  5
25B
100
AcDbEntity
  8
0
100
AcDbLine
 62
9
  6
CONTINUOUS
 10
7.9312253559
 20
10.6174244784
 11
7.612649975
 21
10.9359998593
  0
LWPOLYLINE
  5
25C
100
AcDbEntity
  8
0
100
AcDbPolyline
 62
7
  6
CONTINUOUS
 90
4
 70
0
 10
11.6264450438
 20
4.4488570205
 10
11.6227196968
 20
4.4832913122
 10
11.6193947806
 20
4.5423701205
 10
11.6184692015
 20
4.5859858119
  0
LINE
  5
25D
100
AcDbEntity
  8
0
100
AcDbLine
 62
7
  6
CONTINUOUS
 10
11.6264407797
 20
4.4488901337
 11
11.6278459788
 21
4.434662632
  0
LINE
  5
25E
100
AcDbEntity
  8
0
100
AcDbLine
 62
9
  6
CONTINUOUS
 10
14.2621013469
 20
10.600022764
 11
14.499388416
 21
10.8373098331
  0
LINE
  5
25F
100
AcDbEntity
  8
0
100
AcDbLine
 62
7
  6
CONTINUOUS
 10
14.5322553169
 20
10.8345707638
 11
14.2648404162
 21
10.5671558631
  0
LINE
  5
260
100
AcDbEntity
  8
0
100
AcDbLine
 62
9
  6
CONTINUOUS
 10
14.5511276873
 20
10.8182813181
 11
14.2811298619
 21
10.5482834927
  0
LINE
  5
261
100
AcDbEntity
  8
0
100
AcDbLine
 62
9
  6
CONTINUOUS
 10
14.5397260165
 20
10.2956827031
 11
14.5540566429
 21
10.3100133295
  0
LINE
  5
262
100
AcDbEntity
  8
0
100
AcDbLine
 62
9
  6
CONTINUOUS
 10
14.7893033863
 20
10.5452600729
 11
14.8037284769
 21
10.5596851635
  0
LINE
  5
263
100
AcDbEntity
  8
0
100
AcDbLine
 62
9
  6
CONTINUOUS
 10
10.1795831525
 20
9.4790542711
 11
9.867779265
 21
10.0191144461
  0
LWPOLYLINE
  5
264
100
AcDbEntity
  8
0
100
AcDbPolyline
 62
7
  6
CONTINUOUS
 90
5
 70
0
 10
11.6291009491
 20
4.4164423632
 10
11.6296465535
 20
4.412290329
 10
11.629297427
 20
4.4159491057
 10
11.6281100312
 20
4.4309065657
 10
11.6278463032
 20
4.4346595698
  0
LINE
  5
265
100
AcDbEntity
  8
0
100
AcDbLine
 62
7
  6
CONTINUOUS
 10
11.6127906168
 20
4.7322499933
 11
11.6173004627
 21
4.6929031251
  0
LINE
  5
266
100
AcDbEntity
  8
0
100
AcDbLine
 62
7
  6
CONTINUOUS
 10
11.6173004837
 20
4.6929030043
 11
11.6184687152
 21
4.5859852265
  0
LINE
  5
267
100
AcDbEntity
  8
0
100
AcDbLine
 62
7
  6
CONTINUOUS
 10
14.7938205572
 20
10.3062977296
 11
14.7934680499
 21
10.3059431301
  0
LINE
  5
268
100
AcDbEntity
  8
0
100
AcDbLine
 62
7
  6
CONTINUOUS
 10
14.8378154116
 20
10.1767429547
 11
14.9191326914
 21
10.2580602345
  0
LINE
  5
269
100
AcDbEntity
  8
0
100
AcDbLine
 62
7
  6
CONTINUOUS
 10
14.8706296887
 20
10.1582469046
 11
14.9376287414
 21
10.2252459574
  0
LINE
  5
26A
100
AcDbEntity
  8
0
100
AcDbLine
 62
7
  6
CONTINUOUS
 10
14.8535710802
 20
10.1270461605
 11
14.8662990023
 21
10.1397740826
  0
LINE
  5
26B
100
AcDbEntity
  8
0
100
AcDbLine
 62
7
  6
CONTINUOUS
 10
14.9561015635
 20
10.2295766438
 11
14.9730721263
 21
10.2465472065
  0
LINE
  5
26C
100
AcDbEntity
  8
0
100
AcDbLine
 62
9
  6
CONTINUOUS
 10
10.4721155506
 20
9.8471916569
 11
10.353815716
 21
10.0520929809
  0
LINE
  5
26D
100
AcDbEntity
  8
0
100
AcDbLine
 62
7
  6
CONTINUOUS
 10
10.6596302967
 20
9.5641531915
 11
10.3779182085
 21
10.0520928417
  0
LINE
  5
26E
100
AcDbEntity
  8
0
100
AcDbLine
 62
7
  6
CONTINUOUS
 10
14.9377167872
 20
10.0683562977
 11
14.9249888651
 21
10.0556283756
  0
LINE
  5
26F
100
AcDbEntity
  8
0
100
AcDbLine
 62
7
  6
CONTINUOUS
 10
15.0223782262
 20
10.1226121451
 11
14.973263501
 21
10.0734974199
  0
LINE
  5
270
100
AcDbEntity
  8
0
100
AcDbLine
 62
7
  6
CONTINUOUS
 10
14.9987193451
 20
10.0480415758
 11
15.0478340703
 21
10.097156301
  0
LINE
  5
271
100
AcDbEntity
  8
0
100
AcDbLine
 62
7
  6
CONTINUOUS
 10
14.9808503009
 20
9.9997669399
 11
14.9935782229
 21
10.012494862
  0
LINE
  5
272
100
AcDbEntity
  8
0
100
AcDbLine
 62
7
  6
CONTINUOUS
 10
15.0833807841
 20
10.1022974232
 11
15.1003513469
 21
10.1192679859
  0
LINE
  5
273
100
AcDbEntity
  8
0
100
AcDbLine
 62
7
  6
CONTINUOUS
 10
7.1862752284
 20
10.2794172642
 11
7.164698064
 21
10.2882665066
  0
LINE
  5
274
100
AcDbEntity
  8
0
100
AcDbLine
 62
7
  6
CONTINUOUS
 10
14.2892580864
 20
10.0520939703
 11
14.5045005862
 21
10.4249049158
  0
LINE
  5
275
100
AcDbEntity
  8
0
100
AcDbLine
 62
7
  6
CONTINUOUS
 10
14.6244877344
 20
10.6327287529
 11
14.6682871351
 21
10.7085915401
  0
LINE
  5
276
100
AcDbEntity
  8
0
100
AcDbLine
 62
9
  6
CONTINUOUS
 10
15.5549106601
 20
9.8085029803
 11
15.540580058
 21
9.7941723782
  0
LINE
  5
277
100
AcDbEntity
  8
0
100
AcDbLine
 62
9
  6
CONTINUOUS
 10
15.3053332567
 20
9.558925577
 11
15.2909081997
 21
9.5445005199
  0
LINE
  5
278
100
AcDbEntity
  8
0
100
AcDbLine
 62
7
  6
CONTINUOUS
 10
14.9521256009
 20
10.1838035099
 11
14.9770304646
 21
10.1899279756
  0
LINE
  5
279
100
AcDbEntity
  8
0
100
AcDbLine
 62
7
  6
CONTINUOUS
 10
14.2621013469
 20
9.5041629194
 11
14.1634113207
 21
9.486761205
  0
LINE
  5
27A
100
AcDbEntity
  8
0
100
AcDbLine
 62
7
  6
CONTINUOUS
 10
7.8325353296
 20
9.5041629194
 11
7.9312253559
 21
9.486761205
  0
LINE
  5
27B
100
AcDbEntity
  8
0
100
AcDbLine
 62
9
  6
CONTINUOUS
 10
15.5435089893
 20
9.2859043653
 11
15.8135068147
 21
9.5559021907
  0
LINE
  5
27C
100
AcDbEntity
  8
0
100
AcDbLine
 62
7
  6
CONTINUOUS
 10
15.5623813597
 20
9.2696149196
 11
15.8297962604
 21
9.5370298203
  0
LINE
  5
27D
100
AcDbEntity
  8
0
100
AcDbLine
 62
9
  6
CONTINUOUS
 10
15.8325353296
 20
9.5041629194
 11
15.5952482606
 21
9.2668758504
  0
LINE
  5
27E
100
AcDbEntity
  8
0
100
AcDbLine
 62
9
  6
CONTINUOUS
 10
15.612649975
 20
9.1681858241
 11
15.9312253559
 21
9.486761205
  0
LINE
  5
27F
100
AcDbEntity
  8
0
100
AcDbLine
 62
7
  6
CONTINUOUS
 10
15.4263476902
 20
9.3955928417
 11
14.6682889866
 21
9.3955928417
  0
LINE
  5
280
100
AcDbEntity
  8
0
100
AcDbLine
 62
7
  6
CONTINUOUS
 10
7.4263476902
 20
9.3955928417
 11
6.6682889866
 21
9.3955928417
  0
LINE
  5
281
100
AcDbEntity
  8
0
100
AcDbLine
 62
7
  6
CONTINUOUS
 10
10.6923793916
 20
9.472375324
 11
11.4016541849
 21
9.472375324
  0
LINE
  5
282
100
AcDbEntity
  8
0
100
AcDbLine
 62
7
  6
CONTINUOUS
 10
11.3820184032
 20
10.6318103595
 11
11.7167184682
 21
10.0520928417
  0
LINE
  5
283
100
AcDbEntity
  8
0
100
AcDbLine
 62
9
  6
CONTINUOUS
 10
11.3940696282
 20
10.6526836279
 11
11.7408208614
 21
10.0520928745
  0
LINE
  5
284
100
AcDbEntity
  8
0
100
AcDbLine
 62
7
  6
CONTINUOUS
 10
15.1555480355
 20
9.9043498842
 11
15.1272214046
 21
9.8533958362
  0
LINE
  5
285
100
AcDbEntity
  8
0
100
AcDbLine
 62
7
  6
CONTINUOUS
 10
15.8325353296
 20
10.600022764
 11
15.9312253559
 21
10.6174244784
  0
LINE
  5
286
100
AcDbEntity
  8
0
100
AcDbLine
 62
7
  6
CONTINUOUS
 10
6.2621013469
 20
10.600022764
 11
6.1634113207
 21
10.6174244784
  0
LINE
  5
287
100
AcDbEntity
  8
0
100
AcDbLine
 62
9
  6
CONTINUOUS
 10
11.6656480033
 20
11.0571144462
 11
12.2268574116
 21
10.0850712373
  0
LINE
  5
288
100
AcDbEntity
  8
0
100
AcDbLine
 62
7
  6
CONTINUOUS
 10
15.8053784061
 20
10.0520913944
 11
15.5901360904
 21
9.6792807676
  0
LINE
  5
289
100
AcDbEntity
  8
0
100
AcDbLine
 62
7
  6
CONTINUOUS
 10
15.4701489421
 20
9.4714569306
 11
15.4263495415
 21
9.3955941434
  0
LINE
  5
28A
100
AcDbEntity
  8
0
100
AcDbLine
 62
7
  6
CONTINUOUS
 10
6.2621013469
 20
9.5041629194
 11
6.1634113207
 21
9.486761205
  0
LINE
  5
28B
100
AcDbEntity
  8
0
100
AcDbLine
 62
7
  6
CONTINUOUS
 10
7.0667741824
 20
10.1599162182
 11
7.0787741824
 21
10.1599162182
  0
LINE
  5
28C
100
AcDbEntity
  8
0
100
AcDbLine
 62
7
  6
CONTINUOUS
 10
15.8325353296
 20
9.5041629194
 11
15.9312253559
 21
9.486761205
  0
LINE
  5
28D
100
AcDbEntity
  8
0
100
AcDbLine
 62
7
  6
CONTINUOUS
 10
14.499388416
 20
9.2668758504
 11
14.4819867016
 21
9.1681858241
  0
LINE
  5
28E
100
AcDbEntity
  8
0
100
AcDbLine
 62
7
  6
CONTINUOUS
 10
11.3820184032
 20
10.6318103595
 11
10.7126182734
 21
10.6318103595
  0
LINE
  5
28F
100
AcDbEntity
  8
0
100
AcDbLine
 62
9
  6
CONTINUOUS
 10
10.7005669065
 20
10.6526836606
 11
11.3940695715
 21
10.6526836607
  0
LINE
  5
290
100
AcDbEntity
  8
0
100
AcDbLine
 62
7
  6
CONTINUOUS
 10
6.6682889864
 20
10.7085928417
 11
7.4263474303
 21
10.7085928417
  0
LINE
  5
291
100
AcDbEntity
  8
0
100
AcDbLine
 62
7
  6
CONTINUOUS
 10
14.6682889864
 20
10.7085928417
 11
15.4263474303
 21
10.7085928417
  0
LINE
  5
292
100
AcDbEntity
  8
0
100
AcDbLine
 62
7
  6
CONTINUOUS
 10
7.8325353296
 20
10.600022764
 11
7.9312253559
 21
10.6174244784
  0
LINE
  5
293
100
AcDbEntity
  8
0
100
AcDbLine
 62
9
  6
CONTINUOUS
 10
10.48610893
 20
11.0900928417
 11
11.6085277466
 21
11.0900928417
  0
LINE
  5
294
100
AcDbEntity
  8
0
100
AcDbLine
 62
7
  6
CONTINUOUS
 10
14.2621013469
 20
10.600022764
 11
14.1634113207
 21
10.6174244784
  0
LINE
  5
295
100
AcDbEntity
  8
0
100
AcDbLine
 62
9
  6
CONTINUOUS
 10
14.1634113207
 20
9.486761205
 11
14.4819867016
 21
9.1681858241
  0
LINE
  5
296
100
AcDbEntity
  8
0
100
AcDbLine
 62
9
  6
CONTINUOUS
 10
14.499388416
 20
9.2668758504
 11
14.2621013469
 21
9.5041629194
  0
LINE
  5
297
100
AcDbEntity
  8
0
100
AcDbLine
 62
7
  6
CONTINUOUS
 10
14.2648425648
 20
9.5370276717
 11
14.5322531683
 21
9.2696170683
  0
LINE
  5
298
100
AcDbEntity
  8
0
100
AcDbLine
 62
9
  6
CONTINUOUS
 10
14.2811298619
 20
9.5559021907
 11
14.5511276873
 21
9.2859043653
  0
LINE
  5
299
100
AcDbEntity
  8
0
100
AcDbLine
 62
7
  6
CONTINUOUS
 10
15.5952482606
 20
10.8373098331
 11
15.612649975
 21
10.9359998593
  0
LINE
  5
29A
100
AcDbEntity
  8
0
100
AcDbLine
 62
7
  6
CONTINUOUS
 10
15.1712803982
 20
9.8956038699
 11
15.1555480355
 21
9.9043498842
  0
LINE
  5
29B
100
AcDbEntity
  8
0
100
AcDbLine
 62
9
  6
CONTINUOUS
 10
14.8037284769
 20
9.5445005199
 11
14.7903099257
 21
9.5579190711
  0
LINE
  5
29C
100
AcDbEntity
  8
0
100
AcDbLine
 62
9
  6
CONTINUOUS
 10
14.5540398025
 20
9.7941891943
 11
14.5397260165
 21
9.8085029803
  0
LINE
  5
29D
100
AcDbEntity
  8
0
100
AcDbLine
 62
7
  6
CONTINUOUS
 10
14.6682871352
 20
9.3955941431
 11
14.6245674523
 21
9.4713188552
  0
LINE
  5
29E
100
AcDbEntity
  8
0
100
AcDbLine
 62
7
  6
CONTINUOUS
 10
14.5045085709
 20
9.6792669377
 11
14.2892580864
 21
10.0520917131
  0
LINE
  5
29F
100
AcDbEntity
  8
0
100
AcDbLine
 62
7
  6
CONTINUOUS
 10
14.499388416
 20
10.8373098331
 11
14.4819867016
 21
10.9359998593
  0
LINE
  5
2A0
100
AcDbEntity
  8
0
100
AcDbLine
 62
7
  6
CONTINUOUS
 10
14.7938205572
 20
10.1867966835
 11
14.8535710802
 21
10.1270461605
  0
LINE
  5
2A1
100
AcDbEntity
  8
0
100
AcDbLine
 62
7
  6
CONTINUOUS
 10
14.9249888651
 20
10.0556283756
 11
14.9808503009
 21
9.9997669399
  0
LINE
  5
2A2
100
AcDbEntity
  8
0
100
AcDbLine
 62
7
  6
CONTINUOUS
 10
15.1272214046
 20
9.8533958362
 11
15.1399493266
 21
9.8406679141
  0
LINE
  5
2A3
100
AcDbEntity
  8
0
100
AcDbLine
 62
7
  6
CONTINUOUS
 10
14.8293301302
 20
10.1767429547
 11
14.8096280791
 21
10.1964450058
  0
LINE
  5
2A4
100
AcDbEntity
  8
0
100
AcDbLine
 62
7
  6
CONTINUOUS
 10
14.8994306403
 20
10.286247567
 11
14.9191326914
 21
10.2665455159
  0
LINE
  5
2A5
100
AcDbEntity
  8
0
100
AcDbLine
 62
7
  6
CONTINUOUS
 10
15.0054076634
 20
10.1820091147
 11
15.0223782262
 21
10.165038552
  0
LINE
  5
2A6
100
AcDbEntity
  8
0
100
AcDbLine
 62
7
  6
CONTINUOUS
 10
15.1003513469
 20
10.1192679859
 11
14.9946541969
 21
10.2249651359
  0
LINE
  5
2A7
100
AcDbEntity
  8
0
100
AcDbLine
 62
7
  6
CONTINUOUS
 10
14.9730721263
 20
10.2465472065
 11
14.9133216032
 21
10.3062977296
  0
LINE
  5
2A8
100
AcDbEntity
  8
0
100
AcDbLine
 62
7
  6
CONTINUOUS
 10
14.9497376025
 20
10.193514198
 11
14.9521256009
 21
10.1838035099
  0
LINE
  5
2A9
100
AcDbEntity
  8
0
100
AcDbLine
 62
7
  6
CONTINUOUS
 10
15.1972799166
 20
9.9460817652
 11
15.2039779246
 21
9.9293743809
  0
LINE
  5
2AA
100
AcDbEntity
  8
0
100
AcDbLine
 62
7
  6
CONTINUOUS
 10
15.5952482606
 20
9.2668758504
 11
15.612649975
 21
9.1681858241
  0
LINE
  5
2AB
100
AcDbEntity
  8
0
100
AcDbLine
 62
9
  6
CONTINUOUS
 10
15.2909081997
 20
10.5596851635
 11
15.3043267398
 21
10.5462666234
  0
LINE
  5
2AC
100
AcDbEntity
  8
0
100
AcDbLine
 62
9
  6
CONTINUOUS
 10
15.5405968545
 20
10.3099965087
 11
15.5549106601
 21
10.2956827031
  0
LINE
  5
2AD
100
AcDbEntity
  8
0
100
AcDbLine
 62
9
  6
CONTINUOUS
 10
15.5435089893
 20
10.8182813181
 11
15.8135068147
 21
10.5482834927
  0
LINE
  5
2AE
100
AcDbEntity
  8
0
100
AcDbLine
 62
7
  6
CONTINUOUS
 10
15.8297941117
 20
10.5671580117
 11
15.5623835083
 21
10.8345686152
  0
LINE
  5
2AF
100
AcDbEntity
  8
0
100
AcDbLine
 62
9
  6
CONTINUOUS
 10
15.5952482606
 20
10.8373098331
 11
15.8325353296
 21
10.600022764
  0
LINE
  5
2B0
100
AcDbEntity
  8
0
100
AcDbLine
 62
7
  6
CONTINUOUS
 10
15.4263494697
 20
10.7085916644
 11
15.4700692243
 21
10.6328668282
  0
LINE
  5
2B1
100
AcDbEntity
  8
0
100
AcDbLine
 62
7
  6
CONTINUOUS
 10
15.5901281057
 20
10.4249187457
 11
15.8053784061
 21
10.0520942891
  0
LINE
  5
2B2
100
AcDbEntity
  8
0
100
AcDbLine
 62
9
  6
CONTINUOUS
 10
15.9312253559
 20
10.6174244784
 11
15.612649975
 21
10.9359998593
  0
ARC
  5
2B3
100
AcDbEntity
  8
0
100
AcDbCircle
 62
7
  6
CONTINUOUS
 10
-11.4144182656
 20
5.9404107225
 40
21.9614948307
100
AcDbArc
 50
2.4162613881
 51
2.5347048806
  0
ARC
  5
2B4
100
AcDbEntity
  8
0
100
AcDbCircle
 62
7
  6
CONTINUOUS
 10
-20.8446586451
 20
12.4574500719
 40
32.5200270589
100
AcDbArc
 50
353.9423931462
 51
354.0735673648
  0
ARC
  5
2B5
100
AcDbEntity
  8
0
100
AcDbCircle
 62
7
  6
CONTINUOUS
 10
-4.4520565461
 20
6.4798077383
 40
15.2319919475
100
AcDbArc
 50
1.5037130957
 51
1.6889105104
  0
ARC
  5
2B6
100
AcDbEntity
  8
0
100
AcDbCircle
 62
7
  6
CONTINUOUS
 10
6.2111645695
 20
9.215939073
 40
0.275
100
AcDbArc
 50
100.0
 51
350.0
  0
ARC
  5
2B7
100
AcDbEntity
  8
0
100
AcDbCircle
 62
7
  6
CONTINUOUS
 10
7.883472107
 20
9.215939073
 40
0.275
100
AcDbArc
 50
190.0
 51
80.0
  0
ARC
  5
2B8
100
AcDbEntity
  8
0
100
AcDbCircle
 62
7
  6
CONTINUOUS
 10
6.8009793353
 20
9.2945156359
 40
0.25
100
AcDbArc
 50
89.3699304528
 51
181.9739483152
  0
ARC
  5
2B9
100
AcDbEntity
  8
0
100
AcDbCircle
 62
7
  6
CONTINUOUS
 10
6.2897411325
 20
9.8057538387
 40
0.25
100
AcDbArc
 50
268.0260516848
 51
0.6300695472
  0
ARC
  5
2BA
100
AcDbEntity
  8
0
100
AcDbCircle
 62
7
  6
CONTINUOUS
 10
7.2936573413
 20
9.2945156359
 40
0.25
100
AcDbArc
 50
358.0260516848
 51
90.6300695472
  0
ARC
  5
2BB
100
AcDbEntity
  8
0
100
AcDbCircle
 62
7
  6
CONTINUOUS
 10
7.8048955441
 20
9.8057538387
 40
0.25
100
AcDbArc
 50
179.3699304528
 51
271.9739483152
  0
ARC
  5
2BC
100
AcDbEntity
  8
0
100
AcDbCircle
 62
7
  6
CONTINUOUS
 10
6.570724142
 20
9.8088438832
 40
0.031
100
AcDbArc
 50
159.366699974
 51
180.630086753
  0
ARC
  5
2BD
100
AcDbEntity
  8
0
100
AcDbCircle
 62
7
  6
CONTINUOUS
 10
6.8040693798
 20
9.5754986454
 40
0.031
100
AcDbArc
 50
269.369913247
 51
290.2869442006
  0
ARC
  5
2BE
100
AcDbEntity
  8
0
100
AcDbCircle
 62
7
  6
CONTINUOUS
 10
7.2905672968
 20
9.5754986454
 40
0.031
100
AcDbArc
 50
250.2040808207
 51
270.6300714454
  0
ARC
  5
2BF
100
AcDbEntity
  8
0
100
AcDbCircle
 62
7
  6
CONTINUOUS
 10
7.5239125346
 20
9.8088438832
 40
0.031
100
AcDbArc
 50
359.3699285546
 51
21.2832692003
  0
ARC
  5
2C0
100
AcDbEntity
  8
0
100
AcDbCircle
 62
7
  6
CONTINUOUS
 10
6.8816446151
 20
9.8323933691
 40
0.024
100
AcDbArc
 50
333.2099568643
 51
45.0
  0
ARC
  5
2C1
100
AcDbEntity
  8
0
100
AcDbCircle
 62
7
  6
CONTINUOUS
 10
6.9438700119
 20
9.8946187659
 40
0.024
100
AcDbArc
 50
225.0
 51
296.7900431357
  0
ARC
  5
2C2
100
AcDbEntity
  8
0
100
AcDbCircle
 62
7
  6
CONTINUOUS
 10
6.9452842254
 20
9.8960329794
 40
0.024
100
AcDbArc
 50
333.2099568643
 51
45.0
  0
ARC
  5
2C3
100
AcDbEntity
  8
0
100
AcDbCircle
 62
7
  6
CONTINUOUS
 10
7.0075096222
 20
9.9582583762
 40
0.024
100
AcDbArc
 50
225.0
 51
296.7900431357
  0
ARC
  5
2C4
100
AcDbEntity
  8
0
100
AcDbCircle
 62
7
  6
CONTINUOUS
 10
6.8240833318
 20
9.8899546525
 40
0.024
100
AcDbArc
 50
45.0
 51
116.7900431357
  0
ARC
  5
2C5
100
AcDbEntity
  8
0
100
AcDbCircle
 62
7
  6
CONTINUOUS
 10
6.9499483388
 20
10.0158196595
 40
0.024
100
AcDbArc
 50
153.2099568643
 51
225.0
  0
ARC
  5
2C6
100
AcDbEntity
  8
0
100
AcDbCircle
 62
7
  6
CONTINUOUS
 10
6.8867657666
 20
9.9531372247
 40
0.024
100
AcDbArc
 50
45.0
 51
114.2576200455
  0
ARC
  5
2C7
100
AcDbEntity
  8
0
100
AcDbCircle
 62
7
  6
CONTINUOUS
 10
6.8867657666
 20
9.9531372247
 40
0.024
100
AcDbArc
 50
155.7423799545
 51
225.0
  0
ARC
  5
2C8
100
AcDbEntity
  8
0
100
AcDbCircle
 62
7
  6
CONTINUOUS
 10
6.51514534
 20
9.2640974795
 40
0.016
100
AcDbArc
 50
45.0
 51
169.9999999998
  0
ARC
  5
2C9
100
AcDbEntity
  8
0
100
AcDbCircle
 62
7
  6
CONTINUOUS
 10
6.2593229761
 20
9.5199198434
 40
0.016
100
AcDbArc
 50
280.0000000002
 51
45.0
  0
ARC
  5
2CA
100
AcDbEntity
  8
0
100
AcDbCircle
 62
7
  6
CONTINUOUS
 10
6.2805787406
 20
9.5399116852
 40
0.016
100
AcDbArc
 50
88.0260516848
 51
190.3765489002
  0
ARC
  5
2CB
100
AcDbEntity
  8
0
100
AcDbCircle
 62
7
  6
CONTINUOUS
 10
6.5351371818
 20
9.285353244
 40
0.016
100
AcDbArc
 50
259.6234510998
 51
1.9739483152
  0
ARC
  5
2CC
100
AcDbEntity
  8
0
100
AcDbCircle
 62
7
  6
CONTINUOUS
 10
7.5794913366
 20
9.2640974795
 40
0.016
100
AcDbArc
 50
10.0000000002
 51
135.0
  0
ARC
  5
2CD
100
AcDbEntity
  8
0
100
AcDbCircle
 62
7
  6
CONTINUOUS
 10
7.8353137005
 20
9.5199198434
 40
0.016
100
AcDbArc
 50
135.0
 51
259.9999999998
  0
ARC
  5
2CE
100
AcDbEntity
  8
0
100
AcDbCircle
 62
7
  6
CONTINUOUS
 10
7.814057936
 20
9.5399116852
 40
0.016
100
AcDbArc
 50
349.6234510999
 51
91.9739483152
  0
ARC
  5
2CF
100
AcDbEntity
  8
0
100
AcDbCircle
 62
7
  6
CONTINUOUS
 10
7.5594994948
 20
9.285353244
 40
0.016
100
AcDbArc
 50
178.0260516848
 51
280.3765489001
  0
ARC
  5
2D0
100
AcDbEntity
  8
0
100
AcDbCircle
 62
7
  6
CONTINUOUS
 10
6.9112002829
 20
9.9018326507
 40
0.006
100
AcDbArc
 50
135.0
 51
225.0
  0
ARC
  5
2D1
100
AcDbEntity
  8
0
100
AcDbCircle
 62
7
  6
CONTINUOUS
 10
6.9380703406
 20
9.9287027084
 40
0.006
100
AcDbArc
 50
45.0
 51
135.0
  0
ARC
  5
2D2
100
AcDbEntity
  8
0
100
AcDbCircle
 62
7
  6
CONTINUOUS
 10
6.9164642514
 20
9.948894584
 40
0.006
100
AcDbArc
 50
315.0
 51
45.0
  0
ARC
  5
2D3
100
AcDbEntity
  8
0
100
AcDbCircle
 62
7
  6
CONTINUOUS
 10
6.8910084073
 20
9.9234387399
 40
0.006
100
AcDbArc
 50
225.0
 51
315.0
  0
ARC
  5
2D4
100
AcDbEntity
  8
0
100
AcDbCircle
 62
7
  6
CONTINUOUS
 10
6.2897411325
 20
10.2984318447
 40
0.25
100
AcDbArc
 50
359.3699304528
 51
91.9739483152
  0
ARC
  5
2D5
100
AcDbEntity
  8
0
100
AcDbCircle
 62
7
  6
CONTINUOUS
 10
6.570724142
 20
10.2953418002
 40
0.031
100
AcDbArc
 50
179.3699285546
 51
201.2832683609
  0
ARC
  5
2D6
100
AcDbEntity
  8
0
100
AcDbCircle
 62
7
  6
CONTINUOUS
 10
6.2111645695
 20
10.8882466105
 40
0.275
100
AcDbArc
 50
10.0
 51
260.0
  0
ARC
  5
2D7
100
AcDbEntity
  8
0
100
AcDbCircle
 62
7
  6
CONTINUOUS
 10
6.8009793353
 20
10.8096700475
 40
0.25
100
AcDbArc
 50
178.0260516848
 51
270.6300695472
  0
ARC
  5
2D8
100
AcDbEntity
  8
0
100
AcDbCircle
 62
7
  6
CONTINUOUS
 10
6.8040693798
 20
10.528687038
 40
0.031
100
AcDbArc
 50
70.2040621123
 51
90.6300714454
  0
ARC
  5
2D9
100
AcDbEntity
  8
0
100
AcDbCircle
 62
7
  6
CONTINUOUS
 10
6.2593229761
 20
10.58426584
 40
0.016
100
AcDbArc
 50
315.0
 51
79.9999999998
  0
ARC
  5
2DA
100
AcDbEntity
  8
0
100
AcDbCircle
 62
7
  6
CONTINUOUS
 10
6.51514534
 20
10.8400882039
 40
0.016
100
AcDbArc
 50
190.0000000002
 51
315.0
  0
ARC
  5
2DB
100
AcDbEntity
  8
0
100
AcDbCircle
 62
7
  6
CONTINUOUS
 10
6.5351371818
 20
10.8188324394
 40
0.016
100
AcDbArc
 50
358.0260516848
 51
100.3765489001
  0
ARC
  5
2DC
100
AcDbEntity
  8
0
100
AcDbCircle
 62
7
  6
CONTINUOUS
 10
6.2805787406
 20
10.5642739982
 40
0.016
100
AcDbArc
 50
169.6234510999
 51
271.9739483152
  0
ARC
  5
2DD
100
AcDbEntity
  8
0
100
AcDbCircle
 62
7
  6
CONTINUOUS
 10
7.0473183383
 20
10.0520928417
 40
1.18
100
AcDbArc
 50
238.374126381
 51
301.6257548444
  0
ARC
  5
2DE
100
AcDbEntity
  8
0
100
AcDbCircle
 62
7
  6
CONTINUOUS
 10
7.0473183383
 20
10.0520928417
 40
1.18
100
AcDbArc
 50
328.3553649612
 51
31.6437919734
  0
ARC
  5
2DF
100
AcDbEntity
  8
0
100
AcDbCircle
 62
7
  6
CONTINUOUS
 10
7.0473183383
 20
10.0520928417
 40
1.18
100
AcDbArc
 50
58.374126381
 51
121.6257548444
  0
ARC
  5
2E0
100
AcDbEntity
  8
0
100
AcDbCircle
 62
7
  6
CONTINUOUS
 10
7.0473183383
 20
10.0520928417
 40
1.18
100
AcDbArc
 50
148.3553649612
 51
211.6437919734
  0
ARC
  5
2E1
100
AcDbEntity
  8
0
100
AcDbCircle
 62
7
  6
CONTINUOUS
 10
7.0473183383
 20
10.0520928417
 40
1.0000026738
100
AcDbArc
 50
56.1862970184
 51
123.8137029816
  0
ARC
  5
2E2
100
AcDbEntity
  8
0
100
AcDbCircle
 62
7
  6
CONTINUOUS
 10
7.0473183383
 20
10.0520928417
 40
1.0000026738
100
AcDbArc
 50
326.1862970184
 51
33.8137029816
  0
ARC
  5
2E3
100
AcDbEntity
  8
0
100
AcDbCircle
 62
7
  6
CONTINUOUS
 10
7.0473183383
 20
10.0520928417
 40
1.0000026738
100
AcDbArc
 50
236.1862970184
 51
303.8137029816
  0
ARC
  5
2E4
100
AcDbEntity
  8
0
100
AcDbCircle
 62
7
  6
CONTINUOUS
 10
7.0473183383
 20
10.0520928417
 40
1.0000026738
100
AcDbArc
 50
146.1862970184
 51
213.8137029816
  0
ARC
  5
2E5
100
AcDbEntity
  8
0
100
AcDbCircle
 62
9
  6
CONTINUOUS
 10
7.0473183383
 20
10.0520928417
 40
0.8130026738
100
AcDbArc
 50
54.1582685774
 51
125.832590228
  0
ARC
  5
2E6
100
AcDbEntity
  8
0
100
AcDbCircle
 62
9
  6
CONTINUOUS
 10
7.0473183383
 20
10.0520928417
 40
0.8130026738
100
AcDbArc
 50
324.1796371131
 51
35.8329686686
  0
ARC
  5
2E7
100
AcDbEntity
  8
0
100
AcDbCircle
 62
9
  6
CONTINUOUS
 10
7.0473183383
 20
10.0520928417
 40
0.8130026738
100
AcDbArc
 50
234.1582685774
 51
305.832590228
  0
ARC
  5
2E8
100
AcDbEntity
  8
0
100
AcDbCircle
 62
9
  6
CONTINUOUS
 10
7.0473183383
 20
10.0520928417
 40
0.8130026738
100
AcDbArc
 50
144.1796371131
 51
215.8329686686
  0
ARC
  5
2E9
100
AcDbEntity
  8
0
100
AcDbCircle
 62
7
  6
CONTINUOUS
 10
7.0473183383
 20
10.0520928417
 40
0.741
100
AcDbArc
 50
143.8055822462
 51
177.3531455237
  0
ARC
  5
2EA
100
AcDbEntity
  8
0
100
AcDbCircle
 62
7
  6
CONTINUOUS
 10
7.0473183383
 20
10.0520928417
 40
0.741
100
AcDbArc
 50
122.6316076561
 51
126.1941524461
  0
ARC
  5
2EB
100
AcDbEntity
  8
0
100
AcDbCircle
 62
7
  6
CONTINUOUS
 10
7.0473183383
 20
10.0520928417
 40
0.741
100
AcDbArc
 50
62.6291242566
 51
117.3669832926
  0
ARC
  5
2EC
100
AcDbEntity
  8
0
100
AcDbCircle
 62
7
  6
CONTINUOUS
 10
7.0473183383
 20
10.0520928417
 40
0.741
100
AcDbArc
 50
53.7853846493
 51
57.3645520063
  0
ARC
  5
2ED
100
AcDbEntity
  8
0
100
AcDbCircle
 62
7
  6
CONTINUOUS
 10
7.0473183383
 20
10.0520928417
 40
0.741
100
AcDbArc
 50
2.6470278516
 51
36.2158697342
  0
ARC
  5
2EE
100
AcDbEntity
  8
0
100
AcDbCircle
 62
7
  6
CONTINUOUS
 10
7.0473183383
 20
10.0520928417
 40
0.741
100
AcDbArc
 50
323.8055822462
 51
357.3531455237
  0
ARC
  5
2EF
100
AcDbEntity
  8
0
100
AcDbCircle
 62
7
  6
CONTINUOUS
 10
7.0473183383
 20
10.0520928417
 40
0.741
100
AcDbArc
 50
302.6316076561
 51
306.1941524461
  0
ARC
  5
2F0
100
AcDbEntity
  8
0
100
AcDbCircle
 62
7
  6
CONTINUOUS
 10
7.0473183383
 20
10.0520928417
 40
0.741
100
AcDbArc
 50
242.6291242566
 51
297.3669832926
  0
ARC
  5
2F1
100
AcDbEntity
  8
0
100
AcDbCircle
 62
7
  6
CONTINUOUS
 10
7.0473183383
 20
10.0520928417
 40
0.741
100
AcDbArc
 50
233.7853846493
 51
237.3645520063
  0
ARC
  5
2F2
100
AcDbEntity
  8
0
100
AcDbCircle
 62
7
  6
CONTINUOUS
 10
7.0473183383
 20
10.0520928417
 40
0.741
100
AcDbArc
 50
182.6470278516
 51
216.2158697342
  0
ARC
  5
2F3
100
AcDbEntity
  8
0
100
AcDbCircle
 62
7
  6
CONTINUOUS
 10
7.0473183383
 20
10.0520928417
 40
0.6515
100
AcDbArc
 50
55.8319786818
 51
124.1761469876
  0
ARC
  5
2F4
100
AcDbEntity
  8
0
100
AcDbCircle
 62
7
  6
CONTINUOUS
 10
7.0473183383
 20
10.0520928417
 40
0.6515
100
AcDbArc
 50
325.8238530124
 51
34.1680213182
  0
ARC
  5
2F5
100
AcDbEntity
  8
0
100
AcDbCircle
 62
7
  6
CONTINUOUS
 10
7.0473183383
 20
10.0520928417
 40
0.6515
100
AcDbArc
 50
235.8319786818
 51
304.1761469876
  0
ARC
  5
2F6
100
AcDbEntity
  8
0
100
AcDbCircle
 62
7
  6
CONTINUOUS
 10
7.0473183383
 20
10.0520928417
 40
0.6515
100
AcDbArc
 50
145.8238530124
 51
214.1680213182
  0
ARC
  5
2F7
100
AcDbEntity
  8
0
100
AcDbCircle
 62
9
  6
CONTINUOUS
 10
7.0473183383
 20
10.0520928417
 40
0.6146339942
100
AcDbArc
 50
57.9898762785
 51
122.0191168508
  0
ARC
  5
2F8
100
AcDbEntity
  8
0
100
AcDbCircle
 62
9
  6
CONTINUOUS
 10
7.0473183383
 20
10.0520928417
 40
0.6146339942
100
AcDbArc
 50
147.9808831492
 51
212.0101237215
  0
ARC
  5
2F9
100
AcDbEntity
  8
0
100
AcDbCircle
 62
9
  6
CONTINUOUS
 10
7.0473183383
 20
10.0520928417
 40
0.6146339942
100
AcDbArc
 50
237.9898762785
 51
302.0191168508
  0
ARC
  5
2FA
100
AcDbEntity
  8
0
100
AcDbCircle
 62
9
  6
CONTINUOUS
 10
7.0473183383
 20
10.0520928417
 40
0.6146339942
100
AcDbArc
 50
327.9808831492
 51
32.0101237215
  0
CIRCLE
  5
2FB
100
AcDbEntity
  8
0
100
AcDbCircle
 62
7
  6
CONTINUOUS
 10
7.0473183383
 20
10.0520928417
 40
0.5575
  0
CIRCLE
  5
2FC
100
AcDbEntity
  8
0
100
AcDbCircle
 62
7
  6
CONTINUOUS
 10
7.0473183383
 20
10.0520928417
 40
0.5275
  0
CIRCLE
  5
2FD
100
AcDbEntity
  8
0
100
AcDbCircle
 62
7
  6
CONTINUOUS
 10
7.0473183383
 20
10.0520928417
 40
0.5132341523
  0
CIRCLE
  5
2FE
100
AcDbEntity
  8
0
100
AcDbCircle
 62
7
  6
CONTINUOUS
 10
7.0473183383
 20
10.0520928417
 40
0.4545099561
  0
CIRCLE
  5
2FF
100
AcDbEntity
  8
0
100
AcDbCircle
 62
7
  6
CONTINUOUS
 10
7.0473183383
 20
10.0520928417
 40
0.4275
  0
CIRCLE
  5
300
100
AcDbEntity
  8
0
100
AcDbCircle
 62
7
  6
CONTINUOUS
 10
7.0473183383
 20
10.0520928417
 40
0.4175
  0
CIRCLE
  5
301
100
AcDbEntity
  8
0
100
AcDbCircle
 62
9
  6
CONTINUOUS
 10
7.0473183383
 20
10.0520928417
 40
0.3951446396
  0
ARC
  5
302
100
AcDbEntity
  8
0
100
AcDbCircle
 62
7
  6
CONTINUOUS
 10
7.1200861665
 20
10.1599162182
 40
0.0413119841
100
AcDbArc
 50
135.0
 51
180.0
  0
ARC
  5
303
100
AcDbEntity
  8
0
100
AcDbCircle
 62
7
  6
CONTINUOUS
 10
7.153412433
 20
10.1164114813
 40
0.036
100
AcDbArc
 50
344.0852950607
 51
45.0
  0
ARC
  5
304
100
AcDbEntity
  8
0
100
AcDbCircle
 62
7
  6
CONTINUOUS
 10
7.1862752284
 20
10.2261052801
 40
0.0413119841
100
AcDbArc
 50
89.9999999999
 51
135.0
  0
ARC
  5
305
100
AcDbEntity
  8
0
100
AcDbCircle
 62
7
  6
CONTINUOUS
 10
7.2297799653
 20
10.1927790137
 40
0.036
100
AcDbArc
 50
225.0
 51
285.9147049393
  0
ARC
  5
306
100
AcDbEntity
  8
0
100
AcDbCircle
 62
7
  6
CONTINUOUS
 10
7.1409392761
 20
10.2349506553
 40
0.003
100
AcDbArc
 50
135.0000000001
 51
225.0
  0
ARC
  5
307
100
AcDbEntity
  8
0
100
AcDbCircle
 62
7
  6
CONTINUOUS
 10
7.1112407913
 20
10.2052521705
 40
0.003
100
AcDbArc
 50
45.0
 51
135.0
  0
ARC
  5
308
100
AcDbEntity
  8
0
100
AcDbCircle
 62
7
  6
CONTINUOUS
 10
7.8048955441
 20
10.2984318447
 40
0.25
100
AcDbArc
 50
88.0260516848
 51
180.6300695472
  0
ARC
  5
309
100
AcDbEntity
  8
0
100
AcDbCircle
 62
7
  6
CONTINUOUS
 10
7.5239125346
 20
10.2953418002
 40
0.031
100
AcDbArc
 50
339.3667093254
 51
0.630086753
  0
ARC
  5
30A
100
AcDbEntity
  8
0
100
AcDbCircle
 62
7
  6
CONTINUOUS
 10
7.883472107
 20
10.8882466105
 40
0.275
100
AcDbArc
 50
280.0
 51
170.0
  0
ARC
  5
30B
100
AcDbEntity
  8
0
100
AcDbCircle
 62
7
  6
CONTINUOUS
 10
7.2936573413
 20
10.8096700475
 40
0.25
100
AcDbArc
 50
269.3699304528
 51
1.9739483152
  0
ARC
  5
30C
100
AcDbEntity
  8
0
100
AcDbCircle
 62
7
  6
CONTINUOUS
 10
7.2905672968
 20
10.528687038
 40
0.031
100
AcDbArc
 50
89.369913247
 51
110.2869309671
  0
ARC
  5
30D
100
AcDbEntity
  8
0
100
AcDbCircle
 62
7
  6
CONTINUOUS
 10
7.5794913366
 20
10.8400882039
 40
0.016
100
AcDbArc
 50
225.0
 51
349.9999999998
  0
ARC
  5
30E
100
AcDbEntity
  8
0
100
AcDbCircle
 62
7
  6
CONTINUOUS
 10
7.8353137005
 20
10.58426584
 40
0.016
100
AcDbArc
 50
100.0000000002
 51
225.0
  0
ARC
  5
30F
100
AcDbEntity
  8
0
100
AcDbCircle
 62
7
  6
CONTINUOUS
 10
7.814057936
 20
10.5642739982
 40
0.016
100
AcDbArc
 50
268.0260516848
 51
10.3765489002
  0
ARC
  5
310
100
AcDbEntity
  8
0
100
AcDbCircle
 62
7
  6
CONTINUOUS
 10
7.5594994948
 20
10.8188324394
 40
0.016
100
AcDbArc
 50
79.6234510998
 51
181.9739483152
  0
ARC
  5
311
100
AcDbEntity
  8
0
100
AcDbCircle
 62
7
  6
CONTINUOUS
 10
9.6716605332
 20
9.7949675321
 40
0.4208236563
100
AcDbArc
 50
20.3842886708
 51
24.2696939457
  0
ARC
  5
312
100
AcDbEntity
  8
0
100
AcDbCircle
 62
9
  6
CONTINUOUS
 10
11.0473571512
 20
-94.5502112271
 40
99.9901481776
100
AcDbArc
 50
89.8424431237
 51
90.0000221877
  0
ARC
  5
313
100
AcDbEntity
  8
0
100
AcDbCircle
 62
9
  6
CONTINUOUS
 10
11.0470378739
 20
-94.3744270572
 40
99.8143640144
100
AcDbArc
 50
89.9998389541
 51
90.157695638
  0
ARC
  5
314
100
AcDbEntity
  8
0
100
AcDbCircle
 62
9
  6
CONTINUOUS
 10
11.0632771006
 20
-51.2059034387
 40
58.1352130549
100
AcDbArc
 50
89.7456838899
 51
90.0157283285
  0
ARC
  5
315
100
AcDbEntity
  8
0
100
AcDbCircle
 62
9
  6
CONTINUOUS
 10
11.0080065296
 20
-39.989623382
 40
46.9189471916
100
AcDbArc
 50
89.9519937865
 51
90.286594189
  0
ARC
  5
316
100
AcDbEntity
  8
0
100
AcDbCircle
 62
9
  6
CONTINUOUS
 10
11.0464469499
 20
1.6565619316
 40
7.3826595606
100
AcDbArc
 50
89.993237277
 51
93.4679389622
  0
ARC
  5
317
100
AcDbEntity
  8
0
100
AcDbCircle
 62
9
  6
CONTINUOUS
 10
11.0466564275
 20
1.6581479048
 40
7.3810735021
100
AcDbArc
 50
86.5270222656
 51
89.9948618992
  0
ARC
  5
318
100
AcDbEntity
  8
0
100
AcDbCircle
 62
7
  6
CONTINUOUS
 10
11.7449478546
 20
5.5818616255
 40
1.5483800675
100
AcDbArc
 50
215.0454162712
 51
220.1327020027
  0
ARC
  5
319
100
AcDbEntity
  8
0
100
AcDbCircle
 62
7
  6
CONTINUOUS
 10
11.0478157497
 20
4.3109977729
 40
0.5937777021
100
AcDbArc
 50
167.970336893
 51
170.1757884311
  0
ARC
  5
31A
100
AcDbEntity
  8
0
100
AcDbCircle
 62
7
  6
CONTINUOUS
 10
11.0470293809
 20
4.3110182644
 40
0.5935956875
100
AcDbArc
 50
10.2652406356
 51
12.0255039511
  0
ARC
  5
31B
100
AcDbEntity
  8
0
100
AcDbCircle
 62
9
  6
CONTINUOUS
 10
11.0471746209
 20
6.6048370437
 40
2.2423077666
100
AcDbArc
 50
270.0031624525
 51
274.1331375394
  0
ARC
  5
31C
100
AcDbEntity
  8
0
100
AcDbCircle
 62
9
  6
CONTINUOUS
 10
11.0471198968
 20
6.6029732047
 40
2.2404439352
100
AcDbArc
 50
265.8754696773
 51
270.0045645654
  0
ARC
  5
31D
100
AcDbEntity
  8
0
100
AcDbCircle
 62
9
  6
CONTINUOUS
 10
11.0444506954
 20
6.5693043951
 40
2.2066703599
100
AcDbArc
 50
262.6800368893
 51
265.881718807
  0
ARC
  5
31E
100
AcDbEntity
  8
0
100
AcDbCircle
 62
9
  6
CONTINUOUS
 10
11.049991997
 20
6.5689529804
 40
2.2063139859
100
AcDbArc
 50
274.1273275103
 51
277.3251861216
  0
ARC
  5
31F
100
AcDbEntity
  8
0
100
AcDbCircle
 62
7
  6
CONTINUOUS
 10
11.0473183383
 20
10.0520928417
 40
1.18
100
AcDbArc
 50
310.933198302
 51
228.9546208428
  0
CIRCLE
  5
320
100
AcDbEntity
  8
0
100
AcDbCircle
 62
7
  6
CONTINUOUS
 10
11.0473183383
 20
10.0520928417
 40
0.58
  0
ARC
  5
321
100
AcDbEntity
  8
0
100
AcDbCircle
 62
7
  6
CONTINUOUS
 10
12.4237880478
 20
9.7909187097
 40
0.4233655874
100
AcDbArc
 50
154.6872545383
 51
159.2589225648
  0
ARC
  5
322
100
AcDbEntity
  8
0
100
AcDbCircle
 62
9
  6
CONTINUOUS
 10
12.0209849856
 20
9.0730258319
 40
0.3964093939
100
AcDbArc
 50
108.0353974968
 51
110.4799533279
  0
ARC
  5
323
100
AcDbEntity
  8
0
100
AcDbCircle
 62
7
  6
CONTINUOUS
 10
14.2111645695
 20
9.215939073
 40
0.275
100
AcDbArc
 50
100.0
 51
350.0
  0
ARC
  5
324
100
AcDbEntity
  8
0
100
AcDbCircle
 62
7
  6
CONTINUOUS
 10
14.8009793353
 20
9.2945156359
 40
0.25
100
AcDbArc
 50
89.3699304528
 51
181.9739483152
  0
ARC
  5
325
100
AcDbEntity
  8
0
100
AcDbCircle
 62
7
  6
CONTINUOUS
 10
14.2897411325
 20
9.8057538387
 40
0.25
100
AcDbArc
 50
268.0260516848
 51
0.6300695472
  0
ARC
  5
326
100
AcDbEntity
  8
0
100
AcDbCircle
 62
7
  6
CONTINUOUS
 10
14.8040693798
 20
9.5754986454
 40
0.031
100
AcDbArc
 50
269.3699285546
 51
291.2832683609
  0
ARC
  5
327
100
AcDbEntity
  8
0
100
AcDbCircle
 62
7
  6
CONTINUOUS
 10
14.570724142
 20
9.8088438832
 40
0.031
100
AcDbArc
 50
160.2040621123
 51
180.6300714454
  0
ARC
  5
328
100
AcDbEntity
  8
0
100
AcDbCircle
 62
7
  6
CONTINUOUS
 10
15.0199325486
 20
10.0268283723
 40
0.03
100
AcDbArc
 50
135.0
 51
208.5407503717
  0
ARC
  5
329
100
AcDbEntity
  8
0
100
AcDbCircle
 62
7
  6
CONTINUOUS
 10
14.51514534
 20
9.2640974795
 40
0.016
100
AcDbArc
 50
45.0
 51
169.9999999998
  0
ARC
  5
32A
100
AcDbEntity
  8
0
100
AcDbCircle
 62
7
  6
CONTINUOUS
 10
14.2593229761
 20
9.5199198434
 40
0.016
100
AcDbArc
 50
280.0000000002
 51
45.0
  0
ARC
  5
32B
100
AcDbEntity
  8
0
100
AcDbCircle
 62
7
  6
CONTINUOUS
 10
14.2805787406
 20
9.5399116852
 40
0.016
100
AcDbArc
 50
88.0260516848
 51
190.3765489001
  0
ARC
  5
32C
100
AcDbEntity
  8
0
100
AcDbCircle
 62
7
  6
CONTINUOUS
 10
14.5351371818
 20
9.285353244
 40
0.016
100
AcDbArc
 50
259.6234510999
 51
1.9739483152
  0
ARC
  5
32D
100
AcDbEntity
  8
0
100
AcDbCircle
 62
7
  6
CONTINUOUS
 10
14.2111645695
 20
10.8882466105
 40
0.275
100
AcDbArc
 50
10.0
 51
260.0
  0
ARC
  5
32E
100
AcDbEntity
  8
0
100
AcDbCircle
 62
7
  6
CONTINUOUS
 10
14.2897411325
 20
10.2984318447
 40
0.25
100
AcDbArc
 50
359.3699304528
 51
91.9739483152
  0
ARC
  5
32F
100
AcDbEntity
  8
0
100
AcDbCircle
 62
7
  6
CONTINUOUS
 10
14.8009793353
 20
10.8096700475
 40
0.25
100
AcDbArc
 50
178.0260516848
 51
270.6300695472
  0
ARC
  5
330
100
AcDbEntity
  8
0
100
AcDbCircle
 62
7
  6
CONTINUOUS
 10
14.8873984181
 20
10.208477228
 40
0.097
100
AcDbArc
 50
116.5590861804
 51
153.4409138196
  0
ARC
  5
331
100
AcDbEntity
  8
0
100
AcDbCircle
 62
7
  6
CONTINUOUS
 10
14.8535710802
 20
10.2465472065
 40
0.0845
100
AcDbArc
 50
45.0
 51
135.0
  0
ARC
  5
332
100
AcDbEntity
  8
0
100
AcDbCircle
 62
7
  6
CONTINUOUS
 10
14.8535710802
 20
10.2465472065
 40
0.0845
100
AcDbArc
 50
135.3390302596
 51
225.0
  0
ARC
  5
333
100
AcDbEntity
  8
0
100
AcDbCircle
 62
7
  6
CONTINUOUS
 10
14.8654895148
 20
10.2523064415
 40
0.048
100
AcDbArc
 50
45.0
 51
116.5590861804
  0
ARC
  5
334
100
AcDbEntity
  8
0
100
AcDbCircle
 62
7
  6
CONTINUOUS
 10
14.8435692046
 20
10.2303861313
 40
0.048
100
AcDbArc
 50
153.4409138196
 51
225.0
  0
ARC
  5
335
100
AcDbEntity
  8
0
100
AcDbCircle
 62
7
  6
CONTINUOUS
 10
14.8040693798
 20
10.528687038
 40
0.031
100
AcDbArc
 50
69.3667093254
 51
90.630086753
  0
ARC
  5
336
100
AcDbEntity
  8
0
100
AcDbCircle
 62
7
  6
CONTINUOUS
 10
14.570724142
 20
10.2953418002
 40
0.031
100
AcDbArc
 50
179.369913247
 51
200.2869309672
  0
ARC
  5
337
100
AcDbEntity
  8
0
100
AcDbCircle
 62
7
  6
CONTINUOUS
 10
14.98419446
 20
10.1607959113
 40
0.03
100
AcDbArc
 50
45.0
 51
103.815717175
  0
ARC
  5
338
100
AcDbEntity
  8
0
100
AcDbCircle
 62
7
  6
CONTINUOUS
 10
15.0011650228
 20
10.1438253485
 40
0.03
100
AcDbArc
 50
315.0
 51
45.0
  0
ARC
  5
339
100
AcDbEntity
  8
0
100
AcDbCircle
 62
7
  6
CONTINUOUS
 10
14.9520502976
 20
10.0947106233
 40
0.03
100
AcDbArc
 50
241.4592496283
 51
315.0
  0
ARC
  5
33A
100
AcDbEntity
  8
0
100
AcDbCircle
 62
7
  6
CONTINUOUS
 10
14.9503566635
 20
10.2125180353
 40
0.018
100
AcDbArc
 50
71.3877999612
 51
135.0
  0
ARC
  5
33B
100
AcDbEntity
  8
0
100
AcDbCircle
 62
7
  6
CONTINUOUS
 10
14.8833576108
 20
10.1455189826
 40
0.018
100
AcDbArc
 50
135.0
 51
198.6122000388
  0
ARC
  5
33C
100
AcDbEntity
  8
0
100
AcDbCircle
 62
7
  6
CONTINUOUS
 10
14.2593229761
 20
10.58426584
 40
0.016
100
AcDbArc
 50
315.0
 51
79.9999999998
  0
ARC
  5
33D
100
AcDbEntity
  8
0
100
AcDbCircle
 62
7
  6
CONTINUOUS
 10
14.51514534
 20
10.8400882039
 40
0.016
100
AcDbArc
 50
190.0000000002
 51
315.0
  0
ARC
  5
33E
100
AcDbEntity
  8
0
100
AcDbCircle
 62
7
  6
CONTINUOUS
 10
14.5351371818
 20
10.8188324394
 40
0.016
100
AcDbArc
 50
358.0260516848
 51
100.3765489002
  0
ARC
  5
33F
100
AcDbEntity
  8
0
100
AcDbCircle
 62
7
  6
CONTINUOUS
 10
14.2805787406
 20
10.5642739982
 40
0.016
100
AcDbArc
 50
169.6234510998
 51
271.9739483152
  0
ARC
  5
340
100
AcDbEntity
  8
0
100
AcDbCircle
 62
7
  6
CONTINUOUS
 10
14.9148900507
 20
10.2623028752
 40
0.006
100
AcDbArc
 50
315.0
 51
45.0
  0
ARC
  5
341
100
AcDbEntity
  8
0
100
AcDbCircle
 62
7
  6
CONTINUOUS
 10
14.8335727709
 20
10.1809855954
 40
0.006
100
AcDbArc
 50
225.0
 51
314.9999999999
  0
ARC
  5
342
100
AcDbEntity
  8
0
100
AcDbCircle
 62
7
  6
CONTINUOUS
 10
15.883472107
 20
9.215939073
 40
0.275
100
AcDbArc
 50
190.0
 51
80.0
  0
ARC
  5
343
100
AcDbEntity
  8
0
100
AcDbCircle
 62
7
  6
CONTINUOUS
 10
15.8048955441
 20
9.8057538387
 40
0.25
100
AcDbArc
 50
179.3699304528
 51
271.9739483152
  0
ARC
  5
344
100
AcDbEntity
  8
0
100
AcDbCircle
 62
7
  6
CONTINUOUS
 10
15.2936573413
 20
9.2945156359
 40
0.25
100
AcDbArc
 50
358.0260516848
 51
90.6300695472
  0
ARC
  5
345
100
AcDbEntity
  8
0
100
AcDbCircle
 62
7
  6
CONTINUOUS
 10
15.2570282512
 20
9.8947088306
 40
0.121
100
AcDbArc
 50
207.3178031512
 51
235.863388708
  0
ARC
  5
346
100
AcDbEntity
  8
0
100
AcDbCircle
 62
7
  6
CONTINUOUS
 10
15.2303473052
 20
9.8635990973
 40
0.0888641812
100
AcDbArc
 50
359.2338173193
 51
111.8459014309
  0
ARC
  5
347
100
AcDbEntity
  8
0
100
AcDbCircle
 62
7
  6
CONTINUOUS
 10
15.2045642994
 20
9.8939691785
 40
0.085
100
AcDbArc
 50
293.3999655658
 51
336.6000344342
  0
ARC
  5
348
100
AcDbEntity
  8
0
100
AcDbCircle
 62
7
  6
CONTINUOUS
 10
15.2358861549
 20
9.8635250251
 40
0.0833248363
100
AcDbArc
 50
235.863388708
 51
359.2338173193
  0
ARC
  5
349
100
AcDbEntity
  8
0
100
AcDbCircle
 62
7
  6
CONTINUOUS
 10
15.2322208624
 20
9.8617255401
 40
0.0697243244
100
AcDbArc
 50
150.9292215989
 51
166.2636680057
  0
ARC
  5
34A
100
AcDbEntity
  8
0
100
AcDbCircle
 62
7
  6
CONTINUOUS
 10
15.226902833
 20
9.8721909236
 40
0.061607623
100
AcDbArc
 50
31.3709027892
 51
111.8459014309
  0
ARC
  5
34B
100
AcDbEntity
  8
0
100
AcDbCircle
 62
7
  6
CONTINUOUS
 10
15.2168962987
 20
9.8654715626
 40
0.0539485538
100
AcDbArc
 50
166.2636680057
 51
293.3999655658
  0
ARC
  5
34C
100
AcDbEntity
  8
0
100
AcDbCircle
 62
7
  6
CONTINUOUS
 10
15.2385212294
 20
9.8792747269
 40
0.048
100
AcDbArc
 50
336.6000344342
 51
31.3709027892
  0
ARC
  5
34D
100
AcDbEntity
  8
0
100
AcDbCircle
 62
7
  6
CONTINUOUS
 10
15.2905672968
 20
9.5754986454
 40
0.031
100
AcDbArc
 50
249.366699974
 51
270.630086753
  0
ARC
  5
34E
100
AcDbEntity
  8
0
100
AcDbCircle
 62
7
  6
CONTINUOUS
 10
15.5239125346
 20
9.8088438832
 40
0.031
100
AcDbArc
 50
359.369913247
 51
20.2869442006
  0
ARC
  5
34F
100
AcDbEntity
  8
0
100
AcDbCircle
 62
7
  6
CONTINUOUS
 10
15.8353137005
 20
9.5199198434
 40
0.016
100
AcDbArc
 50
135.0
 51
259.9999999998
  0
ARC
  5
350
100
AcDbEntity
  8
0
100
AcDbCircle
 62
7
  6
CONTINUOUS
 10
15.5794913366
 20
9.2640974795
 40
0.016
100
AcDbArc
 50
10.0000000002
 51
135.0
  0
ARC
  5
351
100
AcDbEntity
  8
0
100
AcDbCircle
 62
7
  6
CONTINUOUS
 10
15.5594994948
 20
9.285353244
 40
0.016
100
AcDbArc
 50
178.0260516848
 51
280.3765489002
  0
ARC
  5
352
100
AcDbEntity
  8
0
100
AcDbCircle
 62
7
  6
CONTINUOUS
 10
15.814057936
 20
9.5399116852
 40
0.016
100
AcDbArc
 50
349.6234510998
 51
91.9739483152
  0
ARC
  5
353
100
AcDbEntity
  8
0
100
AcDbCircle
 62
7
  6
CONTINUOUS
 10
15.1441919673
 20
9.8364252735
 40
0.006
100
AcDbArc
 50
27.3178031508
 51
135.0
  0
ARC
  5
354
100
AcDbEntity
  8
0
100
AcDbCircle
 62
7
  6
CONTINUOUS
 10
15.0473183383
 20
10.0520928417
 40
1.18
100
AcDbArc
 50
238.374126381
 51
301.6257548444
  0
ARC
  5
355
100
AcDbEntity
  8
0
100
AcDbCircle
 62
7
  6
CONTINUOUS
 10
15.0473183383
 20
10.0520928417
 40
1.18
100
AcDbArc
 50
328.3553649612
 51
31.6437919734
  0
ARC
  5
356
100
AcDbEntity
  8
0
100
AcDbCircle
 62
7
  6
CONTINUOUS
 10
15.0473183383
 20
10.0520928417
 40
1.18
100
AcDbArc
 50
58.374126381
 51
121.6257548444
  0
ARC
  5
357
100
AcDbEntity
  8
0
100
AcDbCircle
 62
7
  6
CONTINUOUS
 10
15.0473183383
 20
10.0520928417
 40
1.18
100
AcDbArc
 50
148.3553649612
 51
211.6437919734
  0
ARC
  5
358
100
AcDbEntity
  8
0
100
AcDbCircle
 62
7
  6
CONTINUOUS
 10
15.0473183383
 20
10.0520928417
 40
1.0000026738
100
AcDbArc
 50
56.1862970184
 51
123.8137029816
  0
ARC
  5
359
100
AcDbEntity
  8
0
100
AcDbCircle
 62
7
  6
CONTINUOUS
 10
15.0473183383
 20
10.0520928417
 40
1.0000026738
100
AcDbArc
 50
326.1862970184
 51
33.8137029816
  0
ARC
  5
35A
100
AcDbEntity
  8
0
100
AcDbCircle
 62
7
  6
CONTINUOUS
 10
15.0473183383
 20
10.0520928417
 40
1.0000026738
100
AcDbArc
 50
236.1862970184
 51
303.8137029816
  0
ARC
  5
35B
100
AcDbEntity
  8
0
100
AcDbCircle
 62
7
  6
CONTINUOUS
 10
15.0473183383
 20
10.0520928417
 40
1.0000026738
100
AcDbArc
 50
146.1862970184
 51
213.8137029816
  0
ARC
  5
35C
100
AcDbEntity
  8
0
100
AcDbCircle
 62
9
  6
CONTINUOUS
 10
15.0473183383
 20
10.0520928417
 40
0.8130026738
100
AcDbArc
 50
54.1669604044
 51
125.8411623868
  0
ARC
  5
35D
100
AcDbEntity
  8
0
100
AcDbCircle
 62
9
  6
CONTINUOUS
 10
15.0473183383
 20
10.0520928417
 40
0.8130026738
100
AcDbArc
 50
324.1674711867
 51
35.820499213
  0
ARC
  5
35E
100
AcDbEntity
  8
0
100
AcDbCircle
 62
9
  6
CONTINUOUS
 10
15.0473183383
 20
10.0520928417
 40
0.8130026738
100
AcDbArc
 50
234.1669604044
 51
305.8411623868
  0
ARC
  5
35F
100
AcDbEntity
  8
0
100
AcDbCircle
 62
9
  6
CONTINUOUS
 10
15.0473183383
 20
10.0520928417
 40
0.8130026738
100
AcDbArc
 50
144.1674711867
 51
215.820499213
  0
ARC
  5
360
100
AcDbEntity
  8
0
100
AcDbCircle
 62
7
  6
CONTINUOUS
 10
15.0473183383
 20
10.0520928417
 40
0.741
100
AcDbArc
 50
143.7857769896
 51
177.3531455237
  0
ARC
  5
361
100
AcDbEntity
  8
0
100
AcDbCircle
 62
7
  6
CONTINUOUS
 10
15.0473183383
 20
10.0520928417
 40
0.741
100
AcDbArc
 50
122.6316076561
 51
126.2136869664
  0
ARC
  5
362
100
AcDbEntity
  8
0
100
AcDbCircle
 62
7
  6
CONTINUOUS
 10
15.0473183383
 20
10.0520928417
 40
0.741
100
AcDbArc
 50
62.6291242566
 51
117.3669832926
  0
ARC
  5
363
100
AcDbEntity
  8
0
100
AcDbCircle
 62
7
  6
CONTINUOUS
 10
15.0473183383
 20
10.0520928417
 40
0.741
100
AcDbArc
 50
53.8049716164
 51
57.3645520063
  0
ARC
  5
364
100
AcDbEntity
  8
0
100
AcDbCircle
 62
7
  6
CONTINUOUS
 10
15.0473183383
 20
10.0520928417
 40
0.741
100
AcDbArc
 50
2.6470278516
 51
36.195975633
  0
ARC
  5
365
100
AcDbEntity
  8
0
100
AcDbCircle
 62
7
  6
CONTINUOUS
 10
15.0473183383
 20
10.0520928417
 40
0.741
100
AcDbArc
 50
323.7857769897
 51
357.3531455237
  0
ARC
  5
366
100
AcDbEntity
  8
0
100
AcDbCircle
 62
7
  6
CONTINUOUS
 10
15.0473183383
 20
10.0520928417
 40
0.741
100
AcDbArc
 50
302.6316076561
 51
306.2136869664
  0
ARC
  5
367
100
AcDbEntity
  8
0
100
AcDbCircle
 62
7
  6
CONTINUOUS
 10
15.0473183383
 20
10.0520928417
 40
0.741
100
AcDbArc
 50
242.6291242566
 51
297.3669832926
  0
ARC
  5
368
100
AcDbEntity
  8
0
100
AcDbCircle
 62
7
  6
CONTINUOUS
 10
15.0473183383
 20
10.0520928417
 40
0.741
100
AcDbArc
 50
233.8049716164
 51
237.3645520063
  0
ARC
  5
369
100
AcDbEntity
  8
0
100
AcDbCircle
 62
7
  6
CONTINUOUS
 10
15.0473183383
 20
10.0520928417
 40
0.741
100
AcDbArc
 50
182.6470278516
 51
216.195975633
  0
ARC
  5
36A
100
AcDbEntity
  8
0
100
AcDbCircle
 62
7
  6
CONTINUOUS
 10
15.0473183383
 20
10.0520928417
 40
0.6515
100
AcDbArc
 50
55.8238530124
 51
124.1680213182
  0
ARC
  5
36B
100
AcDbEntity
  8
0
100
AcDbCircle
 62
7
  6
CONTINUOUS
 10
15.0473183383
 20
10.0520928417
 40
0.6515
100
AcDbArc
 50
325.8319786818
 51
34.1761469876
  0
ARC
  5
36C
100
AcDbEntity
  8
0
100
AcDbCircle
 62
7
  6
CONTINUOUS
 10
15.0473183383
 20
10.0520928417
 40
0.6515
100
AcDbArc
 50
235.8238530124
 51
304.1680213182
  0
ARC
  5
36D
100
AcDbEntity
  8
0
100
AcDbCircle
 62
7
  6
CONTINUOUS
 10
15.0473183383
 20
10.0520928417
 40
0.6515
100
AcDbArc
 50
145.8319786818
 51
214.1761469876
  0
ARC
  5
36E
100
AcDbEntity
  8
0
100
AcDbCircle
 62
9
  6
CONTINUOUS
 10
15.0473183383
 20
10.0520928417
 40
0.6146339942
100
AcDbArc
 50
57.9808831492
 51
122.0101237215
  0
ARC
  5
36F
100
AcDbEntity
  8
0
100
AcDbCircle
 62
9
  6
CONTINUOUS
 10
15.0473183383
 20
10.0520928417
 40
0.6146339942
100
AcDbArc
 50
147.9898762785
 51
212.0191168508
  0
ARC
  5
370
100
AcDbEntity
  8
0
100
AcDbCircle
 62
9
  6
CONTINUOUS
 10
15.0473183383
 20
10.0520928417
 40
0.6146339942
100
AcDbArc
 50
237.9808831492
 51
302.0101237215
  0
ARC
  5
371
100
AcDbEntity
  8
0
100
AcDbCircle
 62
9
  6
CONTINUOUS
 10
15.0473183383
 20
10.0520928417
 40
0.6146339942
100
AcDbArc
 50
327.9898762785
 51
32.0191168508
  0
CIRCLE
  5
372
100
AcDbEntity
  8
0
100
AcDbCircle
 62
7
  6
CONTINUOUS
 10
15.0473183383
 20
10.0520928417
 40
0.5575
  0
CIRCLE
  5
373
100
AcDbEntity
  8
0
100
AcDbCircle
 62
7
  6
CONTINUOUS
 10
15.0473183383
 20
10.0520928417
 40
0.5275
  0
CIRCLE
  5
374
100
AcDbEntity
  8
0
100
AcDbCircle
 62
7
  6
CONTINUOUS
 10
15.0473183383
 20
10.0520928417
 40
0.5132341523
  0
CIRCLE
  5
375
100
AcDbEntity
  8
0
100
AcDbCircle
 62
7
  6
CONTINUOUS
 10
15.0473183383
 20
10.0520928417
 40
0.4545099561
  0
CIRCLE
  5
376
100
AcDbEntity
  8
0
100
AcDbCircle
 62
7
  6
CONTINUOUS
 10
15.0473183383
 20
10.0520928417
 40
0.4275
  0
CIRCLE
  5
377
100
AcDbEntity
  8
0
100
AcDbCircle
 62
7
  6
CONTINUOUS
 10
15.0473183383
 20
10.0520928417
 40
0.4175
  0
CIRCLE
  5
378
100
AcDbEntity
  8
0
100
AcDbCircle
 62
9
  6
CONTINUOUS
 10
15.0473183383
 20
10.0520928417
 40
0.3951446566
  0
ARC
  5
379
100
AcDbEntity
  8
0
100
AcDbCircle
 62
7
  6
CONTINUOUS
 10
15.0690472738
 20
10.0759430975
 40
0.03
100
AcDbArc
 50
61.4592496283
 51
135.0
  0
ARC
  5
37A
100
AcDbEntity
  8
0
100
AcDbCircle
 62
7
  6
CONTINUOUS
 10
15.2936573413
 20
10.8096700475
 40
0.25
100
AcDbArc
 50
269.3699304528
 51
1.9739483152
  0
ARC
  5
37B
100
AcDbEntity
  8
0
100
AcDbCircle
 62
7
  6
CONTINUOUS
 10
15.2905672968
 20
10.528687038
 40
0.031
100
AcDbArc
 50
89.3699285546
 51
111.2832692003
  0
ARC
  5
37C
100
AcDbEntity
  8
0
100
AcDbCircle
 62
7
  6
CONTINUOUS
 10
15.8048955441
 20
10.2984318447
 40
0.25
100
AcDbArc
 50
88.0260516848
 51
180.6300695472
  0
ARC
  5
37D
100
AcDbEntity
  8
0
100
AcDbCircle
 62
7
  6
CONTINUOUS
 10
15.5239125346
 20
10.2953418002
 40
0.031
100
AcDbArc
 50
340.2040808207
 51
0.6300714454
  0
ARC
  5
37E
100
AcDbEntity
  8
0
100
AcDbCircle
 62
7
  6
CONTINUOUS
 10
15.883472107
 20
10.8882466105
 40
0.275
100
AcDbArc
 50
280.0
 51
170.0
  0
ARC
  5
37F
100
AcDbEntity
  8
0
100
AcDbCircle
 62
7
  6
CONTINUOUS
 10
15.8353137005
 20
10.58426584
 40
0.016
100
AcDbArc
 50
100.0000000002
 51
225.0
  0
ARC
  5
380
100
AcDbEntity
  8
0
100
AcDbCircle
 62
7
  6
CONTINUOUS
 10
15.5794913366
 20
10.8400882039
 40
0.016
100
AcDbArc
 50
225.0
 51
349.9999999998
  0
ARC
  5
381
100
AcDbEntity
  8
0
100
AcDbCircle
 62
7
  6
CONTINUOUS
 10
15.5594994948
 20
10.8188324394
 40
0.016
100
AcDbArc
 50
79.6234510999
 51
181.9739483152
  0
ARC
  5
382
100
AcDbEntity
  8
0
100
AcDbCircle
 62
7
  6
CONTINUOUS
 10
15.814057936
 20
10.5642739982
 40
0.016
100
AcDbArc
 50
268.0260516848
 51
10.3765489001
  0
ARC
  5
383
100
AcDbEntity
  8
0
100
AcDbCircle
 62
7
  6
CONTINUOUS
 10
26.6333544334
 20
6.4798482016
 40
15.3186145294
100
AcDbArc
 50
178.320793812
 51
178.5049412734
  0
ARC
  5
384
100
AcDbEntity
  8
0
100
AcDbCircle
 62
7
  6
CONTINUOUS
 10
33.4472388964
 20
5.9556257822
 40
21.8997980199
100
AcDbArc
 50
177.497978878
 51
177.6167684092
  0
ARC
  5
385
100
AcDbEntity
  8
0
100
AcDbCircle
 62
7
  6
CONTINUOUS
 10
42.7200669856
 20
12.4531898402
 40
32.3025508013
100
AcDbArc
 50
185.9587678451
 51
186.0908806889
  0
ARC
  5
386
100
AcDbEntity
  8
0
100
AcDbCircle
 62
9
  6
CONTINUOUS
 10
35.9176710355
 20
20.2890371056
 40
27.9160329695
100
AcDbArc
 50
202.7823790939
 51
203.0293258992
  0
SPLINE
  5
387
100
AcDbEntity
  8
0
100
AcDbSpline
 62
7
  6
CONTINUOUS
 70
0
 71
3
 72
11
 73
7
 74
0
 42
0.0000001
 43
0.0000001
 44
0.0000000001
 40
0.0
 40
0.0
 40
0.0
 40
0.0
 40
0.273039475
 40
0.4997206271
 40
0.7263911349
 40
1.0
 40
1.0
 40
1.0
 40
1.0
 10
6.9907497958
 20
9.9955242992
 30
0.0
 10
7.0075729164
 20
9.9787022214
 30
0.0
 10
7.0476220535
 20
9.957173421
 30
0.0
 10
7.1114019669
 20
9.9856517792
 30
0.0
 10
7.1397243131
 20
10.0493516397
 30
0.0
 10
7.1185858348
 20
10.089720924
 30
0.0
 10
7.1017655604
 20
10.1065400639
 30
0.0
  0
SPLINE
  5
388
100
AcDbEntity
  8
0
100
AcDbSpline
 62
7
  6
CONTINUOUS
 70
0
 71
3
 72
11
 73
7
 74
0
 42
0.0000001
 43
0.0000001
 44
0.0000000001
 40
0.0
 40
0.0
 40
0.0
 40
0.0
 40
0.2911005069
 40
0.5007865867
 40
0.7104726666
 40
1.0
 40
1.0
 40
1.0
 40
1.0
 10
7.0765218483
 20
10.0812963518
 30
0.0
 10
7.088338899
 20
10.0694793012
 30
0.0
 10
7.1059235788
 20
10.0464057183
 30
0.0
 10
7.0933936546
 20
10.0037182666
 30
0.0
 10
7.0504819101
 20
9.9908255878
 30
0.0
 10
7.0282432579
 20
10.0093667895
 30
0.0
 10
7.0164177719
 20
10.0211922754
 30
0.0
  0
SPLINE
  5
389
100
AcDbEntity
  8
0
100
AcDbSpline
 62
7
  6
CONTINUOUS
 70
0
 71
3
 72
11
 73
7
 74
0
 42
0.0000001
 43
0.0000001
 44
0.0000000001
 40
0.0
 40
0.0
 40
0.0
 40
0.0
 40
0.2895273334
 40
0.4992134133
 40
0.7088994931
 40
1.0
 40
1.0
 40
1.0
 40
1.0
 10
7.0164177719
 20
10.0211922754
 30
0.0
 10
7.004592286
 20
10.0330177613
 30
0.0
 10
6.9860510843
 20
10.0552564135
 30
0.0
 10
6.9989437631
 20
10.098168158
 30
0.0
 10
7.0416312149
 20
10.1106980822
 30
0.0
 10
7.0647047977
 20
10.0931134024
 30
0.0
 10
7.0765218483
 20
10.0812963518
 30
0.0
  0
SPLINE
  5
38A
100
AcDbEntity
  8
0
100
AcDbSpline
 62
7
  6
CONTINUOUS
 70
0
 71
3
 72
11
 73
7
 74
0
 42
0.0000001
 43
0.0000001
 44
0.0000000001
 40
0.0
 40
0.0
 40
0.0
 40
0.0
 40
0.2736079326
 40
0.5003103346
 40
0.7269614556
 40
1.0
 40
1.0
 40
1.0
 40
1.0
 10
7.1017655604
 20
10.1065400639
 30
0.0
 10
7.0849452861
 20
10.1233592038
 30
0.0
 10
7.0445711601
 20
10.1444971194
 30
0.0
 10
6.9808846995
 20
10.1161837985
 30
0.0
 10
6.9523972187
 20
10.0523911934
 30
0.0
 10
6.9739266752
 20
10.012346377
 30
0.0
 10
6.9907497958
 20
9.9955242992
 30
0.0
  0
SPLINE
  5
38B
100
AcDbEntity
  8
0
100
AcDbSpline
 62
7
  6
CONTINUOUS
 70
0
 71
3
 72
11
 73
7
 74
0
 42
0.0000001
 43
0.0000001
 44
0.0000000001
 40
0.0
 40
0.0
 40
0.0
 40
0.0
 40
0.2895273334
 40
0.4992134133
 40
0.7088994931
 40
1.0
 40
1.0
 40
1.0
 40
1.0
 10
15.1347874471
 20
9.9646237329
 30
0.0
 10
15.1229619612
 20
9.952798247
 30
0.0
 10
15.100723309
 20
9.9342570453
 30
0.0
 10
15.0578115645
 20
9.9471497241
 30
0.0
 10
15.0452816403
 20
9.9898371758
 30
0.0
 10
15.0628663201
 20
10.0129107587
 30
0.0
 10
15.0746833707
 20
10.0247278093
 30
0.0
  0
SPLINE
  5
38C
100
AcDbEntity
  8
0
100
AcDbSpline
 62
7
  6
CONTINUOUS
 70
0
 71
3
 72
11
 73
7
 74
0
 42
0.0000001
 43
0.0000001
 44
0.0000000001
 40
0.0
 40
0.0
 40
0.0
 40
0.0
 40
0.2730403189
 40
0.4997214642
 40
0.7263919651
 40
1.0
 40
1.0
 40
1.0
 40
1.0
 10
15.1604552658
 20
9.9389555992
 30
0.0
 10
15.1772774276
 20
9.9557787408
 30
0.0
 10
15.1988063349
 20
9.9958279397
 30
0.0
 10
15.1703279433
 20
10.0596079279
 30
0.0
 10
15.1066281548
 20
10.087930242
 30
0.0
 10
15.0662589312
 20
10.0667918652
 30
0.0
 10
15.0494398102
 20
10.049971673
 30
0.0
  0
SPLINE
  5
38D
100
AcDbEntity
  8
0
100
AcDbSpline
 62
7
  6
CONTINUOUS
 70
0
 71
3
 72
11
 73
7
 74
0
 42
0.0000001
 43
0.0000001
 44
0.0000000001
 40
0.0
 40
0.0
 40
0.0
 40
0.0
 40
0.2911005069
 40
0.5007865867
 40
0.7104726666
 40
1.0
 40
1.0
 40
1.0
 40
1.0
 10
15.0746833707
 20
10.0247278093
 30
0.0
 10
15.0865004213
 20
10.0365448599
 30
0.0
 10
15.1095740042
 20
10.0541295397
 30
0.0
 10
15.1522614559
 20
10.0415996155
 30
0.0
 10
15.1651541347
 20
9.998687871
 30
0.0
 10
15.146612933
 20
9.9764492188
 30
0.0
 10
15.1347874471
 20
9.9646237329
 30
0.0
  0
SPLINE
  5
38E
100
AcDbEntity
  8
0
100
AcDbSpline
 62
7
  6
CONTINUOUS
 70
0
 71
3
 72
11
 73
7
 74
0
 42
0.0000001
 43
0.0000001
 44
0.0000000001
 40
0.0
 40
0.0
 40
0.0
 40
0.0
 40
0.2736100635
 40
0.5003111614
 40
0.7269609786
 40
1.0
 40
1.0
 40
1.0
 40
1.0
 10
15.0494403419
 20
10.0499722046
 30
0.0
 10
15.0326208318
 20
10.033151845
 30
0.0
 10
15.0114824588
 20
9.9927774456
 30
0.0
 10
15.039795924
 20
9.9290906605
 30
0.0
 10
15.1035887089
 20
9.9006030994
 30
0.0
 10
15.1436336737
 20
9.9221328126
 30
0.0
 10
15.1604558017
 20
9.9389561352
 30
0.0
  0
SPLINE
  5
38F
100
AcDbEntity
  8
0
100
AcDbSpline
 62
7
  6
CONTINUOUS
 70
0
 71
3
 72
11
 73
7
 74
0
 42
0.0000001
 43
0.0000001
 44
0.0000000001
 40
0.0
 40
0.0
 40
0.0
 40
0.0
 40
0.2500884878
 40
0.5001480475
 40
0.7501462578
 40
1.0
 40
1.0
 40
1.0
 40
1.0
 10
11.0473502627
 20
3.7325708791
 30
0.0
 10
11.0620619411
 20
3.7325709875
 30
0.0
 10
11.0914948124
 20
3.7335807775
 30
0.0
 10
11.1354118999
 20
3.738253407
 30
0.0
 10
11.1788692324
 20
3.7460394184
 30
0.0
 10
11.2074018536
 20
3.7532712713
 30
0.0
 10
11.2215039832
 20
3.7574134088
 30
0.0
  0
SPLINE
  5
390
100
AcDbEntity
  8
0
100
AcDbSpline
 62
7
  6
CONTINUOUS
 70
0
 71
3
 72
16
 73
12
 74
0
 42
0.0000001
 43
0.0000001
 44
0.0000000001
 40
0.0
 40
0.0
 40
0.0
 40
0.0
 40
0.1256773794
 40
0.2512839673
 40
0.3766230107
 40
0.5017358618
 40
0.6266087488
 40
0.7512404379
 40
0.813529938
 40
0.8757914183
 40
1.0
 40
1.0
 40
1.0
 40
1.0
 10
11.2215039832
 20
3.7574134088
 30
0.0
 10
11.2446952153
 20
3.7642252336
 30
0.0
 10
11.2903020081
 20
3.7806166982
 30
0.0
 10
11.3552093441
 20
3.8131438827
 30
0.0
 10
11.4156136538
 20
3.8532543669
 30
0.0
 10
11.4705189349
 20
3.9004013632
 30
0.0
 10
11.5190403816
 20
3.9539133378
 30
0.0
 10
11.5534645793
 20
4.0032311972
 30
0.0
 10
11.576987248
 20
4.0450204943
 30
0.0
 10
11.5977037304
 20
4.0881715291
 30
0.0
 10
11.6100488001
 20
4.1219875119
 30
0.0
 10
11.6167289622
 20
4.1449229319
 30
0.0
  0
SPLINE
  5
391
100
AcDbEntity
  8
0
100
AcDbSpline
 62
7
  6
CONTINUOUS
 70
0
 71
3
 72
12
 73
8
 74
0
 42
0.0000001
 43
0.0000001
 44
0.0000000001
 40
0.0
 40
0.0
 40
0.0
 40
0.0
 40
0.2500351214
 40
0.3751217308
 40
0.5001565136
 40
0.7500445315
 40
1.0
 40
1.0
 40
1.0
 40
1.0
 10
11.6167289622
 20
4.1449229319
 30
0.0
 10
11.6231287414
 20
4.166895695
 30
0.0
 10
11.6308729791
 20
4.2004465262
 30
0.0
 10
11.6372923273
 20
4.2457924882
 30
0.0
 10
11.6410509983
 20
4.2914282095
 30
0.0
 10
11.6407554818
 20
4.3487561519
 30
0.0
 10
11.6352006568
 20
4.3942878664
 30
0.0
 10
11.6311235781
 20
4.4168001579
 30
0.0
  0
SPLINE
  5
392
100
AcDbEntity
  8
0
100
AcDbSpline
 62
7
  6
CONTINUOUS
 70
0
 71
3
 72
12
 73
8
 74
0
 42
0.0000001
 43
0.0000001
 44
0.0000000001
 40
0.0
 40
0.0
 40
0.0
 40
0.0
 40
0.2499502481
 40
0.4998413057
 40
0.6248780978
 40
0.7499650998
 40
1.0
 40
1.0
 40
1.0
 40
1.0
 10
10.4627452722
 20
4.4123116214
 30
0.0
 10
10.4589113918
 20
4.3901715774
 30
0.0
 10
10.4537547159
 20
4.3454217512
 30
0.0
 10
10.4537217263
 20
4.2891213159
 30
0.0
 10
10.4575488023
 20
4.244312143
 30
0.0
 10
10.4639399252
 20
4.1997886403
 30
0.0
 10
10.471556095
 20
4.1668428119
 30
0.0
 10
10.4778264762
 20
4.1452579898
 30
0.0
  0
SPLINE
  5
393
100
AcDbEntity
  8
0
100
AcDbSpline
 62
7
  6
CONTINUOUS
 70
0
 71
3
 72
16
 73
12
 74
0
 42
0.0000001
 43
0.0000001
 44
0.0000000001
 40
0.0
 40
0.0
 40
0.0
 40
0.0
 40
0.1242093258
 40
0.186470987
 40
0.2487603086
 40
0.3733909983
 40
0.4982633825
 40
0.6233763774
 40
0.7487160029
 40
0.8743227286
 40
1.0
 40
1.0
 40
1.0
 40
1.0
 10
10.4778264762
 20
4.1452579898
 30
0.0
 10
10.4844889437
 20
4.1223234662
 30
0.0
 10
10.4968065114
 20
4.0885068607
 30
0.0
 10
10.517486414
 20
4.0453513239
 30
0.0
 10
10.5409730071
 20
4.0035556378
 30
0.0
 10
10.5753536689
 20
3.9542260341
 30
0.0
 10
10.6238247632
 20
3.9006930947
 30
0.0
 10
10.6786826197
 20
3.8535184815
 30
0.0
 10
10.7390431945
 20
3.8133745491
 30
0.0
 10
10.8039106562
 20
3.780807934
 30
0.0
 10
10.849494754
 20
3.7643885645
 30
0.0
 10
10.8726757285
 20
3.7575632575
 30
0.0
  0
SPLINE
  5
394
100
AcDbEntity
  8
0
100
AcDbSpline
 62
7
  6
CONTINUOUS
 70
0
 71
3
 72
10
 73
6
 74
0
 42
0.0000001
 43
0.0000001
 44
0.0000000001
 40
0.0
 40
0.0
 40
0.0
 40
0.0
 40
0.2499315483
 40
0.4999974041
 40
1.0
 40
1.0
 40
1.0
 40
1.0
 10
10.8726757285
 20
3.7575632575
 30
0.0
 10
10.8868185909
 20
3.7533990936
 30
0.0
 10
10.9154271979
 20
3.7460901592
 30
0.0
 10
10.9735212071
 20
3.7356652679
 30
0.0
 10
11.0178557104
 20
3.7325706617
 30
0.0
 10
11.0473502627
 20
3.7325708791
 30
0.0
  0
SPLINE
  5
395
100
AcDbEntity
  8
0
100
AcDbSpline
 62
7
  6
CONTINUOUS
 70
0
 71
3
 72
12
 73
8
 74
0
 42
0.0000001
 43
0.0000001
 44
0.0000000001
 40
0.0
 40
0.0
 40
0.0
 40
0.0
 40
0.257771352
 40
0.3872235323
 40
0.5156575329
 40
0.7654608947
 40
1.0
 40
1.0
 40
1.0
 40
1.0
 10
11.5613183696
 20
5.4255171065
 30
0.0
 10
11.5638416513
 20
5.3658265998
 30
0.0
 10
11.5682802044
 20
5.2761850387
 30
0.0
 10
11.5755617202
 20
5.1568918731
 30
0.0
 10
11.5836954011
 20
5.0395044799
 30
0.0
 10
11.5954235539
 20
4.8979580047
 30
0.0
 10
11.6067416112
 20
4.7862656534
 30
0.0
 10
11.6127849913
 20
4.7322433689
 30
0.0
  0
SPLINE
  5
396
100
AcDbEntity
  8
0
100
AcDbSpline
 62
7
  6
CONTINUOUS
 70
0
 71
3
 72
14
 73
10
 74
0
 42
0.0000001
 43
0.0000001
 44
0.0000000001
 40
0.0
 40
0.0
 40
0.0
 40
0.0
 40
0.235031762
 40
0.3551236168
 40
0.4777336012
 40
0.603383111
 40
0.7323895739
 40
0.864828509
 40
1.0
 40
1.0
 40
1.0
 40
1.0
 10
10.5275507058
 20
6.8662901675
 30
0.0
 10
10.5323103492
 20
6.7534821275
 30
0.0
 10
10.538172237
 20
6.5829730201
 30
0.0
 10
10.5431740232
 20
6.3535238726
 30
0.0
 10
10.5454020151
 20
6.1765804334
 30
0.0
 10
10.5458990433
 20
5.9953407052
 30
0.0
 10
10.5443480198
 20
5.8093839241
 30
0.0
 10
10.540447887
 20
5.6188856654
 30
0.0
 10
10.5360455872
 20
5.4903963852
 30
0.0
 10
10.5333183659
 20
5.4255177864
 30
0.0
  0
SPLINE
  5
397
100
AcDbEntity
  8
0
100
AcDbSpline
 62
7
  6
CONTINUOUS
 70
0
 71
3
 72
14
 73
10
 74
0
 42
0.0000001
 43
0.0000001
 44
0.0000000001
 40
0.0
 40
0.0
 40
0.0
 40
0.0
 40
0.2350449444
 40
0.3551401108
 40
0.4777512976
 40
0.6033998321
 40
0.7324030243
 40
0.8648362998
 40
1.0
 40
1.0
 40
1.0
 40
1.0
 10
11.5663832605
 20
6.8662904426
 30
0.0
 10
11.561688386
 20
6.7534737474
 30
0.0
 10
11.5559277522
 20
6.5829538519
 30
0.0
 10
11.5510587717
 20
6.3534941677
 30
0.0
 10
11.5489288885
 20
6.176548459
 30
0.0
 10
11.5485254389
 20
5.995310627
 30
0.0
 10
11.5501620223
 20
5.8093600385
 30
0.0
 10
11.5541360185
 20
5.6188720719
 30
0.0
 10
11.5585759382
 20
5.4903910848
 30
0.0
 10
11.5613183395
 20
5.4255171004
 30
0.0
  0
SPLINE
  5
398
100
AcDbEntity
  8
0
100
AcDbSpline
 62
7
  6
CONTINUOUS
 70
0
 71
3
 72
14
 73
10
 74
0
 42
0.0000001
 43
0.0000001
 44
0.0000000001
 40
0.0
 40
0.0
 40
0.0
 40
0.0
 40
0.1083916214
 40
0.2215888959
 40
0.3395788617
 40
0.4623484116
 40
0.5898696313
 40
0.7220549912
 40
1.0
 40
1.0
 40
1.0
 40
1.0
 10
11.7346894811
 20
8.6910394188
 30
0.0
 10
11.7247299607
 20
8.6272094425
 30
0.0
 10
11.705470868
 20
8.4965455291
 30
0.0
 10
11.6791065323
 20
8.2958706769
 30
0.0
 10
11.6547698013
 20
8.0863101465
 30
0.0
 10
11.6325933597
 20
7.8679276923
 30
0.0
 10
11.6127110569
 20
7.6408300251
 30
0.0
 10
11.5889766461
 20
7.3212587772
 30
0.0
 10
11.575550133
 20
7.0771545018
 30
0.0
 10
11.5683184062
 20
6.9116548948
 30
0.0
  0
SPLINE
  5
399
100
AcDbEntity
  8
0
100
AcDbSpline
 62
7
  6
CONTINUOUS
 70
0
 71
3
 72
14
 73
10
 74
0
 42
0.0000001
 43
0.0000001
 44
0.0000000001
 40
0.0
 40
0.0
 40
0.0
 40
0.0
 40
0.108375933
 40
0.2215599383
 40
0.3395403942
 40
0.4623055868
 40
0.5898287181
 40
0.7220221256
 40
1.0
 40
1.0
 40
1.0
 40
1.0
 10
10.358606629
 20
8.690518033
 30
0.0
 10
10.368565298
 20
8.6267143022
 30
0.0
 10
10.3878307931
 20
8.496103405
 30
0.0
 10
10.4142257316
 20
8.2955085986
 30
0.0
 10
10.4386134988
 20
8.0860253134
 30
0.0
 10
10.4608603265
 20
7.8677143317
 30
0.0
 10
10.4808312018
 20
7.640680356
 30
0.0
 10
10.504709751
 20
7.3211774539
 30
0.0
 10
10.5182647354
 20
7.0771194303
 30
0.0
 10
10.5255898187
 20
6.9116472299
 30
0.0
  0
SPLINE
  5
39A
100
AcDbEntity
  8
0
100
AcDbSpline
 62
7
  6
CONTINUOUS
 70
0
 71
3
 72
12
 73
8
 74
0
 42
0.0000001
 43
0.0000001
 44
0.0000000001
 40
0.0
 40
0.0
 40
0.0
 40
0.0
 40
0.2576713291
 40
0.3870823425
 40
0.5154906831
 40
0.7653127422
 40
1.0
 40
1.0
 40
1.0
 40
1.0
 10
10.533318367
 20
5.4255177862
 30
0.0
 10
10.530818101
 20
5.3660382865
 30
0.0
 10
10.5264137396
 20
5.2767114563
 30
0.0
 10
10.5191765167
 20
5.1578323512
 30
0.0
 10
10.5110842742
 20
5.0408257321
 30
0.0
 10
10.499400034
 20
4.8996928958
 30
0.0
 10
10.4881103332
 20
4.7883152111
 30
0.0
 10
10.4820786217
 20
4.7344299247
 30
0.0
  0
SPLINE
  5
39B
100
AcDbEntity
  8
0
100
AcDbSpline
 62
7
  6
CONTINUOUS
 70
0
 71
3
 72
9
 73
5
 74
0
 42
0.0000001
 43
0.0000001
 44
0.0000000001
 40
0.0
 40
0.0
 40
0.0
 40
0.0
 40
0.5354237306
 40
1.0
 40
1.0
 40
1.0
 40
1.0
 10
10.066131174
 20
9.9415467299
 30
0.0
 10
10.0718755707
 20
9.9260793411
 30
0.0
 10
10.082332702
 20
9.8970891163
 30
0.0
 10
10.0921337918
 20
9.8678696611
 30
0.0
 10
10.0965034904
 20
9.8542364239
 30
0.0
  0
SPLINE
  5
39C
100
AcDbEntity
  8
0
100
AcDbSpline
 62
7
  6
CONTINUOUS
 70
0
 71
3
 72
15
 73
11
 74
0
 42
0.0000001
 43
0.0000001
 44
0.0000000001
 40
0.0
 40
0.0
 40
0.0
 40
0.0
 40
0.1000840086
 40
0.2071437218
 40
0.3213587486
 40
0.4427941111
 40
0.5714139625
 40
0.7071796887
 40
0.8500537438
 40
1.0
 40
1.0
 40
1.0
 40
1.0
 10
10.0965034904
 20
9.8542364239
 30
0.0
 10
10.1086616504
 20
9.8163036275
 30
0.0
 10
10.132866556
 20
9.7374842288
 30
0.0
 10
10.1676681189
 20
9.6143985882
 30
0.0
 10
10.2019697252
 20
9.4823724879
 30
0.0
 10
10.235591781
 20
9.3413352593
 30
0.0
 10
10.2683546861
 20
9.1913046273
 30
0.0
 10
10.3000617126
 20
9.0323371717
 30
0.0
 10
10.3305178219
 20
8.8644920201
 30
0.0
 10
10.3494032074
 20
8.7494830044
 30
0.0
 10
10.358606629
 20
8.6905180324
 30
0.0
  0
SPLINE
  5
39D
100
AcDbEntity
  8
0
100
AcDbSpline
 62
7
  6
CONTINUOUS
 70
0
 71
3
 72
15
 73
11
 74
0
 42
0.0000001
 43
0.0000001
 44
0.0000000001
 40
0.0
 40
0.0
 40
0.0
 40
0.0
 40
0.1000651638
 40
0.2071170649
 40
0.3213333792
 40
0.442775569
 40
0.5714046138
 40
0.7071787147
 40
0.8500570202
 40
1.0
 40
1.0
 40
1.0
 40
1.0
 10
11.9971495594
 20
9.8537052364
 30
0.0
 10
11.9849465907
 20
9.8158272108
 30
0.0
 10
11.9606606745
 20
9.7371105906
 30
0.0
 10
11.9257651073
 20
9.6141650851
 30
0.0
 10
11.8913909323
 20
9.4822669984
 30
0.0
 10
11.8577169681
 20
9.3413506862
 30
0.0
 10
11.8249221939
 20
9.1914390358
 30
0.0
 10
11.7932026904
 20
9.0325934872
 30
0.0
 10
11.7627528238
 20
8.8648779877
 30
0.0
 10
11.7438826277
 20
8.7499577561
 30
0.0
 10
11.7346894801
 20
8.6910394177
 30
0.0
  0
SPLINE
  5
39E
100
AcDbEntity
  8
0
100
AcDbSpline
 62
7
  6
CONTINUOUS
 70
0
 71
3
 72
9
 73
5
 74
0
 42
0.0000001
 43
0.0000001
 44
0.0000000001
 40
0.0
 40
0.0
 40
0.0
 40
0.0
 40
0.4653929033
 40
1.0
 40
1.0
 40
1.0
 40
1.0
 10
11.9971496238
 20
9.8537054282
 30
0.0
 10
12.0015453938
 20
9.8673499229
 30
0.0
 10
12.0114324046
 20
9.896526576
 30
0.0
 10
12.02203639
 20
9.9254490286
 30
0.0
 10
12.0278606848
 20
9.9408516615
 30
0.0
  0
SPLINE
  5
39F
100
AcDbEntity
  8
0
100
AcDbSpline
 62
7
  6
CONTINUOUS
 70
0
 71
3
 72
15
 73
11
 74
0
 42
0.0000001
 43
0.0000001
 44
0.0000000001
 40
0.0
 40
0.0
 40
0.0
 40
0.0
 40
0.2026840558
 40
0.3729011805
 40
0.5161264392
 40
0.6395509568
 40
0.7499924022
 40
0.8485025613
 40
0.9322308125
 40
1.0
 40
1.0
 40
1.0
 40
1.0
 10
11.6278396881
 20
4.4346147627
 30
0.0
 10
11.6280422866
 20
4.4316803509
 30
0.0
 10
11.6283100495
 20
4.4262732114
 30
0.0
 10
11.6283073225
 20
4.418779216
 30
0.0
 10
11.6278870159
 20
4.4124472792
 30
0.0
 10
11.6270713465
 20
4.4070288166
 30
0.0
 10
11.6259332318
 20
4.4023356359
 30
0.0
 10
11.6245272365
 20
4.3983154468
 30
0.0
 10
11.6228624175
 20
4.3950810328
 30
0.0
 10
11.6214152151
 20
4.3933652703
 30
0.0
 10
11.6206304674
 20
4.3927724737
 30
0.0
  0
SPLINE
  5
3A0
100
AcDbEntity
  8
0
100
AcDbSpline
 62
9
  6
CONTINUOUS
 70
0
 71
3
 72
11
 73
7
 74
0
 42
0.0000001
 43
0.0000001
 44
0.0000000001
 40
0.0
 40
0.0
 40
0.0
 40
0.0
 40
0.1997485485
 40
0.4337376367
 40
0.7008603491
 40
1.0
 40
1.0
 40
1.0
 40
1.0
 10
10.5255899106
 20
6.9116488591
 30
0.0
 10
10.5420403935
 20
6.9133213345
 30
0.0
 10
10.5778023688
 20
6.916549623
 30
0.0
 10
10.6356586739
 20
6.9208914226
 30
0.0
 10
10.7017743398
 20
6.9250538779
 30
0.0
 10
10.7485850696
 20
6.9275311406
 30
0.0
 10
10.7733185665
 20
6.9287380578
 30
0.0
  0
SPLINE
  5
3A1
100
AcDbEntity
  8
0
100
AcDbSpline
 62
7
  6
CONTINUOUS
 70
0
 71
3
 72
15
 73
11
 74
0
 42
0.0000001
 43
0.0000001
 44
0.0000000001
 40
0.0
 40
0.0
 40
0.0
 40
0.0
 40
0.1080446453
 40
0.2221214699
 40
0.3417013569
 40
0.466260999
 40
0.5952220291
 40
0.7277531152
 40
0.8629690806
 40
1.0
 40
1.0
 40
1.0
 40
1.0
 10
11.4937855107
 20
9.0256659147
 30
0.0
 10
11.4857936817
 20
8.9502902983
 30
0.0
 10
11.4689087933
 20
8.7953793934
 30
0.0
 10
11.4428274876
 20
8.5570838772
 30
0.0
 10
11.4164814955
 20
8.3071626583
 30
0.0
 10
11.3910994081
 20
8.0466454394
 30
0.0
 10
11.3679212193
 20
7.7767996274
 30
0.0
 10
11.3478054254
 20
7.4992095005
 30
0.0
 10
11.3316439074
 20
7.2156881816
 30
0.0
 10
11.3241353958
 20
7.0248289151
 30
0.0
 10
11.3213183395
 20
6.9287369374
 30
0.0
  0
LINE
  5
3A2
100
AcDbEntity
  8
0
100
AcDbLine
 62
9
  6
CONTINUOUS
 10
11.0472984807
 20
4.3625292821
 11
11.0473184303
 21
5.4399369506
  0
SPLINE
  5
3A3
100
AcDbEntity
  8
0
100
AcDbSpline
 62
9
  6
CONTINUOUS
 70
0
 71
3
 72
11
 73
7
 74
0
 42
0.0000001
 43
0.0000001
 44
0.0000000001
 40
0.0
 40
0.0
 40
0.0
 40
0.0
 40
0.2597440683
 40
0.5126900928
 40
0.7592648969
 40
1.0
 40
1.0
 40
1.0
 40
1.0
 10
11.4937855128
 20
9.0256659342
 30
0.0
 10
11.5185868197
 20
8.999818013
 30
0.0
 10
11.5658724152
 20
8.9471619139
 30
0.0
 10
11.6302438293
 20
8.8644604715
 30
0.0
 10
11.6868809601
 20
8.7794085741
 30
0.0
 10
11.7197075342
 20
8.7206673265
 30
0.0
 10
11.7346894811
 20
8.6910394188
 30
0.0
  0
SPLINE
  5
3A4
100
AcDbEntity
  8
0
100
AcDbSpline
 62
7
  6
CONTINUOUS
 70
0
 71
3
 72
15
 73
11
 74
0
 42
0.0000001
 43
0.0000001
 44
0.0000000001
 40
0.0
 40
0.0
 40
0.0
 40
0.0
 40
0.2043496896
 40
0.3819963755
 40
0.5348107525
 40
0.6648817739
 40
0.77433929
 40
0.8649383909
 40
0.9389323096
 40
1.0
 40
1.0
 40
1.0
 40
1.0
 10
10.4667920706
 20
4.4347391376
 30
0.0
 10
10.4665865172
 20
4.4317563281
 30
0.0
 10
10.4663158021
 20
4.4261714443
 30
0.0
 10
10.4663326699
 20
4.418342683
 30
0.0
 10
10.466761899
 20
4.41161297
 30
0.0
 10
10.4675636419
 20
4.4059219294
 30
0.0
 10
10.4686901376
 20
4.401215578
 30
0.0
 10
10.4701188547
 20
4.3974524311
 30
0.0
 10
10.4718335161
 20
4.3946049298
 30
0.0
 10
10.4732934454
 20
4.3932141558
 30
0.0
 10
10.4740483539
 20
4.3927361962
 30
0.0
  0
SPLINE
  5
3A5
100
AcDbEntity
  8
0
100
AcDbSpline
 62
7
  6
CONTINUOUS
 70
0
 71
3
 72
12
 73
8
 74
0
 42
0.0000001
 43
0.0000001
 44
0.0000000001
 40
0.0
 40
0.0
 40
0.0
 40
0.0
 40
0.261362195
 40
0.5172431304
 40
0.6417913509
 40
0.7638309649
 40
1.0
 40
1.0
 40
1.0
 40
1.0
 10
11.0473183386
 20
3.8122783873
 30
0.0
 10
11.0299290351
 20
3.8122786293
 30
0.0
 10
10.9954616484
 20
3.8149505353
 30
0.0
 10
10.9537161478
 20
3.8247424901
 30
0.0
 10
10.9222690644
 20
3.8361783417
 30
0.0
 10
10.8929597835
 20
3.8493655377
 30
0.0
 10
10.8722849174
 20
3.8614234932
 30
0.0
 10
10.8593002574
 20
3.8702722605
 30
0.0
  0
SPLINE
  5
3A6
100
AcDbEntity
  8
0
100
AcDbSpline
 62
9
  6
CONTINUOUS
 70
0
 71
3
 72
11
 73
7
 74
0
 42
0.0000001
 43
0.0000001
 44
0.0000000001
 40
0.0
 40
0.0
 40
0.0
 40
0.0
 40
0.2205845013
 40
0.4607658633
 40
0.7205654169
 40
1.0
 40
1.0
 40
1.0
 40
1.0
 10
10.8593002574
 20
3.8702722605
 30
0.0
 10
10.8605083102
 20
3.906928005
 30
0.0
 10
10.8635155498
 20
3.9834804428
 30
0.0
 10
10.8694289768
 20
4.1031413312
 30
0.0
 10
10.8769388702
 20
4.2325150128
 30
0.0
 10
10.8827972178
 20
4.32198039
 30
0.0
 10
10.8859771385
 20
4.3683318379
 30
0.0
  0
SPLINE
  5
3A7
100
AcDbEntity
  8
0
100
AcDbSpline
 62
7
  6
CONTINUOUS
 70
0
 71
3
 72
14
 73
10
 74
0
 42
0.0000001
 43
0.0000001
 44
0.0000000001
 40
0.0
 40
0.0
 40
0.0
 40
0.0
 40
0.115896233
 40
0.2413006521
 40
0.373309758
 40
0.5083141033
 40
0.7717573964
 40
0.89215252
 40
1.0
 40
1.0
 40
1.0
 40
1.0
 10
10.7632983862
 20
4.3806181543
 30
0.0
 10
10.7630239091
 20
4.4215286196
 30
0.0
 10
10.7627137108
 20
4.5067077137
 30
0.0
 10
10.7628887906
 20
4.6384864632
 30
0.0
 10
10.7637089068
 20
4.7770079943
 30
0.0
 10
10.7654668405
 20
4.9642513359
 30
0.0
 10
10.7679262975
 20
5.1473869213
 30
0.0
 10
10.7705085688
 20
5.320932851
 30
0.0
 10
10.7717413513
 20
5.401493098
 30
0.0
 10
10.7723183383
 20
5.4395589006
 30
0.0
  0
SPLINE
  5
3A8
100
AcDbEntity
  8
0
100
AcDbSpline
 62
7
  6
CONTINUOUS
 70
0
 71
3
 72
15
 73
11
 74
0
 42
0.0000001
 43
0.0000001
 44
0.0000000001
 40
0.0
 40
0.0
 40
0.0
 40
0.0
 40
0.108048238
 40
0.2221282878
 40
0.3417105556
 40
0.4662713168
 40
0.5952319359
 40
0.7277610473
 40
0.8629736072
 40
1.0
 40
1.0
 40
1.0
 40
1.0
 10
10.5998698554
 20
9.0257023443
 30
0.0
 10
10.6079061487
 20
8.9503244958
 30
0.0
 10
10.6248855122
 20
8.7954100007
 30
0.0
 10
10.651113943
 20
8.5571101432
 30
0.0
 10
10.6776094163
 20
8.307185299
 30
0.0
 10
10.7031361718
 20
8.0466647259
 30
0.0
 10
10.7264469722
 20
7.7768153716
 30
0.0
 10
10.7466782517
 20
7.4992214037
 30
0.0
 10
10.7629328835
 20
7.2156957237
 30
0.0
 10
10.7704848747
 20
7.0248324902
 30
0.0
 10
10.7733182883
 20
6.9287385878
 30
0.0
  0
SPLINE
  5
3A9
100
AcDbEntity
  8
0
100
AcDbSpline
 62
9
  6
CONTINUOUS
 70
0
 71
3
 72
10
 73
6
 74
0
 42
0.0000001
 43
0.0000001
 44
0.0000000001
 40
0.0
 40
0.0
 40
0.0
 40
0.0
 40
0.24096642
 40
0.487681306
 40
1.0
 40
1.0
 40
1.0
 40
1.0
 10
10.3586065781
 20
8.6905183593
 30
0.0
 10
10.3737036134
 20
8.7201675939
 30
0.0
 10
10.4067127265
 20
8.7789585567
 30
0.0
 10
10.4833532982
 20
8.8939186869
 30
0.0
 10
10.5510187991
 20
8.9745404774
 30
0.0
 10
10.5998698554
 20
9.0257023443
 30
0.0
  0
SPLINE
  5
3AA
100
AcDbEntity
  8
0
100
AcDbSpline
 62
7
  6
CONTINUOUS
 70
0
 71
3
 72
16
 73
12
 74
0
 42
0.0000001
 43
0.0000001
 44
0.0000000001
 40
0.0
 40
0.0
 40
0.0
 40
0.0
 40
0.0461066201
 40
0.0955572626
 40
0.2037041423
 40
0.3226364005
 40
0.4500851696
 40
0.583598416
 40
0.7209795653
 40
0.8603365234
 40
1.0
 40
1.0
 40
1.0
 40
1.0
 10
10.5920523549
 20
9.0997613642
 30
0.0
 10
10.5916461751
 20
9.1036545684
 30
0.0
 10
10.5911153474
 20
9.1117576371
 30
0.0
 10
10.591090984
 20
9.1290605363
 30
0.0
 10
10.5931017816
 20
9.1524974895
 30
0.0
 10
10.5983587159
 20
9.1821644618
 30
0.0
 10
10.6063673542
 20
9.2134342271
 30
0.0
 10
10.6168783101
 20
9.2455996313
 30
0.0
 10
10.6296147436
 20
9.2780362939
 30
0.0
 10
10.6442803438
 20
9.3102185194
 30
0.0
 10
10.6551647437
 20
9.3312701523
 30
0.0
 10
10.6608587976
 20
9.3416705368
 30
0.0
  0
SPLINE
  5
3AB
100
AcDbEntity
  8
0
100
AcDbSpline
 62
7
  6
CONTINUOUS
 70
0
 71
3
 72
12
 73
8
 74
0
 42
0.0000001
 43
0.0000001
 44
0.0000000001
 40
0.0
 40
0.0
 40
0.0
 40
0.0
 40
0.2608219319
 40
0.5172026986
 40
0.7649160396
 40
0.8843508756
 40
1.0
 40
1.0
 40
1.0
 40
1.0
 10
10.6608587976
 20
9.3416705368
 30
0.0
 10
10.6665402827
 20
9.35204806
 30
0.0
 10
10.6764529434
 20
9.3734010319
 30
0.0
 10
10.6868602506
 20
9.4065971509
 30
0.0
 10
10.6916192917
 20
9.4345839918
 30
0.0
 10
10.6928861793
 20
9.4564634958
 30
0.0
 10
10.6926920976
 20
9.4671387618
 30
0.0
 10
10.6923793916
 20
9.472375324
 30
0.0
  0
SPLINE
  5
3AC
100
AcDbEntity
  8
0
100
AcDbSpline
 62
9
  6
CONTINUOUS
 70
0
 71
3
 72
13
 73
9
 74
0
 42
0.0000001
 43
0.0000001
 44
0.0000000001
 40
0.0
 40
0.0
 40
0.0
 40
0.0
 40
0.250148792
 40
0.3752074638
 40
0.5002425874
 40
0.6252477697
 40
0.7502172355
 40
1.0
 40
1.0
 40
1.0
 40
1.0
 10
11.0473186124
 20
9.1123225965
 30
0.0
 10
11.0093380452
 20
9.1123251145
 30
0.0
 10
10.9523686068
 20
9.1119221506
 30
0.0
 10
10.8764266242
 20
9.1106211695
 30
0.0
 10
10.8194902534
 20
9.1092675455
 30
0.0
 10
10.7625782079
 20
9.1075168947
 30
0.0
 10
10.686753674
 20
9.104625422
 30
0.0
 10
10.6299199375
 20
9.101847329
 30
0.0
 10
10.5920523549
 20
9.0997613642
 30
0.0
  0
SPLINE
  5
3AD
100
AcDbEntity
  8
0
100
AcDbSpline
 62
9
  6
CONTINUOUS
 70
0
 71
3
 72
13
 73
9
 74
0
 42
0.0000001
 43
0.0000001
 44
0.0000000001
 40
0.0
 40
0.0
 40
0.0
 40
0.0
 40
0.287297733
 40
0.4208279964
 40
0.5478926002
 40
0.6688489426
 40
0.7841071497
 40
1.0
 40
1.0
 40
1.0
 40
1.0
 10
10.6608596589
 20
9.3416701052
 30
0.0
 10
10.6450555123
 20
9.3718723667
 30
0.0
 10
10.6211292929
 20
9.4157173622
 30
0.0
 10
10.5881142815
 20
9.4717213423
 30
0.0
 10
10.5641871221
 20
9.5101575241
 30
0.0
 10
10.5403987586
 20
9.5461097455
 30
0.0
 10
10.5093917893
 20
9.5898885121
 30
0.0
 10
10.4850769053
 20
9.6208065459
 30
0.0
 10
10.4684830384
 20
9.6403203067
 30
0.0
  0
SPLINE
  5
3AE
100
AcDbEntity
  8
0
100
AcDbSpline
 62
9
  6
CONTINUOUS
 70
0
 71
3
 72
13
 73
9
 74
0
 42
0.0000001
 43
0.0000001
 44
0.0000000001
 40
0.0
 40
0.0
 40
0.0
 40
0.0
 40
0.237958096
 40
0.362331995
 40
0.4891063001
 40
0.6173901951
 40
0.7461234868
 40
1.0
 40
1.0
 40
1.0
 40
1.0
 10
10.4721150749
 20
9.847192513
 30
0.0
 10
10.4804298159
 20
9.8322225495
 30
0.0
 10
10.4901777881
 20
9.8076309433
 30
0.0
 10
10.4965920529
 20
9.7729532363
 30
0.0
 10
10.4980546099
 20
9.7456032238
 30
0.0
 10
10.4958560166
 20
9.7179893289
 30
0.0
 10
10.4882952325
 20
9.6819374031
 30
0.0
 10
10.477518025
 20
9.6561994871
 30
0.0
 10
10.4684830383
 20
9.6403203067
 30
0.0
  0
SPLINE
  5
3AF
100
AcDbEntity
  8
0
100
AcDbSpline
 62
9
  6
CONTINUOUS
 70
0
 71
3
 72
15
 73
11
 74
0
 42
0.0000001
 43
0.0000001
 44
0.0000000001
 40
0.0
 40
0.0
 40
0.0
 40
0.0
 40
0.1252285725
 40
0.1856112835
 40
0.2449657014
 40
0.3621037923
 40
0.4796610638
 40
0.7259479546
 40
0.858771122
 40
1.0
 40
1.0
 40
1.0
 40
1.0
 10
10.4684830383
 20
9.6403203067
 30
0.0
 10
10.4566520351
 20
9.6541237522
 30
0.0
 10
10.4382658604
 20
9.6738875387
 30
0.0
 10
10.4122228872
 20
9.6981211875
 30
0.0
 10
10.3859102165
 20
9.7202811366
 30
0.0
 10
10.3512636662
 20
9.7453391388
 30
0.0
 10
10.291162793
 20
9.7810396183
 30
0.0
 10
10.2250141675
 20
9.8103201291
 30
0.0
 10
10.1539687117
 20
9.8359728085
 30
0.0
 10
10.1160900198
 20
9.8481761289
 30
0.0
 10
10.0965034747
 20
9.8542364638
 30
0.0
  0
SPLINE
  5
3B0
100
AcDbEntity
  8
0
100
AcDbSpline
 62
9
  6
CONTINUOUS
 70
0
 71
3
 72
11
 73
7
 74
0
 42
0.0000001
 43
0.0000001
 44
0.0000000001
 40
0.0
 40
0.0
 40
0.0
 40
0.0
 40
0.2138593538
 40
0.4523417704
 40
0.7146543584
 40
1.0
 40
1.0
 40
1.0
 40
1.0
 10
10.533318335
 20
5.4255171003
 30
0.0
 10
10.5503345351
 20
5.4268389949
 30
0.0
 10
10.5863434396
 20
5.4294134613
 30
0.0
 10
10.6432679609
 20
5.4329611801
 30
0.0
 10
10.7059138932
 20
5.4363955323
 30
0.0
 10
10.7495697461
 20
5.4385140538
 30
0.0
 10
10.7723183378
 20
5.4395588683
 30
0.0
  0
SPLINE
  5
3B1
100
AcDbEntity
  8
0
100
AcDbSpline
 62
7
  6
CONTINUOUS
 70
0
 71
3
 72
9
 73
5
 74
0
 42
0.0000001
 43
0.0000001
 44
0.0000000001
 40
0.0
 40
0.0
 40
0.0
 40
0.0
 40
0.4929914344
 40
1.0
 40
1.0
 40
1.0
 40
1.0
 10
10.5611282586
 20
4.583837723
 30
0.0
 10
10.5914814862
 20
4.5477639857
 30
0.0
 10
10.6562507621
 20
4.4772358334
 30
0.0
 10
10.7264993002
 20
4.412187994
 30
0.0
 10
10.7632983886
 20
4.3806182576
 30
0.0
  0
SPLINE
  5
3B2
100
AcDbEntity
  8
0
100
AcDbSpline
 62
9
  6
CONTINUOUS
 70
0
 71
3
 72
9
 73
5
 74
0
 42
0.0000001
 43
0.0000001
 44
0.0000000001
 40
0.0
 40
0.0
 40
0.0
 40
0.0
 40
0.2559595341
 40
1.0
 40
1.0
 40
1.0
 40
1.0
 10
10.1795831534
 20
9.479054269
 30
0.0
 10
10.1818727912
 20
9.478357475
 30
0.0
 10
10.1907938103
 20
9.475556418
 30
0.0
 10
10.1996148029
 20
9.4724335659
 30
0.0
 10
10.2060981252
 20
9.4699102494
 30
0.0
  0
SPLINE
  5
3B3
100
AcDbEntity
  8
0
100
AcDbSpline
 62
7
  6
CONTINUOUS
 70
0
 71
3
 72
11
 73
7
 74
0
 42
0.0000001
 43
0.0000001
 44
0.0000000001
 40
0.0
 40
0.0
 40
0.0
 40
0.0
 40
0.2274985851
 40
0.4699381349
 40
0.7274124995
 40
1.0
 40
1.0
 40
1.0
 40
1.0
 10
10.7673073319
 20
3.9648065988
 30
0.0
 10
10.765679845
 20
3.9963050045
 30
0.0
 10
10.7631153881
 20
4.0614132525
 30
0.0
 10
10.7612435253
 20
4.1622503587
 30
0.0
 10
10.7612258425
 20
4.269355325
 30
0.0
 10
10.7624167281
 20
4.3428368871
 30
0.0
 10
10.7632983863
 20
4.3806181553
 30
0.0
  0
SPLINE
  5
3B4
100
AcDbEntity
  8
0
100
AcDbSpline
 62
7
  6
CONTINUOUS
 70
0
 71
3
 72
12
 73
8
 74
0
 42
0.0000001
 43
0.0000001
 44
0.0000000001
 40
0.0
 40
0.0
 40
0.0
 40
0.0
 40
0.2613841562
 40
0.39045476
 40
0.5174778152
 40
0.7638642382
 40
1.0
 40
1.0
 40
1.0
 40
1.0
 10
11.0473183386
 20
3.8122783873
 30
0.0
 10
11.0647346446
 20
3.812278145
 30
0.0
 10
11.0908127048
 20
3.8142809494
 30
0.0
 10
11.1246687939
 20
3.8209410954
 30
0.0
 10
11.1569552683
 20
3.8299212493
 30
0.0
 10
11.194732712
 20
3.8452604392
 30
0.0
 10
11.2225778357
 20
3.8615700043
 30
0.0
 10
11.2355707209
 20
3.8704437302
 30
0.0
  0
SPLINE
  5
3B5
100
AcDbEntity
  8
0
100
AcDbSpline
 62
9
  6
CONTINUOUS
 70
0
 71
3
 72
17
 73
13
 74
0
 42
0.0000001
 43
0.0000001
 44
0.0000000001
 40
0.0
 40
0.0
 40
0.0
 40
0.0
 40
0.0218134611
 40
0.0491555424
 40
0.0820616532
 40
0.1205255443
 40
0.214004873
 40
0.3292785671
 40
0.4659500463
 40
0.6235913921
 40
0.8017588881
 40
1.0
 40
1.0
 40
1.0
 40
1.0
 10
10.8726757285
 20
3.7575632575
 30
0.0
 10
10.8723573362
 20
3.7583260842
 30
0.0
 10
10.8717479754
 20
3.7600896251
 30
0.0
 10
10.8709277928
 20
3.7630900781
 30
0.0
 10
10.8701034084
 20
3.7667398206
 30
0.0
 10
10.868922308
 20
3.7728746787
 30
0.0
 10
10.8674902043
 20
3.7821353542
 30
0.0
 10
10.8658479038
 20
3.7951222803
 30
0.0
 10
10.8641984072
 20
3.8105561963
 30
0.0
 10
10.8625427932
 20
3.8283841864
 30
0.0
 10
10.8608836491
 20
3.848553819
 30
0.0
 10
10.8598310993
 20
3.862778826
 30
0.0
 10
10.8593002574
 20
3.8702722605
 30
0.0
  0
SPLINE
  5
3B6
100
AcDbEntity
  8
0
100
AcDbSpline
 62
9
  6
CONTINUOUS
 70
0
 71
3
 72
14
 73
10
 74
0
 42
0.0000001
 43
0.0000001
 44
0.0000000001
 40
0.0
 40
0.0
 40
0.0
 40
0.0
 40
0.0553646848
 40
0.1316720055
 40
0.228403213
 40
0.3450337544
 40
0.4810368283
 40
0.6358845793
 40
1.0
 40
1.0
 40
1.0
 40
1.0
 10
10.4777419347
 20
4.1454657262
 30
0.0
 10
10.4779431031
 20
4.1483413903
 30
0.0
 10
10.4783019334
 20
4.1551885157
 30
0.0
 10
10.47877337
 20
4.1670714756
 30
0.0
 10
10.4792489549
 20
4.1821464631
 30
0.0
 10
10.4797290038
 20
4.2003306458
 30
0.0
 10
10.480210899
 20
4.2215416898
 30
0.0
 10
10.480892778
 20
4.2556372462
 30
0.0
 10
10.4813458631
 20
4.2826545546
 30
0.0
 10
10.4816422189
 20
4.3016107599
 30
0.0
  0
SPLINE
  5
3B7
100
AcDbEntity
  8
0
100
AcDbSpline
 62
7
  6
CONTINUOUS
 70
0
 71
3
 72
21
 73
17
 74
0
 42
0.0000001
 43
0.0000001
 44
0.0000000001
 40
0.0
 40
0.0
 40
0.0
 40
0.0
 40
0.0685615451
 40
0.1384700388
 40
0.2089990305
 40
0.2794831549
 40
0.3492522318
 40
0.4176842611
 40
0.4843427258
 40
0.5489953077
 40
0.6114370572
 40
0.6717014689
 40
0.7863926507
 40
0.8950692945
 40
0.9478752313
 40
1.0
 40
1.0
 40
1.0
 40
1.0
 10
10.4816422189
 20
4.3016107599
 30
0.0
 10
10.4831850354
 20
4.2908162882
 30
0.0
 10
10.4867912109
 20
4.2690799949
 30
0.0
 10
10.4940475694
 20
4.2366234678
 30
0.0
 10
10.5033327725
 20
4.2043645895
 30
0.0
 10
10.5147897024
 20
4.1728299008
 30
0.0
 10
10.5283985521
 20
4.1425224813
 30
0.0
 10
10.5441103887
 20
4.1139368154
 30
0.0
 10
10.561734422
 20
4.0874597965
 30
0.0
 10
10.5809839518
 20
4.0633459835
 30
0.0
 10
10.6016557368
 20
4.041821659
 30
0.0
 10
10.6302725832
 20
4.017123431
 30
0.0
 10
10.6684314226
 20
3.9925310915
 30
0.0
 10
10.7094639752
 20
3.9760777041
 30
0.0
 10
10.7425200034
 20
3.9680668268
 30
0.0
 10
10.7590597893
 20
3.9656448369
 30
0.0
 10
10.7673073319
 20
3.9648065988
 30
0.0
  0
SPLINE
  5
3B8
100
AcDbEntity
  8
0
100
AcDbSpline
 62
9
  6
CONTINUOUS
 70
0
 71
3
 72
13
 73
9
 74
0
 42
0.0000001
 43
0.0000001
 44
0.0000000001
 40
0.0
 40
0.0
 40
0.0
 40
0.0
 40
0.2497820357
 40
0.374751229
 40
0.4997563823
 40
0.6247916514
 40
0.7498505454
 40
1.0
 40
1.0
 40
1.0
 40
1.0
 10
11.5015582696
 20
9.0997044215
 30
0.0
 10
11.4637762643
 20
9.1017900157
 30
0.0
 10
11.407070921
 20
9.104568414
 30
0.0
 10
11.3314175941
 20
9.1074635855
 30
0.0
 10
11.2746339384
 20
9.1092190877
 30
0.0
 10
11.2178259215
 20
9.1105802831
 30
0.0
 10
11.1420550209
 20
9.1118961616
 30
0.0
 10
11.0852137965
 20
9.1123146236
 30
0.0
 10
11.0473186124
 20
9.1123225965
 30
0.0
  0
SPLINE
  5
3B9
100
AcDbEntity
  8
0
100
AcDbSpline
 62
7
  6
CONTINUOUS
 70
0
 71
3
 72
12
 73
8
 74
0
 42
0.0000001
 43
0.0000001
 44
0.0000000001
 40
0.0
 40
0.0
 40
0.0
 40
0.0
 40
0.1155972811
 40
0.2350183885
 40
0.4827665359
 40
0.7391990328
 40
1.0
 40
1.0
 40
1.0
 40
1.0
 10
11.4016541849
 20
9.472375324
 30
0.0
 10
11.4012995274
 20
9.4670704201
 30
0.0
 10
11.4010333446
 20
9.4562501859
 30
0.0
 10
11.4022007184
 20
9.4340596523
 30
0.0
 10
11.4069220845
 20
9.4056582763
 30
0.0
 10
11.4174056205
 20
9.3719718103
 30
0.0
 10
11.4274436524
 20
9.3503110152
 30
0.0
 10
11.4332056252
 20
9.3397903457
 30
0.0
  0
SPLINE
  5
3BA
100
AcDbEntity
  8
0
100
AcDbSpline
 62
7
  6
CONTINUOUS
 70
0
 71
3
 72
11
 73
7
 74
0
 42
0.0000001
 43
0.0000001
 44
0.0000000001
 40
0.0
 40
0.0
 40
0.0
 40
0.0
 40
0.2391648465
 40
0.4847488591
 40
0.7379570188
 40
1.0
 40
1.0
 40
1.0
 40
1.0
 10
10.7673073319
 20
3.9648065988
 30
0.0
 10
10.7730945135
 20
3.9559496684
 30
0.0
 10
10.7856200735
 20
3.9385028974
 30
0.0
 10
10.8070627596
 20
3.9138229948
 30
0.0
 10
10.8315702114
 20
3.8906735779
 30
0.0
 10
10.8497210491
 20
3.8768002855
 30
0.0
 10
10.8593002574
 20
3.8702722605
 30
0.0
  0
SPLINE
  5
3BB
100
AcDbEntity
  8
0
100
AcDbSpline
 62
7
  6
CONTINUOUS
 70
0
 71
3
 72
11
 73
7
 74
0
 42
0.0000001
 43
0.0000001
 44
0.0000000001
 40
0.0
 40
0.0
 40
0.0
 40
0.0
 40
0.2499870708
 40
0.4999930352
 40
0.7500172514
 40
1.0
 40
1.0
 40
1.0
 40
1.0
 10
11.4341801442
 20
9.5627221049
 30
0.0
 10
11.4301593481
 20
9.5557578827
 30
0.0
 10
11.4227222818
 20
9.5414687879
 30
0.0
 10
11.413533775
 20
9.519126455
 30
0.0
 10
11.4063715939
 20
9.4960559801
 30
0.0
 10
11.4029797122
 20
9.4803067762
 30
0.0
 10
11.4016541849
 20
9.472375324
 30
0.0
  0
SPLINE
  5
3BC
100
AcDbEntity
  8
0
100
AcDbSpline
 62
7
  6
CONTINUOUS
 70
0
 71
3
 72
11
 73
7
 74
0
 42
0.0000001
 43
0.0000001
 44
0.0000000001
 40
0.0
 40
0.0
 40
0.0
 40
0.0
 40
0.2499821038
 40
0.5000074451
 40
0.750013276
 40
1.0
 40
1.0
 40
1.0
 40
1.0
 10
10.6923793916
 20
9.472375324
 30
0.0
 10
10.6910802618
 20
9.480433139
 30
0.0
 10
10.6877163028
 20
9.4964358932
 30
0.0
 10
10.6805292485
 20
9.519878339
 30
0.0
 10
10.6712505467
 20
9.5425758963
 30
0.0
 10
10.6637113101
 20
9.5570846759
 30
0.0
 10
10.6596302967
 20
9.5641531915
 30
0.0
  0
SPLINE
  5
3BD
100
AcDbEntity
  8
0
100
AcDbSpline
 62
9
  6
CONTINUOUS
 70
0
 71
3
 72
11
 73
7
 74
0
 42
0.0000001
 43
0.0000001
 44
0.0000000001
 40
0.0
 40
0.0
 40
0.0
 40
0.0
 40
0.2817908943
 40
0.5407814393
 40
0.7790269611
 40
1.0
 40
1.0
 40
1.0
 40
1.0
 10
10.6531693929
 20
9.5753805645
 30
0.0
 10
10.6378095423
 20
9.6019669258
 30
0.0
 10
10.6077065344
 20
9.6526319352
 30
0.0
 10
10.5620736787
 20
9.7242269119
 30
0.0
 10
10.5174990832
 20
9.7885743437
 30
0.0
 10
10.4871847227
 20
9.8284114864
 30
0.0
 10
10.4721160104
 20
9.8471908295
 30
0.0
  0
SPLINE
  5
3BE
100
AcDbEntity
  8
0
100
AcDbSpline
 62
9
  6
CONTINUOUS
 70
0
 71
3
 72
11
 73
7
 74
0
 42
0.0000001
 43
0.0000001
 44
0.0000000001
 40
0.0
 40
0.0
 40
0.0
 40
0.0
 40
0.2209796451
 40
0.4592003034
 40
0.7181822658
 40
1.0
 40
1.0
 40
1.0
 40
1.0
 10
11.6219371899
 20
9.8461802516
 30
0.0
 10
11.6068595414
 20
9.8273812519
 30
0.0
 10
11.5765267238
 20
9.7875080044
 30
0.0
 10
11.5319209988
 20
9.7231058497
 30
0.0
 10
11.4862520714
 20
9.6514502908
 30
0.0
 10
11.4561216054
 20
9.6007417943
 30
0.0
 10
11.4407461167
 20
9.574131332
 30
0.0
  0
SPLINE
  5
3BF
100
AcDbEntity
  8
0
100
AcDbSpline
 62
9
  6
CONTINUOUS
 70
0
 71
3
 72
14
 73
10
 74
0
 42
0.0000001
 43
0.0000001
 44
0.0000000001
 40
0.0
 40
0.0
 40
0.0
 40
0.0
 40
0.0555332571
 40
0.1319618804
 40
0.2287661836
 40
0.3454212907
 40
0.4814003085
 40
0.6361753967
 40
1.0
 40
1.0
 40
1.0
 40
1.0
 10
11.6168131631
 20
4.1451293786
 30
0.0
 10
11.616620752
 20
4.1480332771
 30
0.0
 10
11.6162771476
 20
4.1549409443
 30
0.0
 10
11.6158256037
 20
4.1669210847
 30
0.0
 10
11.6153700917
 20
4.1821062451
 30
0.0
 10
11.6149103488
 20
4.2004131011
 30
0.0
 10
11.6144488432
 20
4.2217587694
 30
0.0
 10
11.6137959067
 20
4.2560563122
 30
0.0
 10
11.6133619359
 20
4.2832305588
 30
0.0
 10
11.6130780841
 20
4.3022949735
 30
0.0
  0
SPLINE
  5
3C0
100
AcDbEntity
  8
0
100
AcDbSpline
 62
9
  6
CONTINUOUS
 70
0
 71
3
 72
13
 73
9
 74
0
 42
0.0000001
 43
0.0000001
 44
0.0000000001
 40
0.0
 40
0.0
 40
0.0
 40
0.0
 40
0.2405196385
 40
0.3656077129
 40
0.4926588965
 40
0.6207406041
 40
0.7488010537
 40
1.0
 40
1.0
 40
1.0
 40
1.0
 10
11.62193719
 20
9.8461802517
 30
0.0
 10
11.6135267408
 20
9.8310369281
 30
0.0
 10
11.6037185569
 20
9.8061792705
 30
0.0
 10
11.5973752368
 20
9.7711990005
 30
0.0
 10
11.5960190863
 20
9.7437642508
 30
0.0
 10
11.5983297903
 20
9.7161811684
 30
0.0
 10
11.6059778675
 20
9.680380481
 30
0.0
 10
11.61672039
 20
9.6548775333
 30
0.0
 10
11.6256816323
 20
9.6391616452
 30
0.0
  0
SPLINE
  5
3C1
100
AcDbEntity
  8
0
100
AcDbSpline
 62
9
  6
CONTINUOUS
 70
0
 71
3
 72
13
 73
9
 74
0
 42
0.0000001
 43
0.0000001
 44
0.0000000001
 40
0.0
 40
0.0
 40
0.0
 40
0.0
 40
0.2158396067
 40
0.3310936561
 40
0.4520125316
 40
0.7126173451
 40
0.8529301227
 40
1.0
 40
1.0
 40
1.0
 40
1.0
 10
11.6256816323
 20
9.6391616452
 30
0.0
 10
11.6090559762
 20
9.6196207499
 30
0.0
 10
11.5847253293
 20
9.5886287083
 30
0.0
 10
11.5537223157
 20
9.5447391754
 30
0.0
 10
11.5211575175
 20
9.4954680711
 30
0.0
 10
11.4891803382
 20
9.4422797377
 30
0.0
 10
11.4574268004
 20
9.3854030362
 30
0.0
 10
11.4413270638
 20
9.3552713613
 30
0.0
 10
11.4332056054
 20
9.3397903382
 30
0.0
  0
SPLINE
  5
3C2
100
AcDbEntity
  8
0
100
AcDbSpline
 62
9
  6
CONTINUOUS
 70
0
 71
3
 72
16
 73
12
 74
0
 42
0.0000001
 43
0.0000001
 44
0.0000000001
 40
0.0
 40
0.0
 40
0.0
 40
0.0
 40
0.1410762536
 40
0.2738363856
 40
0.3996435341
 40
0.5202604748
 40
0.6378633664
 40
0.7550455321
 40
0.8144205239
 40
0.8748084919
 40
1.0
 40
1.0
 40
1.0
 40
1.0
 10
11.9971495456
 20
9.8537052227
 30
0.0
 10
11.9776051773
 20
9.8476028485
 30
0.0
 10
11.9397938024
 20
9.8353446006
 30
0.0
 10
11.8852645267
 20
9.8155291692
 30
0.0
 10
11.8344932326
 20
9.7942240709
 30
0.0
 10
11.7871149321
 20
9.7707473308
 30
0.0
 10
11.7427578821
 20
9.7443066696
 30
0.0
 10
11.7081526965
 20
9.7191839455
 30
0.0
 10
11.6818804212
 20
9.6969754117
 30
0.0
 10
11.655871672
 20
9.6727224329
 30
0.0
 10
11.637500859
 20
9.6529615029
 30
0.0
 10
11.6256816323
 20
9.6391616452
 30
0.0
  0
SPLINE
  5
3C3
100
AcDbEntity
  8
0
100
AcDbSpline
 62
7
  6
CONTINUOUS
 70
0
 71
3
 72
16
 73
12
 74
0
 42
0.0000001
 43
0.0000001
 44
0.0000000001
 40
0.0
 40
0.0
 40
0.0
 40
0.0
 40
0.0461222006
 40
0.0955631557
 40
0.2036581205
 40
0.3225251852
 40
0.4499125656
 40
0.5833836207
 40
0.7207804636
 40
0.8602090143
 40
1.0
 40
1.0
 40
1.0
 40
1.0
 10
11.5015595325
 20
9.099719839
 30
0.0
 10
11.501960617
 20
9.1035852582
 30
0.0
 10
11.5024842482
 20
9.1116279715
 30
0.0
 10
11.5025029934
 20
9.1287967092
 30
0.0
 10
11.5005007525
 20
9.1520458222
 30
0.0
 10
11.4952797093
 20
9.1814733527
 30
0.0
 10
11.487330166
 20
9.2124926484
 30
0.0
 10
11.4768950105
 20
9.2444069418
 30
0.0
 10
11.4642480952
 20
9.2766009505
 30
0.0
 10
11.449677632
 20
9.308553789
 30
0.0
 10
11.4388635238
 20
9.3294597132
 30
0.0
 10
11.4332056341
 20
9.339790353
 30
0.0
  0
SPLINE
  5
3C4
100
AcDbEntity
  8
0
100
AcDbSpline
 62
7
  6
CONTINUOUS
 70
0
 71
3
 72
9
 73
5
 74
0
 42
0.0000001
 43
0.0000001
 44
0.0000000001
 40
0.0
 40
0.0
 40
0.0
 40
0.0
 40
0.2456217053
 40
1.0
 40
1.0
 40
1.0
 40
1.0
 10
12.0410708652
 20
9.9719324626
 30
0.0
 10
12.0426786751
 20
9.9753439724
 30
0.0
 10
12.0493955837
 20
9.9891522849
 30
0.0
 10
12.0567742646
 20
10.002636413
 30
0.0
 10
12.0626569063
 20
10.0126145299
 30
0.0
  0
LINE
  5
3C5
100
AcDbEntity
  8
0
100
AcDbLine
 62
7
  6
CONTINUOUS
 10
12.2273183383
 20
10.0520928418
 11
12.1532385296
 21
10.052092841
  0
SPLINE
  5
3C6
100
AcDbEntity
  8
0
100
AcDbSpline
 62
7
  6
CONTINUOUS
 70
0
 71
3
 72
15
 73
11
 74
0
 42
0.0000001
 43
0.0000001
 44
0.0000000001
 40
0.0
 40
0.0
 40
0.0
 40
0.0
 40
0.1428277439
 40
0.2778794273
 40
0.4061740723
 40
0.5290313843
 40
0.6480506378
 40
0.7649826053
 40
0.8816703674
 40
1.0
 40
1.0
 40
1.0
 40
1.0
 10
12.1532385296
 20
10.052092841
 30
0.0
 10
12.1483525323
 20
10.0520928405
 30
0.0
 10
12.1388402363
 20
10.0517197056
 30
0.0
 10
12.1250430007
 20
10.0499060471
 30
0.0
 10
12.1121657061
 20
10.0468365855
 30
0.0
 10
12.1002363286
 20
10.0424999012
 30
0.0
 10
12.0892738274
 20
10.0369064365
 30
0.0
 10
12.0792944361
 20
10.0300668071
 30
0.0
 10
12.0703214038
 20
10.0219888236
 30
0.0
 10
12.0650866075
 20
10.0158521798
 30
0.0
 10
12.0626569063
 20
10.0126145299
 30
0.0
  0
SPLINE
  5
3C7
100
AcDbEntity
  8
0
100
AcDbSpline
 62
7
  6
CONTINUOUS
 70
0
 71
3
 72
16
 73
12
 74
0
 42
0.0000001
 43
0.0000001
 44
0.0000000001
 40
0.0
 40
0.0
 40
0.0
 40
0.0
 40
0.0895568893
 40
0.172304504
 40
0.2498802157
 40
0.3231963749
 40
0.4595261511
 40
0.5846047996
 40
0.7002620389
 40
0.8076177657
 40
1.0
 40
1.0
 40
1.0
 40
1.0
 10
12.0626569063
 20
10.0126145299
 30
0.0
 10
12.0578428363
 20
10.0150969325
 30
0.0
 10
12.0484355395
 20
10.019597709
 30
0.0
 10
12.0344543951
 20
10.025350223
 30
0.0
 10
12.02116383
 20
10.0301613612
 30
0.0
 10
12.004606923
 20
10.0354287682
 30
0.0
 10
11.9850227467
 20
10.0406109801
 30
0.0
 10
11.9626759754
 20
10.0452061189
 30
0.0
 10
11.9418657755
 20
10.0484464137
 30
0.0
 10
11.9168905663
 20
10.0512073433
 30
0.0
 10
11.8987535933
 20
10.0520928258
 30
0.0
 10
11.8871182768
 20
10.0520928319
 30
0.0
  0
LINE
  5
3C8
100
AcDbEntity
  8
0
100
AcDbLine
 62
7
  6
CONTINUOUS
 10
11.8871182768
 20
10.0520928319
 11
11.7408208803
 21
10.0520928417
  0
SPLINE
  5
3C9
100
AcDbEntity
  8
0
100
AcDbSpline
 62
9
  6
CONTINUOUS
 70
0
 71
3
 72
11
 73
7
 74
0
 42
0.0000001
 43
0.0000001
 44
0.0000000001
 40
0.0
 40
0.0
 40
0.0
 40
0.0
 40
0.25439845
 40
0.5056580343
 40
0.7541628814
 40
1.0
 40
1.0
 40
1.0
 40
1.0
 10
11.8982548613
 20
9.4499578378
 30
0.0
 10
11.9194550002
 20
9.5011976926
 30
0.0
 10
11.9614832626
 20
9.6030907647
 30
0.0
 10
12.0245140412
 20
9.7549157482
 30
0.0
 10
12.0878646249
 20
9.9045847398
 30
0.0
 10
12.1311950773
 20
10.0032495873
 30
0.0
 10
12.1532374129
 20
10.0520924096
 30
0.0
  0
LINE
  5
3CA
100
AcDbEntity
  8
0
100
AcDbLine
 62
9
  6
CONTINUOUS
 10
11.869975528
 20
9.3817983944
 11
11.89825457
 21
9.4499577128
  0
SPLINE
  5
3CB
100
AcDbEntity
  8
0
100
AcDbSpline
 62
9
  6
CONTINUOUS
 70
0
 71
3
 72
17
 73
13
 74
0
 42
0.0000001
 43
0.0000001
 44
0.0000000001
 40
0.0
 40
0.0
 40
0.0
 40
0.0
 40
0.02194838
 40
0.0493945167
 40
0.0823804672
 40
0.1209039704
 40
0.2144509233
 40
0.3297333031
 40
0.4663610856
 40
0.6239103811
 40
0.8019402003
 40
1.0
 40
1.0
 40
1.0
 40
1.0
 10
11.2215807321
 20
3.7574443848
 30
0.0
 10
11.2219131257
 20
3.7582098084
 30
0.0
 10
11.222550204
 20
3.7599799797
 30
0.0
 10
11.2234084053
 20
3.7629932151
 30
0.0
 10
11.2242708732
 20
3.7666565024
 30
0.0
 10
11.2255060131
 20
3.7728099604
 30
0.0
 10
11.2270040003
 20
3.7820971769
 30
0.0
 10
11.2287219205
 20
3.7951194827
 30
0.0
 10
11.2304473135
 20
3.810592171
 30
0.0
 10
11.2321790506
 20
3.8284622555
 30
0.0
 10
11.2339144615
 20
3.8486772644
 30
0.0
 10
11.2350154576
 20
3.8629339625
 30
0.0
 10
11.2355707209
 20
3.8704437302
 30
0.0
  0
LINE
  5
3CC
100
AcDbEntity
  8
0
100
AcDbLine
 62
7
  6
CONTINUOUS
 10
10.7005670673
 20
10.6526836606
 11
10.4573183383
 21
11.0740028182
  0
LINE
  5
3CD
100
AcDbEntity
  8
0
100
AcDbLine
 62
7
  6
CONTINUOUS
 10
11.6373183383
 20
11.0740028182
 11
11.3940696093
 21
10.6526836607
  0
SPLINE
  5
3CE
100
AcDbEntity
  8
0
100
AcDbSpline
 62
7
  6
CONTINUOUS
 70
0
 71
3
 72
11
 73
7
 74
0
 42
0.0000001
 43
0.0000001
 44
0.0000000001
 40
0.0
 40
0.0
 40
0.0
 40
0.0
 40
0.2620102359
 40
0.5152220573
 40
0.7608193127
 40
1.0
 40
1.0
 40
1.0
 40
1.0
 10
11.2355707209
 20
3.8704437302
 30
0.0
 10
11.2451213841
 20
3.8769665284
 30
0.0
 10
11.263219973
 20
3.8908241298
 30
0.0
 10
11.287660775
 20
3.913936485
 30
0.0
 10
11.309049286
 20
3.9385714167
 30
0.0
 10
11.3215448869
 20
3.9559839905
 30
0.0
 10
11.3273183383
 20
3.9648233831
 30
0.0
  0
SPLINE
  5
3CF
100
AcDbEntity
  8
0
100
AcDbSpline
 62
9
  6
CONTINUOUS
 70
0
 71
3
 72
14
 73
10
 74
0
 42
0.0000001
 43
0.0000001
 44
0.0000000001
 40
0.0
 40
0.0
 40
0.0
 40
0.0
 40
0.2550041781
 40
0.3776740968
 40
0.4988615407
 40
0.6200333086
 40
0.7428108423
 40
0.8688916304
 40
1.0
 40
1.0
 40
1.0
 40
1.0
 10
11.8871183931
 20
10.0520930231
 30
0.0
 10
11.8614035467
 20
10.0391774312
 30
0.0
 10
11.8238487153
 20
10.0189041237
 30
0.0
 10
11.7763113388
 20
9.988710811
 30
0.0
 10
11.7427551721
 20
9.9647814109
 30
0.0
 10
11.710660739
 20
9.9389005653
 30
0.0
 10
11.6798291437
 20
9.9106990113
 30
0.0
 10
11.6500536039
 20
9.8798090399
 30
0.0
 10
11.6312145022
 20
9.8577053978
 30
0.0
 10
11.6219372717
 20
9.8461803986
 30
0.0
  0
LINE
  5
3D0
100
AcDbEntity
  8
0
100
AcDbLine
 62
7
  6
CONTINUOUS
 10
11.7408208614
 20
10.0520928745
 11
11.7166986688
 21
10.0520900803
  0
SPLINE
  5
3D1
100
AcDbEntity
  8
0
100
AcDbSpline
 62
9
  6
CONTINUOUS
 70
0
 71
3
 72
11
 73
7
 74
0
 42
0.0000001
 43
0.0000001
 44
0.0000000001
 40
0.0
 40
0.0
 40
0.0
 40
0.0
 40
0.2205897074
 40
0.4607728309
 40
0.7205706598
 40
1.0
 40
1.0
 40
1.0
 40
1.0
 10
11.2355707209
 20
3.8704437302
 30
0.0
 10
11.2343538484
 20
3.9070900045
 30
0.0
 10
11.231328837
 20
3.9836219112
 30
0.0
 10
11.2253891897
 20
4.1032495369
 30
0.0
 10
11.2178524207
 20
4.2325852546
 30
0.0
 10
11.2119763312
 20
4.3220237127
 30
0.0
 10
11.2087874093
 20
4.3683609215
 30
0.0
  0
LINE
  5
3D2
100
AcDbEntity
  8
0
100
AcDbLine
 62
7
  6
CONTINUOUS
 10
10.7126254959
 20
10.6317920272
 11
10.7005669065
 21
10.6526836606
  0
LINE
  5
3D3
100
AcDbEntity
  8
0
100
AcDbLine
 62
7
  6
CONTINUOUS
 10
11.3940695715
 20
10.6526836607
 11
11.382010895
 21
10.631791832
  0
LINE
  5
3D4
100
AcDbEntity
  8
0
100
AcDbLine
 62
7
  6
CONTINUOUS
 10
10.377937696
 20
10.0520899304
 11
10.353815716
 21
10.0520927024
  0
SPLINE
  5
3D5
100
AcDbEntity
  8
0
100
AcDbSpline
 62
7
  6
CONTINUOUS
 70
0
 71
3
 72
9
 73
5
 74
0
 42
0.0000001
 43
0.0000001
 44
0.0000000001
 40
0.0
 40
0.0
 40
0.0
 40
0.0
 40
0.4931728501
 40
1.0
 40
1.0
 40
1.0
 40
1.0
 10
10.055292138
 20
9.967939615
 30
0.0
 10
10.0518811424
 20
9.9755152028
 30
0.0
 10
10.0445310418
 20
9.990683066
 30
0.0
 10
10.0364427217
 20
10.0054689527
 30
0.0
 10
10.0321632222
 20
10.0128571409
 30
0.0
  0
SPLINE
  5
3D6
100
AcDbEntity
  8
0
100
AcDbSpline
 62
9
  6
CONTINUOUS
 70
0
 71
3
 72
14
 73
10
 74
0
 42
0.0000001
 43
0.0000001
 44
0.0000000001
 40
0.0
 40
0.0
 40
0.0
 40
0.0
 40
0.131217511
 40
0.2573807098
 40
0.3802079832
 40
0.5013916196
 40
0.6225512809
 40
0.7451628188
 40
1.0
 40
1.0
 40
1.0
 40
1.0
 10
10.4721150739
 20
9.8471925143
 30
0.0
 10
10.4628650604
 20
9.8586784261
 30
0.0
 10
10.444082945
 20
9.8807047838
 30
0.0
 10
10.4143999826
 20
9.9114809876
 30
0.0
 10
10.3836699898
 20
9.9395676314
 30
0.0
 10
10.3516879645
 20
9.9653287998
 30
0.0
 10
10.3182555366
 20
9.9891307957
 30
0.0
 10
10.2709043237
 20
10.0191399861
 30
0.0
 10
10.2334978757
 20
10.0392724581
 30
0.0
 10
10.2078868046
 20
10.0520937355
 30
0.0
  0
SPLINE
  5
3D7
100
AcDbEntity
  8
0
100
AcDbSpline
 62
7
  6
CONTINUOUS
 70
0
 71
3
 72
16
 73
12
 74
0
 42
0.0000001
 43
0.0000001
 44
0.0000000001
 40
0.0
 40
0.0
 40
0.0
 40
0.0
 40
0.092727526
 40
0.1925607847
 40
0.2999767769
 40
0.4156851809
 40
0.5407892679
 40
0.6771056701
 40
0.8278998021
 40
0.9105851542
 40
1.0
 40
1.0
 40
1.0
 40
1.0
 10
10.2078873016
 20
10.0520928336
 30
0.0
 10
10.2022755859
 20
10.0520928579
 30
0.0
 10
10.190620873
 20
10.0518158984
 30
0.0
 10
10.1725022168
 20
10.0506029726
 30
0.0
 10
10.1530679964
 20
10.0484697669
 30
0.0
 10
10.1322338567
 20
10.0452503312
 30
0.0
 10
10.1098620807
 20
10.0406829517
 30
0.0
 10
10.0857188538
 20
10.034346996
 30
0.0
 10
10.0644858367
 20
10.0271981543
 30
0.0
 10
10.046395803
 20
10.0197922128
 30
0.0
 10
10.0369794107
 20
10.015324087
 30
0.0
 10
10.0321632222
 20
10.0128571409
 30
0.0
  0
SPLINE
  5
3D8
100
AcDbEntity
  8
0
100
AcDbSpline
 62
7
  6
CONTINUOUS
 70
0
 71
3
 72
15
 73
11
 74
0
 42
0.0000001
 43
0.0000001
 44
0.0000000001
 40
0.0
 40
0.0
 40
0.0
 40
0.0
 40
0.1180791554
 40
0.2345920969
 40
0.3514602562
 40
0.4705015575
 40
0.5934386746
 40
0.7218668764
 40
0.8570757041
 40
1.0
 40
1.0
 40
1.0
 40
1.0
 10
10.0321632222
 20
10.0128571409
 30
0.0
 10
10.0297142542
 20
10.0160889918
 30
0.0
 10
10.0244324817
 20
10.0222079498
 30
0.0
 10
10.0153809303
 20
10.0302426374
 30
0.0
 10
10.0053265118
 20
10.0370402212
 30
0.0
 10
9.9942947876
 20
10.0426031697
 30
0.0
 10
9.9822950792
 20
10.0469123043
 30
0.0
 10
9.9693444299
 20
10.0499475596
 30
0.0
 10
9.9554761482
 20
10.0517287551
 30
0.0
 10
9.9459188226
 20
10.052092844
 30
0.0
 10
9.941010714
 20
10.0520928417
 30
0.0
  0
LINE
  5
3D9
100
AcDbEntity
  8
0
100
AcDbLine
 62
7
  6
CONTINUOUS
 10
9.941010714
 20
10.0520928417
 11
9.8673183383
 21
10.0520928417
  0
LINE
  5
3DA
100
AcDbEntity
  8
0
100
AcDbLine
 62
7
  6
CONTINUOUS
 10
10.3538157964
 20
10.0520928417
 11
10.2078873016
 21
10.0520928336
  0
SPLINE
  5
3DB
100
AcDbEntity
  8
0
100
AcDbSpline
 62
9
  6
CONTINUOUS
 70
0
 71
3
 72
10
 73
6
 74
0
 42
0.0000001
 43
0.0000001
 44
0.0000000001
 40
0.0
 40
0.0
 40
0.0
 40
0.0
 40
0.2456466839
 40
0.4941279738
 40
1.0
 40
1.0
 40
1.0
 40
1.0
 10
9.9410106933
 20
10.0520928521
 30
0.0
 10
9.9608547752
 20
10.0053010428
 30
0.0
 10
10.000349804
 20
9.9109984809
 30
0.0
 10
10.0794332382
 20
9.7198027579
 30
0.0
 10
10.139084606
 20
9.5755698676
 30
0.0
 10
10.1795831301
 20
9.4790542802
 30
0.0
  0
SPLINE
  5
3DC
100
AcDbEntity
  8
0
100
AcDbSpline
 62
7
  6
CONTINUOUS
 70
0
 71
3
 72
9
 73
5
 74
0
 42
0.0000001
 43
0.0000001
 44
0.0000000001
 40
0.0
 40
0.0
 40
0.0
 40
0.0
 40
0.4856571951
 40
1.0
 40
1.0
 40
1.0
 40
1.0
 10
11.6206304674
 20
4.3927724737
 30
0.0
 10
11.6201084121
 20
4.3780786619
 30
0.0
 10
11.6184908698
 20
4.3478379262
 30
0.0
 10
11.6152620545
 20
4.317712586
 30
0.0
 10
11.6130780841
 20
4.3022949735
 30
0.0
  0
SPLINE
  5
3DD
100
AcDbEntity
  8
0
100
AcDbSpline
 62
7
  6
CONTINUOUS
 70
0
 71
3
 72
21
 73
17
 74
0
 42
0.0000001
 43
0.0000001
 44
0.0000000001
 40
0.0
 40
0.0
 40
0.0
 40
0.0
 40
0.1383387731
 40
0.2792347298
 40
0.3489887523
 40
0.4174294623
 40
0.4841170399
 40
0.5487787448
 40
0.61125938
 40
0.6715507825
 40
0.729794416
 40
0.7862593574
 40
0.8412424615
 40
0.8950212006
 40
0.9478550115
 40
1.0
 40
1.0
 40
1.0
 40
1.0
 10
11.6130780841
 20
4.3022949735
 30
0.0
 10
11.609987567
 20
4.2804776472
 30
0.0
 10
11.6016471544
 20
4.2366959469
 30
0.0
 10
11.5846330127
 20
4.1835767781
 30
0.0
 10
11.5664351336
 20
4.1429733902
 30
0.0
 10
11.5507314413
 20
4.1143224576
 30
0.0
 10
11.5331172404
 20
4.0877717052
 30
0.0
 10
11.5138473536
 20
4.063597425
 30
0.0
 10
11.4931686497
 20
4.0420042699
 30
0.0
 10
11.4713301798
 20
4.0231118016
 30
0.0
 10
11.4485675438
 20
4.0069488643
 30
0.0
 10
11.4251024752
 20
3.993451912
 30
0.0
 10
11.4011158329
 20
3.9825284482
 30
0.0
 10
11.376754968
 20
3.9740985214
 30
0.0
 10
11.3521508427
 20
3.9681077565
 30
0.0
 10
11.3355813326
 20
3.9656660811
 30
0.0
 10
11.3273183383
 20
3.9648233831
 30
0.0
  0
SPLINE
  5
3DE
100
AcDbEntity
  8
0
100
AcDbSpline
 62
7
  6
CONTINUOUS
 70
0
 71
3
 72
14
 73
10
 74
0
 42
0.0000001
 43
0.0000001
 44
0.0000000001
 40
0.0
 40
0.0
 40
0.0
 40
0.0
 40
0.1199768675
 40
0.236323175
 40
0.3514320554
 40
0.4680105503
 40
0.7161853166
 40
0.8525629912
 40
1.0
 40
1.0
 40
1.0
 40
1.0
 10
10.7746898759
 20
6.8795215842
 30
0.0
 10
10.7762027058
 20
6.8219498628
 30
0.0
 10
10.7785814251
 20
6.7085320134
 30
0.0
 10
10.780551566
 20
6.5398465803
 30
0.0
 10
10.7813344071
 20
6.3727832372
 30
0.0
 10
10.7809941643
 20
6.1424377056
 30
0.0
 10
10.7788200401
 20
5.9018903599
 30
0.0
 10
10.7754226277
 20
5.6465461824
 30
0.0
 10
10.7733909661
 20
5.5103238194
 30
0.0
 10
10.7723183378
 20
5.4395588683
 30
0.0
  0
SPLINE
  5
3DF
100
AcDbEntity
  8
0
100
AcDbSpline
 62
9
  6
CONTINUOUS
 70
0
 71
3
 72
11
 73
7
 74
0
 42
0.0000001
 43
0.0000001
 44
0.0000000001
 40
0.0
 40
0.0
 40
0.0
 40
0.0
 40
0.1999482818
 40
0.4338191942
 40
0.7007842115
 40
1.0
 40
1.0
 40
1.0
 40
1.0
 10
10.5275507058
 20
6.8662901675
 30
0.0
 10
10.5440025151
 20
6.867490939
 30
0.0
 10
10.5797231235
 20
6.8697384653
 30
0.0
 10
10.6374552374
 20
6.8728188071
 30
0.0
 10
10.7033797333
 20
6.8760521838
 30
0.0
 10
10.7500346781
 20
6.8783077345
 30
0.0
 10
10.7746898759
 20
6.8795215842
 30
0.0
  0
LINE
  5
3E0
100
AcDbEntity
  8
0
100
AcDbLine
 62
9
  6
CONTINUOUS
 10
11.0473184246
 20
6.8804250973
 11
11.0473181714
 21
5.4399369568
  0
SPLINE
  5
3E1
100
AcDbEntity
  8
0
100
AcDbSpline
 62
9
  6
CONTINUOUS
 70
0
 71
3
 72
9
 73
5
 74
0
 42
0.0000001
 43
0.0000001
 44
0.0000000001
 40
0.0
 40
0.0
 40
0.0
 40
0.0
 40
0.2480757255
 40
1.0
 40
1.0
 40
1.0
 40
1.0
 10
10.7746898759
 20
6.8795215842
 30
0.0
 10
10.7972340241
 20
6.8796047149
 30
0.0
 10
10.8881097909
 20
6.8799994657
 30
0.0
 10
10.9789860335
 20
6.8804250065
 30
0.0
 10
11.0473184246
 20
6.8804250973
 30
0.0
  0
SPLINE
  5
3E2
100
AcDbEntity
  8
0
100
AcDbSpline
 62
7
  6
CONTINUOUS
 70
0
 71
3
 72
14
 73
10
 74
0
 42
0.0000001
 43
0.0000001
 44
0.0000000001
 40
0.0
 40
0.0
 40
0.0
 40
0.0
 40
0.1199761735
 40
0.2363224743
 40
0.3514317854
 40
0.4680109044
 40
0.7161865466
 40
0.8525639832
 40
1.0
 40
1.0
 40
1.0
 40
1.0
 10
11.3199547067
 20
6.8795221333
 30
0.0
 10
11.3184505911
 20
6.8219505422
 30
0.0
 10
11.3160856286
 20
6.7085328179
 30
0.0
 10
11.314127081
 20
6.5398474722
 30
0.0
 10
11.3133491473
 20
6.3727836899
 30
0.0
 10
11.3136882033
 20
6.1424373441
 30
0.0
 10
11.3158509617
 20
5.9018894296
 30
0.0
 10
11.3192303884
 20
5.6465452942
 30
0.0
 10
11.3212513368
 20
5.5103234231
 30
0.0
 10
11.3223183384
 20
5.4395588943
 30
0.0
  0
SPLINE
  5
3E3
100
AcDbEntity
  8
0
100
AcDbSpline
 62
9
  6
CONTINUOUS
 70
0
 71
3
 72
9
 73
5
 74
0
 42
0.0000001
 43
0.0000001
 44
0.0000000001
 40
0.0
 40
0.0
 40
0.0
 40
0.0
 40
0.2513232698
 40
1.0
 40
1.0
 40
1.0
 40
1.0
 10
11.0473184246
 20
6.8804250973
 30
0.0
 10
11.0701585115
 20
6.8804251277
 30
0.0
 10
11.1610378567
 20
6.8802834911
 30
0.0
 10
11.2519159401
 20
6.8797730335
 30
0.0
 10
11.3199547067
 20
6.8795221333
 30
0.0
  0
SPLINE
  5
3E4
100
AcDbEntity
  8
0
100
AcDbSpline
 62
7
  6
CONTINUOUS
 70
0
 71
3
 72
11
 73
7
 74
0
 42
0.0000001
 43
0.0000001
 44
0.0000000001
 40
0.0
 40
0.0
 40
0.0
 40
0.0
 40
0.2274869149
 40
0.4699225479
 40
0.7274007928
 40
1.0
 40
1.0
 40
1.0
 40
1.0
 10
11.3273183383
 20
3.9648233831
 30
0.0
 10
11.3289439543
 20
3.996321075
 30
0.0
 10
11.3315043224
 20
4.0614289969
 30
0.0
 10
11.333369338
 20
4.1622671954
 30
0.0
 10
11.3333793297
 20
4.2693765286
 30
0.0
 10
11.3321829275
 20
4.3428620478
 30
0.0
 10
11.3312983849
 20
4.3806458413
 30
0.0
  0
SPLINE
  5
3E5
100
AcDbEntity
  8
0
100
AcDbSpline
 62
9
  6
CONTINUOUS
 70
0
 71
3
 72
11
 73
7
 74
0
 42
0.0000001
 43
0.0000001
 44
0.0000000001
 40
0.0
 40
0.0
 40
0.0
 40
0.0
 40
0.3004307645
 40
0.5678345825
 40
0.8013171652
 40
1.0
 40
1.0
 40
1.0
 40
1.0
 10
11.3199547067
 20
6.8795221333
 30
0.0
 10
11.344639309
 20
6.8783114356
 30
0.0
 10
11.391296724
 20
6.8760614741
 30
0.0
 10
11.4571362083
 20
6.8728301755
 30
0.0
 10
11.5146023434
 20
6.8697499282
 30
0.0
 10
11.5500836229
 20
6.8674966217
 30
0.0
 10
11.5663832605
 20
6.8662904426
 30
0.0
  0
SPLINE
  5
3E6
100
AcDbEntity
  8
0
100
AcDbSpline
 62
7
  6
CONTINUOUS
 70
0
 71
3
 72
15
 73
11
 74
0
 42
0.0000001
 43
0.0000001
 44
0.0000000001
 40
0.0
 40
0.0
 40
0.0
 40
0.0
 40
0.1234366352
 40
0.2475016029
 40
0.3724241411
 40
0.498196325
 40
0.6242603426
 40
0.7500159553
 40
0.875230602
 40
1.0
 40
1.0
 40
1.0
 40
1.0
 10
11.6173004627
 20
4.6929031251
 30
0.0
 10
11.6140952592
 20
4.6883386495
 30
0.0
 10
11.6076171662
 20
4.6792224574
 30
0.0
 10
11.5977414109
 20
4.6655970668
 30
0.0
 10
11.5877060843
 20
4.6519576244
 30
0.0
 10
11.5775317719
 20
4.6383086061
 30
0.0
 10
11.5671743186
 20
4.6247500832
 30
0.0
 10
11.556595424
 20
4.6113951583
 30
0.0
 10
11.5457911235
 20
4.598297768
 30
0.0
 10
11.5384457428
 20
4.5897159602
 30
0.0
 10
11.5347427662
 20
4.5854649477
 30
0.0
  0
SPLINE
  5
3E7
100
AcDbEntity
  8
0
100
AcDbSpline
 62
9
  6
CONTINUOUS
 70
0
 71
3
 72
11
 73
7
 74
0
 42
0.0000001
 43
0.0000001
 44
0.0000000001
 40
0.0
 40
0.0
 40
0.0
 40
0.0
 40
0.30038229
 40
0.5679532057
 40
0.8015447996
 40
1.0
 40
1.0
 40
1.0
 40
1.0
 10
11.3213181011
 20
6.9287381074
 30
0.0
 10
11.3460819981
 20
6.9275350286
 30
0.0
 10
11.3928956836
 20
6.925065338
 30
0.0
 10
11.4589246275
 20
6.9209074345
 30
0.0
 10
11.5165082521
 20
6.9165682624
 30
0.0
 10
11.5520242995
 20
6.9133334241
 30
0.0
 10
11.5683182162
 20
6.9116544194
 30
0.0
  0
LINE
  5
3E8
100
AcDbEntity
  8
0
100
AcDbLine
 62
7
  6
CONTINUOUS
 10
11.6184692374
 20
4.5859859454
 11
11.6206304674
 21
4.3927724737
  0
SPLINE
  5
3E9
100
AcDbEntity
  8
0
100
AcDbSpline
 62
7
  6
CONTINUOUS
 70
0
 71
3
 72
13
 73
9
 74
0
 42
0.0000001
 43
0.0000001
 44
0.0000000001
 40
0.0
 40
0.0
 40
0.0
 40
0.0
 40
0.2443611505
 40
0.3680083471
 40
0.4926497906
 40
0.6182190681
 40
0.7446457985
 40
1.0
 40
1.0
 40
1.0
 40
1.0
 10
11.5347427662
 20
4.5854649477
 30
0.0
 10
11.5195709264
 20
4.5674678017
 30
0.0
 10
11.4961378448
 20
4.5408500697
 30
0.0
 10
11.4637377508
 20
4.5061730479
 30
0.0
 10
11.4386465139
 20
4.4803359321
 30
0.0
 10
11.4128557663
 20
4.4548146955
 30
0.0
 10
11.3774158707
 20
4.421158226
 30
0.0
 10
11.3499664767
 20
4.3966632868
 30
0.0
 10
11.3312983849
 20
4.3806458413
 30
0.0
  0
SPLINE
  5
3EA
100
AcDbEntity
  8
0
100
AcDbSpline
 62
7
  6
CONTINUOUS
 70
0
 71
3
 72
14
 73
10
 74
0
 42
0.0000001
 43
0.0000001
 44
0.0000000001
 40
0.0
 40
0.0
 40
0.0
 40
0.0
 40
0.1158976322
 40
0.2413024874
 40
0.3733112056
 40
0.5083146653
 40
0.771756281
 40
0.8921514405
 40
1.0
 40
1.0
 40
1.0
 40
1.0
 10
11.3312983849
 20
4.3806458413
 30
0.0
 10
11.3315706011
 20
4.4215557216
 30
0.0
 10
11.3318776649
 20
4.5067331912
 30
0.0
 10
11.3317016991
 20
4.638508921
 30
0.0
 10
11.3308845271
 20
4.777026465
 30
0.0
 10
11.3291345605
 20
4.9642638287
 30
0.0
 10
11.3266874846
 20
5.1473937831
 30
0.0
 10
11.3241186102
 20
5.3209350721
 30
0.0
 10
11.3228922935
 20
5.4014936568
 30
0.0
 10
11.3223183388
 20
5.4395588682
 30
0.0
  0
SPLINE
  5
3EB
100
AcDbEntity
  8
0
100
AcDbSpline
 62
9
  6
CONTINUOUS
 70
0
 71
3
 72
11
 73
7
 74
0
 42
0.0000001
 43
0.0000001
 44
0.0000000001
 40
0.0
 40
0.0
 40
0.0
 40
0.0
 40
0.2853456411
 40
0.5476582289
 40
0.7861406457
 40
1.0
 40
1.0
 40
1.0
 40
1.0
 10
11.3223183388
 20
5.4395588682
 30
0.0
 10
11.3450669302
 20
5.4385140537
 30
0.0
 10
11.3887227827
 20
5.4363955322
 30
0.0
 10
11.4513687144
 20
5.4329611801
 30
0.0
 10
11.5082932353
 20
5.4294134613
 30
0.0
 10
11.5443021395
 20
5.426838995
 30
0.0
 10
11.5613183395
 20
5.4255171004
 30
0.0
  0
SPLINE
  5
3EC
100
AcDbEntity
  8
0
100
AcDbSpline
 62
7
  6
CONTINUOUS
 70
0
 71
3
 72
11
 73
7
 74
0
 42
0.0000001
 43
0.0000001
 44
0.0000000001
 40
0.0
 40
0.0
 40
0.0
 40
0.0
 40
0.2377320849
 40
0.4840304809
 40
0.7384702329
 40
1.0
 40
1.0
 40
1.0
 40
1.0
 10
10.4740483539
 20
4.3927361962
 30
0.0
 10
10.4742842618
 20
4.3854904031
 30
0.0
 10
10.474913971
 20
4.3707420994
 30
0.0
 10
10.4763862308
 20
4.3482683214
 30
0.0
 10
10.4785485946
 20
4.325120422
 30
0.0
 10
10.4805137941
 20
4.3095056706
 30
0.0
 10
10.4816422158
 20
4.3016105618
 30
0.0
  0
ENDSEC
  0
SECTION
  2
OBJECTS
  0
DICTIONARY
  5
C
100
AcDbDictionary
280
0
281
1
  3
ACAD_GROUP
350
D
  3
ACAD_MLINESTYLE
350
17
  3
ACAD_LAYOUT
350
1A
  3
ACAD_PLOTSETTINGS
350
19
  3
ACAD_PLOTSTYLENAME
350
E
  0
DICTIONARY
  5
D
102
{ACAD_REACTORS
330
C
102
}
100
AcDbDictionary
280
0
281
1
  0
ACDBDICTIONARYWDFLT
  5
E
102
{ACAD_REACTORS
330
C
102
}
100
AcDbDictionary
281
1
  3
Normal
350
F
100
AcDbDictionaryWithDefault
340
F
  0
DICTIONARY
  5
17
102
{ACAD_REACTORS
330
C
102
}
100
AcDbDictionary
280
0
281
1
  3
Standard
350
18
  0
DICTIONARY
  5
19
102
{ACAD_REACTORS
330
C
102
}
100
AcDbDictionary
281
1
  0
DICTIONARY
  5
1A
102
{ACAD_REACTORS
330
C
102
}
100
AcDbDictionary
281
1
  3
Model
350
3ED
  3
Layout1
350
3EE
  0
ACDBPLACEHOLDER
  5
F
102
{ACAD_REACTORS
330
E
102
}
  0
MLINESTYLE
  5
18
102
{ACAD_REACTORS
330
17
102
}
100
AcDbMlineStyle
  2
STANDARD
 70
0
  3

 62
256
 51
90.0
 52
90.0
 71
2
 49
0.5
 62
256
  6
BYLAYER
 49
-0.5
 62
256
  6
BYLAYER
  0
LAYOUT
  5
3ED
102
{ACAD_REACTORS
330
1A
102
}
100
AcDbPlotSettings
  1

  2
none_device
  4
ANSI_C_(22.00_x_17.00_Inches)
  6

 40
0.0
 41
0.0
 42
0.0
 43
0.0
 44
558.8
 45
431.8
 46
0.0
 47
0.0
 48
0.0
 49
0.0
140
0.0
141
0.0
142
1.0
143
1.0
 70
1024
 72
0
 73
0
 74
0
  7

 75
0
147
1.0
148
0.0
149
0.0
100
AcDbLayout
  1
Model
 70
0
 71
0
 10
0.0
 20
0.0
 11
22.0
 21
17.0
 12
0.0
 22
0.0
 32
0.0
 14
0.0
 24
0.0
 34
0.0
 15
0.0
 25
0.0
 35
0.0
146
0.0
 13
0.0
 23
0.0
 33
0.0
 16
1.0
 26
0.0
 36
0.0
 17
0.0
 27
1.0
 37
0.0
 76
0
330
202
345
0
346
0
  0
LAYOUT
  5
3EE
102
{ACAD_REACTORS
330
1A
102
}
100
AcDbPlotSettings
  1

  2
none_device
  4
ANSI_C_(22.00_x_17.00_Inches)
  6

 40
0.0
 41
0.0
 42
0.0
 43
0.0
 44
558.8
 45
431.8
 46
0.0
 47
0.0
 48
0.0
 49
0.0
140
0.0
141
0.0
142
1.0
143
1.0
 70
0
 72
0
 73
0
 74
0
  7

 75
0
147
1.0
148
0.0
149
0.0
100
AcDbLayout
  1
Layout1
 70
0
 71
1
 10
0.0
 20
0.0
 11
22.0
 21
17.0
 12
0.0
 22
0.0
 32
0.0
 14
0.0
 24
0.0
 34
0.0
 15
0.0
 25
0.0
 35
0.0
146
0.0
 13
0.0
 23
0.0
 33
0.0
 16
1.0
 26
0.0
 36
0.0
 17
0.0
 27
1.0
 37
0.0
 76
0
330
203
345
0
346
0
  0
ENDSEC
  0
EOF
