999
DXF file: 9281_front.dxf
999
Pro/ENGINEER 2018400 by Parametric Technology Corporation
  0
SECTION
  2
HEADER
  9
$ACADVER
  1
AC1027
  9
$DWGCODEPAGE
  3
ANSI_1252
  9
$EXTMAX
 10
11.0
 20
8.5
 30
0.0
  9
$EXTMIN
 10
0.0
 20
0.0
 30
0.0
  9
$LIMMIN
 10
0.0
 20
0.0
  9
$LIMMAX
 10
11.0
 20
8.5
  9
$VIEWCTR
 10
5.5
 20
4.25
  9
$VIEWSIZE
 40
8.5
  9
$CLAYER
  8
0
  9
$LTSCALE
 40
0.605
  9
$CELTYPE
  6
BYLAYER
  9
$DIMSCALE
 40
1.0
  9
$DIMASZ
 40
0.1
  9
$DIMEXO
 40
0.0625
  9
$DIMDLI
 40
0.418
  9
$DIMEXE
 40
0.125
  9
$DIMCEN
 40
0.099
  9
$DIMLFAC
 40
1.0
  9
$DIMBLK
  1
_FILLED
  9
$DIMALT
 70
1
  9
$DIMALTD
 70
1
  9
$DIMALTTD
 70
2
  9
$DIMALTF
 40
25.4
  9
$DIMTXT
 40
0.08
  9
$DIMTOL
 70
1
  9
$DIMLIM
 70
0
  9
$DIMTFAC
 40
1.0
  9
$DIMTP
 40
0.01
  9
$DIMTM
 40
0.01
  9
$DIMGAP
 40
0.09
  9
$DIMDSEP
 70
46
  9
$AUNITS
 70
0
  9
$PDMODE
 70
3
  9
$PDSIZE
 40
0.3125
  9
$HANDSEED
  5
422
  9
$TILEMODE
 70
1
  9
$MEASUREMENT
 70
0
  9
$INSUNITS
 70
1
  0
ENDSEC
  0
SECTION
  2
CLASSES
  0
CLASS
  1
ACDBDICTIONARYWDFLT
  2
AcDbDictionaryWithDefault
  3
AutoCAD 2000
 90
0
 91
1
280
0
281
0
  0
CLASS
  1
ACDBPLACEHOLDER
  2
AcDbPlaceHolder
  3
AutoCAD 2000
 90
0
 91
1
280
0
281
0
  0
CLASS
  1
LAYOUT
  2
AcDbLayout
  3
AutoCAD 2000
 90
0
 91
0
280
0
281
0
  0
ENDSEC
  0
SECTION
  2
TABLES
  0
TABLE
  2
VPORT
  5
8
100
AcDbSymbolTable
 70
2
  0
VPORT
  5
1F4
100
AcDbSymbolTableRecord
100
AcDbViewportTableRecord
  2
*ACTIVE
 70
0
 10
0.0
 20
0.0
 11
1.0
 21
1.0
 12
5.5
 22
4.25
 13
0.0
 23
0.0
 14
1.0
 24
1.0
 15
0.0
 25
0.0
 16
0.0
 26
0.0
 36
1.0
 17
0.0
 27
0.0
 37
0.0
 40
8.5
 41
1.2941176471
 42
50.0
 43
0.0
 44
0.0
 50
0.0
 51
0.0
 71
0
 72
100
 73
1
 74
1
 75
0
 76
0
 77
0
 78
0
  0
ENDTAB
  0
TABLE
  2
LTYPE
  5
5
100
AcDbSymbolTable
 70
6
  0
LTYPE
  5
14
100
AcDbSymbolTableRecord
100
AcDbLinetypeTableRecord
  2
BYBLOCK
 70
0
  3

 72
65
 73
0
 40
0.0
  0
LTYPE
  5
15
100
AcDbSymbolTableRecord
100
AcDbLinetypeTableRecord
  2
BYLAYER
 70
0
  3

 72
65
 73
0
 40
0.0
  0
LTYPE
  5
16
100
AcDbSymbolTableRecord
100
AcDbLinetypeTableRecord
  2
CONTINUOUS
 70
64
  3
Solid line
 72
65
 73
0
 40
0.0
  0
LTYPE
  5
1F5
100
AcDbSymbolTableRecord
100
AcDbLinetypeTableRecord
  2
CENTER
 70
64
  3
____ _ ____ _ ____ _ ____ _ ____ _ ____ _ ____
 72
65
 73
4
 40
0.6
 49
0.375
 74
0
 49
-0.075
 74
0
 49
0.075
 74
0
 49
-0.075
 74
0
  0
LTYPE
  5
1F6
100
AcDbSymbolTableRecord
100
AcDbLinetypeTableRecord
  2
HIDDEN
 70
64
  3
- - - - - - - - - - - - - - - - - - - -
 72
65
 73
2
 40
0.2
 49
0.1
 74
0
 49
-0.1
 74
0
  0
LTYPE
  5
1F7
100
AcDbSymbolTableRecord
100
AcDbLinetypeTableRecord
  2
PHANTOM
 70
64
  3
_____ _ _ _____ _ _ _____ _ _ _____
 72
65
 73
6
 40
0.8
 49
0.45
 74
0
 49
-0.05
 74
0
 49
0.1
 74
0
 49
-0.05
 74
0
 49
0.1
 74
0
 49
-0.05
 74
0
  0
LTYPE
  5
1F8
100
AcDbSymbolTableRecord
100
AcDbLinetypeTableRecord
  2
DOT
 70
64
  3
. . . . . . . . . . . . . . . . . . . .
 72
65
 73
2
 40
0.2
 49
0.1
 74
0
 49
-0.1
 74
0
  0
LTYPE
  5
1F9
100
AcDbSymbolTableRecord
100
AcDbLinetypeTableRecord
  2
DASHED
 70
64
  3
- - - - - - - - - - - - - - - - - - - -
 72
65
 73
2
 40
0.2
 49
0.1
 74
0
 49
-0.1
 74
0
  0
ENDTAB
  0
TABLE
  2
LAYER
  5
2
100
AcDbSymbolTable
 70
36
  0
LAYER
  5
10
100
AcDbSymbolTableRecord
100
AcDbLayerTableRecord
  2
0
 70
0
 62
7
  6
CONTINUOUS
370
-3
390
F
  0
LAYER
  5
1FA
100
AcDbSymbolTableRecord
100
AcDbLayerTableRecord
  2
DEFAULT_1
 70
0
 62
7
  6
CENTER
370
-3
390
F
  0
LAYER
  5
1FB
100
AcDbSymbolTableRecord
100
AcDbLayerTableRecord
  2
DEFAULT_2
 70
0
 62
8
  6
HIDDEN
370
-3
390
F
  0
LAYER
  5
1FC
100
AcDbSymbolTableRecord
100
AcDbLayerTableRecord
  2
DEFAULT_3
 70
0
 62
7
  6
PHANTOM
370
-3
390
F
  0
LAYER
  5
1FD
100
AcDbSymbolTableRecord
100
AcDbLayerTableRecord
  2
DEFAULT_COORDINATE_SYSTEM
 70
0
 62
7
  6
CONTINUOUS
370
-3
390
F
  0
LAYER
  5
1FE
100
AcDbSymbolTableRecord
100
AcDbLayerTableRecord
  2
DEFAULT_DATUM_AXES
 70
0
 62
7
  6
CONTINUOUS
370
-3
390
F
  0
LAYER
  5
1FF
100
AcDbSymbolTableRecord
100
AcDbLayerTableRecord
  2
DEFAULT_DATUM_PLANES
 70
0
 62
7
  6
CONTINUOUS
370
-3
390
F
  0
ENDTAB
  0
TABLE
  2
STYLE
  5
3
100
AcDbSymbolTable
 70
1
  0
STYLE
  5
11
100
AcDbSymbolTableRecord
100
AcDbTextStyleTableRecord
  2
STANDARD
 70
0
 40
0.0
 41
0.8
 50
0.0
 71
0
 42
0.2
  3
txt
  4

  0
STYLE
  5
200
100
AcDbSymbolTableRecord
100
AcDbTextStyleTableRecord
  2
TEXTSTYLE_1
 70
0
 40
0.0
 41
0.8
 50
0.0
 71
0
 42
0.2
  3
gdt
  4

  0
ENDTAB
  0
TABLE
  2
VIEW
  5
6
100
AcDbSymbolTable
 70
0
  0
ENDTAB
  0
TABLE
  2
UCS
  5
7
100
AcDbSymbolTable
 70
0
  0
ENDTAB
  0
TABLE
  2
APPID
  5
9
100
AcDbSymbolTable
 70
1
  0
APPID
  5
201
100
AcDbSymbolTableRecord
100
AcDbRegAppTableRecord
  2
ACAD
 70
0
  0
ENDTAB
  0
TABLE
  2
BLOCK_RECORD
  5
1
100
AcDbSymbolTable
 70
0
  0
BLOCK_RECORD
  5
202
100
AcDbSymbolTableRecord
100
AcDbBlockTableRecord
  2
*Model_Space
  0
BLOCK_RECORD
  5
203
100
AcDbSymbolTableRecord
100
AcDbBlockTableRecord
  2
*Paper_Space
  0
BLOCK_RECORD
  5
204
100
AcDbSymbolTableRecord
100
AcDbBlockTableRecord
  2
_FILLED
  0
ENDTAB
  0
TABLE
  2
DIMSTYLE
  5
A
100
AcDbSymbolTable
 70
1
100
AcDbDimStyleTable
 71
0
  0
DIMSTYLE
105
205
100
AcDbSymbolTableRecord
100
AcDbDimStyleTableRecord
  2
STANDARD
 70
0
  3

  4

 40
1.0
 41
0.1
 42
0.0625
 43
0.38
 44
0.125
 45
0.0
 46
0.0
 47
0.01
 48
0.01
140
0.08
141
0.09
142
0.0
143
25.4
144
1.0
145
0.0
146
1.0
147
0.09
 71
1.0
 72
0.0
 73
1
 74
1
 75
0
 76
0
 77
0
 78
4
 79
1
170
1
171
1
172
0
173
0
174
0
175
0
176
0
177
0
178
0
270
2
179
2
271
2
272
2
273
2
274
2
275
0
280
0
281
0
282
0
283
1
284
4
285
0
286
0
287
3
288
0
340
11
278
46
341
204
342
204
343
204
344
204
  0
ENDTAB
  0
ENDSEC
  0
SECTION
  2
BLOCKS
  0
BLOCK
  5
20
100
AcDbEntity
  8
0
100
AcDbBlockBegin
  2
*Model_Space
 70
0
 10
0.0
 20
0.0
 30
0.0
  3
*Model_Space
  1

  0
ENDBLK
  5
21
100
AcDbEntity
  8
0
100
AcDbBlockEnd
  0
BLOCK
  5
1C
100
AcDbEntity
  8
0
100
AcDbBlockBegin
  2
*Paper_Space
 70
0
 10
0.0
 20
0.0
 30
0.0
  3
*Paper_Space
  1

  0
ENDBLK
  5
1D
100
AcDbEntity
  8
0
100
AcDbBlockEnd
  0
BLOCK
  5
206
100
AcDbEntity
  8
0
100
AcDbBlockBegin
  2
_FILLED
 70
64
 10
0.0
 20
0.0
  3
_FILLED
  1

  0
SOLID
  5
207
100
AcDbEntity
  8
0
  6
BYBLOCK
 62
0
100
AcDbTrace
 10
0.0
 20
0.0
 11
-1.0
 21
0.2
 12
-1.0
 22
-0.2
 13
-1.0
 23
-0.2
  0
ENDBLK
  5
208
100
AcDbEntity
  8
0
  6
BYBLOCK
 62
0
100
AcDbBlockEnd
  0
ENDSEC
  0
SECTION
  2
ENTITIES
  0
MTEXT
  5
209
100
AcDbEntity
  8
0
100
AcDbMText
 62
2
  6
CONTINUOUS
  7
STANDARD
 71
3
 72
1
 10
5.2578804348
 20
0.7294992236
 30
0.0
 11
1.0
 21
0.0
 31
0.0
 73
2
 44
0.9
  1
SCALE  .500
 40
0.08
 41
0.704
  0
LINE
  5
20A
100
AcDbEntity
  8
0
100
AcDbLine
 62
7
  6
CONTINUOUS
 10
0.0
 20
0.0
 11
0.0
 21
8.5
  0
LINE
  5
20B
100
AcDbEntity
  8
0
100
AcDbLine
 62
7
  6
CONTINUOUS
 10
0.0
 20
0.0
 11
11.0
 21
0.0
  0
LINE
  5
20C
100
AcDbEntity
  8
0
100
AcDbLine
 62
7
  6
CONTINUOUS
 10
0.0
 20
8.5
 11
11.0
 21
8.5
  0
LINE
  5
20D
100
AcDbEntity
  8
0
100
AcDbLine
 62
7
  6
CONTINUOUS
 10
11.0
 20
0.0
 11
11.0
 21
8.5
  0
LINE
  5
20E
100
AcDbEntity
  8
0
100
AcDbLine
 62
7
  6
CONTINUOUS
 10
4.3274075933
 20
1.1473253106
 11
5.4274060713
 21
1.1473253106
  0
LINE
  5
20F
100
AcDbEntity
  8
0
100
AcDbLine
 62
7
  6
CONTINUOUS
 10
4.3274068323
 20
1.2542695817
 11
5.4274068323
 21
1.2542695817
  0
LINE
  5
210
100
AcDbEntity
  8
0
100
AcDbLine
 62
7
  6
CONTINUOUS
 10
4.3513525046
 20
1.2969447736
 11
5.40346116
 21
1.2969447736
  0
LINE
  5
211
100
AcDbEntity
  8
0
100
AcDbLine
 62
7
  6
CONTINUOUS
 10
4.5050426516
 20
1.3907766529
 11
5.249771013
 21
1.3907766529
  0
LINE
  5
212
100
AcDbEntity
  8
0
100
AcDbLine
 62
7
  6
CONTINUOUS
 10
3.0544471563
 20
2.0407082344
 11
3.0642647837
 21
2.0335753106
  0
LINE
  5
213
100
AcDbEntity
  8
0
100
AcDbLine
 62
7
  6
CONTINUOUS
 10
4.5649068323
 20
1.4974646327
 11
5.1899068323
 21
1.4974646327
  0
LINE
  5
214
100
AcDbEntity
  8
0
100
AcDbLine
 62
7
  6
CONTINUOUS
 10
3.1916682702
 20
2.0630300079
 11
3.1916236293
 21
2.0630609604
  0
LINE
  5
215
100
AcDbEntity
  8
0
100
AcDbLine
 62
7
  6
CONTINUOUS
 10
3.1916676768
 20
2.0630295913
 11
3.191623647
 21
2.0630609728
  0
LINE
  5
216
100
AcDbEntity
  8
0
100
AcDbLine
 62
7
  6
CONTINUOUS
 10
3.3178018091
 20
2.0055761308
 11
3.3383202537
 21
1.9907828678
  0
LINE
  5
217
100
AcDbEntity
  8
0
100
AcDbLine
 62
7
  6
CONTINUOUS
 10
3.9774068323
 20
1.9364813923
 11
3.8774068323
 21
1.9364813923
  0
LINE
  5
218
100
AcDbEntity
  8
0
100
AcDbLine
 62
7
  6
CONTINUOUS
 10
5.7774068323
 20
1.9364813923
 11
5.8774068323
 21
1.9364813923
  0
LINE
  5
219
100
AcDbEntity
  8
0
100
AcDbLine
 62
7
  6
CONTINUOUS
 10
3.1980118554
 20
2.5890744904
 11
3.1774934109
 21
2.6038677533
  0
LINE
  5
21A
100
AcDbEntity
  8
0
100
AcDbLine
 62
7
  6
CONTINUOUS
 10
3.1076568323
 20
2.0469987043
 11
3.1154068323
 21
2.0335753106
  0
LINE
  5
21B
100
AcDbEntity
  8
0
100
AcDbLine
 62
7
  6
CONTINUOUS
 10
5.5752652862
 20
2.0047641235
 11
5.335622542
 21
1.997917188
  0
LINE
  5
21C
100
AcDbEntity
  8
0
100
AcDbLine
 62
7
  6
CONTINUOUS
 10
5.5752652862
 20
2.0047641235
 11
5.5795492523
 21
2.0048253106
  0
LINE
  5
21D
100
AcDbEntity
  8
0
100
AcDbLine
 62
7
  6
CONTINUOUS
 10
3.8274068323
 20
1.9935753106
 11
3.8079068323
 21
1.9935753106
  0
LINE
  5
21E
100
AcDbEntity
  8
0
100
AcDbLine
 62
7
  6
CONTINUOUS
 10
5.9274068323
 20
1.9935753106
 11
5.9469068323
 21
1.9935753106
  0
LINE
  5
21F
100
AcDbEntity
  8
0
100
AcDbLine
 62
7
  6
CONTINUOUS
 10
4.0274068323
 20
2.0048253106
 11
4.1752644123
 21
2.0048253106
  0
LINE
  5
220
100
AcDbEntity
  8
0
100
AcDbLine
 62
7
  6
CONTINUOUS
 10
5.5795492523
 20
2.0048253106
 11
5.7274068323
 21
2.0048253106
  0
LINE
  5
221
100
AcDbEntity
  8
0
100
AcDbLine
 62
7
  6
CONTINUOUS
 10
6.6905488809
 20
2.0335753106
 11
6.6549068323
 21
2.0335753106
  0
LINE
  5
222
100
AcDbEntity
  8
0
100
AcDbLine
 62
7
  6
CONTINUOUS
 10
3.0642647837
 20
2.0335753106
 11
3.0999068323
 21
2.0335753106
  0
LINE
  5
223
100
AcDbEntity
  8
0
100
AcDbLine
 62
7
  6
CONTINUOUS
 10
3.9774068323
 20
2.1169033514
 11
3.8774068323
 21
2.1169033514
  0
LINE
  5
224
100
AcDbEntity
  8
0
100
AcDbLine
 62
7
  6
CONTINUOUS
 10
5.7774068323
 20
2.1169033514
 11
5.8774068323
 21
2.1169033514
  0
LINE
  5
225
100
AcDbEntity
  8
0
100
AcDbLine
 62
7
  6
CONTINUOUS
 10
3.6649068323
 20
2.1223253106
 11
3.6149068323
 21
2.1223253106
  0
LINE
  5
226
100
AcDbEntity
  8
0
100
AcDbLine
 62
7
  6
CONTINUOUS
 10
6.0899068323
 20
2.1223253106
 11
6.1399068323
 21
2.1223253106
  0
LINE
  5
227
100
AcDbEntity
  8
0
100
AcDbLine
 62
7
  6
CONTINUOUS
 10
6.3294068323
 20
2.1255753106
 11
6.1499068323
 21
2.1255753106
  0
LINE
  5
228
100
AcDbEntity
  8
0
100
AcDbLine
 62
7
  6
CONTINUOUS
 10
3.4254068323
 20
2.1255753106
 11
3.6049068323
 21
2.1255753106
  0
LINE
  5
229
100
AcDbEntity
  8
0
100
AcDbLine
 62
7
  6
CONTINUOUS
 10
3.6149068323
 20
2.1512094303
 11
3.6049068323
 21
2.1512094303
  0
LINE
  5
22A
100
AcDbEntity
  8
0
100
AcDbLine
 62
7
  6
CONTINUOUS
 10
6.1399068323
 20
2.1512094303
 11
6.1499068323
 21
2.1512094303
  0
LINE
  5
22B
100
AcDbEntity
  8
0
100
AcDbLine
 62
7
  6
CONTINUOUS
 10
4.1752644123
 20
2.0048253106
 11
4.1795483784
 21
2.0047641235
  0
LINE
  5
22C
100
AcDbEntity
  8
0
100
AcDbLine
 62
7
  6
CONTINUOUS
 10
4.4191911226
 20
1.997917188
 11
4.1795483784
 21
2.0047641235
  0
LINE
  5
22D
100
AcDbEntity
  8
0
100
AcDbLine
 62
7
  6
CONTINUOUS
 10
5.40346116
 20
1.2969447736
 11
5.249771013
 21
1.3907766529
  0
LINE
  5
22E
100
AcDbEntity
  8
0
100
AcDbLine
 62
7
  6
CONTINUOUS
 10
3.3241453943
 20
2.5316206132
 11
3.3241900411
 21
2.5315896566
  0
LINE
  5
22F
100
AcDbEntity
  8
0
100
AcDbLine
 62
7
  6
CONTINUOUS
 10
3.3241459878
 20
2.5316210298
 11
3.3241900234
 21
2.5315896442
  0
LINE
  5
230
100
AcDbEntity
  8
0
100
AcDbLine
 62
7
  6
CONTINUOUS
 10
3.0999068323
 20
2.5610753106
 11
3.1076568323
 21
2.5476519168
  0
LINE
  5
231
100
AcDbEntity
  8
0
100
AcDbLine
 62
7
  6
CONTINUOUS
 10
3.0449068323
 20
2.0700703325
 11
3.0544471563
 21
2.0407082344
  0
LINE
  5
232
100
AcDbEntity
  8
0
100
AcDbLine
 62
7
  6
CONTINUOUS
 10
3.007997636
 20
2.2670754472
 11
3.0079970406
 21
2.2670814371
  0
LINE
  5
233
100
AcDbEntity
  8
0
100
AcDbLine
 62
7
  6
CONTINUOUS
 10
3.0079976367
 20
2.2670754297
 11
3.0079970413
 21
2.2670814274
  0
LINE
  5
234
100
AcDbEntity
  8
0
100
AcDbLine
 62
7
  6
CONTINUOUS
 10
3.0157947085
 20
2.2548253106
 11
3.0116535581
 21
2.2548253106
  0
LINE
  5
235
100
AcDbEntity
  8
0
100
AcDbLine
 62
7
  6
CONTINUOUS
 10
3.0115881254
 20
2.2668253106
 11
3.01108574
 21
2.2668253106
  0
LINE
  5
236
100
AcDbEntity
  8
0
100
AcDbLine
 62
7
  6
CONTINUOUS
 10
3.0079976414
 20
2.2670753072
 11
3.008498023
 21
2.2670753072
  0
LINE
  5
237
100
AcDbEntity
  8
0
100
AcDbLine
 62
7
  6
CONTINUOUS
 10
6.7452371731
 20
2.2670753072
 11
6.7457382522
 21
2.2670753072
  0
LINE
  5
238
100
AcDbEntity
  8
0
100
AcDbLine
 62
7
  6
CONTINUOUS
 10
6.7345862443
 20
2.2675011155
 11
6.7350943179
 21
2.2675011155
  0
LINE
  5
239
100
AcDbEntity
  8
0
100
AcDbLine
 62
7
  6
CONTINUOUS
 10
6.7414466249
 20
2.2817864616
 11
6.7419501711
 21
2.2817864616
  0
LINE
  5
23A
100
AcDbEntity
  8
0
100
AcDbLine
 62
7
  6
CONTINUOUS
 10
6.7318931511
 20
2.2819903079
 11
6.7324030243
 21
2.2819903079
  0
LINE
  5
23B
100
AcDbEntity
  8
0
100
AcDbLine
 62
7
  6
CONTINUOUS
 10
3.0120096609
 20
2.2825554568
 11
3.011507001
 21
2.2825554568
  0
LINE
  5
23C
100
AcDbEntity
  8
0
100
AcDbLine
 62
7
  6
CONTINUOUS
 10
4.8611508577
 20
2.2973253106
 11
4.1752644123
 21
2.2973253106
  0
LINE
  5
23D
100
AcDbEntity
  8
0
100
AcDbLine
 62
7
  6
CONTINUOUS
 10
4.8936628069
 20
2.2973253106
 11
5.5795492523
 21
2.2973253106
  0
LINE
  5
23E
100
AcDbEntity
  8
0
100
AcDbLine
 62
7
  6
CONTINUOUS
 10
6.7414767095
 20
2.3112953577
 11
6.741980236
 21
2.3112953577
  0
LINE
  5
23F
100
AcDbEntity
  8
0
100
AcDbLine
 62
7
  6
CONTINUOUS
 10
6.7318803718
 20
2.3132809424
 11
6.7323902535
 21
2.3132809424
  0
LINE
  5
240
100
AcDbEntity
  8
0
100
AcDbLine
 62
7
  6
CONTINUOUS
 10
6.7457382522
 20
2.3275753139
 11
6.7452371731
 21
2.3275753139
  0
LINE
  5
241
100
AcDbEntity
  8
0
100
AcDbLine
 62
7
  6
CONTINUOUS
 10
3.008498023
 20
2.3275753139
 11
3.0079976414
 21
2.3275753139
  0
LINE
  5
242
100
AcDbEntity
  8
0
100
AcDbLine
 62
7
  6
CONTINUOUS
 10
3.0098458618
 20
2.3285679512
 11
3.0093446082
 21
2.3285679512
  0
LINE
  5
243
100
AcDbEntity
  8
0
100
AcDbLine
 62
7
  6
CONTINUOUS
 10
3.0125140557
 20
2.3288753106
 11
3.0120110668
 21
2.3288753106
  0
LINE
  5
244
100
AcDbEntity
  8
0
100
AcDbLine
 62
7
  6
CONTINUOUS
 10
6.7358915362
 20
2.3303253106
 11
6.7363987421
 21
2.3303253106
  0
LINE
  5
245
100
AcDbEntity
  8
0
100
AcDbLine
 62
7
  6
CONTINUOUS
 10
3.0165608622
 20
2.3303753106
 11
3.0143037928
 21
2.3303753106
  0
LINE
  5
246
100
AcDbEntity
  8
0
100
AcDbLine
 62
7
  6
CONTINUOUS
 10
3.012426035
 20
2.3303753106
 11
3.0107473873
 21
2.3303753106
  0
LINE
  5
247
100
AcDbEntity
  8
0
100
AcDbLine
 62
7
  6
CONTINUOUS
 10
6.7379948228
 20
2.3363253106
 11
6.7383614833
 21
2.3363253106
  0
LINE
  5
248
100
AcDbEntity
  8
0
100
AcDbLine
 62
7
  6
CONTINUOUS
 10
6.7378555774
 20
2.3364670428
 11
6.7383614833
 21
2.3364670428
  0
LINE
  5
249
100
AcDbEntity
  8
0
100
AcDbLine
 62
7
  6
CONTINUOUS
 10
3.0101293023
 20
2.3393253106
 11
3.0187029586
 21
2.3393253106
  0
LINE
  5
24A
100
AcDbEntity
  8
0
100
AcDbLine
 62
7
  6
CONTINUOUS
 10
6.7387687166
 20
2.3393253106
 11
6.7399768475
 21
2.3393253106
  0
LINE
  5
24B
100
AcDbEntity
  8
0
100
AcDbLine
 62
7
  6
CONTINUOUS
 10
3.6149068323
 20
2.4434411908
 11
3.6049068323
 21
2.4434411908
  0
LINE
  5
24C
100
AcDbEntity
  8
0
100
AcDbLine
 62
7
  6
CONTINUOUS
 10
6.1399068323
 20
2.4434411908
 11
6.1499068323
 21
2.4434411908
  0
LINE
  5
24D
100
AcDbEntity
  8
0
100
AcDbLine
 62
7
  6
CONTINUOUS
 10
6.3294068323
 20
2.4690753106
 11
6.1499068323
 21
2.4690753106
  0
LINE
  5
24E
100
AcDbEntity
  8
0
100
AcDbLine
 62
7
  6
CONTINUOUS
 10
3.4254068323
 20
2.4690753106
 11
3.6049068323
 21
2.4690753106
  0
LINE
  5
24F
100
AcDbEntity
  8
0
100
AcDbLine
 62
7
  6
CONTINUOUS
 10
3.6649068323
 20
2.4723253106
 11
3.6149068323
 21
2.4723253106
  0
LINE
  5
250
100
AcDbEntity
  8
0
100
AcDbLine
 62
7
  6
CONTINUOUS
 10
6.0899068323
 20
2.4723253106
 11
6.1399068323
 21
2.4723253106
  0
LINE
  5
251
100
AcDbEntity
  8
0
100
AcDbLine
 62
7
  6
CONTINUOUS
 10
3.0079970413
 20
2.2670814274
 11
3.0079962633
 21
2.2670983885
  0
LINE
  5
252
100
AcDbEntity
  8
0
100
AcDbLine
 62
7
  6
CONTINUOUS
 10
3.0079962633
 20
2.2670983885
 11
3.0079838271
 21
2.2676053783
  0
LWPOLYLINE
  5
253
100
AcDbEntity
  8
0
100
AcDbPolyline
 62
7
  6
CONTINUOUS
 90
3
 70
0
 10
3.008555844
 20
2.2551774933
 10
3.0085576352
 20
2.2551013748
 10
3.0085583316
 20
2.25508465
  0
LINE
  5
254
100
AcDbEntity
  8
0
100
AcDbLine
 62
7
  6
CONTINUOUS
 10
3.0074068323
 20
2.2973253106
 11
3.0079962713
 21
2.2670981711
  0
LINE
  5
255
100
AcDbEntity
  8
0
100
AcDbLine
 62
7
  6
CONTINUOUS
 10
3.0098625622
 20
2.3276880345
 11
3.0098458618
 21
2.3285679512
  0
LINE
  5
256
100
AcDbEntity
  8
0
100
AcDbLine
 62
7
  6
CONTINUOUS
 10
3.009862526
 20
2.3276880342
 11
3.0098458618
 21
2.3285679512
  0
LINE
  5
257
100
AcDbEntity
  8
0
100
AcDbLine
 62
7
  6
CONTINUOUS
 10
3.0085479989
 20
2.2559772608
 11
3.0085583344
 21
2.2550846052
  0
LINE
  5
258
100
AcDbEntity
  8
0
100
AcDbLine
 62
7
  6
CONTINUOUS
 10
3.0085051033
 20
2.2659631466
 11
3.0085479989
 21
2.2559772608
  0
LINE
  5
259
100
AcDbEntity
  8
0
100
AcDbLine
 62
7
  6
CONTINUOUS
 10
3.0085170532
 20
2.2634613795
 11
3.0085203204
 21
2.262683088
  0
LINE
  5
25A
100
AcDbEntity
  8
0
100
AcDbLine
 62
7
  6
CONTINUOUS
 10
3.0330021258
 20
2.0997529908
 11
3.0330021258
 21
2.4948976303
  0
LINE
  5
25B
100
AcDbEntity
  8
0
100
AcDbLine
 62
7
  6
CONTINUOUS
 10
3.0449068323
 20
2.0700704818
 11
3.0449068323
 21
2.5245801393
  0
LINE
  5
25C
100
AcDbEntity
  8
0
100
AcDbLine
 62
7
  6
CONTINUOUS
 10
3.0544471563
 20
2.0407082344
 11
3.0544471563
 21
2.5539423867
  0
LINE
  5
25D
100
AcDbEntity
  8
0
100
AcDbLine
 62
7
  6
CONTINUOUS
 10
3.0642647837
 20
2.0335753106
 11
3.0642647837
 21
2.5610753106
  0
LINE
  5
25E
100
AcDbEntity
  8
0
100
AcDbLine
 62
7
  6
CONTINUOUS
 10
3.0999068323
 20
2.0335753106
 11
3.0999068323
 21
2.5610753106
  0
LINE
  5
25F
100
AcDbEntity
  8
0
100
AcDbLine
 62
7
  6
CONTINUOUS
 10
3.1076568323
 20
2.0469987043
 11
3.1076568323
 21
2.5476519168
  0
LINE
  5
260
100
AcDbEntity
  8
0
100
AcDbLine
 62
7
  6
CONTINUOUS
 10
3.1154068323
 20
2.0335753106
 11
3.1154068323
 21
2.5610753106
  0
LINE
  5
261
100
AcDbEntity
  8
0
100
AcDbLine
 62
7
  6
CONTINUOUS
 10
3.0085500648
 20
2.3389480898
 11
3.0085051317
 21
2.3286903165
  0
LINE
  5
262
100
AcDbEntity
  8
0
100
AcDbLine
 62
7
  6
CONTINUOUS
 10
3.0085583388
 20
2.3395660971
 11
3.0085480365
 21
2.3386739546
  0
LINE
  5
263
100
AcDbEntity
  8
0
100
AcDbLine
 62
7
  6
CONTINUOUS
 10
3.0074068323
 20
2.2973253106
 11
3.0079962713
 21
2.32755245
  0
LWPOLYLINE
  5
264
100
AcDbEntity
  8
0
100
AcDbPolyline
 62
7
  6
CONTINUOUS
 90
3
 70
0
 10
3.008558336
 20
2.3395660511
 10
3.0085576411
 20
2.3395493373
 10
3.008555857
 20
2.3394733081
  0
LINE
  5
265
100
AcDbEntity
  8
0
100
AcDbLine
 62
7
  6
CONTINUOUS
 10
3.9774068323
 20
2.4777472697
 11
3.8774068323
 21
2.4777472697
  0
LINE
  5
266
100
AcDbEntity
  8
0
100
AcDbLine
 62
7
  6
CONTINUOUS
 10
5.7774068323
 20
2.4777472697
 11
5.8774068323
 21
2.4777472697
  0
LINE
  5
267
100
AcDbEntity
  8
0
100
AcDbLine
 62
7
  6
CONTINUOUS
 10
6.6905488809
 20
2.5610753106
 11
6.6549068323
 21
2.5610753106
  0
LINE
  5
268
100
AcDbEntity
  8
0
100
AcDbLine
 62
7
  6
CONTINUOUS
 10
3.0642647837
 20
2.5610753106
 11
3.0999068323
 21
2.5610753106
  0
LINE
  5
269
100
AcDbEntity
  8
0
100
AcDbLine
 62
7
  6
CONTINUOUS
 10
5.7274068323
 20
2.5898253106
 11
5.6146111003
 21
2.5898253106
  0
LINE
  5
26A
100
AcDbEntity
  8
0
100
AcDbLine
 62
7
  6
CONTINUOUS
 10
4.1402025643
 20
2.5898253106
 11
4.0274068323
 21
2.5898253106
  0
LINE
  5
26B
100
AcDbEntity
  8
0
100
AcDbLine
 62
7
  6
CONTINUOUS
 10
3.8274068323
 20
2.6010753106
 11
3.8079068323
 21
2.6010753106
  0
LINE
  5
26C
100
AcDbEntity
  8
0
100
AcDbLine
 62
7
  6
CONTINUOUS
 10
5.9274068323
 20
2.6010753106
 11
5.9469068323
 21
2.6010753106
  0
LINE
  5
26D
100
AcDbEntity
  8
0
100
AcDbLine
 62
7
  6
CONTINUOUS
 10
3.9774068323
 20
2.6581692288
 11
3.8774068323
 21
2.6581692288
  0
LINE
  5
26E
100
AcDbEntity
  8
0
100
AcDbLine
 62
7
  6
CONTINUOUS
 10
5.7774068323
 20
2.6581692288
 11
5.8774068323
 21
2.6581692288
  0
LINE
  5
26F
100
AcDbEntity
  8
0
100
AcDbLine
 62
7
  6
CONTINUOUS
 10
3.9774068323
 20
2.6581692288
 11
4.0274068323
 21
2.6081692288
  0
LINE
  5
270
100
AcDbEntity
  8
0
100
AcDbLine
 62
7
  6
CONTINUOUS
 10
3.3999068323
 20
2.5610753106
 11
3.4254068323
 21
2.4825753106
  0
LINE
  5
271
100
AcDbEntity
  8
0
100
AcDbLine
 62
7
  6
CONTINUOUS
 10
3.1554068323
 20
2.0185753106
 11
3.1554068323
 21
2.5760753106
  0
LINE
  5
272
100
AcDbEntity
  8
0
100
AcDbLine
 62
7
  6
CONTINUOUS
 10
3.3604068323
 20
2.0185753106
 11
3.3604068323
 21
2.5760753106
  0
LINE
  5
273
100
AcDbEntity
  8
0
100
AcDbLine
 62
7
  6
CONTINUOUS
 10
3.0079962609
 20
2.327552184
 11
3.0079976359
 21
2.3275751725
  0
LINE
  5
274
100
AcDbEntity
  8
0
100
AcDbLine
 62
7
  6
CONTINUOUS
 10
3.0098458618
 20
2.3285679512
 11
3.0099889394
 21
2.3307220289
  0
LINE
  5
275
100
AcDbEntity
  8
0
100
AcDbLine
 62
7
  6
CONTINUOUS
 10
3.0099151021
 20
2.3296281026
 11
3.0099887051
 21
2.3307220425
  0
LINE
  5
276
100
AcDbEntity
  8
0
100
AcDbLine
 62
7
  6
CONTINUOUS
 10
4.7036722962
 20
6.5098317342
 11
4.6942531701
 21
6.5007010459
  0
LINE
  5
277
100
AcDbEntity
  8
0
100
AcDbLine
 62
7
  6
CONTINUOUS
 10
4.7498734628
 20
2.7373253106
 11
5.0049402018
 21
2.7373253106
  0
LINE
  5
278
100
AcDbEntity
  8
0
100
AcDbLine
 62
7
  6
CONTINUOUS
 10
5.1897694169
 20
2.8873253106
 11
4.5650442477
 21
2.8873253106
  0
LINE
  5
279
100
AcDbEntity
  8
0
100
AcDbLine
 62
7
  6
CONTINUOUS
 10
4.9014438128
 20
2.6370509468
 11
5.5696980319
 21
2.3514124512
  0
LINE
  5
27A
100
AcDbEntity
  8
0
100
AcDbLine
 62
7
  6
CONTINUOUS
 10
3.3999068323
 20
2.0335753106
 11
3.3999068323
 21
2.5610753106
  0
LINE
  5
27B
100
AcDbEntity
  8
0
100
AcDbLine
 62
7
  6
CONTINUOUS
 10
3.4254068323
 20
2.112075301
 11
3.4254068323
 21
2.4825753201
  0
LINE
  5
27C
100
AcDbEntity
  8
0
100
AcDbLine
 62
7
  6
CONTINUOUS
 10
3.6049068323
 20
2.1255752915
 11
3.6049068323
 21
2.4690753297
  0
LINE
  5
27D
100
AcDbEntity
  8
0
100
AcDbLine
 62
7
  6
CONTINUOUS
 10
3.6149068323
 20
2.4723253106
 11
3.6149068323
 21
2.1223253106
  0
LINE
  5
27E
100
AcDbEntity
  8
0
100
AcDbLine
 62
7
  6
CONTINUOUS
 10
5.1894068323
 20
3.0213253106
 11
4.5654068323
 21
3.0213253106
  0
LINE
  5
27F
100
AcDbEntity
  8
0
100
AcDbLine
 62
7
  6
CONTINUOUS
 10
5.1894068323
 20
3.0538253106
 11
4.5654068323
 21
3.0538253106
  0
LINE
  5
280
100
AcDbEntity
  8
0
100
AcDbLine
 62
7
  6
CONTINUOUS
 10
5.184665639
 20
3.0704450658
 11
4.5701480256
 21
3.0704450658
  0
LINE
  5
281
100
AcDbEntity
  8
0
100
AcDbLine
 62
7
  6
CONTINUOUS
 10
5.2488760616
 20
2.7634772894
 11
5.5445148559
 21
2.6072110695
  0
LINE
  5
282
100
AcDbEntity
  8
0
100
AcDbLine
 62
7
  6
CONTINUOUS
 10
3.6649068323
 20
2.1084445643
 11
3.6649068323
 21
2.4862060568
  0
LINE
  5
283
100
AcDbEntity
  8
0
100
AcDbLine
 62
7
  6
CONTINUOUS
 10
3.6683533338
 20
2.0986996592
 11
3.6683533338
 21
2.4959509619
  0
LINE
  5
284
100
AcDbEntity
  8
0
100
AcDbLine
 62
7
  6
CONTINUOUS
 10
3.7924068323
 20
2.0090753106
 11
3.7924068323
 21
2.5855753106
  0
LINE
  5
285
100
AcDbEntity
  8
0
100
AcDbLine
 62
7
  6
CONTINUOUS
 10
3.8079068323
 20
1.9935753106
 11
3.8079068323
 21
2.6010753106
  0
LINE
  5
286
100
AcDbEntity
  8
0
100
AcDbLine
 62
7
  6
CONTINUOUS
 10
3.8274068323
 20
2.6010753106
 11
3.8274068323
 21
1.9935753106
  0
LINE
  5
287
100
AcDbEntity
  8
0
100
AcDbLine
 62
7
  6
CONTINUOUS
 10
3.0449068323
 20
2.5245802886
 11
3.0544471563
 21
2.5539423867
  0
LINE
  5
288
100
AcDbEntity
  8
0
100
AcDbLine
 62
7
  6
CONTINUOUS
 10
5.1113112534
 20
3.2906728331
 11
4.6435024112
 21
3.2906728331
  0
LINE
  5
289
100
AcDbEntity
  8
0
100
AcDbLine
 62
7
  6
CONTINUOUS
 10
5.0949068323
 20
3.4781762246
 11
4.6599068323
 21
3.4781762246
  0
LINE
  5
28A
100
AcDbEntity
  8
0
100
AcDbLine
 62
7
  6
CONTINUOUS
 10
6.4306682702
 20
2.0630300079
 11
6.4306236293
 21
2.0630609604
  0
LINE
  5
28B
100
AcDbEntity
  8
0
100
AcDbLine
 62
7
  6
CONTINUOUS
 10
6.4306676768
 20
2.0630295913
 11
6.430623647
 21
2.0630609728
  0
LINE
  5
28C
100
AcDbEntity
  8
0
100
AcDbLine
 62
7
  6
CONTINUOUS
 10
6.5568018091
 20
2.0055761308
 11
6.5773202537
 21
1.9907828678
  0
LINE
  5
28D
100
AcDbEntity
  8
0
100
AcDbLine
 62
7
  6
CONTINUOUS
 10
5.7774068323
 20
1.9364813923
 11
5.7274068323
 21
1.9864813923
  0
LINE
  5
28E
100
AcDbEntity
  8
0
100
AcDbLine
 62
7
  6
CONTINUOUS
 10
4.0274068323
 20
1.9864813923
 11
4.0274068323
 21
2.6081692288
  0
LINE
  5
28F
100
AcDbEntity
  8
0
100
AcDbLine
 62
7
  6
CONTINUOUS
 10
5.0794658145
 20
3.4923253106
 11
4.6753478501
 21
3.4923253106
  0
LINE
  5
290
100
AcDbEntity
  8
0
100
AcDbLine
 62
7
  6
CONTINUOUS
 10
4.1752644123
 20
2.2973253106
 11
4.1752644123
 21
2.0048253106
  0
LINE
  5
291
100
AcDbEntity
  8
0
100
AcDbLine
 62
7
  6
CONTINUOUS
 10
4.1795483784
 20
2.2973253106
 11
4.1795483784
 21
2.0047641235
  0
LINE
  5
292
100
AcDbEntity
  8
0
100
AcDbLine
 62
7
  6
CONTINUOUS
 10
4.3274068323
 20
1.2542695817
 11
4.3274068323
 21
1.1473253106
  0
LINE
  5
293
100
AcDbEntity
  8
0
100
AcDbLine
 62
7
  6
CONTINUOUS
 10
3.3999068323
 20
2.0335753106
 11
3.4254068323
 21
2.1120753106
  0
LINE
  5
294
100
AcDbEntity
  8
0
100
AcDbLine
 62
7
  6
CONTINUOUS
 10
3.1076568323
 20
2.5476519168
 11
3.1154068323
 21
2.5610753106
  0
LINE
  5
295
100
AcDbEntity
  8
0
100
AcDbLine
 62
7
  6
CONTINUOUS
 10
6.5631453943
 20
2.5316206132
 11
6.5631900411
 21
2.5315896566
  0
LINE
  5
296
100
AcDbEntity
  8
0
100
AcDbLine
 62
7
  6
CONTINUOUS
 10
6.5631459878
 20
2.5316210298
 11
6.5631900234
 21
2.5315896442
  0
LINE
  5
297
100
AcDbEntity
  8
0
100
AcDbLine
 62
7
  6
CONTINUOUS
 10
6.4370118554
 20
2.5890744904
 11
6.4164934109
 21
2.6038677533
  0
LINE
  5
298
100
AcDbEntity
  8
0
100
AcDbLine
 62
7
  6
CONTINUOUS
 10
6.7003665083
 20
2.5539423867
 11
6.6905488809
 21
2.5610753106
  0
LINE
  5
299
100
AcDbEntity
  8
0
100
AcDbLine
 62
7
  6
CONTINUOUS
 10
4.5649068323
 20
1.8479787343
 11
4.5649068323
 21
1.4974646327
  0
LINE
  5
29A
100
AcDbEntity
  8
0
100
AcDbLine
 62
7
  6
CONTINUOUS
 10
4.5654068323
 20
3.0213253106
 11
4.5654068323
 21
3.0538253106
  0
LINE
  5
29B
100
AcDbEntity
  8
0
100
AcDbLine
 62
7
  6
CONTINUOUS
 10
4.6501568323
 20
6.4773452924
 11
4.6501568323
 21
6.2311433541
  0
LINE
  5
29C
100
AcDbEntity
  8
0
100
AcDbLine
 62
7
  6
CONTINUOUS
 10
3.0999068323
 20
2.0335753106
 11
3.1076568323
 21
2.0469987043
  0
LINE
  5
29D
100
AcDbEntity
  8
0
100
AcDbLine
 62
7
  6
CONTINUOUS
 10
4.7009068323
 20
7.6256246151
 11
4.7009068323
 21
6.5071509559
  0
LINE
  5
29E
100
AcDbEntity
  8
0
100
AcDbLine
 62
7
  6
CONTINUOUS
 10
4.7009068323
 20
3.4923253106
 11
4.7009068323
 21
6.1294382081
  0
LINE
  5
29F
100
AcDbEntity
  8
0
100
AcDbLine
 62
7
  6
CONTINUOUS
 10
4.6435024112
 20
3.2906728331
 11
4.6599068323
 21
3.4781762246
  0
LINE
  5
2A0
100
AcDbEntity
  8
0
100
AcDbLine
 62
7
  6
CONTINUOUS
 10
5.1113112534
 20
3.2906728331
 11
5.0949068323
 21
3.4781762246
  0
LINE
  5
2A1
100
AcDbEntity
  8
0
100
AcDbLine
 62
7
  6
CONTINUOUS
 10
5.0539068323
 20
7.6256246151
 11
5.0539068323
 21
6.5071509559
  0
LINE
  5
2A2
100
AcDbEntity
  8
0
100
AcDbLine
 62
7
  6
CONTINUOUS
 10
5.0539068323
 20
3.4923253106
 11
5.0539068323
 21
6.129438149
  0
LINE
  5
2A3
100
AcDbEntity
  8
0
100
AcDbLine
 62
7
  6
CONTINUOUS
 10
5.1046568323
 20
6.4773452924
 11
5.1046568323
 21
6.2311433541
  0
LINE
  5
2A4
100
AcDbEntity
  8
0
100
AcDbLine
 62
7
  6
CONTINUOUS
 10
5.1894068323
 20
3.0213253106
 11
5.1894068323
 21
3.0538253106
  0
LINE
  5
2A5
100
AcDbEntity
  8
0
100
AcDbLine
 62
7
  6
CONTINUOUS
 10
5.1899068323
 20
1.4974646327
 11
5.1899068323
 21
1.8479787343
  0
LINE
  5
2A6
100
AcDbEntity
  8
0
100
AcDbLine
 62
7
  6
CONTINUOUS
 10
3.0544471563
 20
2.5539423867
 11
3.0642647837
 21
2.5610753106
  0
LINE
  5
2A7
100
AcDbEntity
  8
0
100
AcDbLine
 62
7
  6
CONTINUOUS
 10
6.6549068323
 20
2.0335753106
 11
6.6471568323
 21
2.0469987043
  0
LINE
  5
2A8
100
AcDbEntity
  8
0
100
AcDbLine
 62
7
  6
CONTINUOUS
 10
5.4274068323
 20
1.1473253106
 11
5.4274068323
 21
1.2542695817
  0
LINE
  5
2A9
100
AcDbEntity
  8
0
100
AcDbLine
 62
7
  6
CONTINUOUS
 10
5.5752652862
 20
2.2973253106
 11
5.5752652862
 21
2.0047641235
  0
LINE
  5
2AA
100
AcDbEntity
  8
0
100
AcDbLine
 62
7
  6
CONTINUOUS
 10
5.5795492523
 20
2.2973253106
 11
5.5795492523
 21
2.0048253106
  0
LINE
  5
2AB
100
AcDbEntity
  8
0
100
AcDbLine
 62
7
  6
CONTINUOUS
 10
3.3178018091
 20
2.5890744904
 11
3.3383202537
 21
2.6038677533
  0
LINE
  5
2AC
100
AcDbEntity
  8
0
100
AcDbLine
 62
7
  6
CONTINUOUS
 10
3.1916236856
 20
2.5315896758
 11
3.1916677021
 21
2.5316210478
  0
LINE
  5
2AD
100
AcDbEntity
  8
0
100
AcDbLine
 62
7
  6
CONTINUOUS
 10
3.1916236678
 20
2.5315896882
 11
3.1916682953
 21
2.5316206314
  0
LINE
  5
2AE
100
AcDbEntity
  8
0
100
AcDbLine
 62
7
  6
CONTINUOUS
 10
6.6471568323
 20
2.5476519168
 11
6.6394068323
 21
2.5610753106
  0
LINE
  5
2AF
100
AcDbEntity
  8
0
100
AcDbLine
 62
7
  6
CONTINUOUS
 10
6.7383390823
 20
2.3365090207
 11
6.7383614833
 21
2.3364670428
  0
LINE
  5
2B0
100
AcDbEntity
  8
0
100
AcDbLine
 62
7
  6
CONTINUOUS
 10
6.7383392357
 20
2.3365107216
 11
6.7383614833
 21
2.3364670428
  0
LINE
  5
2B1
100
AcDbEntity
  8
0
100
AcDbLine
 62
7
  6
CONTINUOUS
 10
6.3549068323
 20
2.0335753106
 11
6.3294068323
 21
2.1120753106
  0
LINE
  5
2B2
100
AcDbEntity
  8
0
100
AcDbLine
 62
7
  6
CONTINUOUS
 10
5.7274068323
 20
2.6081692288
 11
5.7274068323
 21
1.9864813923
  0
LINE
  5
2B3
100
AcDbEntity
  8
0
100
AcDbLine
 62
7
  6
CONTINUOUS
 10
5.9274068323
 20
1.9935753106
 11
5.9274068323
 21
2.6010753106
  0
LINE
  5
2B4
100
AcDbEntity
  8
0
100
AcDbLine
 62
7
  6
CONTINUOUS
 10
3.1980118554
 20
2.0055761308
 11
3.1774934109
 21
1.9907828678
  0
LINE
  5
2B5
100
AcDbEntity
  8
0
100
AcDbLine
 62
7
  6
CONTINUOUS
 10
5.9469068323
 20
2.6010753106
 11
5.9469068323
 21
1.9935753106
  0
LINE
  5
2B6
100
AcDbEntity
  8
0
100
AcDbLine
 62
7
  6
CONTINUOUS
 10
5.9624068323
 20
2.5855753106
 11
5.9624068323
 21
2.0090753106
  0
LINE
  5
2B7
100
AcDbEntity
  8
0
100
AcDbLine
 62
7
  6
CONTINUOUS
 10
6.0864603308
 20
2.4959509619
 11
6.0864603308
 21
2.0986996592
  0
LINE
  5
2B8
100
AcDbEntity
  8
0
100
AcDbLine
 62
7
  6
CONTINUOUS
 10
6.0899068323
 20
2.4862060568
 11
6.0899068323
 21
2.1084445643
  0
LINE
  5
2B9
100
AcDbEntity
  8
0
100
AcDbLine
 62
7
  6
CONTINUOUS
 10
6.1399068323
 20
2.1223253106
 11
6.1399068323
 21
2.4723253106
  0
LINE
  5
2BA
100
AcDbEntity
  8
0
100
AcDbLine
 62
7
  6
CONTINUOUS
 10
6.1499068323
 20
2.1255752915
 11
6.1499068323
 21
2.4690753297
  0
LINE
  5
2BB
100
AcDbEntity
  8
0
100
AcDbLine
 62
7
  6
CONTINUOUS
 10
3.9774068323
 20
1.9364813923
 11
4.0274068323
 21
1.9864813923
  0
LINE
  5
2BC
100
AcDbEntity
  8
0
100
AcDbLine
 62
7
  6
CONTINUOUS
 10
3.3241900302
 20
2.0630609818
 11
3.3241459626
 21
2.0630295734
  0
LINE
  5
2BD
100
AcDbEntity
  8
0
100
AcDbLine
 62
7
  6
CONTINUOUS
 10
3.3241900479
 20
2.0630609694
 11
3.3241453687
 21
2.0630299903
  0
LINE
  5
2BE
100
AcDbEntity
  8
0
100
AcDbLine
 62
7
  6
CONTINUOUS
 10
6.7099068323
 20
2.5245802886
 11
6.7003665083
 21
2.5539423867
  0
LINE
  5
2BF
100
AcDbEntity
  8
0
100
AcDbLine
 62
7
  6
CONTINUOUS
 10
6.3294068323
 20
2.112075301
 11
6.3294068323
 21
2.4825753201
  0
LINE
  5
2C0
100
AcDbEntity
  8
0
100
AcDbLine
 62
7
  6
CONTINUOUS
 10
6.3549068323
 20
2.0335753106
 11
6.3549068323
 21
2.5610753106
  0
LINE
  5
2C1
100
AcDbEntity
  8
0
100
AcDbLine
 62
7
  6
CONTINUOUS
 10
6.3944068323
 20
2.0185753106
 11
6.3944068323
 21
2.5760753106
  0
LINE
  5
2C2
100
AcDbEntity
  8
0
100
AcDbLine
 62
7
  6
CONTINUOUS
 10
4.505937603
 20
2.7634772894
 11
4.2102988087
 21
2.6072110695
  0
LINE
  5
2C3
100
AcDbEntity
  8
0
100
AcDbLine
 62
7
  6
CONTINUOUS
 10
6.5994068323
 20
2.0185753106
 11
6.5994068323
 21
2.5760753106
  0
LINE
  5
2C4
100
AcDbEntity
  8
0
100
AcDbLine
 62
7
  6
CONTINUOUS
 10
6.6394068323
 20
2.0335753106
 11
6.6394068323
 21
2.5610753106
  0
LINE
  5
2C5
100
AcDbEntity
  8
0
100
AcDbLine
 62
7
  6
CONTINUOUS
 10
6.6471568323
 20
2.0469987043
 11
6.6471568323
 21
2.5476519168
  0
LINE
  5
2C6
100
AcDbEntity
  8
0
100
AcDbLine
 62
7
  6
CONTINUOUS
 10
6.6549068323
 20
2.0335753106
 11
6.6549068323
 21
2.5610753106
  0
LINE
  5
2C7
100
AcDbEntity
  8
0
100
AcDbLine
 62
7
  6
CONTINUOUS
 10
6.6905488809
 20
2.0335753106
 11
6.6905488809
 21
2.5610753106
  0
LINE
  5
2C8
100
AcDbEntity
  8
0
100
AcDbLine
 62
7
  6
CONTINUOUS
 10
4.8533698518
 20
2.6370509468
 11
4.1851156327
 21
2.3514124512
  0
LINE
  5
2C9
100
AcDbEntity
  8
0
100
AcDbLine
 62
7
  6
CONTINUOUS
 10
5.0511413684
 20
6.5098317342
 11
5.0605604945
 21
6.5007010459
  0
LINE
  5
2CA
100
AcDbEntity
  8
0
100
AcDbLine
 62
7
  6
CONTINUOUS
 10
6.7003665083
 20
2.0407082344
 11
6.7003665083
 21
2.5539423867
  0
LINE
  5
2CB
100
AcDbEntity
  8
0
100
AcDbLine
 62
7
  6
CONTINUOUS
 10
6.7099068323
 20
2.0700704818
 11
6.7099068323
 21
2.5245801393
  0
LINE
  5
2CC
100
AcDbEntity
  8
0
100
AcDbLine
 62
7
  6
CONTINUOUS
 10
6.7218114789
 20
2.0997529823
 11
6.7218114789
 21
2.4948976388
  0
LINE
  5
2CD
100
AcDbEntity
  8
0
100
AcDbLine
 62
7
  6
CONTINUOUS
 10
6.3549068323
 20
2.5610753106
 11
6.3294068323
 21
2.4825753106
  0
LINE
  5
2CE
100
AcDbEntity
  8
0
100
AcDbLine
 62
7
  6
CONTINUOUS
 10
5.7774068323
 20
2.6581692288
 11
5.7274068323
 21
2.6081692288
  0
LINE
  5
2CF
100
AcDbEntity
  8
0
100
AcDbLine
 62
7
  6
CONTINUOUS
 10
6.7099068323
 20
2.0700703325
 11
6.7003665083
 21
2.0407082344
  0
LINE
  5
2D0
100
AcDbEntity
  8
0
100
AcDbLine
 62
7
  6
CONTINUOUS
 10
6.7409355767
 20
2.3099612628
 11
6.7408970788
 21
2.3098691811
  0
LINE
  5
2D1
100
AcDbEntity
  8
0
100
AcDbLine
 62
7
  6
CONTINUOUS
 10
6.6549068323
 20
2.5610753106
 11
6.6471568323
 21
2.5476519168
  0
LINE
  5
2D2
100
AcDbEntity
  8
0
100
AcDbLine
 62
7
  6
CONTINUOUS
 10
6.5568018091
 20
2.5890744904
 11
6.5773202537
 21
2.6038677533
  0
LINE
  5
2D3
100
AcDbEntity
  8
0
100
AcDbLine
 62
7
  6
CONTINUOUS
 10
6.4306236856
 20
2.5315896758
 11
6.4306677021
 21
2.5316210478
  0
LINE
  5
2D4
100
AcDbEntity
  8
0
100
AcDbLine
 62
7
  6
CONTINUOUS
 10
6.4306236678
 20
2.5315896882
 11
6.4306682953
 21
2.5316206314
  0
LINE
  5
2D5
100
AcDbEntity
  8
0
100
AcDbLine
 62
7
  6
CONTINUOUS
 10
4.5050426516
 20
1.3907766529
 11
4.3513525046
 21
1.2969447736
  0
LINE
  5
2D6
100
AcDbEntity
  8
0
100
AcDbLine
 62
7
  6
CONTINUOUS
 10
6.6471568323
 20
2.0469987043
 11
6.6394068323
 21
2.0335753106
  0
LINE
  5
2D7
100
AcDbEntity
  8
0
100
AcDbLine
 62
7
  6
CONTINUOUS
 10
6.7003665083
 20
2.0407082344
 11
6.6905488809
 21
2.0335753106
  0
LINE
  5
2D8
100
AcDbEntity
  8
0
100
AcDbLine
 62
7
  6
CONTINUOUS
 10
6.4370118554
 20
2.0055761308
 11
6.4164934109
 21
1.9907828678
  0
LINE
  5
2D9
100
AcDbEntity
  8
0
100
AcDbLine
 62
7
  6
CONTINUOUS
 10
6.5631900302
 20
2.0630609818
 11
6.5631459626
 21
2.0630295734
  0
LINE
  5
2DA
100
AcDbEntity
  8
0
100
AcDbLine
 62
7
  6
CONTINUOUS
 10
6.5631900479
 20
2.0630609694
 11
6.5631453687
 21
2.0630299903
  0
ARC
  5
2DB
100
AcDbEntity
  8
0
100
AcDbCircle
 62
7
  6
CONTINUOUS
 10
3.7827435283
 20
2.2973253106
 40
0.775336696
100
AcDbArc
 50
165.2370022574
 51
176.8769470722
  0
ARC
  5
2DC
100
AcDbEntity
  8
0
100
AcDbCircle
 62
7
  6
CONTINUOUS
 10
3.7827435283
 20
2.2973253106
 40
0.775336696
100
AcDbArc
 50
183.1230469237
 51
194.7629977426
  0
ARC
  5
2DD
100
AcDbEntity
  8
0
100
AcDbCircle
 62
7
  6
CONTINUOUS
 10
3.7827435283
 20
2.2973253106
 40
0.7722603137
100
AcDbArc
 50
182.2634542576
 51
183.1547671566
  0
ARC
  5
2DE
100
AcDbEntity
  8
0
100
AcDbCircle
 62
7
  6
CONTINUOUS
 10
3.7827435283
 20
2.2973253106
 40
0.7717583206
100
AcDbArc
 50
182.264927297
 51
183.156821265
  0
ARC
  5
2DF
100
AcDbEntity
  8
0
100
AcDbCircle
 62
7
  6
CONTINUOUS
 10
3.7827435283
 20
2.2973253106
 40
0.7713779422
100
AcDbArc
 50
177.6559010444
 51
181.0971301576
  0
ARC
  5
2E0
100
AcDbEntity
  8
0
100
AcDbCircle
 62
7
  6
CONTINUOUS
 10
3.7827435283
 20
2.2973253106
 40
0.7708753745
100
AcDbArc
 50
177.6543719687
 51
181.0978455127
  0
ARC
  5
2E1
100
AcDbEntity
  8
0
100
AcDbCircle
 62
7
  6
CONTINUOUS
 10
3.7827435283
 20
2.2973253106
 40
0.7693392813
100
AcDbArc
 50
177.649685969
 51
181.1000377836
  0
ARC
  5
2E2
100
AcDbEntity
  8
0
100
AcDbCircle
 62
7
  6
CONTINUOUS
 10
3.7827435283
 20
2.2973253106
 40
0.7681254729
100
AcDbArc
 50
182.2756448885
 51
183.1717666779
  0
ARC
  5
2E3
100
AcDbEntity
  8
0
100
AcDbCircle
 62
7
  6
CONTINUOUS
 10
3.3740529493
 20
1.9321856651
 40
0.68
100
AcDbArc
 50
108.7559867836
 51
112.3561036556
  0
ARC
  5
2E4
100
AcDbEntity
  8
0
100
AcDbCircle
 62
7
  6
CONTINUOUS
 10
3.1388659245
 20
1.9331759201
 40
0.68
100
AcDbArc
 50
67.4255442891
 51
70.9862257999
  0
ARC
  5
2E5
100
AcDbEntity
  8
0
100
AcDbCircle
 62
7
  6
CONTINUOUS
 10
3.6681091243
 20
2.285921763
 40
0.6601434579
100
AcDbArc
 50
175.3598795935
 51
176.2960333443
  0
ARC
  5
2E6
100
AcDbEntity
  8
0
100
AcDbCircle
 62
7
  6
CONTINUOUS
 10
3.6682555369
 20
2.2859163779
 40
0.6597897087
100
AcDbArc
 50
175.356917141
 51
176.1061048456
  0
ARC
  5
2E7
100
AcDbEntity
  8
0
100
AcDbCircle
 62
7
  6
CONTINUOUS
 10
3.6690299818
 20
2.3480838838
 40
0.6503860006
100
AcDbArc
 50
180.7716101689
 51
181.7195149323
  0
ARC
  5
2E8
100
AcDbEntity
  8
0
100
AcDbCircle
 62
7
  6
CONTINUOUS
 10
3.2579068323
 20
1.5572558661
 40
0.4725694444
100
AcDbArc
 50
77.4730187713
 51
80.8648475463
  0
ARC
  5
2E9
100
AcDbEntity
  8
0
100
AcDbCircle
 62
7
  6
CONTINUOUS
 10
3.2579068323
 20
1.5572558661
 40
0.4725694444
100
AcDbArc
 50
99.1353838165
 51
102.5269812287
  0
ARC
  5
2EA
100
AcDbEntity
  8
0
100
AcDbCircle
 62
7
  6
CONTINUOUS
 10
3.4085757333
 20
2.2465680815
 40
0.3981738777
100
AcDbArc
 50
168.1154773322
 51
168.7386500027
  0
ARC
  5
2EB
100
AcDbEntity
  8
0
100
AcDbCircle
 62
7
  6
CONTINUOUS
 10
3.3961763734
 20
2.3354491357
 40
0.3868929635
100
AcDbArc
 50
181.0191025853
 51
181.64757734
  0
ARC
  5
2EC
100
AcDbEntity
  8
0
100
AcDbCircle
 62
7
  6
CONTINUOUS
 10
3.8386576025
 20
2.2363857372
 40
0.219
100
AcDbArc
 50
218.9545376239
 51
257.807858722
  0
ARC
  5
2ED
100
AcDbEntity
  8
0
100
AcDbCircle
 62
7
  6
CONTINUOUS
 10
3.8386576025
 20
2.3582648839
 40
0.219
100
AcDbArc
 50
102.192141278
 51
141.0454623761
  0
ARC
  5
2EE
100
AcDbEntity
  8
0
100
AcDbCircle
 62
7
  6
CONTINUOUS
 10
3.2579068323
 20
1.8792484262
 40
0.1375
100
AcDbArc
 50
125.7906197352
 51
54.2093802648
  0
ARC
  5
2EF
100
AcDbEntity
  8
0
100
AcDbCircle
 62
7
  6
CONTINUOUS
 10
3.2690878028
 20
2.1431279102
 40
0.0974432516
100
AcDbArc
 50
298.5091483942
 51
304.5043625461
  0
ARC
  5
2F0
100
AcDbEntity
  8
0
100
AcDbCircle
 62
7
  6
CONTINUOUS
 10
3.2459405278
 20
2.1418467023
 40
0.0959425949
100
AcDbArc
 50
235.4486876334
 51
241.5376484632
  0
ARC
  5
2F1
100
AcDbEntity
  8
0
100
AcDbCircle
 62
7
  6
CONTINUOUS
 10
3.2400370321
 20
2.1309605817
 40
0.0833919225
100
AcDbArc
 50
231.4119708189
 51
234.5105914991
  0
ARC
  5
2F2
100
AcDbEntity
  8
0
100
AcDbCircle
 62
7
  6
CONTINUOUS
 10
3.2762699953
 20
2.1303067871
 40
0.082573168
100
AcDbArc
 50
305.4740532262
 51
308.6033950994
  0
ARC
  5
2F3
100
AcDbEntity
  8
0
100
AcDbCircle
 62
7
  6
CONTINUOUS
 10
3.8079068323
 20
2.0090753106
 40
0.0155
100
AcDbArc
 50
180.0
 51
270.0
  0
ARC
  5
2F4
100
AcDbEntity
  8
0
100
AcDbCircle
 62
7
  6
CONTINUOUS
 10
3.6804068323
 20
2.1084445643
 40
0.0155
100
AcDbArc
 50
180.0
 51
218.9545376239
  0
ARC
  5
2F5
100
AcDbEntity
  8
0
100
AcDbCircle
 62
7
  6
CONTINUOUS
 10
3.0475069482
 20
2.1035753106
 40
0.015
100
AcDbArc
 50
194.7629977426
 51
260.0154653003
  0
ARC
  5
2F6
100
AcDbEntity
  8
0
100
AcDbCircle
 62
7
  6
CONTINUOUS
 10
3.3740529493
 20
2.662464956
 40
0.68
100
AcDbArc
 50
247.6438963444
 51
251.2440132164
  0
ARC
  5
2F7
100
AcDbEntity
  8
0
100
AcDbCircle
 62
7
  6
CONTINUOUS
 10
3.1388659245
 20
2.661474701
 40
0.68
100
AcDbArc
 50
289.0137742001
 51
292.5744557109
  0
ARC
  5
2F8
100
AcDbEntity
  8
0
100
AcDbCircle
 62
7
  6
CONTINUOUS
 10
3.2579068323
 20
3.037394755
 40
0.4725694444
100
AcDbArc
 50
279.1362409002
 51
282.5269812287
  0
ARC
  5
2F9
100
AcDbEntity
  8
0
100
AcDbCircle
 62
7
  6
CONTINUOUS
 10
3.2579068323
 20
3.037394755
 40
0.4725694444
100
AcDbArc
 50
257.4730187713
 51
260.8642869768
  0
ARC
  5
2FA
100
AcDbEntity
  8
0
100
AcDbCircle
 62
7
  6
CONTINUOUS
 10
3.2579068323
 20
2.7154021949
 40
0.1375
100
AcDbArc
 50
305.7906197352
 51
234.2093802648
  0
ARC
  5
2FB
100
AcDbEntity
  8
0
100
AcDbCircle
 62
7
  6
CONTINUOUS
 10
3.2467254444
 20
2.4515233805
 40
0.0974424633
100
AcDbArc
 50
118.510039535
 51
124.5043833188
  0
ARC
  5
2FC
100
AcDbEntity
  8
0
100
AcDbCircle
 62
7
  6
CONTINUOUS
 10
3.2698734814
 20
2.4528044429
 40
0.0959419678
100
AcDbArc
 50
55.4486796575
 51
61.5366392037
  0
ARC
  5
2FD
100
AcDbEntity
  8
0
100
AcDbCircle
 62
7
  6
CONTINUOUS
 10
3.2757766347
 20
2.4636900423
 40
0.0833919189
100
AcDbArc
 50
51.4119707811
 51
54.5105867103
  0
ARC
  5
2FE
100
AcDbEntity
  8
0
100
AcDbCircle
 62
7
  6
CONTINUOUS
 10
3.239543686
 20
2.4643438126
 40
0.0825731951
100
AcDbArc
 50
125.4740103847
 51
128.6033948654
  0
ARC
  5
2FF
100
AcDbEntity
  8
0
100
AcDbCircle
 62
7
  6
CONTINUOUS
 10
3.2129150059
 20
2.617055135
 40
0.0530081736
100
AcDbArc
 50
177.9686694481
 51
179.9996064544
  0
ARC
  5
300
100
AcDbEntity
  8
0
100
AcDbCircle
 62
7
  6
CONTINUOUS
 10
3.3028989496
 20
2.6170551412
 40
0.0530078827
100
AcDbArc
 50
0.0003868727
 51
2.0186714191
  0
ARC
  5
301
100
AcDbEntity
  8
0
100
AcDbCircle
 62
7
  6
CONTINUOUS
 10
3.8079068323
 20
2.5855753106
 40
0.0155
100
AcDbArc
 50
90.0
 51
180.0
  0
ARC
  5
302
100
AcDbEntity
  8
0
100
AcDbCircle
 62
7
  6
CONTINUOUS
 10
3.6804068323
 20
2.4862060568
 40
0.0155
100
AcDbArc
 50
141.0454623761
 51
180.0
  0
ARC
  5
303
100
AcDbEntity
  8
0
100
AcDbCircle
 62
7
  6
CONTINUOUS
 10
3.0475069482
 20
2.4910753106
 40
0.015
100
AcDbArc
 50
99.9845346996
 51
165.2370022574
  0
ARC
  5
304
100
AcDbEntity
  8
0
100
AcDbCircle
 62
7
  6
CONTINUOUS
 10
4.0383019508
 20
2.1278260051
 40
0.25
100
AcDbArc
 50
212.4798371001
 51
229.9406724511
  0
ARC
  5
305
100
AcDbEntity
  8
0
100
AcDbCircle
 62
7
  6
CONTINUOUS
 10
4.4149071664
 20
1.8479787185
 40
0.1499998837
100
AcDbArc
 50
359.999872325
 51
88.3635468639
  0
ARC
  5
306
100
AcDbEntity
  8
0
100
AcDbCircle
 62
7
  6
CONTINUOUS
 10
4.4399068323
 20
1.4974646327
 40
0.125
100
AcDbArc
 50
301.4051636659
 51
360.0
  0
ARC
  5
307
100
AcDbEntity
  8
0
100
AcDbCircle
 62
7
  6
CONTINUOUS
 10
4.3774068323
 20
1.2542695817
 40
0.05
100
AcDbArc
 50
121.4051636659
 51
180.0
  0
ARC
  5
308
100
AcDbEntity
  8
0
100
AcDbCircle
 62
7
  6
CONTINUOUS
 10
4.0858846877
 20
3.1848648364
 40
0.8393388168
100
AcDbArc
 50
275.7000465545
 51
276.7896809071
  0
ARC
  5
309
100
AcDbEntity
  8
0
100
AcDbCircle
 62
7
  6
CONTINUOUS
 10
4.1454050621
 20
3.3342507044
 40
0.5
100
AcDbArc
 50
328.1557999176
 51
355.0
  0
ARC
  5
30A
100
AcDbEntity
  8
0
100
AcDbCircle
 62
7
  6
CONTINUOUS
 10
4.7274068323
 20
2.7373253106
 40
0.4625
100
AcDbArc
 50
15.0232015649
 51
18.9246444161
  0
ARC
  5
30B
100
AcDbEntity
  8
0
100
AcDbCircle
 62
7
  6
CONTINUOUS
 10
4.3798732712
 20
2.9039594386
 40
0.4057923184
100
AcDbArc
 50
326.9775963738
 51
335.7549954791
  0
ARC
  5
30C
100
AcDbEntity
  8
0
100
AcDbCircle
 62
7
  6
CONTINUOUS
 10
4.0383019508
 20
2.466824616
 40
0.25
100
AcDbArc
 50
130.0593275489
 51
147.5201628999
  0
ARC
  5
30D
100
AcDbEntity
  8
0
100
AcDbCircle
 62
7
  6
CONTINUOUS
 10
4.1402025644
 20
2.7398252223
 40
0.1499999701
100
AcDbArc
 50
269.9999999507
 51
297.859715573
  0
ARC
  5
30E
100
AcDbEntity
  8
0
100
AcDbCircle
 62
7
  6
CONTINUOUS
 10
4.4358416516
 20
2.8960915004
 40
0.1499999456
100
AcDbArc
 50
297.8596062708
 51
344.9767984356
  0
ARC
  5
30F
100
AcDbEntity
  8
0
100
AcDbCircle
 62
7
  6
CONTINUOUS
 10
4.6311568323
 20
2.95414691
 40
0.094
100
AcDbArc
 50
134.384343958
 51
225.3055886043
  0
ARC
  5
310
100
AcDbEntity
  8
0
100
AcDbCircle
 62
7
  6
CONTINUOUS
 10
4.5969068323
 20
3.0538253106
 40
0.0315
100
AcDbArc
 50
148.1557999176
 51
180.0
  0
ARC
  5
311
100
AcDbEntity
  8
0
100
AcDbCircle
 62
7
  6
CONTINUOUS
 10
4.6753478501
 20
3.4768253106
 40
0.0155
100
AcDbArc
 50
90.0
 51
175.0
  0
ARC
  5
312
100
AcDbEntity
  8
0
100
AcDbCircle
 62
7
  6
CONTINUOUS
 10
4.9037668616
 20
6.2311503444
 40
0.2008900903
100
AcDbArc
 50
335.541361735
 51
359.9980063066
  0
ARC
  5
313
100
AcDbEntity
  8
0
100
AcDbCircle
 62
7
  6
CONTINUOUS
 10
4.8510468028
 20
6.2311503443
 40
0.2008900902
100
AcDbArc
 50
180.001993659
 51
204.4586382531
  0
ARC
  5
314
100
AcDbEntity
  8
0
100
AcDbCircle
 62
7
  6
CONTINUOUS
 10
4.8774068323
 20
7.6258253106
 40
0.1765
100
AcDbArc
 50
0.0
 51
180.0
  0
ARC
  5
315
100
AcDbEntity
  8
0
100
AcDbCircle
 62
7
  6
CONTINUOUS
 10
5.9720718246
 20
2.2973253106
 40
0.7753350077
100
AcDbArc
 50
2.238835601
 51
14.7630312681
  0
ARC
  5
316
100
AcDbEntity
  8
0
100
AcDbCircle
 62
7
  6
CONTINUOUS
 10
5.9720718246
 20
2.2973253106
 40
0.7753350077
100
AcDbArc
 50
345.2369687319
 51
357.7611630131
  0
ARC
  5
317
100
AcDbEntity
  8
0
100
AcDbCircle
 62
7
  6
CONTINUOUS
 10
5.7165117138
 20
2.1278260051
 40
0.25
100
AcDbArc
 50
310.0593275489
 51
327.5201628999
  0
ARC
  5
318
100
AcDbEntity
  8
0
100
AcDbCircle
 62
7
  6
CONTINUOUS
 10
5.9161560621
 20
2.3582648839
 40
0.219
100
AcDbArc
 50
38.9545376239
 51
77.807858722
  0
ARC
  5
319
100
AcDbEntity
  8
0
100
AcDbCircle
 62
7
  6
CONTINUOUS
 10
5.9161560621
 20
2.2363857372
 40
0.219
100
AcDbArc
 50
282.192141278
 51
321.0454623761
  0
ARC
  5
31A
100
AcDbEntity
  8
0
100
AcDbCircle
 62
7
  6
CONTINUOUS
 10
5.3399064982
 20
1.8479787185
 40
0.1499998837
100
AcDbArc
 50
91.6364531361
 51
180.000127675
  0
ARC
  5
31B
100
AcDbEntity
  8
0
100
AcDbCircle
 62
7
  6
CONTINUOUS
 10
5.3149068323
 20
1.4974646327
 40
0.125
100
AcDbArc
 50
180.0
 51
238.5948363341
  0
ARC
  5
31C
100
AcDbEntity
  8
0
100
AcDbCircle
 62
7
  6
CONTINUOUS
 10
5.3774068323
 20
1.2542695817
 40
0.05
100
AcDbArc
 50
0.0
 51
58.5948363341
  0
ARC
  5
31D
100
AcDbEntity
  8
0
100
AcDbCircle
 62
7
  6
CONTINUOUS
 10
5.9469068323
 20
2.0090753106
 40
0.0155
100
AcDbArc
 50
270.0
 51
360.0
  0
ARC
  5
31E
100
AcDbEntity
  8
0
100
AcDbCircle
 62
7
  6
CONTINUOUS
 10
5.6689289769
 20
3.1848648364
 40
0.8393388168
100
AcDbArc
 50
263.2103190929
 51
264.2999534455
  0
ARC
  5
31F
100
AcDbEntity
  8
0
100
AcDbCircle
 62
7
  6
CONTINUOUS
 10
5.6094086025
 20
3.3342507044
 40
0.5
100
AcDbArc
 50
185.0
 51
211.8442000824
  0
ARC
  5
320
100
AcDbEntity
  8
0
100
AcDbCircle
 62
7
  6
CONTINUOUS
 10
5.0274068323
 20
2.7373253106
 40
0.4625
100
AcDbArc
 50
161.0753555839
 51
164.9767984351
  0
ARC
  5
321
100
AcDbEntity
  8
0
100
AcDbCircle
 62
7
  6
CONTINUOUS
 10
5.3749403934
 20
2.9039594386
 40
0.4057923184
100
AcDbArc
 50
204.2450045212
 51
213.0224036264
  0
ARC
  5
322
100
AcDbEntity
  8
0
100
AcDbCircle
 62
7
  6
CONTINUOUS
 10
5.7165117138
 20
2.466824616
 40
0.25
100
AcDbArc
 50
32.4798371001
 51
49.9406724511
  0
ARC
  5
323
100
AcDbEntity
  8
0
100
AcDbCircle
 62
7
  6
CONTINUOUS
 10
5.6146111002
 20
2.7398252223
 40
0.1499999701
100
AcDbArc
 50
242.140284427
 51
270.0000000493
  0
ARC
  5
324
100
AcDbEntity
  8
0
100
AcDbCircle
 62
7
  6
CONTINUOUS
 10
5.318972013
 20
2.8960915004
 40
0.1499999456
100
AcDbArc
 50
195.0232015644
 51
242.1403937292
  0
ARC
  5
325
100
AcDbEntity
  8
0
100
AcDbCircle
 62
7
  6
CONTINUOUS
 10
5.1236568323
 20
2.95414691
 40
0.094
100
AcDbArc
 50
314.6944113957
 51
45.615656042
  0
ARC
  5
326
100
AcDbEntity
  8
0
100
AcDbCircle
 62
7
  6
CONTINUOUS
 10
5.1579068323
 20
3.0538253106
 40
0.0315
100
AcDbArc
 50
0.0
 51
31.8442000824
  0
ARC
  5
327
100
AcDbEntity
  8
0
100
AcDbCircle
 62
7
  6
CONTINUOUS
 10
5.0794658145
 20
3.4768253106
 40
0.0155
100
AcDbArc
 50
5.0
 51
90.0
  0
ARC
  5
328
100
AcDbEntity
  8
0
100
AcDbCircle
 62
7
  6
CONTINUOUS
 10
5.9469068323
 20
2.5855753106
 40
0.0155
100
AcDbArc
 50
0.0
 51
90.0
  0
ARC
  5
329
100
AcDbEntity
  8
0
100
AcDbCircle
 62
7
  6
CONTINUOUS
 10
6.02968191
 20
2.274471736
 40
0.7132495246
100
AcDbArc
 50
2.9593801865
 51
5.2169337096
  0
ARC
  5
32A
100
AcDbEntity
  8
0
100
AcDbCircle
 62
7
  6
CONTINUOUS
 10
6.029601908
 20
2.2744681922
 40
0.712826769
100
AcDbArc
 50
3.4529181631
 51
5.2203223357
  0
ARC
  5
32B
100
AcDbEntity
  8
0
100
AcDbCircle
 62
7
  6
CONTINUOUS
 10
6.0298405392
 20
2.274483968
 40
0.7125876208
100
AcDbArc
 50
2.9611467008
 51
3.4528076221
  0
ARC
  5
32C
100
AcDbEntity
  8
0
100
AcDbCircle
 62
7
  6
CONTINUOUS
 10
6.3807607153
 20
1.9321856651
 40
0.68
100
AcDbArc
 50
67.6438963444
 51
71.2440132164
  0
ARC
  5
32D
100
AcDbEntity
  8
0
100
AcDbCircle
 62
7
  6
CONTINUOUS
 10
6.61594774
 20
1.9331759201
 40
0.68
100
AcDbArc
 50
109.0137742001
 51
112.5744557109
  0
ARC
  5
32E
100
AcDbEntity
  8
0
100
AcDbCircle
 62
7
  6
CONTINUOUS
 10
6.4969068323
 20
1.5572558661
 40
0.4725694444
100
AcDbArc
 50
99.1353838165
 51
102.5269812287
  0
ARC
  5
32F
100
AcDbEntity
  8
0
100
AcDbCircle
 62
7
  6
CONTINUOUS
 10
6.4969068323
 20
1.5572558661
 40
0.4725694444
100
AcDbArc
 50
77.4730187713
 51
80.8648475463
  0
ARC
  5
330
100
AcDbEntity
  8
0
100
AcDbCircle
 62
7
  6
CONTINUOUS
 10
6.3837137474
 20
2.3084455768
 40
0.3630122712
100
AcDbArc
 50
2.3692550615
 51
2.9282467754
  0
ARC
  5
331
100
AcDbEntity
  8
0
100
AcDbCircle
 62
7
  6
CONTINUOUS
 10
6.4012448897
 20
2.2853933541
 40
0.3454625786
100
AcDbArc
 50
357.0674231924
 51
357.6447903323
  0
ARC
  5
332
100
AcDbEntity
  8
0
100
AcDbCircle
 62
7
  6
CONTINUOUS
 10
6.4588114831
 20
2.2824774411
 40
0.2878221943
100
AcDbArc
 50
356.921461214
 51
357.0608426148
  0
ARC
  5
333
100
AcDbEntity
  8
0
100
AcDbCircle
 62
7
  6
CONTINUOUS
 10
6.4600597304
 20
2.2824300532
 40
0.2870729206
100
AcDbArc
 50
356.8694536393
 51
357.0517704752
  0
ARC
  5
334
100
AcDbEntity
  8
0
100
AcDbCircle
 62
7
  6
CONTINUOUS
 10
6.4598282291
 20
2.3122255444
 40
0.2868040943
100
AcDbArc
 50
2.9508809264
 51
3.1333561138
  0
ARC
  5
335
100
AcDbEntity
  8
0
100
AcDbCircle
 62
7
  6
CONTINUOUS
 10
7.0049165056
 20
2.2979336719
 40
0.2729580495
100
AcDbArc
 50
176.7768021496
 51
180.1276993437
  0
ARC
  5
336
100
AcDbEntity
  8
0
100
AcDbCircle
 62
7
  6
CONTINUOUS
 10
7.0040204659
 20
2.2975265298
 40
0.2720614062
100
AcDbArc
 50
180.0423765218
 51
183.2736891269
  0
ARC
  5
337
100
AcDbEntity
  8
0
100
AcDbCircle
 62
7
  6
CONTINUOUS
 10
6.4969068323
 20
1.8792484262
 40
0.1375
100
AcDbArc
 50
125.7906197352
 51
54.2093802648
  0
ARC
  5
338
100
AcDbEntity
  8
0
100
AcDbCircle
 62
7
  6
CONTINUOUS
 10
6.6150851305
 20
2.2494660691
 40
0.1309173262
100
AcDbArc
 50
14.2927477639
 51
15.8969206907
  0
ARC
  5
339
100
AcDbEntity
  8
0
100
AcDbCircle
 62
7
  6
CONTINUOUS
 10
6.6152174845
 20
2.24961278
 40
0.1302648904
100
AcDbArc
 50
14.299265708
 51
15.2627550109
  0
ARC
  5
33A
100
AcDbEntity
  8
0
100
AcDbCircle
 62
7
  6
CONTINUOUS
 10
6.5080878028
 20
2.1431279102
 40
0.0974432516
100
AcDbArc
 50
298.5091483942
 51
304.5043625461
  0
ARC
  5
33B
100
AcDbEntity
  8
0
100
AcDbCircle
 62
7
  6
CONTINUOUS
 10
6.4849405278
 20
2.1418467023
 40
0.0959425949
100
AcDbArc
 50
235.4486876333
 51
241.5376484632
  0
ARC
  5
33C
100
AcDbEntity
  8
0
100
AcDbCircle
 62
7
  6
CONTINUOUS
 10
6.4790370321
 20
2.1309605817
 40
0.0833919225
100
AcDbArc
 50
231.4119708188
 51
234.5105914991
  0
ARC
  5
33D
100
AcDbEntity
  8
0
100
AcDbCircle
 62
7
  6
CONTINUOUS
 10
6.5152699953
 20
2.1303067871
 40
0.082573168
100
AcDbArc
 50
305.4740532262
 51
308.6033950994
  0
ARC
  5
33E
100
AcDbEntity
  8
0
100
AcDbCircle
 62
7
  6
CONTINUOUS
 10
6.6746298535
 20
2.3378166694
 40
0.0723840728
100
AcDbArc
 50
336.389232024
 51
338.5064143188
  0
ARC
  5
33F
100
AcDbEntity
  8
0
100
AcDbCircle
 62
7
  6
CONTINUOUS
 10
6.6746920707
 20
2.3376076102
 40
0.0717810742
100
AcDbArc
 50
337.3470626006
 51
338.4962246061
  0
ARC
  5
340
100
AcDbEntity
  8
0
100
AcDbCircle
 62
7
  6
CONTINUOUS
 10
6.0744068323
 20
2.1084445643
 40
0.0155
100
AcDbArc
 50
321.0454623761
 51
360.0
  0
ARC
  5
341
100
AcDbEntity
  8
0
100
AcDbCircle
 62
7
  6
CONTINUOUS
 10
6.7073066588
 20
2.1035753106
 40
0.015
100
AcDbArc
 50
279.9847582361
 51
345.2369687319
  0
ARC
  5
342
100
AcDbEntity
  8
0
100
AcDbCircle
 62
7
  6
CONTINUOUS
 10
6.7357953139
 20
2.2674909902
 40
0.0008572591
100
AcDbArc
 50
264.5089335394
 51
269.9972654698
  0
ARC
  5
343
100
AcDbEntity
  8
0
100
AcDbCircle
 62
7
  6
CONTINUOUS
 10
6.3807607153
 20
2.662464956
 40
0.68
100
AcDbArc
 50
288.7559867836
 51
292.3561036556
  0
ARC
  5
344
100
AcDbEntity
  8
0
100
AcDbCircle
 62
7
  6
CONTINUOUS
 10
6.61594774
 20
2.661474701
 40
0.68
100
AcDbArc
 50
247.4255442891
 51
250.9862257999
  0
ARC
  5
345
100
AcDbEntity
  8
0
100
AcDbCircle
 62
7
  6
CONTINUOUS
 10
6.4969068323
 20
3.037394755
 40
0.4725694444
100
AcDbArc
 50
257.4730187713
 51
260.8642869768
  0
ARC
  5
346
100
AcDbEntity
  8
0
100
AcDbCircle
 62
7
  6
CONTINUOUS
 10
6.4969068323
 20
3.037394755
 40
0.4725694444
100
AcDbArc
 50
279.1362409002
 51
282.5269812287
  0
ARC
  5
347
100
AcDbEntity
  8
0
100
AcDbCircle
 62
7
  6
CONTINUOUS
 10
6.4969068323
 20
2.7154021949
 40
0.1375
100
AcDbArc
 50
305.7906197353
 51
234.2093802648
  0
ARC
  5
348
100
AcDbEntity
  8
0
100
AcDbCircle
 62
7
  6
CONTINUOUS
 10
6.4857254444
 20
2.4515233805
 40
0.0974424633
100
AcDbArc
 50
118.510039535
 51
124.5043833188
  0
ARC
  5
349
100
AcDbEntity
  8
0
100
AcDbCircle
 62
7
  6
CONTINUOUS
 10
6.5088734814
 20
2.4528044429
 40
0.0959419678
100
AcDbArc
 50
55.4486796575
 51
61.5366392036
  0
ARC
  5
34A
100
AcDbEntity
  8
0
100
AcDbCircle
 62
7
  6
CONTINUOUS
 10
6.5147766347
 20
2.4636900423
 40
0.0833919189
100
AcDbArc
 50
51.4119707811
 51
54.5105867103
  0
ARC
  5
34B
100
AcDbEntity
  8
0
100
AcDbCircle
 62
7
  6
CONTINUOUS
 10
6.478543686
 20
2.4643438126
 40
0.0825731951
100
AcDbArc
 50
125.4740103847
 51
128.6033948653
  0
ARC
  5
34C
100
AcDbEntity
  8
0
100
AcDbCircle
 62
7
  6
CONTINUOUS
 10
6.4519150059
 20
2.617055135
 40
0.0530081736
100
AcDbArc
 50
177.9686694482
 51
179.9996064544
  0
ARC
  5
34D
100
AcDbEntity
  8
0
100
AcDbCircle
 62
7
  6
CONTINUOUS
 10
6.5418989496
 20
2.6170551412
 40
0.0530078827
100
AcDbArc
 50
0.0003868726
 51
2.0186714192
  0
ARC
  5
34E
100
AcDbEntity
  8
0
100
AcDbCircle
 62
7
  6
CONTINUOUS
 10
6.0744068323
 20
2.4862060568
 40
0.0155
100
AcDbArc
 50
0.0
 51
38.9545376239
  0
ARC
  5
34F
100
AcDbEntity
  8
0
100
AcDbCircle
 62
7
  6
CONTINUOUS
 10
6.7073066588
 20
2.4910753106
 40
0.015
100
AcDbArc
 50
14.7630312681
 51
80.0152417639
  0
LINE
  5
350
100
AcDbEntity
  8
0
100
AcDbLine
 62
7
  6
CONTINUOUS
 10
3.0085051317
 20
2.3286903165
 11
3.0084990353
 21
2.327578413
  0
LINE
  5
351
100
AcDbEntity
  8
0
100
AcDbLine
 62
7
  6
CONTINUOUS
 10
3.0084990353
 20
2.327578413
 11
3.008494954
 21
2.3268710209
  0
LINE
  5
352
100
AcDbEntity
  8
0
100
AcDbLine
 62
7
  6
CONTINUOUS
 10
3.008494954
 20
2.3268710209
 11
3.0083632973
 21
2.2973253106
  0
SPLINE
  5
353
100
AcDbEntity
  8
0
100
AcDbSpline
 62
7
  6
CONTINUOUS
 70
0
 71
3
 72
22
 73
18
 74
0
 42
0.0000001
 43
0.0000001
 44
0.0000000001
 40
0.0
 40
0.0
 40
0.0
 40
0.0
 40
0.006897361
 40
0.0144116704
 40
0.0231248153
 40
0.033407121
 40
0.059433858
 40
0.0933618573
 40
0.1353367746
 40
0.1852214127
 40
0.2426959721
 40
0.30731689
 40
0.3785340398
 40
0.4557106424
 40
0.6250190668
 40
0.8088095581
 40
1.0
 40
1.0
 40
1.0
 40
1.0
 10
6.7385006368
 20
2.3363253098
 30
0.0
 10
6.7385076987
 20
2.3363253098
 30
0.0
 10
6.7385225577
 20
2.3363279452
 30
0.0
 10
6.7385435912
 20
2.3363394703
 30
0.0
 10
6.7385636762
 20
2.3363580108
 30
0.0
 10
6.7385916677
 20
2.3363948383
 30
0.0
 10
6.738623517
 20
2.336459887
 30
0.0
 10
6.7386568694
 20
2.3365588705
 30
0.0
 10
6.7386874859
 20
2.3366841067
 30
0.0
 10
6.7387150047
 20
2.3368345586
 30
0.0
 10
6.7387390824
 20
2.3370090346
 30
0.0
 10
6.7387594282
 20
2.3372059399
 30
0.0
 10
6.7387758059
 20
2.3374234446
 30
0.0
 10
6.7387926047
 20
2.3377483153
 30
0.0
 10
6.7388016757
 20
2.3381888734
 30
0.0
 10
6.7387950952
 20
2.3387461831
 30
0.0
 10
6.7387794239
 20
2.3391298522
 30
0.0
 10
6.7387687166
 20
2.3393253106
 30
0.0
  0
SPLINE
  5
354
100
AcDbEntity
  8
0
100
AcDbSpline
 62
7
  6
CONTINUOUS
 70
0
 71
3
 72
25
 73
21
 74
0
 42
0.0000001
 43
0.0000001
 44
0.0000000001
 40
0.0
 40
0.0
 40
0.0
 40
0.0
 40
0.0094293231
 40
0.0192783751
 40
0.0299178876
 40
0.0416408279
 40
0.0546620224
 40
0.069134455
 40
0.0851636453
 40
0.1028195615
 40
0.1431697075
 40
0.1903781691
 40
0.2444461437
 40
0.3052611
 40
0.3726291689
 40
0.4462933296
 40
0.5259427746
 40
0.6112190337
 40
0.7970006979
 40
1.0
 40
1.0
 40
1.0
 40
1.0
 10
6.7363025428
 20
2.2666337313
 30
0.0
 10
6.7363648591
 20
2.2666337365
 30
0.0
 10
6.7364926602
 20
2.2666480058
 30
0.0
 10
6.736681325
 20
2.2667111971
 30
0.0
 10
6.7368681707
 20
2.266815349
 30
0.0
 10
6.7370531092
 20
2.2669596616
 30
0.0
 10
6.7372363836
 20
2.2671436755
 30
0.0
 10
6.7374180467
 20
2.2673671833
 30
0.0
 10
6.7375980823
 20
2.2676299819
 30
0.0
 10
6.7378469704
 20
2.2680515741
 30
0.0
 10
6.7381481759
 20
2.2686796152
 30
0.0
 10
6.7384863447
 20
2.2695530031
 30
0.0
 10
6.7388137628
 20
2.270573499
 30
0.0
 10
6.7391286643
 20
2.2717364
 30
0.0
 10
6.7394292587
 20
2.2730363172
 30
0.0
 10
6.7397138401
 20
2.2744669168
 30
0.0
 10
6.7399808187
 20
2.2760210991
 30
0.0
 10
6.7403210076
 20
2.2783139133
 30
0.0
 10
6.7406853931
 20
2.2814263537
 30
0.0
 10
6.7409012556
 20
2.283987058
 30
0.0
 10
6.7409956586
 20
2.2853253106
 30
0.0
  0
SPLINE
  5
355
100
AcDbEntity
  8
0
100
AcDbSpline
 62
7
  6
CONTINUOUS
 70
0
 71
3
 72
22
 73
18
 74
0
 42
0.0000001
 43
0.0000001
 44
0.0000000001
 40
0.0
 40
0.0
 40
0.0
 40
0.0
 40
0.0126496009
 40
0.0255593064
 40
0.0530322834
 40
0.0840437285
 40
0.1196682097
 40
0.16058383
 40
0.2072009021
 40
0.2597532443
 40
0.3183580623
 40
0.3830540491
 40
0.4538202771
 40
0.5305927838
 40
0.6132654083
 40
0.7957697933
 40
1.0
 40
1.0
 40
1.0
 40
1.0
 10
6.7350164381
 20
2.2548253225
 30
0.0
 10
6.7349527682
 20
2.2548253238
 30
0.0
 10
6.7348239286
 20
2.2548347425
 30
0.0
 10
6.7345624125
 20
2.2548919578
 30
0.0
 10
6.7342308667
 20
2.2550407718
 30
0.0
 10
6.7338489137
 20
2.2553253781
 30
0.0
 10
6.7334722711
 20
2.2557167728
 30
0.0
 10
6.7331002967
 20
2.2562141251
 30
0.0
 10
6.7327328547
 20
2.2568168609
 30
0.0
 10
6.7323704674
 20
2.2575241253
 30
0.0
 10
6.7320138597
 20
2.2583346925
 30
0.0
 10
6.7316638913
 20
2.2592469869
 30
0.0
 10
6.7313214242
 20
2.2602591072
 30
0.0
 10
6.7309873485
 20
2.2613688377
 30
0.0
 10
6.7305393758
 20
2.2630308773
 30
0.0
 10
6.7300134577
 20
2.2653351996
 30
0.0
 10
6.7296549919
 20
2.2672489147
 30
0.0
 10
6.7294813337
 20
2.2682621027
 30
0.0
  0
SPLINE
  5
356
100
AcDbEntity
  8
0
100
AcDbSpline
 62
7
  6
CONTINUOUS
 70
0
 71
3
 72
33
 73
29
 74
0
 42
0.0000001
 43
0.0000001
 44
0.0000000001
 40
0.0
 40
0.0
 40
0.0
 40
0.0
 40
0.0005776229
 40
0.0012336464
 40
0.0020183907
 40
0.0029599501
 40
0.0053634273
 40
0.008497128
 40
0.0123671108
 40
0.0169638236
 40
0.0222712772
 40
0.0282707212
 40
0.0422689681
 40
0.0588019119
 40
0.0777229697
 40
0.0988974433
 40
0.1222088526
 40
0.1475561842
 40
0.2040241337
 40
0.2677616869
 40
0.3380442791
 40
0.4135656023
 40
0.4929349639
 40
0.5749435188
 40
0.6586532414
 40
0.7433925814
 40
0.8287066649
 40
1.0
 40
1.0
 40
1.0
 40
1.0
 10
6.7457382522
 20
2.2670753074
 30
0.0
 10
6.7457440983
 20
2.2670753114
 30
0.0
 10
6.7457566528
 20
2.2670779128
 30
0.0
 10
6.7457743812
 20
2.2670885527
 30
0.0
 10
6.7457918317
 20
2.2671053892
 30
0.0
 10
6.745817106
 20
2.2671388191
 30
0.0
 10
6.7458475716
 20
2.2671972629
 30
0.0
 10
6.7458822822
 20
2.2672859709
 30
0.0
 10
6.7459173769
 20
2.2673980982
 30
0.0
 10
6.7459527725
 20
2.2675329649
 30
0.0
 10
6.7459883442
 20
2.2676899711
 30
0.0
 10
6.7460385
 20
2.2679411444
 30
0.0
 10
6.7460996593
 20
2.2683058549
 30
0.0
 10
6.7461697196
 20
2.268801462
 30
0.0
 10
6.7462391292
 20
2.2693704068
 30
0.0
 10
6.7463075521
 20
2.2700085045
 30
0.0
 10
6.7463746475
 20
2.2707121053
 30
0.0
 10
6.7464652663
 20
2.2717722354
 30
0.0
 10
6.7465719091
 20
2.2732415651
 30
0.0
 10
6.7466866466
 20
2.2751661096
 30
0.0
 10
6.7467901109
 20
2.2772843786
 30
0.0
 10
6.7468814581
 20
2.2795615394
 30
0.0
 10
6.74695993
 20
2.2819579204
 30
0.0
 10
6.7470253178
 20
2.2844375943
 30
0.0
 10
6.7470777708
 20
2.2869719341
 30
0.0
 10
6.7471176751
 20
2.2895399608
 30
0.0
 10
6.7471548473
 20
2.2929945254
 30
0.0
 10
6.7471653362
 20
2.2955916583
 30
0.0
 10
6.7471653362
 20
2.2973253106
 30
0.0
  0
SPLINE
  5
357
100
AcDbEntity
  8
0
100
AcDbSpline
 62
7
  6
CONTINUOUS
 70
0
 71
3
 72
32
 73
28
 74
0
 42
0.0000001
 43
0.0000001
 44
0.0000000001
 40
0.0
 40
0.0
 40
0.0
 40
0.0
 40
0.0012928763
 40
0.0028363778
 40
0.0047831641
 40
0.0072079793
 40
0.010146379
 40
0.0136153358
 40
0.0176228218
 40
0.0221720112
 40
0.0328986522
 40
0.0457991354
 40
0.0608673282
 40
0.0780988823
 40
0.0974896116
 40
0.1190402523
 40
0.1427536818
 40
0.1686311097
 40
0.2268830535
 40
0.2937061167
 40
0.3682487434
 40
0.44910034
 40
0.5348554615
 40
0.6242566995
 40
0.7162494256
 40
0.8099735724
 40
1.0
 40
1.0
 40
1.0
 40
1.0
 10
6.7451757781
 20
2.2550754787
 30
0.0
 10
6.7451574804
 20
2.2550755319
 30
0.0
 10
6.7451171559
 20
2.2550863532
 30
0.0
 10
6.7450629085
 20
2.2551285139
 30
0.0
 10
6.7450101982
 20
2.2551940983
 30
0.0
 10
6.7449579383
 20
2.255283674
 30
0.0
 10
6.7449057723
 20
2.2553974104
 30
0.0
 10
6.7448536818
 20
2.2555353881
 30
0.0
 10
6.7448016866
 20
2.2556975032
 30
0.0
 10
6.7447284758
 20
2.2559604654
 30
0.0
 10
6.7446396725
 20
2.256349421
 30
0.0
 10
6.7445387859
 20
2.2568877717
 30
0.0
 10
6.7444390755
 20
2.2575197331
 30
0.0
 10
6.7443409536
 20
2.2582447278
 30
0.0
 10
6.74424482
 20
2.2590624367
 30
0.0
 10
6.744151162
 20
2.2599726994
 30
0.0
 10
6.7440604507
 20
2.2609754736
 30
0.0
 10
6.7439393318
 20
2.2624969538
 30
0.0
 10
6.7438012085
 20
2.2646289989
 30
0.0
 10
6.7436640377
 20
2.2674508936
 30
0.0
 10
6.7435513221
 20
2.2705939183
 30
0.0
 10
6.7434613759
 20
2.2740056916
 30
0.0
 10
6.7433923458
 20
2.2776282695
 30
0.0
 10
6.7433415046
 20
2.2814088307
 30
0.0
 10
6.7433060305
 20
2.2853023503
 30
0.0
 10
6.74327559
 20
2.2906200625
 30
0.0
 10
6.7432685478
 20
2.2946359183
 30
0.0
 10
6.7432685402
 20
2.2973253106
 30
0.0
  0
SPLINE
  5
358
100
AcDbEntity
  8
0
100
AcDbSpline
 62
7
  6
CONTINUOUS
 70
0
 71
3
 72
13
 73
9
 74
0
 42
0.0000001
 43
0.0000001
 44
0.0000000001
 40
0.0
 40
0.0
 40
0.0
 40
0.0
 40
0.2227260226
 40
0.3435535391
 40
0.4691597428
 40
0.5984230392
 40
0.7304317417
 40
1.0
 40
1.0
 40
1.0
 40
1.0
 10
3.3154049757
 20
2.5589608636
 30
0.0
 10
3.3151369509
 20
2.5582014149
 30
0.0
 10
3.3147756376
 20
2.5570108111
 30
0.0
 10
3.314385133
 20
2.5553596073
 30
0.0
 10
3.3141275887
 20
2.5540253231
 30
0.0
 10
3.3139207667
 20
2.552641321
 30
0.0
 10
3.3137184887
 20
2.5507321525
 30
0.0
 10
3.3136568323
 20
2.5492790968
 30
0.0
 10
3.3136568323
 20
2.5483043628
 30
0.0
  0
SPLINE
  5
359
100
AcDbEntity
  8
0
100
AcDbSpline
 62
7
  6
CONTINUOUS
 70
0
 71
3
 72
14
 73
10
 74
0
 42
0.0000001
 43
0.0000001
 44
0.0000000001
 40
0.0
 40
0.0
 40
0.0
 40
0.0
 40
0.2697000113
 40
0.4016523866
 40
0.5308057303
 40
0.6563467233
 40
0.7771667314
 40
0.8921036741
 40
1.0
 40
1.0
 40
1.0
 40
1.0
 10
3.2021568323
 20
2.5483043628
 30
0.0
 10
3.2021568323
 20
2.5492794193
 30
0.0
 10
3.2020950845
 20
2.5507325202
 30
0.0
 10
3.2018928295
 20
2.5526412503
 30
0.0
 10
3.2016864394
 20
2.5540242618
 30
0.0
 10
3.2014287278
 20
2.5553575873
 30
0.0
 10
3.2011277641
 20
2.5566290466
 30
0.0
 10
3.2007910789
 20
2.5578253571
 30
0.0
 10
3.2005393407
 20
2.5585909407
 30
0.0
 10
3.2004094617
 20
2.5589587656
 30
0.0
  0
SPLINE
  5
35A
100
AcDbEntity
  8
0
100
AcDbSpline
 62
7
  6
CONTINUOUS
 70
0
 71
3
 72
47
 73
43
 74
0
 42
0.0000001
 43
0.0000001
 44
0.0000000001
 40
0.0
 40
0.0
 40
0.0
 40
0.0
 40
0.0135071951
 40
0.0270339409
 40
0.0406019459
 40
0.0542305977
 40
0.0679393258
 40
0.0817469715
 40
0.0956715689
 40
0.1097298971
 40
0.1382965108
 40
0.1675656681
 40
0.1976137348
 40
0.2284842626
 40
0.2601869622
 40
0.2926982633
 40
0.3259637077
 40
0.3599011863
 40
0.3944051088
 40
0.4293506987
 40
0.4645987995
 40
0.5000005609
 40
0.5354023132
 40
0.5706503862
 40
0.605595933
 40
0.6400997986
 40
0.6740372035
 40
0.7073025625
 40
0.7398137648
 40
0.7715163595
 40
0.8023867795
 40
0.8324347359
 40
0.8617037877
 40
0.8902703048
 40
0.9043285913
 40
0.9182531469
 40
0.9320607595
 40
0.9457694579
 40
0.959398083
 40
0.9729660701
 40
0.9864928168
 40
1.0
 40
1.0
 40
1.0
 40
1.0
 10
3.1599068323
 20
2.6170554991
 30
0.0
 10
3.1599068323
 20
2.6158480848
 30
0.0
 10
3.1599895376
 20
2.6134306976
 30
0.0
 10
3.1603609395
 20
2.6098176466
 30
0.0
 10
3.1609780646
 20
2.6062272136
 30
0.0
 10
3.1618382012
 20
2.6026704995
 30
0.0
 10
3.1629375906
 20
2.599157917
 30
0.0
 10
3.1642718237
 20
2.5956994102
 30
0.0
 10
3.1658356531
 20
2.5923040221
 30
0.0
 10
3.1682314194
 20
2.587849766
 30
0.0
 10
3.1717852474
 20
2.582475728
 30
0.0
 10
3.1768421086
 20
2.5764437593
 30
0.0
 10
3.1826570852
 20
2.5708391859
 30
0.0
 10
3.1891686089
 20
2.5657049991
 30
0.0
 10
3.1963126765
 20
2.5610787423
 30
0.0
 10
3.204021845
 20
2.5569945394
 30
0.0
 10
3.2122249901
 20
2.5534829568
 30
0.0
 10
3.2208471312
 20
2.5505709016
 30
0.0
 10
3.2298095892
 20
2.548281221
 30
0.0
 10
3.2390304143
 20
2.5466322526
 30
0.0
 10
3.2484250184
 20
2.5456374145
 30
0.0
 10
3.2579069821
 20
2.5453048925
 30
0.0
 10
3.2673889426
 20
2.5456374367
 30
0.0
 10
3.2767835374
 20
2.5466322952
 30
0.0
 10
3.2860043475
 20
2.5482812815
 30
0.0
 10
3.2949667861
 20
2.5505709758
 30
0.0
 10
3.3035889028
 20
2.5534830427
 30
0.0
 10
3.3117920191
 20
2.556994634
 30
0.0
 10
3.319501156
 20
2.5610788411
 30
0.0
 10
3.3266451909
 20
2.5657050971
 30
0.0
 10
3.3331566824
 20
2.5708392778
 30
0.0
 10
3.3389716294
 20
2.5764438401
 30
0.0
 10
3.3440284652
 20
2.5824757934
 30
0.0
 10
3.3475822768
 20
2.5878498161
 30
0.0
 10
3.3499780296
 20
2.5923040611
 30
0.0
 10
3.3515418544
 20
2.5956994399
 30
0.0
 10
3.3528760813
 20
2.5991579391
 30
0.0
 10
3.3539754673
 20
2.6026705142
 30
0.0
 10
3.354835602
 20
2.6062272219
 30
0.0
 10
3.3554527258
 20
2.6098176512
 30
0.0
 10
3.3558241269
 20
2.6134306997
 30
0.0
 10
3.3559068323
 20
2.6158480859
 30
0.0
 10
3.3559068323
 20
2.6170554991
 30
0.0
  0
SPLINE
  5
35B
100
AcDbEntity
  8
0
100
AcDbSpline
 62
7
  6
CONTINUOUS
 70
0
 71
3
 72
36
 73
32
 74
0
 42
0.0000001
 43
0.0000001
 44
0.0000000001
 40
0.0
 40
0.0
 40
0.0
 40
0.0
 40
0.0024048649
 40
0.003919735
 40
0.0045600184
 40
0.0047792271
 40
0.0058431583
 40
0.0077373127
 40
0.0104459187
 40
0.0139518202
 40
0.0182380424
 40
0.0232878798
 40
0.0290849076
 40
0.035612994
 40
0.0507985343
 40
0.0687123392
 40
0.0892190571
 40
0.1121868364
 40
0.1374875421
 40
0.1649925565
 40
0.194573035
 40
0.2261028758
 40
0.2945193195
 40
0.3693152906
 40
0.4496059039
 40
0.5345296137
 40
0.6232007449
 40
0.7147402706
 40
0.8083997213
 40
0.9036518446
 40
1.0
 40
1.0
 40
1.0
 40
1.0
 10
3.1982396641
 20
2.53320259
 30
0.0
 10
3.1982313355
 20
2.5331928841
 30
0.0
 10
3.1982156648
 20
2.5331742857
 30
0.0
 10
3.1982058403
 20
2.5331627948
 30
0.0
 10
3.1981905248
 20
2.533143799
 30
0.0
 10
3.1981988125
 20
2.533154203
 30
0.0
 10
3.1982075589
 20
2.5331656431
 30
0.0
 10
3.1982267232
 20
2.5331909024
 30
0.0
 10
3.1982518828
 20
2.5332250402
 30
0.0
 10
3.1982847595
 20
2.5332705319
 30
0.0
 10
3.198324092
 20
2.533326241
 30
0.0
 10
3.1983698358
 20
2.5333925018
 30
0.0
 10
3.1984214954
 20
2.5334691037
 30
0.0
 10
3.1985019645
 20
2.5335913022
 30
0.0
 10
3.1986147326
 20
2.5337693591
 30
0.0
 10
3.1987619378
 20
2.5340135271
 30
0.0
 10
3.1989244114
 20
2.5342967306
 30
0.0
 10
3.1990994438
 20
2.5346179242
 30
0.0
 10
3.1992842671
 20
2.5349760558
 30
0.0
 10
3.1994765075
 20
2.5353698133
 30
0.0
 10
3.1996739633
 20
2.5357977678
 30
0.0
 10
3.1999487947
 20
2.5364294672
 30
0.0
 10
3.2002900135
 20
2.5372942341
 30
0.0
 10
3.2006772818
 20
2.5384183934
 30
0.0
 10
3.2010398264
 20
2.5396426892
 30
0.0
 10
3.2013645141
 20
2.5409537362
 30
0.0
 10
3.2016436277
 20
2.5423363196
 30
0.0
 10
3.2018688421
 20
2.5437757814
 30
0.0
 10
3.2020331796
 20
2.5452586897
 30
0.0
 10
3.2021340039
 20
2.5467728579
 30
0.0
 10
3.2021568323
 20
2.5477919662
 30
0.0
 10
3.2021568323
 20
2.5483043628
 30
0.0
  0
SPLINE
  5
35C
100
AcDbEntity
  8
0
100
AcDbSpline
 62
7
  6
CONTINUOUS
 70
0
 71
3
 72
35
 73
31
 74
0
 42
0.0000001
 43
0.0000001
 44
0.0000000001
 40
0.0
 40
0.0
 40
0.0
 40
0.0
 40
0.0929031025
 40
0.1847506444
 40
0.2751112058
 40
0.3635445909
 40
0.4494876251
 40
0.5321752019
 40
0.6108062685
 40
0.6845837398
 40
0.7527294195
 40
0.8144375835
 40
0.8426174778
 40
0.8688665889
 40
0.8930709203
 40
0.9151138687
 40
0.9348784511
 40
0.9522512312
 40
0.9671163636
 40
0.9793544509
 40
0.9844502241
 40
0.988843559
 40
0.9925208943
 40
0.9954687276
 40
0.9976732809
 40
0.9991205099
 40
0.9997961152
 40
0.9998427517
 40
0.9998455193
 40
1.0
 40
1.0
 40
1.0
 40
1.0
 10
3.3136568323
 20
2.5483043628
 30
0.0
 10
3.3136568323
 20
2.5478124525
 30
0.0
 10
3.3136778978
 20
2.5468340937
 30
0.0
 10
3.3137709004
 20
2.5453799783
 30
0.0
 10
3.313922423
 20
2.5439545634
 30
0.0
 10
3.3141300211
 20
2.5425678347
 30
0.0
 10
3.3143891757
 20
2.5412311978
 30
0.0
 10
3.3146917159
 20
2.5399570282
 30
0.0
 10
3.3150300753
 20
2.5387586909
 30
0.0
 10
3.3153960671
 20
2.537649337
 30
0.0
 10
3.3157765828
 20
2.5366401864
 30
0.0
 10
3.316104756
 20
2.5358701476
 30
0.0
 10
3.3163645308
 20
2.5353127362
 30
0.0
 10
3.3165483039
 20
2.5349390999
 30
0.0
 10
3.3167249135
 20
2.5345982506
 30
0.0
 10
3.3168922535
 20
2.5342913562
 30
0.0
 10
3.3170482374
 20
2.5340195604
 30
0.0
 10
3.3171903263
 20
2.5337836783
 30
0.0
 10
3.3173159857
 20
2.5335845092
 30
0.0
 10
3.3174099204
 20
2.5334421729
 30
0.0
 10
3.3174748511
 20
2.5333472721
 30
0.0
 10
3.3175149498
 20
2.5332900802
 30
0.0
 10
3.3175486847
 20
2.5332429478
 30
0.0
 10
3.317577027
 20
2.5332044854
 30
0.0
 10
3.3175962823
 20
2.5331783423
 30
0.0
 10
3.3176135682
 20
2.5331564913
 30
0.0
 10
3.3176161739
 20
2.5331522244
 30
0.0
 10
3.3176211249
 20
2.5331464165
 30
0.0
 10
3.3176202786
 20
2.5331471825
 30
0.0
 10
3.3176198748
 20
2.5331478806
 30
0.0
 10
3.3176193583
 20
2.5331485148
 30
0.0
  0
SPLINE
  5
35D
100
AcDbEntity
  8
0
100
AcDbSpline
 62
7
  6
CONTINUOUS
 70
0
 71
3
 72
42
 73
38
 74
0
 42
0.0000001
 43
0.0000001
 44
0.0000000001
 40
0.0
 40
0.0
 40
0.0
 40
0.0
 40
0.0000550989
 40
0.0000579221
 40
0.0000715179
 40
0.000289068
 40
0.0014970393
 40
0.0037128448
 40
0.006906619
 40
0.0110487642
 40
0.0161103913
 40
0.0220633568
 40
0.0288792272
 40
0.0365279038
 40
0.0449795339
 40
0.0641745998
 40
0.0862370847
 40
0.1109404011
 40
0.1380624834
 40
0.1673894735
 40
0.1987141955
 40
0.2318340482
 40
0.266552117
 40
0.3026797245
 40
0.3400354396
 40
0.378440712
 40
0.4177205669
 40
0.4577057899
 40
0.4982320613
 40
0.5391356615
 40
0.5802540305
 40
0.6214268292
 40
0.7032859497
 40
0.7834270948
 40
0.8605298168
 40
0.933205394
 40
1.0
 40
1.0
 40
1.0
 40
1.0
 10
3.3176199929
 20
2.0615028856
 30
0.0
 10
3.3176203005
 20
2.0615032682
 30
0.0
 10
3.3176205818
 20
2.0615035963
 30
0.0
 10
3.3176210336
 20
2.0615041975
 30
0.0
 10
3.317618617
 20
2.0615011482
 30
0.0
 10
3.3176142276
 20
2.0614955624
 30
0.0
 10
3.3175900332
 20
2.0614640033
 30
0.0
 10
3.3175579084
 20
2.0614203416
 30
0.0
 10
3.3175069667
 20
2.0613494468
 30
0.0
 10
3.3174445136
 20
2.0612593977
 30
0.0
 10
3.3173690387
 20
2.0611470407
 30
0.0
 10
3.3172826656
 20
2.0610138399
 30
0.0
 10
3.3171861484
 20
2.0608596045
 30
0.0
 10
3.3170805783
 20
2.0606848572
 30
0.0
 10
3.3169221984
 20
2.0604131862
 30
0.0
 10
3.3167085222
 20
2.0600251857
 30
0.0
 10
3.3164417099
 20
2.0595014826
 30
0.0
 10
3.3161613997
 20
2.0589057504
 30
0.0
 10
3.3158742589
 20
2.0582420822
 30
0.0
 10
3.3155870918
 20
2.0575145841
 30
0.0
 10
3.3153050228
 20
2.0567280737
 30
0.0
 10
3.315032959
 20
2.0558874006
 30
0.0
 10
3.3147759614
 20
2.0549973569
 30
0.0
 10
3.3145385888
 20
2.0540628882
 30
0.0
 10
3.3143236873
 20
2.0530893304
 30
0.0
 10
3.3141343029
 20
2.0520818912
 30
0.0
 10
3.3139734997
 20
2.0510457716
 30
0.0
 10
3.3138439941
 20
2.0499862366
 30
0.0
 10
3.313746679
 20
2.0489087398
 30
0.0
 10
3.3136826673
 20
2.0478186412
 30
0.0
 10
3.3136529379
 20
2.0467212874
 30
0.0
 10
3.3136606865
 20
2.0452586607
 30
0.0
 10
3.3137562127
 20
2.0434497871
 30
0.0
 10
3.3140016452
 20
2.04133235
 30
0.0
 10
3.3143680177
 20
2.0393155777
 30
0.0
 10
3.3148305997
 20
2.0374411072
 30
0.0
 10
3.3152055703
 20
2.0362554266
 30
0.0
 10
3.3154035226
 20
2.0356942331
 30
0.0
  0
SPLINE
  5
35E
100
AcDbEntity
  8
0
100
AcDbSpline
 62
7
  6
CONTINUOUS
 70
0
 71
3
 72
26
 73
22
 74
0
 42
0.0000001
 43
0.0000001
 44
0.0000000001
 40
0.0
 40
0.0
 40
0.0
 40
0.0
 40
0.0270696636
 40
0.0541600583
 40
0.0813134442
 40
0.1085713678
 40
0.1359747536
 40
0.1635632489
 40
0.1913746302
 40
0.2194450064
 40
0.2764670264
 40
0.3348859693
 40
0.3948706471
 40
0.4565218696
 40
0.5198693892
 40
0.5848725178
 40
0.6514250216
 40
0.7193617267
 40
0.7884671979
 40
0.8584856627
 40
1.0
 40
1.0
 40
1.0
 40
1.0
 10
3.3558737721
 20
1.9757235968
 30
0.0
 10
3.3559170614
 20
1.9769494753
 30
0.0
 10
3.3559185729
 20
1.9794060349
 30
0.0
 10
3.3556647884
 20
1.9830847624
 30
0.0
 10
3.355156384
 20
1.9867457807
 30
0.0
 10
3.3543955197
 20
1.9903771579
 30
0.0
 10
3.3533857702
 20
1.9939677727
 30
0.0
 10
3.3521314659
 20
1.9975069331
 30
0.0
 10
3.3506376409
 20
2.0009847849
 30
0.0
 10
3.3483230224
 20
2.0055506289
 30
0.0
 10
3.3448457869
 20
2.0110664677
 30
0.0
 10
3.3398430885
 20
2.0172651608
 30
0.0
 10
3.334047728
 20
2.0230299629
 30
0.0
 10
3.3275239129
 20
2.0283149427
 30
0.0
 10
3.3203383707
 20
2.0330801693
 30
0.0
 10
3.3125614412
 20
2.0372894281
 30
0.0
 10
3.304267249
 20
2.0409103078
 30
0.0
 10
3.2955343863
 20
2.043914214
 30
0.0
 10
3.2864440022
 20
2.0462770357
 30
0.0
 10
3.2739244925
 20
2.0485536444
 30
0.0
 10
3.2643194542
 20
2.0492347323
 30
0.0
 10
3.2579068323
 20
2.0492347323
 30
0.0
  0
SPLINE
  5
35F
100
AcDbEntity
  8
0
100
AcDbSpline
 62
7
  6
CONTINUOUS
 70
0
 71
3
 72
22
 73
18
 74
0
 42
0.0000001
 43
0.0000001
 44
0.0000000001
 40
0.0
 40
0.0
 40
0.0
 40
0.0
 40
0.0635648955
 40
0.1325284862
 40
0.2056340274
 40
0.2816786747
 40
0.4379638394
 40
0.5160523732
 40
0.5925970738
 40
0.6664634207
 40
0.7364611951
 40
0.8013481316
 40
0.8598005373
 40
0.910412708
 40
0.9516977313
 40
0.9820953995
 40
1.0
 40
1.0
 40
1.0
 40
1.0
 10
3.2004095862
 20
2.0356925672
 30
0.0
 10
3.2005971799
 20
2.0362242728
 30
0.0
 10
3.2009538739
 20
2.0373452937
 30
0.0
 10
3.2013999924
 20
2.0391149572
 30
0.0
 10
3.2017612541
 20
2.0410169081
 30
0.0
 10
3.2021038043
 20
2.0437056585
 30
0.0
 10
3.2022053493
 20
2.0464652853
 30
0.0
 10
3.2020570508
 20
2.0492203969
 30
0.0
 10
3.2018281764
 20
2.0512355863
 30
0.0
 10
3.2014887921
 20
2.0531621327
 30
0.0
 10
3.2010602554
 20
2.0549646696
 30
0.0
 10
3.2005619651
 20
2.0566066879
 30
0.0
 10
3.2000272737
 20
2.0580550529
 30
0.0
 10
3.1994899217
 20
2.0592764826
 30
0.0
 10
3.198995461
 20
2.0602427707
 30
0.0
 10
3.1985916269
 20
2.0609276137
 30
0.0
 10
3.1983541968
 20
2.0612846167
 30
0.0
 10
3.1982608452
 20
2.0614131001
 30
0.0
  0
SPLINE
  5
360
100
AcDbEntity
  8
0
100
AcDbSpline
 62
7
  6
CONTINUOUS
 70
0
 71
3
 72
26
 73
22
 74
0
 42
0.0000001
 43
0.0000001
 44
0.0000000001
 40
0.0
 40
0.0
 40
0.0
 40
0.0
 40
0.1415143401
 40
0.2115327821
 40
0.2806382253
 40
0.3485749006
 40
0.4151273793
 40
0.4801304884
 40
0.5434779967
 40
0.6051292227
 40
0.6651139074
 40
0.7235328631
 40
0.7805549088
 40
0.8086252947
 40
0.8364366982
 40
0.8640251836
 40
0.8914285975
 40
0.91868652
 40
0.9458399269
 40
0.9729303283
 40
1.0
 40
1.0
 40
1.0
 40
1.0
 10
3.2579068323
 20
2.0492347323
 30
0.0
 10
3.2514942775
 20
2.0492347323
 30
0.0
 10
3.2418893413
 20
2.0485536587
 30
0.0
 10
3.2293699608
 20
2.0462770988
 30
0.0
 10
3.2202796691
 20
2.0439143289
 30
0.0
 10
3.2115468901
 20
2.0409104895
 30
0.0
 10
3.2032527699
 20
2.0372896911
 30
0.0
 10
3.1954758979
 20
2.0330805271
 30
0.0
 10
3.1882903945
 20
2.0283154087
 30
0.0
 10
3.1817665961
 20
2.0230305491
 30
0.0
 10
3.1759712274
 20
2.0172658764
 30
0.0
 10
3.1709684901
 20
2.0110673199
 30
0.0
 10
3.1674912012
 20
2.0055515943
 30
0.0
 10
3.1651765152
 20
2.0009858417
 30
0.0
 10
3.1636826455
 20
1.9975080516
 30
0.0
 10
3.1624282638
 20
1.9939689585
 30
0.0
 10
3.1614184556
 20
1.9903783998
 30
0.0
 10
3.1606575069
 20
1.9867470786
 30
0.0
 10
3.1601490114
 20
1.9830861102
 30
0.0
 10
3.1598951512
 20
1.9794074256
 30
0.0
 10
3.1598965813
 20
1.9769508913
 30
0.0
 10
3.1599398379
 20
1.9757250241
 30
0.0
  0
SPLINE
  5
361
100
AcDbEntity
  8
0
100
AcDbSpline
 62
7
  6
CONTINUOUS
 70
0
 71
3
 72
36
 73
32
 74
0
 42
0.0000001
 43
0.0000001
 44
0.0000000001
 40
0.0
 40
0.0
 40
0.0
 40
0.0
 40
0.0024048649
 40
0.003919735
 40
0.0045600184
 40
0.0047792271
 40
0.0058431583
 40
0.0077373127
 40
0.0104459187
 40
0.0139518202
 40
0.0182380424
 40
0.0232878798
 40
0.0290849076
 40
0.035612994
 40
0.0507985343
 40
0.0687123392
 40
0.0892190571
 40
0.1121868364
 40
0.1374875421
 40
0.1649925565
 40
0.194573035
 40
0.2261028758
 40
0.2945193195
 40
0.3693152906
 40
0.4496059039
 40
0.5345296137
 40
0.6232007449
 40
0.7147402706
 40
0.8083997213
 40
0.9036518446
 40
1.0
 40
1.0
 40
1.0
 40
1.0
 10
6.4372396641
 20
2.53320259
 30
0.0
 10
6.4372313355
 20
2.5331928841
 30
0.0
 10
6.4372156648
 20
2.5331742857
 30
0.0
 10
6.4372058403
 20
2.5331627948
 30
0.0
 10
6.4371905248
 20
2.533143799
 30
0.0
 10
6.4371988125
 20
2.533154203
 30
0.0
 10
6.4372075589
 20
2.5331656431
 30
0.0
 10
6.4372267232
 20
2.5331909024
 30
0.0
 10
6.4372518828
 20
2.5332250402
 30
0.0
 10
6.4372847595
 20
2.5332705319
 30
0.0
 10
6.437324092
 20
2.533326241
 30
0.0
 10
6.4373698358
 20
2.5333925018
 30
0.0
 10
6.4374214954
 20
2.5334691037
 30
0.0
 10
6.4375019645
 20
2.5335913022
 30
0.0
 10
6.4376147326
 20
2.5337693591
 30
0.0
 10
6.4377619378
 20
2.5340135271
 30
0.0
 10
6.4379244114
 20
2.5342967306
 30
0.0
 10
6.4380994438
 20
2.5346179242
 30
0.0
 10
6.4382842671
 20
2.5349760558
 30
0.0
 10
6.4384765075
 20
2.5353698133
 30
0.0
 10
6.4386739633
 20
2.5357977678
 30
0.0
 10
6.4389487947
 20
2.5364294672
 30
0.0
 10
6.4392900135
 20
2.5372942341
 30
0.0
 10
6.4396772818
 20
2.5384183934
 30
0.0
 10
6.4400398264
 20
2.5396426892
 30
0.0
 10
6.4403645141
 20
2.5409537362
 30
0.0
 10
6.4406436277
 20
2.5423363196
 30
0.0
 10
6.4408688421
 20
2.5437757814
 30
0.0
 10
6.4410331796
 20
2.5452586897
 30
0.0
 10
6.4411340039
 20
2.5467728579
 30
0.0
 10
6.4411568323
 20
2.5477919662
 30
0.0
 10
6.4411568323
 20
2.5483043628
 30
0.0
  0
SPLINE
  5
362
100
AcDbEntity
  8
0
100
AcDbSpline
 62
7
  6
CONTINUOUS
 70
0
 71
3
 72
35
 73
31
 74
0
 42
0.0000001
 43
0.0000001
 44
0.0000000001
 40
0.0
 40
0.0
 40
0.0
 40
0.0
 40
0.0929031025
 40
0.1847506444
 40
0.2751112058
 40
0.3635445909
 40
0.4494876251
 40
0.5321752019
 40
0.6108062685
 40
0.6845837398
 40
0.7527294195
 40
0.8144375835
 40
0.8426174778
 40
0.8688665889
 40
0.8930709203
 40
0.9151138687
 40
0.9348784511
 40
0.9522512312
 40
0.9671163636
 40
0.9793544509
 40
0.9844502241
 40
0.988843559
 40
0.9925208943
 40
0.9954687276
 40
0.9976732809
 40
0.9991205099
 40
0.9997961152
 40
0.9998427517
 40
0.9998455193
 40
1.0
 40
1.0
 40
1.0
 40
1.0
 10
6.5526568323
 20
2.5483043628
 30
0.0
 10
6.5526568323
 20
2.5478124525
 30
0.0
 10
6.5526778978
 20
2.5468340937
 30
0.0
 10
6.5527709004
 20
2.5453799783
 30
0.0
 10
6.552922423
 20
2.5439545634
 30
0.0
 10
6.5531300211
 20
2.5425678347
 30
0.0
 10
6.5533891757
 20
2.5412311978
 30
0.0
 10
6.5536917159
 20
2.5399570282
 30
0.0
 10
6.5540300753
 20
2.5387586909
 30
0.0
 10
6.5543960671
 20
2.537649337
 30
0.0
 10
6.5547765828
 20
2.5366401864
 30
0.0
 10
6.555104756
 20
2.5358701476
 30
0.0
 10
6.5553645308
 20
2.5353127362
 30
0.0
 10
6.5555483039
 20
2.5349390999
 30
0.0
 10
6.5557249135
 20
2.5345982506
 30
0.0
 10
6.5558922535
 20
2.5342913562
 30
0.0
 10
6.5560482374
 20
2.5340195604
 30
0.0
 10
6.5561903263
 20
2.5337836783
 30
0.0
 10
6.5563159857
 20
2.5335845092
 30
0.0
 10
6.5564099204
 20
2.5334421729
 30
0.0
 10
6.5564748511
 20
2.5333472721
 30
0.0
 10
6.5565149498
 20
2.5332900802
 30
0.0
 10
6.5565486847
 20
2.5332429478
 30
0.0
 10
6.556577027
 20
2.5332044854
 30
0.0
 10
6.5565962823
 20
2.5331783423
 30
0.0
 10
6.5566135682
 20
2.5331564913
 30
0.0
 10
6.5566161739
 20
2.5331522244
 30
0.0
 10
6.5566211249
 20
2.5331464165
 30
0.0
 10
6.5566202786
 20
2.5331471825
 30
0.0
 10
6.5566198748
 20
2.5331478806
 30
0.0
 10
6.5566193583
 20
2.5331485148
 30
0.0
  0
SPLINE
  5
363
100
AcDbEntity
  8
0
100
AcDbSpline
 62
7
  6
CONTINUOUS
 70
0
 71
3
 72
13
 73
9
 74
0
 42
0.0000001
 43
0.0000001
 44
0.0000000001
 40
0.0
 40
0.0
 40
0.0
 40
0.0
 40
0.2227260226
 40
0.3435535391
 40
0.4691597428
 40
0.5984230392
 40
0.7304317417
 40
1.0
 40
1.0
 40
1.0
 40
1.0
 10
6.5544049757
 20
2.5589608636
 30
0.0
 10
6.5541369509
 20
2.5582014149
 30
0.0
 10
6.5537756376
 20
2.5570108111
 30
0.0
 10
6.553385133
 20
2.5553596073
 30
0.0
 10
6.5531275887
 20
2.5540253231
 30
0.0
 10
6.5529207667
 20
2.552641321
 30
0.0
 10
6.5527184887
 20
2.5507321525
 30
0.0
 10
6.5526568323
 20
2.5492790968
 30
0.0
 10
6.5526568323
 20
2.5483043628
 30
0.0
  0
SPLINE
  5
364
100
AcDbEntity
  8
0
100
AcDbSpline
 62
7
  6
CONTINUOUS
 70
0
 71
3
 72
14
 73
10
 74
0
 42
0.0000001
 43
0.0000001
 44
0.0000000001
 40
0.0
 40
0.0
 40
0.0
 40
0.0
 40
0.2697000113
 40
0.4016523866
 40
0.5308057303
 40
0.6563467233
 40
0.7771667314
 40
0.8921036741
 40
1.0
 40
1.0
 40
1.0
 40
1.0
 10
6.4411568323
 20
2.5483043628
 30
0.0
 10
6.4411568323
 20
2.5492794193
 30
0.0
 10
6.4410950845
 20
2.5507325202
 30
0.0
 10
6.4408928295
 20
2.5526412503
 30
0.0
 10
6.4406864394
 20
2.5540242618
 30
0.0
 10
6.4404287278
 20
2.5553575873
 30
0.0
 10
6.4401277641
 20
2.5566290466
 30
0.0
 10
6.4397910789
 20
2.5578253571
 30
0.0
 10
6.4395393407
 20
2.5585909407
 30
0.0
 10
6.4394094617
 20
2.5589587656
 30
0.0
  0
SPLINE
  5
365
100
AcDbEntity
  8
0
100
AcDbSpline
 62
7
  6
CONTINUOUS
 70
0
 71
3
 72
47
 73
43
 74
0
 42
0.0000001
 43
0.0000001
 44
0.0000000001
 40
0.0
 40
0.0
 40
0.0
 40
0.0
 40
0.0135071951
 40
0.0270339409
 40
0.0406019459
 40
0.0542305977
 40
0.0679393258
 40
0.0817469715
 40
0.0956715689
 40
0.1097298971
 40
0.1382965108
 40
0.1675656681
 40
0.1976137348
 40
0.2284842626
 40
0.2601869622
 40
0.2926982633
 40
0.3259637077
 40
0.3599011863
 40
0.3944051088
 40
0.4293506987
 40
0.4645987995
 40
0.5000005609
 40
0.5354023132
 40
0.5706503862
 40
0.605595933
 40
0.6400997986
 40
0.6740372035
 40
0.7073025625
 40
0.7398137648
 40
0.7715163595
 40
0.8023867795
 40
0.8324347359
 40
0.8617037877
 40
0.8902703048
 40
0.9043285913
 40
0.9182531469
 40
0.9320607595
 40
0.9457694579
 40
0.959398083
 40
0.9729660701
 40
0.9864928168
 40
1.0
 40
1.0
 40
1.0
 40
1.0
 10
6.3989068323
 20
2.6170554991
 30
0.0
 10
6.3989068323
 20
2.6158480848
 30
0.0
 10
6.3989895376
 20
2.6134306976
 30
0.0
 10
6.3993609395
 20
2.6098176466
 30
0.0
 10
6.3999780646
 20
2.6062272136
 30
0.0
 10
6.4008382012
 20
2.6026704995
 30
0.0
 10
6.4019375906
 20
2.599157917
 30
0.0
 10
6.4032718237
 20
2.5956994102
 30
0.0
 10
6.4048356531
 20
2.5923040221
 30
0.0
 10
6.4072314194
 20
2.587849766
 30
0.0
 10
6.4107852474
 20
2.582475728
 30
0.0
 10
6.4158421086
 20
2.5764437593
 30
0.0
 10
6.4216570852
 20
2.5708391859
 30
0.0
 10
6.4281686089
 20
2.5657049991
 30
0.0
 10
6.4353126765
 20
2.5610787423
 30
0.0
 10
6.443021845
 20
2.5569945394
 30
0.0
 10
6.4512249901
 20
2.5534829568
 30
0.0
 10
6.4598471312
 20
2.5505709016
 30
0.0
 10
6.4688095892
 20
2.548281221
 30
0.0
 10
6.4780304143
 20
2.5466322526
 30
0.0
 10
6.4874250184
 20
2.5456374145
 30
0.0
 10
6.4969069821
 20
2.5453048925
 30
0.0
 10
6.5063889426
 20
2.5456374367
 30
0.0
 10
6.5157835374
 20
2.5466322952
 30
0.0
 10
6.5250043475
 20
2.5482812815
 30
0.0
 10
6.5339667861
 20
2.5505709758
 30
0.0
 10
6.5425889028
 20
2.5534830427
 30
0.0
 10
6.5507920191
 20
2.556994634
 30
0.0
 10
6.558501156
 20
2.5610788411
 30
0.0
 10
6.5656451909
 20
2.5657050971
 30
0.0
 10
6.5721566824
 20
2.5708392778
 30
0.0
 10
6.5779716294
 20
2.5764438401
 30
0.0
 10
6.5830284652
 20
2.5824757934
 30
0.0
 10
6.5865822768
 20
2.5878498161
 30
0.0
 10
6.5889780296
 20
2.5923040611
 30
0.0
 10
6.5905418544
 20
2.5956994399
 30
0.0
 10
6.5918760813
 20
2.5991579391
 30
0.0
 10
6.5929754673
 20
2.6026705142
 30
0.0
 10
6.593835602
 20
2.6062272219
 30
0.0
 10
6.5944527258
 20
2.6098176512
 30
0.0
 10
6.5948241269
 20
2.6134306997
 30
0.0
 10
6.5949068323
 20
2.6158480859
 30
0.0
 10
6.5949068323
 20
2.6170554991
 30
0.0
  0
SPLINE
  5
366
100
AcDbEntity
  8
0
100
AcDbSpline
 62
7
  6
CONTINUOUS
 70
0
 71
3
 72
22
 73
18
 74
0
 42
0.0000001
 43
0.0000001
 44
0.0000000001
 40
0.0
 40
0.0
 40
0.0
 40
0.0
 40
0.0635648955
 40
0.1325284862
 40
0.2056340274
 40
0.2816786747
 40
0.4379638394
 40
0.5160523732
 40
0.5925970738
 40
0.6664634207
 40
0.7364611951
 40
0.8013481316
 40
0.8598005373
 40
0.910412708
 40
0.9516977313
 40
0.9820953995
 40
1.0
 40
1.0
 40
1.0
 40
1.0
 10
6.4394095862
 20
2.0356925672
 30
0.0
 10
6.4395971799
 20
2.0362242728
 30
0.0
 10
6.4399538739
 20
2.0373452937
 30
0.0
 10
6.4403999924
 20
2.0391149572
 30
0.0
 10
6.4407612541
 20
2.0410169081
 30
0.0
 10
6.4411038043
 20
2.0437056585
 30
0.0
 10
6.4412053493
 20
2.0464652853
 30
0.0
 10
6.4410570508
 20
2.0492203969
 30
0.0
 10
6.4408281764
 20
2.0512355863
 30
0.0
 10
6.4404887921
 20
2.0531621327
 30
0.0
 10
6.4400602554
 20
2.0549646696
 30
0.0
 10
6.4395619651
 20
2.0566066879
 30
0.0
 10
6.4390272737
 20
2.0580550529
 30
0.0
 10
6.4384899217
 20
2.0592764826
 30
0.0
 10
6.437995461
 20
2.0602427707
 30
0.0
 10
6.4375916269
 20
2.0609276137
 30
0.0
 10
6.4373541968
 20
2.0612846167
 30
0.0
 10
6.4372608452
 20
2.0614131001
 30
0.0
  0
SPLINE
  5
367
100
AcDbEntity
  8
0
100
AcDbSpline
 62
7
  6
CONTINUOUS
 70
0
 71
3
 72
26
 73
22
 74
0
 42
0.0000001
 43
0.0000001
 44
0.0000000001
 40
0.0
 40
0.0
 40
0.0
 40
0.0
 40
0.1415143401
 40
0.2115327821
 40
0.2806382253
 40
0.3485749006
 40
0.4151273793
 40
0.4801304884
 40
0.5434779967
 40
0.6051292227
 40
0.6651139074
 40
0.7235328631
 40
0.7805549088
 40
0.8086252947
 40
0.8364366982
 40
0.8640251836
 40
0.8914285975
 40
0.91868652
 40
0.9458399269
 40
0.9729303283
 40
1.0
 40
1.0
 40
1.0
 40
1.0
 10
6.4969068323
 20
2.0492347323
 30
0.0
 10
6.4904942775
 20
2.0492347323
 30
0.0
 10
6.4808893413
 20
2.0485536587
 30
0.0
 10
6.4683699608
 20
2.0462770988
 30
0.0
 10
6.4592796691
 20
2.0439143289
 30
0.0
 10
6.4505468901
 20
2.0409104895
 30
0.0
 10
6.4422527699
 20
2.0372896911
 30
0.0
 10
6.4344758979
 20
2.0330805271
 30
0.0
 10
6.4272903945
 20
2.0283154087
 30
0.0
 10
6.4207665961
 20
2.0230305491
 30
0.0
 10
6.4149712274
 20
2.0172658764
 30
0.0
 10
6.4099684901
 20
2.0110673199
 30
0.0
 10
6.4064912012
 20
2.0055515943
 30
0.0
 10
6.4041765152
 20
2.0009858417
 30
0.0
 10
6.4026826455
 20
1.9975080516
 30
0.0
 10
6.4014282638
 20
1.9939689585
 30
0.0
 10
6.4004184556
 20
1.9903783998
 30
0.0
 10
6.3996575069
 20
1.9867470786
 30
0.0
 10
6.3991490114
 20
1.9830861102
 30
0.0
 10
6.3988951512
 20
1.9794074256
 30
0.0
 10
6.3988965813
 20
1.9769508913
 30
0.0
 10
6.3989398379
 20
1.9757250241
 30
0.0
  0
SPLINE
  5
368
100
AcDbEntity
  8
0
100
AcDbSpline
 62
7
  6
CONTINUOUS
 70
0
 71
3
 72
42
 73
38
 74
0
 42
0.0000001
 43
0.0000001
 44
0.0000000001
 40
0.0
 40
0.0
 40
0.0
 40
0.0
 40
0.0000550989
 40
0.0000579221
 40
0.0000715179
 40
0.000289068
 40
0.0014970393
 40
0.0037128448
 40
0.006906619
 40
0.0110487642
 40
0.0161103913
 40
0.0220633568
 40
0.0288792272
 40
0.0365279038
 40
0.0449795339
 40
0.0641745998
 40
0.0862370847
 40
0.1109404011
 40
0.1380624834
 40
0.1673894735
 40
0.1987141955
 40
0.2318340482
 40
0.266552117
 40
0.3026797245
 40
0.3400354396
 40
0.378440712
 40
0.4177205669
 40
0.4577057899
 40
0.4982320613
 40
0.5391356615
 40
0.5802540305
 40
0.6214268292
 40
0.7032859497
 40
0.7834270948
 40
0.8605298168
 40
0.933205394
 40
1.0
 40
1.0
 40
1.0
 40
1.0
 10
6.5566199929
 20
2.0615028856
 30
0.0
 10
6.5566203005
 20
2.0615032682
 30
0.0
 10
6.5566205818
 20
2.0615035963
 30
0.0
 10
6.5566210336
 20
2.0615041975
 30
0.0
 10
6.556618617
 20
2.0615011482
 30
0.0
 10
6.5566142276
 20
2.0614955624
 30
0.0
 10
6.5565900332
 20
2.0614640033
 30
0.0
 10
6.5565579084
 20
2.0614203416
 30
0.0
 10
6.5565069667
 20
2.0613494468
 30
0.0
 10
6.5564445136
 20
2.0612593977
 30
0.0
 10
6.5563690387
 20
2.0611470407
 30
0.0
 10
6.5562826656
 20
2.0610138399
 30
0.0
 10
6.5561861484
 20
2.0608596045
 30
0.0
 10
6.5560805783
 20
2.0606848572
 30
0.0
 10
6.5559221984
 20
2.0604131862
 30
0.0
 10
6.5557085222
 20
2.0600251857
 30
0.0
 10
6.5554417099
 20
2.0595014826
 30
0.0
 10
6.5551613997
 20
2.0589057504
 30
0.0
 10
6.5548742589
 20
2.0582420822
 30
0.0
 10
6.5545870918
 20
2.0575145841
 30
0.0
 10
6.5543050228
 20
2.0567280737
 30
0.0
 10
6.554032959
 20
2.0558874006
 30
0.0
 10
6.5537759614
 20
2.0549973569
 30
0.0
 10
6.5535385888
 20
2.0540628882
 30
0.0
 10
6.5533236873
 20
2.0530893304
 30
0.0
 10
6.5531343029
 20
2.0520818912
 30
0.0
 10
6.5529734997
 20
2.0510457716
 30
0.0
 10
6.5528439941
 20
2.0499862366
 30
0.0
 10
6.552746679
 20
2.0489087398
 30
0.0
 10
6.5526826673
 20
2.0478186412
 30
0.0
 10
6.5526529379
 20
2.0467212874
 30
0.0
 10
6.5526606865
 20
2.0452586607
 30
0.0
 10
6.5527562127
 20
2.0434497871
 30
0.0
 10
6.5530016452
 20
2.04133235
 30
0.0
 10
6.5533680177
 20
2.0393155777
 30
0.0
 10
6.5538305997
 20
2.0374411072
 30
0.0
 10
6.5542055703
 20
2.0362554266
 30
0.0
 10
6.5544035226
 20
2.0356942331
 30
0.0
  0
SPLINE
  5
369
100
AcDbEntity
  8
0
100
AcDbSpline
 62
7
  6
CONTINUOUS
 70
0
 71
3
 72
26
 73
22
 74
0
 42
0.0000001
 43
0.0000001
 44
0.0000000001
 40
0.0
 40
0.0
 40
0.0
 40
0.0
 40
0.0270696636
 40
0.0541600583
 40
0.0813134442
 40
0.1085713678
 40
0.1359747536
 40
0.1635632489
 40
0.1913746302
 40
0.2194450064
 40
0.2764670264
 40
0.3348859693
 40
0.3948706471
 40
0.4565218696
 40
0.5198693892
 40
0.5848725178
 40
0.6514250216
 40
0.7193617267
 40
0.7884671979
 40
0.8584856627
 40
1.0
 40
1.0
 40
1.0
 40
1.0
 10
6.5948737721
 20
1.9757235968
 30
0.0
 10
6.5949170614
 20
1.9769494753
 30
0.0
 10
6.5949185729
 20
1.9794060349
 30
0.0
 10
6.5946647884
 20
1.9830847624
 30
0.0
 10
6.594156384
 20
1.9867457807
 30
0.0
 10
6.5933955197
 20
1.9903771579
 30
0.0
 10
6.5923857702
 20
1.9939677727
 30
0.0
 10
6.5911314659
 20
1.9975069331
 30
0.0
 10
6.5896376409
 20
2.0009847849
 30
0.0
 10
6.5873230224
 20
2.0055506289
 30
0.0
 10
6.5838457869
 20
2.0110664677
 30
0.0
 10
6.5788430885
 20
2.0172651608
 30
0.0
 10
6.573047728
 20
2.0230299629
 30
0.0
 10
6.5665239129
 20
2.0283149427
 30
0.0
 10
6.5593383707
 20
2.0330801693
 30
0.0
 10
6.5515614412
 20
2.0372894281
 30
0.0
 10
6.543267249
 20
2.0409103078
 30
0.0
 10
6.5345343863
 20
2.043914214
 30
0.0
 10
6.5254440022
 20
2.0462770357
 30
0.0
 10
6.5129244925
 20
2.0485536444
 30
0.0
 10
6.5033194542
 20
2.0492347323
 30
0.0
 10
6.4969068323
 20
2.0492347323
 30
0.0
  0
SPLINE
  5
36A
100
AcDbEntity
  8
0
100
AcDbSpline
 62
7
  6
CONTINUOUS
 70
0
 71
3
 72
14
 73
10
 74
0
 42
0.0000001
 43
0.0000001
 44
0.0000000001
 40
0.0
 40
0.0
 40
0.0
 40
0.0
 40
0.104049287
 40
0.21617856
 40
0.3354443866
 40
0.4608102507
 40
0.5911585354
 40
0.7253048851
 40
1.0
 40
1.0
 40
1.0
 40
1.0
 10
6.7294813337
 20
2.2682621027
 30
0.0
 10
6.7293104294
 20
2.2692592231
 30
0.0
 10
6.7289894504
 20
2.2713368191
 30
0.0
 10
6.7285784062
 20
2.2745726212
 30
0.0
 10
6.7282228735
 20
2.2780234049
 30
0.0
 10
6.7279266175
 20
2.2816574877
 30
0.0
 10
6.727692782
 20
2.2854410874
 30
0.0
 10
6.7274659346
 20
2.2906788631
 30
0.0
 10
6.7273991538
 20
2.2946544777
 30
0.0
 10
6.7273991538
 20
2.2973253106
 30
0.0
  0
SPLINE
  5
36B
100
AcDbEntity
  8
0
100
AcDbSpline
 62
7
  6
CONTINUOUS
 70
0
 71
3
 72
33
 73
29
 74
0
 42
0.0000001
 43
0.0000001
 44
0.0000000001
 40
0.0
 40
0.0
 40
0.0
 40
0.0
 40
0.1712928489
 40
0.2566066615
 40
0.3413457921
 40
0.4250553835
 40
0.5070637883
 40
0.5864331135
 40
0.6619545095
 40
0.7322370917
 40
0.7959750627
 40
0.8524433198
 40
0.8777908616
 40
0.9011024276
 40
0.9222770457
 40
0.9411982412
 40
0.9577311426
 40
0.971729345
 40
0.9777288298
 40
0.9830363853
 40
0.9876331995
 40
0.9915031911
 40
0.9946367235
 40
0.9970399388
 40
0.9979814292
 40
0.9987661852
 40
0.9994222949
 40
1.0
 40
1.0
 40
1.0
 40
1.0
 10
6.7471653362
 20
2.2973253106
 30
0.0
 10
6.7471653362
 20
2.2990589573
 30
0.0
 10
6.7471548474
 20
2.3016560817
 30
0.0
 10
6.7471176754
 20
2.3051106353
 30
0.0
 10
6.7470777713
 20
2.3076786549
 30
0.0
 10
6.7470253187
 20
2.3102129889
 30
0.0
 10
6.7469599312
 20
2.3126926588
 30
0.0
 10
6.7468814596
 20
2.3150890378
 30
0.0
 10
6.7467901131
 20
2.3173661981
 30
0.0
 10
6.7466866481
 20
2.3194844712
 30
0.0
 10
6.7465719116
 20
2.3214090224
 30
0.0
 10
6.7464652681
 20
2.3228783611
 30
0.0
 10
6.7463746492
 20
2.3239384976
 30
0.0
 10
6.7463075535
 20
2.3246421033
 30
0.0
 10
6.7462391302
 20
2.3252802052
 30
0.0
 10
6.7461697206
 20
2.3258491522
 30
0.0
 10
6.7460996602
 20
2.3263447597
 30
0.0
 10
6.746038501
 20
2.3267094696
 30
0.0
 10
6.7459883454
 20
2.3269606439
 30
0.0
 10
6.7459527739
 20
2.3271176526
 30
0.0
 10
6.7459173785
 20
2.3272525215
 30
0.0
 10
6.7458822843
 20
2.3273646483
 30
0.0
 10
6.7458475742
 20
2.327453352
 30
0.0
 10
6.7458171069
 20
2.3275117894
 30
0.0
 10
6.7457918322
 20
2.3275452148
 30
0.0
 10
6.7457743812
 20
2.327562051
 30
0.0
 10
6.7457566532
 20
2.3275726941
 30
0.0
 10
6.7457440992
 20
2.3275753028
 30
0.0
 10
6.7457382523
 20
2.3275753114
 30
0.0
  0
SPLINE
  5
36C
100
AcDbEntity
  8
0
100
AcDbSpline
 62
7
  6
CONTINUOUS
 70
0
 71
3
 72
37
 73
33
 74
0
 42
0.0000001
 43
0.0000001
 44
0.0000000001
 40
0.0
 40
0.0
 40
0.0
 40
0.0
 40
0.0890798357
 40
0.1774084759
 40
0.2642461287
 40
0.3488653759
 40
0.4305636405
 40
0.5086702026
 40
0.5825551146
 40
0.6177320527
 40
0.6516411267
 40
0.6842200952
 40
0.715411425
 40
0.7451631483
 40
0.7734299989
 40
0.800173856
 40
0.8253655836
 40
0.8489873944
 40
0.8710344157
 40
0.8915196486
 40
0.9104806833
 40
0.927984851
 40
0.9362250684
 40
0.9441460428
 40
0.951772669
 40
0.9591369452
 40
0.9662751796
 40
0.9732227144
 40
0.9800147587
 40
0.9866961865
 40
0.9933291231
 40
1.0
 40
1.0
 40
1.0
 40
1.0
 10
4.8774068323
 20
6.1121997296
 30
0.0
 10
4.8838311623
 20
6.1121997296
 30
0.0
 10
4.8966258944
 20
6.112303355
 30
0.0
 10
4.9156781408
 20
6.1127689795
 30
0.0
 10
4.9343985928
 20
6.1135404684
 30
0.0
 10
4.9526253945
 20
6.1146111263
 30
0.0
 10
4.9702014975
 20
6.1159716109
 30
0.0
 10
4.9869762603
 20
6.1176102641
 30
0.0
 10
5.0003795943
 20
6.1192210467
 30
0.0
 10
5.0105915434
 20
6.120647927
 30
0.0
 10
5.0178387307
 20
6.121761257
 30
0.0
 10
5.0247853742
 20
6.1229331077
 30
0.0
 10
5.0314176092
 20
6.1241613664
 30
0.0
 10
5.0377225613
 20
6.1254438999
 30
0.0
 10
5.0436884592
 20
6.1267786711
 30
0.0
 10
5.0493047726
 20
6.1281638638
 30
0.0
 10
5.0545624176
 20
6.1295979651
 30
0.0
 10
5.0594539476
 20
6.1310800953
 30
0.0
 10
5.0639738235
 20
6.1326103562
 30
0.0
 10
5.0681190888
 20
6.1341901344
 30
0.0
 10
5.0718889323
 20
6.1358240875
 30
0.0
 10
5.0747756502
 20
6.1372649274
 30
0.0
 10
5.0768901168
 20
6.1384590823
 30
0.0
 10
5.0783520448
 20
6.1393576357
 30
0.0
 10
5.0797227452
 20
6.1402814054
 30
0.0
 10
5.0810025311
 20
6.141236029
 30
0.0
 10
5.0821919922
 20
6.1422263599
 30
0.0
 10
5.083289908
 20
6.143258266
 30
0.0
 10
5.0842914174
 20
6.1443398288
 30
0.0
 10
5.08519261
 20
6.1454779401
 30
0.0
 10
5.0859854964
 20
6.1466839782
 30
0.0
 10
5.0864301375
 20
6.1475365669
 30
0.0
 10
5.0866293022
 20
6.1479745011
 30
0.0
  0
SPLINE
  5
36D
100
AcDbEntity
  8
0
100
AcDbSpline
 62
7
  6
CONTINUOUS
 70
0
 71
3
 72
37
 73
33
 74
0
 42
0.0000001
 43
0.0000001
 44
0.0000000001
 40
0.0
 40
0.0
 40
0.0
 40
0.0
 40
0.0066708044
 40
0.0133037714
 40
0.0199852453
 40
0.0267773076
 40
0.0337248365
 40
0.0408630498
 40
0.0482273152
 40
0.0558539427
 40
0.0637749273
 40
0.0720151508
 40
0.08951932
 40
0.10848036
 40
0.128965596
 40
0.1510126218
 40
0.1746344354
 40
0.1998261653
 40
0.2265700256
 40
0.2548368777
 40
0.2845886025
 40
0.315779934
 40
0.3483589029
 40
0.3822679774
 40
0.4174449159
 40
0.4913298267
 40
0.5694363865
 40
0.6511346477
 40
0.7357538903
 40
0.8225915372
 40
0.9109201715
 40
1.0
 40
1.0
 40
1.0
 40
1.0
 10
4.6681843624
 20
6.1479745011
 30
0.0
 10
4.6683835249
 20
6.1475365716
 30
0.0
 10
4.6688281661
 20
6.1466839865
 30
0.0
 10
4.6696210519
 20
6.1454779478
 30
0.0
 10
4.6705222454
 20
6.1443398283
 30
0.0
 10
4.6715237587
 20
6.1432582633
 30
0.0
 10
4.6726216748
 20
6.1422263587
 30
0.0
 10
4.6738111321
 20
6.1412360275
 30
0.0
 10
4.6750909173
 20
6.1402814066
 30
0.0
 10
4.6764616187
 20
6.1393576383
 30
0.0
 10
4.6779235468
 20
6.1384590827
 30
0.0
 10
4.6800380141
 20
6.1372649264
 30
0.0
 10
4.6829247335
 20
6.1358240873
 30
0.0
 10
4.6866945775
 20
6.1341901336
 30
0.0
 10
4.6908398438
 20
6.1326103552
 30
0.0
 10
4.6953597204
 20
6.1310800941
 30
0.0
 10
4.7002512511
 20
6.129597964
 30
0.0
 10
4.7055088966
 20
6.1281638625
 30
0.0
 10
4.7111252105
 20
6.1267786699
 30
0.0
 10
4.717091109
 20
6.1254438987
 30
0.0
 10
4.7233960614
 20
6.1241613653
 30
0.0
 10
4.7300282967
 20
6.1229331066
 30
0.0
 10
4.7369749403
 20
6.1217612559
 30
0.0
 10
4.7442221277
 20
6.1206479261
 30
0.0
 10
4.7544340768
 20
6.1192210459
 30
0.0
 10
4.7678374106
 20
6.1176102634
 30
0.0
 10
4.7846121729
 20
6.1159716104
 30
0.0
 10
4.8021882752
 20
6.114611126
 30
0.0
 10
4.8204150758
 20
6.1135404682
 30
0.0
 10
4.8391355267
 20
6.1127689794
 30
0.0
 10
4.8581877717
 20
6.112303355
 30
0.0
 10
4.8709825028
 20
6.1121997296
 30
0.0
 10
4.8774068323
 20
6.1121997296
 30
0.0
  0
SPLINE
  5
36E
100
AcDbEntity
  8
0
100
AcDbSpline
 62
7
  6
CONTINUOUS
 70
0
 71
3
 72
41
 73
37
 74
0
 42
0.0000001
 43
0.0000001
 44
0.0000000001
 40
0.0
 40
0.0
 40
0.0
 40
0.0
 40
0.0041075674
 40
0.008293543
 40
0.0126318982
 40
0.0171889105
 40
0.0220212695
 40
0.0271760585
 40
0.0326914716
 40
0.0385977507
 40
0.0449188201
 40
0.0516733252
 40
0.0588754108
 40
0.0665359466
 40
0.0746629363
 40
0.0832618771
 40
0.0923365747
 40
0.1018891378
 40
0.1224280304
 40
0.1448728644
 40
0.1692016944
 40
0.1953809704
 40
0.2233678721
 40
0.2531115586
 40
0.2845540022
 40
0.3176311075
 40
0.3522732636
 40
0.3884056115
 40
0.4259487509
 40
0.4648191396
 40
0.5461866152
 40
0.6317690206
 40
0.7207789874
 40
0.8123921529
 40
0.9057553438
 40
1.0
 40
1.0
 40
1.0
 40
1.0
 10
4.6501568323
 20
6.4773452924
 30
0.0
 10
4.6501568323
 20
6.4776689095
 30
0.0
 10
4.6502035216
 20
6.4783232288
 30
0.0
 10
4.6504125298
 20
6.4792992357
 30
0.0
 10
4.6507598645
 20
6.4802725291
 30
0.0
 10
4.651244504
 20
6.4812420354
 30
0.0
 10
4.6518653751
 20
6.4822074582
 30
0.0
 10
4.6526216856
 20
6.483168547
 30
0.0
 10
4.6535127886
 20
6.4841250834
 30
0.0
 10
4.6545380384
 20
6.4850768653
 30
0.0
 10
4.6556968705
 20
6.4860235517
 30
0.0
 10
4.6569886648
 20
6.4869647345
 30
0.0
 10
4.6584126949
 20
6.4879000136
 30
0.0
 10
4.659968202
 20
6.4888288798
 30
0.0
 10
4.6616543222
 20
6.4897508192
 30
0.0
 10
4.6634700847
 20
6.4906653384
 30
0.0
 10
4.6654144597
 20
6.4915719001
 30
0.0
 10
4.668245997
 20
6.4927991252
 30
0.0
 10
4.6721045692
 20
6.4943013319
 30
0.0
 10
4.6771216806
 20
6.4960233282
 30
0.0
 10
4.6826199505
 20
6.4977013526
 30
0.0
 10
4.6885863586
 20
6.4993313039
 30
0.0
 10
4.6950068544
 20
6.5009091269
 30
0.0
 10
4.7018661526
 20
6.502430915
 30
0.0
 10
4.7091478666
 20
6.5038929331
 30
0.0
 10
4.7168345567
 20
6.5052915807
 30
0.0
 10
4.7249077869
 20
6.5066234148
 30
0.0
 10
4.7333481615
 20
6.5078851815
 30
0.0
 10
4.742135398
 20
6.5090738282
 30
0.0
 10
4.7544749468
 20
6.5105802195
 30
0.0
 10
4.7706061559
 20
6.5122485462
 30
0.0
 10
4.7907065391
 20
6.5138901334
 30
0.0
 10
4.8116410328
 20
6.5151840515
 30
0.0
 10
4.8332081877
 20
6.5161175282
 30
0.0
 10
4.855200604
 20
6.5166813352
 30
0.0
 10
4.869981712
 20
6.5168068408
 30
0.0
 10
4.8774068323
 20
6.5168068408
 30
0.0
  0
SPLINE
  5
36F
100
AcDbEntity
  8
0
100
AcDbSpline
 62
7
  6
CONTINUOUS
 70
0
 71
3
 72
41
 73
37
 74
0
 42
0.0000001
 43
0.0000001
 44
0.0000000001
 40
0.0
 40
0.0
 40
0.0
 40
0.0
 40
0.0041075674
 40
0.008293543
 40
0.0126318982
 40
0.0171889105
 40
0.0220212695
 40
0.0271760585
 40
0.0326914716
 40
0.0385977507
 40
0.0449188201
 40
0.0516733252
 40
0.0588754108
 40
0.0665359466
 40
0.0746629363
 40
0.0832618771
 40
0.0923365747
 40
0.1018891378
 40
0.1224280304
 40
0.1448728644
 40
0.1692016944
 40
0.1953809704
 40
0.2233678721
 40
0.2531115586
 40
0.2845540022
 40
0.3176311075
 40
0.3522732636
 40
0.3884056115
 40
0.4259487509
 40
0.4648191396
 40
0.5461866152
 40
0.6317690206
 40
0.7207789874
 40
0.8123921529
 40
0.9057553438
 40
1.0
 40
1.0
 40
1.0
 40
1.0
 10
5.1046568323
 20
6.4773452924
 30
0.0
 10
5.1046568323
 20
6.4776689095
 30
0.0
 10
5.104610143
 20
6.4783232288
 30
0.0
 10
5.1044011348
 20
6.4792992357
 30
0.0
 10
5.1040538001
 20
6.4802725291
 30
0.0
 10
5.1035691606
 20
6.4812420354
 30
0.0
 10
5.1029482895
 20
6.4822074582
 30
0.0
 10
5.102191979
 20
6.483168547
 30
0.0
 10
5.101300876
 20
6.4841250834
 30
0.0
 10
5.1002756262
 20
6.4850768653
 30
0.0
 10
5.0991167941
 20
6.4860235517
 30
0.0
 10
5.0978249998
 20
6.4869647345
 30
0.0
 10
5.0964009697
 20
6.4879000136
 30
0.0
 10
5.0948454626
 20
6.4888288798
 30
0.0
 10
5.0931593424
 20
6.4897508192
 30
0.0
 10
5.0913435799
 20
6.4906653384
 30
0.0
 10
5.0893992049
 20
6.4915719001
 30
0.0
 10
5.0865676676
 20
6.4927991252
 30
0.0
 10
5.0827090954
 20
6.4943013319
 30
0.0
 10
5.077691984
 20
6.4960233282
 30
0.0
 10
5.0721937141
 20
6.4977013526
 30
0.0
 10
5.066227306
 20
6.4993313039
 30
0.0
 10
5.0598068102
 20
6.5009091269
 30
0.0
 10
5.052947512
 20
6.502430915
 30
0.0
 10
5.045665798
 20
6.5038929331
 30
0.0
 10
5.0379791079
 20
6.5052915807
 30
0.0
 10
5.0299058777
 20
6.5066234148
 30
0.0
 10
5.0214655031
 20
6.5078851815
 30
0.0
 10
5.0126782666
 20
6.5090738282
 30
0.0
 10
5.0003387178
 20
6.5105802195
 30
0.0
 10
4.9842075087
 20
6.5122485462
 30
0.0
 10
4.9641071255
 20
6.5138901334
 30
0.0
 10
4.9431726318
 20
6.5151840515
 30
0.0
 10
4.9216054769
 20
6.5161175282
 30
0.0
 10
4.8996130606
 20
6.5166813352
 30
0.0
 10
4.8848319526
 20
6.5168068408
 30
0.0
 10
4.8774068323
 20
6.5168068408
 30
0.0
  0
SPLINE
  5
370
100
AcDbEntity
  8
0
100
AcDbSpline
 62
7
  6
CONTINUOUS
 70
0
 71
3
 72
22
 73
18
 74
0
 42
0.0000001
 43
0.0000001
 44
0.0000000001
 40
0.0
 40
0.0
 40
0.0
 40
0.0
 40
0.006746404
 40
0.0140754508
 40
0.0224200139
 40
0.0320755318
 40
0.0559852814
 40
0.0866713756
 40
0.1244629671
 40
0.1694868554
 40
0.2217548484
 40
0.2812264189
 40
0.3478108002
 40
0.4213894039
 40
0.5889106272
 40
0.7823623999
 40
1.0
 40
1.0
 40
1.0
 40
1.0
 10
3.0107473873
 20
2.3303753106
 30
0.0
 10
3.0107332338
 20
2.3303753106
 30
0.0
 10
3.0107035623
 20
2.3303706994
 30
0.0
 10
3.0106604248
 20
2.3303508518
 30
0.0
 10
3.0106177597
 20
2.330318658
 30
0.0
 10
3.0105568395
 20
2.3302548801
 30
0.0
 10
3.0104828372
 20
2.3301411333
 30
0.0
 10
3.0103991577
 20
2.3299660844
 30
0.0
 10
3.0103151763
 20
2.3297430069
 30
0.0
 10
3.0102311522
 20
2.3294722518
 30
0.0
 10
3.0101473275
 20
2.32915415
 30
0.0
 10
3.0100639949
 20
2.3287893865
 30
0.0
 10
3.0099813689
 20
2.3283787592
 30
0.0
 10
3.0098674919
 20
2.3277433455
 30
0.0
 10
3.0097309803
 20
2.3268418062
 30
0.0
 10
3.0095792272
 20
2.3256373649
 30
0.0
 10
3.0094881568
 20
2.3247796956
 30
0.0
 10
3.0094433573
 20
2.3243253106
 30
0.0
  0
LINE
  5
371
100
AcDbEntity
  8
0
100
AcDbLine
 62
7
  6
CONTINUOUS
 10
3.0143037928
 20
2.3303753106
 11
3.0140514396
 21
2.3288753106
  0
LINE
  5
372
100
AcDbEntity
  8
0
100
AcDbLine
 62
7
  6
CONTINUOUS
 10
3.0083632973
 20
2.2973253106
 11
3.0084949519
 21
2.2677822339
  0
LINE
  5
373
100
AcDbEntity
  8
0
100
AcDbLine
 62
7
  6
CONTINUOUS
 10
3.0084949519
 20
2.2677822339
 11
3.0085002707
 21
2.2668542346
  0
LINE
  5
374
100
AcDbEntity
  8
0
100
AcDbLine
 62
7
  6
CONTINUOUS
 10
3.0085002707
 20
2.2668542346
 11
3.0085051204
 21
2.2659629246
  0
SPLINE
  5
375
100
AcDbEntity
  8
0
100
AcDbSpline
 62
7
  6
CONTINUOUS
 70
0
 71
3
 72
16
 73
12
 74
0
 42
0.0000001
 43
0.0000001
 44
0.0000000001
 40
0.0
 40
0.0
 40
0.0
 40
0.0
 40
0.151120334
 40
0.2995558624
 40
0.442710647
 40
0.5781041648
 40
0.7034470162
 40
0.8166789041
 40
0.9160121589
 40
0.9600091734
 40
1.0
 40
1.0
 40
1.0
 40
1.0
 10
3.0135460367
 20
2.2825554568
 30
0.0
 10
3.0135613673
 20
2.2817570574
 30
0.0
 10
3.0136073237
 20
2.2801746959
 30
0.0
 10
3.013721982
 20
2.2778379915
 30
0.0
 10
3.0138799211
 20
2.2755870848
 30
0.0
 10
3.0140781087
 20
2.2734618695
 30
0.0
 10
3.0143126732
 20
2.2714994502
 30
0.0
 10
3.0145791976
 20
2.2697335874
 30
0.0
 10
3.0148325992
 20
2.2684012158
 30
0.0
 10
3.0150517339
 20
2.267457511
 30
0.0
 10
3.0151655605
 20
2.2670284376
 30
0.0
 10
3.0152238268
 20
2.2668253106
 30
0.0
  0
LINE
  5
376
100
AcDbEntity
  8
0
100
AcDbLine
 62
7
  6
CONTINUOUS
 10
6.7409544727
 20
2.3088253106
 11
6.7402901971
 21
2.3173500679
  0
SPLINE
  5
377
100
AcDbEntity
  8
0
100
AcDbSpline
 62
7
  6
CONTINUOUS
 70
0
 71
3
 72
23
 73
19
 74
0
 42
0.0000001
 43
0.0000001
 44
0.0000000001
 40
0.0
 40
0.0
 40
0.0
 40
0.0
 40
0.2052288208
 40
0.3909156069
 40
0.4755819672
 40
0.5543961793
 40
0.6271057966
 40
0.693499319
 40
0.7534118508
 40
0.8067359515
 40
0.8534435133
 40
0.893613628
 40
0.9275001889
 40
0.9556515527
 40
0.9679083085
 40
0.9791974266
 40
0.9897864533
 40
1.0
 40
1.0
 40
1.0
 40
1.0
 10
6.7402901971
 20
2.3173500679
 30
0.0
 10
6.7401881871
 20
2.3183001154
 30
0.0
 10
6.739969279
 20
2.3201072377
 30
0.0
 10
6.7396298466
 20
2.3222958771
 30
0.0
 10
6.739328953
 20
2.3238935801
 30
0.0
 10
6.7390994171
 20
2.3249691424
 30
0.0
 10
6.7388600372
 20
2.3259552399
 30
0.0
 10
6.7386118281
 20
2.3268481657
 30
0.0
 10
6.7383558657
 20
2.3276446387
 30
0.0
 10
6.7380932073
 20
2.3283418603
 30
0.0
 10
6.7378249817
 20
2.3289375347
 30
0.0
 10
6.7375520064
 20
2.3294301431
 30
0.0
 10
6.737275081
 20
2.3298185512
 30
0.0
 10
6.737029598
 20
2.3300660902
 30
0.0
 10
6.736830656
 20
2.3302027976
 30
0.0
 10
6.736687403
 20
2.3302731439
 30
0.0
 10
6.7365433883
 20
2.3303157165
 30
0.0
 10
6.7364462946
 20
2.3303253074
 30
0.0
 10
6.7363987421
 20
2.3303253095
 30
0.0
  0
SPLINE
  5
378
100
AcDbEntity
  8
0
100
AcDbSpline
 62
7
  6
CONTINUOUS
 70
0
 71
3
 72
32
 73
28
 74
0
 42
0.0000001
 43
0.0000001
 44
0.0000000001
 40
0.0
 40
0.0
 40
0.0
 40
0.0
 40
0.1900382894
 40
0.2837685225
 40
0.3757669592
 40
0.465172938
 40
0.5509311065
 40
0.6317831861
 40
0.7063232982
 40
0.7731409768
 40
0.8313860483
 40
0.8572600389
 40
0.8809702245
 40
0.9025179379
 40
0.9219061513
 40
0.9391356911
 40
0.954202379
 40
0.9671018751
 40
0.9778279782
 40
0.9823770425
 40
0.9863844997
 40
0.9898534924
 40
0.9927919602
 40
0.995216842
 40
0.9971636632
 40
0.9987071613
 40
1.0
 40
1.0
 40
1.0
 40
1.0
 10
6.7432685402
 20
2.2973253106
 30
0.0
 10
6.7432685326
 20
2.3000148713
 30
0.0
 10
6.7432755467
 20
2.3040309823
 30
0.0
 10
6.7433059666
 20
2.3093490308
 30
0.0
 10
6.743341433
 20
2.3132427855
 30
0.0
 10
6.743392278
 20
2.3170235387
 30
0.0
 10
6.7434613249
 20
2.3206462343
 30
0.0
 10
6.7435513014
 20
2.3240580221
 30
0.0
 10
6.7436640585
 20
2.3272009412
 30
0.0
 10
6.7438012796
 20
2.3300226249
 30
0.0
 10
6.7439394472
 20
2.3321544452
 30
0.0
 10
6.7440605961
 20
2.333675731
 30
0.0
 10
6.744151326
 20
2.3346783672
 30
0.0
 10
6.7442449994
 20
2.3355885049
 30
0.0
 10
6.7443411456
 20
2.3364061063
 30
0.0
 10
6.7444392767
 20
2.3371310137
 30
0.0
 10
6.7445389937
 20
2.3377629096
 30
0.0
 10
6.7446398842
 20
2.3383012161
 30
0.0
 10
6.7447286882
 20
2.3386901476
 30
0.0
 10
6.7448018984
 20
2.3389530999
 30
0.0
 10
6.7448538929
 20
2.3391152135
 30
0.0
 10
6.7449059821
 20
2.3392531927
 30
0.0
 10
6.7449581466
 20
2.3393669325
 30
0.0
 10
6.7450104044
 20
2.3394565122
 30
0.0
 10
6.7450631127
 20
2.3395220999
 30
0.0
 10
6.7451173579
 20
2.3395642633
 30
0.0
 10
6.7451576817
 20
2.339575086
 30
0.0
 10
6.7451759788
 20
2.3395751394
 30
0.0
  0
SPLINE
  5
379
100
AcDbEntity
  8
0
100
AcDbSpline
 62
7
  6
CONTINUOUS
 70
0
 71
3
 72
12
 73
8
 74
0
 42
0.0000001
 43
0.0000001
 44
0.0000000001
 40
0.0
 40
0.0
 40
0.0
 40
0.0
 40
0.2960533286
 40
0.555163571
 40
0.7856218708
 40
0.8939791187
 40
1.0
 40
1.0
 40
1.0
 40
1.0
 10
6.7333442889
 20
2.3382411107
 30
0.0
 10
6.7334979515
 20
2.3384094737
 30
0.0
 10
6.7338047186
 20
2.3387094615
 30
0.0
 10
6.734301419
 20
2.3390600454
 30
0.0
 10
6.734729062
 20
2.3392430741
 30
0.0
 10
6.7350651286
 20
2.3393136573
 30
0.0
 10
6.7352304127
 20
2.3393253062
 30
0.0
 10
6.7353120425
 20
2.339325304
 30
0.0
  0
SPLINE
  5
37A
100
AcDbEntity
  8
0
100
AcDbSpline
 62
7
  6
CONTINUOUS
 70
0
 71
3
 72
24
 73
20
 74
0
 42
0.0000001
 43
0.0000001
 44
0.0000000001
 40
0.0
 40
0.0
 40
0.0
 40
0.0
 40
0.1725665385
 40
0.3399490332
 40
0.4201389125
 40
0.4972071104
 40
0.570604698
 40
0.6398224879
 40
0.7043953126
 40
0.7639072147
 40
0.817997412
 40
0.8663678511
 40
0.9087963335
 40
0.9277416822
 40
0.9451637215
 40
0.9610706141
 40
0.975483036
 40
0.9884387749
 40
1.0
 40
1.0
 40
1.0
 40
1.0
 10
6.7273991538
 20
2.2973253106
 30
0.0
 10
6.7273991538
 20
2.2997267338
 30
0.0
 10
6.7274708936
 20
2.3044577352
 30
0.0
 10
6.7277414423
 20
2.310299199
 30
0.0
 10
6.7280674158
 20
2.3148053107
 30
0.0
 10
6.7283577314
 20
2.3180021414
 30
0.0
 10
6.728694818
 20
2.3210408235
 30
0.0
 10
6.7290758453
 20
2.3238990146
 30
0.0
 10
6.7294976103
 20
2.3265560518
 30
0.0
 10
6.7299566199
 20
2.328993061
 30
0.0
 10
6.7304490598
 20
2.3311931698
 30
0.0
 10
6.7309709696
 20
2.3331413735
 30
0.0
 10
6.7314429487
 20
2.3345949513
 30
0.0
 10
6.7318375819
 20
2.3356182625
 30
0.0
 10
6.7321272591
 20
2.3362858116
 30
0.0
 10
6.7324213399
 20
2.3368818887
 30
0.0
 10
6.7327194224
 20
2.3374056647
 30
0.0
 10
6.7330209651
 20
2.3378563376
 30
0.0
 10
6.7332358321
 20
2.3381222783
 30
0.0
 10
6.7333442889
 20
2.3382411107
 30
0.0
  0
SPLINE
  5
37B
100
AcDbEntity
  8
0
100
AcDbSpline
 62
7
  6
CONTINUOUS
 70
0
 71
3
 72
9
 73
5
 74
0
 42
0.0000001
 43
0.0000001
 44
0.0000000001
 40
0.0
 40
0.0
 40
0.0
 40
0.0
 40
0.2427253333
 40
1.0
 40
1.0
 40
1.0
 40
1.0
 10
6.5667895339
 20
2.5288734026
 30
0.0
 10
6.5665334297
 20
2.5291417624
 30
0.0
 10
6.5654455981
 20
2.5302160709
 30
0.0
 10
6.5642393781
 20
2.5311672724
 30
0.0
 10
6.5632864421
 20
2.5318240277
 30
0.0
  0
LINE
  5
37C
100
AcDbEntity
  8
0
100
AcDbLine
 62
7
  6
CONTINUOUS
 10
6.7347708618
 20
2.2548514754
 11
6.7355613967
 21
2.2552492337
  0
SPLINE
  5
37D
100
AcDbEntity
  8
0
100
AcDbSpline
 62
7
  6
CONTINUOUS
 70
0
 71
3
 72
22
 73
18
 74
0
 42
0.0000001
 43
0.0000001
 44
0.0000000001
 40
0.0
 40
0.0
 40
0.0
 40
0.0
 40
0.0247014725
 40
0.0388237757
 40
0.0542114745
 40
0.0889375897
 40
0.129104193
 40
0.1747775313
 40
0.2259340817
 40
0.2824845889
 40
0.3442904743
 40
0.4111732423
 40
0.482919621
 40
0.5592852728
 40
0.6399975284
 40
0.8132401632
 40
1.0
 40
1.0
 40
1.0
 40
1.0
 10
6.7355613967
 20
2.2552492337
 30
0.0
 10
6.7357374565
 20
2.2553919089
 30
0.0
 10
6.7359868153
 20
2.2556502501
 30
0.0
 10
6.7362897809
 20
2.2560446758
 30
0.0
 10
6.7366167313
 20
2.2565355531
 30
0.0
 10
6.737014667
 20
2.2572635606
 30
0.0
 10
6.7374645133
 20
2.2582749444
 30
0.0
 10
6.7379024594
 20
2.2594536971
 30
0.0
 10
6.738326725
 20
2.2607958043
 30
0.0
 10
6.738735514
 20
2.2622965946
 30
0.0
 10
6.7391270726
 20
2.2639505362
 30
0.0
 10
6.7394997096
 20
2.2657514009
 30
0.0
 10
6.739851807
 20
2.2676922679
 30
0.0
 10
6.7401818542
 20
2.269765555
 30
0.0
 10
6.7406004605
 20
2.2727670395
 30
0.0
 10
6.7410525568
 20
2.2767855784
 30
0.0
 10
6.7413261321
 20
2.2800773594
 30
0.0
 10
6.7414466249
 20
2.2817864616
 30
0.0
  0
SPLINE
  5
37E
100
AcDbEntity
  8
0
100
AcDbSpline
 62
7
  6
CONTINUOUS
 70
0
 71
3
 72
22
 73
18
 74
0
 42
0.0000001
 43
0.0000001
 44
0.0000000001
 40
0.0
 40
0.0
 40
0.0
 40
0.0
 40
0.051470148
 40
0.103998382
 40
0.157857888
 40
0.2132632987
 40
0.2703668439
 40
0.329258258
 40
0.3899674105
 40
0.4524686736
 40
0.5166862587
 40
0.5825000261
 40
0.6497514708
 40
0.718249633
 40
0.7877767447
 40
0.8580938253
 40
1.0
 40
1.0
 40
1.0
 40
1.0
 10
6.58599548
 20
1.9839819967
 30
0.0
 10
6.5855374026
 20
1.9858299388
 30
0.0
 10
6.5843845123
 20
1.9895111428
 30
0.0
 10
6.5820009585
 20
1.9948546288
 30
0.0
 10
6.5789679938
 20
2.0000275336
 30
0.0
 10
6.5753103683
 20
2.0049897085
 30
0.0
 10
6.5710569101
 20
2.009704348
 30
0.0
 10
6.5662407006
 20
2.0141363027
 30
0.0
 10
6.5608987511
 20
2.0182526971
 30
0.0
 10
6.555071831
 20
2.0220229529
 30
0.0
 10
6.5488042225
 20
2.0254190204
 30
0.0
 10
6.5421434688
 20
2.0284155705
 30
0.0
 10
6.5351399837
 20
2.0309902077
 30
0.0
 10
6.5278469835
 20
2.0331236219
 30
0.0
 10
6.520319021
 20
2.0347998766
 30
0.0
 10
6.5100179013
 20
2.0364128445
 30
0.0
 10
6.5021559149
 20
2.0368956657
 30
0.0
 10
6.4969068323
 20
2.0368956657
 30
0.0
  0
SPLINE
  5
37F
100
AcDbEntity
  8
0
100
AcDbSpline
 62
7
  6
CONTINUOUS
 70
0
 71
3
 72
22
 73
18
 74
0
 42
0.0000001
 43
0.0000001
 44
0.0000000001
 40
0.0
 40
0.0
 40
0.0
 40
0.0
 40
0.0514698278
 40
0.1039975134
 40
0.1578563406
 40
0.2132610329
 40
0.2703638987
 40
0.3292547356
 40
0.3899634607
 40
0.4524644773
 40
0.5166820137
 40
0.5824959334
 40
0.6497477235
 40
0.7182464064
 40
0.7877741883
 40
0.8580920571
 40
1.0
 40
1.0
 40
1.0
 40
1.0
 10
6.4078166549
 20
1.983975824
 30
0.0
 10
6.4082745069
 20
1.985823922
 30
0.0
 10
6.4094269813
 20
1.9895054561
 30
0.0
 10
6.4118100334
 20
1.9948494727
 30
0.0
 10
6.4148426092
 20
2.0000229229
 30
0.0
 10
6.4184999579
 20
2.0049856478
 30
0.0
 10
6.4227532487
 20
2.0097008322
 30
0.0
 10
6.4275693963
 20
2.014133318
 30
0.0
 10
6.4329113846
 20
2.0182502212
 30
0.0
 10
6.438738438
 20
2.0220209556
 30
0.0
 10
6.4450062669
 20
2.0254174642
 30
0.0
 10
6.4516673198
 20
2.028414411
 30
0.0
 10
6.4586711737
 20
2.0309893946
 30
0.0
 10
6.4659646021
 20
2.0331230995
 30
0.0
 10
6.4734930412
 20
2.0347995851
 30
0.0
 10
6.4837948512
 20
2.0364127775
 30
0.0
 10
6.4916573839
 20
2.0368956657
 30
0.0
 10
6.4969068323
 20
2.0368956657
 30
0.0
  0
SPLINE
  5
380
100
AcDbEntity
  8
0
100
AcDbSpline
 62
7
  6
CONTINUOUS
 70
0
 71
3
 72
23
 73
19
 74
0
 42
0.0000001
 43
0.0000001
 44
0.0000000001
 40
0.0
 40
0.0
 40
0.0
 40
0.0
 40
0.0513247298
 40
0.1035016614
 40
0.156881677
 40
0.2117535336
 40
0.2683349971
 40
0.3267697059
 40
0.3567150766
 40
0.3871445162
 40
0.4494296858
 40
0.5135812115
 40
0.5794837185
 40
0.6469738423
 40
0.7158476467
 40
0.7858676514
 40
0.8567704194
 40
1.0
 40
1.0
 40
1.0
 40
1.0
 10
6.5909935243
 20
1.9795178777
 30
0.0
 10
6.5907067303
 20
1.9815688829
 30
0.0
 10
6.5898586549
 20
1.9856719189
 30
0.0
 10
6.5878032985
 20
1.9916753239
 30
0.0
 10
6.5849763994
 20
1.9975157083
 30
0.0
 10
6.5814040814
 20
2.0031423131
 30
0.0
 10
6.5771184982
 20
2.0085083661
 30
0.0
 10
6.5730166893
 20
2.0126924821
 30
0.0
 10
6.5694260003
 20
2.0158709483
 30
0.0
 10
6.5655716332
 20
2.0189782521
 30
0.0
 10
6.5603804386
 20
2.0226148571
 30
0.0
 10
6.5536661774
 20
2.0265237746
 30
0.0
 10
6.5464746326
 20
2.0299798837
 30
0.0
 10
6.5388665479
 20
2.0329543262
 30
0.0
 10
6.5309059675
 20
2.035422471
 30
0.0
 10
6.5226589625
 20
2.0373638872
 30
0.0
 10
6.5113410191
 20
2.0392341041
 30
0.0
 10
6.5026861643
 20
2.0397937999
 30
0.0
 10
6.4969068323
 20
2.0397937999
 30
0.0
  0
SPLINE
  5
381
100
AcDbEntity
  8
0
100
AcDbSpline
 62
7
  6
CONTINUOUS
 70
0
 71
3
 72
23
 73
19
 74
0
 42
0.0000001
 43
0.0000001
 44
0.0000000001
 40
0.0
 40
0.0
 40
0.0
 40
0.0
 40
0.0513247723
 40
0.1035019942
 40
0.1568824644
 40
0.211754858
 40
0.2683368664
 40
0.3267720661
 40
0.3567176451
 40
0.3871472628
 40
0.4494326859
 40
0.5135843099
 40
0.5794867527
 40
0.6469766533
 40
0.7158500884
 40
0.7858695981
 40
0.8567717716
 40
1.0
 40
1.0
 40
1.0
 40
1.0
 10
6.4028208698
 20
1.9795230925
 30
0.0
 10
6.4031078767
 20
1.9815739789
 30
0.0
 10
6.4039563505
 20
1.9856767584
 30
0.0
 10
6.4060121995
 20
1.9916797344
 30
0.0
 10
6.4088394918
 20
1.9975196698
 30
0.0
 10
6.4124121035
 20
2.0031458159
 30
0.0
 10
6.4166978825
 20
2.0085114093
 30
0.0
 10
6.4207997762
 20
2.0126951537
 30
0.0
 10
6.42439049
 20
2.0158733309
 30
0.0
 10
6.4282448483
 20
2.0189803438
 30
0.0
 10
6.4334359755
 20
2.0226166001
 30
0.0
 10
6.4401500807
 20
2.0265251356
 30
0.0
 10
6.4473413972
 20
2.0299808995
 30
0.0
 10
6.4549491897
 20
2.0329550397
 30
0.0
 10
6.4629094233
 20
2.0354229299
 30
0.0
 10
6.4711560366
 20
2.0373641435
 30
0.0
 10
6.4824734072
 20
2.0392341631
 30
0.0
 10
6.4911278058
 20
2.0397937999
 30
0.0
 10
6.4969068323
 20
2.0397937999
 30
0.0
  0
SPLINE
  5
382
100
AcDbEntity
  8
0
100
AcDbSpline
 62
7
  6
CONTINUOUS
 70
0
 71
3
 72
9
 73
5
 74
0
 42
0.0000001
 43
0.0000001
 44
0.0000000001
 40
0.0
 40
0.0
 40
0.0
 40
0.0
 40
0.2578931738
 40
1.0
 40
1.0
 40
1.0
 40
1.0
 10
3.3242864164
 20
2.0628265758
 30
0.0
 10
3.3246109203
 20
2.0630502204
 30
0.0
 10
3.3258497226
 20
2.0639448546
 30
0.0
 10
3.3270065781
 20
2.0649567951
 30
0.0
 10
3.3277895339
 20
2.0657772185
 30
0.0
  0
SPLINE
  5
383
100
AcDbEntity
  8
0
100
AcDbSpline
 62
7
  6
CONTINUOUS
 70
0
 71
3
 72
75
 73
71
 74
0
 42
0.0000001
 43
0.0000001
 44
0.0000000001
 40
0.0
 40
0.0
 40
0.0
 40
0.0
 40
0.0471222447
 40
0.0938038009
 40
0.1396104251
 40
0.1841154075
 40
0.2269066122
 40
0.2675903773
 40
0.2870255589
 40
0.3057971394
 40
0.3238633343
 40
0.3411843919
 40
0.3577229548
 40
0.3734442062
 40
0.3883160235
 40
0.4023094777
 40
0.4153991533
 40
0.4275635427
 40
0.4387859516
 40
0.4490554416
 40
0.4538316816
 40
0.4583690516
 40
0.4626685446
 40
0.4667319968
 40
0.4705622908
 40
0.4741633513
 40
0.4775405633
 40
0.4807011263
 40
0.4836542768
 40
0.486411948
 40
0.4889893688
 40
0.4914055535
 40
0.4936840374
 40
0.4958532311
 40
0.4979462194
 40
0.5
 40
0.5020537806
 40
0.5041467689
 40
0.5063159626
 40
0.5085944465
 40
0.5110106312
 40
0.513588052
 40
0.5163457232
 40
0.5192988737
 40
0.5224594368
 40
0.5258366487
 40
0.5294377093
 40
0.5332680033
 40
0.5373314554
 40
0.5416309484
 40
0.5461683184
 40
0.5509445584
 40
0.5612140484
 40
0.5724364573
 40
0.5846008467
 40
0.5976905223
 40
0.6116839765
 40
0.6265557938
 40
0.6422770452
 40
0.6588156082
 40
0.6761366657
 40
0.6942028606
 40
0.7129744412
 40
0.7324096227
 40
0.7730933878
 40
0.8158845926
 40
0.860389575
 40
0.9061961992
 40
0.9528777554
 40
1.0
 40
1.0
 40
1.0
 40
1.0
 10
4.8774068323
 20
6.1122756909
 30
0.0
 10
4.8706986433
 20
6.1122756909
 30
0.0
 10
4.8573447167
 20
6.1123890776
 30
0.0
 10
4.837475751
 20
6.1128984481
 30
0.0
 10
4.8179909745
 20
6.1137417915
 30
0.0
 10
4.7990777678
 20
6.1149107772
 30
0.0
 10
4.7809181382
 20
6.1163938684
 30
0.0
 10
4.7663444463
 20
6.1179011039
 30
0.0
 10
4.7551963182
 20
6.1192620558
 30
0.0
 10
4.7472575149
 20
6.1203359329
 30
0.0
 10
4.7396320833
 20
6.1214758666
 30
0.0
 10
4.7323383493
 20
6.1226791153
 30
0.0
 10
4.7253938312
 20
6.1239427181
 30
0.0
 10
4.7188151867
 20
6.125263566
 30
0.0
 10
4.7126181767
 20
6.1266384289
 30
0.0
 10
4.7068175988
 20
6.1280639093
 30
0.0
 10
4.7014272617
 20
6.1295364733
 30
0.0
 10
4.6964598689
 20
6.1310524861
 30
0.0
 10
4.6919271782
 20
6.1326082274
 30
0.0
 10
4.6884411548
 20
6.1339653674
 30
0.0
 10
4.6858830175
 20
6.1350741224
 30
0.0
 10
4.6841263753
 20
6.135893146
 30
0.0
 10
4.682485924
 20
6.1367193537
 30
0.0
 10
4.6809626147
 20
6.137552298
 30
0.0
 10
4.679557291
 20
6.1383914686
 30
0.0
 10
4.6782707471
 20
6.1392364326
 30
0.0
 10
4.6771036966
 20
6.1400867654
 30
0.0
 10
4.6760567426
 20
6.1409420312
 30
0.0
 10
4.6751304735
 20
6.141801907
 30
0.0
 10
4.6743254364
 20
6.1426661114
 30
0.0
 10
4.6736421302
 20
6.1435343866
 30
0.0
 10
4.6730811944
 20
6.1444065883
 30
0.0
 10
4.6726433883
 20
6.1452825158
 30
0.0
 10
4.6723295551
 20
6.146161779
 30
0.0
 10
4.6721407213
 20
6.147043696
 30
0.0
 10
4.6720776945
 20
6.147927099
 30
0.0
 10
4.6721407213
 20
6.148810502
 30
0.0
 10
4.6723295551
 20
6.149692419
 30
0.0
 10
4.6726433883
 20
6.1505716822
 30
0.0
 10
4.6730811944
 20
6.1514476097
 30
0.0
 10
4.6736421302
 20
6.1523198114
 30
0.0
 10
4.6743254364
 20
6.1531880866
 30
0.0
 10
4.6751304735
 20
6.154052291
 30
0.0
 10
4.6760567426
 20
6.1549121668
 30
0.0
 10
4.6771036966
 20
6.1557674326
 30
0.0
 10
4.6782707472
 20
6.1566177654
 30
0.0
 10
4.679557291
 20
6.1574627294
 30
0.0
 10
4.6809626147
 20
6.1583019
 30
0.0
 10
4.682485924
 20
6.1591348444
 30
0.0
 10
4.6841263753
 20
6.159961052
 30
0.0
 10
4.6858830175
 20
6.1607800757
 30
0.0
 10
4.6884411548
 20
6.1618888306
 30
0.0
 10
4.6919271782
 20
6.1632459706
 30
0.0
 10
4.6964598689
 20
6.164801712
 30
0.0
 10
4.7014272617
 20
6.1663177247
 30
0.0
 10
4.7068175988
 20
6.1677902887
 30
0.0
 10
4.7126181767
 20
6.1692157691
 30
0.0
 10
4.7188151867
 20
6.170590632
 30
0.0
 10
4.7253938312
 20
6.1719114799
 30
0.0
 10
4.7323383493
 20
6.1731750827
 30
0.0
 10
4.7396320833
 20
6.1743783314
 30
0.0
 10
4.7472575149
 20
6.1755182651
 30
0.0
 10
4.7551963182
 20
6.1765921422
 30
0.0
 10
4.7663444463
 20
6.1779530941
 30
0.0
 10
4.7809181382
 20
6.1794603296
 30
0.0
 10
4.7990777679
 20
6.1809434208
 30
0.0
 10
4.8179909745
 20
6.1821124065
 30
0.0
 10
4.837475751
 20
6.1829557499
 30
0.0
 10
4.8573447167
 20
6.1834651204
 30
0.0
 10
4.8706986433
 20
6.1835785072
 30
0.0
 10
4.8774068323
 20
6.1835785072
 30
0.0
  0
SPLINE
  5
384
100
AcDbEntity
  8
0
100
AcDbSpline
 62
7
  6
CONTINUOUS
 70
0
 71
3
 72
15
 73
11
 74
0
 42
0.0000001
 43
0.0000001
 44
0.0000000001
 40
0.0
 40
0.0
 40
0.0
 40
0.0
 40
0.1223267818
 40
0.2469184351
 40
0.3730647227
 40
0.5
 40
0.6269352773
 40
0.7530815649
 40
0.8776732182
 40
1.0
 40
1.0
 40
1.0
 40
1.0
 10
6.4545185178
 20
2.1798434415
 30
0.0
 10
6.4578479277
 20
2.180972847
 30
0.0
 10
6.4646719957
 20
2.1829575363
 30
0.0
 10
6.4751923005
 20
2.1850860889
 30
0.0
 10
6.4859820567
 20
2.1863739524
 30
0.0
 10
6.4969068323
 20
2.1868049394
 30
0.0
 10
6.5078316079
 20
2.1863739524
 30
0.0
 10
6.5186213641
 20
2.1850860889
 30
0.0
 10
6.5291416689
 20
2.1829575363
 30
0.0
 10
6.5359657369
 20
2.180972847
 30
0.0
 10
6.5392951468
 20
2.1798434415
 30
0.0
  0
SPLINE
  5
385
100
AcDbEntity
  8
0
100
AcDbSpline
 62
7
  6
CONTINUOUS
 70
0
 71
3
 72
15
 73
11
 74
0
 42
0.0000001
 43
0.0000001
 44
0.0000000001
 40
0.0
 40
0.0
 40
0.0
 40
0.0
 40
0.13208501
 40
0.2634321583
 40
0.3933322672
 40
0.5211103913
 40
0.6461577425
 40
0.7075042414
 40
0.7679804662
 40
1.0
 40
1.0
 40
1.0
 40
1.0
 10
6.4969068323
 20
2.175530384
 30
0.0
 10
6.5001936042
 20
2.175530384
 30
0.0
 10
6.5067514592
 20
2.1752856759
 30
0.0
 10
6.5164861479
 20
2.1741874408
 30
0.0
 10
6.5260045056
 20
2.1723705084
 30
0.0
 10
6.5352001334
 20
2.1698548043
 30
0.0
 10
6.5425570458
 20
2.1671817851
 30
0.0
 10
6.5481855086
 20
2.1647147792
 30
0.0
 10
6.5560857569
 20
2.160829407
 30
0.0
 10
6.5622781222
 20
2.1568851868
 30
0.0
 10
6.5667895339
 20
2.1532823151
 30
0.0
  0
SPLINE
  5
386
100
AcDbEntity
  8
0
100
AcDbSpline
 62
7
  6
CONTINUOUS
 70
0
 71
3
 72
15
 73
11
 74
0
 42
0.0000001
 43
0.0000001
 44
0.0000000001
 40
0.0
 40
0.0
 40
0.0
 40
0.0
 40
0.2320195328
 40
0.2924957575
 40
0.3538422566
 40
0.478889608
 40
0.6066677323
 40
0.7365678413
 40
0.8679149897
 40
1.0
 40
1.0
 40
1.0
 40
1.0
 10
6.4270241307
 20
2.1532823151
 30
0.0
 10
6.4315355424
 20
2.1568851868
 30
0.0
 10
6.4377279076
 20
2.160829407
 30
0.0
 10
6.445628156
 20
2.1647147791
 30
0.0
 10
6.4512566187
 20
2.1671817851
 30
0.0
 10
6.4586135312
 20
2.1698548043
 30
0.0
 10
6.4678091589
 20
2.1723705084
 30
0.0
 10
6.4773275167
 20
2.1741874408
 30
0.0
 10
6.4870622053
 20
2.1752856759
 30
0.0
 10
6.4936200604
 20
2.175530384
 30
0.0
 10
6.4969068323
 20
2.175530384
 30
0.0
  0
SPLINE
  5
387
100
AcDbEntity
  8
0
100
AcDbSpline
 62
7
  6
CONTINUOUS
 70
0
 71
3
 72
9
 73
5
 74
0
 42
0.0000001
 43
0.0000001
 44
0.0000000001
 40
0.0
 40
0.0
 40
0.0
 40
0.0
 40
0.2578931729
 40
1.0
 40
1.0
 40
1.0
 40
1.0
 10
6.4305272481
 20
2.5318240454
 30
0.0
 10
6.4302027443
 20
2.5316004007
 30
0.0
 10
6.428963942
 20
2.5307057665
 30
0.0
 10
6.4278070865
 20
2.529693826
 30
0.0
 10
6.4270241307
 20
2.5288734026
 30
0.0
  0
SPLINE
  5
388
100
AcDbEntity
  8
0
100
AcDbSpline
 62
7
  6
CONTINUOUS
 70
0
 71
3
 72
43
 73
39
 74
0
 42
0.0000001
 43
0.0000001
 44
0.0000000001
 40
0.0
 40
0.0
 40
0.0
 40
0.0
 40
0.0976322258
 40
0.1942577813
 40
0.288884968
 40
0.3805427808
 40
0.4682958865
 40
0.5104291634
 40
0.5512574454
 40
0.5906790578
 40
0.6285967702
 40
0.6649181898
 40
0.6995564073
 40
0.7324305155
 40
0.7634660819
 40
0.7925959517
 40
0.8197614244
 40
0.844913339
 40
0.8680137705
 40
0.8890387781
 40
0.898771301
 40
0.9079844606
 40
0.9166814491
 40
0.9248673964
 40
0.9325498469
 40
0.9397396947
 40
0.9464514237
 40
0.9527043101
 40
0.9585237157
 40
0.9639421241
 40
0.969001102
 40
0.9737527224
 40
0.978260473
 40
0.9825993991
 40
0.9868538893
 40
0.9911135871
 40
0.9954677938
 40
1.0
 40
1.0
 40
1.0
 40
1.0
 10
4.8774068323
 20
6.1872878608
 30
0.0
 10
4.8846070836
 20
6.1872878608
 30
0.0
 10
4.8989336834
 20
6.1871601617
 30
0.0
 10
4.9202319785
 20
6.1865866105
 30
0.0
 10
4.9410759677
 20
6.1856376737
 30
0.0
 10
4.9612444835
 20
6.184323658
 30
0.0
 10
4.9775240243
 20
6.182918242
 30
0.0
 10
4.9900464759
 20
6.1816133587
 30
0.0
 10
4.9990114227
 20
6.1805665569
 30
0.0
 10
5.0076534441
 20
6.17944123
 30
0.0
 10
5.0159496268
 20
6.1782403833
 30
0.0
 10
5.023877972
 20
6.1769672544
 30
0.0
 10
5.0314174808
 20
6.1756252847
 30
0.0
 10
5.0385482128
 20
6.174218118
 30
0.0
 10
5.0452513341
 20
6.172749575
 30
0.0
 10
5.0515091941
 20
6.1712236467
 30
0.0
 10
5.0573053776
 20
6.169644509
 30
0.0
 10
5.0626248618
 20
6.1680164999
 30
0.0
 10
5.0674537896
 20
6.1663440268
 30
0.0
 10
5.0711486868
 20
6.1648818078
 30
0.0
 10
5.0738434011
 20
6.1636859443
 30
0.0
 10
5.0756816419
 20
6.1628037922
 30
0.0
 10
5.0773884831
 20
6.1619137811
 30
0.0
 10
5.0789628561
 20
6.1610164479
 30
0.0
 10
5.0804037745
 20
6.1601123111
 30
0.0
 10
5.0817103934
 20
6.1592019343
 30
0.0
 10
5.0828819321
 20
6.1582857779
 30
0.0
 10
5.0839176822
 20
6.1573642448
 30
0.0
 10
5.0848170462
 20
6.1564377214
 30
0.0
 10
5.0855793545
 20
6.155506415
 30
0.0
 10
5.0862038914
 20
6.154570511
 30
0.0
 10
5.0866898112
 20
6.1536302156
 30
0.0
 10
5.0870359151
 20
6.152685867
 30
0.0
 10
5.0872410005
 20
6.1517383172
 30
0.0
 10
5.0873040565
 20
6.1507890024
 30
0.0
 10
5.0872246034
 20
6.1498397653
 30
0.0
 10
5.0870032738
 20
6.1488926354
 30
0.0
 10
5.0867676746
 20
6.1482787573
 30
0.0
 10
5.0866293003
 20
6.1479745011
 30
0.0
  0
SPLINE
  5
389
100
AcDbEntity
  8
0
100
AcDbSpline
 62
7
  6
CONTINUOUS
 70
0
 71
3
 72
21
 73
17
 74
0
 42
0.0000001
 43
0.0000001
 44
0.0000000001
 40
0.0
 40
0.0
 40
0.0
 40
0.0
 40
0.1169633124
 40
0.1780523525
 40
0.2405926501
 40
0.3043430752
 40
0.369029517
 40
0.4343534187
 40
0.5000000666
 40
0.5656467121
 40
0.6309706066
 40
0.6956570368
 40
0.7594074459
 40
0.8219477237
 40
0.8830367408
 40
1.0
 40
1.0
 40
1.0
 40
1.0
 10
6.4370126018
 20
2.5890739644
 30
0.0
 10
6.4410253018
 20
2.5861809623
 30
0.0
 10
6.4475747935
 20
2.58236095
 30
0.0
 10
6.456931609
 20
2.5783471014
 30
0.0
 10
6.4644473085
 20
2.5758047553
 30
0.0
 10
6.4722796261
 20
2.5738019228
 30
0.0
 10
6.4803535106
 20
2.5723571315
 30
0.0
 10
6.4885894503
 20
2.5714846409
 30
0.0
 10
6.4969068939
 20
2.5711928606
 30
0.0
 10
6.5052243369
 20
2.5714846495
 30
0.0
 10
6.5134602747
 20
2.5723571487
 30
0.0
 10
6.5215341563
 20
2.5738019484
 30
0.0
 10
6.5293664697
 20
2.5758047889
 30
0.0
 10
6.536882164
 20
2.5783471429
 30
0.0
 10
6.546238971
 20
2.5823610011
 30
0.0
 10
6.552788455
 20
2.5861810203
 30
0.0
 10
6.5568011492
 20
2.5890740267
 30
0.0
  0
SPLINE
  5
38A
100
AcDbEntity
  8
0
100
AcDbSpline
 62
7
  6
CONTINUOUS
 70
0
 71
3
 72
75
 73
71
 74
0
 42
0.0000001
 43
0.0000001
 44
0.0000000001
 40
0.0
 40
0.0
 40
0.0
 40
0.0
 40
0.0471222447
 40
0.0938038009
 40
0.1396104251
 40
0.1841154075
 40
0.2269066122
 40
0.2675903773
 40
0.2870255589
 40
0.3057971394
 40
0.3238633343
 40
0.3411843919
 40
0.3577229548
 40
0.3734442062
 40
0.3883160235
 40
0.4023094777
 40
0.4153991533
 40
0.4275635427
 40
0.4387859516
 40
0.4490554416
 40
0.4538316816
 40
0.4583690516
 40
0.4626685446
 40
0.4667319968
 40
0.4705622908
 40
0.4741633513
 40
0.4775405633
 40
0.4807011263
 40
0.4836542768
 40
0.486411948
 40
0.4889893688
 40
0.4914055535
 40
0.4936840374
 40
0.4958532311
 40
0.4979462194
 40
0.5
 40
0.5020537806
 40
0.5041467689
 40
0.5063159626
 40
0.5085944465
 40
0.5110106312
 40
0.513588052
 40
0.5163457232
 40
0.5192988737
 40
0.5224594368
 40
0.5258366487
 40
0.5294377093
 40
0.5332680033
 40
0.5373314554
 40
0.5416309484
 40
0.5461683184
 40
0.5509445584
 40
0.5612140484
 40
0.5724364573
 40
0.5846008467
 40
0.5976905223
 40
0.6116839765
 40
0.6265557938
 40
0.6422770452
 40
0.6588156082
 40
0.6761366657
 40
0.6942028606
 40
0.7129744412
 40
0.7324096227
 40
0.7730933878
 40
0.8158845926
 40
0.860389575
 40
0.9061961992
 40
0.9528777554
 40
1.0
 40
1.0
 40
1.0
 40
1.0
 10
4.8774068323
 20
6.1835785072
 30
0.0
 10
4.8841150213
 20
6.1835785072
 30
0.0
 10
4.8974689479
 20
6.1834651204
 30
0.0
 10
4.9173379136
 20
6.1829557499
 30
0.0
 10
4.9368226901
 20
6.1821124065
 30
0.0
 10
4.9557358968
 20
6.1809434208
 30
0.0
 10
4.9738955264
 20
6.1794603296
 30
0.0
 10
4.9884692183
 20
6.1779530941
 30
0.0
 10
4.9996173464
 20
6.1765921422
 30
0.0
 10
5.0075561497
 20
6.1755182651
 30
0.0
 10
5.0151815813
 20
6.1743783314
 30
0.0
 10
5.0224753153
 20
6.1731750827
 30
0.0
 10
5.0294198334
 20
6.1719114799
 30
0.0
 10
5.0359984779
 20
6.170590632
 30
0.0
 10
5.0421954879
 20
6.1692157691
 30
0.0
 10
5.0479960658
 20
6.1677902887
 30
0.0
 10
5.0533864029
 20
6.1663177247
 30
0.0
 10
5.0583537957
 20
6.164801712
 30
0.0
 10
5.0628864864
 20
6.1632459706
 30
0.0
 10
5.0663725098
 20
6.1618888306
 30
0.0
 10
5.0689306471
 20
6.1607800757
 30
0.0
 10
5.0706872893
 20
6.159961052
 30
0.0
 10
5.0723277406
 20
6.1591348444
 30
0.0
 10
5.0738510499
 20
6.1583019
 30
0.0
 10
5.0752563736
 20
6.1574627294
 30
0.0
 10
5.0765429174
 20
6.1566177654
 30
0.0
 10
5.077709968
 20
6.1557674326
 30
0.0
 10
5.078756922
 20
6.1549121668
 30
0.0
 10
5.0796831911
 20
6.154052291
 30
0.0
 10
5.0804882282
 20
6.1531880866
 30
0.0
 10
5.0811715344
 20
6.1523198114
 30
0.0
 10
5.0817324702
 20
6.1514476097
 30
0.0
 10
5.0821702763
 20
6.1505716822
 30
0.0
 10
5.0824841095
 20
6.149692419
 30
0.0
 10
5.0826729433
 20
6.148810502
 30
0.0
 10
5.0827359701
 20
6.147927099
 30
0.0
 10
5.0826729433
 20
6.147043696
 30
0.0
 10
5.0824841095
 20
6.146161779
 30
0.0
 10
5.0821702763
 20
6.1452825158
 30
0.0
 10
5.0817324702
 20
6.1444065883
 30
0.0
 10
5.0811715344
 20
6.1435343866
 30
0.0
 10
5.0804882282
 20
6.1426661114
 30
0.0
 10
5.0796831911
 20
6.141801907
 30
0.0
 10
5.078756922
 20
6.1409420312
 30
0.0
 10
5.077709968
 20
6.1400867654
 30
0.0
 10
5.0765429174
 20
6.1392364326
 30
0.0
 10
5.0752563736
 20
6.1383914686
 30
0.0
 10
5.0738510499
 20
6.137552298
 30
0.0
 10
5.0723277406
 20
6.1367193537
 30
0.0
 10
5.0706872893
 20
6.135893146
 30
0.0
 10
5.068930647
 20
6.1350741224
 30
0.0
 10
5.0663725098
 20
6.1339653674
 30
0.0
 10
5.0628864864
 20
6.1326082274
 30
0.0
 10
5.0583537957
 20
6.1310524861
 30
0.0
 10
5.0533864029
 20
6.1295364733
 30
0.0
 10
5.0479960658
 20
6.1280639093
 30
0.0
 10
5.0421954879
 20
6.1266384289
 30
0.0
 10
5.0359984779
 20
6.125263566
 30
0.0
 10
5.0294198334
 20
6.1239427181
 30
0.0
 10
5.0224753153
 20
6.1226791153
 30
0.0
 10
5.0151815813
 20
6.1214758666
 30
0.0
 10
5.0075561497
 20
6.1203359329
 30
0.0
 10
4.9996173464
 20
6.1192620558
 30
0.0
 10
4.9884692183
 20
6.1179011039
 30
0.0
 10
4.9738955264
 20
6.1163938684
 30
0.0
 10
4.9557358967
 20
6.1149107772
 30
0.0
 10
4.9368226901
 20
6.1137417915
 30
0.0
 10
4.9173379136
 20
6.1128984481
 30
0.0
 10
4.8974689479
 20
6.1123890776
 30
0.0
 10
4.8841150213
 20
6.1122756909
 30
0.0
 10
4.8774068323
 20
6.1122756909
 30
0.0
  0
SPLINE
  5
38B
100
AcDbEntity
  8
0
100
AcDbSpline
 62
7
  6
CONTINUOUS
 70
0
 71
3
 72
15
 73
11
 74
0
 42
0.0000001
 43
0.0000001
 44
0.0000000001
 40
0.0
 40
0.0
 40
0.0
 40
0.0
 40
0.0911868261
 40
0.1862239466
 40
0.2889818538
 40
0.4025106988
 40
0.52904729
 40
0.6701617215
 40
0.8269244383
 40
1.0
 40
1.0
 40
1.0
 40
1.0
 10
6.7353120425
 20
2.339325304
 30
0.0
 10
6.7354435885
 20
2.3393253005
 30
0.0
 10
6.7357131549
 20
2.339294344
 30
0.0
 10
6.7361095433
 20
2.339156276
 30
0.0
 10
6.736499483
 20
2.3389287423
 30
0.0
 10
6.7368828621
 20
2.3386136871
 30
0.0
 10
6.7372602068
 20
2.3382120452
 30
0.0
 10
6.7376317526
 20
2.337724317
 30
0.0
 10
6.7379973661
 20
2.3371509572
 30
0.0
 10
6.7382255234
 20
2.3367330028
 30
0.0
 10
6.7383392357
 20
2.3365107216
 30
0.0
  0
LINE
  5
38C
100
AcDbEntity
  8
0
100
AcDbLine
 62
7
  6
CONTINUOUS
 10
3.0084749013
 20
2.3265826997
 11
3.0081820504
 21
2.2973253106
  0
SPLINE
  5
38D
100
AcDbEntity
  8
0
100
AcDbSpline
 62
7
  6
CONTINUOUS
 70
0
 71
3
 72
39
 73
35
 74
0
 42
0.0000001
 43
0.0000001
 44
0.0000000001
 40
0.0
 40
0.0
 40
0.0
 40
0.0
 40
0.0257335715
 40
0.0519962071
 40
0.0789244729
 40
0.1066256898
 40
0.1351759928
 40
0.1646202502
 40
0.1949733783
 40
0.2262225464
 40
0.2583298552
 40
0.2912352355
 40
0.324859418
 40
0.3591068816
 40
0.3938687302
 40
0.4290254855
 40
0.4644498052
 40
0.5000091411
 40
0.5355683537
 40
0.5709923063
 40
0.6061484575
 40
0.6409094771
 40
0.6751559034
 40
0.7087788619
 40
0.7416828586
 40
0.7737886564
 40
0.8050362235
 40
0.8353877038
 40
0.8648303146
 40
0.8933790248
 40
0.9210787586
 40
0.9480057082
 40
0.9742672507
 40
1.0
 40
1.0
 40
1.0
 40
1.0
 10
6.4078180962
 20
2.6106689812
 30
0.0
 10
6.4082761981
 20
2.6088209285
 30
0.0
 10
6.4094291265
 20
2.6051394917
 30
0.0
 10
6.4118128505
 20
2.5997956864
 30
0.0
 10
6.4148460534
 20
2.594622484
 30
0.0
 10
6.4185039907
 20
2.5896600438
 30
0.0
 10
6.4227578261
 20
2.5849451753
 30
0.0
 10
6.4275744731
 20
2.5805130333
 30
0.0
 10
6.4329169115
 20
2.5763964994
 30
0.0
 10
6.4387443634
 20
2.5726261568
 30
0.0
 10
6.4450125348
 20
2.569230059
 30
0.0
 10
6.4516738859
 20
2.5662335366
 30
0.0
 10
6.4586779451
 20
2.5636589935
 30
0.0
 10
6.4659716613
 20
2.5615257215
 30
0.0
 10
6.4734997889
 20
2.5598497355
 30
0.0
 10
6.4812052972
 20
2.5586436361
 30
0.0
 10
6.4890298011
 20
2.5579165013
 30
0.0
 10
6.4969140042
 20
2.5576738079
 30
0.0
 10
6.5047981529
 20
2.5579173843
 30
0.0
 10
6.5126224941
 20
2.5586453955
 30
0.0
 10
6.5203277328
 20
2.5598523579
 30
0.0
 10
6.5278554857
 20
2.5615291873
 30
0.0
 10
6.5351487251
 20
2.5636632767
 30
0.0
 10
6.5421522089
 20
2.566238605
 30
0.0
 10
6.5488128906
 20
2.5692358747
 30
0.0
 10
6.5550803034
 20
2.5726326763
 30
0.0
 10
6.5609069131
 20
2.5764036741
 30
0.0
 10
6.566248432
 20
2.5805208099
 30
0.0
 10
6.5710640887
 20
2.5849534962
 30
0.0
 10
6.5753168702
 20
2.5896688471
 30
0.0
 10
6.5789736972
 20
2.5946317041
 30
0.0
 10
6.5820057412
 20
2.599805254
 30
0.0
 10
6.5843882658
 20
2.6051493341
 30
0.0
 10
6.5855403609
 20
2.6088308842
 30
0.0
 10
6.5859980453
 20
2.6106789777
 30
0.0
  0
SPLINE
  5
38E
100
AcDbEntity
  8
0
100
AcDbSpline
 62
7
  6
CONTINUOUS
 70
0
 71
3
 72
43
 73
39
 74
0
 42
0.0000001
 43
0.0000001
 44
0.0000000001
 40
0.0
 40
0.0
 40
0.0
 40
0.0
 40
0.012795263
 40
0.0256726098
 40
0.0517586769
 40
0.078446169
 40
0.1058795822
 40
0.1341677322
 40
0.1633824275
 40
0.1783537471
 40
0.1935670753
 40
0.2247067953
 40
0.2567795778
 40
0.2897277315
 40
0.32346958
 40
0.3579031439
 40
0.3929097458
 40
0.4283575111
 40
0.4641047666
 40
0.500003356
 40
0.5359018964
 40
0.5716490061
 40
0.6070965316
 40
0.6421028053
 40
0.6765359598
 40
0.7102773274
 40
0.7432249406
 40
0.7752971373
 40
0.8064362429
 40
0.8216492592
 40
0.8366202671
 40
0.8658343497
 40
0.8941219215
 40
0.9215548147
 40
0.9482418689
 40
0.9743276016
 40
0.9872048258
 40
1.0
 40
1.0
 40
1.0
 40
1.0
 10
6.4028204739
 20
2.6151303075
 30
0.0
 10
6.4029635279
 20
2.6141075809
 30
0.0
 10
6.403317032
 20
2.6120641896
 30
0.0
 10
6.4042904612
 20
2.6079995517
 30
0.0
 10
6.4060113643
 20
2.6029724953
 30
0.0
 10
6.4088384572
 20
2.5971329008
 30
0.0
 10
6.4124110551
 20
2.5915062143
 30
0.0
 10
6.4166968725
 20
2.5861403441
 30
0.0
 10
6.4207988641
 20
2.5819563302
 30
0.0
 10
6.4243896882
 20
2.578777964
 30
0.0
 10
6.4282441843
 20
2.5756707641
 30
0.0
 10
6.4334355251
 20
2.5720342965
 30
0.0
 10
6.4401499348
 20
2.5681255506
 30
0.0
 10
6.447341615
 20
2.5646696181
 30
0.0
 10
6.4549497651
 20
2.5616953644
 30
0.0
 10
6.4629105587
 20
2.5592273871
 30
0.0
 10
6.4711570887
 20
2.5572862279
 30
0.0
 10
6.4796200697
 20
2.5558880513
 30
0.0
 10
6.4882283724
 20
2.5550445218
 30
0.0
 10
6.496909635
 20
2.5547626816
 30
0.0
 10
6.505590874
 20
2.5550448853
 30
0.0
 10
6.5141991062
 20
2.5558887752
 30
0.0
 10
6.5226619704
 20
2.5572873061
 30
0.0
 10
6.5309083383
 20
2.5592288106
 30
0.0
 10
6.5388689257
 20
2.5616971215
 30
0.0
 10
6.5464768275
 20
2.5646716941
 30
0.0
 10
6.5536682192
 20
2.5681279283
 30
0.0
 10
6.5603823026
 20
2.5720369563
 30
0.0
 10
6.5655733413
 20
2.5756736433
 30
0.0
 10
6.569427578
 20
2.578781006
 30
0.0
 10
6.5730181356
 20
2.5819595228
 30
0.0
 10
6.5771197777
 20
2.5861437104
 30
0.0
 10
6.5814051466
 20
2.5915097631
 30
0.0
 10
6.5849772736
 20
2.5971366027
 30
0.0
 10
6.5878038768
 20
2.6029763192
 30
0.0
 10
6.5895243558
 20
2.6080034451
 30
0.0
 10
6.5904974426
 20
2.6120681197
 30
0.0
 10
6.5908507747
 20
2.6141115234
 30
0.0
 10
6.5909937427
 20
2.6151342548
 30
0.0
  0
SPLINE
  5
38F
100
AcDbEntity
  8
0
100
AcDbSpline
 62
7
  6
CONTINUOUS
 70
0
 71
3
 72
30
 73
26
 74
0
 42
0.0000001
 43
0.0000001
 44
0.0000000001
 40
0.0
 40
0.0
 40
0.0
 40
0.0
 40
0.0027933956
 40
0.0038807313
 40
0.0051442729
 40
0.0082118181
 40
0.0120048018
 40
0.016514886
 40
0.021727137
 40
0.0276236364
 40
0.0413978676
 40
0.0576928533
 40
0.0763740295
 40
0.0973220988
 40
0.145623451
 40
0.2019605579
 40
0.265887786
 40
0.3366827572
 40
0.4128574046
 40
0.4928301261
 40
0.5752724933
 40
0.6592055576
 40
0.7439788827
 40
0.8291776493
 40
1.0
 40
1.0
 40
1.0
 40
1.0
 10
6.7457382523
 20
2.3275753114
 30
0.0
 10
6.7457100116
 20
2.327575353
 30
0.0
 10
6.7456780517
 20
2.3275382434
 30
0.0
 10
6.7456532314
 20
2.3274942695
 30
0.0
 10
6.7456297935
 20
2.3274442316
 30
0.0
 10
6.745602224
 20
2.3273669912
 30
0.0
 10
6.7455709747
 20
2.3272562122
 30
0.0
 10
6.7455402489
 20
2.3271230679
 30
0.0
 10
6.7455099525
 20
2.3269680655
 30
0.0
 10
6.7454680658
 20
2.3267199974
 30
0.0
 10
6.7454185562
 20
2.3263596993
 30
0.0
 10
6.7453637752
 20
2.3258698674
 30
0.0
 10
6.7453112882
 20
2.3253068974
 30
0.0
 10
6.7452411924
 20
2.3244206809
 30
0.0
 10
6.7451629006
 20
2.3231533511
 30
0.0
 10
6.7450841244
 20
2.3214509558
 30
0.0
 10
6.7450199139
 20
2.3195203948
 30
0.0
 10
6.7449730182
 20
2.3173887445
 30
0.0
 10
6.7449420435
 20
2.3150945843
 30
0.0
 10
6.7449246822
 20
2.3126825331
 30
0.0
 10
6.7449178328
 20
2.3101919986
 30
0.0
 10
6.7449182342
 20
2.3076529247
 30
0.0
 10
6.744922863
 20
2.3050859896
 30
0.0
 10
6.7449310887
 20
2.3016406252
 30
0.0
 10
6.744935947
 20
2.299052296
 30
0.0
 10
6.744935947
 20
2.2973253106
 30
0.0
  0
LINE
  5
390
100
AcDbEntity
  8
0
100
AcDbLine
 62
7
  6
CONTINUOUS
 10
3.0079838271
 20
2.2676053783
 11
3.0076818729
 21
2.2973253106
  0
SPLINE
  5
391
100
AcDbEntity
  8
0
100
AcDbSpline
 62
7
  6
CONTINUOUS
 70
0
 71
3
 72
9
 73
5
 74
0
 42
0.0000001
 43
0.0000001
 44
0.0000000001
 40
0.0
 40
0.0
 40
0.0
 40
0.0
 40
0.2464070279
 40
1.0
 40
1.0
 40
1.0
 40
1.0
 10
6.4306677021
 20
2.5316210478
 30
0.0
 10
6.4313384239
 20
2.5320987731
 30
0.0
 10
6.4340883495
 20
2.533998136
 30
0.0
 10
6.4369460915
 20
2.5357406103
 30
0.0
 10
6.4391461932
 20
2.536966156
 30
0.0
  0
SPLINE
  5
392
100
AcDbEntity
  8
0
100
AcDbSpline
 62
7
  6
CONTINUOUS
 70
0
 71
3
 72
9
 73
5
 74
0
 42
0.0000001
 43
0.0000001
 44
0.0000000001
 40
0.0
 40
0.0
 40
0.0
 40
0.0
 40
0.2536566067
 40
1.0
 40
1.0
 40
1.0
 40
1.0
 10
6.5546645648
 20
2.536967775
 30
0.0
 10
6.5554053689
 20
2.5365551508
 30
0.0
 10
6.5583041315
 20
2.5348898384
 30
0.0
 10
6.5611137673
 20
2.533068491
 30
0.0
 10
6.5631459878
 20
2.5316210298
 30
0.0
  0
SPLINE
  5
393
100
AcDbEntity
  8
0
100
AcDbSpline
 62
7
  6
CONTINUOUS
 70
0
 71
3
 72
15
 73
11
 74
0
 42
0.0000001
 43
0.0000001
 44
0.0000000001
 40
0.0
 40
0.0
 40
0.0
 40
0.0
 40
0.1223267821
 40
0.2469184352
 40
0.3730647224
 40
0.4999999999
 40
0.6269352772
 40
0.7530815644
 40
0.8776732177
 40
1.0
 40
1.0
 40
1.0
 40
1.0
 10
6.5392951468
 20
2.4148071796
 30
0.0
 10
6.5359657369
 20
2.4136777741
 30
0.0
 10
6.5291416689
 20
2.4116930848
 30
0.0
 10
6.5186213641
 20
2.4095645323
 30
0.0
 10
6.5078316079
 20
2.4082766688
 30
0.0
 10
6.4969068323
 20
2.4078456817
 30
0.0
 10
6.4859820567
 20
2.4082766688
 30
0.0
 10
6.4751923005
 20
2.4095645322
 30
0.0
 10
6.4646719957
 20
2.4116930848
 30
0.0
 10
6.4578479277
 20
2.4136777741
 30
0.0
 10
6.4545185178
 20
2.4148071796
 30
0.0
  0
SPLINE
  5
394
100
AcDbEntity
  8
0
100
AcDbSpline
 62
7
  6
CONTINUOUS
 70
0
 71
3
 72
23
 73
19
 74
0
 42
0.0000001
 43
0.0000001
 44
0.0000000001
 40
0.0
 40
0.0
 40
0.0
 40
0.0
 40
0.1160097671
 40
0.146247879
 40
0.176921128
 40
0.239444805
 40
0.3033338924
 40
0.3682837457
 40
0.4339581408
 40
0.4999999999
 40
0.566041859
 40
0.6317162541
 40
0.6966661075
 40
0.760555195
 40
0.8230788721
 40
0.8537521212
 40
0.8839902332
 40
1.0
 40
1.0
 40
1.0
 40
1.0
 10
6.5667895339
 20
2.441368306
 30
0.0
 10
6.5622781222
 20
2.4377654344
 30
0.0
 10
6.5560857568
 20
2.4338212142
 30
0.0
 10
6.5481855088
 20
2.429935842
 30
0.0
 10
6.5425570451
 20
2.4274688361
 30
0.0
 10
6.5352001391
 20
2.4247958153
 30
0.0
 10
6.5260044874
 20
2.422280119
 30
0.0
 10
6.5164862197
 20
2.4204631646
 30
0.0
 10
6.5067510779
 20
2.4193649587
 30
0.0
 10
6.4969068323
 20
2.4189975349
 30
0.0
 10
6.4870625867
 20
2.4193649587
 30
0.0
 10
6.4773274449
 20
2.4204631646
 30
0.0
 10
6.4678091772
 20
2.422280119
 30
0.0
 10
6.4586135255
 20
2.4247958153
 30
0.0
 10
6.4512566194
 20
2.4274688361
 30
0.0
 10
6.4456281557
 20
2.429935842
 30
0.0
 10
6.4377279078
 20
2.4338212142
 30
0.0
 10
6.4315355424
 20
2.4377654344
 30
0.0
 10
6.4270241307
 20
2.441368306
 30
0.0
  0
LINE
  5
395
100
AcDbEntity
  8
0
100
AcDbLine
 62
7
  6
CONTINUOUS
 10
6.7452371732
 20
2.2670753088
 11
6.7451577398
 21
2.267146723
  0
SPLINE
  5
396
100
AcDbEntity
  8
0
100
AcDbSpline
 62
7
  6
CONTINUOUS
 70
0
 71
3
 72
27
 73
23
 74
0
 42
0.0000001
 43
0.0000001
 44
0.0000000001
 40
0.0
 40
0.0
 40
0.0
 40
0.0
 40
0.0025070329
 40
0.0056876031
 40
0.0095421875
 40
0.0140612077
 40
0.0250326633
 40
0.0384766752
 40
0.0542624374
 40
0.0722696988
 40
0.0923913492
 40
0.11453361
 40
0.1645796009
 40
0.2219201676
 40
0.2861661924
 40
0.3563971778
 40
0.4311883416
 40
0.5091648824
 40
0.5892109262
 40
0.6705078295
 40
0.8348886156
 40
1.0
 40
1.0
 40
1.0
 40
1.0
 10
6.7451577398
 20
2.267146723
 30
0.0
 10
6.7451455392
 20
2.2671688359
 30
0.0
 10
6.7451225008
 20
2.2672215137
 30
0.0
 10
6.7450921881
 20
2.2673127808
 30
0.0
 10
6.7450622095
 20
2.2674253119
 30
0.0
 10
6.7450200133
 20
2.2676156017
 30
0.0
 10
6.7449704814
 20
2.2679029813
 30
0.0
 10
6.7449157272
 20
2.268304277
 30
0.0
 10
6.7448629379
 20
2.2687772372
 30
0.0
 10
6.7448122497
 20
2.2693180116
 30
0.0
 10
6.7447638417
 20
2.2699232548
 30
0.0
 10
6.7446999
 20
2.2708509805
 30
0.0
 10
6.7446285168
 20
2.2721539375
 30
0.0
 10
6.7445574219
 20
2.2738815103
 30
0.0
 10
6.744501276
 20
2.2758130698
 30
0.0
 10
6.7444609813
 20
2.2779208381
 30
0.0
 10
6.7444349624
 20
2.2801671492
 30
0.0
 10
6.7444208912
 20
2.2825124367
 30
0.0
 10
6.7444159222
 20
2.2849232942
 30
0.0
 10
6.7444175888
 20
2.2882045745
 30
0.0
 10
6.7444283846
 20
2.2923427713
 30
0.0
 10
6.7444343474
 20
2.2956620101
 30
0.0
 10
6.7444343474
 20
2.2973253106
 30
0.0
  0
SPLINE
  5
397
100
AcDbEntity
  8
0
100
AcDbSpline
 62
7
  6
CONTINUOUS
 70
0
 71
3
 72
23
 73
19
 74
0
 42
0.0000001
 43
0.0000001
 44
0.0000000001
 40
0.0
 40
0.0
 40
0.0
 40
0.0
 40
0.1169601295
 40
0.1473153343
 40
0.1780601773
 40
0.2405988878
 40
0.3043477293
 40
0.3690325895
 40
0.4343549166
 40
0.5
 40
0.5656450834
 40
0.6309674105
 40
0.6956522707
 40
0.7594011122
 40
0.8219398227
 40
0.8526846657
 40
0.8830398705
 40
1.0
 40
1.0
 40
1.0
 40
1.0
 10
6.4164934197
 20
2.6038677594
 30
0.0
 10
6.4218808051
 20
2.5999836155
 30
0.0
 10
6.4291594035
 20
2.5957383688
 30
0.0
 10
6.4383641659
 20
2.5915560936
 30
0.0
 10
6.4448707464
 20
2.5889126655
 30
0.0
 10
6.4533267037
 20
2.5860524743
 30
0.0
 10
6.4638424772
 20
2.5833632954
 30
0.0
 10
6.4746823618
 20
2.5814235301
 30
0.0
 10
6.4857398886
 20
2.5802520862
 30
0.0
 10
6.4969068323
 20
2.5798603287
 30
0.0
 10
6.508073776
 20
2.5802520862
 30
0.0
 10
6.5191313028
 20
2.5814235301
 30
0.0
 10
6.5299711874
 20
2.5833632954
 30
0.0
 10
6.5404869609
 20
2.5860524743
 30
0.0
 10
6.5489429182
 20
2.5889126655
 30
0.0
 10
6.5554494987
 20
2.5915560936
 30
0.0
 10
6.5646542611
 20
2.5957383688
 30
0.0
 10
6.5719328595
 20
2.5999836155
 30
0.0
 10
6.5773202449
 20
2.6038677594
 30
0.0
  0
SPLINE
  5
398
100
AcDbEntity
  8
0
100
AcDbSpline
 62
7
  6
CONTINUOUS
 70
0
 71
3
 72
9
 73
5
 74
0
 42
0.0000001
 43
0.0000001
 44
0.0000000001
 40
0.0
 40
0.0
 40
0.0
 40
0.0
 40
0.2578931738
 40
1.0
 40
1.0
 40
1.0
 40
1.0
 10
6.5632864164
 20
2.0628265758
 30
0.0
 10
6.5636109203
 20
2.0630502204
 30
0.0
 10
6.5648497226
 20
2.0639448546
 30
0.0
 10
6.5660065781
 20
2.0649567951
 30
0.0
 10
6.5667895339
 20
2.0657772185
 30
0.0
  0
SPLINE
  5
399
100
AcDbEntity
  8
0
100
AcDbSpline
 62
7
  6
CONTINUOUS
 70
0
 71
3
 72
15
 73
11
 74
0
 42
0.0000001
 43
0.0000001
 44
0.0000000001
 40
0.0
 40
0.0
 40
0.0
 40
0.0
 40
0.1378598858
 40
0.27042537
 40
0.3983802557
 40
0.5225836525
 40
0.6439835548
 40
0.7635096345
 40
0.8819770621
 40
1.0
 40
1.0
 40
1.0
 40
1.0
 10
3.3424546844
 20
2.4918679085
 30
0.0
 10
3.3424546844
 20
2.49374487
 30
0.0
 10
3.342295741
 20
2.4974293089
 30
0.0
 10
3.3415487423
 20
2.5028099465
 30
0.0
 10
3.3403115223
 20
2.5079091741
 30
0.0
 10
3.3386070558
 20
2.5127106881
 30
0.0
 10
3.336466691
 20
2.517207117
 30
0.0
 10
3.3339283279
 20
2.5213995032
 30
0.0
 10
3.3310352286
 20
2.5252965047
 30
0.0
 10
3.3288989164
 20
2.5277109316
 30
0.0
 10
3.3277895339
 20
2.5288734026
 30
0.0
  0
SPLINE
  5
39A
100
AcDbEntity
  8
0
100
AcDbSpline
 62
7
  6
CONTINUOUS
 70
0
 71
3
 72
9
 73
5
 74
0
 42
0.0000001
 43
0.0000001
 44
0.0000000001
 40
0.0
 40
0.0
 40
0.0
 40
0.0
 40
0.2427253323
 40
1.0
 40
1.0
 40
1.0
 40
1.0
 10
3.3277895339
 20
2.5288734026
 30
0.0
 10
3.3275334297
 20
2.5291417624
 30
0.0
 10
3.3264455981
 20
2.5302160709
 30
0.0
 10
3.3252393781
 20
2.5311672724
 30
0.0
 10
3.3242864421
 20
2.5318240277
 30
0.0
  0
LINE
  5
39B
100
AcDbEntity
  8
0
100
AcDbLine
 62
7
  6
CONTINUOUS
 10
6.7449250736
 20
2.2553536812
 11
6.7451795617
 21
2.2562018966
  0
SPLINE
  5
39C
100
AcDbEntity
  8
0
100
AcDbSpline
 62
7
  6
CONTINUOUS
 70
0
 71
3
 72
14
 73
10
 74
0
 42
0.0000001
 43
0.0000001
 44
0.0000000001
 40
0.0
 40
0.0
 40
0.0
 40
0.0
 40
0.0689469768
 40
0.1540156904
 40
0.2551278794
 40
0.3722415665
 40
0.5053361623
 40
0.6544026647
 40
1.0
 40
1.0
 40
1.0
 40
1.0
 10
6.7451795617
 20
2.2562018966
 30
0.0
 10
6.7452341003
 20
2.2564458266
 30
0.0
 10
6.7453377384
 20
2.2569947569
 30
0.0
 10
6.7454755496
 20
2.2579094413
 30
0.0
 10
6.7456106886
 20
2.2590007435
 30
0.0
 10
6.7457424655
 20
2.2602676014
 30
0.0
 10
6.745870238
 20
2.2617094841
 30
0.0
 10
6.7460431169
 20
2.2639787533
 30
0.0
 10
6.7461510123
 20
2.2657689303
 30
0.0
 10
6.7462183086
 20
2.267020011
 30
0.0
  0
SPLINE
  5
39D
100
AcDbEntity
  8
0
100
AcDbSpline
 62
7
  6
CONTINUOUS
 70
0
 71
3
 72
15
 73
11
 74
0
 42
0.0000001
 43
0.0000001
 44
0.0000000001
 40
0.0
 40
0.0
 40
0.0
 40
0.0
 40
0.1180230005
 40
0.2364905753
 40
0.3560168448
 40
0.4774170172
 40
0.6016206134
 40
0.7295755251
 40
0.8621406663
 40
1.0
 40
1.0
 40
1.0
 40
1.0
 10
3.1880241307
 20
2.5288734026
 30
0.0
 10
3.1869147476
 20
2.527710931
 30
0.0
 10
3.1847784337
 20
2.5252965019
 30
0.0
 10
3.1818853316
 20
2.5213994957
 30
0.0
 10
3.1793469657
 20
2.5172071015
 30
0.0
 10
3.1772065997
 20
2.5127106633
 30
0.0
 10
3.1755021338
 20
2.5079091419
 30
0.0
 10
3.174264918
 20
2.5028099151
 30
0.0
 10
3.1735179222
 20
2.4974292891
 30
0.0
 10
3.1733589802
 20
2.4937448625
 30
0.0
 10
3.1733589802
 20
2.4918679085
 30
0.0
  0
SPLINE
  5
39E
100
AcDbEntity
  8
0
100
AcDbSpline
 62
7
  6
CONTINUOUS
 70
0
 71
3
 72
37
 73
33
 74
0
 42
0.0000001
 43
0.0000001
 44
0.0000000001
 40
0.0
 40
0.0
 40
0.0
 40
0.0
 40
0.0699831809
 40
0.1042122757
 40
0.1378983332
 40
0.1710196687
 40
0.2035587459
 40
0.2355037196
 40
0.2668509153
 40
0.2976070464
 40
0.327791425
 40
0.3574384506
 40
0.3865993389
 40
0.4153428645
 40
0.4437549495
 40
0.4719365872
 40
0.5
 40
0.5280634128
 40
0.5562450506
 40
0.5846571356
 40
0.6134006612
 40
0.6425615495
 40
0.672208575
 40
0.7023929537
 40
0.7331490847
 40
0.7644962804
 40
0.7964412541
 40
0.8289803313
 40
0.8621016668
 40
0.8957877243
 40
0.9300168191
 40
1.0
 40
1.0
 40
1.0
 40
1.0
 10
3.9774068323
 20
1.9364813923
 30
0.0
 10
3.9808712956
 20
1.9399458556
 30
0.0
 10
3.9859209937
 20
1.9452170738
 30
0.0
 10
3.9923153731
 20
1.9524513632
 30
0.0
 10
3.9968429064
 20
1.9578876016
 30
0.0
 10
4.001118882
 20
1.9633748097
 30
0.0
 10
4.005123842
 20
1.9689134555
 30
0.0
 10
4.0088373711
 20
1.9745034258
 30
0.0
 10
4.0122385201
 20
1.9801439349
 30
0.0
 10
4.0153059876
 20
1.9858334656
 30
0.0
 10
4.0180186022
 20
1.9915695982
 30
0.0
 10
4.0203559065
 20
1.9973488652
 30
0.0
 10
4.0222986862
 20
2.0031667078
 30
0.0
 10
4.023829639
 20
2.0090174029
 30
0.0
 10
4.0249343292
 20
2.0148940184
 30
0.0
 10
4.0256017831
 20
2.0207885924
 30
0.0
 10
4.0258250777
 20
2.0266923719
 30
0.0
 10
4.0256017831
 20
2.0325961514
 30
0.0
 10
4.0249343292
 20
2.0384907254
 30
0.0
 10
4.023829639
 20
2.0443673408
 30
0.0
 10
4.0222986862
 20
2.050218036
 30
0.0
 10
4.0203559065
 20
2.0560358785
 30
0.0
 10
4.0180186022
 20
2.0618151456
 30
0.0
 10
4.0153059876
 20
2.0675512782
 30
0.0
 10
4.0122385201
 20
2.0732408089
 30
0.0
 10
4.0088373711
 20
2.078881318
 30
0.0
 10
4.005123842
 20
2.0844712883
 30
0.0
 10
4.001118882
 20
2.0900099341
 30
0.0
 10
3.9968429064
 20
2.0954971421
 30
0.0
 10
3.9923153731
 20
2.1009333805
 30
0.0
 10
3.9859209937
 20
2.10816767
 30
0.0
 10
3.9808712956
 20
2.1134388881
 30
0.0
 10
3.9774068323
 20
2.1169033514
 30
0.0
  0
SPLINE
  5
39F
100
AcDbEntity
  8
0
100
AcDbSpline
 62
7
  6
CONTINUOUS
 70
0
 71
3
 72
25
 73
21
 74
0
 42
0.0000001
 43
0.0000001
 44
0.0000000001
 40
0.0
 40
0.0
 40
0.0
 40
0.0
 40
0.0043449577
 40
0.0095674065
 40
0.0161907519
 40
0.0244598716
 40
0.0344863557
 40
0.0463220009
 40
0.0599947724
 40
0.0755188443
 40
0.112133383
 40
0.1561680055
 40
0.2075978963
 40
0.2663917358
 40
0.332534414
 40
0.4060121131
 40
0.4868190689
 40
0.5749506568
 40
0.7731560699
 40
1.0
 40
1.0
 40
1.0
 40
1.0
 10
6.7451759788
 20
2.3395751394
 30
0.0
 10
6.7451945907
 20
2.3395751938
 30
0.0
 10
6.7452358253
 20
2.3395641371
 30
0.0
 10
6.7452910881
 20
2.3395205011
 30
0.0
 10
6.7453448915
 20
2.3394526644
 30
0.0
 10
6.7453983586
 20
2.339359984
 30
0.0
 10
6.7454518202
 20
2.3392423663
 30
0.0
 10
6.7455052662
 20
2.3390997495
 30
0.0
 10
6.7455586463
 20
2.3389322283
 30
0.0
 10
6.7456338304
 20
2.3386604757
 30
0.0
 10
6.7457250258
 20
2.3382585293
 30
0.0
 10
6.7458286761
 20
2.3377022532
 30
0.0
 10
6.7459311498
 20
2.3370493953
 30
0.0
 10
6.7460321762
 20
2.336300658
 30
0.0
 10
6.7461314332
 20
2.3354565166
 30
0.0
 10
6.7462286897
 20
2.3345172962
 30
0.0
 10
6.7463237274
 20
2.3334832254
 30
0.0
 10
6.7464522882
 20
2.3319157779
 30
0.0
 10
6.7466034836
 20
2.3297226418
 30
0.0
 10
6.746705504
 20
2.3279047296
 30
0.0
 10
6.7467553273
 20
2.3269343038
 30
0.0
  0
SPLINE
  5
3A0
100
AcDbEntity
  8
0
100
AcDbSpline
 62
7
  6
CONTINUOUS
 70
0
 71
3
 72
12
 73
8
 74
0
 42
0.0000001
 43
0.0000001
 44
0.0000000001
 40
0.0
 40
0.0
 40
0.0
 40
0.0
 40
0.1063348875
 40
0.2209731245
 40
0.4684313345
 40
0.7308557476
 40
1.0
 40
1.0
 40
1.0
 40
1.0
 10
6.7467553273
 20
2.3269343038
 30
0.0
 10
6.7468070813
 20
2.3259262718
 30
0.0
 10
6.7469042647
 20
2.3238309551
 30
0.0
 10
6.7470753708
 20
2.3193877388
 30
0.0
 10
6.7472421773
 20
2.3134617912
 30
0.0
 10
6.7473675506
 20
2.3060679955
 30
0.0
 10
6.7474006541
 20
2.301022203
 30
0.0
 10
6.7474045178
 20
2.2984674155
 30
0.0
  0
LINE
  5
3A1
100
AcDbEntity
  8
0
100
AcDbLine
 62
7
  6
CONTINUOUS
 10
6.7474045178
 20
2.2984674155
 11
6.7474053813
 21
2.2973253106
  0
SPLINE
  5
3A2
100
AcDbEntity
  8
0
100
AcDbSpline
 62
7
  6
CONTINUOUS
 70
0
 71
3
 72
35
 73
31
 74
0
 42
0.0000001
 43
0.0000001
 44
0.0000000001
 40
0.0
 40
0.0
 40
0.0
 40
0.0
 40
0.0371478489
 40
0.0730838591
 40
0.1078945526
 40
0.1416764093
 40
0.1745259899
 40
0.2065411309
 40
0.23781829
 40
0.2684509369
 40
0.2985286603
 40
0.3281363392
 40
0.3573536488
 40
0.3862551326
 40
0.443365227
 40
0.5000000001
 40
0.5566347734
 40
0.6137448678
 40
0.6426463515
 40
0.6718636612
 40
0.7014713401
 40
0.7315490634
 40
0.7621817104
 40
0.7934588697
 40
0.8254740108
 40
0.8583235917
 40
0.8921054487
 40
0.9269161421
 40
0.9628521515
 40
1.0
 40
1.0
 40
1.0
 40
1.0
 10
3.8774068323
 20
2.1169033514
 30
0.0
 10
3.8754394859
 20
2.1152490773
 30
0.0
 10
3.8716514414
 20
2.1118947034
 30
0.0
 10
3.8663311975
 20
2.1066522726
 30
0.0
 10
3.8614601693
 20
2.1013007028
 30
0.0
 10
3.8570265253
 20
2.0958543445
 30
0.0
 10
3.8530170416
 20
2.0903258532
 30
0.0
 10
3.8494179082
 20
2.0847268899
 30
0.0
 10
3.8462150104
 20
2.0790679088
 30
0.0
 10
3.84339433
 20
2.073358298
 30
0.0
 10
3.840942247
 20
2.0676064248
 30
0.0
 10
3.8388459763
 20
2.0618197689
 30
0.0
 10
3.8370937836
 20
2.0560046873
 30
0.0
 10
3.8352100765
 20
2.0482539245
 30
0.0
 10
3.8336524316
 20
2.0384867087
 30
0.0
 10
3.8330331546
 20
2.0266923718
 30
0.0
 10
3.8336524316
 20
2.0148980349
 30
0.0
 10
3.8352100766
 20
2.0051308192
 30
0.0
 10
3.8370937836
 20
1.9973800563
 30
0.0
 10
3.8388459763
 20
1.9915649748
 30
0.0
 10
3.840942247
 20
1.9857783189
 30
0.0
 10
3.84339433
 20
1.9800264457
 30
0.0
 10
3.8462150104
 20
1.9743168348
 30
0.0
 10
3.8494179083
 20
1.9686578538
 30
0.0
 10
3.8530170417
 20
1.9630588904
 30
0.0
 10
3.8570265254
 20
1.9575303991
 30
0.0
 10
3.8614601694
 20
1.9520840408
 30
0.0
 10
3.8663311976
 20
1.9467324711
 30
0.0
 10
3.8716514415
 20
1.9414900403
 30
0.0
 10
3.8754394859
 20
1.9381356664
 30
0.0
 10
3.8774068323
 20
1.9364813923
 30
0.0
  0
SPLINE
  5
3A3
100
AcDbEntity
  8
0
100
AcDbSpline
 62
7
  6
CONTINUOUS
 70
0
 71
3
 72
29
 73
25
 74
0
 42
0.0000001
 43
0.0000001
 44
0.0000000001
 40
0.0
 40
0.0
 40
0.0
 40
0.0
 40
0.062499924
 40
0.1249989857
 40
0.1874971583
 40
0.2499941022
 40
0.3124897814
 40
0.3437414089
 40
0.3749930764
 40
0.4062448031
 40
0.4374965271
 40
0.468748251
 40
0.5
 40
0.5312517491
 40
0.5625034729
 40
0.593755197
 40
0.6250069236
 40
0.6562585912
 40
0.6875102186
 40
0.7500058979
 40
0.8125028418
 40
0.8750010143
 40
0.937500076
 40
1.0
 40
1.0
 40
1.0
 40
1.0
 10
3.9774068323
 20
2.1169033514
 30
0.0
 10
3.9809193364
 20
2.1239283595
 30
0.0
 10
3.9876992949
 20
2.1381028711
 30
0.0
 10
3.9970059559
 20
2.1597568773
 30
0.0
 10
4.0053053967
 20
2.1818190178
 30
0.0
 10
4.012436571
 20
2.2042877073
 30
0.0
 10
4.0172641997
 20
2.2233343073
 30
0.0
 10
4.0203735449
 20
2.2387343506
 30
0.0
 10
4.0223111418
 20
2.2503583572
 30
0.0
 10
4.023837156
 20
2.2620435931
 30
0.0
 10
4.0249377698
 20
2.273776705
 30
0.0
 10
4.0256025193
 20
2.2855426483
 30
0.0
 10
4.0258248662
 20
2.2973253106
 30
0.0
 10
4.0256025193
 20
2.3091079728
 30
0.0
 10
4.0249377698
 20
2.3208739161
 30
0.0
 10
4.023837156
 20
2.3326070281
 30
0.0
 10
4.0223111418
 20
2.344292264
 30
0.0
 10
4.0203735449
 20
2.3559162705
 30
0.0
 10
4.0172641996
 20
2.3713163139
 30
0.0
 10
4.012436571
 20
2.3903629139
 30
0.0
 10
4.0053053967
 20
2.4128316034
 30
0.0
 10
3.9970059559
 20
2.4348937438
 30
0.0
 10
3.9876992949
 20
2.4565477501
 30
0.0
 10
3.9809193364
 20
2.4707222616
 30
0.0
 10
3.9774068323
 20
2.4777472697
 30
0.0
  0
SPLINE
  5
3A4
100
AcDbEntity
  8
0
100
AcDbSpline
 62
7
  6
CONTINUOUS
 70
0
 71
3
 72
23
 73
19
 74
0
 42
0.0000001
 43
0.0000001
 44
0.0000000001
 40
0.0
 40
0.0
 40
0.0
 40
0.0
 40
0.0624951733
 40
0.1249918422
 40
0.187490435
 40
0.249990631
 40
0.3124919447
 40
0.3749941649
 40
0.4374969524
 40
0.5000000001
 40
0.5625030477
 40
0.6250058352
 40
0.6875080554
 40
0.7500093691
 40
0.8125095651
 40
0.8750081579
 40
0.9375048268
 40
1.0
 40
1.0
 40
1.0
 40
1.0
 10
3.8774068323
 20
2.4777472697
 30
0.0
 10
3.8734057113
 20
2.4710184589
 30
0.0
 10
3.866024578
 20
2.4571822338
 30
0.0
 10
3.856755815
 20
2.4355762821
 30
0.0
 10
3.8491806733
 20
2.4133217634
 30
0.0
 10
3.8431867105
 20
2.3905940069
 30
0.0
 10
3.8386619849
 20
2.3675310099
 30
0.0
 10
3.835508236
 20
2.3442426713
 30
0.0
 10
3.8336485812
 20
2.3208165515
 30
0.0
 10
3.8330342156
 20
2.2973253105
 30
0.0
 10
3.8336485812
 20
2.2738340696
 30
0.0
 10
3.835508236
 20
2.2504079498
 30
0.0
 10
3.8386619849
 20
2.2271196112
 30
0.0
 10
3.8431867105
 20
2.2040566142
 30
0.0
 10
3.8491806733
 20
2.1813288577
 30
0.0
 10
3.856755815
 20
2.1590743389
 30
0.0
 10
3.866024578
 20
2.1374683873
 30
0.0
 10
3.8734057113
 20
2.1236321622
 30
0.0
 10
3.8774068323
 20
2.1169033514
 30
0.0
  0
SPLINE
  5
3A5
100
AcDbEntity
  8
0
100
AcDbSpline
 62
7
  6
CONTINUOUS
 70
0
 71
3
 72
37
 73
33
 74
0
 42
0.0000001
 43
0.0000001
 44
0.0000000001
 40
0.0
 40
0.0
 40
0.0
 40
0.0
 40
0.0699831809
 40
0.1042122757
 40
0.1378983332
 40
0.1710196687
 40
0.2035587459
 40
0.2355037196
 40
0.2668509153
 40
0.2976070464
 40
0.327791425
 40
0.3574384506
 40
0.3865993389
 40
0.4153428645
 40
0.4437549495
 40
0.4719365872
 40
0.5
 40
0.5280634128
 40
0.5562450506
 40
0.5846571356
 40
0.6134006612
 40
0.6425615495
 40
0.672208575
 40
0.7023929537
 40
0.7331490847
 40
0.7644962804
 40
0.7964412541
 40
0.8289803313
 40
0.8621016668
 40
0.8957877243
 40
0.9300168191
 40
1.0
 40
1.0
 40
1.0
 40
1.0
 10
3.9774068323
 20
2.4777472697
 30
0.0
 10
3.9808712956
 20
2.481211733
 30
0.0
 10
3.9859209937
 20
2.4864829511
 30
0.0
 10
3.9923153731
 20
2.4937172406
 30
0.0
 10
3.9968429064
 20
2.499153479
 30
0.0
 10
4.001118882
 20
2.5046406871
 30
0.0
 10
4.005123842
 20
2.5101793328
 30
0.0
 10
4.0088373711
 20
2.5157693031
 30
0.0
 10
4.0122385201
 20
2.5214098122
 30
0.0
 10
4.0153059876
 20
2.5270993429
 30
0.0
 10
4.0180186022
 20
2.5328354755
 30
0.0
 10
4.0203559065
 20
2.5386147426
 30
0.0
 10
4.0222986862
 20
2.5444325851
 30
0.0
 10
4.023829639
 20
2.5502832803
 30
0.0
 10
4.0249343292
 20
2.5561598958
 30
0.0
 10
4.0256017831
 20
2.5620544697
 30
0.0
 10
4.0258250777
 20
2.5679582492
 30
0.0
 10
4.0256017831
 20
2.5738620288
 30
0.0
 10
4.0249343292
 20
2.5797566027
 30
0.0
 10
4.023829639
 20
2.5856332182
 30
0.0
 10
4.0222986862
 20
2.5914839134
 30
0.0
 10
4.0203559065
 20
2.5973017559
 30
0.0
 10
4.0180186022
 20
2.603081023
 30
0.0
 10
4.0153059876
 20
2.6088171556
 30
0.0
 10
4.0122385201
 20
2.6145066863
 30
0.0
 10
4.0088373711
 20
2.6201471954
 30
0.0
 10
4.005123842
 20
2.6257371656
 30
0.0
 10
4.001118882
 20
2.6312758114
 30
0.0
 10
3.9968429064
 20
2.6367630195
 30
0.0
 10
3.9923153731
 20
2.6421992579
 30
0.0
 10
3.9859209937
 20
2.6494335474
 30
0.0
 10
3.9808712956
 20
2.6547047655
 30
0.0
 10
3.9774068323
 20
2.6581692288
 30
0.0
  0
SPLINE
  5
3A6
100
AcDbEntity
  8
0
100
AcDbSpline
 62
7
  6
CONTINUOUS
 70
0
 71
3
 72
35
 73
31
 74
0
 42
0.0000001
 43
0.0000001
 44
0.0000000001
 40
0.0
 40
0.0
 40
0.0
 40
0.0
 40
0.0371478483
 40
0.0730838566
 40
0.1078945497
 40
0.1416764069
 40
0.1745259877
 40
0.206541129
 40
0.2378182886
 40
0.2684509357
 40
0.2985286593
 40
0.3281363383
 40
0.3573536481
 40
0.386255132
 40
0.4433652266
 40
0.4999999999
 40
0.5566347732
 40
0.6137448677
 40
0.6426463516
 40
0.6718636613
 40
0.7014713404
 40
0.731549064
 40
0.762181711
 40
0.7934588705
 40
0.8254740115
 40
0.8583235921
 40
0.8921054489
 40
0.9269161421
 40
0.9628521513
 40
1.0
 40
1.0
 40
1.0
 40
1.0
 10
3.8774068323
 20
2.6581692288
 30
0.0
 10
3.8754394859
 20
2.6565149547
 30
0.0
 10
3.8716514416
 20
2.6531605809
 30
0.0
 10
3.8663311978
 20
2.6479181502
 30
0.0
 10
3.8614601696
 20
2.6425665806
 30
0.0
 10
3.8570265256
 20
2.6371202223
 30
0.0
 10
3.8530170418
 20
2.6315917309
 30
0.0
 10
3.8494179084
 20
2.6259927676
 30
0.0
 10
3.8462150105
 20
2.6203337865
 30
0.0
 10
3.8433943301
 20
2.6146241756
 30
0.0
 10
3.8409422471
 20
2.6088723024
 30
0.0
 10
3.8388459764
 20
2.6030856464
 30
0.0
 10
3.8370937836
 20
2.5972705649
 30
0.0
 10
3.8352100766
 20
2.5895198019
 30
0.0
 10
3.8336524316
 20
2.5797525862
 30
0.0
 10
3.8330331546
 20
2.5679582493
 30
0.0
 10
3.8336524316
 20
2.5561639123
 30
0.0
 10
3.8352100766
 20
2.5463966966
 30
0.0
 10
3.8370937836
 20
2.5386459337
 30
0.0
 10
3.8388459764
 20
2.5328308522
 30
0.0
 10
3.840942247
 20
2.5270441962
 30
0.0
 10
3.8433943301
 20
2.521292323
 30
0.0
 10
3.8462150105
 20
2.5155827121
 30
0.0
 10
3.8494179084
 20
2.509923731
 30
0.0
 10
3.8530170418
 20
2.5043247677
 30
0.0
 10
3.8570265255
 20
2.4987962764
 30
0.0
 10
3.8614601694
 20
2.4933499181
 30
0.0
 10
3.8663311976
 20
2.4879983484
 30
0.0
 10
3.8716514415
 20
2.4827559176
 30
0.0
 10
3.8754394859
 20
2.4794015438
 30
0.0
 10
3.8774068323
 20
2.4777472697
 30
0.0
  0
SPLINE
  5
3A7
100
AcDbEntity
  8
0
100
AcDbSpline
 62
7
  6
CONTINUOUS
 70
0
 71
3
 72
14
 73
10
 74
0
 42
0.0000001
 43
0.0000001
 44
0.0000000001
 40
0.0
 40
0.0
 40
0.0
 40
0.0
 40
0.2716448101
 40
0.4030340826
 40
0.5308707991
 40
0.6547523541
 40
0.7743499634
 40
0.8894498408
 40
1.0
 40
1.0
 40
1.0
 40
1.0
 10
3.3277895339
 20
2.441368306
 30
0.0
 10
3.3299661547
 20
2.4456507779
 30
0.0
 10
3.3330024729
 20
2.4521094947
 30
0.0
 10
3.3364159061
 20
2.4608584173
 30
0.0
 10
3.3385542016
 20
2.4672907782
 30
0.0
 10
3.3402629087
 20
2.4736352803
 30
0.0
 10
3.3415113058
 20
2.4798576555
 30
0.0
 10
3.3422753624
 20
2.4859207709
 30
0.0
 10
3.3424546844
 20
2.4899128943
 30
0.0
 10
3.3424546844
 20
2.4918679085
 30
0.0
  0
SPLINE
  5
3A8
100
AcDbEntity
  8
0
100
AcDbSpline
 62
7
  6
CONTINUOUS
 70
0
 71
3
 72
14
 73
10
 74
0
 42
0.0000001
 43
0.0000001
 44
0.0000000001
 40
0.0
 40
0.0
 40
0.0
 40
0.0
 40
0.1105506174
 40
0.2256508257
 40
0.3452484683
 40
0.4691298753
 40
0.5969663448
 40
0.7283554264
 40
1.0
 40
1.0
 40
1.0
 40
1.0
 10
3.1733589802
 20
2.4918679085
 30
0.0
 10
3.1733589802
 20
2.4899128862
 30
0.0
 10
3.1735383037
 20
2.4859207489
 30
0.0
 10
3.1743023633
 20
2.4798576191
 30
0.0
 10
3.1755507644
 20
2.4736352408
 30
0.0
 10
3.177259472
 20
2.4672907454
 30
0.0
 10
3.1793977661
 20
2.4608583949
 30
0.0
 10
3.1828111965
 20
2.452109484
 30
0.0
 10
3.1858475118
 20
2.4456507741
 30
0.0
 10
3.1880241307
 20
2.441368306
 30
0.0
  0
SPLINE
  5
3A9
100
AcDbEntity
  8
0
100
AcDbSpline
 62
7
  6
CONTINUOUS
 70
0
 71
3
 72
15
 73
11
 74
0
 42
0.0000001
 43
0.0000001
 44
0.0000000001
 40
0.0
 40
0.0
 40
0.0
 40
0.0
 40
0.1190526651
 40
0.2404726307
 40
0.3638893543
 40
0.4889545373
 40
0.6153562488
 40
0.7428158074
 40
0.8710987028
 40
1.0
 40
1.0
 40
1.0
 40
1.0
 10
3.1880241307
 20
2.441368306
 30
0.0
 10
3.1887221101
 20
2.439995041
 30
0.0
 10
3.1902692365
 20
2.4372892328
 30
0.0
 10
3.1929607134
 20
2.4334193733
 30
0.0
 10
3.1960118856
 20
2.4297248626
 30
0.0
 10
3.1993883357
 20
2.4262354975
 30
0.0
 10
3.2030572464
 20
2.4229761813
 30
0.0
 10
3.2069863563
 20
2.4199671442
 30
0.0
 10
3.2111436067
 20
2.4172238111
 30
0.0
 10
3.2140414001
 20
2.4155817848
 30
0.0
 10
3.2155185178
 20
2.4148071796
 30
0.0
  0
SPLINE
  5
3AA
100
AcDbEntity
  8
0
100
AcDbSpline
 62
7
  6
CONTINUOUS
 70
0
 71
3
 72
21
 73
17
 74
0
 42
0.0000001
 43
0.0000001
 44
0.0000000001
 40
0.0
 40
0.0
 40
0.0
 40
0.0
 40
0.1244689733
 40
0.1869048452
 40
0.249428558
 40
0.3120176847
 40
0.3746534199
 40
0.4373193476
 40
0.5000000097
 40
0.5626806682
 40
0.62534659
 40
0.6879823217
 40
0.7505714469
 40
0.8130951577
 40
0.8755310282
 40
1.0
 40
1.0
 40
1.0
 40
1.0
 10
3.2155185178
 20
2.4148071796
 30
0.0
 10
3.2187635859
 20
2.4131054557
 30
0.0
 10
3.2237801669
 20
2.4108090547
 30
0.0
 10
3.2306975489
 20
2.4083369879
 30
0.0
 10
3.2360010778
 20
2.4067892695
 30
0.0
 10
3.2413948123
 20
2.4055668484
 30
0.0
 10
3.2468587492
 20
2.4046831238
 30
0.0
 10
3.25237061
 20
2.4041485057
 30
0.0
 10
3.2579068331
 20
2.4039695418
 30
0.0
 10
3.2634430559
 20
2.4041485058
 30
0.0
 10
3.2689549163
 20
2.4046831239
 30
0.0
 10
3.274418853
 20
2.4055668485
 30
0.0
 10
3.2798125872
 20
2.4067892696
 30
0.0
 10
3.2851161159
 20
2.408336988
 30
0.0
 10
3.2920334978
 20
2.4108090547
 30
0.0
 10
3.2970500787
 20
2.4131054558
 30
0.0
 10
3.3002951468
 20
2.4148071796
 30
0.0
  0
SPLINE
  5
3AB
100
AcDbEntity
  8
0
100
AcDbSpline
 62
7
  6
CONTINUOUS
 70
0
 71
3
 72
15
 73
11
 74
0
 42
0.0000001
 43
0.0000001
 44
0.0000000001
 40
0.0
 40
0.0
 40
0.0
 40
0.0
 40
0.1289012959
 40
0.257184189
 40
0.384643746
 40
0.511045456
 40
0.6361106364
 40
0.7595273599
 40
0.8809473323
 40
1.0
 40
1.0
 40
1.0
 40
1.0
 10
3.3002951468
 20
2.4148071796
 30
0.0
 10
3.3017722645
 20
2.4155817848
 30
0.0
 10
3.3046700578
 20
2.417223811
 30
0.0
 10
3.3088273082
 20
2.4199671441
 30
0.0
 10
3.312756418
 20
2.4229761811
 30
0.0
 10
3.3164253287
 20
2.4262354974
 30
0.0
 10
3.3198017788
 20
2.4297248624
 30
0.0
 10
3.322852951
 20
2.4334193731
 30
0.0
 10
3.3255444281
 20
2.4372892327
 30
0.0
 10
3.3270915545
 20
2.439995041
 30
0.0
 10
3.3277895339
 20
2.441368306
 30
0.0
  0
SPLINE
  5
3AC
100
AcDbEntity
  8
0
100
AcDbSpline
 62
7
  6
CONTINUOUS
 70
0
 71
3
 72
22
 73
18
 74
0
 42
0.0000001
 43
0.0000001
 44
0.0000000001
 40
0.0
 40
0.0
 40
0.0
 40
0.0
 40
0.1534809861
 40
0.2277157735
 40
0.2999442409
 40
0.369938767
 40
0.4375132307
 40
0.5025465675
 40
0.5650078845
 40
0.6249752179
 40
0.6826409029
 40
0.7383008846
 40
0.792328742
 40
0.8451366125
 40
0.8971288598
 40
0.9486617754
 40
1.0
 40
1.0
 40
1.0
 40
1.0
 10
3.1880241307
 20
2.1532823151
 30
0.0
 10
3.1858475169
 20
2.148999857
 30
0.0
 10
3.1828112419
 20
2.1425411794
 30
0.0
 10
3.1793978304
 20
2.1337923129
 30
0.0
 10
3.1772595192
 20
2.1273599999
 30
0.0
 10
3.1755507942
 20
2.121015438
 30
0.0
 10
3.1743023604
 20
2.1147931069
 30
0.0
 10
3.1735383127
 20
2.1087295527
 30
0.0
 10
3.1732746086
 20
2.1028610811
 30
0.0
 10
3.1735179186
 20
2.0972216041
 30
0.0
 10
3.1742649197
 20
2.091840603
 30
0.0
 10
3.1755021693
 20
2.0867414148
 30
0.0
 10
3.1772066548
 20
2.0819398576
 30
0.0
 10
3.1793470433
 20
2.0774434625
 30
0.0
 10
3.1818853862
 20
2.0732510735
 30
0.0
 10
3.1847784864
 20
2.0693541121
 30
0.0
 10
3.1869147662
 20
2.0669396707
 30
0.0
 10
3.1880241307
 20
2.0657772185
 30
0.0
  0
SPLINE
  5
3AD
100
AcDbEntity
  8
0
100
AcDbSpline
 62
7
  6
CONTINUOUS
 70
0
 71
3
 72
9
 73
5
 74
0
 42
0.0000001
 43
0.0000001
 44
0.0000000001
 40
0.0
 40
0.0
 40
0.0
 40
0.0
 40
0.2427253626
 40
1.0
 40
1.0
 40
1.0
 40
1.0
 10
3.1880241307
 20
2.0657772185
 30
0.0
 10
3.1882802349
 20
2.0655088587
 30
0.0
 10
3.1893680665
 20
2.0644345502
 30
0.0
 10
3.1905742865
 20
2.0634833487
 30
0.0
 10
3.1915272225
 20
2.0628265934
 30
0.0
  0
SPLINE
  5
3AE
100
AcDbEntity
  8
0
100
AcDbSpline
 62
7
  6
CONTINUOUS
 70
0
 71
3
 72
22
 73
18
 74
0
 42
0.0000001
 43
0.0000001
 44
0.0000000001
 40
0.0
 40
0.0
 40
0.0
 40
0.0
 40
0.0513382317
 40
0.1028711452
 40
0.1548633758
 40
0.207671225
 40
0.2616990583
 40
0.317359018
 40
0.3750246938
 40
0.434992038
 40
0.4974533354
 40
0.5624866743
 40
0.6300611597
 40
0.7000557151
 40
0.7722842103
 40
0.8465190206
 40
1.0
 40
1.0
 40
1.0
 40
1.0
 10
3.3277895339
 20
2.0657772185
 30
0.0
 10
3.3288988986
 20
2.0669396709
 30
0.0
 10
3.3310351782
 20
2.0693541126
 30
0.0
 10
3.3339282786
 20
2.0732510734
 30
0.0
 10
3.3364666207
 20
2.0774434614
 30
0.0
 10
3.3386070085
 20
2.0819398546
 30
0.0
 10
3.3403114935
 20
2.0867414098
 30
0.0
 10
3.3415487433
 20
2.0918405961
 30
0.0
 10
3.3422957452
 20
2.0972215964
 30
0.0
 10
3.342539056
 20
2.1028610729
 30
0.0
 10
3.3422753527
 20
2.1087295443
 30
0.0
 10
3.3415113058
 20
2.1147930988
 30
0.0
 10
3.3402628722
 20
2.1210154316
 30
0.0
 10
3.3385541466
 20
2.1273599959
 30
0.0
 10
3.3364158348
 20
2.1337923114
 30
0.0
 10
3.3330024227
 20
2.1425411791
 30
0.0
 10
3.3299661476
 20
2.1489998572
 30
0.0
 10
3.3277895339
 20
2.1532823151
 30
0.0
  0
SPLINE
  5
3AF
100
AcDbEntity
  8
0
100
AcDbSpline
 62
7
  6
CONTINUOUS
 70
0
 71
3
 72
15
 73
11
 74
0
 42
0.0000001
 43
0.0000001
 44
0.0000000001
 40
0.0
 40
0.0
 40
0.0
 40
0.0
 40
0.1190526391
 40
0.2404725895
 40
0.3638893036
 40
0.4889544973
 40
0.6153562228
 40
0.7428157854
 40
0.8710986943
 40
1.0
 40
1.0
 40
1.0
 40
1.0
 10
3.3277895339
 20
2.1532823151
 30
0.0
 10
3.3270915546
 20
2.1546555798
 30
0.0
 10
3.3255444286
 20
2.1573613875
 30
0.0
 10
3.3228529521
 20
2.1612312466
 30
0.0
 10
3.3198017802
 20
2.1649257572
 30
0.0
 10
3.31642533
 20
2.1684151225
 30
0.0
 10
3.312756419
 20
2.1716744391
 30
0.0
 10
3.3088273089
 20
2.1746834765
 30
0.0
 10
3.3046700582
 20
2.1774268098
 30
0.0
 10
3.3017722646
 20
2.1790688363
 30
0.0
 10
3.3002951468
 20
2.1798434415
 30
0.0
  0
SPLINE
  5
3B0
100
AcDbEntity
  8
0
100
AcDbSpline
 62
7
  6
CONTINUOUS
 70
0
 71
3
 72
15
 73
11
 74
0
 42
0.0000001
 43
0.0000001
 44
0.0000000001
 40
0.0
 40
0.0
 40
0.0
 40
0.0
 40
0.1289013025
 40
0.2571842081
 40
0.3846437697
 40
0.5110454904
 40
0.6361106768
 40
0.7595273905
 40
0.8809473475
 40
1.0
 40
1.0
 40
1.0
 40
1.0
 10
3.2155185178
 20
2.1798434415
 30
0.0
 10
3.2140414001
 20
2.1790688363
 30
0.0
 10
3.2111436065
 20
2.1774268099
 30
0.0
 10
3.2069863558
 20
2.1746834767
 30
0.0
 10
3.2030572458
 20
2.1716744393
 30
0.0
 10
3.199388335
 20
2.1684151229
 30
0.0
 10
3.1960118849
 20
2.1649257577
 30
0.0
 10
3.1929607129
 20
2.1612312472
 30
0.0
 10
3.1902692362
 20
2.1573613879
 30
0.0
 10
3.1887221101
 20
2.15465558
 30
0.0
 10
3.1880241307
 20
2.1532823151
 30
0.0
  0
SPLINE
  5
3B1
100
AcDbEntity
  8
0
100
AcDbSpline
 62
7
  6
CONTINUOUS
 70
0
 71
3
 72
13
 73
9
 74
0
 42
0.0000001
 43
0.0000001
 44
0.0000000001
 40
0.0
 40
0.0
 40
0.0
 40
0.0
 40
0.2339644461
 40
0.356162387
 40
0.481263425
 40
0.6087849793
 40
0.7381796235
 40
1.0
 40
1.0
 40
1.0
 40
1.0
 10
6.4370118579
 20
2.0055761291
 30
0.0
 10
6.4410245957
 20
2.0084691778
 30
0.0
 10
6.4475740902
 20
2.012289329
 30
0.0
 10
6.4569310486
 20
2.016303288
 30
0.0
 10
6.4644466794
 20
2.0188456901
 30
0.0
 10
6.472279679
 20
2.0208486735
 30
0.0
 10
6.4830828113
 20
2.0227820262
 30
0.0
 10
6.4913709545
 20
2.0233603494
 30
0.0
 10
6.4969068323
 20
2.0233603494
 30
0.0
  0
SPLINE
  5
3B2
100
AcDbEntity
  8
0
100
AcDbSpline
 62
7
  6
CONTINUOUS
 70
0
 71
3
 72
13
 73
9
 74
0
 42
0.0000001
 43
0.0000001
 44
0.0000000001
 40
0.0
 40
0.0
 40
0.0
 40
0.0
 40
0.2339644461
 40
0.356162387
 40
0.481263425
 40
0.6087849793
 40
0.7381796235
 40
1.0
 40
1.0
 40
1.0
 40
1.0
 10
6.5568018067
 20
2.0055761291
 30
0.0
 10
6.5527890689
 20
2.0084691778
 30
0.0
 10
6.5462395744
 20
2.012289329
 30
0.0
 10
6.536882616
 20
2.016303288
 30
0.0
 10
6.5293669852
 20
2.0188456901
 30
0.0
 10
6.5215339856
 20
2.0208486735
 30
0.0
 10
6.5107308533
 20
2.0227820262
 30
0.0
 10
6.5024427101
 20
2.0233603494
 30
0.0
 10
6.4969068323
 20
2.0233603494
 30
0.0
  0
SPLINE
  5
3B3
100
AcDbEntity
  8
0
100
AcDbSpline
 62
7
  6
CONTINUOUS
 70
0
 71
3
 72
15
 73
11
 74
0
 42
0.0000001
 43
0.0000001
 44
0.0000000001
 40
0.0
 40
0.0
 40
0.0
 40
0.0
 40
0.233920258
 40
0.2946306693
 40
0.3561203536
 40
0.4811977838
 40
0.6086953798
 40
0.7380655505
 40
0.8687086889
 40
1.0
 40
1.0
 40
1.0
 40
1.0
 10
6.4164934197
 20
1.9907828617
 30
0.0
 10
6.4218808051
 20
1.9946670056
 30
0.0
 10
6.4291594033
 20
1.9989122525
 30
0.0
 10
6.4383641661
 20
2.0030945274
 30
0.0
 10
6.4448707458
 20
2.005737956
 30
0.0
 10
6.4533267089
 20
2.0085981444
 30
0.0
 10
6.4638424597
 20
2.0112873335
 30
0.0
 10
6.4746824344
 20
2.0132270747
 30
0.0
 10
6.4857395084
 20
2.0143985482
 30
0.0
 10
6.4931791481
 20
2.0146594922
 30
0.0
 10
6.4969068323
 20
2.0146594922
 30
0.0
  0
SPLINE
  5
3B4
100
AcDbEntity
  8
0
100
AcDbSpline
 62
7
  6
CONTINUOUS
 70
0
 71
3
 72
9
 73
5
 74
0
 42
0.0000001
 43
0.0000001
 44
0.0000000001
 40
0.0
 40
0.0
 40
0.0
 40
0.0
 40
0.4315786027
 40
1.0
 40
1.0
 40
1.0
 40
1.0
 10
6.7379948228
 20
2.3363253098
 30
0.0
 10
6.7379809989
 20
2.33632531
 30
0.0
 10
6.7379491488
 20
2.3363369464
 30
0.0
 10
6.7379262862
 20
2.3363600731
 30
0.0
 10
6.7379145269
 20
2.3363739734
 30
0.0
  0
LINE
  5
3B5
100
AcDbEntity
  8
0
100
AcDbLine
 62
7
  6
CONTINUOUS
 10
6.7379145269
 20
2.3363739734
 11
6.7378555774
 21
2.3364670428
  0
SPLINE
  5
3B6
100
AcDbEntity
  8
0
100
AcDbSpline
 62
7
  6
CONTINUOUS
 70
0
 71
3
 72
15
 73
11
 74
0
 42
0.0000001
 43
0.0000001
 44
0.0000000001
 40
0.0
 40
0.0
 40
0.0
 40
0.0
 40
0.233920258
 40
0.2946306693
 40
0.3561203536
 40
0.4811977838
 40
0.6086953798
 40
0.7380655505
 40
0.8687086889
 40
1.0
 40
1.0
 40
1.0
 40
1.0
 10
6.5773202449
 20
1.9907828617
 30
0.0
 10
6.5719328595
 20
1.9946670056
 30
0.0
 10
6.5646542613
 20
1.9989122525
 30
0.0
 10
6.5554494985
 20
2.0030945274
 30
0.0
 10
6.5489429188
 20
2.005737956
 30
0.0
 10
6.5404869557
 20
2.0085981444
 30
0.0
 10
6.5299712049
 20
2.0112873335
 30
0.0
 10
6.5191312302
 20
2.0132270747
 30
0.0
 10
6.5080741562
 20
2.0143985482
 30
0.0
 10
6.5006345165
 20
2.0146594922
 30
0.0
 10
6.4969068323
 20
2.0146594922
 30
0.0
  0
SPLINE
  5
3B7
100
AcDbEntity
  8
0
100
AcDbSpline
 62
7
  6
CONTINUOUS
 70
0
 71
3
 72
9
 73
5
 74
0
 42
0.0000001
 43
0.0000001
 44
0.0000000001
 40
0.0
 40
0.0
 40
0.0
 40
0.0
 40
0.2578931728
 40
1.0
 40
1.0
 40
1.0
 40
1.0
 10
3.1915272481
 20
2.5318240454
 30
0.0
 10
3.1912027443
 20
2.5316004007
 30
0.0
 10
3.189963942
 20
2.5307057665
 30
0.0
 10
3.1888070865
 20
2.529693826
 30
0.0
 10
3.1880241307
 20
2.5288734026
 30
0.0
  0
SPLINE
  5
3B8
100
AcDbEntity
  8
0
100
AcDbSpline
 62
7
  6
CONTINUOUS
 70
0
 71
3
 72
22
 73
18
 74
0
 42
0.0000001
 43
0.0000001
 44
0.0000000001
 40
0.0
 40
0.0
 40
0.0
 40
0.0
 40
0.1419079429
 40
0.2122258117
 40
0.2817535936
 40
0.3502522765
 40
0.4175040666
 40
0.4833179863
 40
0.5475355227
 40
0.6100365393
 40
0.6707452644
 40
0.7296361013
 40
0.7867389671
 40
0.8421436594
 40
0.8960024866
 40
0.9485301722
 40
1.0
 40
1.0
 40
1.0
 40
1.0
 10
3.2579068323
 20
2.0368956657
 30
0.0
 10
3.2526573839
 20
2.0368956657
 30
0.0
 10
3.2447948512
 20
2.0364127775
 30
0.0
 10
3.2344930412
 20
2.0347995851
 30
0.0
 10
3.2269646021
 20
2.0331230995
 30
0.0
 10
3.2196711737
 20
2.0309893946
 30
0.0
 10
3.2126673198
 20
2.028414411
 30
0.0
 10
3.2060062669
 20
2.0254174642
 30
0.0
 10
3.199738438
 20
2.0220209556
 30
0.0
 10
3.1939113846
 20
2.0182502212
 30
0.0
 10
3.1885693963
 20
2.014133318
 30
0.0
 10
3.1837532487
 20
2.0097008322
 30
0.0
 10
3.1794999579
 20
2.0049856478
 30
0.0
 10
3.1758426092
 20
2.0000229229
 30
0.0
 10
3.1728100334
 20
1.9948494727
 30
0.0
 10
3.1704269813
 20
1.9895054561
 30
0.0
 10
3.1692745069
 20
1.985823922
 30
0.0
 10
3.1688166549
 20
1.983975824
 30
0.0
  0
SPLINE
  5
3B9
100
AcDbEntity
  8
0
100
AcDbSpline
 62
7
  6
CONTINUOUS
 70
0
 71
3
 72
22
 73
18
 74
0
 42
0.0000001
 43
0.0000001
 44
0.0000000001
 40
0.0
 40
0.0
 40
0.0
 40
0.0
 40
0.1419061747
 40
0.2122232553
 40
0.281750367
 40
0.3502485292
 40
0.4174999739
 40
0.4833137413
 40
0.5475313264
 40
0.6100325895
 40
0.670741742
 40
0.7296331561
 40
0.7867367013
 40
0.842142112
 40
0.896001618
 40
0.948529852
 40
1.0
 40
1.0
 40
1.0
 40
1.0
 10
3.2579068323
 20
2.0368956657
 30
0.0
 10
3.2631559149
 20
2.0368956657
 30
0.0
 10
3.2710179013
 20
2.0364128445
 30
0.0
 10
3.281319021
 20
2.0347998766
 30
0.0
 10
3.2888469835
 20
2.0331236219
 30
0.0
 10
3.2961399837
 20
2.0309902077
 30
0.0
 10
3.3031434688
 20
2.0284155705
 30
0.0
 10
3.3098042225
 20
2.0254190204
 30
0.0
 10
3.316071831
 20
2.0220229529
 30
0.0
 10
3.3218987511
 20
2.0182526971
 30
0.0
 10
3.3272407006
 20
2.0141363027
 30
0.0
 10
3.3320569101
 20
2.009704348
 30
0.0
 10
3.3363103683
 20
2.0049897085
 30
0.0
 10
3.3399679938
 20
2.0000275336
 30
0.0
 10
3.3430009585
 20
1.9948546288
 30
0.0
 10
3.3453845123
 20
1.9895111428
 30
0.0
 10
3.3465374026
 20
1.9858299388
 30
0.0
 10
3.34699548
 20
1.9839819967
 30
0.0
  0
SPLINE
  5
3BA
100
AcDbEntity
  8
0
100
AcDbSpline
 62
7
  6
CONTINUOUS
 70
0
 71
3
 72
23
 73
19
 74
0
 42
0.0000001
 43
0.0000001
 44
0.0000000001
 40
0.0
 40
0.0
 40
0.0
 40
0.0
 40
0.1432308153
 40
0.2141341817
 40
0.284154642
 40
0.353028792
 40
0.4205191268
 40
0.4864217009
 40
0.5505731366
 40
0.6128580854
 40
0.6432873124
 40
0.6732325267
 40
0.7316667941
 40
0.7882477343
 40
0.8431190959
 40
0.8964986638
 40
0.9486753249
 40
1.0
 40
1.0
 40
1.0
 40
1.0
 10
3.2579068323
 20
2.0397937999
 30
0.0
 10
3.252127214
 20
2.0397937999
 30
0.0
 10
3.2434719297
 20
2.0392340465
 30
0.0
 10
3.2321534469
 20
2.0373636444
 30
0.0
 10
3.2239060722
 20
2.0354220361
 30
0.0
 10
3.2159451654
 20
2.0329536518
 30
0.0
 10
3.208336805
 20
2.0299789253
 30
0.0
 10
3.2011450431
 20
2.0265224936
 30
0.0
 10
3.1944306366
 20
2.0226132133
 30
0.0
 10
3.1892393657
 20
2.0189762971
 30
0.0
 10
3.1853850132
 20
2.0158686906
 30
0.0
 10
3.1817943208
 20
2.0126899818
 30
0.0
 10
3.1776926014
 20
2.0085055014
 30
0.0
 10
3.1734071979
 20
2.003139019
 30
0.0
 10
3.1698351614
 20
1.9975119798
 30
0.0
 10
3.1670086338
 20
1.9916711713
 30
0.0
 10
3.1649537601
 20
1.9856673597
 30
0.0
 10
3.1641060309
 20
1.9815640865
 30
0.0
 10
3.1638194615
 20
1.9795129666
 30
0.0
  0
SPLINE
  5
3BB
100
AcDbEntity
  8
0
100
AcDbSpline
 62
7
  6
CONTINUOUS
 70
0
 71
3
 72
21
 73
17
 74
0
 42
0.0000001
 43
0.0000001
 44
0.0000000001
 40
0.0
 40
0.0
 40
0.0
 40
0.0
 40
0.1244691987
 40
0.1869051071
 40
0.2494288184
 40
0.3120178972
 40
0.3746535138
 40
0.4373193433
 40
0.5
 40
0.5626806567
 40
0.6253464862
 40
0.6879821028
 40
0.7505711816
 40
0.8130948929
 40
0.8755308013
 40
1.0
 40
1.0
 40
1.0
 40
1.0
 10
3.2155185178
 20
2.1798434415
 30
0.0
 10
3.2187635918
 20
2.1815451685
 30
0.0
 10
3.2237801803
 20
2.1838415718
 30
0.0
 10
3.2306975697
 20
2.1863136408
 30
0.0
 10
3.2360010989
 20
2.1878613565
 30
0.0
 10
3.2413948288
 20
2.1890837752
 30
0.0
 10
3.2468587579
 20
2.1899674995
 30
0.0
 10
3.2523706124
 20
2.1905021149
 30
0.0
 10
3.2579068323
 20
2.1906810796
 30
0.0
 10
3.2634430522
 20
2.1905021149
 30
0.0
 10
3.2689549067
 20
2.1899674995
 30
0.0
 10
3.2744188358
 20
2.1890837752
 30
0.0
 10
3.2798125657
 20
2.1878613565
 30
0.0
 10
3.2851160949
 20
2.1863136408
 30
0.0
 10
3.2920334843
 20
2.1838415718
 30
0.0
 10
3.2970500728
 20
2.1815451685
 30
0.0
 10
3.3002951468
 20
2.1798434415
 30
0.0
  0
SPLINE
  5
3BC
100
AcDbEntity
  8
0
100
AcDbSpline
 62
7
  6
CONTINUOUS
 70
0
 71
3
 72
23
 73
19
 74
0
 42
0.0000001
 43
0.0000001
 44
0.0000000001
 40
0.0
 40
0.0
 40
0.0
 40
0.0
 40
0.1432320239
 40
0.2141359216
 40
0.2841568244
 40
0.3530313043
 40
0.4205218386
 40
0.48642447
 40
0.5505758178
 40
0.6128605399
 40
0.6432896076
 40
0.6732346357
 40
0.7316684642
 40
0.7882489173
 40
0.843119799
 40
0.8964989606
 40
0.9486753625
 40
1.0
 40
1.0
 40
1.0
 40
1.0
 10
3.2579068323
 20
2.0397937999
 30
0.0
 10
3.2636867237
 20
2.0397937999
 30
0.0
 10
3.2723424157
 20
2.0392339938
 30
0.0
 10
3.2836614106
 20
2.0373634153
 30
0.0
 10
3.2919091353
 20
2.0354216259
 30
0.0
 10
3.2998703522
 20
2.032953014
 30
0.0
 10
3.3074789737
 20
2.0299780172
 30
0.0
 10
3.3146709396
 20
2.0265212769
 30
0.0
 10
3.3213854856
 20
2.0226116551
 30
0.0
 10
3.3265768166
 20
2.0189744273
 30
0.0
 10
3.3304311769
 20
2.0158665607
 30
0.0
 10
3.3340218472
 20
2.0126875935
 30
0.0
 10
3.3381234906
 20
2.0085027809
 30
0.0
 10
3.342408719
 20
2.0031358878
 30
0.0
 10
3.3459804929
 20
1.9975084384
 30
0.0
 10
3.3488066689
 20
1.9916672287
 30
0.0
 10
3.3508611021
 20
1.9856630337
 30
0.0
 10
3.3517084751
 20
1.9815595313
 30
0.0
 10
3.3519948541
 20
1.9795083051
 30
0.0
  0
SPLINE
  5
3BD
100
AcDbEntity
  8
0
100
AcDbSpline
 62
7
  6
CONTINUOUS
 70
0
 71
3
 72
15
 73
11
 74
0
 42
0.0000001
 43
0.0000001
 44
0.0000000001
 40
0.0
 40
0.0
 40
0.0
 40
0.0
 40
0.1312913111
 40
0.2619344495
 40
0.3913046202
 40
0.5188022162
 40
0.6438796464
 40
0.7053693307
 40
0.766079742
 40
1.0
 40
1.0
 40
1.0
 40
1.0
 10
3.2579068323
 20
2.0146594922
 30
0.0
 10
3.2541791481
 20
2.0146594922
 30
0.0
 10
3.2467395084
 20
2.0143985482
 30
0.0
 10
3.2356824344
 20
2.0132270747
 30
0.0
 10
3.2248424597
 20
2.0112873335
 30
0.0
 10
3.2143267089
 20
2.0085981444
 30
0.0
 10
3.2058707458
 20
2.005737956
 30
0.0
 10
3.1993641661
 20
2.0030945274
 30
0.0
 10
3.1901594033
 20
1.9989122525
 30
0.0
 10
3.1828808051
 20
1.9946670056
 30
0.0
 10
3.1774934197
 20
1.9907828617
 30
0.0
  0
SPLINE
  5
3BE
100
AcDbEntity
  8
0
100
AcDbSpline
 62
7
  6
CONTINUOUS
 70
0
 71
3
 72
13
 73
9
 74
0
 42
0.0000001
 43
0.0000001
 44
0.0000000001
 40
0.0
 40
0.0
 40
0.0
 40
0.0
 40
0.2618203558
 40
0.3912150037
 40
0.518736579
 40
0.6438376214
 40
0.7660355819
 40
1.0
 40
1.0
 40
1.0
 40
1.0
 10
3.2579068323
 20
2.0233603494
 30
0.0
 10
3.2523709548
 20
2.0233603494
 30
0.0
 10
3.2440828119
 20
2.0227820246
 30
0.0
 10
3.2332796792
 20
2.0208486723
 30
0.0
 10
3.2254466787
 20
2.0188456904
 30
0.0
 10
3.2179310446
 20
2.0163032921
 30
0.0
 10
3.208574091
 20
2.0122893278
 30
0.0
 10
3.2020245681
 20
2.0084692145
 30
0.0
 10
3.1980118569
 20
2.0055761298
 30
0.0
  0
SPLINE
  5
3BF
100
AcDbEntity
  8
0
100
AcDbSpline
 62
7
  6
CONTINUOUS
 70
0
 71
3
 72
15
 73
11
 74
0
 42
0.0000001
 43
0.0000001
 44
0.0000000001
 40
0.0
 40
0.0
 40
0.0
 40
0.0
 40
0.1312913111
 40
0.2619344495
 40
0.3913046202
 40
0.5188022162
 40
0.6438796464
 40
0.7053693307
 40
0.766079742
 40
1.0
 40
1.0
 40
1.0
 40
1.0
 10
3.2579068323
 20
2.0146594922
 30
0.0
 10
3.2616345165
 20
2.0146594922
 30
0.0
 10
3.2690741562
 20
2.0143985482
 30
0.0
 10
3.2801312302
 20
2.0132270747
 30
0.0
 10
3.2909712049
 20
2.0112873335
 30
0.0
 10
3.3014869557
 20
2.0085981444
 30
0.0
 10
3.3099429188
 20
2.005737956
 30
0.0
 10
3.3164494985
 20
2.0030945274
 30
0.0
 10
3.3256542613
 20
1.9989122525
 30
0.0
 10
3.3329328595
 20
1.9946670056
 30
0.0
 10
3.3383202449
 20
1.9907828617
 30
0.0
  0
SPLINE
  5
3C0
100
AcDbEntity
  8
0
100
AcDbSpline
 62
7
  6
CONTINUOUS
 70
0
 71
3
 72
13
 73
9
 74
0
 42
0.0000001
 43
0.0000001
 44
0.0000000001
 40
0.0
 40
0.0
 40
0.0
 40
0.0
 40
0.2618203558
 40
0.3912150037
 40
0.518736579
 40
0.6438376214
 40
0.7660355819
 40
1.0
 40
1.0
 40
1.0
 40
1.0
 10
3.2579068323
 20
2.0233603494
 30
0.0
 10
3.2634427098
 20
2.0233603494
 30
0.0
 10
3.2717308527
 20
2.0227820246
 30
0.0
 10
3.2825339854
 20
2.0208486723
 30
0.0
 10
3.2903669859
 20
2.0188456904
 30
0.0
 10
3.29788262
 20
2.0163032921
 30
0.0
 10
3.3072395736
 20
2.0122893278
 30
0.0
 10
3.3137890965
 20
2.0084692145
 30
0.0
 10
3.3178018077
 20
2.0055761298
 30
0.0
  0
SPLINE
  5
3C1
100
AcDbEntity
  8
0
100
AcDbSpline
 62
7
  6
CONTINUOUS
 70
0
 71
3
 72
9
 73
5
 74
0
 42
0.0000001
 43
0.0000001
 44
0.0000000001
 40
0.0
 40
0.0
 40
0.0
 40
0.0
 40
0.2536552471
 40
1.0
 40
1.0
 40
1.0
 40
1.0
 10
3.2001456451
 20
2.0576847705
 30
0.0
 10
3.1994051538
 20
2.0580972604
 30
0.0
 10
3.1965075943
 20
2.0597620223
 30
0.0
 10
3.1936991002
 20
2.0615826978
 30
0.0
 10
3.1916676768
 20
2.0630295913
 30
0.0
  0
SPLINE
  5
3C2
100
AcDbEntity
  8
0
100
AcDbSpline
 62
7
  6
CONTINUOUS
 70
0
 71
3
 72
9
 73
5
 74
0
 42
0.0000001
 43
0.0000001
 44
0.0000000001
 40
0.0
 40
0.0
 40
0.0
 40
0.0
 40
0.2464070838
 40
1.0
 40
1.0
 40
1.0
 40
1.0
 10
3.3241459626
 20
2.0630295734
 30
0.0
 10
3.3234752522
 20
2.0625518562
 30
0.0
 10
3.3207253744
 20
2.0606525253
 30
0.0
 10
3.3178676838
 20
2.0589100777
 30
0.0
 10
3.3156676223
 20
2.0576845492
 30
0.0
  0
SPLINE
  5
3C3
100
AcDbEntity
  8
0
100
AcDbSpline
 62
7
  6
CONTINUOUS
 70
0
 71
3
 72
39
 73
35
 74
0
 42
0.0000001
 43
0.0000001
 44
0.0000000001
 40
0.0
 40
0.0
 40
0.0
 40
0.0
 40
0.0257327493
 40
0.0519942918
 40
0.0789212414
 40
0.1066209752
 40
0.1351696854
 40
0.1646122962
 40
0.1949637765
 40
0.2262113436
 40
0.2583171414
 40
0.2912211381
 40
0.3248440966
 40
0.3590905229
 40
0.3938515425
 40
0.4290076937
 40
0.4644316463
 40
0.4999908589
 40
0.5355501948
 40
0.5709745145
 40
0.6061312698
 40
0.6408931184
 40
0.675140582
 40
0.7087647645
 40
0.7416701448
 40
0.7737774536
 40
0.8050266217
 40
0.8353797498
 40
0.8648240072
 40
0.8933743102
 40
0.9210755271
 40
0.9480037929
 40
0.9742664285
 40
1.0
 40
1.0
 40
1.0
 40
1.0
 10
3.3469980453
 20
2.6106789777
 30
0.0
 10
3.3465403609
 20
2.6088308842
 30
0.0
 10
3.3453882658
 20
2.6051493341
 30
0.0
 10
3.3430057412
 20
2.599805254
 30
0.0
 10
3.3399736972
 20
2.5946317041
 30
0.0
 10
3.3363168702
 20
2.5896688471
 30
0.0
 10
3.3320640887
 20
2.5849534962
 30
0.0
 10
3.327248432
 20
2.5805208099
 30
0.0
 10
3.3219069131
 20
2.5764036741
 30
0.0
 10
3.3160803034
 20
2.5726326763
 30
0.0
 10
3.3098128906
 20
2.5692358747
 30
0.0
 10
3.3031522089
 20
2.566238605
 30
0.0
 10
3.2961487251
 20
2.5636632767
 30
0.0
 10
3.2888554857
 20
2.5615291873
 30
0.0
 10
3.2813277328
 20
2.5598523579
 30
0.0
 10
3.2736224941
 20
2.5586453955
 30
0.0
 10
3.2657981529
 20
2.5579173843
 30
0.0
 10
3.2579140042
 20
2.5576738079
 30
0.0
 10
3.2500298011
 20
2.5579165013
 30
0.0
 10
3.2422052972
 20
2.5586436361
 30
0.0
 10
3.2344997889
 20
2.5598497355
 30
0.0
 10
3.2269716613
 20
2.5615257215
 30
0.0
 10
3.2196779451
 20
2.5636589935
 30
0.0
 10
3.2126738859
 20
2.5662335366
 30
0.0
 10
3.2060125348
 20
2.569230059
 30
0.0
 10
3.1997443634
 20
2.5726261568
 30
0.0
 10
3.1939169115
 20
2.5763964994
 30
0.0
 10
3.1885744731
 20
2.5805130333
 30
0.0
 10
3.1837578261
 20
2.5849451753
 30
0.0
 10
3.1795039907
 20
2.5896600438
 30
0.0
 10
3.1758460534
 20
2.594622484
 30
0.0
 10
3.1728128505
 20
2.5997956864
 30
0.0
 10
3.1704291265
 20
2.6051394917
 30
0.0
 10
3.1692761981
 20
2.6088209285
 30
0.0
 10
3.1688180962
 20
2.6106689812
 30
0.0
  0
SPLINE
  5
3C4
100
AcDbEntity
  8
0
100
AcDbSpline
 62
7
  6
CONTINUOUS
 70
0
 71
3
 72
43
 73
39
 74
0
 42
0.0000001
 43
0.0000001
 44
0.0000000001
 40
0.0
 40
0.0
 40
0.0
 40
0.0
 40
0.0127949991
 40
0.0256721542
 40
0.0386563267
 40
0.0517700694
 40
0.0784568884
 40
0.1058895392
 40
0.1341768591
 40
0.1633906854
 40
0.1935664216
 40
0.2247052591
 40
0.2567771699
 40
0.2897245069
 40
0.3234655783
 40
0.3578984465
 40
0.392904413
 40
0.4283516369
 40
0.4640984313
 40
0.4999966579
 40
0.5358949334
 40
0.571641873
 40
0.6070893356
 40
0.6420956289
 40
0.6765289048
 40
0.7102704551
 40
0.7432183304
 40
0.7752908245
 40
0.8064302739
 40
0.8366066316
 40
0.865821068
 40
0.8941089637
 40
0.9215421323
 40
0.9482293874
 40
0.9613433104
 40
0.9743276352
 40
0.9872049124
 40
1.0
 40
1.0
 40
1.0
 40
1.0
 10
3.3519937463
 20
2.6151342832
 30
0.0
 10
3.3518507782
 20
2.6141115566
 30
0.0
 10
3.3514974856
 20
2.6120682127
 30
0.0
 10
3.350770557
 20
2.6090321513
 30
0.0
 10
3.3498467753
 20
2.6060229778
 30
0.0
 10
3.348347038
 20
2.6020330829
 30
0.0
 10
3.3459771685
 20
2.5971361934
 30
0.0
 10
3.3424052223
 20
2.5915099317
 30
0.0
 10
3.3381196563
 20
2.5861435774
 30
0.0
 10
3.3331581208
 20
2.5810821391
 30
0.0
 10
3.327563201
 20
2.5763670443
 30
0.0
 10
3.3213824855
 20
2.5720370903
 30
0.0
 10
3.3146681907
 20
2.5681278901
 30
0.0
 10
3.3074768548
 20
2.5646717009
 30
0.0
 10
3.2998689313
 20
2.5616971155
 30
0.0
 10
3.2919083436
 20
2.5592288102
 30
0.0
 10
3.2836619689
 20
2.5572873081
 30
0.0
 10
3.2751991012
 20
2.55588878
 30
0.0
 10
3.2665908651
 20
2.5550448934
 30
0.0
 10
3.2579096233
 20
2.5547626906
 30
0.0
 10
3.249228358
 20
2.5550445315
 30
0.0
 10
3.2406200517
 20
2.5558880592
 30
0.0
 10
3.2321570677
 20
2.5572862344
 30
0.0
 10
3.2239105315
 20
2.5592273926
 30
0.0
 10
3.2159497385
 20
2.5616953658
 30
0.0
 10
3.2083415677
 20
2.5646696335
 30
0.0
 10
3.2011499445
 20
2.5681255223
 30
0.0
 10
3.1944353248
 20
2.5720344416
 30
0.0
 10
3.1882542496
 20
2.5763641365
 30
0.0
 10
3.1826589378
 20
2.5810789961
 30
0.0
 10
3.1776969814
 20
2.5861402252
 30
0.0
 10
3.1734109688
 20
2.5915063977
 30
0.0
 10
3.1698385537
 20
2.5971325069
 30
0.0
 10
3.1674682734
 20
2.6020292986
 30
0.0
 10
3.1659682012
 20
2.6060191337
 30
0.0
 10
3.1650441681
 20
2.6090282684
 30
0.0
 10
3.1643169855
 20
2.6120642991
 30
0.0
 10
3.1639635217
 20
2.6141076305
 30
0.0
 10
3.163820468
 20
2.6151303524
 30
0.0
  0
SPLINE
  5
3C5
100
AcDbEntity
  8
0
100
AcDbSpline
 62
7
  6
CONTINUOUS
 70
0
 71
3
 72
21
 73
17
 74
0
 42
0.0000001
 43
0.0000001
 44
0.0000000001
 40
0.0
 40
0.0
 40
0.0
 40
0.0
 40
0.1169632789
 40
0.1780523069
 40
0.2405925819
 40
0.3043429789
 40
0.3690293973
 40
0.4343532864
 40
0.4999999334
 40
0.5656465828
 40
0.6309704791
 40
0.6956569091
 40
0.7594073221
 40
0.8219476169
 40
0.8830366679
 40
1.0
 40
1.0
 40
1.0
 40
1.0
 10
3.3178011563
 20
2.5890740217
 30
0.0
 10
3.3137884622
 20
2.5861810134
 30
0.0
 10
3.3072389722
 20
2.5823609997
 30
0.0
 10
3.2978821603
 20
2.5783471496
 30
0.0
 10
3.2903664653
 20
2.5758047973
 30
0.0
 10
3.2825341536
 20
2.5738019535
 30
0.0
 10
3.2744602741
 20
2.5723571477
 30
0.0
 10
3.2662243372
 20
2.5714846419
 30
0.0
 10
3.2579068939
 20
2.5711928493
 30
0.0
 10
3.2495894499
 20
2.5714846333
 30
0.0
 10
3.2413535113
 20
2.5723571306
 30
0.0
 10
3.2332796288
 20
2.573801928
 30
0.0
 10
3.2254473129
 20
2.5758047636
 30
0.0
 10
3.2179316127
 20
2.5783471081
 30
0.0
 10
3.2085747922
 20
2.5823609487
 30
0.0
 10
3.2020252946
 20
2.5861809555
 30
0.0
 10
3.1980125946
 20
2.5890739595
 30
0.0
  0
SPLINE
  5
3C6
100
AcDbEntity
  8
0
100
AcDbSpline
 62
7
  6
CONTINUOUS
 70
0
 71
3
 72
23
 73
19
 74
0
 42
0.0000001
 43
0.0000001
 44
0.0000000001
 40
0.0
 40
0.0
 40
0.0
 40
0.0
 40
0.1160097671
 40
0.146247879
 40
0.176921128
 40
0.239444805
 40
0.3033338924
 40
0.3682837457
 40
0.4339581408
 40
0.4999999999
 40
0.566041859
 40
0.6317162541
 40
0.6966661075
 40
0.760555195
 40
0.8230788721
 40
0.8537521212
 40
0.8839902332
 40
1.0
 40
1.0
 40
1.0
 40
1.0
 10
3.3277895339
 20
2.441368306
 30
0.0
 10
3.3232781222
 20
2.4377654344
 30
0.0
 10
3.3170857568
 20
2.4338212142
 30
0.0
 10
3.3091855088
 20
2.429935842
 30
0.0
 10
3.3035570451
 20
2.4274688361
 30
0.0
 10
3.2962001391
 20
2.4247958153
 30
0.0
 10
3.2870044874
 20
2.422280119
 30
0.0
 10
3.2774862197
 20
2.4204631646
 30
0.0
 10
3.2677510779
 20
2.4193649587
 30
0.0
 10
3.2579068323
 20
2.4189975349
 30
0.0
 10
3.2480625867
 20
2.4193649587
 30
0.0
 10
3.2383274449
 20
2.4204631646
 30
0.0
 10
3.2288091772
 20
2.422280119
 30
0.0
 10
3.2196135255
 20
2.4247958153
 30
0.0
 10
3.2122566194
 20
2.4274688361
 30
0.0
 10
3.2066281557
 20
2.429935842
 30
0.0
 10
3.1987279078
 20
2.4338212142
 30
0.0
 10
3.1925355424
 20
2.4377654344
 30
0.0
 10
3.1880241307
 20
2.441368306
 30
0.0
  0
SPLINE
  5
3C7
100
AcDbEntity
  8
0
100
AcDbSpline
 62
7
  6
CONTINUOUS
 70
0
 71
3
 72
15
 73
11
 74
0
 42
0.0000001
 43
0.0000001
 44
0.0000000001
 40
0.0
 40
0.0
 40
0.0
 40
0.0
 40
0.1223267821
 40
0.2469184352
 40
0.3730647224
 40
0.4999999999
 40
0.6269352772
 40
0.7530815644
 40
0.8776732177
 40
1.0
 40
1.0
 40
1.0
 40
1.0
 10
3.3002951468
 20
2.4148071796
 30
0.0
 10
3.2969657369
 20
2.4136777741
 30
0.0
 10
3.2901416689
 20
2.4116930848
 30
0.0
 10
3.2796213641
 20
2.4095645323
 30
0.0
 10
3.2688316079
 20
2.4082766688
 30
0.0
 10
3.2579068323
 20
2.4078456817
 30
0.0
 10
3.2469820567
 20
2.4082766688
 30
0.0
 10
3.2361923005
 20
2.4095645322
 30
0.0
 10
3.2256719957
 20
2.4116930848
 30
0.0
 10
3.2188479277
 20
2.4136777741
 30
0.0
 10
3.2155185178
 20
2.4148071796
 30
0.0
  0
SPLINE
  5
3C8
100
AcDbEntity
  8
0
100
AcDbSpline
 62
7
  6
CONTINUOUS
 70
0
 71
3
 72
9
 73
5
 74
0
 42
0.0000001
 43
0.0000001
 44
0.0000000001
 40
0.0
 40
0.0
 40
0.0
 40
0.0
 40
0.2464070279
 40
1.0
 40
1.0
 40
1.0
 40
1.0
 10
3.1916677021
 20
2.5316210478
 30
0.0
 10
3.1923384239
 20
2.5320987731
 30
0.0
 10
3.1950883495
 20
2.533998136
 30
0.0
 10
3.1979460915
 20
2.5357406103
 30
0.0
 10
3.2001461932
 20
2.536966156
 30
0.0
  0
SPLINE
  5
3C9
100
AcDbEntity
  8
0
100
AcDbSpline
 62
7
  6
CONTINUOUS
 70
0
 71
3
 72
9
 73
5
 74
0
 42
0.0000001
 43
0.0000001
 44
0.0000000001
 40
0.0
 40
0.0
 40
0.0
 40
0.0
 40
0.2536566067
 40
1.0
 40
1.0
 40
1.0
 40
1.0
 10
3.3156645648
 20
2.536967775
 30
0.0
 10
3.3164053689
 20
2.5365551508
 30
0.0
 10
3.3193041315
 20
2.5348898384
 30
0.0
 10
3.3221137673
 20
2.533068491
 30
0.0
 10
3.3241459878
 20
2.5316210298
 30
0.0
  0
SPLINE
  5
3CA
100
AcDbEntity
  8
0
100
AcDbSpline
 62
7
  6
CONTINUOUS
 70
0
 71
3
 72
27
 73
23
 74
0
 42
0.0000001
 43
0.0000001
 44
0.0000000001
 40
0.0
 40
0.0
 40
0.0
 40
0.0
 40
0.2025280926
 40
0.2975939989
 40
0.3878867036
 40
0.4729690814
 40
0.5524446051
 40
0.6259597816
 40
0.6932095791
 40
0.7539440563
 40
0.8079788615
 40
0.8552127177
 40
0.8762829596
 40
0.8956719639
 40
0.9134105885
 40
0.9295471934
 40
0.9441569485
 40
0.9573482114
 40
0.9692754874
 40
0.9801555452
 40
0.9902769409
 40
1.0
 40
1.0
 40
1.0
 40
1.0
 10
6.7419501711
 20
2.2817864616
 30
0.0
 10
6.7418141079
 20
2.2798552417
 30
0.0
 10
6.7415742466
 20
2.2770199679
 30
0.0
 10
6.741166006
 20
2.273334467
 30
0.0
 10
6.7408333653
 20
2.2707705812
 30
0.0
 10
6.7404697289
 20
2.2683615068
 30
0.0
 10
6.7400771445
 20
2.2661195919
 30
0.0
 10
6.7396578373
 20
2.2640561376
 30
0.0
 10
6.7392141651
 20
2.2621813681
 30
0.0
 10
6.7387486422
 20
2.2605042749
 30
0.0
 10
6.738263817
 20
2.2590328273
 30
0.0
 10
6.7378310645
 20
2.2579451658
 30
0.0
 10
6.7374725751
 20
2.2571871213
 30
0.0
 10
6.7372106792
 20
2.25669601
 30
0.0
 10
6.7369457627
 20
2.2562608101
 30
0.0
 10
6.7366780226
 20
2.2558819581
 30
0.0
 10
6.736407676
 20
2.2555597652
 30
0.0
 10
6.7361347746
 20
2.2552945178
 30
0.0
 10
6.7358592066
 20
2.2550866193
 30
0.0
 10
6.7355807684
 20
2.2549366651
 30
0.0
 10
6.7352996404
 20
2.2548457633
 30
0.0
 10
6.7351093828
 20
2.2548253206
 30
0.0
 10
6.7350164381
 20
2.2548253225
 30
0.0
  0
SPLINE
  5
3CB
100
AcDbEntity
  8
0
100
AcDbSpline
 62
7
  6
CONTINUOUS
 70
0
 71
3
 72
13
 73
9
 74
0
 42
0.0000001
 43
0.0000001
 44
0.0000000001
 40
0.0
 40
0.0
 40
0.0
 40
0.0
 40
0.3123517018
 40
0.4496456944
 40
0.5755723505
 40
0.7988537382
 40
0.9009406985
 40
1.0
 40
1.0
 40
1.0
 40
1.0
 10
6.7350943179
 20
2.2675011155
 30
0.0
 10
6.7351853232
 20
2.2673686754
 30
0.0
 10
6.7353269848
 20
2.2671844574
 30
0.0
 10
6.7355367945
 20
2.266974836
 30
0.0
 10
6.7357307526
 20
2.2668164052
 30
0.0
 10
6.7359362833
 20
2.2667007317
 30
0.0
 10
6.7361478668
 20
2.2666431361
 30
0.0
 10
6.7362515804
 20
2.266633727
 30
0.0
 10
6.7363025428
 20
2.2666337313
 30
0.0
  0
SPLINE
  5
3CC
100
AcDbEntity
  8
0
100
AcDbSpline
 62
7
  6
CONTINUOUS
 70
0
 71
3
 72
19
 73
15
 74
0
 42
0.0000001
 43
0.0000001
 44
0.0000000001
 40
0.0
 40
0.0
 40
0.0
 40
0.0
 40
0.1763431561
 40
0.341692469
 40
0.4938195299
 40
0.630757295
 40
0.6930031592
 40
0.750861034
 40
0.8041797354
 40
0.852842225
 40
0.8967614711
 40
0.9359038182
 40
0.9702858219
 40
1.0
 40
1.0
 40
1.0
 40
1.0
 10
6.7324030243
 20
2.2819903079
 30
0.0
 10
6.7324539407
 20
2.2811194925
 30
0.0
 10
6.7325717455
 20
2.2794331851
 30
0.0
 10
6.7328048506
 20
2.2770012862
 30
0.0
 10
6.733085706
 20
2.2747707283
 30
0.0
 10
6.7333636608
 20
2.2730547634
 30
0.0
 10
6.7336102494
 20
2.2718073001
 30
0.0
 10
6.7337983125
 20
2.2709701988
 30
0.0
 10
6.7339947166
 20
2.2702041762
 30
0.0
 10
6.7341986745
 20
2.2695116906
 30
0.0
 10
6.7344094601
 20
2.2688948905
 30
0.0
 10
6.7346262888
 20
2.2683555302
 30
0.0
 10
6.7348484043
 20
2.2678952242
 30
0.0
 10
6.7350110761
 20
2.2676222573
 30
0.0
 10
6.7350943179
 20
2.2675011155
 30
0.0
  0
LINE
  5
3CD
100
AcDbEntity
  8
0
100
AcDbLine
 62
7
  6
CONTINUOUS
 10
6.7474053813
 20
2.2973253106
 11
6.74740527
 21
2.2969152644
  0
LINE
  5
3CE
100
AcDbEntity
  8
0
100
AcDbLine
 62
7
  6
CONTINUOUS
 10
6.74740527
 20
2.2969152644
 11
6.7474044706
 21
2.2961523338
  0
SPLINE
  5
3CF
100
AcDbEntity
  8
0
100
AcDbSpline
 62
7
  6
CONTINUOUS
 70
0
 71
3
 72
12
 73
8
 74
0
 42
0.0000001
 43
0.0000001
 44
0.0000000001
 40
0.0
 40
0.0
 40
0.0
 40
0.0
 40
0.2692658225
 40
0.5317641094
 40
0.7792023768
 40
0.8937763928
 40
1.0
 40
1.0
 40
1.0
 40
1.0
 10
6.7474044706
 20
2.2961523338
 30
0.0
 10
6.7474004982
 20
2.2935945385
 30
0.0
 10
6.7473671222
 20
2.2885432308
 30
0.0
 10
6.7472411717
 20
2.2811424125
 30
0.0
 10
6.7470737555
 20
2.2752122772
 30
0.0
 10
6.7469020824
 20
2.2707677128
 30
0.0
 10
6.7468045979
 20
2.2686725556
 30
0.0
 10
6.7467526859
 20
2.2676648571
 30
0.0
  0
SPLINE
  5
3D0
100
AcDbEntity
  8
0
100
AcDbSpline
 62
7
  6
CONTINUOUS
 70
0
 71
3
 72
25
 73
21
 74
0
 42
0.0000001
 43
0.0000001
 44
0.0000000001
 40
0.0
 40
0.0
 40
0.0
 40
0.0
 40
0.2268408981
 40
0.4247835253
 40
0.5128062447
 40
0.5935246386
 40
0.6669346333
 40
0.7330286512
 40
0.7917926849
 40
0.8432095602
 40
0.8872468813
 40
0.9238849324
 40
0.9394302257
 40
0.9531327152
 40
0.9650089144
 40
0.9750889642
 40
0.9834291005
 40
0.9901478917
 40
0.9954978049
 40
1.0
 40
1.0
 40
1.0
 40
1.0
 10
6.7467042512
 20
2.2667526681
 30
0.0
 10
6.7466551319
 20
2.2658552775
 30
0.0
 10
6.7465548313
 20
2.2641752552
 30
0.0
 10
6.7464071056
 20
2.262148828
 30
0.0
 10
6.7462820863
 20
2.2607014117
 30
0.0
 10
6.7461898622
 20
2.2597464429
 30
0.0
 10
6.7460956628
 20
2.2588790069
 30
0.0
 10
6.7459996838
 20
2.2580993294
 30
0.0
 10
6.7459021364
 20
2.2574077391
 30
0.0
 10
6.7458033178
 20
2.2568047035
 30
0.0
 10
6.7457034678
 20
2.2562908935
 30
0.0
 10
6.745615705
 20
2.2559197113
 30
0.0
 10
6.7455434107
 20
2.2556688307
 30
0.0
 10
6.7454920817
 20
2.2555141388
 30
0.0
 10
6.7454406987
 20
2.2553824457
 30
0.0
 10
6.7453893
 20
2.255273833
 30
0.0
 10
6.7453378744
 20
2.2551882515
 30
0.0
 10
6.7452860993
 20
2.2551256059
 30
0.0
 10
6.745232908
 20
2.2550854621
 30
0.0
 10
6.7451936155
 20
2.2550754267
 30
0.0
 10
6.7451757781
 20
2.2550754787
 30
0.0
  0
SPLINE
  5
3D1
100
AcDbEntity
  8
0
100
AcDbSpline
 62
7
  6
CONTINUOUS
 70
0
 71
3
 72
67
 73
63
 74
0
 42
0.0000001
 43
0.0000001
 44
0.0000000001
 40
0.0
 40
0.0
 40
0.0
 40
0.0
 40
0.0000011481
 40
0.000004537
 40
0.0000101826
 40
0.0000180869
 40
0.000040674
 40
0.0000722997
 40
0.0001129639
 40
0.0001626658
 40
0.0002214047
 40
0.0002891796
 40
0.0004518337
 40
0.0006506205
 40
0.0008855321
 40
0.0011565603
 40
0.0014636973
 40
0.0018069349
 40
0.0026016798
 40
0.0035407305
 40
0.0046240213
 40
0.0058514315
 40
0.0072227572
 40
0.0087377882
 40
0.0103963138
 40
0.0121981237
 40
0.0141430073
 40
0.0184611471
 40
0.0233486637
 40
0.0288029204
 40
0.0348212338
 40
0.041400896
 40
0.0485386735
 40
0.0562308319
 40
0.0644736173
 40
0.073263219
 40
0.0924648199
 40
0.113797554
 40
0.1372195445
 40
0.1626846435
 40
0.1901427828
 40
0.2195401037
 40
0.2508188634
 40
0.2839180861
 40
0.3187729742
 40
0.3553159049
 40
0.393475632
 40
0.43317849
 40
0.4743475392
 40
0.5169039066
 40
0.5607664622
 40
0.6058519932
 40
0.6520751718
 40
0.6993489785
 40
0.7475849259
 40
0.7720356188
 40
0.7966929367
 40
0.8215453639
 40
0.8465814229
 40
0.8971582844
 40
0.9483296851
 40
1.0
 40
1.0
 40
1.0
 40
1.0
 10
5.6146111003
 20
2.5898253106
 30
0.0
 10
5.6146111927
 20
2.5898253043
 30
0.0
 10
5.6146110488
 20
2.5898247346
 30
0.0
 10
5.6146111491
 20
2.5898241092
 30
0.0
 10
5.6146109722
 20
2.5898226367
 30
0.0
 10
5.6146107796
 20
2.5898197997
 30
0.0
 10
5.6146102777
 20
2.5898147626
 30
0.0
 10
5.6146095437
 20
2.5898071732
 30
0.0
 10
5.6146085373
 20
2.5897973778
 30
0.0
 10
5.6146072928
 20
2.5897854229
 30
0.0
 10
5.6146057969
 20
2.5897712913
 30
0.0
 10
5.6146033184
 20
2.5897481066
 30
0.0
 10
5.6145995944
 20
2.5897136971
 30
0.0
 10
5.6145943732
 20
2.5896658942
 30
0.0
 10
5.6145881646
 20
2.5896094081
 30
0.0
 10
5.6145809704
 20
2.589544241
 30
0.0
 10
5.6145727922
 20
2.5894703945
 30
0.0
 10
5.6145599359
 20
2.5893545776
 30
0.0
 10
5.6145414096
 20
2.5891881222
 30
0.0
 10
5.6145162385
 20
2.5889623632
 30
0.0
 10
5.6144871767
 20
2.5887019336
 30
0.0
 10
5.614454237
 20
2.5884068635
 30
0.0
 10
5.6144174252
 20
2.5880771957
 30
0.0
 10
5.6143767498
 20
2.5877129799
 30
0.0
 10
5.6143322187
 20
2.5873142666
 30
0.0
 10
5.6142838404
 20
2.5868811059
 30
0.0
 10
5.6142116603
 20
2.5862348102
 30
0.0
 10
5.6141118829
 20
2.5853412313
 30
0.0
 10
5.6139807015
 20
2.5841664195
 30
0.0
 10
5.6138341886
 20
2.5828553728
 30
0.0
 10
5.6136723184
 20
2.5814087455
 30
0.0
 10
5.6134950643
 20
2.5798272404
 30
0.0
 10
5.6133024089
 20
2.5781116447
 30
0.0
 10
5.6130943415
 20
2.5762628297
 30
0.0
 10
5.6128708582
 20
2.5742817127
 30
0.0
 10
5.6125425225
 20
2.571378465
 30
0.0
 10
5.6120938345
 20
2.5674265819
 30
0.0
 10
5.6115091321
 20
2.5623026683
 30
0.0
 10
5.6108639624
 20
2.5566773159
 30
0.0
 10
5.6101589419
 20
2.5505616644
 30
0.0
 10
5.609395108
 20
2.5439677776
 30
0.0
 10
5.6085738883
 20
2.5369086155
 30
0.0
 10
5.6076966682
 20
2.5293980283
 30
0.0
 10
5.6067648563
 20
2.5214507515
 30
0.0
 10
5.605780251
 20
2.5130822773
 30
0.0
 10
5.6047448173
 20
2.5043089117
 30
0.0
 10
5.6036609504
 20
2.4951476299
 30
0.0
 10
5.602531188
 20
2.485616146
 30
0.0
 10
5.6013587861
 20
2.4757327082
 30
0.0
 10
5.6001468624
 20
2.4655161865
 30
0.0
 10
5.5988958204
 20
2.4549862826
 30
0.0
 10
5.5976072192
 20
2.4441630859
 30
0.0
 10
5.5962830978
 20
2.4330671069
 30
0.0
 10
5.5949233708
 20
2.4217195392
 30
0.0
 10
5.5937647405
 20
2.4121160767
 30
0.0
 10
5.5928174415
 20
2.4043240444
 30
0.0
 10
5.5920937198
 20
2.3984042639
 30
0.0
 10
5.5913611798
 20
2.3924380081
 30
0.0
 10
5.5903655953
 20
2.3843983205
 30
0.0
 10
5.5890808695
 20
2.3742559521
 30
0.0
 10
5.5874242975
 20
2.3619961495
 30
0.0
 10
5.586209827
 20
2.3537924702
 30
0.0
 10
5.5855653771
 20
2.3496761374
 30
0.0
  0
SPLINE
  5
3D2
100
AcDbEntity
  8
0
100
AcDbSpline
 62
7
  6
CONTINUOUS
 70
0
 71
3
 72
77
 73
73
 74
0
 42
0.0000001
 43
0.0000001
 44
0.0000000001
 40
0.0
 40
0.0
 40
0.0
 40
0.0
 40
0.0000012677
 40
0.0000048514
 40
0.0000107607
 40
0.0000189971
 40
0.000042453
 40
0.0000752202
 40
0.0001172991
 40
0.0001686896
 40
0.0002293913
 40
0.0002994041
 40
0.0004673616
 40
0.0006725597
 40
0.0009149958
 40
0.0011946673
 40
0.0015115716
 40
0.001865706
 40
0.0026856548
 40
0.0036544923
 40
0.0047721819
 40
0.0060386077
 40
0.0074536296
 40
0.0090171073
 40
0.0107289008
 40
0.0125888703
 40
0.0145968763
 40
0.0190558858
 40
0.024101406
 40
0.0297279946
 40
0.035930255
 40
0.0427048449
 40
0.0500513172
 40
0.0579694562
 40
0.0664581757
 40
0.0755100456
 40
0.0952624566
 40
0.1171574451
 40
0.1411598748
 40
0.1672257967
 40
0.1810118895
 40
0.1952880473
 40
0.2252658497
 40
0.2409446583
 40
0.2570709682
 40
0.2906439333
 40
0.32593206
 40
0.3441875103
 40
0.3628298731
 40
0.4012277038
 40
0.4209689984
 40
0.441062904
 40
0.4614994339
 40
0.4822659587
 40
0.503349753
 40
0.5247382603
 40
0.5464192734
 40
0.5683806299
 40
0.6131045297
 40
0.6358519077
 40
0.658843382
 40
0.7055066568
 40
0.7291541185
 40
0.7529973772
 40
0.7770273055
 40
0.8012348868
 40
0.8256105985
 40
0.8501437235
 40
0.8748216089
 40
0.8996326064
 40
0.9496125895
 40
1.0
 40
1.0
 40
1.0
 40
1.0
 10
5.5445148663
 20
2.6072110891
 30
0.0
 10
5.54451497
 20
2.6072110568
 30
0.0
 10
5.5445148954
 20
2.6072104828
 30
0.0
 10
5.5445151362
 20
2.6072097196
 30
0.0
 10
5.5445152144
 20
2.6072081229
 30
0.0
 10
5.544515552
 20
2.6072049655
 30
0.0
 10
5.5445159759
 20
2.6071994228
 30
0.0
 10
5.5445166536
 20
2.6071910437
 30
0.0
 10
5.544517468
 20
2.6071802505
 30
0.0
 10
5.5445184506
 20
2.6071670786
 30
0.0
 10
5.5445195897
 20
2.6071515149
 30
0.0
 10
5.544521438
 20
2.607125989
 30
0.0
 10
5.5445241436
 20
2.6070881102
 30
0.0
 10
5.5445278658
 20
2.6070354919
 30
0.0
 10
5.5445322362
 20
2.6069733226
 30
0.0
 10
5.5445372583
 20
2.6069016035
 30
0.0
 10
5.5445429356
 20
2.6068203354
 30
0.0
 10
5.5445518277
 20
2.6066928829
 30
0.0
 10
5.5445645985
 20
2.6065097011
 30
0.0
 10
5.5445819385
 20
2.6062612502
 30
0.0
 10
5.5446019868
 20
2.6059746368
 30
0.0
 10
5.5446247946
 20
2.6056498895
 30
0.0
 10
5.5446504126
 20
2.6052870461
 30
0.0
 10
5.5446788916
 20
2.6048861462
 30
0.0
 10
5.5447102825
 20
2.6044472297
 30
0.0
 10
5.5447446366
 20
2.6039703363
 30
0.0
 10
5.5447962906
 20
2.6032586709
 30
0.0
 10
5.5448685796
 20
2.6022748164
 30
0.0
 10
5.5449639287
 20
2.6009817451
 30
0.0
 10
5.5450698057
 20
2.5995396657
 30
0.0
 10
5.5451851075
 20
2.5979497164
 30
0.0
 10
5.5453100039
 20
2.5962126999
 30
0.0
 10
5.5454467461
 20
2.5943291226
 30
0.0
 10
5.5455971023
 20
2.5922992647
 30
0.0
 10
5.5457632083
 20
2.5901240435
 30
0.0
 10
5.5460112277
 20
2.5869380538
 30
0.0
 10
5.5463511561
 20
2.5826069638
 30
0.0
 10
5.5467845618
 20
2.5769981647
 30
0.0
 10
5.547269132
 20
2.5708507063
 30
0.0
 10
5.5477130434
 20
2.5653970637
 30
0.0
 10
5.5480976966
 20
2.5607748095
 30
0.0
 10
5.5485162425
 20
2.5558190126
 30
0.0
 10
5.5489536416
 20
2.5507020476
 30
0.0
 10
5.5494019342
 20
2.545426897
 30
0.0
 10
5.549875461
 20
2.539844714
 30
0.0
 10
5.550499872
 20
2.5325889622
 30
0.0
 10
5.5511760485
 20
2.5251546327
 30
0.0
 10
5.5517432439
 20
2.5189950981
 30
0.0
 10
5.5523334777
 20
2.5125700846
 30
0.0
 10
5.5529276322
 20
2.5060175781
 30
0.0
 10
5.5535411593
 20
2.4993419399
 30
0.0
 10
5.5540219262
 20
2.494199692
 30
0.0
 10
5.5545196033
 20
2.4889707982
 30
0.0
 10
5.5550320761
 20
2.4836581112
 30
0.0
 10
5.5555578852
 20
2.4782647604
 30
0.0
 10
5.5560951567
 20
2.4727937953
 30
0.0
 10
5.5566415111
 20
2.4672481626
 30
0.0
 10
5.5573828408
 20
2.4597124549
 30
0.0
 10
5.5581306592
 20
2.4520855598
 30
0.0
 10
5.5589097178
 20
2.4443730678
 30
0.0
 10
5.5597217657
 20
2.4364968981
 30
0.0
 10
5.5605575753
 20
2.4285456561
 30
0.0
 10
5.5614063521
 20
2.4205223935
 30
0.0
 10
5.5620522534
 20
2.4144279363
 30
0.0
 10
5.5627096803
 20
2.4082864376
 30
0.0
 10
5.563383526
 20
2.4021008157
 30
0.0
 10
5.5640831202
 20
2.3958746516
 30
0.0
 10
5.5648115009
 20
2.3896112211
 30
0.0
 10
5.5655591566
 20
2.3833125066
 30
0.0
 10
5.5665829754
 20
2.3748507439
 30
0.0
 10
5.5679147825
 20
2.3642072064
 30
0.0
 10
5.5690718207
 20
2.3556844829
 30
0.0
 10
5.5696980307
 20
2.3514124494
 30
0.0
  0
SPLINE
  5
3D3
100
AcDbEntity
  8
0
100
AcDbSpline
 62
7
  6
CONTINUOUS
 70
0
 71
3
 72
31
 73
27
 74
0
 42
0.0000001
 43
0.0000001
 44
0.0000000001
 40
0.0
 40
0.0
 40
0.0
 40
0.0
 40
0.0620534953
 40
0.1242064715
 40
0.1864398228
 40
0.2487385946
 40
0.3111029347
 40
0.3423092327
 40
0.3735310941
 40
0.4360176602
 40
0.4985500361
 40
0.5298302057
 40
0.5611192938
 40
0.5924183528
 40
0.6237284464
 40
0.6550501884
 40
0.6863837934
 40
0.7177291013
 40
0.7490834006
 40
0.8117969541
 40
0.8431522469
 40
0.8588302447
 40
0.87450939
 40
0.9058736483
 40
0.9372466534
 40
1.0
 40
1.0
 40
1.0
 40
1.0
 10
5.5696980352
 20
2.3514124565
 30
0.0
 10
5.5698454005
 20
2.3502963049
 30
0.0
 10
5.5701617929
 20
2.348065048
 30
0.0
 10
5.5706666586
 20
2.3447203739
 30
0.0
 10
5.5711685776
 20
2.3413706992
 30
0.0
 10
5.5716324906
 20
2.3380116554
 30
0.0
 10
5.5720020416
 20
2.3352079645
 30
0.0
 10
5.5722970486
 20
2.332963153
 30
0.0
 10
5.5725952741
 20
2.3307165275
 30
0.0
 10
5.572976564
 20
2.3279076101
 30
0.0
 10
5.5733482276
 20
2.3250963074
 30
0.0
 10
5.5736284653
 20
2.3228439368
 30
0.0
 10
5.5738267189
 20
2.321152445
 30
0.0
 10
5.5740128957
 20
2.3194590379
 30
0.0
 10
5.5741886293
 20
2.3177639231
 30
0.0
 10
5.5743551757
 20
2.3160672528
 30
0.0
 10
5.574513753
 20
2.3143691813
 30
0.0
 10
5.5746661063
 20
2.3126699442
 30
0.0
 10
5.5748602303
 20
2.3104028742
 30
0.0
 10
5.5750289685
 20
2.3081333801
 30
0.0
 10
5.5751360358
 20
2.3061450384
 30
0.0
 10
5.5751829746
 20
2.3050081996
 30
0.0
 10
5.575219401
 20
2.3038708122
 30
0.0
 10
5.5752474181
 20
2.302448325
 30
0.0
 10
5.5752661899
 20
2.300171596
 30
0.0
 10
5.5752634469
 20
2.2984638444
 30
0.0
 10
5.5752652868
 20
2.2973253106
 30
0.0
  0
SPLINE
  5
3D4
100
AcDbEntity
  8
0
100
AcDbSpline
 62
7
  6
CONTINUOUS
 70
0
 71
3
 72
26
 73
22
 74
0
 42
0.0000001
 43
0.0000001
 44
0.0000000001
 40
0.0
 40
0.0
 40
0.0
 40
0.0
 40
0.1239135637
 40
0.248260913
 40
0.310573169
 40
0.3729706007
 40
0.4354501519
 40
0.4980092755
 40
0.5606309173
 40
0.6232932275
 40
0.654637538
 40
0.6859916195
 40
0.7173574681
 40
0.7487359377
 40
0.7801265744
 40
0.811527808
 40
0.8429371438
 40
0.8743511642
 40
0.9057660579
 40
0.9371793261
 40
1.0
 40
1.0
 40
1.0
 40
1.0
 10
5.5855653771
 20
2.3496761374
 30
0.0
 10
5.5852300933
 20
2.3475229172
 30
0.0
 10
5.5845617509
 20
2.3432084125
 30
0.0
 10
5.5837177825
 20
2.3378122026
 30
0.0
 10
5.5830278476
 20
2.3334869175
 30
0.0
 10
5.5825119136
 20
2.3302356509
 30
0.0
 10
5.5820064663
 20
2.3269783363
 30
0.0
 10
5.5815190938
 20
2.3237142599
 30
0.0
 10
5.5810641257
 20
2.3204422132
 30
0.0
 10
5.5807281672
 20
2.3177081006
 30
0.0
 10
5.5804942542
 20
2.3155158809
 30
0.0
 10
5.5803389222
 20
2.3138689166
 30
0.0
 10
5.5802021319
 20
2.3122197172
 30
0.0
 10
5.580081363
 20
2.3105686302
 30
0.0
 10
5.5799743256
 20
2.3089159791
 30
0.0
 10
5.5798787035
 20
2.30726209
 30
0.0
 10
5.5797920573
 20
2.3056072993
 30
0.0
 10
5.5797124748
 20
2.3039519133
 30
0.0
 10
5.5796441322
 20
2.3022959381
 30
0.0
 10
5.5795730464
 20
2.3000873903
 30
0.0
 10
5.5795481072
 20
2.2984300864
 30
0.0
 10
5.5795492523
 20
2.2973253106
 30
0.0
  0
SPLINE
  5
3D5
100
AcDbEntity
  8
0
100
AcDbSpline
 62
7
  6
CONTINUOUS
 70
0
 71
3
 72
63
 73
59
 74
0
 42
0.0000001
 43
0.0000001
 44
0.0000000001
 40
0.0
 40
0.0
 40
0.0
 40
0.0
 40
0.0000049824
 40
0.0000195486
 40
0.0000436951
 40
0.0000774177
 40
0.0001207122
 40
0.0001735744
 40
0.0003079851
 40
0.0004806159
 40
0.000691433
 40
0.0009404026
 40
0.0012274908
 40
0.001552664
 40
0.0019158882
 40
0.0027563553
 40
0.0037486222
 40
0.0048924206
 40
0.0061874858
 40
0.0076335537
 40
0.0092303599
 40
0.01097764
 40
0.0149225645
 40
0.0194660801
 40
0.0246053189
 40
0.03033723
 40
0.036658751
 40
0.0435657364
 40
0.051052244
 40
0.0591121626
 40
0.0769269633
 40
0.0969547244
 40
0.119136915
 40
0.1434119744
 40
0.1697131549
 40
0.1979606043
 40
0.2280748959
 40
0.2599832108
 40
0.2936062368
 40
0.3288495012
 40
0.3656265589
 40
0.4038709015
 40
0.4435099329
 40
0.4844503644
 40
0.5266033776
 40
0.5699034938
 40
0.6142887881
 40
0.6596890015
 40
0.7060316433
 40
0.7532420996
 40
0.7771490221
 40
0.801244873
 40
0.8499762811
 40
0.8745999367
 40
0.8993878583
 40
0.9243321656
 40
0.949422616
 40
1.0
 40
1.0
 40
1.0
 40
1.0
 10
5.2488760466
 20
2.763477261
 30
0.0
 10
5.2488756711
 20
2.7634773223
 30
0.0
 10
5.2488743402
 20
2.7634762776
 30
0.0
 10
5.2488712252
 20
2.763475419
 30
0.0
 10
5.2488661654
 20
2.7634729893
 30
0.0
 10
5.2488590573
 20
2.7634700502
 30
0.0
 10
5.2488499535
 20
2.7634660824
 30
0.0
 10
5.2488337872
 20
2.7634591245
 30
0.0
 10
5.2488085663
 20
2.7634481965
 30
0.0
 10
5.2487722859
 20
2.7634324697
 30
0.0
 10
5.2487279934
 20
2.7634132255
 30
0.0
 10
5.2486756976
 20
2.7633904709
 30
0.0
 10
5.248615409
 20
2.7633641985
 30
0.0
 10
5.2485471377
 20
2.7633344058
 30
0.0
 10
5.2484401602
 20
2.7632876586
 30
0.0
 10
5.2482865558
 20
2.763220398
 30
0.0
 10
5.248078436
 20
2.7631290358
 30
0.0
 10
5.2478386249
 20
2.7630235053
 30
0.0
 10
5.2475671769
 20
2.762903835
 30
0.0
 10
5.2472641474
 20
2.762770049
 30
0.0
 10
5.2469295912
 20
2.7626221735
 30
0.0
 10
5.2464205878
 20
2.7623969779
 30
0.0
 10
5.2457059526
 20
2.7620804227
 30
0.0
 10
5.2447546688
 20
2.7616585818
 30
0.0
 10
5.2436785545
 20
2.7611816269
 30
0.0
 10
5.242478003
 20
2.7606503633
 30
0.0
 10
5.2411534776
 20
2.7600656823
 30
0.0
 10
5.2397057306
 20
2.7594283695
 30
0.0
 10
5.2381359111
 20
2.7587388886
 30
0.0
 10
5.2358027115
 20
2.7577162039
 30
0.0
 10
5.2325909797
 20
2.7563123308
 30
0.0
 10
5.2283891716
 20
2.7544810389
 30
0.0
 10
5.2237332631
 20
2.7524569561
 30
0.0
 10
5.2186349007
 20
2.7502490939
 30
0.0
 10
5.2131073299
 20
2.7478669036
 30
0.0
 10
5.2071659628
 20
2.7453182803
 30
0.0
 10
5.2008260136
 20
2.7426127564
 30
0.0
 10
5.1941000023
 20
2.7397661438
 30
0.0
 10
5.1870028322
 20
2.7367917649
 30
0.0
 10
5.1795539091
 20
2.7336949397
 30
0.0
 10
5.1717694634
 20
2.7304859813
 30
0.0
 10
5.1636582142
 20
2.7271892641
 30
0.0
 10
5.1552319338
 20
2.7238237386
 30
0.0
 10
5.146510352
 20
2.7203932708
 30
0.0
 10
5.1375111395
 20
2.7169051741
 30
0.0
 10
5.1282434784
 20
2.713382277
 30
0.0
 10
5.1187158945
 20
2.7098461318
 30
0.0
 10
5.1089403604
 20
2.706311347
 30
0.0
 10
5.0989296553
 20
2.7027937735
 30
0.0
 10
5.0904414854
 20
2.699895127
 30
0.0
 10
5.0835464601
 20
2.6975886356
 30
0.0
 10
5.0765316621
 20
2.6952743086
 30
0.0
 10
5.0694477739
 20
2.6929948037
 30
0.0
 10
5.0622925202
 20
2.6907660701
 30
0.0
 10
5.0568597532
 20
2.6891156561
 30
0.0
 10
5.0513809652
 20
2.6874946147
 30
0.0
 10
5.0439987087
 20
2.6853665374
 30
0.0
 10
5.0384302671
 20
2.6838234683
 30
0.0
 10
5.0347017152
 20
2.6828165221
 30
0.0
  0
SPLINE
  5
3D6
100
AcDbEntity
  8
0
100
AcDbSpline
 62
7
  6
CONTINUOUS
 70
0
 71
3
 72
39
 73
35
 74
0
 42
0.0000001
 43
0.0000001
 44
0.0000000001
 40
0.0
 40
0.0
 40
0.0
 40
0.0
 40
0.1212117018
 40
0.1823970683
 40
0.2439289848
 40
0.3057789745
 40
0.3679198652
 40
0.4303265214
 40
0.4929734053
 40
0.5558355646
 40
0.6188884715
 40
0.6504790162
 40
0.6821083257
 40
0.7137735117
 40
0.7454717742
 40
0.7772003183
 40
0.7930752481
 40
0.8089569623
 40
0.8248448158
 40
0.8407387468
 40
0.85663853
 40
0.8645910075
 40
0.8725452153
 40
0.8884561977
 40
0.9043725434
 40
0.9202960341
 40
0.9362270868
 40
0.9441941617
 40
0.9521657403
 40
0.9601384243
 40
0.9681123569
 40
0.9760872971
 40
0.9840609859
 40
1.0
 40
1.0
 40
1.0
 40
1.0
 10
5.0049402018
 20
2.7373253106
 30
0.0
 10
5.0002504549
 20
2.7335801103
 30
0.0
 10
4.9932019266
 20
2.727933724
 30
0.0
 10
4.9837959871
 20
2.7203571396
 30
0.0
 10
4.9766891735
 20
2.7146118131
 30
0.0
 10
4.9695551116
 20
2.7088249575
 30
0.0
 10
4.9623986135
 20
2.7029970271
 30
0.0
 10
4.955228852
 20
2.6971229509
 30
0.0
 10
4.948052692
 20
2.6912004103
 30
0.0
 10
4.9408800651
 20
2.6852234616
 30
0.0
 10
4.9349196852
 20
2.6801939931
 30
0.0
 10
4.9301670303
 20
2.6761315363
 30
0.0
 10
4.9266114731
 20
2.6730605709
 30
0.0
 10
4.9230713312
 20
2.6699637183
 30
0.0
 10
4.919552185
 20
2.6668356024
 30
0.0
 10
4.9166445762
 20
2.6641965647
 30
0.0
 10
4.9143397377
 20
2.6620590584
 30
0.0
 10
4.9126233647
 20
2.6604405852
 30
0.0
 10
4.9109233834
 20
2.6588035206
 30
0.0
 10
4.9092435095
 20
2.6571445263
 30
0.0
 10
4.9078652987
 20
2.6557395351
 30
0.0
 10
4.9067791317
 20
2.6545991232
 30
0.0
 10
4.9057051236
 20
2.6534464976
 30
0.0
 10
4.9043911197
 20
2.6519786781
 30
0.0
 10
4.9028765102
 20
2.6501622893
 30
0.0
 10
4.9014464666
 20
2.6482771243
 30
0.0
 10
4.9003480183
 20
2.6466372555
 30
0.0
 10
4.8995596923
 20
2.6452695717
 30
0.0
 10
4.8990224406
 20
2.6442138815
 30
0.0
 10
4.898545335
 20
2.6431292014
 30
0.0
 10
4.8981355648
 20
2.6420170519
 30
0.0
 10
4.8977991006
 20
2.6408803682
 30
0.0
 10
4.8974556496
 20
2.6393381936
 30
0.0
 10
4.8973218785
 20
2.6381574386
 30
0.0
 10
4.8972769143
 20
2.6373695147
 30
0.0
  0
SPLINE
  5
3D7
100
AcDbEntity
  8
0
100
AcDbSpline
 62
7
  6
CONTINUOUS
 70
0
 71
3
 72
46
 73
42
 74
0
 42
0.0000001
 43
0.0000001
 44
0.0000000001
 40
0.0
 40
0.0
 40
0.0
 40
0.0
 40
0.0607078468
 40
0.1217582483
 40
0.1831227114
 40
0.244776795
 40
0.3066987564
 40
0.368872076
 40
0.431274444
 40
0.4938836521
 40
0.5566790026
 40
0.5881403068
 40
0.6196408482
 40
0.6511783197
 40
0.6827504684
 40
0.7143550976
 40
0.7459900587
 40
0.77765325
 40
0.8093426102
 40
0.8251966188
 40
0.8410564867
 40
0.8569219722
 40
0.8727928759
 40
0.8886690228
 40
0.9045502982
 40
0.9204363447
 40
0.9283824116
 40
0.9363294401
 40
0.9442784256
 40
0.9482542032
 40
0.9522313994
 40
0.9562086094
 40
0.9601865854
 40
0.9641670649
 40
0.9681474212
 40
0.9761063607
 40
0.984066447
 40
0.9880492675
 40
0.9920334334
 40
0.9960188243
 40
1.0
 40
1.0
 40
1.0
 40
1.0
 10
5.034701846
 20
2.6828167487
 30
0.0
 10
5.0319013082
 20
2.682060237
 30
0.0
 10
5.0262843983
 20
2.6805430623
 30
0.0
 10
5.0178380168
 20
2.6782561711
 30
0.0
 10
5.0093509108
 20
2.6759466978
 30
0.0
 10
5.0008277342
 20
2.6736112081
 30
0.0
 10
4.9922715797
 20
2.6712498868
 30
0.0
 10
4.9836792022
 20
2.668885428
 30
0.0
 10
4.9750569741
 20
2.6665056681
 30
0.0
 10
4.9664107879
 20
2.6641010376
 30
0.0
 10
4.959195575
 20
2.6620692073
 30
0.0
 10
4.9534173094
 20
2.6604189542
 30
0.0
 10
4.9490789814
 20
2.6591659665
 30
0.0
 10
4.9447400846
 20
2.6578959514
 30
0.0
 10
4.9404019694
 20
2.6566056921
 30
0.0
 10
4.9360662812
 20
2.655291126
 30
0.0
 10
4.9317351682
 20
2.6539467554
 30
0.0
 10
4.9274116294
 20
2.6525648022
 30
0.0
 10
4.9238193709
 20
2.6513723613
 30
0.0
 10
4.9209551457
 20
2.6503846362
 30
0.0
 10
4.9188127978
 20
2.6496232743
 30
0.0
 10
4.9166786932
 20
2.6488366975
 30
0.0
 10
4.9145556611
 20
2.64801844
 30
0.0
 10
4.9124477105
 20
2.6471598598
 30
0.0
 10
4.9103614782
 20
2.6462476689
 30
0.0
 10
4.9086510723
 20
2.6454239922
 30
0.0
 10
4.9073097128
 20
2.644711634
 30
0.0
 10
4.9063223591
 20
2.6441426607
 30
0.0
 10
4.9055210704
 20
2.6436322723
 30
0.0
 10
4.9048981459
 20
2.6431969239
 30
0.0
 10
4.9044413176
 20
2.6428557013
 30
0.0
 10
4.9039979482
 20
2.6424969018
 30
0.0
 10
4.9035715683
 20
2.6421177549
 30
0.0
 10
4.9031661043
 20
2.6417159126
 30
0.0
 10
4.9026605963
 20
2.6411468967
 30
0.0
 10
4.9021076303
 20
2.640367986
 30
0.0
 10
4.9017085588
 20
2.6394963229
 30
0.0
 10
4.9015133531
 20
2.6387590417
 30
0.0
 10
4.9014324405
 20
2.6381924805
 30
0.0
 10
4.9014073088
 20
2.6376212138
 30
0.0
 10
4.9014256834
 20
2.637240321
 30
0.0
 10
4.9014438118
 20
2.6370509467
 30
0.0
  0
SPLINE
  5
3D8
100
AcDbEntity
  8
0
100
AcDbSpline
 62
7
  6
CONTINUOUS
 70
0
 71
3
 72
30
 73
26
 74
0
 42
0.0000001
 43
0.0000001
 44
0.0000000001
 40
0.0
 40
0.0
 40
0.0
 40
0.0
 40
0.170822215
 40
0.2560209352
 40
0.3407941765
 40
0.4247272034
 40
0.5071696123
 40
0.5871422997
 40
0.6633169588
 40
0.7341118866
 40
0.7980396029
 40
0.8543768982
 40
0.9026784149
 40
0.923626346
 40
0.9423075346
 40
0.9586023857
 40
0.9723766754
 40
0.9782731708
 40
0.9834854387
 40
0.9879955439
 40
0.9917884532
 40
0.9948557471
 40
0.9961191295
 40
0.9972063347
 40
1.0
 40
1.0
 40
1.0
 40
1.0
 10
6.744935947
 20
2.2973253106
 30
0.0
 10
6.744935947
 20
2.2955983266
 30
0.0
 10
6.7449310888
 20
2.2930099995
 30
0.0
 10
6.744922863
 20
2.289564638
 30
0.0
 10
6.7449182342
 20
2.2869977049
 30
0.0
 10
6.7449178328
 20
2.284458632
 30
0.0
 10
6.744924682
 20
2.2819680979
 30
0.0
 10
6.7449420438
 20
2.2795560468
 30
0.0
 10
6.7449730172
 20
2.2772618875
 30
0.0
 10
6.7450199154
 20
2.2751302327
 30
0.0
 10
6.745084123
 20
2.2731996654
 30
0.0
 10
6.7451629016
 20
2.2714972618
 30
0.0
 10
6.7452411922
 20
2.2702299299
 30
0.0
 10
6.7453112896
 20
2.2693437132
 30
0.0
 10
6.7453637755
 20
2.2687807458
 30
0.0
 10
6.7454185575
 20
2.2682909146
 30
0.0
 10
6.7454680668
 20
2.2679306174
 30
0.0
 10
6.7455099537
 20
2.2676825486
 30
0.0
 10
6.74554025
 20
2.2675275459
 30
0.0
 10
6.7455709754
 20
2.2673944018
 30
0.0
 10
6.7456022238
 20
2.267283626
 30
0.0
 10
6.7456297938
 20
2.2672063902
 30
0.0
 10
6.7456532318
 20
2.2671563594
 30
0.0
 10
6.7456780579
 20
2.2671123854
 30
0.0
 10
6.7457100087
 20
2.2670752885
 30
0.0
 10
6.7457382522
 20
2.2670753074
 30
0.0
  0
SPLINE
  5
3D9
100
AcDbEntity
  8
0
100
AcDbSpline
 62
7
  6
CONTINUOUS
 70
0
 71
3
 72
24
 73
20
 74
0
 42
0.0000001
 43
0.0000001
 44
0.0000000001
 40
0.0
 40
0.0
 40
0.0
 40
0.0
 40
0.0624980363
 40
0.0937491142
 40
0.1250015903
 40
0.1562545127
 40
0.1875064884
 40
0.2187572181
 40
0.2500070545
 40
0.3125053349
 40
0.375003689
 40
0.4375030587
 40
0.5000030353
 40
0.5625030512
 40
0.625002749
 40
0.6875022448
 40
0.7500016954
 40
0.8750008241
 40
1.0
 40
1.0
 40
1.0
 40
1.0
 10
4.8972769143
 20
2.6373695147
 30
0.0
 10
4.8969117634
 20
2.6302940825
 30
0.0
 10
4.8964750322
 20
2.619674823
 30
0.0
 10
4.8960462986
 20
2.6055109769
 30
0.0
 10
4.8957842502
 20
2.5948858095
 30
0.0
 10
4.8955649576
 20
2.5842596181
 30
0.0
 10
4.895369785
 20
2.573633159
 30
0.0
 10
4.8951937317
 20
2.5630067173
 30
0.0
 10
4.8949831628
 20
2.548838265
 30
0.0
 10
4.8947604524
 20
2.5311273635
 30
0.0
 10
4.8945432562
 20
2.5098736996
 30
0.0
 10
4.8943647632
 20
2.4886194871
 30
0.0
 10
4.8942178049
 20
2.4673648488
 30
0.0
 10
4.8940938764
 20
2.4461100295
 30
0.0
 10
4.8939867162
 20
2.4248551744
 30
0.0
 10
4.8938953628
 20
2.4036003095
 30
0.0
 10
4.8937925587
 20
2.375260429
 30
0.0
 10
4.8936943171
 20
2.3398354552
 30
0.0
 10
4.8936627147
 20
2.3114953591
 30
0.0
 10
4.8936627985
 20
2.2973253106
 30
0.0
  0
LINE
  5
3DA
100
AcDbEntity
  8
0
100
AcDbLine
 62
7
  6
CONTINUOUS
 10
4.8972769145
 20
2.6373695147
 11
4.9014438133
 21
2.6370509468
  0
SPLINE
  5
3DB
100
AcDbEntity
  8
0
100
AcDbSpline
 62
7
  6
CONTINUOUS
 70
0
 71
3
 72
23
 73
19
 74
0
 42
0.0000001
 43
0.0000001
 44
0.0000000001
 40
0.0
 40
0.0
 40
0.0
 40
0.0
 40
0.0312498357
 40
0.0468750863
 40
0.062500231
 40
0.0937502034
 40
0.125000156
 40
0.1562501799
 40
0.1875002142
 40
0.2500001689
 40
0.3125001495
 40
0.3750001354
 40
0.4375001282
 40
0.5000001175
 40
0.6250000812
 40
0.7500000535
 40
0.8750000287
 40
1.0
 40
1.0
 40
1.0
 40
1.0
 10
4.9014438133
 20
2.6370509468
 30
0.0
 10
4.9012331913
 20
2.6335178717
 30
0.0
 10
4.900955126
 20
2.6282159235
 30
0.0
 10
4.9006388036
 20
2.6211442311
 30
0.0
 10
4.9003512098
 20
2.6140712815
 30
0.0
 10
4.9000390561
 20
2.6052283021
 30
0.0
 10
4.8997222852
 20
2.5946148979
 30
0.0
 10
4.8994505083
 20
2.5840002517
 30
0.0
 10
4.899134419
 20
2.5698462962
 30
0.0
 10
4.8988084377
 20
2.5521524064
 30
0.0
 10
4.8984944013
 20
2.5309185097
 30
0.0
 10
4.898239402
 20
2.5096838267
 30
0.0
 10
4.8980282874
 20
2.4884486718
 30
0.0
 10
4.8977907658
 20
2.4601347359
 30
0.0
 10
4.8975610726
 20
2.4247417968
 30
0.0
 10
4.8973608857
 20
2.3822698694
 30
0.0
 10
4.8972211929
 20
2.3397976999
 30
0.0
 10
4.8971815729
 20
2.3114827722
 30
0.0
 10
4.8971816963
 20
2.2973253106
 30
0.0
  0
SPLINE
  5
3DC
100
AcDbEntity
  8
0
100
AcDbSpline
 62
7
  6
CONTINUOUS
 70
0
 71
3
 72
89
 73
85
 74
0
 42
0.0000001
 43
0.0000001
 44
0.0000000001
 40
0.0
 40
0.0
 40
0.0
 40
0.0
 40
0.0049149146
 40
0.0098303368
 40
0.0147453099
 40
0.0172030788
 40
0.0196602322
 40
0.0245738498
 40
0.0294866412
 40
0.0319428961
 40
0.0343989412
 40
0.0393105473
 40
0.0491318181
 40
0.0589505702
 40
0.068766542
 40
0.0785794669
 40
0.0883890685
 40
0.0981950645
 40
0.1177950755
 40
0.1373771566
 40
0.1569388802
 40
0.1764777517
 40
0.1959912042
 40
0.2154765908
 40
0.2349311759
 40
0.273736501
 40
0.3123831506
 40
0.3508449906
 40
0.3890933325
 40
0.4270964163
 40
0.4648187993
 40
0.5022206164
 40
0.5392565386
 40
0.5758747145
 40
0.6120160372
 40
0.6476105452
 40
0.6825776683
 40
0.7168198932
 40
0.7502243414
 40
0.782656165
 40
0.813951819
 40
0.8439173309
 40
0.8723200688
 40
0.885849164
 40
0.8988782546
 40
0.9113636238
 40
0.9232593657
 40
0.9345147929
 40
0.9450744982
 40
0.954882887
 40
0.9638842364
 40
0.9680636963
 40
0.9720180169
 40
0.9757388676
 40
0.9792185174
 40
0.9824506179
 40
0.9854290145
 40
0.988147531
 40
0.9905997646
 40
0.992779179
 40
0.9946792628
 40
0.9955228247
 40
0.9962948269
 40
0.9969948766
 40
0.9976225809
 40
0.9981775467
 40
0.9986593819
 40
0.9990677537
 40
0.9992443197
 40
0.9994024368
 40
0.9995420781
 40
0.9996632168
 40
0.9997658262
 40
0.9998498794
 40
0.9998849392
 40
0.9999153499
 40
0.9999411081
 40
0.9999622107
 40
0.9999786542
 40
0.9999904353
 40
0.9999945766
 40
0.999997551
 40
0.9999993586
 40
1.0
 40
1.0
 40
1.0
 40
1.0
 10
4.8936627985
 20
2.2973253106
 30
0.0
 10
4.8936617439
 20
2.296442411
 30
0.0
 10
4.893807606
 20
2.2946731988
 30
0.0
 10
4.8944221217
 20
2.2920897268
 30
0.0
 10
4.8951544408
 20
2.2900044073
 30
0.0
 10
4.8958279115
 20
2.2883718924
 30
0.0
 10
4.8965477855
 20
2.2867594968
 30
0.0
 10
4.8975202898
 20
2.2847780528
 30
0.0
 10
4.8985549742
 20
2.2828290171
 30
0.0
 10
4.8994095047
 20
2.2812847018
 30
0.0
 10
4.9002781757
 20
2.2797485425
 30
0.0
 10
4.9018314038
 20
2.2770797464
 30
0.0
 10
4.9041172114
 20
2.2733076114
 30
0.0
 10
4.9069217014
 20
2.2688204728
 30
0.0
 10
4.9097648154
 20
2.2643595189
 30
0.0
 10
4.9126333484
 20
2.2599168601
 30
0.0
 10
4.9155193468
 20
2.2554876752
 30
0.0
 10
4.9193830373
 20
2.2495971754
 30
0.0
 10
4.9242341961
 20
2.2422549783
 30
0.0
 10
4.9300750186
 20
2.233466269
 30
0.0
 10
4.9359251232
 20
2.2246969373
 30
0.0
 10
4.9417788958
 20
2.2159448842
 30
0.0
 10
4.9476325543
 20
2.2072092578
 30
0.0
 10
4.9534833216
 20
2.1984899231
 30
0.0
 10
4.9612706778
 20
2.1868966409
 30
0.0
 10
4.9709853613
 20
2.1724514578
 30
0.0
 10
4.9826136195
 20
2.155178472
 30
0.0
 10
4.9941915265
 20
2.137992206
 30
0.0
 10
5.0057087354
 20
2.1209044447
 30
0.0
 10
5.0171545437
 20
2.1039287487
 30
0.0
 10
5.0285174529
 20
2.0870805622
 30
0.0
 10
5.039784851
 20
2.0703775185
 30
0.0
 10
5.0509425968
 20
2.0538397746
 30
0.0
 10
5.0619747123
 20
2.0374904177
 30
0.0
 10
5.0728628176
 20
2.0213562525
 30
0.0
 10
5.0835856693
 20
2.0054683747
 30
0.0
 10
5.0941181913
 20
1.9898636172
 30
0.0
 10
5.1044311459
 20
1.9745853048
 30
0.0
 10
5.1144897192
 20
1.9596847622
 30
0.0
 10
5.1242518575
 20
1.9452227381
 30
0.0
 10
5.1336686456
 20
1.9312729258
 30
0.0
 10
5.1426821032
 20
1.9179240919
 30
0.0
 10
5.1499087064
 20
1.9072196894
 30
0.0
 10
5.1554328424
 20
1.8990367633
 30
0.0
 10
5.1593574947
 20
1.8932239678
 30
0.0
 10
5.1631181171
 20
1.88765445
 30
0.0
 10
5.1667001581
 20
1.8823487969
 30
0.0
 10
5.1700884355
 20
1.8773297038
 30
0.0
 10
5.1732675627
 20
1.8726218278
 30
0.0
 10
5.1762208078
 20
1.8682500094
 30
0.0
 10
5.1785315628
 20
1.8648273047
 30
0.0
 10
5.1802532377
 20
1.8622757271
 30
0.0
 10
5.1814444012
 20
1.8605105003
 30
0.0
 10
5.1825655657
 20
1.8588496945
 30
0.0
 10
5.1836146853
 20
1.8572967857
 30
0.0
 10
5.1845893733
 20
1.8558545485
 30
0.0
 10
5.1854874789
 20
1.8545255789
 30
0.0
 10
5.1863067457
 20
1.8533124139
 30
0.0
 10
5.1870453375
 20
1.8522179573
 30
0.0
 10
5.1877015718
 20
1.8512452889
 30
0.0
 10
5.1881963027
 20
1.8505122542
 30
0.0
 10
5.1885497638
 20
1.8499888917
 30
0.0
 10
5.1887826215
 20
1.8496442062
 30
0.0
 10
5.1889938047
 20
1.8493316733
 30
0.0
 10
5.1891831714
 20
1.8490514528
 30
0.0
 10
5.1893505815
 20
1.8488037053
 30
0.0
 10
5.1894958987
 20
1.8485885811
 30
0.0
 10
5.1896031193
 20
1.8484297526
 30
0.0
 10
5.1896777722
 20
1.8483191005
 30
0.0
 10
5.1897254115
 20
1.8482484564
 30
0.0
 10
5.1897674684
 20
1.848186057
 30
0.0
 10
5.1898039361
 20
1.8481319151
 30
0.0
 10
5.1898348075
 20
1.8480860434
 30
0.0
 10
5.1898570288
 20
1.8480529887
 30
0.0
 10
5.1898719999
 20
1.8480306881
 30
0.0
 10
5.1898811284
 20
1.8480170774
 30
0.0
 10
5.1898888492
 20
1.8480055434
 30
0.0
 10
5.189895175
 20
1.8479960894
 30
0.0
 10
5.1899000693
 20
1.8479887131
 30
0.0
 10
5.1899033204
 20
1.8479838712
 30
0.0
 10
5.1899051324
 20
1.8479810287
 30
0.0
 10
5.1899060921
 20
1.8479796937
 30
0.0
 10
5.1899064614
 20
1.8479788562
 30
0.0
 10
5.1899068554
 20
1.8479784971
 30
0.0
 10
5.1899068323
 20
1.8479783843
 30
0.0
  0
SPLINE
  5
3DD
100
AcDbEntity
  8
0
100
AcDbSpline
 62
7
  6
CONTINUOUS
 70
0
 71
3
 72
90
 73
86
 74
0
 42
0.0000001
 43
0.0000001
 44
0.0000000001
 40
0.0
 40
0.0
 40
0.0
 40
0.0
 40
0.0024600897
 40
0.0049209573
 40
0.0073815467
 40
0.0086122907
 40
0.0098424629
 40
0.011072638
 40
0.0123026126
 40
0.0147619398
 40
0.0172209893
 40
0.0196798253
 40
0.0245966225
 40
0.0295127686
 40
0.034428235
 40
0.0393429995
 40
0.044257041
 40
0.0491703347
 40
0.0589945308
 40
0.0688153843
 40
0.0786326241
 40
0.088445976
 40
0.0982551607
 40
0.1178598836
 40
0.1374444874
 40
0.1570065919
 40
0.1765437543
 40
0.1960534624
 40
0.2155331271
 40
0.2349800742
 40
0.2543915346
 40
0.2737646345
 40
0.3123836728
 40
0.3508116696
 40
0.3890206344
 40
0.4269795882
 40
0.4646539539
 40
0.5020048218
 40
0.5389880164
 40
0.575552922
 40
0.6116415783
 40
0.6471863266
 40
0.6821073596
 40
0.7163115104
 40
0.7496856025
 40
0.7820983494
 40
0.8133883615
 40
0.8433643408
 40
0.8717932639
 40
0.8853423822
 40
0.8983973718
 40
0.9109130741
 40
0.9228424074
 40
0.9341346927
 40
0.9447366591
 40
0.9545914785
 40
0.9636386418
 40
0.9718162395
 40
0.9755592223
 40
0.9790614852
 40
0.9823161283
 40
0.9853163204
 40
0.9880552373
 40
0.9905261182
 40
0.992722234
 40
0.9946368923
 40
0.9954869301
 40
0.9962648726
 40
0.9969703273
 40
0.9976029016
 40
0.9981622032
 40
0.9986478404
 40
0.9990594833
 40
0.9993969041
 40
0.999537713
 40
0.9996598845
 40
0.9997633913
 40
0.9998482061
 40
0.9999143016
 40
0.999940321
 40
0.9999616505
 40
0.9999782864
 40
0.9999902255
 40
0.9999974644
 40
1.0
 40
1.0
 40
1.0
 40
1.0
 10
4.8971816962
 20
2.2973253106
 30
0.0
 10
4.8971812957
 20
2.2968890684
 30
0.0
 10
4.8973006778
 20
2.2960129373
 30
0.0
 10
4.8977758325
 20
2.2947849907
 30
0.0
 10
4.8983279945
 20
2.2938403171
 30
0.0
 10
4.8988289921
 20
2.2931254938
 30
0.0
 10
4.8992284131
 20
2.2926066857
 30
0.0
 10
4.8996472765
 20
2.292103747
 30
0.0
 10
4.9002259041
 20
2.291450759
 30
0.0
 10
4.9009807153
 20
2.29066345
 30
0.0
 10
4.9019209266
 20
2.2897535681
 30
0.0
 10
4.903208494
 20
2.2885770461
 30
0.0
 10
4.9048647967
 20
2.2871593603
 30
0.0
 10
4.9068972407
 20
2.2855131906
 30
0.0
 10
4.9089595011
 20
2.2839052136
 30
0.0
 10
4.9110422868
 20
2.282324631
 30
0.0
 10
4.9131399514
 20
2.2807645264
 30
0.0
 10
4.9159514246
 20
2.2787055583
 30
0.0
 10
4.9194866596
 20
2.2761623938
 30
0.0
 10
4.9237497597
 20
2.2731422182
 30
0.0
 10
4.9280263053
 20
2.2701444748
 30
0.0
 10
4.9323118606
 20
2.2671632628
 30
0.0
 10
4.9380328114
 20
2.2632062548
 30
0.0
 10
4.9451938863
 20
2.2582854272
 30
0.0
 10
4.9537955166
 20
2.2524073079
 30
0.0
 10
4.9623977917
 20
2.2465513992
 30
0.0
 10
4.9709968101
 20
2.2407143276
 30
0.0
 10
4.9795896945
 20
2.2348942597
 30
0.0
 10
4.9881741264
 20
2.2290902468
 30
0.0
 10
4.9967481171
 20
2.2233019005
 30
0.0
 10
5.005309866
 20
2.2175291974
 30
0.0
 10
5.0166944814
 20
2.2098618361
 30
0.0
 10
5.03088275
 20
2.2003206754
 30
0.0
 10
5.0478517251
 20
2.1889290269
 30
0.0
 10
5.0647314735
 20
2.1776144812
 30
0.0
 10
5.0815074536
 20
2.1663851538
 30
0.0
 10
5.0981637104
 20
2.1552505254
 30
0.0
 10
5.1146824589
 20
2.1442215473
 30
0.0
 10
5.1310436157
 20
2.1333108482
 30
0.0
 10
5.1472243151
 20
2.1225329723
 30
0.0
 10
5.163198234
 20
2.1119047833
 30
0.0
 10
5.1789347481
 20
2.101446024
 30
0.0
 10
5.1943980094
 20
2.0911798553
 30
0.0
 10
5.2095454255
 20
2.081133872
 30
0.0
 10
5.2243267592
 20
2.0713406567
 30
0.0
 10
5.2386816558
 20
2.0618394246
 30
0.0
 10
5.2525382285
 20
2.0526770649
 30
0.0
 10
5.2658093861
 20
2.0439101824
 30
0.0
 10
5.2764578177
 20
2.036880641
 30
0.0
 10
5.2846038293
 20
2.0315067808
 30
0.0
 10
5.2903953514
 20
2.0276883174
 30
0.0
 10
5.2959477443
 20
2.0240289815
 30
0.0
 10
5.3012394198
 20
2.0205420717
 30
0.0
 10
5.3062480227
 20
2.0172423369
 30
0.0
 10
5.3109500745
 20
2.0141459625
 30
0.0
 10
5.3153202992
 20
2.0112695745
 30
0.0
 10
5.3193318391
 20
2.0086301817
 30
0.0
 10
5.3224381423
 20
2.0065867472
 30
0.0
 10
5.3247229114
 20
2.0050835829
 30
0.0
 10
5.3262783295
 20
2.0040601428
 30
0.0
 10
5.3277237587
 20
2.0031091733
 30
0.0
 10
5.3290562306
 20
2.0022327938
 30
0.0
 10
5.3302728409
 20
2.0014331774
 30
0.0
 10
5.3313704709
 20
2.0007121377
 30
0.0
 10
5.3323459573
 20
2.0000713779
 30
0.0
 10
5.3330810689
 20
1.9995881954
 30
0.0
 10
5.3336058855
 20
1.9992429225
 30
0.0
 10
5.3339515275
 20
1.9990154409
 30
0.0
 10
5.3342649342
 20
1.9988091237
 30
0.0
 10
5.3345459542
 20
1.9986241211
 30
0.0
 10
5.3347944346
 20
1.9984605798
 30
0.0
 10
5.3350102346
 20
1.9983186456
 30
0.0
 10
5.3351932265
 20
1.9981984303
 30
0.0
 10
5.3353251593
 20
1.9981118607
 30
0.0
 10
5.3354142036
 20
1.9980534953
 30
0.0
 10
5.335468569
 20
1.9980178879
 30
0.0
 10
5.335514639
 20
1.997987737
 30
0.0
 10
5.3355524016
 20
1.9979630527
 30
0.0
 10
5.3355786686
 20
1.9979458919
 30
0.0
 10
5.3355955249
 20
1.9979349162
 30
0.0
 10
5.3356050233
 20
1.9979287014
 30
0.0
 10
5.3356124688
 20
1.99792394
 30
0.0
 10
5.3356177398
 20
1.9979203464
 30
0.0
 10
5.3356210803
 20
1.9979185089
 30
0.0
 10
5.335622432
 20
1.9979173139
 30
0.0
 10
5.3356228662
 20
1.9979171972
 30
0.0
  0
SPLINE
  5
3DE
100
AcDbEntity
  8
0
100
AcDbSpline
 62
7
  6
CONTINUOUS
 70
0
 71
3
 72
25
 73
21
 74
0
 42
0.0000001
 43
0.0000001
 44
0.0000000001
 40
0.0
 40
0.0
 40
0.0
 40
0.0
 40
0.0092113587
 40
0.0188489536
 40
0.0292968412
 40
0.0408562117
 40
0.0537456357
 40
0.068116632
 40
0.0840737986
 40
0.1016867801
 40
0.142024211
 40
0.1893072918
 40
0.2435172587
 40
0.3045244291
 40
0.3721178758
 40
0.4460172656
 40
0.5258907866
 40
0.6113572205
 40
0.7973003138
 40
1.0
 40
1.0
 40
1.0
 40
1.0
 10
6.7363987421
 20
2.3303253095
 30
0.0
 10
6.7363434637
 20
2.3303253121
 30
0.0
 10
6.7362299729
 20
2.330312218
 30
0.0
 10
6.7360627643
 20
2.3302542012
 30
0.0
 10
6.735897503
 20
2.3301587106
 30
0.0
 10
6.7357342371
 20
2.3300264773
 30
0.0
 10
6.7355727336
 20
2.3298579063
 30
0.0
 10
6.7354128963
 20
2.3296532159
 30
0.0
 10
6.7352547556
 20
2.3294125653
 30
0.0
 10
6.735036396
 20
2.3290262127
 30
0.0
 10
6.7347731044
 20
2.3284510345
 30
0.0
 10
6.7344789711
 20
2.3276517777
 30
0.0
 10
6.7341956076
 20
2.3267182058
 30
0.0
 10
6.7339246878
 20
2.3256548206
 30
0.0
 10
6.7336678925
 20
2.3244668068
 30
0.0
 10
6.7334267673
 20
2.3231602552
 30
0.0
 10
6.7332027911
 20
2.3217419888
 30
0.0
 10
6.7329209578
 20
2.3196526751
 30
0.0
 10
6.7326265097
 20
2.3168220888
 30
0.0
 10
6.7324602695
 20
2.3144953496
 30
0.0
 10
6.7323902535
 20
2.3132809424
 30
0.0
  0
SPLINE
  5
3DF
100
AcDbEntity
  8
0
100
AcDbSpline
 62
7
  6
CONTINUOUS
 70
0
 71
3
 72
14
 73
10
 74
0
 42
0.0000001
 43
0.0000001
 44
0.0000000001
 40
0.0
 40
0.0
 40
0.0
 40
0.0
 40
0.3448784161
 40
0.4937415677
 40
0.6267646268
 40
0.7439353962
 40
0.8452322371
 40
0.9306129057
 40
1.0
 40
1.0
 40
1.0
 40
1.0
 10
6.7462035564
 20
2.3279022923
 30
0.0
 10
6.7461368693
 20
2.3291195449
 30
0.0
 10
6.746030066
 20
2.3308616788
 30
0.0
 10
6.7458594565
 20
2.3330706304
 30
0.0
 10
6.7457334639
 20
2.3344756272
 30
0.0
 10
6.7456036287
 20
2.3357113304
 30
0.0
 10
6.7454705625
 20
2.3367772049
 30
0.0
 10
6.7453349257
 20
2.3376722183
 30
0.0
 10
6.7452330759
 20
2.338209997
 30
0.0
 10
6.7451795532
 20
2.3384493558
 30
0.0
  0
LINE
  5
3E0
100
AcDbEntity
  8
0
100
AcDbLine
 62
7
  6
CONTINUOUS
 10
6.7451795532
 20
2.3384493558
 11
6.744925214
 21
2.3392970111
  0
SPLINE
  5
3E1
100
AcDbEntity
  8
0
100
AcDbSpline
 62
7
  6
CONTINUOUS
 70
0
 71
3
 72
37
 73
33
 74
0
 42
0.0000001
 43
0.0000001
 44
0.0000000001
 40
0.0
 40
0.0
 40
0.0
 40
0.0
 40
0.0699831809
 40
0.1042122757
 40
0.1378983332
 40
0.1710196687
 40
0.2035587459
 40
0.2355037196
 40
0.2668509153
 40
0.2976070464
 40
0.327791425
 40
0.3574384506
 40
0.3865993389
 40
0.4153428645
 40
0.4437549495
 40
0.4719365872
 40
0.5
 40
0.5280634128
 40
0.5562450506
 40
0.5846571356
 40
0.6134006612
 40
0.6425615495
 40
0.672208575
 40
0.7023929537
 40
0.7331490847
 40
0.7644962804
 40
0.7964412541
 40
0.8289803313
 40
0.8621016668
 40
0.8957877243
 40
0.9300168191
 40
1.0
 40
1.0
 40
1.0
 40
1.0
 10
5.7774068323
 20
2.6581692288
 30
0.0
 10
5.773942369
 20
2.6547047655
 30
0.0
 10
5.7688926708
 20
2.6494335474
 30
0.0
 10
5.7624982915
 20
2.6421992579
 30
0.0
 10
5.7579707582
 20
2.6367630195
 30
0.0
 10
5.7536947826
 20
2.6312758114
 30
0.0
 10
5.7496898226
 20
2.6257371656
 30
0.0
 10
5.7459762935
 20
2.6201471954
 30
0.0
 10
5.7425751445
 20
2.6145066863
 30
0.0
 10
5.739507677
 20
2.6088171556
 30
0.0
 10
5.7367950624
 20
2.603081023
 30
0.0
 10
5.7344577581
 20
2.5973017559
 30
0.0
 10
5.7325149784
 20
2.5914839133
 30
0.0
 10
5.7309840256
 20
2.5856332182
 30
0.0
 10
5.7298793354
 20
2.5797566027
 30
0.0
 10
5.7292118815
 20
2.5738620288
 30
0.0
 10
5.7289885869
 20
2.5679582492
 30
0.0
 10
5.7292118815
 20
2.5620544697
 30
0.0
 10
5.7298793354
 20
2.5561598957
 30
0.0
 10
5.7309840256
 20
2.5502832803
 30
0.0
 10
5.7325149784
 20
2.5444325851
 30
0.0
 10
5.7344577581
 20
2.5386147426
 30
0.0
 10
5.7367950624
 20
2.5328354755
 30
0.0
 10
5.739507677
 20
2.5270993429
 30
0.0
 10
5.7425751445
 20
2.5214098122
 30
0.0
 10
5.7459762935
 20
2.5157693031
 30
0.0
 10
5.7496898226
 20
2.5101793328
 30
0.0
 10
5.7536947826
 20
2.5046406871
 30
0.0
 10
5.7579707582
 20
2.499153479
 30
0.0
 10
5.7624982915
 20
2.4937172406
 30
0.0
 10
5.7688926708
 20
2.4864829511
 30
0.0
 10
5.773942369
 20
2.481211733
 30
0.0
 10
5.7774068323
 20
2.4777472697
 30
0.0
  0
SPLINE
  5
3E2
100
AcDbEntity
  8
0
100
AcDbSpline
 62
7
  6
CONTINUOUS
 70
0
 71
3
 72
30
 73
26
 74
0
 42
0.0000001
 43
0.0000001
 44
0.0000000001
 40
0.0
 40
0.0
 40
0.0
 40
0.0
 40
0.1708217729
 40
0.2560202739
 40
0.340793296
 40
0.4247261028
 40
0.5071682929
 40
0.5871407675
 40
0.6633152237
 40
0.7341099425
 40
0.7980374738
 40
0.8543746165
 40
0.9026760572
 40
0.9236239921
 40
0.9423052097
 40
0.9586001248
 40
0.9723745226
 40
0.9782710972
 40
0.9834834664
 40
0.9879937013
 40
0.9917867797
 40
0.9948542998
 40
0.9961178264
 40
0.9972052037
 40
1.0
 40
1.0
 40
1.0
 40
1.0
 10
6.7444343474
 20
2.2973253106
 30
0.0
 10
6.7444343474
 20
2.2990522953
 30
0.0
 10
6.744429486
 20
2.3016406238
 30
0.0
 10
6.7444212549
 20
2.3050859869
 30
0.0
 10
6.7444166232
 20
2.3076529213
 30
0.0
 10
6.7444162215
 20
2.3101919954
 30
0.0
 10
6.7444230752
 20
2.3126825305
 30
0.0
 10
6.7444404483
 20
2.3150945826
 30
0.0
 10
6.7444714419
 20
2.3173887425
 30
0.0
 10
6.7445183706
 20
2.3195203971
 30
0.0
 10
6.74458262
 20
2.3214509636
 30
0.0
 10
6.7446614498
 20
2.3231533659
 30
0.0
 10
6.7447397912
 20
2.3244206964
 30
0.0
 10
6.744809934
 20
2.3253069118
 30
0.0
 10
6.744862454
 20
2.3258698788
 30
0.0
 10
6.7449172716
 20
2.3263597096
 30
0.0
 10
6.744966813
 20
2.3267200062
 30
0.0
 10
6.745008727
 20
2.3269680742
 30
0.0
 10
6.7450390429
 20
2.3271230768
 30
0.0
 10
6.7450697883
 20
2.327256221
 30
0.0
 10
6.7451010571
 20
2.3273669969
 30
0.0
 10
6.7451286451
 20
2.3274442327
 30
0.0
 10
6.745152098
 20
2.3274942623
 30
0.0
 10
6.7451769439
 20
2.3275382438
 30
0.0
 10
6.7452089182
 20
2.3275753327
 30
0.0
 10
6.7452371732
 20
2.3275753137
 30
0.0
  0
SPLINE
  5
3E3
100
AcDbEntity
  8
0
100
AcDbSpline
 62
7
  6
CONTINUOUS
 70
0
 71
3
 72
35
 73
31
 74
0
 42
0.0000001
 43
0.0000001
 44
0.0000000001
 40
0.0
 40
0.0
 40
0.0
 40
0.0
 40
0.0371478489
 40
0.0730838591
 40
0.1078945526
 40
0.1416764093
 40
0.1745259899
 40
0.2065411309
 40
0.23781829
 40
0.2684509369
 40
0.2985286603
 40
0.3281363392
 40
0.3573536488
 40
0.3862551326
 40
0.443365227
 40
0.5000000001
 40
0.5566347734
 40
0.6137448678
 40
0.6426463515
 40
0.6718636612
 40
0.7014713401
 40
0.7315490634
 40
0.7621817104
 40
0.7934588697
 40
0.8254740108
 40
0.8583235917
 40
0.8921054487
 40
0.9269161421
 40
0.9628521515
 40
1.0
 40
1.0
 40
1.0
 40
1.0
 10
5.8774068323
 20
2.4777472697
 30
0.0
 10
5.8793741787
 20
2.4794015438
 30
0.0
 10
5.8831622232
 20
2.4827559177
 30
0.0
 10
5.8884824671
 20
2.4879983486
 30
0.0
 10
5.8933534953
 20
2.4933499183
 30
0.0
 10
5.8977871393
 20
2.4987962766
 30
0.0
 10
5.901796623
 20
2.5043247679
 30
0.0
 10
5.9053957563
 20
2.5099237312
 30
0.0
 10
5.9085986542
 20
2.5155827123
 30
0.0
 10
5.9114193346
 20
2.5212923232
 30
0.0
 10
5.9138714176
 20
2.5270441963
 30
0.0
 10
5.9159676883
 20
2.5328308523
 30
0.0
 10
5.917719881
 20
2.5386459338
 30
0.0
 10
5.919603588
 20
2.5463966966
 30
0.0
 10
5.921161233
 20
2.5561639124
 30
0.0
 10
5.92178051
 20
2.5679582493
 30
0.0
 10
5.921161233
 20
2.5797525862
 30
0.0
 10
5.919603588
 20
2.5895198019
 30
0.0
 10
5.917719881
 20
2.5972705648
 30
0.0
 10
5.9159676883
 20
2.6030856463
 30
0.0
 10
5.9138714176
 20
2.6088723023
 30
0.0
 10
5.9114193346
 20
2.6146241754
 30
0.0
 10
5.9085986542
 20
2.6203337863
 30
0.0
 10
5.9053957563
 20
2.6259927674
 30
0.0
 10
5.9017966229
 20
2.6315917307
 30
0.0
 10
5.8977871392
 20
2.637120222
 30
0.0
 10
5.8933534952
 20
2.6425665804
 30
0.0
 10
5.888482467
 20
2.6479181501
 30
0.0
 10
5.8831622231
 20
2.6531605808
 30
0.0
 10
5.8793741787
 20
2.6565149547
 30
0.0
 10
5.8774068323
 20
2.6581692288
 30
0.0
  0
SPLINE
  5
3E4
100
AcDbEntity
  8
0
100
AcDbSpline
 62
7
  6
CONTINUOUS
 70
0
 71
3
 72
29
 73
25
 74
0
 42
0.0000001
 43
0.0000001
 44
0.0000000001
 40
0.0
 40
0.0
 40
0.0
 40
0.0
 40
0.062499924
 40
0.1249989857
 40
0.1874971583
 40
0.2499941022
 40
0.3124897814
 40
0.3437414089
 40
0.3749930764
 40
0.4062448031
 40
0.4374965271
 40
0.468748251
 40
0.5
 40
0.5312517491
 40
0.5625034729
 40
0.593755197
 40
0.6250069236
 40
0.6562585912
 40
0.6875102186
 40
0.7500058979
 40
0.8125028418
 40
0.8750010143
 40
0.937500076
 40
1.0
 40
1.0
 40
1.0
 40
1.0
 10
5.7774068323
 20
2.4777472697
 30
0.0
 10
5.7738943282
 20
2.4707222616
 30
0.0
 10
5.7671143697
 20
2.4565477501
 30
0.0
 10
5.7578077087
 20
2.4348937438
 30
0.0
 10
5.7495082679
 20
2.4128316034
 30
0.0
 10
5.7423770936
 20
2.3903629139
 30
0.0
 10
5.7375494649
 20
2.3713163139
 30
0.0
 10
5.7344401197
 20
2.3559162705
 30
0.0
 10
5.7325025228
 20
2.3442922639
 30
0.0
 10
5.7309765086
 20
2.332607028
 30
0.0
 10
5.7298758948
 20
2.3208739161
 30
0.0
 10
5.7292111453
 20
2.3091079728
 30
0.0
 10
5.7289887984
 20
2.2973253105
 30
0.0
 10
5.7292111453
 20
2.2855426483
 30
0.0
 10
5.7298758948
 20
2.273776705
 30
0.0
 10
5.7309765086
 20
2.262043593
 30
0.0
 10
5.7325025228
 20
2.2503583571
 30
0.0
 10
5.7344401197
 20
2.2387343506
 30
0.0
 10
5.7375494649
 20
2.2233343073
 30
0.0
 10
5.7423770936
 20
2.2042877072
 30
0.0
 10
5.7495082679
 20
2.1818190177
 30
0.0
 10
5.7578077087
 20
2.1597568773
 30
0.0
 10
5.7671143697
 20
2.1381028711
 30
0.0
 10
5.7738943282
 20
2.1239283595
 30
0.0
 10
5.7774068323
 20
2.1169033514
 30
0.0
  0
SPLINE
  5
3E5
100
AcDbEntity
  8
0
100
AcDbSpline
 62
7
  6
CONTINUOUS
 70
0
 71
3
 72
43
 73
39
 74
0
 42
0.0000001
 43
0.0000001
 44
0.0000000001
 40
0.0
 40
0.0
 40
0.0
 40
0.0
 40
0.0045322062
 40
0.0088864129
 40
0.0131461107
 40
0.0174006009
 40
0.021739527
 40
0.0262472776
 40
0.030998898
 40
0.0360578759
 40
0.0414762843
 40
0.0472956899
 40
0.0535485763
 40
0.0602603053
 40
0.0674501531
 40
0.0751326036
 40
0.0833185509
 40
0.0920155394
 40
0.101228699
 40
0.1109612219
 40
0.1319862295
 40
0.155086661
 40
0.1802385756
 40
0.2074040483
 40
0.2365339181
 40
0.2675694845
 40
0.3004435927
 40
0.3350818102
 40
0.3714032298
 40
0.4093209422
 40
0.4487425546
 40
0.4895708366
 40
0.5317041135
 40
0.6194572192
 40
0.711115032
 40
0.8057422187
 40
0.9023677742
 40
1.0
 40
1.0
 40
1.0
 40
1.0
 10
4.6681843643
 20
6.1479745011
 30
0.0
 10
4.66804599
 20
6.1482787573
 30
0.0
 10
4.6678103908
 20
6.1488926354
 30
0.0
 10
4.6675890612
 20
6.1498397653
 30
0.0
 10
4.6675096081
 20
6.1507890024
 30
0.0
 10
4.6675726641
 20
6.1517383172
 30
0.0
 10
4.6677777495
 20
6.152685867
 30
0.0
 10
4.6681238534
 20
6.1536302156
 30
0.0
 10
4.6686097732
 20
6.154570511
 30
0.0
 10
4.6692343101
 20
6.155506415
 30
0.0
 10
4.6699966184
 20
6.1564377214
 30
0.0
 10
4.6708959824
 20
6.1573642448
 30
0.0
 10
4.6719317325
 20
6.1582857779
 30
0.0
 10
4.6731032712
 20
6.1592019343
 30
0.0
 10
4.6744098901
 20
6.1601123111
 30
0.0
 10
4.6758508085
 20
6.1610164479
 30
0.0
 10
4.6774251815
 20
6.1619137811
 30
0.0
 10
4.6791320227
 20
6.1628037922
 30
0.0
 10
4.6809702635
 20
6.1636859443
 30
0.0
 10
4.6836649778
 20
6.1648818078
 30
0.0
 10
4.687359875
 20
6.1663440268
 30
0.0
 10
4.6921888028
 20
6.1680164999
 30
0.0
 10
4.697508287
 20
6.169644509
 30
0.0
 10
4.7033044705
 20
6.1712236467
 30
0.0
 10
4.7095623305
 20
6.172749575
 30
0.0
 10
4.7162654518
 20
6.174218118
 30
0.0
 10
4.7233961838
 20
6.1756252847
 30
0.0
 10
4.7309356926
 20
6.1769672544
 30
0.0
 10
4.7388640378
 20
6.1782403833
 30
0.0
 10
4.7471602205
 20
6.17944123
 30
0.0
 10
4.7558022419
 20
6.1805665569
 30
0.0
 10
4.7647671887
 20
6.1816133587
 30
0.0
 10
4.7772896403
 20
6.182918242
 30
0.0
 10
4.7935691811
 20
6.184323658
 30
0.0
 10
4.8137376969
 20
6.1856376737
 30
0.0
 10
4.8345816861
 20
6.1865866105
 30
0.0
 10
4.8558799812
 20
6.1871601617
 30
0.0
 10
4.870206581
 20
6.1872878608
 30
0.0
 10
4.8774068323
 20
6.1872878608
 30
0.0
  0
SPLINE
  5
3E6
100
AcDbEntity
  8
0
100
AcDbSpline
 62
7
  6
CONTINUOUS
 70
0
 71
3
 72
41
 73
37
 74
0
 42
0.0000001
 43
0.0000001
 44
0.0000000001
 40
0.0
 40
0.0
 40
0.0
 40
0.0
 40
0.0041075609
 40
0.0082935386
 40
0.0126319203
 40
0.0171888871
 40
0.0220212678
 40
0.027176092
 40
0.032691433
 40
0.0385977571
 40
0.0449188514
 40
0.0516732784
 40
0.0588754296
 40
0.0665359712
 40
0.0746628892
 40
0.0832619052
 40
0.0923365863
 40
0.1018890944
 40
0.1224280304
 40
0.1448729057
 40
0.1692016691
 40
0.195380947
 40
0.2233679117
 40
0.2531115528
 40
0.2845539709
 40
0.3176311331
 40
0.3522732727
 40
0.3884055884
 40
0.4259487581
 40
0.4648191534
 40
0.5461866098
 40
0.6317690188
 40
0.7207789934
 40
0.8123921247
 40
0.9057553883
 40
1.0
 40
1.0
 40
1.0
 40
1.0
 10
4.6501568464
 20
6.2311433541
 30
0.0
 10
4.6501568464
 20
6.2314669707
 30
0.0
 10
4.6502035028
 20
6.2321212915
 30
0.0
 10
4.6504125213
 20
6.2330973018
 30
0.0
 10
4.6507598885
 20
6.2340705795
 30
0.0
 10
4.6512444839
 20
6.2350401074
 30
0.0
 10
4.6518653754
 20
6.2360055211
 30
0.0
 10
4.6526216991
 20
6.2369665955
 30
0.0
 10
4.6535127732
 20
6.2379231599
 30
0.0
 10
4.6545380415
 20
6.2388749233
 30
0.0
 10
4.6556968765
 20
6.2398216033
 30
0.0
 10
4.6569886543
 20
6.240762811
 30
0.0
 10
4.6584126984
 20
6.2416980686
 30
0.0
 10
4.6599682041
 20
6.2426269358
 30
0.0
 10
4.6616543155
 20
6.2435488936
 30
0.0
 10
4.6634700877
 20
6.2444633917
 30
0.0
 10
4.6654144593
 20
6.2453699606
 30
0.0
 10
4.6682459904
 20
6.2465971949
 30
0.0
 10
4.672104569
 20
6.2480993924
 30
0.0
 10
4.6771216833
 20
6.2498213839
 30
0.0
 10
4.6826199481
 20
6.2514994185
 30
0.0
 10
4.6885863564
 20
6.2531293689
 30
0.0
 10
4.695006856
 20
6.2547071828
 30
0.0
 10
4.701866152
 20
6.256228978
 30
0.0
 10
4.7091478643
 20
6.2576909992
 30
0.0
 10
4.7168345571
 20
6.2590896385
 30
0.0
 10
4.7249077874
 20
6.2604214759
 30
0.0
 10
4.73334816
 20
6.2616832469
 30
0.0
 10
4.7421353977
 20
6.2628718884
 30
0.0
 10
4.7544749478
 20
6.2643782804
 30
0.0
 10
4.770606156
 20
6.2660466089
 30
0.0
 10
4.7907065387
 20
6.2676881961
 30
0.0
 10
4.8116410308
 20
6.2689821114
 30
0.0
 10
4.8332081892
 20
6.269915592
 30
0.0
 10
4.8552006053
 20
6.2704793962
 30
0.0
 10
4.8699817155
 20
6.2706049025
 30
0.0
 10
4.8774068323
 20
6.2706049025
 30
0.0
  0
SPLINE
  5
3E7
100
AcDbEntity
  8
0
100
AcDbSpline
 62
7
  6
CONTINUOUS
 70
0
 71
3
 72
23
 73
19
 74
0
 42
0.0000001
 43
0.0000001
 44
0.0000000001
 40
0.0
 40
0.0
 40
0.0
 40
0.0
 40
0.0624951733
 40
0.1249918422
 40
0.187490435
 40
0.249990631
 40
0.3124919447
 40
0.3749941649
 40
0.4374969524
 40
0.5000000001
 40
0.5625030477
 40
0.6250058352
 40
0.6875080554
 40
0.7500093691
 40
0.8125095651
 40
0.8750081579
 40
0.9375048268
 40
1.0
 40
1.0
 40
1.0
 40
1.0
 10
5.8774068323
 20
2.1169033514
 30
0.0
 10
5.8814079533
 20
2.1236321622
 30
0.0
 10
5.8887890866
 20
2.1374683873
 30
0.0
 10
5.8980578496
 20
2.159074339
 30
0.0
 10
5.9056329913
 20
2.1813288577
 30
0.0
 10
5.9116269541
 20
2.2040566142
 30
0.0
 10
5.9161516797
 20
2.2271196112
 30
0.0
 10
5.9193054286
 20
2.2504079498
 30
0.0
 10
5.9211650834
 20
2.2738340696
 30
0.0
 10
5.921779449
 20
2.2973253106
 30
0.0
 10
5.9211650834
 20
2.3208165515
 30
0.0
 10
5.9193054286
 20
2.3442426713
 30
0.0
 10
5.9161516797
 20
2.3675310099
 30
0.0
 10
5.9116269541
 20
2.3905940069
 30
0.0
 10
5.9056329912
 20
2.4133217634
 30
0.0
 10
5.8980578496
 20
2.4355762822
 30
0.0
 10
5.8887890866
 20
2.4571822338
 30
0.0
 10
5.8814079533
 20
2.4710184589
 30
0.0
 10
5.8774068323
 20
2.4777472697
 30
0.0
  0
SPLINE
  5
3E8
100
AcDbEntity
  8
0
100
AcDbSpline
 62
7
  6
CONTINUOUS
 70
0
 71
3
 72
37
 73
33
 74
0
 42
0.0000001
 43
0.0000001
 44
0.0000000001
 40
0.0
 40
0.0
 40
0.0
 40
0.0
 40
0.0699831809
 40
0.1042122757
 40
0.1378983332
 40
0.1710196687
 40
0.2035587459
 40
0.2355037196
 40
0.2668509153
 40
0.2976070464
 40
0.327791425
 40
0.3574384506
 40
0.3865993389
 40
0.4153428645
 40
0.4437549495
 40
0.4719365872
 40
0.5
 40
0.5280634128
 40
0.5562450506
 40
0.5846571356
 40
0.6134006612
 40
0.6425615495
 40
0.672208575
 40
0.7023929537
 40
0.7331490847
 40
0.7644962804
 40
0.7964412541
 40
0.8289803313
 40
0.8621016668
 40
0.8957877243
 40
0.9300168191
 40
1.0
 40
1.0
 40
1.0
 40
1.0
 10
5.7774068323
 20
2.1169033514
 30
0.0
 10
5.773942369
 20
2.1134388881
 30
0.0
 10
5.7688926708
 20
2.10816767
 30
0.0
 10
5.7624982915
 20
2.1009333806
 30
0.0
 10
5.7579707582
 20
2.0954971421
 30
0.0
 10
5.7536947826
 20
2.0900099341
 30
0.0
 10
5.7496898226
 20
2.0844712883
 30
0.0
 10
5.7459762935
 20
2.078881318
 30
0.0
 10
5.7425751445
 20
2.0732408089
 30
0.0
 10
5.739507677
 20
2.0675512782
 30
0.0
 10
5.7367950624
 20
2.0618151456
 30
0.0
 10
5.7344577581
 20
2.0560358785
 30
0.0
 10
5.7325149784
 20
2.050218036
 30
0.0
 10
5.7309840256
 20
2.0443673408
 30
0.0
 10
5.7298793354
 20
2.0384907254
 30
0.0
 10
5.7292118815
 20
2.0325961514
 30
0.0
 10
5.7289885869
 20
2.0266923719
 30
0.0
 10
5.7292118815
 20
2.0207885924
 30
0.0
 10
5.7298793354
 20
2.0148940184
 30
0.0
 10
5.7309840256
 20
2.0090174029
 30
0.0
 10
5.7325149784
 20
2.0031667078
 30
0.0
 10
5.7344577581
 20
1.9973488652
 30
0.0
 10
5.7367950624
 20
1.9915695982
 30
0.0
 10
5.739507677
 20
1.9858334656
 30
0.0
 10
5.7425751445
 20
1.9801439349
 30
0.0
 10
5.7459762935
 20
1.9745034258
 30
0.0
 10
5.7496898226
 20
1.9689134555
 30
0.0
 10
5.7536947826
 20
1.9633748097
 30
0.0
 10
5.7579707582
 20
1.9578876016
 30
0.0
 10
5.7624982915
 20
1.9524513632
 30
0.0
 10
5.7688926708
 20
1.9452170738
 30
0.0
 10
5.773942369
 20
1.9399458556
 30
0.0
 10
5.7774068323
 20
1.9364813923
 30
0.0
  0
SPLINE
  5
3E9
100
AcDbEntity
  8
0
100
AcDbSpline
 62
7
  6
CONTINUOUS
 70
0
 71
3
 72
41
 73
37
 74
0
 42
0.0000001
 43
0.0000001
 44
0.0000000001
 40
0.0
 40
0.0
 40
0.0
 40
0.0
 40
0.0041075609
 40
0.0082935386
 40
0.0126319203
 40
0.0171888871
 40
0.0220212678
 40
0.027176092
 40
0.032691433
 40
0.0385977571
 40
0.0449188514
 40
0.0516732784
 40
0.0588754296
 40
0.0665359712
 40
0.0746628892
 40
0.0832619052
 40
0.0923365863
 40
0.1018890944
 40
0.1224280304
 40
0.1448729057
 40
0.1692016691
 40
0.195380947
 40
0.2233679117
 40
0.2531115528
 40
0.2845539709
 40
0.3176311331
 40
0.3522732727
 40
0.3884055884
 40
0.4259487581
 40
0.4648191534
 40
0.5461866098
 40
0.6317690188
 40
0.7207789934
 40
0.8123921247
 40
0.9057553883
 40
1.0
 40
1.0
 40
1.0
 40
1.0
 10
5.1046568182
 20
6.2311433541
 30
0.0
 10
5.1046568182
 20
6.2314669707
 30
0.0
 10
5.1046101618
 20
6.2321212915
 30
0.0
 10
5.1044011433
 20
6.2330973018
 30
0.0
 10
5.1040537761
 20
6.2340705795
 30
0.0
 10
5.1035691807
 20
6.2350401074
 30
0.0
 10
5.1029482891
 20
6.2360055211
 30
0.0
 10
5.1021919655
 20
6.2369665955
 30
0.0
 10
5.1013008914
 20
6.2379231599
 30
0.0
 10
5.1002756231
 20
6.2388749233
 30
0.0
 10
5.0991167881
 20
6.2398216033
 30
0.0
 10
5.0978250103
 20
6.240762811
 30
0.0
 10
5.0964009661
 20
6.2416980686
 30
0.0
 10
5.0948454604
 20
6.2426269358
 30
0.0
 10
5.0931593491
 20
6.2435488936
 30
0.0
 10
5.0913435769
 20
6.2444633917
 30
0.0
 10
5.0893992053
 20
6.2453699606
 30
0.0
 10
5.0865676742
 20
6.2465971949
 30
0.0
 10
5.0827090956
 20
6.2480993924
 30
0.0
 10
5.0776919813
 20
6.2498213839
 30
0.0
 10
5.0721937165
 20
6.2514994185
 30
0.0
 10
5.0662273082
 20
6.2531293689
 30
0.0
 10
5.0598068085
 20
6.2547071828
 30
0.0
 10
5.0529475126
 20
6.256228978
 30
0.0
 10
5.0456658003
 20
6.2576909992
 30
0.0
 10
5.0379791075
 20
6.2590896385
 30
0.0
 10
5.0299058772
 20
6.2604214759
 30
0.0
 10
5.0214655046
 20
6.2616832469
 30
0.0
 10
5.0126782669
 20
6.2628718884
 30
0.0
 10
5.0003387168
 20
6.2643782804
 30
0.0
 10
4.9842075086
 20
6.2660466089
 30
0.0
 10
4.9641071259
 20
6.2676881961
 30
0.0
 10
4.9431726338
 20
6.2689821114
 30
0.0
 10
4.9216054754
 20
6.269915592
 30
0.0
 10
4.8996130593
 20
6.2704793962
 30
0.0
 10
4.8848319491
 20
6.2706049025
 30
0.0
 10
4.8774068323
 20
6.2706049025
 30
0.0
  0
SPLINE
  5
3EA
100
AcDbEntity
  8
0
100
AcDbSpline
 62
7
  6
CONTINUOUS
 70
0
 71
3
 72
35
 73
31
 74
0
 42
0.0000001
 43
0.0000001
 44
0.0000000001
 40
0.0
 40
0.0
 40
0.0
 40
0.0
 40
0.0371478483
 40
0.0730838566
 40
0.1078945497
 40
0.1416764069
 40
0.1745259877
 40
0.206541129
 40
0.2378182886
 40
0.2684509357
 40
0.2985286593
 40
0.3281363383
 40
0.3573536481
 40
0.386255132
 40
0.4433652266
 40
0.4999999999
 40
0.5566347732
 40
0.6137448677
 40
0.6426463516
 40
0.6718636613
 40
0.7014713404
 40
0.731549064
 40
0.762181711
 40
0.7934588705
 40
0.8254740115
 40
0.8583235921
 40
0.8921054489
 40
0.9269161421
 40
0.9628521513
 40
1.0
 40
1.0
 40
1.0
 40
1.0
 10
5.8774068323
 20
1.9364813923
 30
0.0
 10
5.8793741787
 20
1.9381356664
 30
0.0
 10
5.883162223
 20
1.9414900402
 30
0.0
 10
5.8884824668
 20
1.9467324709
 30
0.0
 10
5.893353495
 20
1.9520840405
 30
0.0
 10
5.897787139
 20
1.9575303988
 30
0.0
 10
5.9017966227
 20
1.9630588902
 30
0.0
 10
5.9053957561
 20
1.9686578535
 30
0.0
 10
5.9085986541
 20
1.9743168346
 30
0.0
 10
5.9114193345
 20
1.9800264456
 30
0.0
 10
5.9138714175
 20
1.9857783187
 30
0.0
 10
5.9159676882
 20
1.9915649747
 30
0.0
 10
5.917719881
 20
1.9973800563
 30
0.0
 10
5.919603588
 20
2.0051308192
 30
0.0
 10
5.921161233
 20
2.0148980349
 30
0.0
 10
5.92178051
 20
2.0266923718
 30
0.0
 10
5.921161233
 20
2.0384867088
 30
0.0
 10
5.919603588
 20
2.0482539245
 30
0.0
 10
5.917719881
 20
2.0560046874
 30
0.0
 10
5.9159676882
 20
2.061819769
 30
0.0
 10
5.9138714175
 20
2.067606425
 30
0.0
 10
5.9114193345
 20
2.0733582981
 30
0.0
 10
5.9085986541
 20
2.079067909
 30
0.0
 10
5.9053957562
 20
2.0847268901
 30
0.0
 10
5.9017966228
 20
2.0903258534
 30
0.0
 10
5.8977871391
 20
2.0958543447
 30
0.0
 10
5.8933534952
 20
2.101300703
 30
0.0
 10
5.888482467
 20
2.1066522727
 30
0.0
 10
5.8831622231
 20
2.1118947035
 30
0.0
 10
5.8793741787
 20
2.1152490774
 30
0.0
 10
5.8774068323
 20
2.1169033514
 30
0.0
  0
SPLINE
  5
3EB
100
AcDbEntity
  8
0
100
AcDbSpline
 62
7
  6
CONTINUOUS
 70
0
 71
3
 72
30
 73
26
 74
0
 42
0.0000001
 43
0.0000001
 44
0.0000000001
 40
0.0
 40
0.0
 40
0.0
 40
0.0
 40
0.0113071004
 40
0.0240250919
 40
0.0382288557
 40
0.0539628255
 40
0.0712492904
 40
0.0900948558
 40
0.1104942386
 40
0.1324324865
 40
0.1558874439
 40
0.180830106
 40
0.2072263572
 40
0.2350371235
 40
0.2642190173
 40
0.2947250131
 40
0.3595012173
 40
0.4289243399
 40
0.5025069394
 40
0.579723605
 40
0.6600171241
 40
0.742803672
 40
0.8274787582
 40
0.9134205052
 40
1.0
 40
1.0
 40
1.0
 40
1.0
 10
5.0511413497
 20
6.5098317336
 30
0.0
 10
5.050661437
 20
6.5102969438
 30
0.0
 10
5.0495763999
 20
6.5112186909
 30
0.0
 10
5.0477181436
 20
6.5125088885
 30
0.0
 10
5.0455401806
 20
6.513783592
 30
0.0
 10
5.0430460784
 20
6.5150406085
 30
0.0
 10
5.0402397425
 20
6.5162779985
 30
0.0
 10
5.0371260212
 20
6.5174934565
 30
0.0
 10
5.0337104471
 20
6.5186846777
 30
0.0
 10
5.0299992495
 20
6.5198494064
 30
0.0
 10
5.0259992787
 20
6.5209853424
 30
0.0
 10
5.021717993
 20
6.5220903267
 30
0.0
 10
5.0171634139
 20
6.5231621931
 30
0.0
 10
5.0123441064
 20
6.5241988701
 30
0.0
 10
5.0072691493
 20
6.5251983975
 30
0.0
 10
5.0000285619
 20
6.5265051461
 30
0.0
 10
4.9904099238
 20
6.5280211112
 30
0.0
 10
4.9782323582
 20
6.5296303038
 30
0.0
 10
4.9652914157
 20
6.5310511762
 30
0.0
 10
4.9516850024
 20
6.5322726857
 30
0.0
 10
4.9375160246
 20
6.5332852846
 30
0.0
 10
4.9228917338
 20
6.5340811182
 30
0.0
 10
4.9079229191
 20
6.5346540028
 30
0.0
 10
4.8927229273
 20
6.5349995264
 30
0.0
 10
4.8825247067
 20
6.535076409
 30
0.0
 10
4.8774068323
 20
6.535076409
 30
0.0
  0
SPLINE
  5
3EC
100
AcDbEntity
  8
0
100
AcDbSpline
 62
7
  6
CONTINUOUS
 70
0
 71
3
 72
77
 73
73
 74
0
 42
0.0000001
 43
0.0000001
 44
0.0000000001
 40
0.0
 40
0.0
 40
0.0
 40
0.0
 40
0.0000012677
 40
0.0000048514
 40
0.0000107607
 40
0.0000189971
 40
0.000042453
 40
0.0000752202
 40
0.0001172991
 40
0.0001686896
 40
0.0002293913
 40
0.0002994041
 40
0.0004673616
 40
0.0006725597
 40
0.0009149958
 40
0.0011946673
 40
0.0015115716
 40
0.001865706
 40
0.0026856548
 40
0.0036544923
 40
0.0047721819
 40
0.0060386077
 40
0.0074536296
 40
0.0090171073
 40
0.0107289008
 40
0.0125888703
 40
0.0145968763
 40
0.0190558858
 40
0.024101406
 40
0.0297279946
 40
0.035930255
 40
0.0427048449
 40
0.0500513172
 40
0.0579694562
 40
0.0664581757
 40
0.0755100456
 40
0.0952624566
 40
0.1171574451
 40
0.1411598748
 40
0.1672257967
 40
0.1810118895
 40
0.1952880473
 40
0.2252658497
 40
0.2409446583
 40
0.2570709682
 40
0.2906439333
 40
0.32593206
 40
0.3441875103
 40
0.3628298731
 40
0.4012277038
 40
0.4209689984
 40
0.441062904
 40
0.4614994339
 40
0.4822659587
 40
0.503349753
 40
0.5247382603
 40
0.5464192734
 40
0.5683806299
 40
0.6131045297
 40
0.6358519077
 40
0.658843382
 40
0.7055066568
 40
0.7291541185
 40
0.7529973772
 40
0.7770273055
 40
0.8012348868
 40
0.8256105985
 40
0.8501437235
 40
0.8748216089
 40
0.8996326064
 40
0.9496125895
 40
1.0
 40
1.0
 40
1.0
 40
1.0
 10
4.2102987983
 20
2.6072110891
 30
0.0
 10
4.2102986946
 20
2.6072110568
 30
0.0
 10
4.2102987692
 20
2.6072104828
 30
0.0
 10
4.2102985284
 20
2.6072097196
 30
0.0
 10
4.2102984502
 20
2.6072081229
 30
0.0
 10
4.2102981126
 20
2.6072049655
 30
0.0
 10
4.2102976886
 20
2.6071994228
 30
0.0
 10
4.210297011
 20
2.6071910437
 30
0.0
 10
4.2102961966
 20
2.6071802505
 30
0.0
 10
4.210295214
 20
2.6071670786
 30
0.0
 10
4.2102940749
 20
2.6071515149
 30
0.0
 10
4.2102922266
 20
2.607125989
 30
0.0
 10
4.210289521
 20
2.6070881102
 30
0.0
 10
4.2102857988
 20
2.6070354919
 30
0.0
 10
4.2102814284
 20
2.6069733226
 30
0.0
 10
4.2102764063
 20
2.6069016035
 30
0.0
 10
4.210270729
 20
2.6068203354
 30
0.0
 10
4.2102618368
 20
2.6066928829
 30
0.0
 10
4.2102490661
 20
2.6065097011
 30
0.0
 10
4.2102317261
 20
2.6062612502
 30
0.0
 10
4.2102116778
 20
2.6059746368
 30
0.0
 10
4.21018887
 20
2.6056498895
 30
0.0
 10
4.210163252
 20
2.6052870461
 30
0.0
 10
4.210134773
 20
2.6048861462
 30
0.0
 10
4.2101033821
 20
2.6044472297
 30
0.0
 10
4.210069028
 20
2.6039703363
 30
0.0
 10
4.210017374
 20
2.6032586709
 30
0.0
 10
4.209945085
 20
2.6022748164
 30
0.0
 10
4.2098497359
 20
2.6009817451
 30
0.0
 10
4.2097438589
 20
2.5995396657
 30
0.0
 10
4.2096285571
 20
2.5979497164
 30
0.0
 10
4.2095036607
 20
2.5962126999
 30
0.0
 10
4.2093669185
 20
2.5943291226
 30
0.0
 10
4.2092165623
 20
2.5922992647
 30
0.0
 10
4.2090504563
 20
2.5901240435
 30
0.0
 10
4.2088024369
 20
2.5869380538
 30
0.0
 10
4.2084625085
 20
2.5826069638
 30
0.0
 10
4.2080291027
 20
2.5769981647
 30
0.0
 10
4.2075445326
 20
2.5708507063
 30
0.0
 10
4.2071006212
 20
2.5653970637
 30
0.0
 10
4.206715968
 20
2.5607748095
 30
0.0
 10
4.2062974221
 20
2.5558190126
 30
0.0
 10
4.205860023
 20
2.5507020476
 30
0.0
 10
4.2054117304
 20
2.545426897
 30
0.0
 10
4.2049382036
 20
2.539844714
 30
0.0
 10
4.2043137926
 20
2.5325889622
 30
0.0
 10
4.2036376161
 20
2.5251546327
 30
0.0
 10
4.2030704207
 20
2.5189950981
 30
0.0
 10
4.2024801869
 20
2.5125700846
 30
0.0
 10
4.2018860324
 20
2.5060175781
 30
0.0
 10
4.2012725053
 20
2.4993419399
 30
0.0
 10
4.2007917384
 20
2.494199692
 30
0.0
 10
4.2002940613
 20
2.4889707982
 30
0.0
 10
4.1997815885
 20
2.4836581112
 30
0.0
 10
4.1992557794
 20
2.4782647604
 30
0.0
 10
4.1987185079
 20
2.4727937953
 30
0.0
 10
4.1981721535
 20
2.4672481626
 30
0.0
 10
4.1974308238
 20
2.4597124549
 30
0.0
 10
4.1966830054
 20
2.4520855598
 30
0.0
 10
4.1959039468
 20
2.4443730678
 30
0.0
 10
4.1950918989
 20
2.4364968981
 30
0.0
 10
4.1942560893
 20
2.4285456561
 30
0.0
 10
4.1934073125
 20
2.4205223935
 30
0.0
 10
4.1927614112
 20
2.4144279363
 30
0.0
 10
4.1921039843
 20
2.4082864376
 30
0.0
 10
4.1914301386
 20
2.4021008157
 30
0.0
 10
4.1907305444
 20
2.3958746516
 30
0.0
 10
4.1900021637
 20
2.3896112211
 30
0.0
 10
4.189254508
 20
2.3833125066
 30
0.0
 10
4.1882306892
 20
2.3748507439
 30
0.0
 10
4.1868988821
 20
2.3642072064
 30
0.0
 10
4.1857418439
 20
2.3556844829
 30
0.0
 10
4.1851156339
 20
2.3514124494
 30
0.0
  0
SPLINE
  5
3ED
100
AcDbEntity
  8
0
100
AcDbSpline
 62
7
  6
CONTINUOUS
 70
0
 71
3
 72
23
 73
19
 74
0
 42
0.0000001
 43
0.0000001
 44
0.0000000001
 40
0.0
 40
0.0
 40
0.0
 40
0.0
 40
0.1169601295
 40
0.1473153343
 40
0.1780601773
 40
0.2405988878
 40
0.3043477293
 40
0.3690325895
 40
0.4343549166
 40
0.5
 40
0.5656450834
 40
0.6309674105
 40
0.6956522707
 40
0.7594011122
 40
0.8219398227
 40
0.8526846657
 40
0.8830398705
 40
1.0
 40
1.0
 40
1.0
 40
1.0
 10
3.3383202449
 20
2.6038677594
 30
0.0
 10
3.3329328595
 20
2.5999836155
 30
0.0
 10
3.3256542611
 20
2.5957383688
 30
0.0
 10
3.3164494987
 20
2.5915560936
 30
0.0
 10
3.3099429182
 20
2.5889126655
 30
0.0
 10
3.3014869609
 20
2.5860524743
 30
0.0
 10
3.2909711874
 20
2.5833632954
 30
0.0
 10
3.2801313028
 20
2.5814235301
 30
0.0
 10
3.269073776
 20
2.5802520862
 30
0.0
 10
3.2579068323
 20
2.5798603287
 30
0.0
 10
3.2467398886
 20
2.5802520862
 30
0.0
 10
3.2356823618
 20
2.5814235301
 30
0.0
 10
3.2248424772
 20
2.5833632954
 30
0.0
 10
3.2143267037
 20
2.5860524743
 30
0.0
 10
3.2058707464
 20
2.5889126655
 30
0.0
 10
3.1993641659
 20
2.5915560936
 30
0.0
 10
3.1901594035
 20
2.5957383688
 30
0.0
 10
3.1828808051
 20
2.5999836155
 30
0.0
 10
3.1774934197
 20
2.6038677594
 30
0.0
  0
SPLINE
  5
3EE
100
AcDbEntity
  8
0
100
AcDbSpline
 62
7
  6
CONTINUOUS
 70
0
 71
3
 72
73
 73
69
 74
0
 42
0.0000001
 43
0.0000001
 44
0.0000000001
 40
0.0
 40
0.0
 40
0.0
 40
0.0
 40
0.0020535444
 40
0.0041466082
 40
0.0063159419
 40
0.0085945159
 40
0.0110106917
 40
0.0135880482
 40
0.0163457429
 40
0.0192989033
 40
0.0224594375
 40
0.0258366969
 40
0.0294377665
 40
0.0332680204
 40
0.0373315174
 40
0.0416310222
 40
0.0509437678
 40
0.0612132362
 40
0.0724357048
 40
0.0846001032
 40
0.0976897678
 40
0.1116832802
 40
0.1265551095
 40
0.1422763613
 40
0.1588149786
 40
0.176136052
 40
0.194202259
 40
0.2129738898
 40
0.2324090918
 40
0.2730929208
 40
0.3158841851
 40
0.3603892408
 40
0.406195871
 40
0.4528779208
 40
0.5
 40
0.5471220792
 40
0.593804129
 40
0.6396107592
 40
0.6841158149
 40
0.7269070792
 40
0.7675909082
 40
0.7870261102
 40
0.805797741
 40
0.823863948
 40
0.8411850214
 40
0.8577236387
 40
0.8734448905
 40
0.8883167198
 40
0.9023102322
 40
0.9153998968
 40
0.9275642952
 40
0.9387867638
 40
0.9490562322
 40
0.9583689778
 40
0.9626684826
 40
0.9667319796
 40
0.9705622335
 40
0.9741633031
 40
0.9775405625
 40
0.9807010967
 40
0.9836542571
 40
0.9864119518
 40
0.9889893083
 40
0.9914054841
 40
0.9936840581
 40
0.9958533918
 40
0.9979464556
 40
1.0
 40
1.0
 40
1.0
 40
1.0
 10
5.0539068323
 20
6.558591932
 30
0.0
 10
5.0539068323
 20
6.5588432485
 30
0.0
 10
5.0538705588
 20
6.559351422
 30
0.0
 10
5.0537082287
 20
6.5601094613
 30
0.0
 10
5.0534384795
 20
6.5608654402
 30
0.0
 10
5.0530620698
 20
6.5616184636
 30
0.0
 10
5.0525798418
 20
6.5623682809
 30
0.0
 10
5.0519924337
 20
6.5631147273
 30
0.0
 10
5.0513003345
 20
6.5638576412
 30
0.0
 10
5.0505040415
 20
6.5645968625
 30
0.0
 10
5.04960401
 20
6.5653321438
 30
0.0
 10
5.0486007019
 20
6.5660631427
 30
0.0
 10
5.0474946835
 20
6.5667895444
 30
0.0
 10
5.0462865605
 20
6.5675109777
 30
0.0
 10
5.0449769908
 20
6.5682270421
 30
0.0
 10
5.0430446619
 20
6.5692001689
 30
0.0
 10
5.0403746822
 20
6.5703930444
 30
0.0
 10
5.0368605932
 20
6.5717613258
 30
0.0
 10
5.0329638095
 20
6.5730987341
 30
0.0
 10
5.0286934609
 20
6.5744020347
 30
0.0
 10
5.0240594748
 20
6.5756679784
 30
0.0
 10
5.0190728196
 20
6.5768934293
 30
0.0
 10
5.0137453576
 20
6.5780753784
 30
0.0
 10
5.0080898131
 20
6.5792108942
 30
0.0
 10
5.0021197306
 20
6.5802971838
 30
0.0
 10
4.9958494345
 20
6.5813315989
 30
0.0
 10
4.9892939845
 20
6.5823115843
 30
0.0
 10
4.9824691328
 20
6.5832347718
 30
0.0
 10
4.9728852797
 20
6.5844047634
 30
0.0
 10
4.960356531
 20
6.5857005038
 30
0.0
 10
4.9447450139
 20
6.5869754966
 30
0.0
 10
4.9284856637
 20
6.5879804506
 30
0.0
 10
4.9117349062
 20
6.5887054635
 30
0.0
 10
4.8946538456
 20
6.5891433549
 30
0.0
 10
4.8774068323
 20
6.5892898042
 30
0.0
 10
4.860159819
 20
6.5891433549
 30
0.0
 10
4.8430787584
 20
6.5887054635
 30
0.0
 10
4.8263280009
 20
6.5879804506
 30
0.0
 10
4.8100686507
 20
6.5869754966
 30
0.0
 10
4.7944571336
 20
6.5857005038
 30
0.0
 10
4.7819283849
 20
6.5844047634
 30
0.0
 10
4.7723445318
 20
6.5832347718
 30
0.0
 10
4.7655196801
 20
6.5823115843
 30
0.0
 10
4.7589642301
 20
6.5813315989
 30
0.0
 10
4.7526939339
 20
6.5802971838
 30
0.0
 10
4.7467238515
 20
6.5792108942
 30
0.0
 10
4.741068307
 20
6.5780753784
 30
0.0
 10
4.735740845
 20
6.5768934293
 30
0.0
 10
4.7307541898
 20
6.5756679784
 30
0.0
 10
4.7261202037
 20
6.5744020347
 30
0.0
 10
4.7218498551
 20
6.5730987341
 30
0.0
 10
4.7179530714
 20
6.5717613258
 30
0.0
 10
4.7144389824
 20
6.5703930444
 30
0.0
 10
4.7117690027
 20
6.5692001689
 30
0.0
 10
4.7098366737
 20
6.5682270421
 30
0.0
 10
4.7085271041
 20
6.5675109777
 30
0.0
 10
4.7073189811
 20
6.5667895444
 30
0.0
 10
4.7062129627
 20
6.5660631427
 30
0.0
 10
4.7052096546
 20
6.5653321438
 30
0.0
 10
4.7043096231
 20
6.5645968625
 30
0.0
 10
4.7035133301
 20
6.5638576412
 30
0.0
 10
4.7028212309
 20
6.5631147273
 30
0.0
 10
4.7022338228
 20
6.5623682809
 30
0.0
 10
4.7017515948
 20
6.5616184636
 30
0.0
 10
4.7013751851
 20
6.5608654402
 30
0.0
 10
4.7011054359
 20
6.5601094613
 30
0.0
 10
4.7009431058
 20
6.559351422
 30
0.0
 10
4.7009068323
 20
6.5588432485
 30
0.0
 10
4.7009068323
 20
6.558591932
 30
0.0
  0
SPLINE
  5
3EF
100
AcDbEntity
  8
0
100
AcDbSpline
 62
7
  6
CONTINUOUS
 70
0
 71
3
 72
67
 73
63
 74
0
 42
0.0000001
 43
0.0000001
 44
0.0000000001
 40
0.0
 40
0.0
 40
0.0
 40
0.0
 40
0.0000011481
 40
0.000004537
 40
0.0000101826
 40
0.0000180869
 40
0.000040674
 40
0.0000722997
 40
0.0001129639
 40
0.0001626658
 40
0.0002214047
 40
0.0002891796
 40
0.0004518337
 40
0.0006506205
 40
0.0008855321
 40
0.0011565603
 40
0.0014636973
 40
0.0018069349
 40
0.0026016798
 40
0.0035407305
 40
0.0046240213
 40
0.0058514315
 40
0.0072227572
 40
0.0087377882
 40
0.0103963138
 40
0.0121981237
 40
0.0141430073
 40
0.0184611471
 40
0.0233486637
 40
0.0288029204
 40
0.0348212338
 40
0.041400896
 40
0.0485386735
 40
0.0562308319
 40
0.0644736173
 40
0.073263219
 40
0.0924648199
 40
0.113797554
 40
0.1372195445
 40
0.1626846435
 40
0.1901427828
 40
0.2195401037
 40
0.2508188634
 40
0.2839180861
 40
0.3187729742
 40
0.3553159049
 40
0.393475632
 40
0.43317849
 40
0.4743475392
 40
0.5169039066
 40
0.5607664622
 40
0.6058519932
 40
0.6520751718
 40
0.6993489785
 40
0.7475849259
 40
0.7720356188
 40
0.7966929367
 40
0.8215453639
 40
0.8465814229
 40
0.8971582844
 40
0.9483296851
 40
1.0
 40
1.0
 40
1.0
 40
1.0
 10
4.1402025643
 20
2.5898253106
 30
0.0
 10
4.1402024719
 20
2.5898253043
 30
0.0
 10
4.1402026158
 20
2.5898247346
 30
0.0
 10
4.1402025154
 20
2.5898241092
 30
0.0
 10
4.1402026924
 20
2.5898226367
 30
0.0
 10
4.140202885
 20
2.5898197997
 30
0.0
 10
4.1402033869
 20
2.5898147626
 30
0.0
 10
4.1402041209
 20
2.5898071732
 30
0.0
 10
4.1402051273
 20
2.5897973778
 30
0.0
 10
4.1402063718
 20
2.5897854229
 30
0.0
 10
4.1402078677
 20
2.5897712913
 30
0.0
 10
4.1402103462
 20
2.5897481066
 30
0.0
 10
4.1402140702
 20
2.5897136971
 30
0.0
 10
4.1402192914
 20
2.5896658942
 30
0.0
 10
4.1402255
 20
2.5896094081
 30
0.0
 10
4.1402326942
 20
2.589544241
 30
0.0
 10
4.1402408724
 20
2.5894703945
 30
0.0
 10
4.1402537287
 20
2.5893545776
 30
0.0
 10
4.1402722549
 20
2.5891881222
 30
0.0
 10
4.1402974261
 20
2.5889623632
 30
0.0
 10
4.1403264879
 20
2.5887019336
 30
0.0
 10
4.1403594276
 20
2.5884068635
 30
0.0
 10
4.1403962394
 20
2.5880771957
 30
0.0
 10
4.1404369148
 20
2.5877129799
 30
0.0
 10
4.1404814459
 20
2.5873142666
 30
0.0
 10
4.1405298242
 20
2.5868811059
 30
0.0
 10
4.1406020043
 20
2.5862348102
 30
0.0
 10
4.1407017817
 20
2.5853412313
 30
0.0
 10
4.1408329631
 20
2.5841664195
 30
0.0
 10
4.140979476
 20
2.5828553728
 30
0.0
 10
4.1411413462
 20
2.5814087455
 30
0.0
 10
4.1413186003
 20
2.5798272404
 30
0.0
 10
4.1415112557
 20
2.5781116447
 30
0.0
 10
4.1417193231
 20
2.5762628297
 30
0.0
 10
4.1419428064
 20
2.5742817127
 30
0.0
 10
4.1422711421
 20
2.571378465
 30
0.0
 10
4.1427198301
 20
2.5674265819
 30
0.0
 10
4.1433045325
 20
2.5623026683
 30
0.0
 10
4.1439497022
 20
2.5566773159
 30
0.0
 10
4.1446547227
 20
2.5505616644
 30
0.0
 10
4.1454185566
 20
2.5439677776
 30
0.0
 10
4.1462397763
 20
2.5369086155
 30
0.0
 10
4.1471169964
 20
2.5293980283
 30
0.0
 10
4.1480488083
 20
2.5214507515
 30
0.0
 10
4.1490334136
 20
2.5130822773
 30
0.0
 10
4.1500688473
 20
2.5043089117
 30
0.0
 10
4.1511527142
 20
2.4951476299
 30
0.0
 10
4.1522824766
 20
2.485616146
 30
0.0
 10
4.1534548785
 20
2.4757327082
 30
0.0
 10
4.1546668022
 20
2.4655161865
 30
0.0
 10
4.1559178442
 20
2.4549862826
 30
0.0
 10
4.1572064454
 20
2.4441630859
 30
0.0
 10
4.1585305668
 20
2.4330671069
 30
0.0
 10
4.1598902938
 20
2.4217195392
 30
0.0
 10
4.1610489241
 20
2.4121160767
 30
0.0
 10
4.1619962231
 20
2.4043240444
 30
0.0
 10
4.1627199448
 20
2.3984042639
 30
0.0
 10
4.1634524848
 20
2.3924380081
 30
0.0
 10
4.1644480692
 20
2.3843983205
 30
0.0
 10
4.1657327951
 20
2.3742559521
 30
0.0
 10
4.1673893671
 20
2.3619961495
 30
0.0
 10
4.1686038376
 20
2.3537924702
 30
0.0
 10
4.1692482875
 20
2.3496761374
 30
0.0
  0
SPLINE
  5
3F0
100
AcDbEntity
  8
0
100
AcDbSpline
 62
7
  6
CONTINUOUS
 70
0
 71
3
 72
31
 73
27
 74
0
 42
0.0000001
 43
0.0000001
 44
0.0000000001
 40
0.0
 40
0.0
 40
0.0
 40
0.0
 40
0.0620534953
 40
0.1242064715
 40
0.1864398228
 40
0.2487385946
 40
0.3111029347
 40
0.3423092327
 40
0.3735310941
 40
0.4360176602
 40
0.4985500361
 40
0.5298302057
 40
0.5611192938
 40
0.5924183528
 40
0.6237284464
 40
0.6550501884
 40
0.6863837934
 40
0.7177291013
 40
0.7490834006
 40
0.8117969541
 40
0.8431522469
 40
0.8588302447
 40
0.87450939
 40
0.9058736483
 40
0.9372466534
 40
1.0
 40
1.0
 40
1.0
 40
1.0
 10
4.1851156294
 20
2.3514124565
 30
0.0
 10
4.1849682641
 20
2.3502963049
 30
0.0
 10
4.1846518717
 20
2.348065048
 30
0.0
 10
4.184147006
 20
2.3447203739
 30
0.0
 10
4.183645087
 20
2.3413706992
 30
0.0
 10
4.183181174
 20
2.3380116554
 30
0.0
 10
4.182811623
 20
2.3352079645
 30
0.0
 10
4.182516616
 20
2.332963153
 30
0.0
 10
4.1822183905
 20
2.3307165275
 30
0.0
 10
4.1818371006
 20
2.3279076101
 30
0.0
 10
4.181465437
 20
2.3250963074
 30
0.0
 10
4.1811851993
 20
2.3228439368
 30
0.0
 10
4.1809869457
 20
2.321152445
 30
0.0
 10
4.1808007689
 20
2.3194590379
 30
0.0
 10
4.1806250353
 20
2.3177639231
 30
0.0
 10
4.1804584889
 20
2.3160672528
 30
0.0
 10
4.1802999116
 20
2.3143691813
 30
0.0
 10
4.1801475583
 20
2.3126699442
 30
0.0
 10
4.1799534343
 20
2.3104028742
 30
0.0
 10
4.1797846961
 20
2.3081333801
 30
0.0
 10
4.1796776288
 20
2.3061450384
 30
0.0
 10
4.17963069
 20
2.3050081996
 30
0.0
 10
4.1795942636
 20
2.3038708122
 30
0.0
 10
4.1795662465
 20
2.302448325
 30
0.0
 10
4.1795474747
 20
2.300171596
 30
0.0
 10
4.1795502176
 20
2.2984638444
 30
0.0
 10
4.1795483778
 20
2.2973253106
 30
0.0
  0
SPLINE
  5
3F1
100
AcDbEntity
  8
0
100
AcDbSpline
 62
7
  6
CONTINUOUS
 70
0
 71
3
 72
30
 73
26
 74
0
 42
0.0000001
 43
0.0000001
 44
0.0000000001
 40
0.0
 40
0.0
 40
0.0
 40
0.0
 40
0.0865794948
 40
0.1725212418
 40
0.257196328
 40
0.3399828759
 40
0.420276395
 40
0.4974930606
 40
0.5710756601
 40
0.6404987827
 40
0.7052749869
 40
0.7357809827
 40
0.7649628765
 40
0.7927736428
 40
0.819169894
 40
0.8441125561
 40
0.8675675135
 40
0.8895057614
 40
0.9099051442
 40
0.9287507096
 40
0.9460371745
 40
0.9617711443
 40
0.9759749081
 40
0.9886928996
 40
1.0
 40
1.0
 40
1.0
 40
1.0
 10
4.8774068323
 20
6.535076409
 30
0.0
 10
4.8722889579
 20
6.535076409
 30
0.0
 10
4.8620907373
 20
6.5349995264
 30
0.0
 10
4.8468907455
 20
6.5346540028
 30
0.0
 10
4.8319219308
 20
6.5340811182
 30
0.0
 10
4.81729764
 20
6.5332852846
 30
0.0
 10
4.8031286622
 20
6.5322726857
 30
0.0
 10
4.7895222489
 20
6.5310511762
 30
0.0
 10
4.7765813064
 20
6.5296303038
 30
0.0
 10
4.7644037408
 20
6.5280211112
 30
0.0
 10
4.7547851027
 20
6.5265051461
 30
0.0
 10
4.7475445153
 20
6.5251983975
 30
0.0
 10
4.7424695582
 20
6.5241988701
 30
0.0
 10
4.7376502507
 20
6.5231621931
 30
0.0
 10
4.7330956716
 20
6.5220903267
 30
0.0
 10
4.7288143859
 20
6.5209853424
 30
0.0
 10
4.7248144151
 20
6.5198494064
 30
0.0
 10
4.7211032175
 20
6.5186846777
 30
0.0
 10
4.7176876434
 20
6.5174934565
 30
0.0
 10
4.7145739221
 20
6.5162779985
 30
0.0
 10
4.7117675862
 20
6.5150406085
 30
0.0
 10
4.709273484
 20
6.513783592
 30
0.0
 10
4.707095521
 20
6.5125088885
 30
0.0
 10
4.7052372647
 20
6.5112186909
 30
0.0
 10
4.7041522276
 20
6.5102969438
 30
0.0
 10
4.7036723149
 20
6.5098317336
 30
0.0
  0
SPLINE
  5
3F2
100
AcDbEntity
  8
0
100
AcDbSpline
 62
7
  6
CONTINUOUS
 70
0
 71
3
 72
15
 73
11
 74
0
 42
0.0000001
 43
0.0000001
 44
0.0000000001
 40
0.0
 40
0.0
 40
0.0
 40
0.0
 40
0.1701426835
 40
0.3254379234
 40
0.4664030512
 40
0.5938548668
 40
0.7089761708
 40
0.8134243832
 40
0.909457265
 40
1.0
 40
1.0
 40
1.0
 40
1.0
 10
6.7378555774
 20
2.3364670428
 30
0.0
 10
6.7377494112
 20
2.3366762486
 30
0.0
 10
6.7375363431
 20
2.3370714845
 30
0.0
 10
6.737196554
 20
2.3376180504
 30
0.0
 10
6.7368516177
 20
2.3380904039
 30
0.0
 10
6.7365017244
 20
2.3384881285
 30
0.0
 10
6.7361468509
 20
2.3388108695
 30
0.0
 10
6.7357866973
 20
2.3390580762
 30
0.0
 10
6.7354212739
 20
2.3392287009
 30
0.0
 10
6.7351696279
 20
2.3392913705
 30
0.0
 10
6.7350459689
 20
2.3393085415
 30
0.0
  0
SPLINE
  5
3F3
100
AcDbEntity
  8
0
100
AcDbSpline
 62
7
  6
CONTINUOUS
 70
0
 71
3
 72
26
 73
22
 74
0
 42
0.0000001
 43
0.0000001
 44
0.0000000001
 40
0.0
 40
0.0
 40
0.0
 40
0.0
 40
0.1239135637
 40
0.248260913
 40
0.310573169
 40
0.3729706007
 40
0.4354501519
 40
0.4980092755
 40
0.5606309173
 40
0.6232932275
 40
0.654637538
 40
0.6859916195
 40
0.7173574681
 40
0.7487359377
 40
0.7801265744
 40
0.811527808
 40
0.8429371438
 40
0.8743511642
 40
0.9057660579
 40
0.9371793261
 40
1.0
 40
1.0
 40
1.0
 40
1.0
 10
4.1692482875
 20
2.3496761374
 30
0.0
 10
4.1695835713
 20
2.3475229172
 30
0.0
 10
4.1702519137
 20
2.3432084125
 30
0.0
 10
4.1710958821
 20
2.3378122026
 30
0.0
 10
4.171785817
 20
2.3334869175
 30
0.0
 10
4.172301751
 20
2.3302356509
 30
0.0
 10
4.1728071983
 20
2.3269783363
 30
0.0
 10
4.1732945708
 20
2.3237142599
 30
0.0
 10
4.1737495389
 20
2.3204422132
 30
0.0
 10
4.1740854974
 20
2.3177081006
 30
0.0
 10
4.1743194104
 20
2.3155158809
 30
0.0
 10
4.1744747424
 20
2.3138689166
 30
0.0
 10
4.1746115327
 20
2.3122197172
 30
0.0
 10
4.1747323016
 20
2.3105686302
 30
0.0
 10
4.174839339
 20
2.3089159791
 30
0.0
 10
4.1749349611
 20
2.30726209
 30
0.0
 10
4.1750216073
 20
2.3056072993
 30
0.0
 10
4.1751011898
 20
2.3039519133
 30
0.0
 10
4.1751695324
 20
2.3022959381
 30
0.0
 10
4.1752406182
 20
2.3000873903
 30
0.0
 10
4.1752655574
 20
2.2984300864
 30
0.0
 10
4.1752644123
 20
2.2973253106
 30
0.0
  0
SPLINE
  5
3F4
100
AcDbEntity
  8
0
100
AcDbSpline
 62
7
  6
CONTINUOUS
 70
0
 71
3
 72
53
 73
49
 74
0
 42
0.0000001
 43
0.0000001
 44
0.0000000001
 40
0.0
 40
0.0
 40
0.0
 40
0.0
 40
0.0000047049
 40
0.0000185218
 40
0.0000414507
 40
0.000073491
 40
0.0001146421
 40
0.0001649032
 40
0.0002927521
 40
0.0004570318
 40
0.000657736
 40
0.0008948586
 40
0.0011683935
 40
0.0014783345
 40
0.0018246753
 40
0.0026265322
 40
0.0035739148
 40
0.0046667738
 40
0.0059050235
 40
0.0072884422
 40
0.008816776
 40
0.0104897712
 40
0.0142687307
 40
0.0186232908
 40
0.023551161
 40
0.0290490201
 40
0.0351132914
 40
0.0417403985
 40
0.0489265954
 40
0.0566674061
 40
0.0737941779
 40
0.0930822848
 40
0.1144885749
 40
0.1379671555
 40
0.1634648996
 40
0.1909258819
 40
0.2202910457
 40
0.2514997321
 40
0.2844877712
 40
0.3555378967
 40
0.4329093745
 40
0.516059948
 40
0.604452104
 40
0.6504500361
 40
0.6975629944
 40
0.7948693695
 40
0.8958552908
 40
1.0
 40
1.0
 40
1.0
 40
1.0
 10
5.174099017
 20
2.8572100139
 30
0.0
 10
5.1740989526
 20
2.857209695
 30
0.0
 10
5.1740975081
 20
2.8572091588
 30
0.0
 10
5.1740956666
 20
2.857207151
 30
0.0
 10
5.1740916692
 20
2.8572043769
 30
0.0
 10
5.1740865148
 20
2.8572002511
 30
0.0
 10
5.1740797155
 20
2.8571950602
 30
0.0
 10
5.174067726
 20
2.8571857933
 30
0.0
 10
5.174048953
 20
2.8571713577
 30
0.0
 10
5.1740219478
 20
2.8571505748
 30
0.0
 10
5.1739889406
 20
2.8571251962
 30
0.0
 10
5.1739499428
 20
2.8570952161
 30
0.0
 10
5.1739049524
 20
2.8570606371
 30
0.0
 10
5.1738539719
 20
2.8570214585
 30
0.0
 10
5.1737740219
 20
2.8569600218
 30
0.0
 10
5.1736591181
 20
2.856871731
 30
0.0
 10
5.1735032818
 20
2.8567519876
 30
0.0
 10
5.1733235209
 20
2.8566138535
 30
0.0
 10
5.1731198586
 20
2.8564573392
 30
0.0
 10
5.1728923292
 20
2.8562824637
 30
0.0
 10
5.1726409761
 20
2.8560892532
 30
0.0
 10
5.1722583104
 20
2.8557950638
 30
0.0
 10
5.171720755
 20
2.8553817005
 30
0.0
 10
5.1710048677
 20
2.8548310238
 30
0.0
 10
5.1701948693
 20
2.8542077461
 30
0.0
 10
5.1692911896
 20
2.8535123508
 30
0.0
 10
5.1682943337
 20
2.8527453692
 30
0.0
 10
5.1672048278
 20
2.8519073532
 30
0.0
 10
5.1660232481
 20
2.8509988921
 30
0.0
 10
5.1642657892
 20
2.8496482768
 30
0.0
 10
5.1618441198
 20
2.8477886233
 30
0.0
 10
5.1586717158
 20
2.8453550874
 30
0.0
 10
5.1551496571
 20
2.842655731
 30
0.0
 10
5.1512857455
 20
2.8396965367
 30
0.0
 10
5.1470869518
 20
2.8364860265
 30
0.0
 10
5.1425609291
 20
2.8330333372
 30
0.0
 10
5.137715622
 20
2.8293480951
 30
0.0
 10
5.1325595275
 20
2.8254401556
 30
0.0
 10
5.1250941055
 20
2.8198071165
 30
0.0
 10
5.1150497316
 20
2.8122923214
 30
0.0
 10
5.1021640124
 20
2.8027855141
 30
0.0
 10
5.0882252762
 20
2.7926870104
 30
0.0
 10
5.0759520609
 20
2.7839886027
 30
0.0
 10
5.065649597
 20
2.7768204276
 30
0.0
 10
5.0547952174
 20
2.7693666577
 30
0.0
 10
5.0407089703
 20
2.7599027302
 30
0.0
 10
5.0231625896
 20
2.7485216659
 30
0.0
 10
5.0111079314
 20
2.7410429516
 30
0.0
 10
5.0049402018
 20
2.7373253106
 30
0.0
  0
SPLINE
  5
3F5
100
AcDbEntity
  8
0
100
AcDbSpline
 62
7
  6
CONTINUOUS
 70
0
 71
3
 72
19
 73
15
 74
0
 42
0.0000001
 43
0.0000001
 44
0.0000000001
 40
0.0
 40
0.0
 40
0.0
 40
0.0
 40
0.0297183767
 40
0.0641034899
 40
0.103248047
 40
0.1471687563
 40
0.1958320839
 40
0.2491510979
 40
0.3070088427
 40
0.3692542054
 40
0.506190082
 40
0.6583144108
 40
0.823660448
 40
1.0
 40
1.0
 40
1.0
 40
1.0
 10
6.7345862443
 20
2.2675011155
 30
0.0
 10
6.7345029506
 20
2.2676222522
 30
0.0
 10
6.734340174
 20
2.2678952106
 30
0.0
 10
6.7341179099
 20
2.268355515
 30
0.0
 10
6.7339009363
 20
2.2688948728
 30
0.0
 10
6.7336900101
 20
2.2695116696
 30
0.0
 10
6.733485916
 20
2.2702041519
 30
0.0
 10
6.7332893806
 20
2.2709701711
 30
0.0
 10
6.7331011915
 20
2.2718072694
 30
0.0
 10
6.7328544379
 20
2.2730547271
 30
0.0
 10
6.7325762958
 20
2.2747706905
 30
0.0
 10
6.7322952503
 20
2.2770012546
 30
0.0
 10
6.732061987
 20
2.279433166
 30
0.0
 10
6.731944102
 20
2.2811194857
 30
0.0
 10
6.7318931511
 20
2.2819903079
 30
0.0
  0
SPLINE
  5
3F6
100
AcDbEntity
  8
0
100
AcDbSpline
 62
7
  6
CONTINUOUS
 70
0
 71
3
 72
25
 73
21
 74
0
 42
0.0000001
 43
0.0000001
 44
0.0000000001
 40
0.0
 40
0.0
 40
0.0
 40
0.0
 40
0.2026901094
 40
0.3886247694
 40
0.4740873491
 40
0.5539576222
 40
0.6278542408
 40
0.6954455234
 40
0.7564515104
 40
0.8106609507
 40
0.8579448228
 40
0.8982844653
 40
0.915899136
 40
0.931858315
 40
0.9462321356
 40
0.9591248776
 40
0.9706879941
 40
0.9811405006
 40
0.9907832358
 40
1.0
 40
1.0
 40
1.0
 40
1.0
 10
6.7318803718
 20
2.3132809424
 30
0.0
 10
6.7319504354
 20
2.3144953602
 30
0.0
 10
6.7321167892
 20
2.3168221194
 30
0.0
 10
6.7324114365
 20
2.3196527204
 30
0.0
 10
6.7326934616
 20
2.3217420381
 30
0.0
 10
6.7329175882
 20
2.3231603055
 30
0.0
 10
6.7331588763
 20
2.3244668559
 30
0.0
 10
6.7334158455
 20
2.3256548672
 30
0.0
 10
6.7336869451
 20
2.3267182489
 30
0.0
 10
6.7339705011
 20
2.3276518164
 30
0.0
 10
6.7342648308
 20
2.3284510701
 30
0.0
 10
6.7345282979
 20
2.3290262403
 30
0.0
 10
6.7347467984
 20
2.329412584
 30
0.0
 10
6.734905048
 20
2.3296532301
 30
0.0
 10
6.7350649898
 20
2.3298579201
 30
0.0
 10
6.7352265994
 20
2.3300264912
 30
0.0
 10
6.7353899784
 20
2.3301587159
 30
0.0
 10
6.7355553454
 20
2.3302542057
 30
0.0
 10
6.7357226607
 20
2.330312225
 30
0.0
 10
6.7358362222
 20
2.3303253109
 30
0.0
 10
6.7358915362
 20
2.3303253072
 30
0.0
  0
LINE
  5
3F7
100
AcDbEntity
  8
0
100
AcDbLine
 62
7
  6
CONTINUOUS
 10
3.0076818729
 20
2.2973253106
 11
3.0079962632
 21
2.3275522318
  0
SPLINE
  5
3F8
100
AcDbEntity
  8
0
100
AcDbSpline
 62
7
  6
CONTINUOUS
 70
0
 71
3
 72
14
 73
10
 74
0
 42
0.0000001
 43
0.0000001
 44
0.0000000001
 40
0.0
 40
0.0
 40
0.0
 40
0.0
 40
0.1105507834
 40
0.2256511225
 40
0.3452487942
 40
0.4691301765
 40
0.5969665742
 40
0.728355573
 40
1.0
 40
1.0
 40
1.0
 40
1.0
 10
6.4123589802
 20
2.4918679085
 30
0.0
 10
6.4123589802
 20
2.4899128832
 30
0.0
 10
6.4125383043
 20
2.4859207407
 30
0.0
 10
6.4133023651
 20
2.4798576052
 30
0.0
 10
6.4145507679
 20
2.4736352248
 30
0.0
 10
6.4162594761
 20
2.4672907308
 30
0.0
 10
6.4183977699
 20
2.4608583835
 30
0.0
 10
6.4218111992
 20
2.4521094779
 30
0.0
 10
6.424847513
 20
2.4456507718
 30
0.0
 10
6.4270241307
 20
2.441368306
 30
0.0
  0
SPLINE
  5
3F9
100
AcDbEntity
  8
0
100
AcDbSpline
 62
7
  6
CONTINUOUS
 70
0
 71
3
 72
15
 73
11
 74
0
 42
0.0000001
 43
0.0000001
 44
0.0000000001
 40
0.0
 40
0.0
 40
0.0
 40
0.0
 40
0.1190526659
 40
0.2404726323
 40
0.3638893569
 40
0.4889545387
 40
0.615356249
 40
0.7428158082
 40
0.8710987034
 40
1.0
 40
1.0
 40
1.0
 40
1.0
 10
6.4270241307
 20
2.441368306
 30
0.0
 10
6.4277221101
 20
2.439995041
 30
0.0
 10
6.4292692365
 20
2.4372892328
 30
0.0
 10
6.4319607135
 20
2.4334193732
 30
0.0
 10
6.4350118856
 20
2.4297248626
 30
0.0
 10
6.4383883358
 20
2.4262354975
 30
0.0
 10
6.4420572465
 20
2.4229761812
 30
0.0
 10
6.4459863563
 20
2.4199671441
 30
0.0
 10
6.4501436067
 20
2.4172238111
 30
0.0
 10
6.4530414001
 20
2.4155817848
 30
0.0
 10
6.4545185178
 20
2.4148071796
 30
0.0
  0
SPLINE
  5
3FA
100
AcDbEntity
  8
0
100
AcDbSpline
 62
7
  6
CONTINUOUS
 70
0
 71
3
 72
21
 73
17
 74
0
 42
0.0000001
 43
0.0000001
 44
0.0000000001
 40
0.0
 40
0.0
 40
0.0
 40
0.0
 40
0.1244689729
 40
0.1869048446
 40
0.2494285571
 40
0.3120176835
 40
0.3746534181
 40
0.4373193453
 40
0.5000000072
 40
0.5626806658
 40
0.6253465882
 40
0.6879823204
 40
0.7505714461
 40
0.813095157
 40
0.8755310279
 40
1.0
 40
1.0
 40
1.0
 40
1.0
 10
6.4545185178
 20
2.4148071796
 30
0.0
 10
6.4577635859
 20
2.4131054557
 30
0.0
 10
6.4627801669
 20
2.4108090547
 30
0.0
 10
6.4696975489
 20
2.4083369879
 30
0.0
 10
6.4750010777
 20
2.4067892695
 30
0.0
 10
6.4803948121
 20
2.4055668484
 30
0.0
 10
6.4858587491
 20
2.4046831239
 30
0.0
 10
6.4913706098
 20
2.4041485057
 30
0.0
 10
6.4969068328
 20
2.4039695418
 30
0.0
 10
6.5024430557
 20
2.4041485058
 30
0.0
 10
6.5079549162
 20
2.4046831239
 30
0.0
 10
6.5134188528
 20
2.4055668485
 30
0.0
 10
6.5188125871
 20
2.4067892696
 30
0.0
 10
6.5241161159
 20
2.4083369879
 30
0.0
 10
6.5310334978
 20
2.4108090547
 30
0.0
 10
6.5360500787
 20
2.4131054558
 30
0.0
 10
6.5392951468
 20
2.4148071796
 30
0.0
  0
SPLINE
  5
3FB
100
AcDbEntity
  8
0
100
AcDbSpline
 62
7
  6
CONTINUOUS
 70
0
 71
3
 72
15
 73
11
 74
0
 42
0.0000001
 43
0.0000001
 44
0.0000000001
 40
0.0
 40
0.0
 40
0.0
 40
0.0
 40
0.1289012953
 40
0.2571841881
 40
0.3846437458
 40
0.5110454544
 40
0.6361106337
 40
0.7595273582
 40
0.8809473315
 40
1.0
 40
1.0
 40
1.0
 40
1.0
 10
6.5392951468
 20
2.4148071796
 30
0.0
 10
6.5407722645
 20
2.4155817848
 30
0.0
 10
6.5436700578
 20
2.417223811
 30
0.0
 10
6.5478273082
 20
2.4199671441
 30
0.0
 10
6.551756418
 20
2.4229761811
 30
0.0
 10
6.5554253286
 20
2.4262354973
 30
0.0
 10
6.5588017788
 20
2.4297248623
 30
0.0
 10
6.561852951
 20
2.433419373
 30
0.0
 10
6.564544428
 20
2.4372892327
 30
0.0
 10
6.5660915544
 20
2.439995041
 30
0.0
 10
6.5667895339
 20
2.441368306
 30
0.0
  0
SPLINE
  5
3FC
100
AcDbEntity
  8
0
100
AcDbSpline
 62
7
  6
CONTINUOUS
 70
0
 71
3
 72
14
 73
10
 74
0
 42
0.0000001
 43
0.0000001
 44
0.0000000001
 40
0.0
 40
0.0
 40
0.0
 40
0.0
 40
0.2716447786
 40
0.4030340349
 40
0.5308707239
 40
0.6547522409
 40
0.7743498238
 40
0.8894497393
 40
1.0
 40
1.0
 40
1.0
 40
1.0
 10
6.5667895339
 20
2.441368306
 30
0.0
 10
6.5689661544
 20
2.4456507774
 30
0.0
 10
6.5720024723
 20
2.4521094934
 30
0.0
 10
6.5754159053
 20
2.4608584147
 30
0.0
 10
6.5775542004
 20
2.4672907742
 30
0.0
 10
6.5792629074
 20
2.4736352747
 30
0.0
 10
6.5805113051
 20
2.4798576493
 30
0.0
 10
6.5812753621
 20
2.4859207667
 30
0.0
 10
6.5814546844
 20
2.4899128925
 30
0.0
 10
6.5814546844
 20
2.4918679085
 30
0.0
  0
LINE
  5
3FD
100
AcDbEntity
  8
0
100
AcDbLine
 62
7
  6
CONTINUOUS
 10
3.0081820504
 20
2.2973253106
 11
3.0084748961
 21
2.2680681935
  0
SPLINE
  5
3FE
100
AcDbEntity
  8
0
100
AcDbSpline
 62
7
  6
CONTINUOUS
 70
0
 71
3
 72
53
 73
49
 74
0
 42
0.0000001
 43
0.0000001
 44
0.0000000001
 40
0.0
 40
0.0
 40
0.0
 40
0.0
 40
0.0000047049
 40
0.0000185218
 40
0.0000414507
 40
0.000073491
 40
0.0001146421
 40
0.0001649032
 40
0.0002927521
 40
0.0004570318
 40
0.000657736
 40
0.0008948586
 40
0.0011683935
 40
0.0014783345
 40
0.0018246753
 40
0.0026265322
 40
0.0035739148
 40
0.0046667738
 40
0.0059050235
 40
0.0072884422
 40
0.008816776
 40
0.0104897712
 40
0.0142687307
 40
0.0186232908
 40
0.023551161
 40
0.0290490201
 40
0.0351132914
 40
0.0417403985
 40
0.0489265954
 40
0.0566674061
 40
0.0737941779
 40
0.0930822848
 40
0.1144885749
 40
0.1379671555
 40
0.1634648996
 40
0.1909258819
 40
0.2202910457
 40
0.2514997321
 40
0.2844877712
 40
0.3555378967
 40
0.4329093745
 40
0.516059948
 40
0.604452104
 40
0.6504500361
 40
0.6975629944
 40
0.7948693695
 40
0.8958552908
 40
1.0
 40
1.0
 40
1.0
 40
1.0
 10
4.5807146476
 20
2.8572100139
 30
0.0
 10
4.580714712
 20
2.857209695
 30
0.0
 10
4.5807161565
 20
2.8572091588
 30
0.0
 10
4.580717998
 20
2.857207151
 30
0.0
 10
4.5807219954
 20
2.8572043769
 30
0.0
 10
4.5807271498
 20
2.8572002511
 30
0.0
 10
4.5807339491
 20
2.8571950602
 30
0.0
 10
4.5807459386
 20
2.8571857933
 30
0.0
 10
4.5807647116
 20
2.8571713577
 30
0.0
 10
4.5807917168
 20
2.8571505748
 30
0.0
 10
4.580824724
 20
2.8571251962
 30
0.0
 10
4.5808637218
 20
2.8570952161
 30
0.0
 10
4.5809087122
 20
2.8570606371
 30
0.0
 10
4.5809596927
 20
2.8570214585
 30
0.0
 10
4.5810396427
 20
2.8569600218
 30
0.0
 10
4.5811545465
 20
2.856871731
 30
0.0
 10
4.5813103828
 20
2.8567519876
 30
0.0
 10
4.5814901437
 20
2.8566138535
 30
0.0
 10
4.581693806
 20
2.8564573392
 30
0.0
 10
4.5819213354
 20
2.8562824637
 30
0.0
 10
4.5821726885
 20
2.8560892532
 30
0.0
 10
4.5825553542
 20
2.8557950638
 30
0.0
 10
4.5830929096
 20
2.8553817005
 30
0.0
 10
4.5838087969
 20
2.8548310238
 30
0.0
 10
4.5846187953
 20
2.8542077461
 30
0.0
 10
4.585522475
 20
2.8535123508
 30
0.0
 10
4.5865193309
 20
2.8527453692
 30
0.0
 10
4.5876088368
 20
2.8519073532
 30
0.0
 10
4.5887904164
 20
2.8509988921
 30
0.0
 10
4.5905478754
 20
2.8496482768
 30
0.0
 10
4.5929695448
 20
2.8477886233
 30
0.0
 10
4.5961419488
 20
2.8453550874
 30
0.0
 10
4.5996640075
 20
2.842655731
 30
0.0
 10
4.603527919
 20
2.8396965367
 30
0.0
 10
4.6077267128
 20
2.8364860265
 30
0.0
 10
4.6122527355
 20
2.8330333372
 30
0.0
 10
4.6170980426
 20
2.8293480951
 30
0.0
 10
4.6222541371
 20
2.8254401556
 30
0.0
 10
4.6297195591
 20
2.8198071165
 30
0.0
 10
4.639763933
 20
2.8122923214
 30
0.0
 10
4.6526496522
 20
2.8027855141
 30
0.0
 10
4.6665883884
 20
2.7926870104
 30
0.0
 10
4.6788616037
 20
2.7839886027
 30
0.0
 10
4.6891640676
 20
2.7768204276
 30
0.0
 10
4.7000184472
 20
2.7693666577
 30
0.0
 10
4.7141046943
 20
2.7599027302
 30
0.0
 10
4.7316510749
 20
2.7485216659
 30
0.0
 10
4.7437057332
 20
2.7410429516
 30
0.0
 10
4.7498734628
 20
2.7373253106
 30
0.0
  0
LINE
  5
3FF
100
AcDbEntity
  8
0
100
AcDbLine
 62
7
  6
CONTINUOUS
 10
3.0120110668
 20
2.3288753106
 11
3.0119231036
 21
2.3303753106
  0
SPLINE
  5
400
100
AcDbEntity
  8
0
100
AcDbSpline
 62
7
  6
CONTINUOUS
 70
0
 71
3
 72
63
 73
59
 74
0
 42
0.0000001
 43
0.0000001
 44
0.0000000001
 40
0.0
 40
0.0
 40
0.0
 40
0.0
 40
0.0000049824
 40
0.0000195486
 40
0.0000436951
 40
0.0000774177
 40
0.0001207122
 40
0.0001735744
 40
0.0003079851
 40
0.0004806159
 40
0.000691433
 40
0.0009404026
 40
0.0012274908
 40
0.001552664
 40
0.0019158882
 40
0.0027563553
 40
0.0037486222
 40
0.0048924206
 40
0.0061874858
 40
0.0076335537
 40
0.0092303599
 40
0.01097764
 40
0.0149225645
 40
0.0194660801
 40
0.0246053189
 40
0.03033723
 40
0.036658751
 40
0.0435657364
 40
0.051052244
 40
0.0591121626
 40
0.0769269633
 40
0.0969547244
 40
0.119136915
 40
0.1434119744
 40
0.1697131549
 40
0.1979606043
 40
0.2280748959
 40
0.2599832108
 40
0.2936062368
 40
0.3288495012
 40
0.3656265589
 40
0.4038709015
 40
0.4435099329
 40
0.4844503644
 40
0.5266033776
 40
0.5699034938
 40
0.6142887881
 40
0.6596890015
 40
0.7060316433
 40
0.7532420996
 40
0.7771490221
 40
0.801244873
 40
0.8499762811
 40
0.8745999367
 40
0.8993878583
 40
0.9243321656
 40
0.949422616
 40
1.0
 40
1.0
 40
1.0
 40
1.0
 10
4.505937618
 20
2.763477261
 30
0.0
 10
4.5059379935
 20
2.7634773223
 30
0.0
 10
4.5059393244
 20
2.7634762776
 30
0.0
 10
4.5059424394
 20
2.763475419
 30
0.0
 10
4.5059474992
 20
2.7634729893
 30
0.0
 10
4.5059546073
 20
2.7634700502
 30
0.0
 10
4.5059637111
 20
2.7634660824
 30
0.0
 10
4.5059798774
 20
2.7634591245
 30
0.0
 10
4.5060050983
 20
2.7634481965
 30
0.0
 10
4.5060413787
 20
2.7634324697
 30
0.0
 10
4.5060856712
 20
2.7634132255
 30
0.0
 10
4.506137967
 20
2.7633904709
 30
0.0
 10
4.5061982556
 20
2.7633641985
 30
0.0
 10
4.5062665269
 20
2.7633344058
 30
0.0
 10
4.5063735044
 20
2.7632876586
 30
0.0
 10
4.5065271088
 20
2.763220398
 30
0.0
 10
4.5067352286
 20
2.7631290358
 30
0.0
 10
4.5069750397
 20
2.7630235053
 30
0.0
 10
4.5072464877
 20
2.762903835
 30
0.0
 10
4.5075495172
 20
2.762770049
 30
0.0
 10
4.5078840734
 20
2.7626221735
 30
0.0
 10
4.5083930768
 20
2.7623969779
 30
0.0
 10
4.509107712
 20
2.7620804227
 30
0.0
 10
4.5100589958
 20
2.7616585818
 30
0.0
 10
4.5111351101
 20
2.7611816269
 30
0.0
 10
4.5123356616
 20
2.7606503633
 30
0.0
 10
4.513660187
 20
2.7600656823
 30
0.0
 10
4.515107934
 20
2.7594283695
 30
0.0
 10
4.5166777535
 20
2.7587388886
 30
0.0
 10
4.5190109531
 20
2.7577162039
 30
0.0
 10
4.5222226849
 20
2.7563123308
 30
0.0
 10
4.526424493
 20
2.7544810389
 30
0.0
 10
4.5310804015
 20
2.7524569561
 30
0.0
 10
4.5361787639
 20
2.7502490939
 30
0.0
 10
4.5417063347
 20
2.7478669036
 30
0.0
 10
4.5476477018
 20
2.7453182803
 30
0.0
 10
4.553987651
 20
2.7426127564
 30
0.0
 10
4.5607136623
 20
2.7397661438
 30
0.0
 10
4.5678108324
 20
2.7367917649
 30
0.0
 10
4.5752597555
 20
2.7336949397
 30
0.0
 10
4.5830442012
 20
2.7304859813
 30
0.0
 10
4.5911554504
 20
2.7271892641
 30
0.0
 10
4.5995817308
 20
2.7238237386
 30
0.0
 10
4.6083033125
 20
2.7203932708
 30
0.0
 10
4.6173025251
 20
2.7169051741
 30
0.0
 10
4.6265701862
 20
2.713382277
 30
0.0
 10
4.6360977701
 20
2.7098461318
 30
0.0
 10
4.6458733042
 20
2.706311347
 30
0.0
 10
4.6558840093
 20
2.7027937735
 30
0.0
 10
4.6643721792
 20
2.699895127
 30
0.0
 10
4.6712672045
 20
2.6975886356
 30
0.0
 10
4.6782820025
 20
2.6952743086
 30
0.0
 10
4.6853658907
 20
2.6929948037
 30
0.0
 10
4.6925211444
 20
2.6907660701
 30
0.0
 10
4.6979539114
 20
2.6891156561
 30
0.0
 10
4.7034326994
 20
2.6874946147
 30
0.0
 10
4.7108149559
 20
2.6853665374
 30
0.0
 10
4.7163833975
 20
2.6838234683
 30
0.0
 10
4.7201119494
 20
2.6828165221
 30
0.0
  0
SPLINE
  5
401
100
AcDbEntity
  8
0
100
AcDbSpline
 62
7
  6
CONTINUOUS
 70
0
 71
3
 72
22
 73
18
 74
0
 42
0.0000001
 43
0.0000001
 44
0.0000000001
 40
0.0
 40
0.0
 40
0.0
 40
0.0
 40
0.0513382334
 40
0.1028711512
 40
0.1548633849
 40
0.2076712371
 40
0.2616990721
 40
0.3173590322
 40
0.3750247078
 40
0.4349920518
 40
0.4974533507
 40
0.5624866915
 40
0.6300611776
 40
0.7000557316
 40
0.7722842233
 40
0.8465190296
 40
1.0
 40
1.0
 40
1.0
 40
1.0
 10
6.5667895339
 20
2.0657772185
 30
0.0
 10
6.5678988986
 20
2.0669396709
 30
0.0
 10
6.5700351783
 20
2.0693541128
 30
0.0
 10
6.5729282789
 20
2.0732510739
 30
0.0
 10
6.5754666211
 20
2.0774434622
 30
0.0
 10
6.577607009
 20
2.0819398556
 30
0.0
 10
6.579311494
 20
2.086741411
 30
0.0
 10
6.5805487436
 20
2.0918405974
 30
0.0
 10
6.5812957453
 20
2.0972215978
 30
0.0
 10
6.581539056
 20
2.1028610743
 30
0.0
 10
6.5812753526
 20
2.1087295457
 30
0.0
 10
6.5805113055
 20
2.1147931003
 30
0.0
 10
6.5792628718
 20
2.1210154332
 30
0.0
 10
6.5775541462
 20
2.1273599973
 30
0.0
 10
6.5754158344
 20
2.1337923125
 30
0.0
 10
6.5720024224
 20
2.1425411797
 30
0.0
 10
6.5689661475
 20
2.1489998575
 30
0.0
 10
6.5667895339
 20
2.1532823151
 30
0.0
  0
SPLINE
  5
402
100
AcDbEntity
  8
0
100
AcDbSpline
 62
7
  6
CONTINUOUS
 70
0
 71
3
 72
15
 73
11
 74
0
 42
0.0000001
 43
0.0000001
 44
0.0000000001
 40
0.0
 40
0.0
 40
0.0
 40
0.0
 40
0.1190526391
 40
0.2404725895
 40
0.3638893036
 40
0.4889544973
 40
0.6153562228
 40
0.7428157854
 40
0.8710986943
 40
1.0
 40
1.0
 40
1.0
 40
1.0
 10
6.5667895339
 20
2.1532823151
 30
0.0
 10
6.5660915546
 20
2.1546555798
 30
0.0
 10
6.5645444286
 20
2.1573613875
 30
0.0
 10
6.5618529521
 20
2.1612312466
 30
0.0
 10
6.5588017802
 20
2.1649257572
 30
0.0
 10
6.55542533
 20
2.1684151225
 30
0.0
 10
6.551756419
 20
2.1716744391
 30
0.0
 10
6.5478273089
 20
2.1746834765
 30
0.0
 10
6.5436700582
 20
2.1774268098
 30
0.0
 10
6.5407722646
 20
2.1790688363
 30
0.0
 10
6.5392951468
 20
2.1798434415
 30
0.0
  0
SPLINE
  5
403
100
AcDbEntity
  8
0
100
AcDbSpline
 62
7
  6
CONTINUOUS
 70
0
 71
3
 72
15
 73
11
 74
0
 42
0.0000001
 43
0.0000001
 44
0.0000000001
 40
0.0
 40
0.0
 40
0.0
 40
0.0
 40
0.1289013025
 40
0.2571842081
 40
0.3846437697
 40
0.5110454904
 40
0.6361106768
 40
0.7595273905
 40
0.8809473475
 40
1.0
 40
1.0
 40
1.0
 40
1.0
 10
6.4545185178
 20
2.1798434415
 30
0.0
 10
6.4530414001
 20
2.1790688363
 30
0.0
 10
6.4501436065
 20
2.1774268099
 30
0.0
 10
6.4459863558
 20
2.1746834767
 30
0.0
 10
6.4420572458
 20
2.1716744393
 30
0.0
 10
6.438388335
 20
2.1684151229
 30
0.0
 10
6.4350118849
 20
2.1649257577
 30
0.0
 10
6.4319607129
 20
2.1612312472
 30
0.0
 10
6.4292692362
 20
2.1573613879
 30
0.0
 10
6.4277221101
 20
2.15465558
 30
0.0
 10
6.4270241307
 20
2.1532823151
 30
0.0
  0
SPLINE
  5
404
100
AcDbEntity
  8
0
100
AcDbSpline
 62
7
  6
CONTINUOUS
 70
0
 71
3
 72
22
 73
18
 74
0
 42
0.0000001
 43
0.0000001
 44
0.0000000001
 40
0.0
 40
0.0
 40
0.0
 40
0.0
 40
0.1534809773
 40
0.2277157608
 40
0.2999442246
 40
0.3699387491
 40
0.4375132135
 40
0.5025465521
 40
0.5650078707
 40
0.624975204
 40
0.6826408888
 40
0.7383008708
 40
0.7923287298
 40
0.8451366032
 40
0.8971288537
 40
0.9486617736
 40
1.0
 40
1.0
 40
1.0
 40
1.0
 10
6.4270241307
 20
2.1532823151
 30
0.0
 10
6.424847517
 20
2.1489998573
 30
0.0
 10
6.4218112422
 20
2.14254118
 30
0.0
 10
6.4183978308
 20
2.1337923141
 30
0.0
 10
6.4162595197
 20
2.1273600013
 30
0.0
 10
6.4145507946
 20
2.1210154396
 30
0.0
 10
6.4133023607
 20
2.1147931085
 30
0.0
 10
6.4125383128
 20
2.1087295541
 30
0.0
 10
6.4122746087
 20
2.1028610825
 30
0.0
 10
6.4125179185
 20
2.0972216054
 30
0.0
 10
6.4132649194
 20
2.0918406043
 30
0.0
 10
6.4145021688
 20
2.086741416
 30
0.0
 10
6.4162066544
 20
2.0819398586
 30
0.0
 10
6.4183470429
 20
2.0774434633
 30
0.0
 10
6.4208853859
 20
2.073251074
 30
0.0
 10
6.4237784863
 20
2.0693541123
 30
0.0
 10
6.4259147662
 20
2.0669396707
 30
0.0
 10
6.4270241307
 20
2.0657772185
 30
0.0
  0
SPLINE
  5
405
100
AcDbEntity
  8
0
100
AcDbSpline
 62
7
  6
CONTINUOUS
 70
0
 71
3
 72
20
 73
16
 74
0
 42
0.0000001
 43
0.0000001
 44
0.0000000001
 40
0.0
 40
0.0
 40
0.0
 40
0.0
 40
0.2091568406
 40
0.3954738071
 40
0.5574858596
 40
0.6290499144
 40
0.694184942
 40
0.7528511813
 40
0.8050541089
 40
0.8508794952
 40
0.8905167539
 40
0.9243345221
 40
0.9529923245
 40
0.9776192126
 40
1.0
 40
1.0
 40
1.0
 40
1.0
 10
3.0180680507
 20
2.3243253106
 30
0.0
 10
3.0180094543
 20
2.3247813292
 30
0.0
 10
3.0178873433
 20
2.3256422066
 30
0.0
 10
3.017674204
 20
2.3268492409
 30
0.0
 10
3.0174747059
 20
2.3277509056
 30
0.0
 10
3.0173036262
 20
2.3283849668
 30
0.0
 10
3.0171770331
 20
2.3287954495
 30
0.0
 10
3.0170471718
 20
2.3291600509
 30
0.0
 10
3.0169143155
 20
2.3294780653
 30
0.0
 10
3.0167787965
 20
2.3297489743
 30
0.0
 10
3.0166407962
 20
2.3299724611
 30
0.0
 10
3.0165002846
 20
2.3301484347
 30
0.0
 10
3.0163565768
 20
2.3302768398
 30
0.0
 10
3.0162083835
 20
2.3303566722
 30
0.0
 10
3.0161044157
 20
2.3303753106
 30
0.0
 10
3.0160552184
 20
2.3303753106
 30
0.0
  0
SPLINE
  5
406
100
AcDbEntity
  8
0
100
AcDbSpline
 62
7
  6
CONTINUOUS
 70
0
 71
3
 72
9
 73
5
 74
0
 42
0.0000001
 43
0.0000001
 44
0.0000000001
 40
0.0
 40
0.0
 40
0.0
 40
0.0
 40
0.2427253626
 40
1.0
 40
1.0
 40
1.0
 40
1.0
 10
6.4270241307
 20
2.0657772185
 30
0.0
 10
6.4272802349
 20
2.0655088587
 30
0.0
 10
6.4283680665
 20
2.0644345502
 30
0.0
 10
6.4295742865
 20
2.0634833487
 30
0.0
 10
6.4305272225
 20
2.0628265934
 30
0.0
  0
SPLINE
  5
407
100
AcDbEntity
  8
0
100
AcDbSpline
 62
7
  6
CONTINUOUS
 70
0
 71
3
 72
39
 73
35
 74
0
 42
0.0000001
 43
0.0000001
 44
0.0000000001
 40
0.0
 40
0.0
 40
0.0
 40
0.0
 40
0.1212117018
 40
0.1823970683
 40
0.2439289848
 40
0.3057789745
 40
0.3679198652
 40
0.4303265214
 40
0.4929734053
 40
0.5558355646
 40
0.6188884715
 40
0.6504790162
 40
0.6821083257
 40
0.7137735117
 40
0.7454717742
 40
0.7772003183
 40
0.7930752481
 40
0.8089569623
 40
0.8248448158
 40
0.8407387468
 40
0.85663853
 40
0.8645910075
 40
0.8725452153
 40
0.8884561977
 40
0.9043725434
 40
0.9202960341
 40
0.9362270868
 40
0.9441941617
 40
0.9521657403
 40
0.9601384243
 40
0.9681123569
 40
0.9760872971
 40
0.9840609859
 40
1.0
 40
1.0
 40
1.0
 40
1.0
 10
4.7498734628
 20
2.7373253106
 30
0.0
 10
4.7545632097
 20
2.7335801103
 30
0.0
 10
4.761611738
 20
2.727933724
 30
0.0
 10
4.7710176775
 20
2.7203571396
 30
0.0
 10
4.7781244911
 20
2.7146118131
 30
0.0
 10
4.785258553
 20
2.7088249575
 30
0.0
 10
4.7924150511
 20
2.7029970271
 30
0.0
 10
4.7995848126
 20
2.6971229509
 30
0.0
 10
4.8067609726
 20
2.6912004103
 30
0.0
 10
4.8139335995
 20
2.6852234616
 30
0.0
 10
4.8198939794
 20
2.6801939931
 30
0.0
 10
4.8246466343
 20
2.6761315363
 30
0.0
 10
4.8282021915
 20
2.6730605709
 30
0.0
 10
4.8317423334
 20
2.6699637183
 30
0.0
 10
4.8352614796
 20
2.6668356024
 30
0.0
 10
4.8381690884
 20
2.6641965647
 30
0.0
 10
4.8404739269
 20
2.6620590584
 30
0.0
 10
4.8421902999
 20
2.6604405852
 30
0.0
 10
4.8438902812
 20
2.6588035206
 30
0.0
 10
4.8455701551
 20
2.6571445263
 30
0.0
 10
4.8469483659
 20
2.6557395351
 30
0.0
 10
4.8480345329
 20
2.6545991232
 30
0.0
 10
4.849108541
 20
2.6534464976
 30
0.0
 10
4.8504225449
 20
2.6519786781
 30
0.0
 10
4.8519371544
 20
2.6501622893
 30
0.0
 10
4.853367198
 20
2.6482771243
 30
0.0
 10
4.8544656463
 20
2.6466372555
 30
0.0
 10
4.8552539723
 20
2.6452695717
 30
0.0
 10
4.855791224
 20
2.6442138815
 30
0.0
 10
4.8562683296
 20
2.6431292014
 30
0.0
 10
4.8566780998
 20
2.6420170519
 30
0.0
 10
4.857014564
 20
2.6408803682
 30
0.0
 10
4.857358015
 20
2.6393381936
 30
0.0
 10
4.8574917861
 20
2.6381574386
 30
0.0
 10
4.8575367503
 20
2.6373695147
 30
0.0
  0
SPLINE
  5
408
100
AcDbEntity
  8
0
100
AcDbSpline
 62
7
  6
CONTINUOUS
 70
0
 71
3
 72
46
 73
42
 74
0
 42
0.0000001
 43
0.0000001
 44
0.0000000001
 40
0.0
 40
0.0
 40
0.0
 40
0.0
 40
0.0607078468
 40
0.1217582483
 40
0.1831227114
 40
0.244776795
 40
0.3066987564
 40
0.368872076
 40
0.431274444
 40
0.4938836521
 40
0.5566790026
 40
0.5881403068
 40
0.6196408482
 40
0.6511783197
 40
0.6827504684
 40
0.7143550976
 40
0.7459900587
 40
0.77765325
 40
0.8093426102
 40
0.8251966188
 40
0.8410564867
 40
0.8569219722
 40
0.8727928759
 40
0.8886690228
 40
0.9045502982
 40
0.9204363447
 40
0.9283824116
 40
0.9363294401
 40
0.9442784256
 40
0.9482542032
 40
0.9522313994
 40
0.9562086094
 40
0.9601865854
 40
0.9641670649
 40
0.9681474212
 40
0.9761063607
 40
0.984066447
 40
0.9880492675
 40
0.9920334334
 40
0.9960188243
 40
1.0
 40
1.0
 40
1.0
 40
1.0
 10
4.7201118186
 20
2.6828167487
 30
0.0
 10
4.7229123564
 20
2.682060237
 30
0.0
 10
4.7285292663
 20
2.6805430623
 30
0.0
 10
4.7369756478
 20
2.6782561711
 30
0.0
 10
4.7454627538
 20
2.6759466978
 30
0.0
 10
4.7539859304
 20
2.6736112081
 30
0.0
 10
4.7625420849
 20
2.6712498868
 30
0.0
 10
4.7711344624
 20
2.668885428
 30
0.0
 10
4.7797566905
 20
2.6665056681
 30
0.0
 10
4.7884028767
 20
2.6641010376
 30
0.0
 10
4.7956180896
 20
2.6620692073
 30
0.0
 10
4.8013963552
 20
2.6604189542
 30
0.0
 10
4.8057346832
 20
2.6591659665
 30
0.0
 10
4.81007358
 20
2.6578959514
 30
0.0
 10
4.8144116952
 20
2.6566056921
 30
0.0
 10
4.8187473834
 20
2.655291126
 30
0.0
 10
4.8230784964
 20
2.6539467554
 30
0.0
 10
4.8274020352
 20
2.6525648022
 30
0.0
 10
4.8309942937
 20
2.6513723613
 30
0.0
 10
4.8338585189
 20
2.6503846362
 30
0.0
 10
4.8360008668
 20
2.6496232743
 30
0.0
 10
4.8381349714
 20
2.6488366975
 30
0.0
 10
4.8402580035
 20
2.64801844
 30
0.0
 10
4.8423659541
 20
2.6471598598
 30
0.0
 10
4.8444521863
 20
2.6462476689
 30
0.0
 10
4.8461625923
 20
2.6454239922
 30
0.0
 10
4.8475039518
 20
2.644711634
 30
0.0
 10
4.8484913055
 20
2.6441426607
 30
0.0
 10
4.8492925942
 20
2.6436322723
 30
0.0
 10
4.8499155187
 20
2.6431969239
 30
0.0
 10
4.850372347
 20
2.6428557013
 30
0.0
 10
4.8508157164
 20
2.6424969018
 30
0.0
 10
4.8512420963
 20
2.6421177549
 30
0.0
 10
4.8516475603
 20
2.6417159126
 30
0.0
 10
4.8521530683
 20
2.6411468967
 30
0.0
 10
4.8527060343
 20
2.640367986
 30
0.0
 10
4.8531051058
 20
2.6394963229
 30
0.0
 10
4.8533003115
 20
2.6387590417
 30
0.0
 10
4.8533812241
 20
2.6381924805
 30
0.0
 10
4.8534063558
 20
2.6376212138
 30
0.0
 10
4.8533879812
 20
2.637240321
 30
0.0
 10
4.8533698528
 20
2.6370509467
 30
0.0
  0
SPLINE
  5
409
100
AcDbEntity
  8
0
100
AcDbSpline
 62
7
  6
CONTINUOUS
 70
0
 71
3
 72
24
 73
20
 74
0
 42
0.0000001
 43
0.0000001
 44
0.0000000001
 40
0.0
 40
0.0
 40
0.0
 40
0.0
 40
0.0624980363
 40
0.0937491142
 40
0.1250015903
 40
0.1562545127
 40
0.1875064884
 40
0.2187572181
 40
0.2500070545
 40
0.3125053349
 40
0.375003689
 40
0.4375030587
 40
0.5000030353
 40
0.5625030512
 40
0.625002749
 40
0.6875022448
 40
0.7500016954
 40
0.8750008241
 40
1.0
 40
1.0
 40
1.0
 40
1.0
 10
4.8575367503
 20
2.6373695147
 30
0.0
 10
4.8579019012
 20
2.6302940825
 30
0.0
 10
4.8583386324
 20
2.619674823
 30
0.0
 10
4.858767366
 20
2.6055109769
 30
0.0
 10
4.8590294144
 20
2.5948858095
 30
0.0
 10
4.859248707
 20
2.5842596181
 30
0.0
 10
4.8594438795
 20
2.573633159
 30
0.0
 10
4.8596199329
 20
2.5630067173
 30
0.0
 10
4.8598305018
 20
2.548838265
 30
0.0
 10
4.8600532122
 20
2.5311273635
 30
0.0
 10
4.8602704084
 20
2.5098736996
 30
0.0
 10
4.8604489014
 20
2.4886194871
 30
0.0
 10
4.8605958597
 20
2.4673648488
 30
0.0
 10
4.8607197882
 20
2.4461100295
 30
0.0
 10
4.8608269484
 20
2.4248551744
 30
0.0
 10
4.8609183018
 20
2.4036003095
 30
0.0
 10
4.8610211058
 20
2.375260429
 30
0.0
 10
4.8611193475
 20
2.3398354552
 30
0.0
 10
4.8611509499
 20
2.3114953591
 30
0.0
 10
4.8611508661
 20
2.2973253106
 30
0.0
  0
SPLINE
  5
40A
100
AcDbEntity
  8
0
100
AcDbSpline
 62
7
  6
CONTINUOUS
 70
0
 71
3
 72
23
 73
19
 74
0
 42
0.0000001
 43
0.0000001
 44
0.0000000001
 40
0.0
 40
0.0
 40
0.0
 40
0.0
 40
0.0312498357
 40
0.0468750863
 40
0.062500231
 40
0.0937502034
 40
0.125000156
 40
0.1562501799
 40
0.1875002142
 40
0.2500001689
 40
0.3125001495
 40
0.3750001354
 40
0.4375001282
 40
0.5000001175
 40
0.6250000812
 40
0.7500000535
 40
0.8750000287
 40
1.0
 40
1.0
 40
1.0
 40
1.0
 10
4.8533698513
 20
2.6370509468
 30
0.0
 10
4.8535804733
 20
2.6335178717
 30
0.0
 10
4.8538585386
 20
2.6282159235
 30
0.0
 10
4.854174861
 20
2.6211442311
 30
0.0
 10
4.8544624548
 20
2.6140712815
 30
0.0
 10
4.8547746085
 20
2.6052283021
 30
0.0
 10
4.8550913794
 20
2.5946148979
 30
0.0
 10
4.8553631563
 20
2.5840002517
 30
0.0
 10
4.8556792456
 20
2.5698462962
 30
0.0
 10
4.8560052269
 20
2.5521524064
 30
0.0
 10
4.8563192633
 20
2.5309185097
 30
0.0
 10
4.8565742626
 20
2.5096838267
 30
0.0
 10
4.8567853772
 20
2.4884486718
 30
0.0
 10
4.8570228988
 20
2.4601347359
 30
0.0
 10
4.857252592
 20
2.4247417968
 30
0.0
 10
4.8574527789
 20
2.3822698694
 30
0.0
 10
4.8575924717
 20
2.3397976999
 30
0.0
 10
4.8576320917
 20
2.3114827722
 30
0.0
 10
4.8576319683
 20
2.2973253106
 30
0.0
  0
LINE
  5
40B
100
AcDbEntity
  8
0
100
AcDbLine
 62
7
  6
CONTINUOUS
 10
4.85753675
 20
2.6373695147
 11
4.8533698513
 21
2.6370509468
  0
SPLINE
  5
40C
100
AcDbEntity
  8
0
100
AcDbSpline
 62
7
  6
CONTINUOUS
 70
0
 71
3
 72
90
 73
86
 74
0
 42
0.0000001
 43
0.0000001
 44
0.0000000001
 40
0.0
 40
0.0
 40
0.0
 40
0.0
 40
0.0024600897
 40
0.0049209573
 40
0.0073815467
 40
0.0086122907
 40
0.0098424629
 40
0.011072638
 40
0.0123026126
 40
0.0147619398
 40
0.0172209893
 40
0.0196798253
 40
0.0245966225
 40
0.0295127686
 40
0.034428235
 40
0.0393429995
 40
0.044257041
 40
0.0491703347
 40
0.0589945308
 40
0.0688153843
 40
0.0786326241
 40
0.088445976
 40
0.0982551607
 40
0.1178598836
 40
0.1374444874
 40
0.1570065919
 40
0.1765437543
 40
0.1960534624
 40
0.2155331271
 40
0.2349800742
 40
0.2543915346
 40
0.2737646345
 40
0.3123836728
 40
0.3508116696
 40
0.3890206344
 40
0.4269795882
 40
0.4646539539
 40
0.5020048218
 40
0.5389880164
 40
0.575552922
 40
0.6116415783
 40
0.6471863266
 40
0.6821073596
 40
0.7163115104
 40
0.7496856025
 40
0.7820983494
 40
0.8133883615
 40
0.8433643408
 40
0.8717932639
 40
0.8853423822
 40
0.8983973718
 40
0.9109130741
 40
0.9228424074
 40
0.9341346927
 40
0.9447366591
 40
0.9545914785
 40
0.9636386418
 40
0.9718162395
 40
0.9755592223
 40
0.9790614852
 40
0.9823161283
 40
0.9853163204
 40
0.9880552373
 40
0.9905261182
 40
0.992722234
 40
0.9946368923
 40
0.9954869301
 40
0.9962648726
 40
0.9969703273
 40
0.9976029016
 40
0.9981622032
 40
0.9986478404
 40
0.9990594833
 40
0.9993969041
 40
0.999537713
 40
0.9996598845
 40
0.9997633913
 40
0.9998482061
 40
0.9999143016
 40
0.999940321
 40
0.9999616505
 40
0.9999782864
 40
0.9999902255
 40
0.9999974644
 40
1.0
 40
1.0
 40
1.0
 40
1.0
 10
4.8576319683
 20
2.2973253106
 30
0.0
 10
4.8576323689
 20
2.2968890684
 30
0.0
 10
4.8575129868
 20
2.2960129373
 30
0.0
 10
4.8570378321
 20
2.2947849907
 30
0.0
 10
4.8564856701
 20
2.2938403171
 30
0.0
 10
4.8559846725
 20
2.2931254938
 30
0.0
 10
4.8555852514
 20
2.2926066857
 30
0.0
 10
4.8551663881
 20
2.292103747
 30
0.0
 10
4.8545877605
 20
2.291450759
 30
0.0
 10
4.8538329493
 20
2.29066345
 30
0.0
 10
4.852892738
 20
2.2897535681
 30
0.0
 10
4.8516051706
 20
2.2885770461
 30
0.0
 10
4.8499488679
 20
2.2871593603
 30
0.0
 10
4.8479164239
 20
2.2855131906
 30
0.0
 10
4.8458541635
 20
2.2839052136
 30
0.0
 10
4.8437713778
 20
2.282324631
 30
0.0
 10
4.8416737132
 20
2.2807645264
 30
0.0
 10
4.83886224
 20
2.2787055583
 30
0.0
 10
4.835327005
 20
2.2761623938
 30
0.0
 10
4.8310639049
 20
2.2731422182
 30
0.0
 10
4.8267873593
 20
2.2701444748
 30
0.0
 10
4.822501804
 20
2.2671632628
 30
0.0
 10
4.8167808532
 20
2.2632062548
 30
0.0
 10
4.8096197782
 20
2.2582854272
 30
0.0
 10
4.801018148
 20
2.2524073079
 30
0.0
 10
4.7924158729
 20
2.2465513992
 30
0.0
 10
4.7838168545
 20
2.2407143276
 30
0.0
 10
4.7752239701
 20
2.2348942597
 30
0.0
 10
4.7666395382
 20
2.2290902468
 30
0.0
 10
4.7580655475
 20
2.2233019005
 30
0.0
 10
4.7495037986
 20
2.2175291974
 30
0.0
 10
4.7381191832
 20
2.2098618361
 30
0.0
 10
4.7239309146
 20
2.2003206754
 30
0.0
 10
4.7069619395
 20
2.1889290269
 30
0.0
 10
4.6900821911
 20
2.1776144812
 30
0.0
 10
4.673306211
 20
2.1663851538
 30
0.0
 10
4.6566499541
 20
2.1552505254
 30
0.0
 10
4.6401312057
 20
2.1442215473
 30
0.0
 10
4.6237700489
 20
2.1333108482
 30
0.0
 10
4.6075893495
 20
2.1225329723
 30
0.0
 10
4.5916154306
 20
2.1119047833
 30
0.0
 10
4.5758789165
 20
2.101446024
 30
0.0
 10
4.5604156552
 20
2.0911798553
 30
0.0
 10
4.5452682391
 20
2.081133872
 30
0.0
 10
4.5304869054
 20
2.0713406567
 30
0.0
 10
4.5161320087
 20
2.0618394246
 30
0.0
 10
4.5022754361
 20
2.0526770649
 30
0.0
 10
4.4890042785
 20
2.0439101824
 30
0.0
 10
4.4783558469
 20
2.036880641
 30
0.0
 10
4.4702098353
 20
2.0315067808
 30
0.0
 10
4.4644183132
 20
2.0276883174
 30
0.0
 10
4.4588659203
 20
2.0240289815
 30
0.0
 10
4.4535742448
 20
2.0205420717
 30
0.0
 10
4.4485656419
 20
2.0172423369
 30
0.0
 10
4.4438635901
 20
2.0141459625
 30
0.0
 10
4.4394933654
 20
2.0112695745
 30
0.0
 10
4.4354818255
 20
2.0086301817
 30
0.0
 10
4.4323755223
 20
2.0065867472
 30
0.0
 10
4.4300907532
 20
2.0050835829
 30
0.0
 10
4.4285353351
 20
2.0040601428
 30
0.0
 10
4.4270899059
 20
2.0031091733
 30
0.0
 10
4.425757434
 20
2.0022327938
 30
0.0
 10
4.4245408237
 20
2.0014331774
 30
0.0
 10
4.4234431937
 20
2.0007121377
 30
0.0
 10
4.4224677073
 20
2.0000713779
 30
0.0
 10
4.4217325957
 20
1.9995881954
 30
0.0
 10
4.4212077791
 20
1.9992429225
 30
0.0
 10
4.4208621371
 20
1.9990154409
 30
0.0
 10
4.4205487304
 20
1.9988091237
 30
0.0
 10
4.4202677104
 20
1.9986241211
 30
0.0
 10
4.42001923
 20
1.9984605798
 30
0.0
 10
4.41980343
 20
1.9983186456
 30
0.0
 10
4.4196204381
 20
1.9981984303
 30
0.0
 10
4.4194885053
 20
1.9981118607
 30
0.0
 10
4.419399461
 20
1.9980534953
 30
0.0
 10
4.4193450956
 20
1.9980178879
 30
0.0
 10
4.4192990256
 20
1.997987737
 30
0.0
 10
4.419261263
 20
1.9979630527
 30
0.0
 10
4.419234996
 20
1.9979458919
 30
0.0
 10
4.4192181397
 20
1.9979349162
 30
0.0
 10
4.4192086413
 20
1.9979287014
 30
0.0
 10
4.4192011957
 20
1.99792394
 30
0.0
 10
4.4191959248
 20
1.9979203464
 30
0.0
 10
4.4191925843
 20
1.9979185089
 30
0.0
 10
4.4191912326
 20
1.9979173139
 30
0.0
 10
4.4191907984
 20
1.9979171972
 30
0.0
  0
SPLINE
  5
40D
100
AcDbEntity
  8
0
100
AcDbSpline
 62
7
  6
CONTINUOUS
 70
0
 71
3
 72
14
 73
10
 74
0
 42
0.0000001
 43
0.0000001
 44
0.0000000001
 40
0.0
 40
0.0
 40
0.0
 40
0.0
 40
0.3004344325
 40
0.4440149132
 40
0.5797620206
 40
0.70529643
 40
0.8184324459
 40
0.9172203945
 40
1.0
 40
1.0
 40
1.0
 40
1.0
 10
3.0120096609
 20
2.2825554568
 30
0.0
 10
3.0120398718
 20
2.2809789638
 30
0.0
 10
3.0120611183
 20
2.2786484845
 30
0.0
 10
3.012038178
 20
2.2756057331
 30
0.0
 10
3.0119963928
 20
2.2734812273
 30
0.0
 10
3.011930702
 20
2.2715171868
 30
0.0
 10
3.0118424938
 20
2.2697481788
 30
0.0
 10
3.011733603
 20
2.268205206
 30
0.0
 10
3.0116404426
 20
2.2672566046
 30
0.0
 10
3.0115881254
 20
2.2668253106
 30
0.0
  0
SPLINE
  5
40E
100
AcDbEntity
  8
0
100
AcDbSpline
 62
7
  6
CONTINUOUS
 70
0
 71
3
 72
14
 73
10
 74
0
 42
0.0000001
 43
0.0000001
 44
0.0000000001
 40
0.0
 40
0.0
 40
0.0
 40
0.0
 40
0.0827792758
 40
0.1815671133
 40
0.2947031393
 40
0.4202376165
 40
0.5559848129
 40
0.6995653846
 40
1.0
 40
1.0
 40
1.0
 40
1.0
 10
3.01108574
 20
2.2668253106
 30
0.0
 10
3.0111380235
 20
2.2672566065
 30
0.0
 10
3.0112311233
 20
2.26820521
 30
0.0
 10
3.0113399431
 20
2.2697481834
 30
0.0
 10
3.0114280938
 20
2.2715171918
 30
0.0
 10
3.0114937417
 20
2.2734812322
 30
0.0
 10
3.0115354996
 20
2.2756057371
 30
0.0
 10
3.0115584248
 20
2.2786484867
 30
0.0
 10
3.0115371922
 20
2.2809789644
 30
0.0
 10
3.011507001
 20
2.2825554568
 30
0.0
  0
SPLINE
  5
40F
100
AcDbEntity
  8
0
100
AcDbSpline
 62
7
  6
CONTINUOUS
 70
0
 71
3
 72
11
 73
7
 74
0
 42
0.0000001
 43
0.0000001
 44
0.0000000001
 40
0.0
 40
0.0
 40
0.0
 40
0.0
 40
0.245500359
 40
0.4999998018
 40
0.7544991241
 40
1.0
 40
1.0
 40
1.0
 40
1.0
 10
6.7318803718
 20
2.3132809424
 30
0.0
 10
6.7317328138
 20
2.3107233064
 30
0.0
 10
6.7315166802
 20
2.3055091757
 30
0.0
 10
6.7314124124
 20
2.297635439
 30
0.0
 10
6.7315231247
 20
2.2897617848
 30
0.0
 10
6.7317435132
 20
2.2845478284
 30
0.0
 10
6.7318931511
 20
2.2819903079
 30
0.0
  0
SPLINE
  5
410
100
AcDbEntity
  8
0
100
AcDbSpline
 62
7
  6
CONTINUOUS
 70
0
 71
3
 72
16
 73
12
 74
0
 42
0.0000001
 43
0.0000001
 44
0.0000000001
 40
0.0
 40
0.0
 40
0.0
 40
0.0
 40
0.0332535137
 40
0.0676236637
 40
0.1436677014
 40
0.2348616594
 40
0.3448947345
 40
0.4757269126
 40
0.6283102831
 40
0.8030545446
 40
1.0
 40
1.0
 40
1.0
 40
1.0
 10
3.0165608622
 20
2.3303753106
 30
0.0
 10
3.016588848
 20
2.3303753106
 30
0.0
 10
3.0166459058
 20
2.3303696636
 30
0.0
 10
3.016762387
 20
2.3303349456
 30
0.0
 10
3.0169088701
 20
2.3302438056
 30
0.0
 10
3.0170719597
 20
2.3300750378
 30
0.0
 10
3.0172313834
 20
2.3298444437
 30
0.0
 10
3.0173873971
 20
2.3295518152
 30
0.0
 10
3.0175400677
 20
2.3291973854
 30
0.0
 10
3.0176888884
 20
2.3287817896
 30
0.0
 10
3.0177798493
 20
2.3284823757
 30
0.0
 10
3.0178250712
 20
2.3283229166
 30
0.0
  0
LINE
  5
411
100
AcDbEntity
  8
0
100
AcDbLine
 62
7
  6
CONTINUOUS
 10
3.0178250712
 20
2.3283229166
 11
3.0180108253
 21
2.3276002279
  0
LINE
  5
412
100
AcDbEntity
  8
0
100
AcDbLine
 62
7
  6
CONTINUOUS
 10
3.0180108253
 20
2.3276002279
 11
3.0183627475
 21
2.3257911629
  0
LINE
  5
413
100
AcDbEntity
  8
0
100
AcDbLine
 62
7
  6
CONTINUOUS
 10
6.7383614833
 20
2.3364670428
 11
6.7385006368
 21
2.3363253098
  0
SPLINE
  5
414
100
AcDbEntity
  8
0
100
AcDbSpline
 62
7
  6
CONTINUOUS
 70
0
 71
3
 72
15
 73
11
 74
0
 42
0.0000001
 43
0.0000001
 44
0.0000000001
 40
0.0
 40
0.0
 40
0.0
 40
0.0
 40
0.1180229879
 40
0.2364905448
 40
0.3560167969
 40
0.4774169406
 40
0.6016204944
 40
0.7295753712
 40
0.8621405476
 40
1.0
 40
1.0
 40
1.0
 40
1.0
 10
6.4270241307
 20
2.5288734026
 30
0.0
 10
6.4259147477
 20
2.5277109311
 30
0.0
 10
6.423778434
 20
2.5252965023
 30
0.0
 10
6.4208853323
 20
2.5213994967
 30
0.0
 10
6.4183469667
 20
2.5172071034
 30
0.0
 10
6.4162066009
 20
2.5127106664
 30
0.0
 10
6.4145021351
 20
2.5079091465
 30
0.0
 10
6.4132649187
 20
2.5028099204
 30
0.0
 10
6.4125179224
 20
2.4974292929
 30
0.0
 10
6.4123589802
 20
2.4937448641
 30
0.0
 10
6.4123589802
 20
2.4918679085
 30
0.0
  0
LINE
  5
415
100
AcDbEntity
  8
0
100
AcDbLine
 62
7
  6
CONTINUOUS
 10
3.012426035
 20
2.3303753106
 11
3.012516003
 21
2.3298944681
  0
LINE
  5
416
100
AcDbEntity
  8
0
100
AcDbLine
 62
7
  6
CONTINUOUS
 10
3.012516003
 20
2.3298944681
 11
3.0125140557
 21
2.3288753106
  0
SPLINE
  5
417
100
AcDbEntity
  8
0
100
AcDbSpline
 62
7
  6
CONTINUOUS
 70
0
 71
3
 72
89
 73
85
 74
0
 42
0.0000001
 43
0.0000001
 44
0.0000000001
 40
0.0
 40
0.0
 40
0.0
 40
0.0
 40
0.0049149146
 40
0.0098303368
 40
0.0147453099
 40
0.0172030788
 40
0.0196602322
 40
0.0245738498
 40
0.0294866412
 40
0.0319428961
 40
0.0343989412
 40
0.0393105473
 40
0.0491318181
 40
0.0589505702
 40
0.068766542
 40
0.0785794669
 40
0.0883890685
 40
0.0981950645
 40
0.1177950755
 40
0.1373771566
 40
0.1569388802
 40
0.1764777517
 40
0.1959912042
 40
0.2154765908
 40
0.2349311759
 40
0.273736501
 40
0.3123831506
 40
0.3508449906
 40
0.3890933325
 40
0.4270964163
 40
0.4648187993
 40
0.5022206164
 40
0.5392565386
 40
0.5758747145
 40
0.6120160372
 40
0.6476105452
 40
0.6825776683
 40
0.7168198932
 40
0.7502243414
 40
0.782656165
 40
0.813951819
 40
0.8439173309
 40
0.8723200688
 40
0.885849164
 40
0.8988782546
 40
0.9113636238
 40
0.9232593657
 40
0.9345147929
 40
0.9450744982
 40
0.954882887
 40
0.9638842364
 40
0.9680636963
 40
0.9720180169
 40
0.9757388676
 40
0.9792185174
 40
0.9824506179
 40
0.9854290145
 40
0.988147531
 40
0.9905997646
 40
0.992779179
 40
0.9946792628
 40
0.9955228247
 40
0.9962948269
 40
0.9969948766
 40
0.9976225809
 40
0.9981775467
 40
0.9986593819
 40
0.9990677537
 40
0.9992443197
 40
0.9994024368
 40
0.9995420781
 40
0.9996632168
 40
0.9997658262
 40
0.9998498794
 40
0.9998849392
 40
0.9999153499
 40
0.9999411081
 40
0.9999622107
 40
0.9999786542
 40
0.9999904353
 40
0.9999945766
 40
0.999997551
 40
0.9999993586
 40
1.0
 40
1.0
 40
1.0
 40
1.0
 10
4.8611508661
 20
2.2973253106
 30
0.0
 10
4.8611519207
 20
2.296442411
 30
0.0
 10
4.8610060586
 20
2.2946731988
 30
0.0
 10
4.8603915429
 20
2.2920897268
 30
0.0
 10
4.8596592238
 20
2.2900044073
 30
0.0
 10
4.858985753
 20
2.2883718924
 30
0.0
 10
4.8582658791
 20
2.2867594968
 30
0.0
 10
4.8572933748
 20
2.2847780528
 30
0.0
 10
4.8562586904
 20
2.2828290171
 30
0.0
 10
4.8554041599
 20
2.2812847018
 30
0.0
 10
4.8545354889
 20
2.2797485425
 30
0.0
 10
4.8529822608
 20
2.2770797464
 30
0.0
 10
4.8506964532
 20
2.2733076114
 30
0.0
 10
4.8478919632
 20
2.2688204728
 30
0.0
 10
4.8450488492
 20
2.2643595189
 30
0.0
 10
4.8421803161
 20
2.2599168601
 30
0.0
 10
4.8392943178
 20
2.2554876752
 30
0.0
 10
4.8354306273
 20
2.2495971754
 30
0.0
 10
4.8305794685
 20
2.2422549783
 30
0.0
 10
4.824738646
 20
2.233466269
 30
0.0
 10
4.8188885414
 20
2.2246969373
 30
0.0
 10
4.8130347688
 20
2.2159448842
 30
0.0
 10
4.8071811103
 20
2.2072092578
 30
0.0
 10
4.801330343
 20
2.1984899231
 30
0.0
 10
4.7935429868
 20
2.1868966409
 30
0.0
 10
4.7838283033
 20
2.1724514578
 30
0.0
 10
4.7722000451
 20
2.155178472
 30
0.0
 10
4.7606221381
 20
2.137992206
 30
0.0
 10
4.7491049292
 20
2.1209044447
 30
0.0
 10
4.7376591209
 20
2.1039287487
 30
0.0
 10
4.7262962117
 20
2.0870805622
 30
0.0
 10
4.7150288136
 20
2.0703775185
 30
0.0
 10
4.7038710678
 20
2.0538397746
 30
0.0
 10
4.6928389522
 20
2.0374904177
 30
0.0
 10
4.681950847
 20
2.0213562525
 30
0.0
 10
4.6712279953
 20
2.0054683747
 30
0.0
 10
4.6606954733
 20
1.9898636172
 30
0.0
 10
4.6503825187
 20
1.9745853048
 30
0.0
 10
4.6403239453
 20
1.9596847622
 30
0.0
 10
4.6305618071
 20
1.9452227381
 30
0.0
 10
4.621145019
 20
1.9312729258
 30
0.0
 10
4.6121315614
 20
1.9179240919
 30
0.0
 10
4.6049049582
 20
1.9072196894
 30
0.0
 10
4.5993808222
 20
1.8990367633
 30
0.0
 10
4.5954561699
 20
1.8932239678
 30
0.0
 10
4.5916955475
 20
1.88765445
 30
0.0
 10
4.5881135065
 20
1.8823487969
 30
0.0
 10
4.5847252291
 20
1.8773297038
 30
0.0
 10
4.5815461018
 20
1.8726218278
 30
0.0
 10
4.5785928568
 20
1.8682500094
 30
0.0
 10
4.5762821018
 20
1.8648273047
 30
0.0
 10
4.5745604269
 20
1.8622757271
 30
0.0
 10
4.5733692634
 20
1.8605105003
 30
0.0
 10
4.5722480989
 20
1.8588496945
 30
0.0
 10
4.5711989793
 20
1.8572967857
 30
0.0
 10
4.5702242913
 20
1.8558545485
 30
0.0
 10
4.5693261857
 20
1.8545255789
 30
0.0
 10
4.5685069189
 20
1.8533124139
 30
0.0
 10
4.5677683271
 20
1.8522179573
 30
0.0
 10
4.5671120928
 20
1.8512452889
 30
0.0
 10
4.5666173619
 20
1.8505122542
 30
0.0
 10
4.5662639008
 20
1.8499888917
 30
0.0
 10
4.5660310431
 20
1.8496442062
 30
0.0
 10
4.5658198599
 20
1.8493316733
 30
0.0
 10
4.5656304932
 20
1.8490514528
 30
0.0
 10
4.5654630831
 20
1.8488037053
 30
0.0
 10
4.5653177659
 20
1.8485885811
 30
0.0
 10
4.5652105453
 20
1.8484297526
 30
0.0
 10
4.5651358924
 20
1.8483191005
 30
0.0
 10
4.5650882531
 20
1.8482484564
 30
0.0
 10
4.5650461962
 20
1.848186057
 30
0.0
 10
4.5650097285
 20
1.8481319151
 30
0.0
 10
4.5649788571
 20
1.8480860434
 30
0.0
 10
4.5649566358
 20
1.8480529887
 30
0.0
 10
4.5649416647
 20
1.8480306881
 30
0.0
 10
4.5649325362
 20
1.8480170774
 30
0.0
 10
4.5649248154
 20
1.8480055434
 30
0.0
 10
4.5649184896
 20
1.8479960894
 30
0.0
 10
4.5649135953
 20
1.8479887131
 30
0.0
 10
4.5649103442
 20
1.8479838712
 30
0.0
 10
4.5649085322
 20
1.8479810287
 30
0.0
 10
4.5649075725
 20
1.8479796937
 30
0.0
 10
4.5649072032
 20
1.8479788562
 30
0.0
 10
4.5649068092
 20
1.8479784971
 30
0.0
 10
4.5649068323
 20
1.8479783843
 30
0.0
  0
SPLINE
  5
418
100
AcDbEntity
  8
0
100
AcDbSpline
 62
7
  6
CONTINUOUS
 70
0
 71
3
 72
21
 73
17
 74
0
 42
0.0000001
 43
0.0000001
 44
0.0000000001
 40
0.0
 40
0.0
 40
0.0
 40
0.0
 40
0.1244691987
 40
0.1869051071
 40
0.2494288184
 40
0.3120178972
 40
0.3746535138
 40
0.4373193433
 40
0.5
 40
0.5626806567
 40
0.6253464862
 40
0.6879821028
 40
0.7505711816
 40
0.8130948929
 40
0.8755308013
 40
1.0
 40
1.0
 40
1.0
 40
1.0
 10
6.4545185178
 20
2.1798434415
 30
0.0
 10
6.4577635918
 20
2.1815451685
 30
0.0
 10
6.4627801803
 20
2.1838415718
 30
0.0
 10
6.4696975697
 20
2.1863136408
 30
0.0
 10
6.4750010989
 20
2.1878613565
 30
0.0
 10
6.4803948288
 20
2.1890837752
 30
0.0
 10
6.4858587579
 20
2.1899674995
 30
0.0
 10
6.4913706124
 20
2.1905021149
 30
0.0
 10
6.4969068323
 20
2.1906810796
 30
0.0
 10
6.5024430522
 20
2.1905021149
 30
0.0
 10
6.5079549067
 20
2.1899674995
 30
0.0
 10
6.5134188358
 20
2.1890837752
 30
0.0
 10
6.5188125657
 20
2.1878613565
 30
0.0
 10
6.5241160949
 20
2.1863136408
 30
0.0
 10
6.5310334843
 20
2.1838415718
 30
0.0
 10
6.5360500728
 20
2.1815451685
 30
0.0
 10
6.5392951468
 20
2.1798434415
 30
0.0
  0
SPLINE
  5
419
100
AcDbEntity
  8
0
100
AcDbSpline
 62
7
  6
CONTINUOUS
 70
0
 71
3
 72
9
 73
5
 74
0
 42
0.0000001
 43
0.0000001
 44
0.0000000001
 40
0.0
 40
0.0
 40
0.0
 40
0.0
 40
0.2536552471
 40
1.0
 40
1.0
 40
1.0
 40
1.0
 10
6.4391456451
 20
2.0576847705
 30
0.0
 10
6.4384051538
 20
2.0580972604
 30
0.0
 10
6.4355075943
 20
2.0597620223
 30
0.0
 10
6.4326991002
 20
2.0615826978
 30
0.0
 10
6.4306676768
 20
2.0630295913
 30
0.0
  0
SPLINE
  5
41A
100
AcDbEntity
  8
0
100
AcDbSpline
 62
7
  6
CONTINUOUS
 70
0
 71
3
 72
9
 73
5
 74
0
 42
0.0000001
 43
0.0000001
 44
0.0000000001
 40
0.0
 40
0.0
 40
0.0
 40
0.0
 40
0.2464070838
 40
1.0
 40
1.0
 40
1.0
 40
1.0
 10
6.5631459626
 20
2.0630295734
 30
0.0
 10
6.5624752522
 20
2.0625518562
 30
0.0
 10
6.5597253744
 20
2.0606525253
 30
0.0
 10
6.5568676838
 20
2.0589100777
 30
0.0
 10
6.5546676223
 20
2.0576845492
 30
0.0
  0
SPLINE
  5
41B
100
AcDbEntity
  8
0
100
AcDbSpline
 62
7
  6
CONTINUOUS
 70
0
 71
3
 72
12
 73
8
 74
0
 42
0.0000001
 43
0.0000001
 44
0.0000000001
 40
0.0
 40
0.0
 40
0.0
 40
0.0
 40
0.0988272725
 40
0.2016677923
 40
0.5529764011
 40
0.7631767246
 40
1.0
 40
1.0
 40
1.0
 40
1.0
 10
6.7357132823
 20
2.2666376649
 30
0.0
 10
6.7356653792
 20
2.2666422662
 30
0.0
 10
6.7355682563
 20
2.2666599121
 30
0.0
 10
6.7353132649
 20
2.2667493884
 30
0.0
 10
6.7350461953
 20
2.2669462159
 30
0.0
 10
6.7347822804
 20
2.2672312738
 30
0.0
 10
6.734651583
 20
2.2674060914
 30
0.0
 10
6.7345862443
 20
2.2675011155
 30
0.0
  0
SPLINE
  5
41C
100
AcDbEntity
  8
0
100
AcDbSpline
 62
7
  6
CONTINUOUS
 70
0
 71
3
 72
15
 73
11
 74
0
 42
0.0000001
 43
0.0000001
 44
0.0000000001
 40
0.0
 40
0.0
 40
0.0
 40
0.0
 40
0.13208501
 40
0.2634321583
 40
0.3933322672
 40
0.5211103913
 40
0.6461577425
 40
0.7075042414
 40
0.7679804662
 40
1.0
 40
1.0
 40
1.0
 40
1.0
 10
3.2579068323
 20
2.175530384
 30
0.0
 10
3.2611936042
 20
2.175530384
 30
0.0
 10
3.2677514592
 20
2.1752856759
 30
0.0
 10
3.2774861479
 20
2.1741874408
 30
0.0
 10
3.2870045056
 20
2.1723705084
 30
0.0
 10
3.2962001334
 20
2.1698548043
 30
0.0
 10
3.3035570458
 20
2.1671817851
 30
0.0
 10
3.3091855086
 20
2.1647147792
 30
0.0
 10
3.3170857569
 20
2.160829407
 30
0.0
 10
3.3232781222
 20
2.1568851868
 30
0.0
 10
3.3277895339
 20
2.1532823151
 30
0.0
  0
SPLINE
  5
41D
100
AcDbEntity
  8
0
100
AcDbSpline
 62
7
  6
CONTINUOUS
 70
0
 71
3
 72
15
 73
11
 74
0
 42
0.0000001
 43
0.0000001
 44
0.0000000001
 40
0.0
 40
0.0
 40
0.0
 40
0.0
 40
0.2320195328
 40
0.2924957575
 40
0.3538422566
 40
0.478889608
 40
0.6066677323
 40
0.7365678413
 40
0.8679149897
 40
1.0
 40
1.0
 40
1.0
 40
1.0
 10
3.1880241307
 20
2.1532823151
 30
0.0
 10
3.1925355424
 20
2.1568851868
 30
0.0
 10
3.1987279076
 20
2.160829407
 30
0.0
 10
3.206628156
 20
2.1647147791
 30
0.0
 10
3.2122566187
 20
2.1671817851
 30
0.0
 10
3.2196135312
 20
2.1698548043
 30
0.0
 10
3.2288091589
 20
2.1723705084
 30
0.0
 10
3.2383275167
 20
2.1741874408
 30
0.0
 10
3.2480622053
 20
2.1752856759
 30
0.0
 10
3.2546200604
 20
2.175530384
 30
0.0
 10
3.2579068323
 20
2.175530384
 30
0.0
  0
SPLINE
  5
41E
100
AcDbEntity
  8
0
100
AcDbSpline
 62
7
  6
CONTINUOUS
 70
0
 71
3
 72
15
 73
11
 74
0
 42
0.0000001
 43
0.0000001
 44
0.0000000001
 40
0.0
 40
0.0
 40
0.0
 40
0.0
 40
0.1223267818
 40
0.2469184351
 40
0.3730647227
 40
0.5
 40
0.6269352773
 40
0.7530815649
 40
0.8776732182
 40
1.0
 40
1.0
 40
1.0
 40
1.0
 10
3.2155185178
 20
2.1798434415
 30
0.0
 10
3.2188479277
 20
2.180972847
 30
0.0
 10
3.2256719957
 20
2.1829575363
 30
0.0
 10
3.2361923005
 20
2.1850860889
 30
0.0
 10
3.2469820567
 20
2.1863739524
 30
0.0
 10
3.2579068323
 20
2.1868049394
 30
0.0
 10
3.2688316079
 20
2.1863739524
 30
0.0
 10
3.2796213641
 20
2.1850860889
 30
0.0
 10
3.2901416689
 20
2.1829575363
 30
0.0
 10
3.2969657369
 20
2.180972847
 30
0.0
 10
3.3002951468
 20
2.1798434415
 30
0.0
  0
SPLINE
  5
41F
100
AcDbEntity
  8
0
100
AcDbSpline
 62
7
  6
CONTINUOUS
 70
0
 71
3
 72
15
 73
11
 74
0
 42
0.0000001
 43
0.0000001
 44
0.0000000001
 40
0.0
 40
0.0
 40
0.0
 40
0.0
 40
0.1378600794
 40
0.2704256992
 40
0.3983805969
 40
0.5225839525
 40
0.6439837721
 40
0.7635097666
 40
0.8819771065
 40
1.0
 40
1.0
 40
1.0
 40
1.0
 10
6.5814546844
 20
2.4918679085
 30
0.0
 10
6.5814546844
 20
2.4937448727
 30
0.0
 10
6.5812957405
 20
2.497429316
 30
0.0
 10
6.5805487407
 20
2.5028099582
 30
0.0
 10
6.5793115189
 20
2.5079091869
 30
0.0
 10
6.5776070517
 20
2.5127106991
 30
0.0
 10
6.5754666871
 20
2.517207125
 30
0.0
 10
6.5729283249
 20
2.5213995076
 30
0.0
 10
6.5700352271
 20
2.5252965066
 30
0.0
 10
6.567898916
 20
2.527710932
 30
0.0
 10
6.5667895339
 20
2.5288734026
 30
0.0
  0
ENDSEC
  0
SECTION
  2
OBJECTS
  0
DICTIONARY
  5
C
100
AcDbDictionary
280
0
281
1
  3
ACAD_GROUP
350
D
  3
ACAD_MLINESTYLE
350
17
  3
ACAD_LAYOUT
350
1A
  3
ACAD_PLOTSETTINGS
350
19
  3
ACAD_PLOTSTYLENAME
350
E
  0
DICTIONARY
  5
D
102
{ACAD_REACTORS
330
C
102
}
100
AcDbDictionary
280
0
281
1
  0
ACDBDICTIONARYWDFLT
  5
E
102
{ACAD_REACTORS
330
C
102
}
100
AcDbDictionary
281
1
  3
Normal
350
F
100
AcDbDictionaryWithDefault
340
F
  0
DICTIONARY
  5
17
102
{ACAD_REACTORS
330
C
102
}
100
AcDbDictionary
280
0
281
1
  3
Standard
350
18
  0
DICTIONARY
  5
19
102
{ACAD_REACTORS
330
C
102
}
100
AcDbDictionary
281
1
  0
DICTIONARY
  5
1A
102
{ACAD_REACTORS
330
C
102
}
100
AcDbDictionary
281
1
  3
Model
350
420
  3
Layout1
350
421
  0
ACDBPLACEHOLDER
  5
F
102
{ACAD_REACTORS
330
E
102
}
  0
MLINESTYLE
  5
18
102
{ACAD_REACTORS
330
17
102
}
100
AcDbMlineStyle
  2
STANDARD
 70
0
  3

 62
256
 51
90.0
 52
90.0
 71
2
 49
0.5
 62
256
  6
BYLAYER
 49
-0.5
 62
256
  6
BYLAYER
  0
LAYOUT
  5
420
102
{ACAD_REACTORS
330
1A
102
}
100
AcDbPlotSettings
  1

  2
none_device
  4
ANSI_A_(11.00_x_8.50_Inches)
  6

 40
0.0
 41
0.0
 42
0.0
 43
0.0
 44
279.4
 45
215.9
 46
0.0
 47
0.0
 48
0.0
 49
0.0
140
0.0
141
0.0
142
1.0
143
1.0
 70
1024
 72
0
 73
0
 74
0
  7

 75
0
147
1.0
148
0.0
149
0.0
100
AcDbLayout
  1
Model
 70
0
 71
0
 10
0.0
 20
0.0
 11
11.0
 21
8.5
 12
0.0
 22
0.0
 32
0.0
 14
0.0
 24
0.0
 34
0.0
 15
0.0
 25
0.0
 35
0.0
146
0.0
 13
0.0
 23
0.0
 33
0.0
 16
1.0
 26
0.0
 36
0.0
 17
0.0
 27
1.0
 37
0.0
 76
0
330
202
345
0
346
0
  0
LAYOUT
  5
421
102
{ACAD_REACTORS
330
1A
102
}
100
AcDbPlotSettings
  1

  2
none_device
  4
ANSI_A_(11.00_x_8.50_Inches)
  6

 40
0.0
 41
0.0
 42
0.0
 43
0.0
 44
279.4
 45
215.9
 46
0.0
 47
0.0
 48
0.0
 49
0.0
140
0.0
141
0.0
142
1.0
143
1.0
 70
0
 72
0
 73
0
 74
0
  7

 75
0
147
1.0
148
0.0
149
0.0
100
AcDbLayout
  1
Layout1
 70
0
 71
1
 10
0.0
 20
0.0
 11
11.0
 21
8.5
 12
0.0
 22
0.0
 32
0.0
 14
0.0
 24
0.0
 34
0.0
 15
0.0
 25
0.0
 35
0.0
146
0.0
 13
0.0
 23
0.0
 33
0.0
 16
1.0
 26
0.0
 36
0.0
 17
0.0
 27
1.0
 37
0.0
 76
0
330
203
345
0
346
0
  0
ENDSEC
  0
EOF
