999
DXF file: 9281_top.dxf
999
Pro/ENGINEER 2018400 by Parametric Technology Corporation
  0
SECTION
  2
HEADER
  9
$ACADVER
  1
AC1027
  9
$DWGCODEPAGE
  3
ANSI_1252
  9
$EXTMAX
 10
11.0
 20
8.5
 30
0.0
  9
$EXTMIN
 10
0.0
 20
0.0
 30
0.0
  9
$LIMMIN
 10
0.0
 20
0.0
  9
$LIMMAX
 10
11.0
 20
8.5
  9
$VIEWCTR
 10
5.5
 20
4.25
  9
$VIEWSIZE
 40
8.5
  9
$CLAYER
  8
0
  9
$LTSCALE
 40
0.605
  9
$CELTYPE
  6
BYLAYER
  9
$DIMSCALE
 40
1.0
  9
$DIMASZ
 40
0.1
  9
$DIMEXO
 40
0.0625
  9
$DIMDLI
 40
0.418
  9
$DIMEXE
 40
0.125
  9
$DIMCEN
 40
0.099
  9
$DIMLFAC
 40
1.0
  9
$DIMBLK
  1
_FILLED
  9
$DIMALT
 70
1
  9
$DIMALTD
 70
1
  9
$DIMALTTD
 70
2
  9
$DIMALTF
 40
25.4
  9
$DIMTXT
 40
0.08
  9
$DIMTOL
 70
1
  9
$DIMLIM
 70
0
  9
$DIMTFAC
 40
1.0
  9
$DIMTP
 40
0.01
  9
$DIMTM
 40
0.01
  9
$DIMGAP
 40
0.09
  9
$DIMDSEP
 70
46
  9
$AUNITS
 70
0
  9
$PDMODE
 70
3
  9
$PDSIZE
 40
0.3125
  9
$HANDSEED
  5
432
  9
$TILEMODE
 70
1
  9
$MEASUREMENT
 70
0
  9
$INSUNITS
 70
1
  0
ENDSEC
  0
SECTION
  2
CLASSES
  0
CLASS
  1
ACDBDICTIONARYWDFLT
  2
AcDbDictionaryWithDefault
  3
AutoCAD 2000
 90
0
 91
1
280
0
281
0
  0
CLASS
  1
ACDBPLACEHOLDER
  2
AcDbPlaceHolder
  3
AutoCAD 2000
 90
0
 91
1
280
0
281
0
  0
CLASS
  1
LAYOUT
  2
AcDbLayout
  3
AutoCAD 2000
 90
0
 91
0
280
0
281
0
  0
ENDSEC
  0
SECTION
  2
TABLES
  0
TABLE
  2
VPORT
  5
8
100
AcDbSymbolTable
 70
2
  0
VPORT
  5
1F4
100
AcDbSymbolTableRecord
100
AcDbViewportTableRecord
  2
*ACTIVE
 70
0
 10
0.0
 20
0.0
 11
1.0
 21
1.0
 12
5.5
 22
4.25
 13
0.0
 23
0.0
 14
1.0
 24
1.0
 15
0.0
 25
0.0
 16
0.0
 26
0.0
 36
1.0
 17
0.0
 27
0.0
 37
0.0
 40
8.5
 41
1.2941176471
 42
50.0
 43
0.0
 44
0.0
 50
0.0
 51
0.0
 71
0
 72
100
 73
1
 74
1
 75
0
 76
0
 77
0
 78
0
  0
ENDTAB
  0
TABLE
  2
LTYPE
  5
5
100
AcDbSymbolTable
 70
6
  0
LTYPE
  5
14
100
AcDbSymbolTableRecord
100
AcDbLinetypeTableRecord
  2
BYBLOCK
 70
0
  3

 72
65
 73
0
 40
0.0
  0
LTYPE
  5
15
100
AcDbSymbolTableRecord
100
AcDbLinetypeTableRecord
  2
BYLAYER
 70
0
  3

 72
65
 73
0
 40
0.0
  0
LTYPE
  5
16
100
AcDbSymbolTableRecord
100
AcDbLinetypeTableRecord
  2
CONTINUOUS
 70
64
  3
Solid line
 72
65
 73
0
 40
0.0
  0
LTYPE
  5
1F5
100
AcDbSymbolTableRecord
100
AcDbLinetypeTableRecord
  2
CENTER
 70
64
  3
____ _ ____ _ ____ _ ____ _ ____ _ ____ _ ____
 72
65
 73
4
 40
0.6
 49
0.375
 74
0
 49
-0.075
 74
0
 49
0.075
 74
0
 49
-0.075
 74
0
  0
LTYPE
  5
1F6
100
AcDbSymbolTableRecord
100
AcDbLinetypeTableRecord
  2
HIDDEN
 70
64
  3
- - - - - - - - - - - - - - - - - - - -
 72
65
 73
2
 40
0.2
 49
0.1
 74
0
 49
-0.1
 74
0
  0
LTYPE
  5
1F7
100
AcDbSymbolTableRecord
100
AcDbLinetypeTableRecord
  2
PHANTOM
 70
64
  3
_____ _ _ _____ _ _ _____ _ _ _____
 72
65
 73
6
 40
0.8
 49
0.45
 74
0
 49
-0.05
 74
0
 49
0.1
 74
0
 49
-0.05
 74
0
 49
0.1
 74
0
 49
-0.05
 74
0
  0
LTYPE
  5
1F8
100
AcDbSymbolTableRecord
100
AcDbLinetypeTableRecord
  2
DOT
 70
64
  3
. . . . . . . . . . . . . . . . . . . .
 72
65
 73
2
 40
0.2
 49
0.1
 74
0
 49
-0.1
 74
0
  0
LTYPE
  5
1F9
100
AcDbSymbolTableRecord
100
AcDbLinetypeTableRecord
  2
DASHED
 70
64
  3
- - - - - - - - - - - - - - - - - - - -
 72
65
 73
2
 40
0.2
 49
0.1
 74
0
 49
-0.1
 74
0
  0
ENDTAB
  0
TABLE
  2
LAYER
  5
2
100
AcDbSymbolTable
 70
36
  0
LAYER
  5
10
100
AcDbSymbolTableRecord
100
AcDbLayerTableRecord
  2
0
 70
0
 62
7
  6
CONTINUOUS
370
-3
390
F
  0
LAYER
  5
1FA
100
AcDbSymbolTableRecord
100
AcDbLayerTableRecord
  2
DEFAULT_1
 70
0
 62
7
  6
CENTER
370
-3
390
F
  0
LAYER
  5
1FB
100
AcDbSymbolTableRecord
100
AcDbLayerTableRecord
  2
DEFAULT_2
 70
0
 62
8
  6
HIDDEN
370
-3
390
F
  0
LAYER
  5
1FC
100
AcDbSymbolTableRecord
100
AcDbLayerTableRecord
  2
DEFAULT_3
 70
0
 62
7
  6
PHANTOM
370
-3
390
F
  0
LAYER
  5
1FD
100
AcDbSymbolTableRecord
100
AcDbLayerTableRecord
  2
DEFAULT_COORDINATE_SYSTEM
 70
0
 62
7
  6
CONTINUOUS
370
-3
390
F
  0
LAYER
  5
1FE
100
AcDbSymbolTableRecord
100
AcDbLayerTableRecord
  2
DEFAULT_DATUM_AXES
 70
0
 62
7
  6
CONTINUOUS
370
-3
390
F
  0
LAYER
  5
1FF
100
AcDbSymbolTableRecord
100
AcDbLayerTableRecord
  2
DEFAULT_DATUM_PLANES
 70
0
 62
7
  6
CONTINUOUS
370
-3
390
F
  0
ENDTAB
  0
TABLE
  2
STYLE
  5
3
100
AcDbSymbolTable
 70
1
  0
STYLE
  5
11
100
AcDbSymbolTableRecord
100
AcDbTextStyleTableRecord
  2
STANDARD
 70
0
 40
0.0
 41
0.8
 50
0.0
 71
0
 42
0.2
  3
txt
  4

  0
STYLE
  5
200
100
AcDbSymbolTableRecord
100
AcDbTextStyleTableRecord
  2
TEXTSTYLE_1
 70
0
 40
0.0
 41
0.8
 50
0.0
 71
0
 42
0.2
  3
gdt
  4

  0
ENDTAB
  0
TABLE
  2
VIEW
  5
6
100
AcDbSymbolTable
 70
0
  0
ENDTAB
  0
TABLE
  2
UCS
  5
7
100
AcDbSymbolTable
 70
0
  0
ENDTAB
  0
TABLE
  2
APPID
  5
9
100
AcDbSymbolTable
 70
1
  0
APPID
  5
201
100
AcDbSymbolTableRecord
100
AcDbRegAppTableRecord
  2
ACAD
 70
0
  0
ENDTAB
  0
TABLE
  2
BLOCK_RECORD
  5
1
100
AcDbSymbolTable
 70
0
  0
BLOCK_RECORD
  5
202
100
AcDbSymbolTableRecord
100
AcDbBlockTableRecord
  2
*Model_Space
  0
BLOCK_RECORD
  5
203
100
AcDbSymbolTableRecord
100
AcDbBlockTableRecord
  2
*Paper_Space
  0
BLOCK_RECORD
  5
204
100
AcDbSymbolTableRecord
100
AcDbBlockTableRecord
  2
_FILLED
  0
ENDTAB
  0
TABLE
  2
DIMSTYLE
  5
A
100
AcDbSymbolTable
 70
1
100
AcDbDimStyleTable
 71
0
  0
DIMSTYLE
105
205
100
AcDbSymbolTableRecord
100
AcDbDimStyleTableRecord
  2
STANDARD
 70
0
  3

  4

 40
1.0
 41
0.1
 42
0.0625
 43
0.38
 44
0.125
 45
0.0
 46
0.0
 47
0.01
 48
0.01
140
0.08
141
0.09
142
0.0
143
25.4
144
1.0
145
0.0
146
1.0
147
0.09
 71
1.0
 72
0.0
 73
1
 74
1
 75
0
 76
0
 77
0
 78
4
 79
1
170
1
171
1
172
0
173
0
174
0
175
0
176
0
177
0
178
0
270
2
179
2
271
2
272
2
273
2
274
2
275
0
280
0
281
0
282
0
283
1
284
4
285
0
286
0
287
3
288
0
340
11
278
46
341
204
342
204
343
204
344
204
  0
ENDTAB
  0
ENDSEC
  0
SECTION
  2
BLOCKS
  0
BLOCK
  5
20
100
AcDbEntity
  8
0
100
AcDbBlockBegin
  2
*Model_Space
 70
0
 10
0.0
 20
0.0
 30
0.0
  3
*Model_Space
  1

  0
ENDBLK
  5
21
100
AcDbEntity
  8
0
100
AcDbBlockEnd
  0
BLOCK
  5
1C
100
AcDbEntity
  8
0
100
AcDbBlockBegin
  2
*Paper_Space
 70
0
 10
0.0
 20
0.0
 30
0.0
  3
*Paper_Space
  1

  0
ENDBLK
  5
1D
100
AcDbEntity
  8
0
100
AcDbBlockEnd
  0
BLOCK
  5
206
100
AcDbEntity
  8
0
100
AcDbBlockBegin
  2
_FILLED
 70
64
 10
0.0
 20
0.0
  3
_FILLED
  1

  0
SOLID
  5
207
100
AcDbEntity
  8
0
  6
BYBLOCK
 62
0
100
AcDbTrace
 10
0.0
 20
0.0
 11
-1.0
 21
0.2
 12
-1.0
 22
-0.2
 13
-1.0
 23
-0.2
  0
ENDBLK
  5
208
100
AcDbEntity
  8
0
  6
BYBLOCK
 62
0
100
AcDbBlockEnd
  0
ENDSEC
  0
SECTION
  2
ENTITIES
  0
MTEXT
  5
209
100
AcDbEntity
  8
0
100
AcDbMText
 62
2
  6
CONTINUOUS
  7
STANDARD
 71
3
 72
1
 10
5.2578804348
 20
2.3552938659
 30
0.0
 11
1.0
 21
0.0
 31
0.0
 73
2
 44
0.9
  1
SCALE  .500
 40
0.08
 41
0.704
  0
LINE
  5
20A
100
AcDbEntity
  8
0
100
AcDbLine
 62
7
  6
CONTINUOUS
 10
0.0
 20
0.0
 11
0.0
 21
8.5
  0
LINE
  5
20B
100
AcDbEntity
  8
0
100
AcDbLine
 62
7
  6
CONTINUOUS
 10
0.0
 20
0.0
 11
11.0
 21
0.0
  0
LINE
  5
20C
100
AcDbEntity
  8
0
100
AcDbLine
 62
7
  6
CONTINUOUS
 10
0.0
 20
8.5
 11
11.0
 21
8.5
  0
LINE
  5
20D
100
AcDbEntity
  8
0
100
AcDbLine
 62
7
  6
CONTINUOUS
 10
11.0
 20
0.0
 11
11.0
 21
8.5
  0
LINE
  5
20E
100
AcDbEntity
  8
0
100
AcDbLine
 62
7
  6
CONTINUOUS
 10
3.1076568323
 20
5.8712803901
 11
3.1154068323
 21
5.8847037839
  0
LINE
  5
20F
100
AcDbEntity
  8
0
100
AcDbLine
 62
7
  6
CONTINUOUS
 10
3.0544471563
 20
5.87757086
 11
3.0642647837
 21
5.8847037839
  0
LINE
  5
210
100
AcDbEntity
  8
0
100
AcDbLine
 62
7
  6
CONTINUOUS
 10
3.0449068323
 20
5.848208762
 11
3.0544471563
 21
5.87757086
  0
LINE
  5
211
100
AcDbEntity
  8
0
100
AcDbLine
 62
7
  6
CONTINUOUS
 10
3.3178018091
 20
5.9127029637
 11
3.3383202537
 21
5.9274962267
  0
LINE
  5
212
100
AcDbEntity
  8
0
100
AcDbLine
 62
7
  6
CONTINUOUS
 10
3.1916236344
 20
5.8552181126
 11
3.191667702
 21
5.8552495211
  0
LINE
  5
213
100
AcDbEntity
  8
0
100
AcDbLine
 62
7
  6
CONTINUOUS
 10
3.1916236167
 20
5.8552181251
 11
3.1916682959
 21
5.8552491042
  0
LINE
  5
214
100
AcDbEntity
  8
0
100
AcDbLine
 62
7
  6
CONTINUOUS
 10
3.0099446749
 20
5.5717111432
 11
3.009921334
 21
5.5725540564
  0
LINE
  5
215
100
AcDbEntity
  8
0
100
AcDbLine
 62
7
  6
CONTINUOUS
 10
3.0084393296
 20
5.6609537839
 11
3.0084610871
 21
5.6599528535
  0
LINE
  5
216
100
AcDbEntity
  8
0
100
AcDbLine
 62
7
  6
CONTINUOUS
 10
3.0330021258
 20
5.4233814641
 11
3.0330021258
 21
5.8185261037
  0
LINE
  5
217
100
AcDbEntity
  8
0
100
AcDbLine
 62
7
  6
CONTINUOUS
 10
3.0449068323
 20
5.3936989552
 11
3.0449068323
 21
5.8482086126
  0
LINE
  5
218
100
AcDbEntity
  8
0
100
AcDbLine
 62
7
  6
CONTINUOUS
 10
3.0083845914
 20
5.58344806
 11
3.0083632973
 21
5.5824537839
  0
LINE
  5
219
100
AcDbEntity
  8
0
100
AcDbLine
 62
7
  6
CONTINUOUS
 10
3.0077036742
 20
5.6006090015
 11
3.0077127062
 21
5.6007751382
  0
LINE
  5
21A
100
AcDbEntity
  8
0
100
AcDbLine
 62
7
  6
CONTINUOUS
 10
3.0076818729
 20
5.6003037839
 11
3.0077127062
 21
5.6007751382
  0
LINE
  5
21B
100
AcDbEntity
  8
0
100
AcDbLine
 62
7
  6
CONTINUOUS
 10
3.0076853909
 20
5.6003435192
 11
3.0076957733
 21
5.6004877695
  0
LWPOLYLINE
  5
21C
100
AcDbEntity
  8
0
100
AcDbPolyline
 62
7
  6
CONTINUOUS
 90
3
 70
0
 10
3.0076818729
 20
5.6003037839
 10
3.0076828148
 20
5.6003111476
 10
3.0076853909
 20
5.6003435192
  0
LINE
  5
21D
100
AcDbEntity
  8
0
100
AcDbLine
 62
7
  6
CONTINUOUS
 10
3.0999068323
 20
5.3572037839
 11
3.1076568323
 21
5.3706271777
  0
LINE
  5
21E
100
AcDbEntity
  8
0
100
AcDbLine
 62
7
  6
CONTINUOUS
 10
3.0544471563
 20
5.3643367078
 11
3.0544471563
 21
5.87757086
  0
LINE
  5
21F
100
AcDbEntity
  8
0
100
AcDbLine
 62
7
  6
CONTINUOUS
 10
3.0642647837
 20
5.3572037839
 11
3.0642647837
 21
5.8847037839
  0
LINE
  5
220
100
AcDbEntity
  8
0
100
AcDbLine
 62
7
  6
CONTINUOUS
 10
3.0999068323
 20
5.3572037839
 11
3.0999068323
 21
5.8847037839
  0
LINE
  5
221
100
AcDbEntity
  8
0
100
AcDbLine
 62
7
  6
CONTINUOUS
 10
3.1076568323
 20
5.3706271777
 11
3.1076568323
 21
5.8712803901
  0
LINE
  5
222
100
AcDbEntity
  8
0
100
AcDbLine
 62
7
  6
CONTINUOUS
 10
3.1154068323
 20
5.3572037839
 11
3.1154068323
 21
5.8847037839
  0
LINE
  5
223
100
AcDbEntity
  8
0
100
AcDbLine
 62
7
  6
CONTINUOUS
 10
3.1554068323
 20
5.3422037839
 11
3.1554068323
 21
5.8997037839
  0
LINE
  5
224
100
AcDbEntity
  8
0
100
AcDbLine
 62
7
  6
CONTINUOUS
 10
3.3999068323
 20
5.3572037839
 11
3.4254068323
 21
5.4357037839
  0
LINE
  5
225
100
AcDbEntity
  8
0
100
AcDbLine
 62
7
  6
CONTINUOUS
 10
3.1980118554
 20
5.3292046041
 11
3.1774934109
 21
5.3144113411
  0
LINE
  5
226
100
AcDbEntity
  8
0
100
AcDbLine
 62
7
  6
CONTINUOUS
 10
3.0077156389
 20
5.642797506
 11
3.0077147742
 21
5.6428037839
  0
LINE
  5
227
100
AcDbEntity
  8
0
100
AcDbLine
 62
7
  6
CONTINUOUS
 10
3.3604068323
 20
5.3422037839
 11
3.3604068323
 21
5.8997037839
  0
LINE
  5
228
100
AcDbEntity
  8
0
100
AcDbLine
 62
7
  6
CONTINUOUS
 10
3.324189979
 20
5.3866894187
 11
3.3241459625
 21
5.3866580467
  0
LINE
  5
229
100
AcDbEntity
  8
0
100
AcDbLine
 62
7
  6
CONTINUOUS
 10
3.3241899967
 20
5.3866894062
 11
3.3241453693
 21
5.3866584631
  0
LINE
  5
22A
100
AcDbEntity
  8
0
100
AcDbLine
 62
7
  6
CONTINUOUS
 10
3.0187438408
 20
5.4948539129
 11
3.0185750263
 21
5.4956964246
  0
LINE
  5
22B
100
AcDbEntity
  8
0
100
AcDbLine
 62
7
  6
CONTINUOUS
 10
3.0077156831
 20
5.6427990739
 11
3.0077147742
 21
5.6428037839
  0
LINE
  5
22C
100
AcDbEntity
  8
0
100
AcDbLine
 62
7
  6
CONTINUOUS
 10
3.3999068323
 20
5.3572037839
 11
3.3999068323
 21
5.8847037839
  0
LINE
  5
22D
100
AcDbEntity
  8
0
100
AcDbLine
 62
7
  6
CONTINUOUS
 10
3.4254068323
 20
5.4357037744
 11
3.4254068323
 21
5.8062037934
  0
LINE
  5
22E
100
AcDbEntity
  8
0
100
AcDbLine
 62
7
  6
CONTINUOUS
 10
3.0449068323
 20
5.3936988059
 11
3.0544471563
 21
5.3643367078
  0
LINE
  5
22F
100
AcDbEntity
  8
0
100
AcDbLine
 62
7
  6
CONTINUOUS
 10
3.6049068323
 20
5.4492037648
 11
3.6049068323
 21
5.792703803
  0
LINE
  5
230
100
AcDbEntity
  8
0
100
AcDbLine
 62
7
  6
CONTINUOUS
 10
3.6149068323
 20
5.4459537839
 11
3.6149068323
 21
5.7959537839
  0
LINE
  5
231
100
AcDbEntity
  8
0
100
AcDbLine
 62
7
  6
CONTINUOUS
 10
3.6649068323
 20
5.8098345302
 11
3.6649068323
 21
5.4320730376
  0
LINE
  5
232
100
AcDbEntity
  8
0
100
AcDbLine
 62
7
  6
CONTINUOUS
 10
3.6683533338
 20
5.4223281326
 11
3.6683533338
 21
5.8195794352
  0
LINE
  5
233
100
AcDbEntity
  8
0
100
AcDbLine
 62
7
  6
CONTINUOUS
 10
4.0274068323
 20
5.3101098657
 11
4.0257507505
 21
5.3084537839
  0
LINE
  5
234
100
AcDbEntity
  8
0
100
AcDbLine
 62
7
  6
CONTINUOUS
 10
3.7924068323
 20
5.3327037839
 11
3.7924068323
 21
5.9092036493
  0
LINE
  5
235
100
AcDbEntity
  8
0
100
AcDbLine
 62
7
  6
CONTINUOUS
 10
3.8079068323
 20
5.3172037839
 11
3.8079068323
 21
5.9247037839
  0
LINE
  5
236
100
AcDbEntity
  8
0
100
AcDbLine
 62
7
  6
CONTINUOUS
 10
3.8274068323
 20
5.9247037839
 11
3.8274068323
 21
5.3172037839
  0
LINE
  5
237
100
AcDbEntity
  8
0
100
AcDbLine
 62
7
  6
CONTINUOUS
 10
3.1076568323
 20
5.3706271777
 11
3.1154068323
 21
5.3572037839
  0
LINE
  5
238
100
AcDbEntity
  8
0
100
AcDbLine
 62
7
  6
CONTINUOUS
 10
4.0274068323
 20
5.3101098657
 11
4.0274068323
 21
5.9317977022
  0
LINE
  5
239
100
AcDbEntity
  8
0
100
AcDbLine
 62
7
  6
CONTINUOUS
 10
3.0999068323
 20
5.8847037839
 11
3.1076568323
 21
5.8712803901
  0
LINE
  5
23A
100
AcDbEntity
  8
0
100
AcDbLine
 62
7
  6
CONTINUOUS
 10
3.3999068323
 20
5.8847037839
 11
3.4254068323
 21
5.8062037839
  0
LINE
  5
23B
100
AcDbEntity
  8
0
100
AcDbLine
 62
7
  6
CONTINUOUS
 10
5.7274068323
 20
5.9317977022
 11
5.7290629141
 21
5.9334537839
  0
LINE
  5
23C
100
AcDbEntity
  8
0
100
AcDbLine
 62
7
  6
CONTINUOUS
 10
3.0544471563
 20
5.3643367078
 11
3.0642647837
 21
5.3572037839
  0
LINE
  5
23D
100
AcDbEntity
  8
0
100
AcDbLine
 62
7
  6
CONTINUOUS
 10
4.6501568323
 20
3.0432485962
 11
4.6501568323
 21
2.9998365518
  0
LINE
  5
23E
100
AcDbEntity
  8
0
100
AcDbLine
 62
7
  6
CONTINUOUS
 10
4.7009068323
 20
5.6209537839
 11
4.7009068323
 21
3.0480239211
  0
LINE
  5
23F
100
AcDbEntity
  8
0
100
AcDbLine
 62
7
  6
CONTINUOUS
 10
6.5568018091
 20
5.9127029637
 11
6.5773202537
 21
5.9274962267
  0
LINE
  5
240
100
AcDbEntity
  8
0
100
AcDbLine
 62
7
  6
CONTINUOUS
 10
6.4306236344
 20
5.8552181126
 11
6.430667702
 21
5.8552495211
  0
LINE
  5
241
100
AcDbEntity
  8
0
100
AcDbLine
 62
7
  6
CONTINUOUS
 10
6.4306236167
 20
5.8552181251
 11
6.4306682959
 21
5.8552491042
  0
LINE
  5
242
100
AcDbEntity
  8
0
100
AcDbLine
 62
7
  6
CONTINUOUS
 10
3.1916682703
 20
5.3866584813
 11
3.1916236235
 21
5.3866894378
  0
LINE
  5
243
100
AcDbEntity
  8
0
100
AcDbLine
 62
7
  6
CONTINUOUS
 10
3.1916676768
 20
5.3866580647
 11
3.1916236412
 21
5.3866894503
  0
LINE
  5
244
100
AcDbEntity
  8
0
100
AcDbLine
 62
7
  6
CONTINUOUS
 10
3.3178018091
 20
5.3292046041
 11
3.3383202537
 21
5.3144113411
  0
LINE
  5
245
100
AcDbEntity
  8
0
100
AcDbLine
 62
7
  6
CONTINUOUS
 10
5.0539068323
 20
5.6209537839
 11
5.0539068323
 21
3.0480239211
  0
LINE
  5
246
100
AcDbEntity
  8
0
100
AcDbLine
 62
7
  6
CONTINUOUS
 10
3.1980118554
 20
5.9127029637
 11
3.1774934109
 21
5.9274962267
  0
LINE
  5
247
100
AcDbEntity
  8
0
100
AcDbLine
 62
7
  6
CONTINUOUS
 10
5.1046568323
 20
3.0432485962
 11
5.1046568323
 21
2.9998365518
  0
LINE
  5
248
100
AcDbEntity
  8
0
100
AcDbLine
 62
7
  6
CONTINUOUS
 10
6.7003665083
 20
5.3643367078
 11
6.6905488809
 21
5.3572037839
  0
LINE
  5
249
100
AcDbEntity
  8
0
100
AcDbLine
 62
7
  6
CONTINUOUS
 10
6.4370118554
 20
5.3292046041
 11
6.4164934109
 21
5.3144113411
  0
LINE
  5
24A
100
AcDbEntity
  8
0
100
AcDbLine
 62
7
  6
CONTINUOUS
 10
6.563189979
 20
5.3866894187
 11
6.5631459625
 21
5.3866580467
  0
LINE
  5
24B
100
AcDbEntity
  8
0
100
AcDbLine
 62
7
  6
CONTINUOUS
 10
6.5631899967
 20
5.3866894062
 11
6.5631453693
 21
5.3866584631
  0
LINE
  5
24C
100
AcDbEntity
  8
0
100
AcDbLine
 62
7
  6
CONTINUOUS
 10
3.3241453944
 20
5.8552490866
 11
3.3241900353
 21
5.8552181341
  0
LINE
  5
24D
100
AcDbEntity
  8
0
100
AcDbLine
 62
7
  6
CONTINUOUS
 10
3.3241459878
 20
5.8552495031
 11
3.3241900176
 21
5.8552181217
  0
LINE
  5
24E
100
AcDbEntity
  8
0
100
AcDbLine
 62
7
  6
CONTINUOUS
 10
4.0274068323
 20
5.9317977022
 11
4.0257507505
 21
5.9334537839
  0
LINE
  5
24F
100
AcDbEntity
  8
0
100
AcDbLine
 62
7
  6
CONTINUOUS
 10
5.7274068323
 20
5.9317977022
 11
5.7274068323
 21
5.3101098657
  0
LINE
  5
250
100
AcDbEntity
  8
0
100
AcDbLine
 62
7
  6
CONTINUOUS
 10
6.6549068323
 20
5.8847037839
 11
6.6471568323
 21
5.8712803901
  0
LINE
  5
251
100
AcDbEntity
  8
0
100
AcDbLine
 62
7
  6
CONTINUOUS
 10
5.0539068323
 20
5.3146170964
 11
5.5696980319
 21
5.3326283278
  0
LINE
  5
252
100
AcDbEntity
  8
0
100
AcDbLine
 62
7
  6
CONTINUOUS
 10
5.0539068323
 20
5.3134966411
 11
5.5752652862
 21
5.3283925969
  0
LINE
  5
253
100
AcDbEntity
  8
0
100
AcDbLine
 62
7
  6
CONTINUOUS
 10
4.0257507505
 20
5.3084537839
 11
3.8332391659
 21
5.3084537839
  0
LINE
  5
254
100
AcDbEntity
  8
0
100
AcDbLine
 62
7
  6
CONTINUOUS
 10
5.7290629141
 20
5.3084537839
 11
5.9215744987
 21
5.3084537839
  0
LINE
  5
255
100
AcDbEntity
  8
0
100
AcDbLine
 62
7
  6
CONTINUOUS
 10
5.9469068323
 20
5.3172037839
 11
5.9274068323
 21
5.3172037839
  0
LINE
  5
256
100
AcDbEntity
  8
0
100
AcDbLine
 62
7
  6
CONTINUOUS
 10
3.8079068323
 20
5.3172037839
 11
3.8274068323
 21
5.3172037839
  0
LINE
  5
257
100
AcDbEntity
  8
0
100
AcDbLine
 62
7
  6
CONTINUOUS
 10
4.0274068323
 20
5.3284537839
 11
4.1752635503
 21
5.3284537839
  0
LINE
  5
258
100
AcDbEntity
  8
0
100
AcDbLine
 62
7
  6
CONTINUOUS
 10
5.5795501143
 20
5.3284537839
 11
5.7274068323
 21
5.3284537839
  0
LINE
  5
259
100
AcDbEntity
  8
0
100
AcDbLine
 62
7
  6
CONTINUOUS
 10
4.7009068323
 20
5.3134966411
 11
4.1795483784
 21
5.3283925969
  0
LINE
  5
25A
100
AcDbEntity
  8
0
100
AcDbLine
 62
7
  6
CONTINUOUS
 10
4.7009068323
 20
5.3146170964
 11
4.1851156327
 21
5.3326283278
  0
LINE
  5
25B
100
AcDbEntity
  8
0
100
AcDbLine
 62
7
  6
CONTINUOUS
 10
6.3549068323
 20
5.8847037839
 11
6.3294068323
 21
5.8062037839
  0
LINE
  5
25C
100
AcDbEntity
  8
0
100
AcDbLine
 62
7
  6
CONTINUOUS
 10
6.6905488809
 20
5.3572037839
 11
6.6549068323
 21
5.3572037839
  0
LINE
  5
25D
100
AcDbEntity
  8
0
100
AcDbLine
 62
7
  6
CONTINUOUS
 10
3.0642647837
 20
5.3572037839
 11
3.0999068323
 21
5.3572037839
  0
LINE
  5
25E
100
AcDbEntity
  8
0
100
AcDbLine
 62
7
  6
CONTINUOUS
 10
6.1399068323
 20
5.4459537839
 11
6.0899068323
 21
5.4459537839
  0
LINE
  5
25F
100
AcDbEntity
  8
0
100
AcDbLine
 62
7
  6
CONTINUOUS
 10
3.6149068323
 20
5.4459537839
 11
3.6649068323
 21
5.4459537839
  0
LINE
  5
260
100
AcDbEntity
  8
0
100
AcDbLine
 62
7
  6
CONTINUOUS
 10
6.3294068323
 20
5.4492037839
 11
6.1499068323
 21
5.4492037839
  0
LINE
  5
261
100
AcDbEntity
  8
0
100
AcDbLine
 62
7
  6
CONTINUOUS
 10
3.4254068323
 20
5.4492037839
 11
3.6049068323
 21
5.4492037839
  0
LINE
  5
262
100
AcDbEntity
  8
0
100
AcDbLine
 62
7
  6
CONTINUOUS
 10
6.7314486697
 20
5.4669537839
 11
6.7319588411
 21
5.4669537839
  0
LINE
  5
263
100
AcDbEntity
  8
0
100
AcDbLine
 62
7
  6
CONTINUOUS
 10
6.7318803718
 20
5.4699382927
 11
6.7323902535
 21
5.4699382927
  0
LINE
  5
264
100
AcDbEntity
  8
0
100
AcDbLine
 62
7
  6
CONTINUOUS
 10
3.6149068323
 20
5.4748379037
 11
3.6049068323
 21
5.4748379037
  0
LINE
  5
265
100
AcDbEntity
  8
0
100
AcDbLine
 62
7
  6
CONTINUOUS
 10
6.1399068323
 20
5.4748379037
 11
6.1499068323
 21
5.4748379037
  0
LINE
  5
266
100
AcDbEntity
  8
0
100
AcDbLine
 62
7
  6
CONTINUOUS
 10
3.0185750263
 20
5.4956964246
 11
3.0180680507
 21
5.4956964246
  0
LINE
  5
267
100
AcDbEntity
  8
0
100
AcDbLine
 62
7
  6
CONTINUOUS
 10
5.9274068323
 20
5.3172037839
 11
5.9274068323
 21
5.9247037839
  0
LINE
  5
268
100
AcDbEntity
  8
0
100
AcDbLine
 62
7
  6
CONTINUOUS
 10
5.9469068323
 20
5.9247037839
 11
5.9469068323
 21
5.3172037839
  0
LINE
  5
269
100
AcDbEntity
  8
0
100
AcDbLine
 62
7
  6
CONTINUOUS
 10
5.9624068323
 20
5.9092037839
 11
5.9624068323
 21
5.3327037839
  0
LINE
  5
26A
100
AcDbEntity
  8
0
100
AcDbLine
 62
7
  6
CONTINUOUS
 10
6.6471568323
 20
5.3706271777
 11
6.6394068323
 21
5.3572037839
  0
LINE
  5
26B
100
AcDbEntity
  8
0
100
AcDbLine
 62
7
  6
CONTINUOUS
 10
3.0164954536
 20
5.5103024166
 11
3.0160552184
 21
5.5103024166
  0
LINE
  5
26C
100
AcDbEntity
  8
0
100
AcDbLine
 62
7
  6
CONTINUOUS
 10
6.7397855621
 20
5.5180756257
 11
6.7402901971
 21
5.5180756257
  0
LINE
  5
26D
100
AcDbEntity
  8
0
100
AcDbLine
 62
7
  6
CONTINUOUS
 10
6.740450274
 20
5.5217993708
 11
6.7409544727
 21
5.5217993708
  0
LINE
  5
26E
100
AcDbEntity
  8
0
100
AcDbLine
 62
7
  6
CONTINUOUS
 10
3.0147406185
 20
5.5232037839
 11
3.0143037928
 21
5.5232037839
  0
LINE
  5
26F
100
AcDbEntity
  8
0
100
AcDbLine
 62
7
  6
CONTINUOUS
 10
3.0145557645
 20
5.5247037839
 11
3.0134088486
 21
5.5247037839
  0
LINE
  5
270
100
AcDbEntity
  8
0
100
AcDbLine
 62
7
  6
CONTINUOUS
 10
3.0125140557
 20
5.5427037839
 11
3.0120110668
 21
5.5427037839
  0
LINE
  5
271
100
AcDbEntity
  8
0
100
AcDbLine
 62
7
  6
CONTINUOUS
 10
3.0113655861
 20
5.5427037839
 11
3.0119591238
 21
5.5427037839
  0
LINE
  5
272
100
AcDbEntity
  8
0
100
AcDbLine
 62
7
  6
CONTINUOUS
 10
3.0123591344
 20
5.5442037839
 11
3.0119231036
 21
5.5442037839
  0
LINE
  5
273
100
AcDbEntity
  8
0
100
AcDbLine
 62
7
  6
CONTINUOUS
 10
3.0111831394
 20
5.5571051512
 11
3.0107473873
 21
5.5571051512
  0
LINE
  5
274
100
AcDbEntity
  8
0
100
AcDbLine
 62
7
  6
CONTINUOUS
 10
6.7444343474
 20
5.5591037839
 11
6.744935947
 21
5.5591037839
  0
LINE
  5
275
100
AcDbEntity
  8
0
100
AcDbLine
 62
7
  6
CONTINUOUS
 10
3.0099446749
 20
5.5717111432
 11
3.0094433573
 21
5.5717111432
  0
LINE
  5
276
100
AcDbEntity
  8
0
100
AcDbLine
 62
7
  6
CONTINUOUS
 10
3.0081820504
 20
5.6003037839
 11
3.0076818729
 21
5.6003037839
  0
LINE
  5
277
100
AcDbEntity
  8
0
100
AcDbLine
 62
7
  6
CONTINUOUS
 10
6.7466651803
 20
5.6016037839
 11
6.7471653362
 21
5.6016037839
  0
LINE
  5
278
100
AcDbEntity
  8
0
100
AcDbLine
 62
7
  6
CONTINUOUS
 10
4.5371568323
 20
5.6209537839
 11
4.1402025643
 21
5.6209537839
  0
LINE
  5
279
100
AcDbEntity
  8
0
100
AcDbLine
 62
7
  6
CONTINUOUS
 10
3.9774068323
 20
5.6209537839
 11
3.8774068323
 21
5.6209537839
  0
LINE
  5
27A
100
AcDbEntity
  8
0
100
AcDbLine
 62
7
  6
CONTINUOUS
 10
5.2176568323
 20
5.6209537839
 11
5.6146111003
 21
5.6209537839
  0
LINE
  5
27B
100
AcDbEntity
  8
0
100
AcDbLine
 62
7
  6
CONTINUOUS
 10
5.7774068323
 20
5.6209537839
 11
5.8774068323
 21
5.6209537839
  0
LINE
  5
27C
100
AcDbEntity
  8
0
100
AcDbLine
 62
7
  6
CONTINUOUS
 10
6.7466881
 20
5.6259537839
 11
6.7462522778
 21
5.6259537839
  0
LINE
  5
27D
100
AcDbEntity
  8
0
100
AcDbLine
 62
7
  6
CONTINUOUS
 10
6.7465230629
 20
5.6367037839
 11
6.7472468446
 21
5.6367037839
  0
LINE
  5
27E
100
AcDbEntity
  8
0
100
AcDbLine
 62
7
  6
CONTINUOUS
 10
3.008214973
 20
5.6428037839
 11
3.0077147742
 21
5.6428037839
  0
LINE
  5
27F
100
AcDbEntity
  8
0
100
AcDbLine
 62
7
  6
CONTINUOUS
 10
6.745947603
 20
5.6547037839
 11
6.7466714242
 21
5.6547037839
  0
LINE
  5
280
100
AcDbEntity
  8
0
100
AcDbLine
 62
7
  6
CONTINUOUS
 10
6.7449884593
 20
5.6654537839
 11
6.7454249937
 21
5.6654537839
  0
LINE
  5
281
100
AcDbEntity
  8
0
100
AcDbLine
 62
7
  6
CONTINUOUS
 10
3.0102268669
 20
5.6719537839
 11
3.0097901066
 21
5.6719537839
  0
LINE
  5
282
100
AcDbEntity
  8
0
100
AcDbLine
 62
7
  6
CONTINUOUS
 10
5.7274068323
 20
5.3101098657
 11
5.7290629141
 21
5.3084537839
  0
LINE
  5
283
100
AcDbEntity
  8
0
100
AcDbLine
 62
7
  6
CONTINUOUS
 10
6.0864603308
 20
5.8195794352
 11
6.0864603308
 21
5.4223281326
  0
LINE
  5
284
100
AcDbEntity
  8
0
100
AcDbLine
 62
7
  6
CONTINUOUS
 10
6.0899068323
 20
5.8098344047
 11
6.0899068323
 21
5.4320731631
  0
LINE
  5
285
100
AcDbEntity
  8
0
100
AcDbLine
 62
7
  6
CONTINUOUS
 10
6.1399068323
 20
5.4459537839
 11
6.1399068323
 21
5.7959537839
  0
LINE
  5
286
100
AcDbEntity
  8
0
100
AcDbLine
 62
7
  6
CONTINUOUS
 10
6.1499068323
 20
5.4492037648
 11
6.1499068323
 21
5.792703803
  0
LINE
  5
287
100
AcDbEntity
  8
0
100
AcDbLine
 62
7
  6
CONTINUOUS
 10
3.0104775506
 20
5.6802037839
 11
3.0096761889
 21
5.6802037839
  0
LINE
  5
288
100
AcDbEntity
  8
0
100
AcDbLine
 62
7
  6
CONTINUOUS
 10
3.0119865348
 20
5.7002037839
 11
3.01148389
 21
5.7002037839
  0
LINE
  5
289
100
AcDbEntity
  8
0
100
AcDbLine
 62
7
  6
CONTINUOUS
 10
3.0115812081
 20
5.7007037839
 11
3.0123296331
 21
5.7007037839
  0
LINE
  5
28A
100
AcDbEntity
  8
0
100
AcDbLine
 62
7
  6
CONTINUOUS
 10
3.0130671404
 20
5.7084537839
 11
3.0135057613
 21
5.7084537839
  0
LINE
  5
28B
100
AcDbEntity
  8
0
100
AcDbLine
 62
7
  6
CONTINUOUS
 10
6.7408568233
 20
5.7159537839
 11
6.7404176934
 21
5.7159537839
  0
LINE
  5
28C
100
AcDbEntity
  8
0
100
AcDbLine
 62
7
  6
CONTINUOUS
 10
3.0145202586
 20
5.7169537839
 11
3.0140810587
 21
5.7169537839
  0
LINE
  5
28D
100
AcDbEntity
  8
0
100
AcDbLine
 62
7
  6
CONTINUOUS
 10
6.740021952
 20
5.7209537839
 11
6.7409309626
 21
5.7209537839
  0
LINE
  5
28E
100
AcDbEntity
  8
0
100
AcDbLine
 62
7
  6
CONTINUOUS
 10
3.0151931587
 20
5.7247037839
 11
3.0144419442
 21
5.7247037839
  0
LINE
  5
28F
100
AcDbEntity
  8
0
100
AcDbLine
 62
7
  6
CONTINUOUS
 10
3.0149682728
 20
5.7252037839
 11
3.0144636772
 21
5.7252037839
  0
LINE
  5
290
100
AcDbEntity
  8
0
100
AcDbLine
 62
7
  6
CONTINUOUS
 10
6.7383531589
 20
5.7390947241
 11
6.7378472534
 21
5.7390947241
  0
LINE
  5
291
100
AcDbEntity
  8
0
100
AcDbLine
 62
7
  6
CONTINUOUS
 10
6.7372593882
 20
5.7390947241
 11
6.737765688
 21
5.7390947241
  0
LINE
  5
292
100
AcDbEntity
  8
0
100
AcDbLine
 62
7
  6
CONTINUOUS
 10
6.7367327107
 20
5.7420947241
 11
6.7371732864
 21
5.7420947241
  0
LINE
  5
293
100
AcDbEntity
  8
0
100
AcDbLine
 62
7
  6
CONTINUOUS
 10
3.0174272998
 20
5.7452037839
 11
3.0182389565
 21
5.7452037839
  0
LINE
  5
294
100
AcDbEntity
  8
0
100
AcDbLine
 62
7
  6
CONTINUOUS
 10
3.0195255108
 20
5.7534537839
 11
3.0199678456
 21
5.7534537839
  0
LINE
  5
295
100
AcDbEntity
  8
0
100
AcDbLine
 62
7
  6
CONTINUOUS
 10
6.7343894079
 20
5.756026178
 11
6.7348370719
 21
5.756026178
  0
LINE
  5
296
100
AcDbEntity
  8
0
100
AcDbLine
 62
7
  6
CONTINUOUS
 10
3.6149068323
 20
5.7670696641
 11
3.6049068323
 21
5.7670696641
  0
LINE
  5
297
100
AcDbEntity
  8
0
100
AcDbLine
 62
7
  6
CONTINUOUS
 10
6.1399068323
 20
5.7670696641
 11
6.1499068323
 21
5.7670696641
  0
LINE
  5
298
100
AcDbEntity
  8
0
100
AcDbLine
 62
7
  6
CONTINUOUS
 10
6.7304784
 20
5.7787937869
 11
6.7309892236
 21
5.7787937869
  0
LINE
  5
299
100
AcDbEntity
  8
0
100
AcDbLine
 62
7
  6
CONTINUOUS
 10
6.7301363801
 20
5.7812842439
 11
6.7306474341
 21
5.7812842439
  0
LINE
  5
29A
100
AcDbEntity
  8
0
100
AcDbLine
 62
7
  6
CONTINUOUS
 10
6.3294068323
 20
5.7927037839
 11
6.1499068323
 21
5.7927037839
  0
LINE
  5
29B
100
AcDbEntity
  8
0
100
AcDbLine
 62
7
  6
CONTINUOUS
 10
3.4254068323
 20
5.7927037839
 11
3.6049068323
 21
5.7927037839
  0
LINE
  5
29C
100
AcDbEntity
  8
0
100
AcDbLine
 62
7
  6
CONTINUOUS
 10
6.1399068323
 20
5.7959537839
 11
6.0899068323
 21
5.7959537839
  0
LINE
  5
29D
100
AcDbEntity
  8
0
100
AcDbLine
 62
7
  6
CONTINUOUS
 10
3.6149068323
 20
5.7959537839
 11
3.6649068323
 21
5.7959537839
  0
LINE
  5
29E
100
AcDbEntity
  8
0
100
AcDbLine
 62
7
  6
CONTINUOUS
 10
6.3294068323
 20
5.4357037744
 11
6.3294068323
 21
5.8062037934
  0
LINE
  5
29F
100
AcDbEntity
  8
0
100
AcDbLine
 62
7
  6
CONTINUOUS
 10
6.3549068323
 20
5.3572037839
 11
6.3549068323
 21
5.8847037839
  0
LINE
  5
2A0
100
AcDbEntity
  8
0
100
AcDbLine
 62
7
  6
CONTINUOUS
 10
6.3944068323
 20
5.3422037839
 11
6.3944068323
 21
5.8997037839
  0
LINE
  5
2A1
100
AcDbEntity
  8
0
100
AcDbLine
 62
7
  6
CONTINUOUS
 10
6.7099068323
 20
5.3936988059
 11
6.7003665083
 21
5.3643367078
  0
LINE
  5
2A2
100
AcDbEntity
  8
0
100
AcDbLine
 62
7
  6
CONTINUOUS
 10
4.7315850174
 20
5.9283617419
 11
4.1851156327
 21
5.90927924
  0
LINE
  5
2A3
100
AcDbEntity
  8
0
100
AcDbLine
 62
7
  6
CONTINUOUS
 10
4.7336848657
 20
5.929347442
 11
4.1795483784
 21
5.9135149709
  0
LINE
  5
2A4
100
AcDbEntity
  8
0
100
AcDbLine
 62
7
  6
CONTINUOUS
 10
6.6905488809
 20
5.8847037839
 11
6.6549068323
 21
5.8847037839
  0
LINE
  5
2A5
100
AcDbEntity
  8
0
100
AcDbLine
 62
7
  6
CONTINUOUS
 10
3.0642647837
 20
5.8847037839
 11
3.0999068323
 21
5.8847037839
  0
LINE
  5
2A6
100
AcDbEntity
  8
0
100
AcDbLine
 62
7
  6
CONTINUOUS
 10
5.7274068323
 20
5.9134537839
 11
5.5795501143
 21
5.9134537839
  0
LINE
  5
2A7
100
AcDbEntity
  8
0
100
AcDbLine
 62
7
  6
CONTINUOUS
 10
4.1752635503
 20
5.9134537839
 11
4.0274068323
 21
5.9134537839
  0
LINE
  5
2A8
100
AcDbEntity
  8
0
100
AcDbLine
 62
7
  6
CONTINUOUS
 10
5.9469068323
 20
5.9247037839
 11
5.9274068323
 21
5.9247037839
  0
LINE
  5
2A9
100
AcDbEntity
  8
0
100
AcDbLine
 62
7
  6
CONTINUOUS
 10
3.8079068323
 20
5.9247037839
 11
3.8274068323
 21
5.9247037839
  0
LINE
  5
2AA
100
AcDbEntity
  8
0
100
AcDbLine
 62
7
  6
CONTINUOUS
 10
3.8332391659
 20
5.9334537839
 11
4.0257507505
 21
5.9334537839
  0
LINE
  5
2AB
100
AcDbEntity
  8
0
100
AcDbLine
 62
7
  6
CONTINUOUS
 10
5.7290629141
 20
5.9334537839
 11
5.9215744987
 21
5.9334537839
  0
LINE
  5
2AC
100
AcDbEntity
  8
0
100
AcDbLine
 62
7
  6
CONTINUOUS
 10
5.0211287989
 20
5.929347442
 11
5.5752652862
 21
5.9135149709
  0
LINE
  5
2AD
100
AcDbEntity
  8
0
100
AcDbLine
 62
7
  6
CONTINUOUS
 10
5.0232286472
 20
5.9283617419
 11
5.5696980319
 21
5.90927924
  0
LINE
  5
2AE
100
AcDbEntity
  8
0
100
AcDbLine
 62
7
  6
CONTINUOUS
 10
6.7449342797
 20
5.5591041342
 11
6.744935947
 21
5.5591037839
  0
LINE
  5
2AF
100
AcDbEntity
  8
0
100
AcDbLine
 62
7
  6
CONTINUOUS
 10
6.7319818183
 20
5.4671208567
 11
6.7319603311
 21
5.4669667388
  0
LINE
  5
2B0
100
AcDbEntity
  8
0
100
AcDbLine
 62
7
  6
CONTINUOUS
 10
6.7323902535
 20
5.4699382927
 11
6.7319588405
 21
5.4669537855
  0
LINE
  5
2B1
100
AcDbEntity
  8
0
100
AcDbLine
 62
7
  6
CONTINUOUS
 10
6.7318803718
 20
5.4699382927
 11
6.731451202
 21
5.4669747438
  0
LINE
  5
2B2
100
AcDbEntity
  8
0
100
AcDbLine
 62
7
  6
CONTINUOUS
 10
6.7273991538
 20
5.4459537839
 11
6.7333442889
 21
5.4797641717
  0
LINE
  5
2B3
100
AcDbEntity
  8
0
100
AcDbLine
 62
7
  6
CONTINUOUS
 10
6.7319588468
 20
5.4669537839
 11
6.7319591341
 21
5.4669549168
  0
LINE
  5
2B4
100
AcDbEntity
  8
0
100
AcDbLine
 62
7
  6
CONTINUOUS
 10
6.4306682703
 20
5.3866584813
 11
6.4306236235
 21
5.3866894378
  0
LINE
  5
2B5
100
AcDbEntity
  8
0
100
AcDbLine
 62
7
  6
CONTINUOUS
 10
6.4306676768
 20
5.3866580647
 11
6.4306236412
 21
5.3866894503
  0
LINE
  5
2B6
100
AcDbEntity
  8
0
100
AcDbLine
 62
7
  6
CONTINUOUS
 10
6.5568018091
 20
5.3292046041
 11
6.5773202537
 21
5.3144113411
  0
LINE
  5
2B7
100
AcDbEntity
  8
0
100
AcDbLine
 62
7
  6
CONTINUOUS
 10
6.3549068323
 20
5.3572037839
 11
6.3294068323
 21
5.4357037839
  0
LINE
  5
2B8
100
AcDbEntity
  8
0
100
AcDbLine
 62
7
  6
CONTINUOUS
 10
6.5994068323
 20
5.3422037839
 11
6.5994068323
 21
5.8997037839
  0
LINE
  5
2B9
100
AcDbEntity
  8
0
100
AcDbLine
 62
7
  6
CONTINUOUS
 10
6.6394068323
 20
5.3572037839
 11
6.6394068323
 21
5.8847037839
  0
LINE
  5
2BA
100
AcDbEntity
  8
0
100
AcDbLine
 62
7
  6
CONTINUOUS
 10
6.6471568323
 20
5.3706271777
 11
6.6471568323
 21
5.8712803901
  0
LINE
  5
2BB
100
AcDbEntity
  8
0
100
AcDbLine
 62
7
  6
CONTINUOUS
 10
6.6549068323
 20
5.3572037839
 11
6.6549068323
 21
5.8847037839
  0
LINE
  5
2BC
100
AcDbEntity
  8
0
100
AcDbLine
 62
7
  6
CONTINUOUS
 10
6.6905488809
 20
5.3572037839
 11
6.6905488809
 21
5.8847037839
  0
LINE
  5
2BD
100
AcDbEntity
  8
0
100
AcDbLine
 62
7
  6
CONTINUOUS
 10
6.7003665083
 20
5.3643367078
 11
6.7003665083
 21
5.87757086
  0
LINE
  5
2BE
100
AcDbEntity
  8
0
100
AcDbLine
 62
7
  6
CONTINUOUS
 10
6.7099068323
 20
5.3936989552
 11
6.7099068323
 21
5.8482086126
  0
LINE
  5
2BF
100
AcDbEntity
  8
0
100
AcDbLine
 62
7
  6
CONTINUOUS
 10
6.7218114789
 20
5.8185261122
 11
6.7218114789
 21
5.4233814556
  0
LINE
  5
2C0
100
AcDbEntity
  8
0
100
AcDbLine
 62
7
  6
CONTINUOUS
 10
6.7432685402
 20
5.5409537839
 11
6.7432994291
 21
5.5419802723
  0
LWPOLYLINE
  5
2C1
100
AcDbEntity
  8
0
100
AcDbPolyline
 62
7
  6
CONTINUOUS
 90
6
 70
0
 10
6.747403175
 20
5.6194245037
 10
6.7474039393
 20
5.619447185
 10
6.7474045178
 20
5.6194422805
 10
6.7474049175
 20
5.6194172408
 10
6.7474051986
 20
5.6194132071
 10
6.7474053813
 20
5.6194537839
  0
LWPOLYLINE
  5
2C2
100
AcDbEntity
  8
0
100
AcDbPolyline
 62
7
  6
CONTINUOUS
 90
3
 70
0
 10
6.7474003604
 20
5.619389763
 10
6.7474013849
 20
5.6194104272
 10
6.7474023115
 20
5.6194128456
  0
LINE
  5
2C3
100
AcDbEntity
  8
0
100
AcDbLine
 62
7
  6
CONTINUOUS
 10
6.7440658182
 20
5.5589421427
 11
6.746315476
 21
5.6015017868
  0
LINE
  5
2C4
100
AcDbEntity
  8
0
100
AcDbLine
 62
7
  6
CONTINUOUS
 10
6.7473968716
 20
5.6193408757
 11
6.7474003604
 21
5.619389763
  0
LWPOLYLINE
  5
2C5
100
AcDbEntity
  8
0
100
AcDbPolyline
 62
7
  6
CONTINUOUS
 90
5
 70
0
 10
6.7471653362
 20
5.6016037839
 10
6.7471641565
 20
5.6015866659
 10
6.7471616017
 20
5.6015697887
 10
6.7471576501
 20
5.6015460246
 10
6.7471521028
 20
5.6015031553
  0
LINE
  5
2C6
100
AcDbEntity
  8
0
100
AcDbLine
 62
7
  6
CONTINUOUS
 10
6.747321083
 20
5.6182948285
 11
6.7474053813
 21
5.6194537839
  0
LINE
  5
2C7
100
AcDbEntity
  8
0
100
AcDbLine
 62
7
  6
CONTINUOUS
 10
6.7473627304
 20
5.6188749129
 11
6.7473662515
 21
5.6189233926
  0
LINE
  5
2C8
100
AcDbEntity
  8
0
100
AcDbLine
 62
7
  6
CONTINUOUS
 10
6.7473896829
 20
5.6192437213
 11
6.7473912748
 21
5.6192644821
  0
LINE
  5
2C9
100
AcDbEntity
  8
0
100
AcDbLine
 62
7
  6
CONTINUOUS
 10
6.7473942117
 20
5.6193057325
 11
6.7473955735
 21
5.6193224561
  0
LINE
  5
2CA
100
AcDbEntity
  8
0
100
AcDbLine
 62
7
  6
CONTINUOUS
 10
6.7465414674
 20
5.6004430215
 11
6.7465553529
 21
5.6005915032
  0
LINE
  5
2CB
100
AcDbEntity
  8
0
100
AcDbLine
 62
7
  6
CONTINUOUS
 10
6.7473981
 20
5.6193602107
 11
6.7473992608
 21
5.619372002
  0
LINE
  5
2CC
100
AcDbEntity
  8
0
100
AcDbLine
 62
7
  6
CONTINUOUS
 10
6.7465553529
 20
5.6005915032
 11
6.7465941269
 21
5.6009829349
  0
LINE
  5
2CD
100
AcDbEntity
  8
0
100
AcDbLine
 62
7
  6
CONTINUOUS
 10
6.746541475
 20
5.6004433547
 11
6.7466651803
 21
5.6016037839
  0
LINE
  5
2CE
100
AcDbEntity
  8
0
100
AcDbLine
 62
7
  6
CONTINUOUS
 10
6.7471279371
 20
5.601296734
 11
6.7471068259
 21
5.601100862
  0
LINE
  5
2CF
100
AcDbEntity
  8
0
100
AcDbLine
 62
7
  6
CONTINUOUS
 10
6.7319603311
 20
5.4669667388
 11
6.7319588468
 21
5.4669537839
  0
LWPOLYLINE
  5
2D0
100
AcDbEntity
  8
0
100
AcDbPolyline
 62
7
  6
CONTINUOUS
 90
8
 70
0
 10
6.7466272184
 20
5.6012919401
 10
6.7466364402
 20
5.6013715901
 10
6.7466446115
 20
5.6014394444
 10
6.7466517492
 20
5.60150156
 10
6.7466573835
 20
5.6015451983
 10
6.7466613938
 20
5.6015693649
 10
6.7466639853
 20
5.6015864882
 10
6.7466651803
 20
5.6016037839
  0
LINE
  5
2D1
100
AcDbEntity
  8
0
100
AcDbLine
 62
7
  6
CONTINUOUS
 10
6.7471653362
 20
5.6016037839
 11
6.7471068259
 21
5.601100862
  0
LINE
  5
2D2
100
AcDbEntity
  8
0
100
AcDbLine
 62
7
  6
CONTINUOUS
 10
6.731451202
 20
5.4669747438
 11
6.7314486687
 21
5.466953784
  0
LINE
  5
2D3
100
AcDbEntity
  8
0
100
AcDbLine
 62
7
  6
CONTINUOUS
 10
6.740576188
 20
5.5228144162
 11
6.740450274
 21
5.5217993708
  0
LINE
  5
2D4
100
AcDbEntity
  8
0
100
AcDbLine
 62
7
  6
CONTINUOUS
 10
6.7449350817
 20
5.5591141543
 11
6.744935947
 21
5.5591037839
  0
LINE
  5
2D5
100
AcDbEntity
  8
0
100
AcDbLine
 62
7
  6
CONTINUOUS
 10
6.6549068323
 20
5.3572037839
 11
6.6471568323
 21
5.3706271777
  0
LINE
  5
2D6
100
AcDbEntity
  8
0
100
AcDbLine
 62
7
  6
CONTINUOUS
 10
6.5631453944
 20
5.8552490866
 11
6.5631900353
 21
5.8552181341
  0
LINE
  5
2D7
100
AcDbEntity
  8
0
100
AcDbLine
 62
7
  6
CONTINUOUS
 10
6.5631459878
 20
5.8552495031
 11
6.5631900176
 21
5.8552181217
  0
LINE
  5
2D8
100
AcDbEntity
  8
0
100
AcDbLine
 62
7
  6
CONTINUOUS
 10
6.4370118554
 20
5.9127029637
 11
6.4164934109
 21
5.9274962267
  0
LINE
  5
2D9
100
AcDbEntity
  8
0
100
AcDbLine
 62
7
  6
CONTINUOUS
 10
6.7003665083
 20
5.87757086
 11
6.6905488809
 21
5.8847037839
  0
LINE
  5
2DA
100
AcDbEntity
  8
0
100
AcDbLine
 62
7
  6
CONTINUOUS
 10
6.7099068323
 20
5.848208762
 11
6.7003665083
 21
5.87757086
  0
LINE
  5
2DB
100
AcDbEntity
  8
0
100
AcDbLine
 62
7
  6
CONTINUOUS
 10
6.7298595154
 20
5.7811445558
 11
6.7263425914
 21
5.8004530443
  0
LINE
  5
2DC
100
AcDbEntity
  8
0
100
AcDbLine
 62
7
  6
CONTINUOUS
 10
6.7298601121
 20
5.7811413561
 11
6.7297207388
 21
5.7819093128
  0
LINE
  5
2DD
100
AcDbEntity
  8
0
100
AcDbLine
 62
7
  6
CONTINUOUS
 10
6.6471568323
 20
5.8712803901
 11
6.6394068323
 21
5.8847037839
  0
ARC
  5
2DE
100
AcDbEntity
  8
0
100
AcDbCircle
 62
7
  6
CONTINUOUS
 10
2.0556063496
 20
5.479276879
 40
0.9583060941
100
AcDbArc
 50
4.6583712269
 51
5.4771620157
  0
ARC
  5
2DF
100
AcDbEntity
  8
0
100
AcDbCircle
 62
7
  6
CONTINUOUS
 10
2.1541864763
 20
5.3832335975
 40
0.8716750958
100
AcDbArc
 50
7.4876863097
 51
7.8788302037
  0
ARC
  5
2E0
100
AcDbEntity
  8
0
100
AcDbCircle
 62
7
  6
CONTINUOUS
 10
2.25981921
 20
5.4983472318
 40
0.7537049968
100
AcDbArc
 50
5.077391461
 51
5.5121560502
  0
ARC
  5
2E1
100
AcDbEntity
  8
0
100
AcDbCircle
 62
7
  6
CONTINUOUS
 10
6.0292749929
 20
5.610539095
 40
0.7171906446
100
AcDbArc
 50
352.8924402574
 51
353.5886780621
  0
ARC
  5
2E2
100
AcDbEntity
  8
0
100
AcDbCircle
 62
7
  6
CONTINUOUS
 10
6.0291933766
 20
5.6105445051
 40
0.7167719811
100
AcDbArc
 50
352.9695919154
 51
353.2036966705
  0
ARC
  5
2E3
100
AcDbEntity
  8
0
100
AcDbCircle
 62
7
  6
CONTINUOUS
 10
3.3740529493
 20
5.2558141385
 40
0.68
100
AcDbArc
 50
108.7559867836
 51
112.3561036556
  0
ARC
  5
2E4
100
AcDbEntity
  8
0
100
AcDbCircle
 62
7
  6
CONTINUOUS
 10
3.1388659245
 20
5.2568043935
 40
0.68
100
AcDbArc
 50
67.4255442891
 51
70.9862257999
  0
ARC
  5
2E5
100
AcDbEntity
  8
0
100
AcDbCircle
 62
7
  6
CONTINUOUS
 10
3.2579068323
 20
4.8808843395
 40
0.4725694444
100
AcDbArc
 50
77.4730187713
 51
80.8642869768
  0
ARC
  5
2E6
100
AcDbEntity
  8
0
100
AcDbCircle
 62
7
  6
CONTINUOUS
 10
3.2579068323
 20
4.8808843395
 40
0.4725694444
100
AcDbArc
 50
99.1362409002
 51
102.5269812287
  0
ARC
  5
2E7
100
AcDbEntity
  8
0
100
AcDbCircle
 62
7
  6
CONTINUOUS
 10
3.4085757333
 20
5.5734536537
 40
0.3981738777
100
AcDbArc
 50
191.2613499973
 51
191.8845226679
  0
ARC
  5
2E8
100
AcDbEntity
  8
0
100
AcDbCircle
 62
7
  6
CONTINUOUS
 10
3.3961763734
 20
5.5828349684
 40
0.3868929635
100
AcDbArc
 50
181.0191025853
 51
181.64757734
  0
ARC
  5
2E9
100
AcDbEntity
  8
0
100
AcDbCircle
 62
7
  6
CONTINUOUS
 10
5.7165117138
 20
5.4514544784
 40
0.25
100
AcDbArc
 50
325.1099960306
 51
327.5201628999
  0
ARC
  5
2EA
100
AcDbEntity
  8
0
100
AcDbCircle
 62
7
  6
CONTINUOUS
 10
4.0383019508
 20
5.4514544784
 40
0.25
100
AcDbArc
 50
212.4798371001
 51
214.8900039694
  0
ARC
  5
2EB
100
AcDbEntity
  8
0
100
AcDbCircle
 62
7
  6
CONTINUOUS
 10
5.9161560621
 20
5.5600142106
 40
0.219
100
AcDbArc
 50
282.192141278
 51
321.0454623761
  0
ARC
  5
2EC
100
AcDbEntity
  8
0
100
AcDbCircle
 62
7
  6
CONTINUOUS
 10
3.8386576025
 20
5.5600142106
 40
0.219
100
AcDbArc
 50
218.9545376239
 51
257.807858722
  0
ARC
  5
2ED
100
AcDbEntity
  8
0
100
AcDbCircle
 62
7
  6
CONTINUOUS
 10
5.5828241631
 20
5.1826668199
 40
0.1505348454
100
AcDbArc
 50
88.9565959129
 51
95.0023503454
  0
ARC
  5
2EE
100
AcDbEntity
  8
0
100
AcDbCircle
 62
7
  6
CONTINUOUS
 10
4.1719895015
 20
5.1826668199
 40
0.1505348454
100
AcDbArc
 50
84.9976496546
 51
91.0434040871
  0
ARC
  5
2EF
100
AcDbEntity
  8
0
100
AcDbCircle
 62
7
  6
CONTINUOUS
 10
4.1752644123
 20
5.1784537839
 40
0.15
100
AcDbArc
 50
88.3634229584
 51
90.0
  0
ARC
  5
2F0
100
AcDbEntity
  8
0
100
AcDbCircle
 62
7
  6
CONTINUOUS
 10
5.5795492523
 20
5.1784537839
 40
0.15
100
AcDbArc
 50
90.0
 51
91.6365770416
  0
ARC
  5
2F1
100
AcDbEntity
  8
0
100
AcDbCircle
 62
7
  6
CONTINUOUS
 10
3.2579068323
 20
5.2028768995
 40
0.1375
100
AcDbArc
 50
125.7906197352
 51
54.2093802648
  0
ARC
  5
2F2
100
AcDbEntity
  8
0
100
AcDbCircle
 62
7
  6
CONTINUOUS
 10
3.1276527448
 20
5.5942655228
 40
0.1197168951
100
AcDbArc
 50
188.7984258424
 51
190.9847295046
  0
ARC
  5
2F3
100
AcDbEntity
  8
0
100
AcDbCircle
 62
7
  6
CONTINUOUS
 10
3.1327949822
 20
5.4996277749
 40
0.1141511632
100
AcDbArc
 50
181.8444011523
 51
184.1062774215
  0
ARC
  5
2F4
100
AcDbEntity
  8
0
100
AcDbCircle
 62
7
  6
CONTINUOUS
 10
3.2690882202
 20
5.466755714
 40
0.0974424633
100
AcDbArc
 50
298.510039535
 51
304.5043833188
  0
ARC
  5
2F5
100
AcDbEntity
  8
0
100
AcDbCircle
 62
7
  6
CONTINUOUS
 10
3.2459401832
 20
5.4654746516
 40
0.0959419678
100
AcDbArc
 50
235.4486796574
 51
241.5366392037
  0
ARC
  5
2F6
100
AcDbEntity
  8
0
100
AcDbCircle
 62
7
  6
CONTINUOUS
 10
3.2400370299
 20
5.4545890522
 40
0.0833919189
100
AcDbArc
 50
231.4119707812
 51
234.5105867103
  0
ARC
  5
2F7
100
AcDbEntity
  8
0
100
AcDbCircle
 62
7
  6
CONTINUOUS
 10
3.2762699786
 20
5.4539352818
 40
0.0825731951
100
AcDbArc
 50
305.4740103847
 51
308.6033948653
  0
ARC
  5
2F8
100
AcDbEntity
  8
0
100
AcDbCircle
 62
7
  6
CONTINUOUS
 10
3.3028986587
 20
5.3012239595
 40
0.0530081736
100
AcDbArc
 50
357.9686694481
 51
359.9996064544
  0
ARC
  5
2F9
100
AcDbEntity
  8
0
100
AcDbCircle
 62
7
  6
CONTINUOUS
 10
3.212914715
 20
5.3012239533
 40
0.0530078827
100
AcDbArc
 50
180.0003868726
 51
182.0186714191
  0
ARC
  5
2FA
100
AcDbEntity
  8
0
100
AcDbCircle
 62
7
  6
CONTINUOUS
 10
6.0744068323
 20
5.4320730376
 40
0.0155
100
AcDbArc
 50
321.0454623761
 51
360.0
  0
ARC
  5
2FB
100
AcDbEntity
  8
0
100
AcDbCircle
 62
7
  6
CONTINUOUS
 10
5.9469068323
 20
5.3327037839
 40
0.0155
100
AcDbArc
 50
270.0
 51
360.0
  0
ARC
  5
2FC
100
AcDbEntity
  8
0
100
AcDbCircle
 62
7
  6
CONTINUOUS
 10
3.6804068323
 20
5.4320730376
 40
0.0155
100
AcDbArc
 50
180.0
 51
218.9545376239
  0
ARC
  5
2FD
100
AcDbEntity
  8
0
100
AcDbCircle
 62
7
  6
CONTINUOUS
 10
3.8079068323
 20
5.3327037839
 40
0.0155
100
AcDbArc
 50
180.0
 51
270.0
  0
ARC
  5
2FE
100
AcDbEntity
  8
0
100
AcDbCircle
 62
7
  6
CONTINUOUS
 10
3.0475069482
 20
5.4272037839
 40
0.015
100
AcDbArc
 50
194.7629977426
 51
260.0154653003
  0
ARC
  5
2FF
100
AcDbEntity
  8
0
100
AcDbCircle
 62
7
  6
CONTINUOUS
 10
2.6553100517
 20
5.6903680015
 40
0.3549580154
100
AcDbArc
 50
357.0263222327
 51
357.1946579508
  0
ARC
  5
300
100
AcDbEntity
  8
0
100
AcDbCircle
 62
7
  6
CONTINUOUS
 10
2.6776544337
 20
5.7535053701
 40
0.3384064013
100
AcDbArc
 50
353.7993336124
 51
353.9679844394
  0
ARC
  5
301
100
AcDbEntity
  8
0
100
AcDbCircle
 62
7
  6
CONTINUOUS
 10
2.6812846576
 20
5.7515438494
 40
0.334568931
100
AcDbArc
 50
352.4166404703
 51
352.6001622561
  0
ARC
  5
302
100
AcDbEntity
  8
0
100
AcDbCircle
 62
7
  6
CONTINUOUS
 10
3.2467258618
 20
5.7751511842
 40
0.0974432516
100
AcDbArc
 50
118.5091483942
 51
124.5043625461
  0
ARC
  5
303
100
AcDbEntity
  8
0
100
AcDbCircle
 62
7
  6
CONTINUOUS
 10
3.2698731368
 20
5.7764323922
 40
0.0959425949
100
AcDbArc
 50
55.4486876333
 51
61.5376484632
  0
ARC
  5
304
100
AcDbEntity
  8
0
100
AcDbCircle
 62
7
  6
CONTINUOUS
 10
3.2757766325
 20
5.7873185128
 40
0.0833919225
100
AcDbArc
 50
51.4119708188
 51
54.5105914991
  0
ARC
  5
305
100
AcDbEntity
  8
0
100
AcDbCircle
 62
7
  6
CONTINUOUS
 10
3.2395436693
 20
5.7879723074
 40
0.082573168
100
AcDbArc
 50
125.4740532261
 51
128.6033950994
  0
ARC
  5
306
100
AcDbEntity
  8
0
100
AcDbCircle
 62
7
  6
CONTINUOUS
 10
3.1388659245
 20
5.9851031743
 40
0.68
100
AcDbArc
 50
289.0137742001
 51
292.5744557109
  0
ARC
  5
307
100
AcDbEntity
  8
0
100
AcDbCircle
 62
7
  6
CONTINUOUS
 10
2.6572865679
 20
5.8214816829
 40
0.3685713592
100
AcDbArc
 50
349.2067970879
 51
349.3638284293
  0
ARC
  5
308
100
AcDbEntity
  8
0
100
AcDbCircle
 62
7
  6
CONTINUOUS
 10
3.0475069482
 20
5.8147037839
 40
0.015
100
AcDbArc
 50
99.9845346997
 51
165.2370022574
  0
ARC
  5
309
100
AcDbEntity
  8
0
100
AcDbCircle
 62
7
  6
CONTINUOUS
 10
3.7827435283
 20
5.6209537839
 40
0.775336696
100
AcDbArc
 50
178.3851163544
 51
181.526172792
  0
ARC
  5
30A
100
AcDbEntity
  8
0
100
AcDbCircle
 62
7
  6
CONTINUOUS
 10
3.7827435283
 20
5.6209537839
 40
0.775336696
100
AcDbArc
 50
187.1310724379
 51
194.7629977426
  0
ARC
  5
30B
100
AcDbEntity
  8
0
100
AcDbCircle
 62
7
  6
CONTINUOUS
 10
3.7827435283
 20
5.6209537839
 40
0.775336696
100
AcDbArc
 50
165.2370022574
 51
170.778420816
  0
ARC
  5
30C
100
AcDbEntity
  8
0
100
AcDbCircle
 62
7
  6
CONTINUOUS
 10
3.7827435283
 20
5.6209537839
 40
0.775336696
100
AcDbArc
 50
175.6172746801
 51
177.0427698572
  0
ARC
  5
30D
100
AcDbEntity
  8
0
100
AcDbCircle
 62
7
  6
CONTINUOUS
 10
3.7827435283
 20
5.6209537839
 40
0.775336696
100
AcDbArc
 50
182.8462409177
 51
185.7923749822
  0
ARC
  5
30E
100
AcDbEntity
  8
0
100
AcDbCircle
 62
7
  6
CONTINUOUS
 10
3.7827435283
 20
5.6209537839
 40
0.7753341165
100
AcDbArc
 50
172.5333846958
 51
173.873040133
  0
ARC
  5
30F
100
AcDbEntity
  8
0
100
AcDbCircle
 62
7
  6
CONTINUOUS
 10
3.7827435283
 20
5.6209537839
 40
0.7753070704
100
AcDbArc
 50
172.5333829776
 51
173.8730418353
  0
ARC
  5
310
100
AcDbEntity
  8
0
100
AcDbCircle
 62
7
  6
CONTINUOUS
 10
3.7827435283
 20
5.6209537839
 40
0.774836696
100
AcDbArc
 50
185.8010346896
 51
187.1311206304
  0
ARC
  5
311
100
AcDbEntity
  8
0
100
AcDbCircle
 62
7
  6
CONTINUOUS
 10
3.7827435283
 20
5.6209537839
 40
0.774836696
100
AcDbArc
 50
174.0958049299
 51
175.6144409851
  0
ARC
  5
312
100
AcDbEntity
  8
0
100
AcDbCircle
 62
7
  6
CONTINUOUS
 10
3.7827435283
 20
5.6209537839
 40
0.774836696
100
AcDbArc
 50
170.7783580571
 51
172.3044400432
  0
ARC
  5
313
100
AcDbEntity
  8
0
100
AcDbCircle
 62
7
  6
CONTINUOUS
 10
3.7827435283
 20
5.6209537839
 40
0.774836696
100
AcDbArc
 50
177.6643341463
 51
178.3840739981
  0
ARC
  5
314
100
AcDbEntity
  8
0
100
AcDbCircle
 62
7
  6
CONTINUOUS
 10
3.7827435283
 20
5.6209537839
 40
0.774836696
100
AcDbArc
 50
181.5271578603
 51
182.2117546758
  0
ARC
  5
315
100
AcDbEntity
  8
0
100
AcDbCircle
 62
7
  6
CONTINUOUS
 10
3.7827435283
 20
5.6209537839
 40
0.7746319705
100
AcDbArc
 50
184.7279382717
 51
185.6861554458
  0
ARC
  5
316
100
AcDbEntity
  8
0
100
AcDbCircle
 62
7
  6
CONTINUOUS
 10
3.7827435283
 20
5.6209537839
 40
0.7746319705
100
AcDbArc
 50
187.2494216931
 51
188.2124377674
  0
ARC
  5
317
100
AcDbEntity
  8
0
100
AcDbCircle
 62
7
  6
CONTINUOUS
 10
3.7827435283
 20
5.6209537839
 40
0.77419829
100
AcDbArc
 50
170.1456140536
 51
172.8770331308
  0
ARC
  5
318
100
AcDbEntity
  8
0
100
AcDbCircle
 62
7
  6
CONTINUOUS
 10
3.7827435283
 20
5.6209537839
 40
0.77419829
100
AcDbArc
 50
173.5105570412
 51
176.2229285311
  0
ARC
  5
319
100
AcDbEntity
  8
0
100
AcDbCircle
 62
7
  6
CONTINUOUS
 10
3.7827435283
 20
5.6209537839
 40
0.77419829
100
AcDbArc
 50
183.6658269874
 51
189.2914958286
  0
ARC
  5
31A
100
AcDbEntity
  8
0
100
AcDbCircle
 62
7
  6
CONTINUOUS
 10
4.0383019508
 20
5.7904530894
 40
0.25
100
AcDbArc
 50
145.1099960306
 51
147.5201628999
  0
ARC
  5
31B
100
AcDbEntity
  8
0
100
AcDbCircle
 62
7
  6
CONTINUOUS
 10
3.8386576025
 20
5.6818933573
 40
0.219
100
AcDbArc
 50
102.192141278
 51
141.0454623761
  0
ARC
  5
31C
100
AcDbEntity
  8
0
100
AcDbCircle
 62
7
  6
CONTINUOUS
 10
3.3740529493
 20
5.9860934293
 40
0.68
100
AcDbArc
 50
247.6438963444
 51
251.2440132164
  0
ARC
  5
31D
100
AcDbEntity
  8
0
100
AcDbCircle
 62
7
  6
CONTINUOUS
 10
3.6804068323
 20
5.8098345302
 40
0.0155
100
AcDbArc
 50
141.0454623761
 51
180.0
  0
ARC
  5
31E
100
AcDbEntity
  8
0
100
AcDbCircle
 62
7
  6
CONTINUOUS
 10
3.8079068323
 20
5.9092037839
 40
0.0155
100
AcDbArc
 50
90.0
 51
180.0
  0
ARC
  5
31F
100
AcDbEntity
  8
0
100
AcDbCircle
 62
7
  6
CONTINUOUS
 10
3.2579068323
 20
6.3610232284
 40
0.4725694444
100
AcDbArc
 50
279.1353838165
 51
282.5269812287
  0
ARC
  5
320
100
AcDbEntity
  8
0
100
AcDbCircle
 62
7
  6
CONTINUOUS
 10
3.2579068323
 20
6.3610232284
 40
0.4725694444
100
AcDbArc
 50
257.4730187713
 51
260.8648475463
  0
ARC
  5
321
100
AcDbEntity
  8
0
100
AcDbCircle
 62
7
  6
CONTINUOUS
 10
4.1719895015
 20
6.0592407479
 40
0.1505348454
100
AcDbArc
 50
268.9565959129
 51
275.0023503454
  0
ARC
  5
322
100
AcDbEntity
  8
0
100
AcDbCircle
 62
7
  6
CONTINUOUS
 10
4.1752644123
 20
6.0634537839
 40
0.15
100
AcDbArc
 50
270.0
 51
271.6365770416
  0
ARC
  5
323
100
AcDbEntity
  8
0
100
AcDbCircle
 62
7
  6
CONTINUOUS
 10
3.2579068323
 20
6.0390306683
 40
0.1375
100
AcDbArc
 50
305.7906197353
 51
234.2093802648
  0
ARC
  5
324
100
AcDbEntity
  8
0
100
AcDbCircle
 62
7
  6
CONTINUOUS
 10
4.8774068323
 20
5.6209537839
 40
0.55
100
AcDbArc
 50
212.9721607671
 51
251.2806843507
  0
ARC
  5
325
100
AcDbEntity
  8
0
100
AcDbCircle
 62
7
  6
CONTINUOUS
 10
4.8774068323
 20
5.6209537839
 40
0.55
100
AcDbArc
 50
288.7193156493
 51
327.0278392329
  0
ARC
  5
326
100
AcDbEntity
  8
0
100
AcDbCircle
 62
7
  6
CONTINUOUS
 10
4.8774068323
 20
5.6209537839
 40
0.55
100
AcDbArc
 50
32.9721607671
 51
147.0278392329
  0
ARC
  5
327
100
AcDbEntity
  8
0
100
AcDbCircle
 62
7
  6
CONTINUOUS
 10
4.8774068323
 20
5.6209537839
 40
0.5260543277
100
AcDbArc
 50
214.7938429726
 51
250.3957483894
  0
ARC
  5
328
100
AcDbEntity
  8
0
100
AcDbCircle
 62
7
  6
CONTINUOUS
 10
4.8774068323
 20
5.6209537839
 40
0.5260543277
100
AcDbArc
 50
34.7938429726
 51
145.2061570274
  0
ARC
  5
329
100
AcDbEntity
  8
0
100
AcDbCircle
 62
7
  6
CONTINUOUS
 10
4.8774068323
 20
5.6209537839
 40
0.5260543277
100
AcDbArc
 50
289.6042516106
 51
325.2061570274
  0
ARC
  5
32A
100
AcDbEntity
  8
0
100
AcDbCircle
 62
7
  6
CONTINUOUS
 10
4.8774068323
 20
5.6209537839
 40
0.3723641807
100
AcDbArc
 50
235.3944551271
 51
241.7031866788
  0
ARC
  5
32B
100
AcDbEntity
  8
0
100
AcDbCircle
 62
7
  6
CONTINUOUS
 10
4.8774068323
 20
5.6209537839
 40
0.3723641807
100
AcDbArc
 50
298.2968133212
 51
304.6055448729
  0
ARC
  5
32C
100
AcDbEntity
  8
0
100
AcDbCircle
 62
7
  6
CONTINUOUS
 10
4.8774068323
 20
5.6209537839
 40
0.3723641807
100
AcDbArc
 50
55.3944551271
 51
124.6055448729
  0
ARC
  5
32D
100
AcDbEntity
  8
0
100
AcDbCircle
 62
7
  6
CONTINUOUS
 10
4.8774068323
 20
5.6209537839
 40
0.34025
100
AcDbArc
 50
301.2478127551
 51
238.7521872449
  0
ARC
  5
32E
100
AcDbEntity
  8
0
100
AcDbCircle
 62
7
  6
CONTINUOUS
 10
4.8774068323
 20
5.6209537839
 40
0.312
100
AcDbArc
 50
304.4535696948
 51
235.5464303052
  0
ARC
  5
32F
100
AcDbEntity
  8
0
100
AcDbCircle
 62
7
  6
CONTINUOUS
 10
4.8774068323
 20
5.6209537839
 40
0.3072588067
100
AcDbArc
 50
305.060470689
 51
234.939529311
  0
ARC
  5
330
100
AcDbEntity
  8
0
100
AcDbCircle
 62
7
  6
CONTINUOUS
 10
4.8774068323
 20
5.6209537839
 40
0.2339044211
100
AcDbArc
 50
318.9921379707
 51
221.0078620293
  0
ARC
  5
331
100
AcDbEntity
  8
0
100
AcDbCircle
 62
7
  6
CONTINUOUS
 10
4.8774068323
 20
5.6209537839
 40
0.2175
100
AcDbArc
 50
324.2460314208
 51
215.7539685792
  0
ARC
  5
332
100
AcDbEntity
  8
0
100
AcDbCircle
 62
7
  6
CONTINUOUS
 10
4.8774068323
 20
5.6209537839
 40
0.2020589822
100
AcDbArc
 50
330.87163733
 51
209.12836267
  0
ARC
  5
333
100
AcDbEntity
  8
0
100
AcDbCircle
 62
7
  6
CONTINUOUS
 10
4.8774068323
 20
5.6209537839
 40
0.1765
100
AcDbArc
 50
0.0
 51
180.0
  0
ARC
  5
334
100
AcDbEntity
  8
0
100
AcDbCircle
 62
7
  6
CONTINUOUS
 10
4.4298870613
 20
5.8831725137
 40
2.3385152318
100
AcDbArc
 50
350.0664339496
 51
350.8063204542
  0
ARC
  5
335
100
AcDbEntity
  8
0
100
AcDbCircle
 62
7
  6
CONTINUOUS
 10
5.9720718246
 20
5.6209537839
 40
0.7753350077
100
AcDbArc
 50
8.7645317508
 51
11.9330066517
  0
ARC
  5
336
100
AcDbEntity
  8
0
100
AcDbCircle
 62
7
  6
CONTINUOUS
 10
5.9720718246
 20
5.6209537839
 40
0.7753350077
100
AcDbArc
 50
355.4245413833
 51
358.5699233954
  0
ARC
  5
337
100
AcDbEntity
  8
0
100
AcDbCircle
 62
7
  6
CONTINUOUS
 10
5.9720718246
 20
5.6209537839
 40
0.7753350077
100
AcDbArc
 50
345.2369687319
 51
346.9554333656
  0
ARC
  5
338
100
AcDbEntity
  8
0
100
AcDbCircle
 62
7
  6
CONTINUOUS
 10
5.9720718246
 20
5.6209537839
 40
0.7753350077
100
AcDbArc
 50
13.3860984186
 51
14.7630312681
  0
ARC
  5
339
100
AcDbEntity
  8
0
100
AcDbCircle
 62
7
  6
CONTINUOUS
 10
5.9720718246
 20
5.6209537839
 40
0.7753350077
100
AcDbArc
 50
2.494848989
 51
7.410452506
  0
ARC
  5
33A
100
AcDbEntity
  8
0
100
AcDbCircle
 62
7
  6
CONTINUOUS
 10
5.9720718246
 20
5.6209537839
 40
0.7753350077
100
AcDbArc
 50
359.8891527894
 51
1.163975047
  0
ARC
  5
33B
100
AcDbEntity
  8
0
100
AcDbCircle
 62
7
  6
CONTINUOUS
 10
5.9720718246
 20
5.6209537839
 40
0.7753350077
100
AcDbArc
 50
348.543590194
 51
354.0776119357
  0
ARC
  5
33C
100
AcDbEntity
  8
0
100
AcDbCircle
 62
7
  6
CONTINUOUS
 10
5.9720718246
 20
5.6209537839
 40
0.7748350077
100
AcDbArc
 50
347.8411402403
 51
348.5360971636
  0
ARC
  5
33D
100
AcDbEntity
  8
0
100
AcDbCircle
 62
7
  6
CONTINUOUS
 10
5.9720718246
 20
5.6209537839
 40
0.7748350077
100
AcDbArc
 50
354.7370059033
 51
355.4215825475
  0
ARC
  5
33E
100
AcDbEntity
  8
0
100
AcDbCircle
 62
7
  6
CONTINUOUS
 10
5.9720718246
 20
5.6209537839
 40
0.7748350077
100
AcDbArc
 50
358.569000377
 51
359.2165192739
  0
ARC
  5
33F
100
AcDbEntity
  8
0
100
AcDbCircle
 62
7
  6
CONTINUOUS
 10
5.9720718246
 20
5.6209537839
 40
0.7748350077
100
AcDbArc
 50
11.9408204221
 51
12.565596834
  0
ARC
  5
340
100
AcDbEntity
  8
0
100
AcDbCircle
 62
7
  6
CONTINUOUS
 10
5.9720718246
 20
5.6209537839
 40
0.7748350077
100
AcDbArc
 50
7.4152613312
 51
8.7647558063
  0
ARC
  5
341
100
AcDbEntity
  8
0
100
AcDbCircle
 62
7
  6
CONTINUOUS
 10
5.9720718246
 20
5.6209537839
 40
0.7748350077
100
AcDbArc
 50
1.164726262
 51
2.496459931
  0
ARC
  5
342
100
AcDbEntity
  8
0
100
AcDbCircle
 62
7
  6
CONTINUOUS
 10
5.9720718246
 20
5.6209537839
 40
0.7746324123
100
AcDbArc
 50
8.997134317
 51
10.0419785903
  0
ARC
  5
343
100
AcDbEntity
  8
0
100
AcDbCircle
 62
7
  6
CONTINUOUS
 10
5.9720718246
 20
5.6209537839
 40
0.7741965992
100
AcDbArc
 50
7.0484061868
 51
10.2113995119
  0
ARC
  5
344
100
AcDbEntity
  8
0
100
AcDbCircle
 62
7
  6
CONTINUOUS
 10
5.9720718246
 20
5.6209537839
 40
0.7741965992
100
AcDbArc
 50
0.3700363569
 51
3.2951168004
  0
ARC
  5
345
100
AcDbEntity
  8
0
100
AcDbCircle
 62
7
  6
CONTINUOUS
 10
5.9720718246
 20
5.6209537839
 40
0.7741965992
100
AcDbArc
 50
352.0184844139
 51
352.6905233299
  0
ARC
  5
346
100
AcDbEntity
  8
0
100
AcDbCircle
 62
7
  6
CONTINUOUS
 10
5.9161560621
 20
5.6818933573
 40
0.219
100
AcDbArc
 50
38.9545376239
 51
77.807858722
  0
ARC
  5
347
100
AcDbEntity
  8
0
100
AcDbCircle
 62
7
  6
CONTINUOUS
 10
5.7165117138
 20
5.7904530894
 40
0.25
100
AcDbArc
 50
32.4798371001
 51
34.8900039694
  0
ARC
  5
348
100
AcDbEntity
  8
0
100
AcDbCircle
 62
7
  6
CONTINUOUS
 10
6.0744068323
 20
5.8098345302
 40
0.0155
100
AcDbArc
 50
0.0
 51
38.9545376239
  0
ARC
  5
349
100
AcDbEntity
  8
0
100
AcDbCircle
 62
7
  6
CONTINUOUS
 10
5.9469068323
 20
5.9092037839
 40
0.0155
100
AcDbArc
 50
0.0
 51
90.0
  0
ARC
  5
34A
100
AcDbEntity
  8
0
100
AcDbCircle
 62
7
  6
CONTINUOUS
 10
5.5828241631
 20
6.0592407479
 40
0.1505348454
100
AcDbArc
 50
264.9976496546
 51
271.0434040871
  0
ARC
  5
34B
100
AcDbEntity
  8
0
100
AcDbCircle
 62
7
  6
CONTINUOUS
 10
5.5795492523
 20
6.0634537839
 40
0.15
100
AcDbArc
 50
268.3634229584
 51
270.0
  0
ARC
  5
34C
100
AcDbEntity
  8
0
100
AcDbCircle
 62
7
  6
CONTINUOUS
 10
10.3988434823
 20
4.8916104902
 40
3.7118194943
100
AcDbArc
 50
170.426347541
 51
170.8700098242
  0
ARC
  5
34D
100
AcDbEntity
  8
0
100
AcDbCircle
 62
7
  6
CONTINUOUS
 10
7.6662544873
 20
5.3548147945
 40
0.9402467579
100
AcDbArc
 50
169.7702034276
 51
170.0006995107
  0
ARC
  5
34E
100
AcDbEntity
  8
0
100
AcDbCircle
 62
7
  6
CONTINUOUS
 10
7.6652254148
 20
5.354800004
 40
0.9397328607
100
AcDbArc
 50
169.7636325866
 51
169.9942593904
  0
ARC
  5
34F
100
AcDbEntity
  8
0
100
AcDbCircle
 62
7
  6
CONTINUOUS
 10
7.6298329239
 20
5.3610637784
 40
0.9037903663
100
AcDbArc
 50
169.9954747275
 51
170.233005136
  0
ARC
  5
350
100
AcDbEntity
  8
0
100
AcDbCircle
 62
7
  6
CONTINUOUS
 10
7.5075065284
 20
5.3825564211
 40
0.7790932896
100
AcDbArc
 50
169.9827437862
 51
170.2592622801
  0
ARC
  5
351
100
AcDbEntity
  8
0
100
AcDbCircle
 62
7
  6
CONTINUOUS
 10
6.3807607153
 20
5.2558141385
 40
0.68
100
AcDbArc
 50
67.6438963444
 51
71.2440132164
  0
ARC
  5
352
100
AcDbEntity
  8
0
100
AcDbCircle
 62
7
  6
CONTINUOUS
 10
6.61594774
 20
5.2568043935
 40
0.68
100
AcDbArc
 50
109.0137742001
 51
112.5744557109
  0
ARC
  5
353
100
AcDbEntity
  8
0
100
AcDbCircle
 62
7
  6
CONTINUOUS
 10
6.4969068323
 20
4.8808843395
 40
0.4725694444
100
AcDbArc
 50
99.1362409002
 51
102.5269812287
  0
ARC
  5
354
100
AcDbEntity
  8
0
100
AcDbCircle
 62
7
  6
CONTINUOUS
 10
6.4969068323
 20
4.8808843395
 40
0.4725694444
100
AcDbArc
 50
77.4730187713
 51
80.8642869768
  0
ARC
  5
355
100
AcDbEntity
  8
0
100
AcDbCircle
 62
7
  6
CONTINUOUS
 10
6.4969068323
 20
5.2028768995
 40
0.1375
100
AcDbArc
 50
125.7906197352
 51
54.2093802648
  0
ARC
  5
356
100
AcDbEntity
  8
0
100
AcDbCircle
 62
7
  6
CONTINUOUS
 10
6.5080882202
 20
5.466755714
 40
0.0974424633
100
AcDbArc
 50
298.5100395351
 51
304.5043833188
  0
ARC
  5
357
100
AcDbEntity
  8
0
100
AcDbCircle
 62
7
  6
CONTINUOUS
 10
6.4849401832
 20
5.4654746516
 40
0.0959419678
100
AcDbArc
 50
235.4486796574
 51
241.5366392037
  0
ARC
  5
358
100
AcDbEntity
  8
0
100
AcDbCircle
 62
7
  6
CONTINUOUS
 10
6.4790370299
 20
5.4545890522
 40
0.0833919189
100
AcDbArc
 50
231.4119707811
 51
234.5105867103
  0
ARC
  5
359
100
AcDbEntity
  8
0
100
AcDbCircle
 62
7
  6
CONTINUOUS
 10
6.5152699786
 20
5.4539352818
 40
0.0825731951
100
AcDbArc
 50
305.4740103847
 51
308.6033948653
  0
ARC
  5
35A
100
AcDbEntity
  8
0
100
AcDbCircle
 62
7
  6
CONTINUOUS
 10
6.6797830566
 20
5.5417785755
 40
0.0632197757
100
AcDbArc
 50
342.2011394019
 51
349.6806963396
  0
ARC
  5
35B
100
AcDbEntity
  8
0
100
AcDbCircle
 62
7
  6
CONTINUOUS
 10
6.5418986587
 20
5.3012239595
 40
0.0530081736
100
AcDbArc
 50
357.9686694482
 51
359.9996064544
  0
ARC
  5
35C
100
AcDbEntity
  8
0
100
AcDbCircle
 62
7
  6
CONTINUOUS
 10
6.451914715
 20
5.3012239533
 40
0.0530078827
100
AcDbArc
 50
180.0003868726
 51
182.0186714192
  0
ARC
  5
35D
100
AcDbEntity
  8
0
100
AcDbCircle
 62
7
  6
CONTINUOUS
 10
6.7073066588
 20
5.4272037839
 40
0.015
100
AcDbArc
 50
279.9847582361
 51
345.2369687319
  0
ARC
  5
35E
100
AcDbEntity
  8
0
100
AcDbCircle
 62
7
  6
CONTINUOUS
 10
6.3807607153
 20
5.9860934293
 40
0.68
100
AcDbArc
 50
288.7559867836
 51
292.3561036556
  0
ARC
  5
35F
100
AcDbEntity
  8
0
100
AcDbCircle
 62
7
  6
CONTINUOUS
 10
6.61594774
 20
5.9851031743
 40
0.68
100
AcDbArc
 50
247.4255442891
 51
250.9862257999
  0
ARC
  5
360
100
AcDbEntity
  8
0
100
AcDbCircle
 62
7
  6
CONTINUOUS
 10
6.4969068323
 20
6.3610232284
 40
0.4725694444
100
AcDbArc
 50
257.4730187713
 51
260.8648475463
  0
ARC
  5
361
100
AcDbEntity
  8
0
100
AcDbCircle
 62
7
  6
CONTINUOUS
 10
6.4969068323
 20
6.3610232284
 40
0.4725694444
100
AcDbArc
 50
279.1353838165
 51
282.5269812287
  0
ARC
  5
362
100
AcDbEntity
  8
0
100
AcDbCircle
 62
7
  6
CONTINUOUS
 10
6.9172243977
 20
5.7340234885
 40
0.1772908219
100
AcDbArc
 50
185.4990356029
 51
185.8498161421
  0
ARC
  5
363
100
AcDbEntity
  8
0
100
AcDbCircle
 62
7
  6
CONTINUOUS
 10
6.4969068323
 20
6.0390306683
 40
0.1375
100
AcDbArc
 50
305.7906197352
 51
234.2093802648
  0
ARC
  5
364
100
AcDbEntity
  8
0
100
AcDbCircle
 62
7
  6
CONTINUOUS
 10
6.4857258618
 20
5.7751511842
 40
0.0974432516
100
AcDbArc
 50
118.5091483942
 51
124.5043625461
  0
ARC
  5
365
100
AcDbEntity
  8
0
100
AcDbCircle
 62
7
  6
CONTINUOUS
 10
6.5088731368
 20
5.7764323922
 40
0.0959425949
100
AcDbArc
 50
55.4486876333
 51
61.5376484633
  0
ARC
  5
366
100
AcDbEntity
  8
0
100
AcDbCircle
 62
7
  6
CONTINUOUS
 10
6.5147766325
 20
5.7873185128
 40
0.0833919225
100
AcDbArc
 50
51.4119708188
 51
54.5105914991
  0
ARC
  5
367
100
AcDbEntity
  8
0
100
AcDbCircle
 62
7
  6
CONTINUOUS
 10
6.4785436693
 20
5.7879723074
 40
0.082573168
100
AcDbArc
 50
125.4740532262
 51
128.6033950994
  0
ARC
  5
368
100
AcDbEntity
  8
0
100
AcDbCircle
 62
7
  6
CONTINUOUS
 10
6.7073066588
 20
5.8147037839
 40
0.015
100
AcDbArc
 50
14.7630312681
 51
80.0152417639
  0
SPLINE
  5
369
100
AcDbEntity
  8
0
100
AcDbSpline
 62
7
  6
CONTINUOUS
 70
0
 71
3
 72
36
 73
32
 74
0
 42
0.0000001
 43
0.0000001
 44
0.0000000001
 40
0.0
 40
0.0
 40
0.0
 40
0.0
 40
0.0024048649
 40
0.003919735
 40
0.0045600184
 40
0.0047792271
 40
0.0058431583
 40
0.0077373127
 40
0.0104459187
 40
0.0139518202
 40
0.0182380424
 40
0.0232878798
 40
0.0290849076
 40
0.035612994
 40
0.0507985343
 40
0.0687123392
 40
0.0892190571
 40
0.1121868364
 40
0.1374875421
 40
0.1649925565
 40
0.194573035
 40
0.2261028758
 40
0.2945193195
 40
0.3693152906
 40
0.4496059039
 40
0.5345296137
 40
0.6232007449
 40
0.7147402706
 40
0.8083997213
 40
0.9036518446
 40
1.0
 40
1.0
 40
1.0
 40
1.0
 10
3.3175740005
 20
5.3850765045
 30
0.0
 10
3.3175823291
 20
5.3850862104
 30
0.0
 10
3.3175979998
 20
5.3851048087
 30
0.0
 10
3.3176078243
 20
5.3851162997
 30
0.0
 10
3.3176231398
 20
5.3851352954
 30
0.0
 10
3.3176148521
 20
5.3851248915
 30
0.0
 10
3.3176061057
 20
5.3851134513
 30
0.0
 10
3.3175869414
 20
5.3850881921
 30
0.0
 10
3.3175617818
 20
5.3850540542
 30
0.0
 10
3.3175289051
 20
5.3850085626
 30
0.0
 10
3.3174895726
 20
5.3849528535
 30
0.0
 10
3.3174438288
 20
5.3848865927
 30
0.0
 10
3.3173921692
 20
5.3848099908
 30
0.0
 10
3.3173117001
 20
5.3846877923
 30
0.0
 10
3.317198932
 20
5.3845097354
 30
0.0
 10
3.3170517268
 20
5.3842655673
 30
0.0
 10
3.3168892532
 20
5.3839823638
 30
0.0
 10
3.3167142208
 20
5.3836611703
 30
0.0
 10
3.3165293975
 20
5.3833030387
 30
0.0
 10
3.3163371571
 20
5.3829092812
 30
0.0
 10
3.3161397013
 20
5.3824813266
 30
0.0
 10
3.3158648699
 20
5.3818496272
 30
0.0
 10
3.3155236511
 20
5.3809848604
 30
0.0
 10
3.3151363827
 20
5.3798607011
 30
0.0
 10
3.3147738382
 20
5.3786364053
 30
0.0
 10
3.3144491505
 20
5.3773253582
 30
0.0
 10
3.3141700368
 20
5.3759427748
 30
0.0
 10
3.3139448225
 20
5.3745033131
 30
0.0
 10
3.313780485
 20
5.3730204048
 30
0.0
 10
3.3136796607
 20
5.3715062365
 30
0.0
 10
3.3136568323
 20
5.3704871283
 30
0.0
 10
3.3136568323
 20
5.3699747317
 30
0.0
  0
SPLINE
  5
36A
100
AcDbEntity
  8
0
100
AcDbSpline
 62
7
  6
CONTINUOUS
 70
0
 71
3
 72
35
 73
31
 74
0
 42
0.0000001
 43
0.0000001
 44
0.0000000001
 40
0.0
 40
0.0
 40
0.0
 40
0.0
 40
0.0929031025
 40
0.1847506444
 40
0.2751112058
 40
0.3635445909
 40
0.4494876251
 40
0.5321752019
 40
0.6108062685
 40
0.6845837398
 40
0.7527294195
 40
0.8144375835
 40
0.8426174778
 40
0.8688665889
 40
0.8930709203
 40
0.9151138687
 40
0.9348784511
 40
0.9522512312
 40
0.9671163636
 40
0.9793544509
 40
0.9844502241
 40
0.988843559
 40
0.9925208943
 40
0.9954687276
 40
0.9976732809
 40
0.9991205099
 40
0.9997961152
 40
0.9998427517
 40
0.9998455193
 40
1.0
 40
1.0
 40
1.0
 40
1.0
 10
3.2021568323
 20
5.3699747317
 30
0.0
 10
3.2021568323
 20
5.370466642
 30
0.0
 10
3.2021357668
 20
5.3714450008
 30
0.0
 10
3.2020427642
 20
5.3728991161
 30
0.0
 10
3.2018912416
 20
5.3743245311
 30
0.0
 10
3.2016836435
 20
5.3757112598
 30
0.0
 10
3.2014244889
 20
5.3770478967
 30
0.0
 10
3.2011219487
 20
5.3783220663
 30
0.0
 10
3.2007835893
 20
5.3795204035
 30
0.0
 10
3.2004175975
 20
5.3806297575
 30
0.0
 10
3.2000370818
 20
5.3816389081
 30
0.0
 10
3.1997089086
 20
5.3824089469
 30
0.0
 10
3.1994491338
 20
5.3829663583
 30
0.0
 10
3.1992653607
 20
5.3833399945
 30
0.0
 10
3.1990887511
 20
5.3836808439
 30
0.0
 10
3.1989214111
 20
5.3839877382
 30
0.0
 10
3.1987654272
 20
5.3842595341
 30
0.0
 10
3.1986233383
 20
5.3844954162
 30
0.0
 10
3.1984976789
 20
5.3846945853
 30
0.0
 10
3.1984037442
 20
5.3848369216
 30
0.0
 10
3.1983388135
 20
5.3849318223
 30
0.0
 10
3.1982987148
 20
5.3849890142
 30
0.0
 10
3.1982649799
 20
5.3850361467
 30
0.0
 10
3.1982366375
 20
5.3850746091
 30
0.0
 10
3.1982173823
 20
5.3851007522
 30
0.0
 10
3.1982000964
 20
5.3851226032
 30
0.0
 10
3.1981974907
 20
5.3851268701
 30
0.0
 10
3.1981925397
 20
5.385132678
 30
0.0
 10
3.198193386
 20
5.385131912
 30
0.0
 10
3.1981937898
 20
5.3851312139
 30
0.0
 10
3.1981943063
 20
5.3851305797
 30
0.0
  0
SPLINE
  5
36B
100
AcDbEntity
  8
0
100
AcDbSpline
 62
7
  6
CONTINUOUS
 70
0
 71
3
 72
13
 73
9
 74
0
 42
0.0000001
 43
0.0000001
 44
0.0000000001
 40
0.0
 40
0.0
 40
0.0
 40
0.0
 40
0.2227260226
 40
0.3435535391
 40
0.4691597428
 40
0.5984230392
 40
0.7304317417
 40
1.0
 40
1.0
 40
1.0
 40
1.0
 10
3.2004086889
 20
5.3593182309
 30
0.0
 10
3.2006767137
 20
5.3600776795
 30
0.0
 10
3.201038027
 20
5.3612682834
 30
0.0
 10
3.2014285316
 20
5.3629194872
 30
0.0
 10
3.2016860759
 20
5.3642537714
 30
0.0
 10
3.2018928979
 20
5.3656377734
 30
0.0
 10
3.2020951759
 20
5.367546942
 30
0.0
 10
3.2021568323
 20
5.3689999977
 30
0.0
 10
3.2021568323
 20
5.3699747317
 30
0.0
  0
SPLINE
  5
36C
100
AcDbEntity
  8
0
100
AcDbSpline
 62
7
  6
CONTINUOUS
 70
0
 71
3
 72
14
 73
10
 74
0
 42
0.0000001
 43
0.0000001
 44
0.0000000001
 40
0.0
 40
0.0
 40
0.0
 40
0.0
 40
0.2697000113
 40
0.4016523866
 40
0.5308057303
 40
0.6563467233
 40
0.7771667314
 40
0.8921036741
 40
1.0
 40
1.0
 40
1.0
 40
1.0
 10
3.3136568323
 20
5.3699747317
 30
0.0
 10
3.3136568323
 20
5.3689996752
 30
0.0
 10
3.3137185801
 20
5.3675465742
 30
0.0
 10
3.3139208351
 20
5.3656378442
 30
0.0
 10
3.3141272252
 20
5.3642548327
 30
0.0
 10
3.3143849368
 20
5.3629215071
 30
0.0
 10
3.3146859005
 20
5.3616500479
 30
0.0
 10
3.3150225857
 20
5.3604537374
 30
0.0
 10
3.3152743239
 20
5.3596881537
 30
0.0
 10
3.3154042029
 20
5.3593203289
 30
0.0
  0
SPLINE
  5
36D
100
AcDbEntity
  8
0
100
AcDbSpline
 62
7
  6
CONTINUOUS
 70
0
 71
3
 72
15
 73
11
 74
0
 42
0.0000001
 43
0.0000001
 44
0.0000000001
 40
0.0
 40
0.0
 40
0.0
 40
0.0
 40
0.1254152853
 40
0.2506780607
 40
0.3758006316
 40
0.5007994403
 40
0.6256945455
 40
0.7505090711
 40
0.8752685115
 40
1.0
 40
1.0
 40
1.0
 40
1.0
 10
4.7008950245
 20
3.1842039248
 30
0.0
 10
4.6968354957
 20
3.1792736471
 30
0.0
 10
4.6891381074
 20
3.169067181
 30
0.0
 10
4.678952882
 20
3.1528395803
 30
0.0
 10
4.6702053619
 20
3.1358160669
 30
0.0
 10
4.66296023
 20
3.1181214299
 30
0.0
 10
4.6572697654
 20
3.0998837419
 30
0.0
 10
4.6531753724
 20
3.0812348683
 30
0.0
 10
4.6507067667
 20
3.0623119134
 30
0.0
 10
4.6501568323
 20
3.0496002777
 30
0.0
 10
4.6501568323
 20
3.0432485962
 30
0.0
  0
SPLINE
  5
36E
100
AcDbEntity
  8
0
100
AcDbSpline
 62
7
  6
CONTINUOUS
 70
0
 71
3
 72
15
 73
11
 74
0
 42
0.0000001
 43
0.0000001
 44
0.0000000001
 40
0.0
 40
0.0
 40
0.0
 40
0.0
 40
0.1254152853
 40
0.2506780607
 40
0.3758006316
 40
0.5007994403
 40
0.6256945455
 40
0.7505090711
 40
0.8752685115
 40
1.0
 40
1.0
 40
1.0
 40
1.0
 10
5.0539186401
 20
3.1842039248
 30
0.0
 10
5.0579781689
 20
3.1792736471
 30
0.0
 10
5.0656755572
 20
3.169067181
 30
0.0
 10
5.0758607826
 20
3.1528395803
 30
0.0
 10
5.0846083027
 20
3.1358160669
 30
0.0
 10
5.0918534346
 20
3.1181214299
 30
0.0
 10
5.0975438992
 20
3.0998837419
 30
0.0
 10
5.1016382922
 20
3.0812348683
 30
0.0
 10
5.1041068979
 20
3.0623119134
 30
0.0
 10
5.1046568323
 20
3.0496002777
 30
0.0
 10
5.1046568323
 20
3.0432485962
 30
0.0
  0
SPLINE
  5
36F
100
AcDbEntity
  8
0
100
AcDbSpline
 62
7
  6
CONTINUOUS
 70
0
 71
3
 72
47
 73
43
 74
0
 42
0.0000001
 43
0.0000001
 44
0.0000000001
 40
0.0
 40
0.0
 40
0.0
 40
0.0
 40
0.0135071951
 40
0.0270339409
 40
0.0406019459
 40
0.0542305977
 40
0.0679393258
 40
0.0817469715
 40
0.0956715689
 40
0.1097298971
 40
0.1382965108
 40
0.1675656681
 40
0.1976137348
 40
0.2284842626
 40
0.2601869622
 40
0.2926982633
 40
0.3259637077
 40
0.3599011863
 40
0.3944051088
 40
0.4293506987
 40
0.4645987995
 40
0.5000005609
 40
0.5354023132
 40
0.5706503862
 40
0.605595933
 40
0.6400997986
 40
0.6740372035
 40
0.7073025625
 40
0.7398137648
 40
0.7715163595
 40
0.8023867795
 40
0.8324347359
 40
0.8617037877
 40
0.8902703048
 40
0.9043285913
 40
0.9182531469
 40
0.9320607595
 40
0.9457694579
 40
0.959398083
 40
0.9729660701
 40
0.9864928168
 40
1.0
 40
1.0
 40
1.0
 40
1.0
 10
3.3559068323
 20
5.3012235954
 30
0.0
 10
3.3559068323
 20
5.3024310096
 30
0.0
 10
3.355824127
 20
5.3048483968
 30
0.0
 10
3.3554527251
 20
5.3084614479
 30
0.0
 10
3.3548356
 20
5.3120518809
 30
0.0
 10
3.3539754634
 20
5.3156085949
 30
0.0
 10
3.352876074
 20
5.3191211775
 30
0.0
 10
3.3515418409
 20
5.3225796842
 30
0.0
 10
3.3499780115
 20
5.3259750724
 30
0.0
 10
3.3475822452
 20
5.3304293284
 30
0.0
 10
3.3440284172
 20
5.3358033665
 30
0.0
 10
3.338971556
 20
5.3418353352
 30
0.0
 10
3.3331565794
 20
5.3474399086
 30
0.0
 10
3.3266450556
 20
5.3525740954
 30
0.0
 10
3.3195009881
 20
5.3572003522
 30
0.0
 10
3.3117918196
 20
5.361284555
 30
0.0
 10
3.3035886745
 20
5.3647961377
 30
0.0
 10
3.2949665334
 20
5.3677081928
 30
0.0
 10
3.2860040754
 20
5.3699978735
 30
0.0
 10
3.2767832503
 20
5.3716468419
 30
0.0
 10
3.2673886462
 20
5.3726416799
 30
0.0
 10
3.2579066825
 20
5.372974202
 30
0.0
 10
3.248424722
 20
5.3726416578
 30
0.0
 10
3.2390301272
 20
5.3716467992
 30
0.0
 10
3.2298093171
 20
5.369997813
 30
0.0
 10
3.2208468785
 20
5.3677081187
 30
0.0
 10
3.2122247618
 20
5.3647960517
 30
0.0
 10
3.2040216454
 20
5.3612844605
 30
0.0
 10
3.1963125086
 20
5.3572002533
 30
0.0
 10
3.1891684737
 20
5.3525739974
 30
0.0
 10
3.1826569822
 20
5.3474398166
 30
0.0
 10
3.1768420352
 20
5.3418352544
 30
0.0
 10
3.1717851994
 20
5.3358033011
 30
0.0
 10
3.1682313878
 20
5.3304292783
 30
0.0
 10
3.165835635
 20
5.3259750333
 30
0.0
 10
3.1642718102
 20
5.3225796545
 30
0.0
 10
3.1629375833
 20
5.3191211554
 30
0.0
 10
3.1618381973
 20
5.3156085802
 30
0.0
 10
3.1609780626
 20
5.3120518725
 30
0.0
 10
3.1603609388
 20
5.3084614433
 30
0.0
 10
3.1599895377
 20
5.3048483948
 30
0.0
 10
3.1599068323
 20
5.3024310086
 30
0.0
 10
3.1599068323
 20
5.3012235954
 30
0.0
  0
SPLINE
  5
370
100
AcDbEntity
  8
0
100
AcDbSpline
 62
7
  6
CONTINUOUS
 70
0
 71
3
 72
22
 73
18
 74
0
 42
0.0000001
 43
0.0000001
 44
0.0000000001
 40
0.0
 40
0.0
 40
0.0
 40
0.0
 40
0.0635648955
 40
0.1325284862
 40
0.2056340274
 40
0.2816786747
 40
0.4379638394
 40
0.5160523732
 40
0.5925970738
 40
0.6664634207
 40
0.7364611951
 40
0.8013481316
 40
0.8598005373
 40
0.910412708
 40
0.9516977313
 40
0.9820953995
 40
1.0
 40
1.0
 40
1.0
 40
1.0
 10
3.3154040783
 20
5.8825865273
 30
0.0
 10
3.3152164847
 20
5.8820548217
 30
0.0
 10
3.3148597907
 20
5.8809338008
 30
0.0
 10
3.3144136722
 20
5.8791641372
 30
0.0
 10
3.3140524105
 20
5.8772621863
 30
0.0
 10
3.3137098603
 20
5.874573436
 30
0.0
 10
3.3136083153
 20
5.8718138092
 30
0.0
 10
3.3137566138
 20
5.8690586976
 30
0.0
 10
3.3139854882
 20
5.8670435081
 30
0.0
 10
3.3143248725
 20
5.8651169617
 30
0.0
 10
3.3147534092
 20
5.8633144249
 30
0.0
 10
3.3152516995
 20
5.8616724066
 30
0.0
 10
3.3157863909
 20
5.8602240416
 30
0.0
 10
3.3163237429
 20
5.8590026119
 30
0.0
 10
3.3168182036
 20
5.8580363237
 30
0.0
 10
3.3172220377
 20
5.8573514808
 30
0.0
 10
3.3174594678
 20
5.8569944778
 30
0.0
 10
3.3175528194
 20
5.8568659944
 30
0.0
  0
SPLINE
  5
371
100
AcDbEntity
  8
0
100
AcDbSpline
 62
7
  6
CONTINUOUS
 70
0
 71
3
 72
26
 73
22
 74
0
 42
0.0000001
 43
0.0000001
 44
0.0000000001
 40
0.0
 40
0.0
 40
0.0
 40
0.0
 40
0.1415143401
 40
0.2115327821
 40
0.2806382253
 40
0.3485749006
 40
0.4151273793
 40
0.4801304884
 40
0.5434779967
 40
0.6051292227
 40
0.6651139074
 40
0.7235328631
 40
0.7805549088
 40
0.8086252947
 40
0.8364366982
 40
0.8640251836
 40
0.8914285975
 40
0.91868652
 40
0.9458399269
 40
0.9729303283
 40
1.0
 40
1.0
 40
1.0
 40
1.0
 10
3.2579068323
 20
5.8690443622
 30
0.0
 10
3.2643193871
 20
5.8690443622
 30
0.0
 10
3.2739243233
 20
5.8697254358
 30
0.0
 10
3.2864437038
 20
5.8720019957
 30
0.0
 10
3.2955339955
 20
5.8743647656
 30
0.0
 10
3.3042667745
 20
5.877368605
 30
0.0
 10
3.3125608947
 20
5.8809894033
 30
0.0
 10
3.3203377667
 20
5.8851985674
 30
0.0
 10
3.3275232701
 20
5.8899636858
 30
0.0
 10
3.3340470685
 20
5.8952485454
 30
0.0
 10
3.3398424372
 20
5.901013218
 30
0.0
 10
3.3448451745
 20
5.9072117746
 30
0.0
 10
3.3483224634
 20
5.9127275001
 30
0.0
 10
3.3506371494
 20
5.9172932528
 30
0.0
 10
3.3521310191
 20
5.9207710429
 30
0.0
 10
3.3533854008
 20
5.924310136
 30
0.0
 10
3.354395209
 20
5.9279006946
 30
0.0
 10
3.3551561577
 20
5.9315320159
 30
0.0
 10
3.3556646532
 20
5.9351929842
 30
0.0
 10
3.3559185134
 20
5.9388716688
 30
0.0
 10
3.3559170832
 20
5.9413282032
 30
0.0
 10
3.3558738267
 20
5.9425540704
 30
0.0
  0
SPLINE
  5
372
100
AcDbEntity
  8
0
100
AcDbSpline
 62
7
  6
CONTINUOUS
 70
0
 71
3
 72
42
 73
38
 74
0
 42
0.0000001
 43
0.0000001
 44
0.0000000001
 40
0.0
 40
0.0
 40
0.0
 40
0.0
 40
0.0000550989
 40
0.0000579221
 40
0.0000715179
 40
0.000289068
 40
0.0014970393
 40
0.0037128448
 40
0.006906619
 40
0.0110487642
 40
0.0161103913
 40
0.0220633568
 40
0.0288792272
 40
0.0365279038
 40
0.0449795339
 40
0.0641745998
 40
0.0862370847
 40
0.1109404011
 40
0.1380624834
 40
0.1673894735
 40
0.1987141955
 40
0.2318340482
 40
0.266552117
 40
0.3026797245
 40
0.3400354396
 40
0.378440712
 40
0.4177205669
 40
0.4577057899
 40
0.4982320613
 40
0.5391356615
 40
0.5802540305
 40
0.6214268292
 40
0.7032859497
 40
0.7834270948
 40
0.8605298168
 40
0.933205394
 40
1.0
 40
1.0
 40
1.0
 40
1.0
 10
3.1981936716
 20
5.8567762089
 30
0.0
 10
3.1981933641
 20
5.8567758262
 30
0.0
 10
3.1981930828
 20
5.8567754981
 30
0.0
 10
3.198192631
 20
5.856774897
 30
0.0
 10
3.1981950476
 20
5.8567779462
 30
0.0
 10
3.198199437
 20
5.8567835321
 30
0.0
 10
3.1982236314
 20
5.8568150912
 30
0.0
 10
3.1982557562
 20
5.8568587529
 30
0.0
 10
3.1983066979
 20
5.8569296476
 30
0.0
 10
3.198369151
 20
5.8570196968
 30
0.0
 10
3.1984446259
 20
5.8571320538
 30
0.0
 10
3.198530999
 20
5.8572652546
 30
0.0
 10
3.1986275162
 20
5.8574194899
 30
0.0
 10
3.1987330863
 20
5.8575942372
 30
0.0
 10
3.1988914662
 20
5.8578659083
 30
0.0
 10
3.1991051424
 20
5.8582539087
 30
0.0
 10
3.1993719547
 20
5.8587776118
 30
0.0
 10
3.1996522649
 20
5.859373344
 30
0.0
 10
3.1999394057
 20
5.8600370122
 30
0.0
 10
3.2002265728
 20
5.8607645103
 30
0.0
 10
3.2005086418
 20
5.8615510208
 30
0.0
 10
3.2007807056
 20
5.8623916939
 30
0.0
 10
3.2010377032
 20
5.8632817376
 30
0.0
 10
3.2012750758
 20
5.8642162063
 30
0.0
 10
3.2014899773
 20
5.8651897641
 30
0.0
 10
3.2016793617
 20
5.8661972033
 30
0.0
 10
3.2018401649
 20
5.8672333229
 30
0.0
 10
3.2019696705
 20
5.8682928579
 30
0.0
 10
3.2020669856
 20
5.8693703546
 30
0.0
 10
3.2021309972
 20
5.8704604532
 30
0.0
 10
3.2021607267
 20
5.8715578071
 30
0.0
 10
3.2021529781
 20
5.8730204337
 30
0.0
 10
3.2020574519
 20
5.8748293073
 30
0.0
 10
3.2018120194
 20
5.8769467445
 30
0.0
 10
3.2014456469
 20
5.8789635168
 30
0.0
 10
3.2009830649
 20
5.8808379872
 30
0.0
 10
3.2006080943
 20
5.8820236679
 30
0.0
 10
3.200410142
 20
5.8825848613
 30
0.0
  0
SPLINE
  5
373
100
AcDbEntity
  8
0
100
AcDbSpline
 62
7
  6
CONTINUOUS
 70
0
 71
3
 72
26
 73
22
 74
0
 42
0.0000001
 43
0.0000001
 44
0.0000000001
 40
0.0
 40
0.0
 40
0.0
 40
0.0
 40
0.0270696636
 40
0.0541600583
 40
0.0813134442
 40
0.1085713678
 40
0.1359747536
 40
0.1635632489
 40
0.1913746302
 40
0.2194450064
 40
0.2764670264
 40
0.3348859693
 40
0.3948706471
 40
0.4565218696
 40
0.5198693892
 40
0.5848725178
 40
0.6514250216
 40
0.7193617267
 40
0.7884671979
 40
0.8584856627
 40
1.0
 40
1.0
 40
1.0
 40
1.0
 10
3.1599398925
 20
5.9425554977
 30
0.0
 10
3.1598966032
 20
5.9413296191
 30
0.0
 10
3.1598950917
 20
5.9388730596
 30
0.0
 10
3.1601488762
 20
5.9351943321
 30
0.0
 10
3.1606572806
 20
5.9315333137
 30
0.0
 10
3.1614181449
 20
5.9279019366
 30
0.0
 10
3.1624278944
 20
5.9243113218
 30
0.0
 10
3.1636821987
 20
5.9207721613
 30
0.0
 10
3.1651760237
 20
5.9172943095
 30
0.0
 10
3.1674906422
 20
5.9127284656
 30
0.0
 10
3.1709678777
 20
5.9072126268
 30
0.0
 10
3.1759705761
 20
5.9010139337
 30
0.0
 10
3.1817659366
 20
5.8952491315
 30
0.0
 10
3.1882897517
 20
5.8899641518
 30
0.0
 10
3.1954752939
 20
5.8851989252
 30
0.0
 10
3.2032522233
 20
5.8809896664
 30
0.0
 10
3.2115464156
 20
5.8773687867
 30
0.0
 10
3.2202792783
 20
5.8743648805
 30
0.0
 10
3.2293696624
 20
5.8720020587
 30
0.0
 10
3.2418891721
 20
5.8697254501
 30
0.0
 10
3.2514942104
 20
5.8690443622
 30
0.0
 10
3.2579068323
 20
5.8690443622
 30
0.0
  0
SPLINE
  5
374
100
AcDbEntity
  8
0
100
AcDbSpline
 62
7
  6
CONTINUOUS
 70
0
 71
3
 72
13
 73
9
 74
0
 42
0.0000001
 43
0.0000001
 44
0.0000000001
 40
0.0
 40
0.0
 40
0.0
 40
0.0
 40
0.2227260226
 40
0.3435535391
 40
0.4691597428
 40
0.5984230392
 40
0.7304317417
 40
1.0
 40
1.0
 40
1.0
 40
1.0
 10
6.4394086889
 20
5.3593182309
 30
0.0
 10
6.4396767137
 20
5.3600776795
 30
0.0
 10
6.440038027
 20
5.3612682834
 30
0.0
 10
6.4404285316
 20
5.3629194872
 30
0.0
 10
6.4406860759
 20
5.3642537714
 30
0.0
 10
6.4408928979
 20
5.3656377734
 30
0.0
 10
6.4410951759
 20
5.367546942
 30
0.0
 10
6.4411568323
 20
5.3689999977
 30
0.0
 10
6.4411568323
 20
5.3699747317
 30
0.0
  0
SPLINE
  5
375
100
AcDbEntity
  8
0
100
AcDbSpline
 62
7
  6
CONTINUOUS
 70
0
 71
3
 72
14
 73
10
 74
0
 42
0.0000001
 43
0.0000001
 44
0.0000000001
 40
0.0
 40
0.0
 40
0.0
 40
0.0
 40
0.2697000113
 40
0.4016523866
 40
0.5308057303
 40
0.6563467233
 40
0.7771667314
 40
0.8921036741
 40
1.0
 40
1.0
 40
1.0
 40
1.0
 10
6.5526568323
 20
5.3699747317
 30
0.0
 10
6.5526568323
 20
5.3689996752
 30
0.0
 10
6.5527185801
 20
5.3675465742
 30
0.0
 10
6.5529208351
 20
5.3656378442
 30
0.0
 10
6.5531272252
 20
5.3642548327
 30
0.0
 10
6.5533849368
 20
5.3629215071
 30
0.0
 10
6.5536859005
 20
5.3616500479
 30
0.0
 10
6.5540225857
 20
5.3604537374
 30
0.0
 10
6.5542743239
 20
5.3596881537
 30
0.0
 10
6.5544042029
 20
5.3593203289
 30
0.0
  0
SPLINE
  5
376
100
AcDbEntity
  8
0
100
AcDbSpline
 62
7
  6
CONTINUOUS
 70
0
 71
3
 72
47
 73
43
 74
0
 42
0.0000001
 43
0.0000001
 44
0.0000000001
 40
0.0
 40
0.0
 40
0.0
 40
0.0
 40
0.0135071951
 40
0.0270339409
 40
0.0406019459
 40
0.0542305977
 40
0.0679393258
 40
0.0817469715
 40
0.0956715689
 40
0.1097298971
 40
0.1382965108
 40
0.1675656681
 40
0.1976137348
 40
0.2284842626
 40
0.2601869622
 40
0.2926982633
 40
0.3259637077
 40
0.3599011863
 40
0.3944051088
 40
0.4293506987
 40
0.4645987995
 40
0.5000005609
 40
0.5354023132
 40
0.5706503862
 40
0.605595933
 40
0.6400997986
 40
0.6740372035
 40
0.7073025625
 40
0.7398137648
 40
0.7715163595
 40
0.8023867795
 40
0.8324347359
 40
0.8617037877
 40
0.8902703048
 40
0.9043285913
 40
0.9182531469
 40
0.9320607595
 40
0.9457694579
 40
0.959398083
 40
0.9729660701
 40
0.9864928168
 40
1.0
 40
1.0
 40
1.0
 40
1.0
 10
6.5949068323
 20
5.3012235954
 30
0.0
 10
6.5949068323
 20
5.3024310096
 30
0.0
 10
6.594824127
 20
5.3048483968
 30
0.0
 10
6.5944527251
 20
5.3084614479
 30
0.0
 10
6.5938356
 20
5.3120518809
 30
0.0
 10
6.5929754634
 20
5.3156085949
 30
0.0
 10
6.591876074
 20
5.3191211775
 30
0.0
 10
6.5905418409
 20
5.3225796842
 30
0.0
 10
6.5889780115
 20
5.3259750724
 30
0.0
 10
6.5865822452
 20
5.3304293284
 30
0.0
 10
6.5830284172
 20
5.3358033665
 30
0.0
 10
6.577971556
 20
5.3418353352
 30
0.0
 10
6.5721565794
 20
5.3474399086
 30
0.0
 10
6.5656450556
 20
5.3525740954
 30
0.0
 10
6.5585009881
 20
5.3572003522
 30
0.0
 10
6.5507918196
 20
5.361284555
 30
0.0
 10
6.5425886745
 20
5.3647961377
 30
0.0
 10
6.5339665334
 20
5.3677081928
 30
0.0
 10
6.5250040754
 20
5.3699978735
 30
0.0
 10
6.5157832503
 20
5.3716468419
 30
0.0
 10
6.5063886462
 20
5.3726416799
 30
0.0
 10
6.4969066825
 20
5.372974202
 30
0.0
 10
6.487424722
 20
5.3726416578
 30
0.0
 10
6.4780301272
 20
5.3716467992
 30
0.0
 10
6.4688093171
 20
5.369997813
 30
0.0
 10
6.4598468785
 20
5.3677081187
 30
0.0
 10
6.4512247618
 20
5.3647960517
 30
0.0
 10
6.4430216454
 20
5.3612844605
 30
0.0
 10
6.4353125086
 20
5.3572002533
 30
0.0
 10
6.4281684737
 20
5.3525739974
 30
0.0
 10
6.4216569822
 20
5.3474398166
 30
0.0
 10
6.4158420352
 20
5.3418352544
 30
0.0
 10
6.4107851994
 20
5.3358033011
 30
0.0
 10
6.4072313878
 20
5.3304292783
 30
0.0
 10
6.404835635
 20
5.3259750333
 30
0.0
 10
6.4032718102
 20
5.3225796545
 30
0.0
 10
6.4019375833
 20
5.3191211554
 30
0.0
 10
6.4008381973
 20
5.3156085802
 30
0.0
 10
6.3999780626
 20
5.3120518725
 30
0.0
 10
6.3993609388
 20
5.3084614433
 30
0.0
 10
6.3989895377
 20
5.3048483948
 30
0.0
 10
6.3989068323
 20
5.3024310086
 30
0.0
 10
6.3989068323
 20
5.3012235954
 30
0.0
  0
SPLINE
  5
377
100
AcDbEntity
  8
0
100
AcDbSpline
 62
7
  6
CONTINUOUS
 70
0
 71
3
 72
36
 73
32
 74
0
 42
0.0000001
 43
0.0000001
 44
0.0000000001
 40
0.0
 40
0.0
 40
0.0
 40
0.0
 40
0.0024048649
 40
0.003919735
 40
0.0045600184
 40
0.0047792271
 40
0.0058431583
 40
0.0077373127
 40
0.0104459187
 40
0.0139518202
 40
0.0182380424
 40
0.0232878798
 40
0.0290849076
 40
0.035612994
 40
0.0507985343
 40
0.0687123392
 40
0.0892190571
 40
0.1121868364
 40
0.1374875421
 40
0.1649925565
 40
0.194573035
 40
0.2261028758
 40
0.2945193195
 40
0.3693152906
 40
0.4496059039
 40
0.5345296137
 40
0.6232007449
 40
0.7147402706
 40
0.8083997213
 40
0.9036518446
 40
1.0
 40
1.0
 40
1.0
 40
1.0
 10
6.5565740005
 20
5.3850765045
 30
0.0
 10
6.5565823291
 20
5.3850862104
 30
0.0
 10
6.5565979998
 20
5.3851048087
 30
0.0
 10
6.5566078243
 20
5.3851162997
 30
0.0
 10
6.5566231398
 20
5.3851352954
 30
0.0
 10
6.5566148521
 20
5.3851248915
 30
0.0
 10
6.5566061057
 20
5.3851134513
 30
0.0
 10
6.5565869414
 20
5.3850881921
 30
0.0
 10
6.5565617818
 20
5.3850540542
 30
0.0
 10
6.5565289051
 20
5.3850085626
 30
0.0
 10
6.5564895726
 20
5.3849528535
 30
0.0
 10
6.5564438288
 20
5.3848865927
 30
0.0
 10
6.5563921692
 20
5.3848099908
 30
0.0
 10
6.5563117001
 20
5.3846877923
 30
0.0
 10
6.556198932
 20
5.3845097354
 30
0.0
 10
6.5560517268
 20
5.3842655673
 30
0.0
 10
6.5558892532
 20
5.3839823638
 30
0.0
 10
6.5557142208
 20
5.3836611703
 30
0.0
 10
6.5555293975
 20
5.3833030387
 30
0.0
 10
6.5553371571
 20
5.3829092812
 30
0.0
 10
6.5551397013
 20
5.3824813266
 30
0.0
 10
6.5548648699
 20
5.3818496272
 30
0.0
 10
6.5545236511
 20
5.3809848604
 30
0.0
 10
6.5541363827
 20
5.3798607011
 30
0.0
 10
6.5537738382
 20
5.3786364053
 30
0.0
 10
6.5534491505
 20
5.3773253582
 30
0.0
 10
6.5531700368
 20
5.3759427748
 30
0.0
 10
6.5529448225
 20
5.3745033131
 30
0.0
 10
6.552780485
 20
5.3730204048
 30
0.0
 10
6.5526796607
 20
5.3715062365
 30
0.0
 10
6.5526568323
 20
5.3704871283
 30
0.0
 10
6.5526568323
 20
5.3699747317
 30
0.0
  0
SPLINE
  5
378
100
AcDbEntity
  8
0
100
AcDbSpline
 62
7
  6
CONTINUOUS
 70
0
 71
3
 72
35
 73
31
 74
0
 42
0.0000001
 43
0.0000001
 44
0.0000000001
 40
0.0
 40
0.0
 40
0.0
 40
0.0
 40
0.0929031025
 40
0.1847506444
 40
0.2751112058
 40
0.3635445909
 40
0.4494876251
 40
0.5321752019
 40
0.6108062685
 40
0.6845837398
 40
0.7527294195
 40
0.8144375835
 40
0.8426174778
 40
0.8688665889
 40
0.8930709203
 40
0.9151138687
 40
0.9348784511
 40
0.9522512312
 40
0.9671163636
 40
0.9793544509
 40
0.9844502241
 40
0.988843559
 40
0.9925208943
 40
0.9954687276
 40
0.9976732809
 40
0.9991205099
 40
0.9997961152
 40
0.9998427517
 40
0.9998455193
 40
1.0
 40
1.0
 40
1.0
 40
1.0
 10
6.4411568323
 20
5.3699747317
 30
0.0
 10
6.4411568323
 20
5.370466642
 30
0.0
 10
6.4411357668
 20
5.3714450008
 30
0.0
 10
6.4410427642
 20
5.3728991161
 30
0.0
 10
6.4408912416
 20
5.3743245311
 30
0.0
 10
6.4406836435
 20
5.3757112598
 30
0.0
 10
6.4404244889
 20
5.3770478967
 30
0.0
 10
6.4401219487
 20
5.3783220663
 30
0.0
 10
6.4397835893
 20
5.3795204035
 30
0.0
 10
6.4394175975
 20
5.3806297575
 30
0.0
 10
6.4390370818
 20
5.3816389081
 30
0.0
 10
6.4387089086
 20
5.3824089469
 30
0.0
 10
6.4384491338
 20
5.3829663583
 30
0.0
 10
6.4382653607
 20
5.3833399945
 30
0.0
 10
6.4380887511
 20
5.3836808439
 30
0.0
 10
6.4379214111
 20
5.3839877382
 30
0.0
 10
6.4377654272
 20
5.3842595341
 30
0.0
 10
6.4376233383
 20
5.3844954162
 30
0.0
 10
6.4374976789
 20
5.3846945853
 30
0.0
 10
6.4374037442
 20
5.3848369216
 30
0.0
 10
6.4373388135
 20
5.3849318223
 30
0.0
 10
6.4372987148
 20
5.3849890142
 30
0.0
 10
6.4372649799
 20
5.3850361467
 30
0.0
 10
6.4372366375
 20
5.3850746091
 30
0.0
 10
6.4372173823
 20
5.3851007522
 30
0.0
 10
6.4372000964
 20
5.3851226032
 30
0.0
 10
6.4371974907
 20
5.3851268701
 30
0.0
 10
6.4371925397
 20
5.385132678
 30
0.0
 10
6.437193386
 20
5.385131912
 30
0.0
 10
6.4371937898
 20
5.3851312139
 30
0.0
 10
6.4371943063
 20
5.3851305797
 30
0.0
  0
SPLINE
  5
379
100
AcDbEntity
  8
0
100
AcDbSpline
 62
7
  6
CONTINUOUS
 70
0
 71
3
 72
42
 73
38
 74
0
 42
0.0000001
 43
0.0000001
 44
0.0000000001
 40
0.0
 40
0.0
 40
0.0
 40
0.0
 40
0.0000550989
 40
0.0000579221
 40
0.0000715179
 40
0.000289068
 40
0.0014970393
 40
0.0037128448
 40
0.006906619
 40
0.0110487642
 40
0.0161103913
 40
0.0220633568
 40
0.0288792272
 40
0.0365279038
 40
0.0449795339
 40
0.0641745998
 40
0.0862370847
 40
0.1109404011
 40
0.1380624834
 40
0.1673894735
 40
0.1987141955
 40
0.2318340482
 40
0.266552117
 40
0.3026797245
 40
0.3400354396
 40
0.378440712
 40
0.4177205669
 40
0.4577057899
 40
0.4982320613
 40
0.5391356615
 40
0.5802540305
 40
0.6214268292
 40
0.7032859497
 40
0.7834270948
 40
0.8605298168
 40
0.933205394
 40
1.0
 40
1.0
 40
1.0
 40
1.0
 10
6.4371936716
 20
5.8567762089
 30
0.0
 10
6.4371933641
 20
5.8567758262
 30
0.0
 10
6.4371930828
 20
5.8567754981
 30
0.0
 10
6.437192631
 20
5.856774897
 30
0.0
 10
6.4371950476
 20
5.8567779462
 30
0.0
 10
6.437199437
 20
5.8567835321
 30
0.0
 10
6.4372236314
 20
5.8568150912
 30
0.0
 10
6.4372557562
 20
5.8568587529
 30
0.0
 10
6.4373066979
 20
5.8569296476
 30
0.0
 10
6.437369151
 20
5.8570196968
 30
0.0
 10
6.4374446259
 20
5.8571320538
 30
0.0
 10
6.437530999
 20
5.8572652546
 30
0.0
 10
6.4376275162
 20
5.8574194899
 30
0.0
 10
6.4377330863
 20
5.8575942372
 30
0.0
 10
6.4378914662
 20
5.8578659083
 30
0.0
 10
6.4381051424
 20
5.8582539087
 30
0.0
 10
6.4383719547
 20
5.8587776118
 30
0.0
 10
6.4386522649
 20
5.859373344
 30
0.0
 10
6.4389394057
 20
5.8600370122
 30
0.0
 10
6.4392265728
 20
5.8607645103
 30
0.0
 10
6.4395086418
 20
5.8615510208
 30
0.0
 10
6.4397807056
 20
5.8623916939
 30
0.0
 10
6.4400377032
 20
5.8632817376
 30
0.0
 10
6.4402750758
 20
5.8642162063
 30
0.0
 10
6.4404899773
 20
5.8651897641
 30
0.0
 10
6.4406793617
 20
5.8661972033
 30
0.0
 10
6.4408401649
 20
5.8672333229
 30
0.0
 10
6.4409696705
 20
5.8682928579
 30
0.0
 10
6.4410669856
 20
5.8693703546
 30
0.0
 10
6.4411309972
 20
5.8704604532
 30
0.0
 10
6.4411607267
 20
5.8715578071
 30
0.0
 10
6.4411529781
 20
5.8730204337
 30
0.0
 10
6.4410574519
 20
5.8748293073
 30
0.0
 10
6.4408120194
 20
5.8769467445
 30
0.0
 10
6.4404456469
 20
5.8789635168
 30
0.0
 10
6.4399830649
 20
5.8808379872
 30
0.0
 10
6.4396080943
 20
5.8820236679
 30
0.0
 10
6.439410142
 20
5.8825848613
 30
0.0
  0
SPLINE
  5
37A
100
AcDbEntity
  8
0
100
AcDbSpline
 62
7
  6
CONTINUOUS
 70
0
 71
3
 72
26
 73
22
 74
0
 42
0.0000001
 43
0.0000001
 44
0.0000000001
 40
0.0
 40
0.0
 40
0.0
 40
0.0
 40
0.0270696636
 40
0.0541600583
 40
0.0813134442
 40
0.1085713678
 40
0.1359747536
 40
0.1635632489
 40
0.1913746302
 40
0.2194450064
 40
0.2764670264
 40
0.3348859693
 40
0.3948706471
 40
0.4565218696
 40
0.5198693892
 40
0.5848725178
 40
0.6514250216
 40
0.7193617267
 40
0.7884671979
 40
0.8584856627
 40
1.0
 40
1.0
 40
1.0
 40
1.0
 10
6.3989398925
 20
5.9425554977
 30
0.0
 10
6.3988966032
 20
5.9413296191
 30
0.0
 10
6.3988950917
 20
5.9388730596
 30
0.0
 10
6.3991488762
 20
5.9351943321
 30
0.0
 10
6.3996572806
 20
5.9315333137
 30
0.0
 10
6.4004181449
 20
5.9279019366
 30
0.0
 10
6.4014278944
 20
5.9243113218
 30
0.0
 10
6.4026821987
 20
5.9207721613
 30
0.0
 10
6.4041760237
 20
5.9172943095
 30
0.0
 10
6.4064906422
 20
5.9127284656
 30
0.0
 10
6.4099678777
 20
5.9072126268
 30
0.0
 10
6.4149705761
 20
5.9010139337
 30
0.0
 10
6.4207659366
 20
5.8952491315
 30
0.0
 10
6.4272897517
 20
5.8899641518
 30
0.0
 10
6.4344752939
 20
5.8851989252
 30
0.0
 10
6.4422522233
 20
5.8809896664
 30
0.0
 10
6.4505464156
 20
5.8773687867
 30
0.0
 10
6.4592792783
 20
5.8743648805
 30
0.0
 10
6.4683696624
 20
5.8720020587
 30
0.0
 10
6.4808891721
 20
5.8697254501
 30
0.0
 10
6.4904942104
 20
5.8690443622
 30
0.0
 10
6.4969068323
 20
5.8690443622
 30
0.0
  0
SPLINE
  5
37B
100
AcDbEntity
  8
0
100
AcDbSpline
 62
7
  6
CONTINUOUS
 70
0
 71
3
 72
22
 73
18
 74
0
 42
0.0000001
 43
0.0000001
 44
0.0000000001
 40
0.0
 40
0.0
 40
0.0
 40
0.0
 40
0.0635648955
 40
0.1325284862
 40
0.2056340274
 40
0.2816786747
 40
0.4379638394
 40
0.5160523732
 40
0.5925970738
 40
0.6664634207
 40
0.7364611951
 40
0.8013481316
 40
0.8598005373
 40
0.910412708
 40
0.9516977313
 40
0.9820953995
 40
1.0
 40
1.0
 40
1.0
 40
1.0
 10
6.5544040783
 20
5.8825865273
 30
0.0
 10
6.5542164847
 20
5.8820548217
 30
0.0
 10
6.5538597907
 20
5.8809338008
 30
0.0
 10
6.5534136722
 20
5.8791641372
 30
0.0
 10
6.5530524105
 20
5.8772621863
 30
0.0
 10
6.5527098603
 20
5.874573436
 30
0.0
 10
6.5526083153
 20
5.8718138092
 30
0.0
 10
6.5527566138
 20
5.8690586976
 30
0.0
 10
6.5529854882
 20
5.8670435081
 30
0.0
 10
6.5533248725
 20
5.8651169617
 30
0.0
 10
6.5537534092
 20
5.8633144249
 30
0.0
 10
6.5542516995
 20
5.8616724066
 30
0.0
 10
6.5547863909
 20
5.8602240416
 30
0.0
 10
6.5553237429
 20
5.8590026119
 30
0.0
 10
6.5558182036
 20
5.8580363237
 30
0.0
 10
6.5562220377
 20
5.8573514808
 30
0.0
 10
6.5564594678
 20
5.8569944778
 30
0.0
 10
6.5565528194
 20
5.8568659944
 30
0.0
  0
SPLINE
  5
37C
100
AcDbEntity
  8
0
100
AcDbSpline
 62
7
  6
CONTINUOUS
 70
0
 71
3
 72
26
 73
22
 74
0
 42
0.0000001
 43
0.0000001
 44
0.0000000001
 40
0.0
 40
0.0
 40
0.0
 40
0.0
 40
0.1415143401
 40
0.2115327821
 40
0.2806382253
 40
0.3485749006
 40
0.4151273793
 40
0.4801304884
 40
0.5434779967
 40
0.6051292227
 40
0.6651139074
 40
0.7235328631
 40
0.7805549088
 40
0.8086252947
 40
0.8364366982
 40
0.8640251836
 40
0.8914285975
 40
0.91868652
 40
0.9458399269
 40
0.9729303283
 40
1.0
 40
1.0
 40
1.0
 40
1.0
 10
6.4969068323
 20
5.8690443622
 30
0.0
 10
6.5033193871
 20
5.8690443622
 30
0.0
 10
6.5129243233
 20
5.8697254358
 30
0.0
 10
6.5254437038
 20
5.8720019957
 30
0.0
 10
6.5345339955
 20
5.8743647656
 30
0.0
 10
6.5432667745
 20
5.877368605
 30
0.0
 10
6.5515608947
 20
5.8809894033
 30
0.0
 10
6.5593377667
 20
5.8851985674
 30
0.0
 10
6.5665232701
 20
5.8899636858
 30
0.0
 10
6.5730470685
 20
5.8952485454
 30
0.0
 10
6.5788424372
 20
5.901013218
 30
0.0
 10
6.5838451745
 20
5.9072117746
 30
0.0
 10
6.5873224634
 20
5.9127275001
 30
0.0
 10
6.5896371494
 20
5.9172932528
 30
0.0
 10
6.5911310191
 20
5.9207710429
 30
0.0
 10
6.5923854008
 20
5.924310136
 30
0.0
 10
6.593395209
 20
5.9279006946
 30
0.0
 10
6.5941561577
 20
5.9315320159
 30
0.0
 10
6.5946646532
 20
5.9351929842
 30
0.0
 10
6.5949185134
 20
5.9388716688
 30
0.0
 10
6.5949170832
 20
5.9413282032
 30
0.0
 10
6.5948738267
 20
5.9425540704
 30
0.0
  0
SPLINE
  5
37D
100
AcDbEntity
  8
0
100
AcDbSpline
 62
7
  6
CONTINUOUS
 70
0
 71
3
 72
31
 73
27
 74
0
 42
0.0000001
 43
0.0000001
 44
0.0000000001
 40
0.0
 40
0.0
 40
0.0
 40
0.0
 40
0.0312572816
 40
0.0625165426
 40
0.0937740912
 40
0.1250320281
 40
0.1875286327
 40
0.2500244619
 40
0.2812813768
 40
0.3125380292
 40
0.343794415
 40
0.375050496
 40
0.4375428932
 40
0.5000340096
 40
0.5625237753
 40
0.6250123047
 40
0.656265534
 40
0.6875184949
 40
0.7187712134
 40
0.7500236876
 40
0.8125090954
 40
0.8749938592
 40
0.9062455425
 40
0.9374966581
 40
0.9687493142
 40
1.0
 40
1.0
 40
1.0
 40
1.0
 10
4.8774068323
 20
2.7730005405
 30
0.0
 10
4.8736919104
 20
2.7730005405
 30
0.0
 10
4.8662605366
 20
2.7731825159
 30
0.0
 10
4.8551413671
 20
2.774000483
 30
0.0
 10
4.844074968
 20
2.7753618373
 30
0.0
 10
4.829430029
 20
2.7778961096
 30
0.0
 10
4.8113825788
 20
2.7824043012
 30
0.0
 10
4.7938629651
 20
2.7886567305
 30
0.0
 10
4.7802698479
 20
2.7946663746
 30
0.0
 10
4.7703058204
 20
2.7996685279
 30
0.0
 10
4.7605989637
 20
2.8051529331
 30
0.0
 10
4.7480334611
 20
2.8130888083
 30
0.0
 10
4.7330783643
 20
2.8241504961
 30
0.0
 10
4.7165235307
 20
2.8391156687
 30
0.0
 10
4.7015151516
 20
2.8556307625
 30
0.0
 10
4.6904161834
 20
2.8705571468
 30
0.0
 10
4.6824510576
 20
2.8831027296
 30
0.0
 10
4.676945335
 20
2.8927961425
 30
0.0
 10
4.6719227406
 20
2.9027483437
 30
0.0
 10
4.6658874793
 20
2.9163276976
 30
0.0
 10
4.6596066664
 20
2.9338340481
 30
0.0
 10
4.6550767483
 20
2.9518728672
 30
0.0
 10
4.6525299832
 20
2.9665127301
 30
0.0
 10
4.6511618252
 20
2.9775760272
 30
0.0
 10
4.6503397291
 20
2.9886925955
 30
0.0
 10
4.6501568323
 20
2.9961224138
 30
0.0
 10
4.6501568323
 20
2.9998365518
 30
0.0
  0
SPLINE
  5
37E
100
AcDbEntity
  8
0
100
AcDbSpline
 62
7
  6
CONTINUOUS
 70
0
 71
3
 72
31
 73
27
 74
0
 42
0.0000001
 43
0.0000001
 44
0.0000000001
 40
0.0
 40
0.0
 40
0.0
 40
0.0
 40
0.0312506638
 40
0.0625032746
 40
0.09375437
 40
0.1250060382
 40
0.1874907817
 40
0.249976189
 40
0.2812286697
 40
0.3124813981
 40
0.3437343721
 40
0.3749876171
 40
0.4374761841
 40
0.4999659917
 40
0.56245715
 40
0.6249495843
 40
0.6562056811
 40
0.6874620796
 40
0.7187187415
 40
0.7499756624
 40
0.8124714909
 40
0.8749680744
 40
0.9062259964
 40
0.9374835247
 40
0.9687427401
 40
1.0
 40
1.0
 40
1.0
 40
1.0
 10
5.1046568323
 20
2.9998365518
 30
0.0
 10
5.1046568323
 20
2.9961224164
 30
0.0
 10
5.1044739366
 20
2.9886926061
 30
0.0
 10
5.1036518411
 20
2.9775760482
 30
0.0
 10
5.1022836854
 20
2.9665127605
 30
0.0
 10
5.0997369249
 20
2.9518729035
 30
0.0
 10
5.0952070093
 20
2.9338340881
 30
0.0
 10
5.0889262019
 20
2.9163277376
 30
0.0
 10
5.0828909416
 20
2.9027483811
 30
0.0
 10
5.0778683471
 20
2.8927961761
 30
0.0
 10
5.0723626244
 20
2.8831027579
 30
0.0
 10
5.0643974958
 20
2.8705571675
 30
0.0
 10
5.0532985223
 20
2.8556307731
 30
0.0
 10
5.0382901339
 20
2.8391156681
 30
0.0
 10
5.021735289
 20
2.8241504863
 30
0.0
 10
5.006780182
 20
2.8130887934
 30
0.0
 10
4.994214672
 20
2.8051529153
 30
0.0
 10
4.98450781
 20
2.7996685101
 30
0.0
 10
4.9745437788
 20
2.7946663568
 30
0.0
 10
4.9609506591
 20
2.7886567139
 30
0.0
 10
4.9434310455
 20
2.7824042901
 30
0.0
 10
4.9253835993
 20
2.777896101
 30
0.0
 10
4.9107386662
 20
2.7753618334
 30
0.0
 10
4.8996722766
 20
2.7740004814
 30
0.0
 10
4.8885531175
 20
2.7731825148
 30
0.0
 10
4.8811217516
 20
2.7730005405
 30
0.0
 10
4.8774068323
 20
2.7730005405
 30
0.0
  0
LINE
  5
37F
100
AcDbEntity
  8
0
100
AcDbLine
 62
7
  6
CONTINUOUS
 10
6.7340054252
 20
5.7582037839
 11
6.7299446747
 21
5.7806748914
  0
LINE
  5
380
100
AcDbEntity
  8
0
100
AcDbLine
 62
7
  6
CONTINUOUS
 10
6.7299446747
 20
5.7806748914
 11
6.7298595154
 21
5.7811445558
  0
LINE
  5
381
100
AcDbEntity
  8
0
100
AcDbLine
 62
7
  6
CONTINUOUS
 10
6.7432994291
 20
5.5419802723
 11
6.7440658265
 21
5.5589421976
  0
LINE
  5
382
100
AcDbEntity
  8
0
100
AcDbLine
 62
7
  6
CONTINUOUS
 10
6.746315476
 20
5.6015017868
 11
6.7463768562
 21
5.6026367702
  0
LINE
  5
383
100
AcDbEntity
  8
0
100
AcDbLine
 62
7
  6
CONTINUOUS
 10
6.7463768562
 20
5.6026367702
 11
6.747321083
 21
5.6182948332
  0
LINE
  5
384
100
AcDbEntity
  8
0
100
AcDbLine
 62
7
  6
CONTINUOUS
 10
6.7383614833
 20
5.5095425728
 11
6.7387687166
 21
5.5134537839
  0
LINE
  5
385
100
AcDbEntity
  8
0
100
AcDbLine
 62
7
  6
CONTINUOUS
 10
3.0144419442
 20
5.7247037839
 11
3.0143547629
 21
5.7242003568
  0
LINE
  5
386
100
AcDbEntity
  8
0
100
AcDbLine
 62
7
  6
CONTINUOUS
 10
3.0143547629
 20
5.7242003568
 11
3.0140104856
 21
5.7217037839
  0
LINE
  5
387
100
AcDbEntity
  8
0
100
AcDbLine
 62
7
  6
CONTINUOUS
 10
3.0118651391
 20
5.7037037839
 11
3.0115812081
 21
5.7007037839
  0
LINE
  5
388
100
AcDbEntity
  8
0
100
AcDbLine
 62
7
  6
CONTINUOUS
 10
3.0084610871
 20
5.6599528535
 11
3.0085740751
 21
5.6433526429
  0
LINE
  5
389
100
AcDbEntity
  8
0
100
AcDbLine
 62
7
  6
CONTINUOUS
 10
3.0085740751
 20
5.6433526429
 11
3.0085260771
 21
5.6002236626
  0
LINE
  5
38A
100
AcDbEntity
  8
0
100
AcDbLine
 62
7
  6
CONTINUOUS
 10
3.0085260771
 20
5.6002236626
 11
3.0083845914
 21
5.58344806
  0
SPLINE
  5
38B
100
AcDbEntity
  8
0
100
AcDbSpline
 62
7
  6
CONTINUOUS
 70
0
 71
3
 72
22
 73
18
 74
0
 42
0.0000001
 43
0.0000001
 44
0.0000000001
 40
0.0
 40
0.0
 40
0.0
 40
0.0
 40
0.1419079429
 40
0.2122258117
 40
0.2817535936
 40
0.3502522765
 40
0.4175040666
 40
0.4833179863
 40
0.5475355227
 40
0.6100365393
 40
0.6707452644
 40
0.7296361013
 40
0.7867389671
 40
0.8421436594
 40
0.8960024866
 40
0.9485301722
 40
1.0
 40
1.0
 40
1.0
 40
1.0
 10
6.4969068323
 20
5.8813834288
 30
0.0
 10
6.5021562806
 20
5.8813834288
 30
0.0
 10
6.5100188134
 20
5.881866317
 30
0.0
 10
6.5203206234
 20
5.8834795094
 30
0.0
 10
6.5278490625
 20
5.8851559949
 30
0.0
 10
6.5351424908
 20
5.8872896999
 30
0.0
 10
6.5421463448
 20
5.8898646835
 30
0.0
 10
6.5488073977
 20
5.8928616303
 30
0.0
 10
6.5550752266
 20
5.8962581388
 30
0.0
 10
6.56090228
 20
5.9000288732
 30
0.0
 10
6.5662442683
 20
5.9041457764
 30
0.0
 10
6.5710604159
 20
5.9085782622
 30
0.0
 10
6.5753137067
 20
5.9132934467
 30
0.0
 10
6.5789710554
 20
5.9182561716
 30
0.0
 10
6.5820036312
 20
5.9234296217
 30
0.0
 10
6.5843866833
 20
5.9287736384
 30
0.0
 10
6.5855391577
 20
5.9324551724
 30
0.0
 10
6.5859970097
 20
5.9343032705
 30
0.0
  0
SPLINE
  5
38C
100
AcDbEntity
  8
0
100
AcDbSpline
 62
7
  6
CONTINUOUS
 70
0
 71
3
 72
22
 73
18
 74
0
 42
0.0000001
 43
0.0000001
 44
0.0000000001
 40
0.0
 40
0.0
 40
0.0
 40
0.0
 40
0.1419061747
 40
0.2122232553
 40
0.281750367
 40
0.3502485292
 40
0.4174999739
 40
0.4833137413
 40
0.5475313264
 40
0.6100325895
 40
0.670741742
 40
0.7296331561
 40
0.7867367013
 40
0.842142112
 40
0.896001618
 40
0.948529852
 40
1.0
 40
1.0
 40
1.0
 40
1.0
 10
6.4969068323
 20
5.8813834288
 30
0.0
 10
6.4916577497
 20
5.8813834288
 30
0.0
 10
6.4837957633
 20
5.8818662499
 30
0.0
 10
6.4734946436
 20
5.8834792179
 30
0.0
 10
6.4659666811
 20
5.8851554726
 30
0.0
 10
6.4586736809
 20
5.8872888868
 30
0.0
 10
6.4516701958
 20
5.889863524
 30
0.0
 10
6.4450094421
 20
5.8928600741
 30
0.0
 10
6.4387418336
 20
5.8962561416
 30
0.0
 10
6.4329149135
 20
5.9000263974
 30
0.0
 10
6.427572964
 20
5.9041427918
 30
0.0
 10
6.4227567545
 20
5.9085747465
 30
0.0
 10
6.4185032963
 20
5.9132893859
 30
0.0
 10
6.4148456708
 20
5.9182515609
 30
0.0
 10
6.4118127061
 20
5.9234244657
 30
0.0
 10
6.4094291523
 20
5.9287679517
 30
0.0
 10
6.408276262
 20
5.9324491556
 30
0.0
 10
6.4078181846
 20
5.9342970977
 30
0.0
  0
SPLINE
  5
38D
100
AcDbEntity
  8
0
100
AcDbSpline
 62
7
  6
CONTINUOUS
 70
0
 71
3
 72
23
 73
19
 74
0
 42
0.0000001
 43
0.0000001
 44
0.0000000001
 40
0.0
 40
0.0
 40
0.0
 40
0.0
 40
0.1432282284
 40
0.2141304019
 40
0.2841499116
 40
0.3530233467
 40
0.4205132473
 40
0.4864156901
 40
0.5505673141
 40
0.6128527372
 40
0.6432823549
 40
0.6732279339
 40
0.7316631336
 40
0.788245142
 40
0.8431175356
 40
0.8964980058
 40
0.9486752277
 40
1.0
 40
1.0
 40
1.0
 40
1.0
 10
6.4969068323
 20
5.8784852946
 30
0.0
 10
6.5026858588
 20
5.8784852946
 30
0.0
 10
6.5113402574
 20
5.8790449314
 30
0.0
 10
6.522657628
 20
5.8809149509
 30
0.0
 10
6.5309042413
 20
5.8828561645
 30
0.0
 10
6.5388644749
 20
5.8853240548
 30
0.0
 10
6.5464722674
 20
5.8882981949
 30
0.0
 10
6.5536635839
 20
5.8917539589
 30
0.0
 10
6.5603776891
 20
5.8956624944
 30
0.0
 10
6.5655688163
 20
5.8992987506
 30
0.0
 10
6.5694231746
 20
5.9024057636
 30
0.0
 10
6.5730138884
 20
5.9055839407
 30
0.0
 10
6.5771157821
 20
5.9097676851
 30
0.0
 10
6.5814015611
 20
5.9151332786
 30
0.0
 10
6.5849741728
 20
5.9207594246
 30
0.0
 10
6.5878014651
 20
5.9265993601
 30
0.0
 10
6.5898573141
 20
5.932602336
 30
0.0
 10
6.5907057879
 20
5.9367051156
 30
0.0
 10
6.5909927948
 20
5.9387560019
 30
0.0
  0
LINE
  5
38E
100
AcDbEntity
  8
0
100
AcDbLine
 62
7
  6
CONTINUOUS
 10
6.7301363811
 20
5.7812842372
 11
6.7301933186
 21
5.7808237316
  0
LINE
  5
38F
100
AcDbEntity
  8
0
100
AcDbLine
 62
7
  6
CONTINUOUS
 10
6.7301933186
 20
5.7808237316
 11
6.7304784
 21
5.7787937869
  0
SPLINE
  5
390
100
AcDbEntity
  8
0
100
AcDbSpline
 62
7
  6
CONTINUOUS
 70
0
 71
3
 72
21
 73
17
 74
0
 42
0.0000001
 43
0.0000001
 44
0.0000000001
 40
0.0
 40
0.0
 40
0.0
 40
0.0
 40
0.1244691987
 40
0.1869051071
 40
0.2494288184
 40
0.3120178972
 40
0.3746535138
 40
0.4373193433
 40
0.5
 40
0.5626806567
 40
0.6253464862
 40
0.6879821028
 40
0.7505711816
 40
0.8130948929
 40
0.8755308013
 40
1.0
 40
1.0
 40
1.0
 40
1.0
 10
6.5392951468
 20
5.738435653
 30
0.0
 10
6.5360500728
 20
5.736733926
 30
0.0
 10
6.5310334843
 20
5.7344375227
 30
0.0
 10
6.5241160949
 20
5.7319654536
 30
0.0
 10
6.5188125657
 20
5.7304177379
 30
0.0
 10
6.5134188358
 20
5.7291953192
 30
0.0
 10
6.5079549067
 20
5.728311595
 30
0.0
 10
6.5024430522
 20
5.7277769795
 30
0.0
 10
6.4969068323
 20
5.7275980149
 30
0.0
 10
6.4913706124
 20
5.7277769795
 30
0.0
 10
6.4858587579
 20
5.728311595
 30
0.0
 10
6.4803948288
 20
5.7291953192
 30
0.0
 10
6.4750010989
 20
5.7304177379
 30
0.0
 10
6.4696975697
 20
5.7319654536
 30
0.0
 10
6.4627801803
 20
5.7344375227
 30
0.0
 10
6.4577635918
 20
5.736733926
 30
0.0
 10
6.4545185178
 20
5.738435653
 30
0.0
  0
SPLINE
  5
391
100
AcDbEntity
  8
0
100
AcDbSpline
 62
7
  6
CONTINUOUS
 70
0
 71
3
 72
23
 73
19
 74
0
 42
0.0000001
 43
0.0000001
 44
0.0000000001
 40
0.0
 40
0.0
 40
0.0
 40
0.0
 40
0.1432295806
 40
0.2141323486
 40
0.2841523533
 40
0.3530261577
 40
0.4205162815
 40
0.4864187885
 40
0.5505703142
 40
0.6128554838
 40
0.6432849234
 40
0.6732302941
 40
0.7316650029
 40
0.7882464664
 40
0.843118323
 40
0.8964983386
 40
0.9486752702
 40
1.0
 40
1.0
 40
1.0
 40
1.0
 10
6.4969068323
 20
5.8784852946
 30
0.0
 10
6.4911275003
 20
5.8784852946
 30
0.0
 10
6.4824726455
 20
5.8790449903
 30
0.0
 10
6.4711547021
 20
5.8809152072
 30
0.0
 10
6.4629076971
 20
5.8828566234
 30
0.0
 10
6.4549471167
 20
5.8853247683
 30
0.0
 10
6.447339032
 20
5.8882992108
 30
0.0
 10
6.4401474872
 20
5.8917553199
 30
0.0
 10
6.433433226
 20
5.8956642374
 30
0.0
 10
6.4282420314
 20
5.8993008423
 30
0.0
 10
6.4243876643
 20
5.9024081461
 30
0.0
 10
6.4207969753
 20
5.9055866124
 30
0.0
 10
6.4166951664
 20
5.9097707284
 30
0.0
 10
6.4124095832
 20
5.9151367814
 30
0.0
 10
6.4088372652
 20
5.9207633862
 30
0.0
 10
6.4060103661
 20
5.9266037705
 30
0.0
 10
6.4039550097
 20
5.9326071755
 30
0.0
 10
6.4031069343
 20
5.9367102115
 30
0.0
 10
6.4028201403
 20
5.9387612167
 30
0.0
  0
SPLINE
  5
392
100
AcDbEntity
  8
0
100
AcDbSpline
 62
7
  6
CONTINUOUS
 70
0
 71
3
 72
15
 73
11
 74
0
 42
0.0000001
 43
0.0000001
 44
0.0000000001
 40
0.0
 40
0.0
 40
0.0
 40
0.0
 40
0.1312913111
 40
0.2619344495
 40
0.3913046202
 40
0.5188022162
 40
0.6438796464
 40
0.7053693307
 40
0.766079742
 40
1.0
 40
1.0
 40
1.0
 40
1.0
 10
6.4969068323
 20
5.9036196022
 30
0.0
 10
6.5006345165
 20
5.9036196022
 30
0.0
 10
6.5080741562
 20
5.9038805463
 30
0.0
 10
6.5191312302
 20
5.9050520197
 30
0.0
 10
6.5299712049
 20
5.906991761
 30
0.0
 10
6.5404869557
 20
5.9096809501
 30
0.0
 10
6.5489429188
 20
5.9125411384
 30
0.0
 10
6.5554494985
 20
5.915184567
 30
0.0
 10
6.5646542613
 20
5.919366842
 30
0.0
 10
6.5719328595
 20
5.9236120888
 30
0.0
 10
6.5773202449
 20
5.9274962327
 30
0.0
  0
SPLINE
  5
393
100
AcDbEntity
  8
0
100
AcDbSpline
 62
7
  6
CONTINUOUS
 70
0
 71
3
 72
13
 73
9
 74
0
 42
0.0000001
 43
0.0000001
 44
0.0000000001
 40
0.0
 40
0.0
 40
0.0
 40
0.0
 40
0.2618203765
 40
0.3912150207
 40
0.518736575
 40
0.643837613
 40
0.7660355539
 40
1.0
 40
1.0
 40
1.0
 40
1.0
 10
6.4969068323
 20
5.8949187451
 30
0.0
 10
6.5024427101
 20
5.8949187451
 30
0.0
 10
6.5107308533
 20
5.8954970682
 30
0.0
 10
6.5215339856
 20
5.897430421
 30
0.0
 10
6.5293669852
 20
5.8994334044
 30
0.0
 10
6.536882616
 20
5.9019758064
 30
0.0
 10
6.5462395744
 20
5.9059897655
 30
0.0
 10
6.5527890689
 20
5.9098099166
 30
0.0
 10
6.5568018067
 20
5.9127029654
 30
0.0
  0
SPLINE
  5
394
100
AcDbEntity
  8
0
100
AcDbSpline
 62
7
  6
CONTINUOUS
 70
0
 71
3
 72
15
 73
11
 74
0
 42
0.0000001
 43
0.0000001
 44
0.0000000001
 40
0.0
 40
0.0
 40
0.0
 40
0.0
 40
0.1312913111
 40
0.2619344495
 40
0.3913046202
 40
0.5188022162
 40
0.6438796464
 40
0.7053693307
 40
0.766079742
 40
1.0
 40
1.0
 40
1.0
 40
1.0
 10
6.4969068323
 20
5.9036196022
 30
0.0
 10
6.4931791481
 20
5.9036196022
 30
0.0
 10
6.4857395084
 20
5.9038805463
 30
0.0
 10
6.4746824344
 20
5.9050520197
 30
0.0
 10
6.4638424597
 20
5.906991761
 30
0.0
 10
6.4533267089
 20
5.9096809501
 30
0.0
 10
6.4448707458
 20
5.9125411384
 30
0.0
 10
6.4383641661
 20
5.915184567
 30
0.0
 10
6.4291594033
 20
5.919366842
 30
0.0
 10
6.4218808051
 20
5.9236120888
 30
0.0
 10
6.4164934197
 20
5.9274962327
 30
0.0
  0
SPLINE
  5
395
100
AcDbEntity
  8
0
100
AcDbSpline
 62
7
  6
CONTINUOUS
 70
0
 71
3
 72
13
 73
9
 74
0
 42
0.0000001
 43
0.0000001
 44
0.0000000001
 40
0.0
 40
0.0
 40
0.0
 40
0.0
 40
0.2618203765
 40
0.3912150207
 40
0.518736575
 40
0.643837613
 40
0.7660355539
 40
1.0
 40
1.0
 40
1.0
 40
1.0
 10
6.4969068323
 20
5.8949187451
 30
0.0
 10
6.4913709545
 20
5.8949187451
 30
0.0
 10
6.4830828113
 20
5.8954970682
 30
0.0
 10
6.472279679
 20
5.897430421
 30
0.0
 10
6.4644466794
 20
5.8994334044
 30
0.0
 10
6.4569310486
 20
5.9019758064
 30
0.0
 10
6.4475740902
 20
5.9059897655
 30
0.0
 10
6.4410245957
 20
5.9098099166
 30
0.0
 10
6.4370118579
 20
5.9127029654
 30
0.0
  0
SPLINE
  5
396
100
AcDbEntity
  8
0
100
AcDbSpline
 62
7
  6
CONTINUOUS
 70
0
 71
3
 72
9
 73
5
 74
0
 42
0.0000001
 43
0.0000001
 44
0.0000000001
 40
0.0
 40
0.0
 40
0.0
 40
0.0
 40
0.2536552471
 40
1.0
 40
1.0
 40
1.0
 40
1.0
 10
6.5546680195
 20
5.860594324
 30
0.0
 10
6.5554085108
 20
5.8601818341
 30
0.0
 10
6.5583060703
 20
5.8585170722
 30
0.0
 10
6.5611145644
 20
5.8566963966
 30
0.0
 10
6.5631459878
 20
5.8552495031
 30
0.0
  0
SPLINE
  5
397
100
AcDbEntity
  8
0
100
AcDbSpline
 62
7
  6
CONTINUOUS
 70
0
 71
3
 72
9
 73
5
 74
0
 42
0.0000001
 43
0.0000001
 44
0.0000000001
 40
0.0
 40
0.0
 40
0.0
 40
0.0
 40
0.2464070838
 40
1.0
 40
1.0
 40
1.0
 40
1.0
 10
6.430667702
 20
5.8552495211
 30
0.0
 10
6.4313384124
 20
5.8557272383
 30
0.0
 10
6.4340882902
 20
5.8576265692
 30
0.0
 10
6.4369459808
 20
5.8593690168
 30
0.0
 10
6.4391460423
 20
5.8605945453
 30
0.0
  0
SPLINE
  5
398
100
AcDbEntity
  8
0
100
AcDbSpline
 62
7
  6
CONTINUOUS
 70
0
 71
3
 72
39
 73
35
 74
0
 42
0.0000001
 43
0.0000001
 44
0.0000000001
 40
0.0
 40
0.0
 40
0.0
 40
0.0
 40
0.0257327493
 40
0.0519942918
 40
0.0789212414
 40
0.1066209752
 40
0.1351696854
 40
0.1646122962
 40
0.1949637765
 40
0.2262113436
 40
0.2583171414
 40
0.2912211381
 40
0.3248440966
 40
0.3590905229
 40
0.3938515425
 40
0.4290076937
 40
0.4644316463
 40
0.4999908589
 40
0.5355501948
 40
0.5709745145
 40
0.6061312698
 40
0.6408931184
 40
0.675140582
 40
0.7087647645
 40
0.7416701448
 40
0.7737774536
 40
0.8050266217
 40
0.8353797498
 40
0.8648240072
 40
0.8933743102
 40
0.9210755271
 40
0.9480037929
 40
0.9742664285
 40
1.0
 40
1.0
 40
1.0
 40
1.0
 10
6.4078156193
 20
5.3076001167
 30
0.0
 10
6.4082733037
 20
5.3094482102
 30
0.0
 10
6.4094253988
 20
5.3131297604
 30
0.0
 10
6.4118079234
 20
5.3184738405
 30
0.0
 10
6.4148399674
 20
5.3236473904
 30
0.0
 10
6.4184967943
 20
5.3286102474
 30
0.0
 10
6.4227495759
 20
5.3333255983
 30
0.0
 10
6.4275652326
 20
5.3377582845
 30
0.0
 10
6.4329067515
 20
5.3418754204
 30
0.0
 10
6.4387333612
 20
5.3456464182
 30
0.0
 10
6.445000774
 20
5.3490432198
 30
0.0
 10
6.4516614556
 20
5.3520404895
 30
0.0
 10
6.4586649395
 20
5.3546158178
 30
0.0
 10
6.4659581789
 20
5.3567499072
 30
0.0
 10
6.4734859318
 20
5.3584267366
 30
0.0
 10
6.4811911705
 20
5.359633699
 30
0.0
 10
6.4890155117
 20
5.3603617101
 30
0.0
 10
6.4968996604
 20
5.3606052866
 30
0.0
 10
6.5047838635
 20
5.3603625931
 30
0.0
 10
6.5126083674
 20
5.3596354583
 30
0.0
 10
6.5203138757
 20
5.358429359
 30
0.0
 10
6.5278420033
 20
5.356753373
 30
0.0
 10
6.5351357195
 20
5.354620101
 30
0.0
 10
6.5421397787
 20
5.3520455579
 30
0.0
 10
6.5488011298
 20
5.3490490355
 30
0.0
 10
6.5550693012
 20
5.3456529377
 30
0.0
 10
6.5608967531
 20
5.3418825951
 30
0.0
 10
6.5662391915
 20
5.3377660612
 30
0.0
 10
6.5710558385
 20
5.3333339192
 30
0.0
 10
6.5753096739
 20
5.3286190507
 30
0.0
 10
6.5789676112
 20
5.3236566104
 30
0.0
 10
6.5820008141
 20
5.3184834081
 30
0.0
 10
6.5843845381
 20
5.3131396028
 30
0.0
 10
6.5855374664
 20
5.309458166
 30
0.0
 10
6.5859955684
 20
5.3076101133
 30
0.0
  0
SPLINE
  5
399
100
AcDbEntity
  8
0
100
AcDbSpline
 62
7
  6
CONTINUOUS
 70
0
 71
3
 72
43
 73
39
 74
0
 42
0.0000001
 43
0.0000001
 44
0.0000000001
 40
0.0
 40
0.0
 40
0.0
 40
0.0
 40
0.0127951742
 40
0.0256723984
 40
0.0517581311
 40
0.0784451853
 40
0.1058780785
 40
0.1341656503
 40
0.1633797329
 40
0.1783507408
 40
0.1935637571
 40
0.2247028627
 40
0.2567750594
 40
0.2897226726
 40
0.3234640402
 40
0.3578971947
 40
0.3929034684
 40
0.4283509939
 40
0.4640981036
 40
0.499996644
 40
0.5358952334
 40
0.5716424889
 40
0.6070902542
 40
0.6420968561
 40
0.67653042
 40
0.7102722685
 40
0.7432204222
 40
0.7752932047
 40
0.8064329247
 40
0.8216462529
 40
0.8366175725
 40
0.8658322678
 40
0.8941204178
 40
0.921553831
 40
0.9482413231
 40
0.9743273902
 40
0.987204737
 40
1.0
 40
1.0
 40
1.0
 40
1.0
 10
6.4028199219
 20
5.3031448396
 30
0.0
 10
6.4029628899
 20
5.304167571
 30
0.0
 10
6.403316222
 20
5.3062109748
 30
0.0
 10
6.4042893088
 20
5.3102756494
 30
0.0
 10
6.4060097878
 20
5.3153027752
 30
0.0
 10
6.408836391
 20
5.3211424917
 30
0.0
 10
6.412408518
 20
5.3267693314
 30
0.0
 10
6.4166938869
 20
5.3321353841
 30
0.0
 10
6.420795529
 20
5.3363195716
 30
0.0
 10
6.4243860866
 20
5.3394980885
 30
0.0
 10
6.4282403232
 20
5.3426054511
 30
0.0
 10
6.433431362
 20
5.3462421382
 30
0.0
 10
6.4401454454
 20
5.3501511662
 30
0.0
 10
6.4473368371
 20
5.3536074004
 30
0.0
 10
6.4549447389
 20
5.356581973
 30
0.0
 10
6.4629053263
 20
5.3590502838
 30
0.0
 10
6.4711516942
 20
5.3609917884
 30
0.0
 10
6.4796145584
 20
5.3623903193
 30
0.0
 10
6.4882227906
 20
5.3632342092
 30
0.0
 10
6.4969040296
 20
5.3635164128
 30
0.0
 10
6.5055852922
 20
5.3632345726
 30
0.0
 10
6.5141935949
 20
5.3623910431
 30
0.0
 10
6.5226565759
 20
5.3609928666
 30
0.0
 10
6.5309031059
 20
5.3590517074
 30
0.0
 10
6.5388638995
 20
5.3565837301
 30
0.0
 10
6.5464720496
 20
5.3536094764
 30
0.0
 10
6.5536637298
 20
5.3501535439
 30
0.0
 10
6.5603781395
 20
5.346244798
 30
0.0
 10
6.5655694803
 20
5.3426083304
 30
0.0
 10
6.5694239764
 20
5.3395011304
 30
0.0
 10
6.5730148005
 20
5.3363227643
 30
0.0
 10
6.5771167921
 20
5.3321387504
 30
0.0
 10
6.5814026095
 20
5.3267728802
 30
0.0
 10
6.5849752074
 20
5.3211461936
 30
0.0
 10
6.5878023003
 20
5.3153065992
 30
0.0
 10
6.5895232034
 20
5.3102795427
 30
0.0
 10
6.5904966326
 20
5.3062149049
 30
0.0
 10
6.5908501367
 20
5.3041715136
 30
0.0
 10
6.5909931907
 20
5.303148787
 30
0.0
  0
SPLINE
  5
39A
100
AcDbEntity
  8
0
100
AcDbSpline
 62
7
  6
CONTINUOUS
 70
0
 71
3
 72
9
 73
5
 74
0
 42
0.0000001
 43
0.0000001
 44
0.0000000001
 40
0.0
 40
0.0
 40
0.0
 40
0.0
 40
0.2578931738
 40
1.0
 40
1.0
 40
1.0
 40
1.0
 10
6.4305272482
 20
5.8554525187
 30
0.0
 10
6.4302027443
 20
5.855228874
 30
0.0
 10
6.428963942
 20
5.8543342398
 30
0.0
 10
6.4278070865
 20
5.8533222994
 30
0.0
 10
6.4270241307
 20
5.8525018759
 30
0.0
  0
SPLINE
  5
39B
100
AcDbEntity
  8
0
100
AcDbSpline
 62
7
  6
CONTINUOUS
 70
0
 71
3
 72
23
 73
19
 74
0
 42
0.0000001
 43
0.0000001
 44
0.0000000001
 40
0.0
 40
0.0
 40
0.0
 40
0.0
 40
0.1160097671
 40
0.146247879
 40
0.176921128
 40
0.239444805
 40
0.3033338924
 40
0.3682837457
 40
0.4339581408
 40
0.4999999999
 40
0.566041859
 40
0.6317162541
 40
0.6966661075
 40
0.760555195
 40
0.8230788721
 40
0.8537521212
 40
0.8839902332
 40
1.0
 40
1.0
 40
1.0
 40
1.0
 10
6.4270241307
 20
5.4769107884
 30
0.0
 10
6.4315355424
 20
5.4805136601
 30
0.0
 10
6.4377279078
 20
5.4844578803
 30
0.0
 10
6.4456281558
 20
5.4883432525
 30
0.0
 10
6.4512566194
 20
5.4908102584
 30
0.0
 10
6.4586135255
 20
5.4934832792
 30
0.0
 10
6.4678091772
 20
5.4959989755
 30
0.0
 10
6.4773274449
 20
5.4978159298
 30
0.0
 10
6.4870625867
 20
5.4989141358
 30
0.0
 10
6.4969068323
 20
5.4992815595
 30
0.0
 10
6.5067510779
 20
5.4989141358
 30
0.0
 10
6.5164862197
 20
5.4978159298
 30
0.0
 10
6.5260044874
 20
5.4959989755
 30
0.0
 10
6.5352001391
 20
5.4934832792
 30
0.0
 10
6.5425570452
 20
5.4908102584
 30
0.0
 10
6.5481855089
 20
5.4883432525
 30
0.0
 10
6.5560857568
 20
5.4844578803
 30
0.0
 10
6.5622781222
 20
5.4805136601
 30
0.0
 10
6.5667895339
 20
5.4769107884
 30
0.0
  0
SPLINE
  5
39C
100
AcDbEntity
  8
0
100
AcDbSpline
 62
7
  6
CONTINUOUS
 70
0
 71
3
 72
15
 73
11
 74
0
 42
0.0000001
 43
0.0000001
 44
0.0000000001
 40
0.0
 40
0.0
 40
0.0
 40
0.0
 40
0.1223267821
 40
0.2469184352
 40
0.3730647224
 40
0.4999999999
 40
0.6269352772
 40
0.7530815644
 40
0.8776732177
 40
1.0
 40
1.0
 40
1.0
 40
1.0
 10
6.4545185178
 20
5.5034719148
 30
0.0
 10
6.4578479277
 20
5.5046013203
 30
0.0
 10
6.4646719957
 20
5.5065860096
 30
0.0
 10
6.4751923005
 20
5.5087145622
 30
0.0
 10
6.4859820567
 20
5.5100024257
 30
0.0
 10
6.4969068323
 20
5.5104334128
 30
0.0
 10
6.5078316079
 20
5.5100024257
 30
0.0
 10
6.5186213641
 20
5.5087145622
 30
0.0
 10
6.5291416689
 20
5.5065860096
 30
0.0
 10
6.5359657369
 20
5.5046013203
 30
0.0
 10
6.5392951468
 20
5.5034719148
 30
0.0
  0
SPLINE
  5
39D
100
AcDbEntity
  8
0
100
AcDbSpline
 62
7
  6
CONTINUOUS
 70
0
 71
3
 72
9
 73
5
 74
0
 42
0.0000001
 43
0.0000001
 44
0.0000000001
 40
0.0
 40
0.0
 40
0.0
 40
0.0
 40
0.2464070279
 40
1.0
 40
1.0
 40
1.0
 40
1.0
 10
6.5631459625
 20
5.3866580467
 30
0.0
 10
6.5624752407
 20
5.3861803214
 30
0.0
 10
6.5597253151
 20
5.3842809585
 30
0.0
 10
6.5568675731
 20
5.3825384842
 30
0.0
 10
6.5546674714
 20
5.3813129384
 30
0.0
  0
SPLINE
  5
39E
100
AcDbEntity
  8
0
100
AcDbSpline
 62
7
  6
CONTINUOUS
 70
0
 71
3
 72
9
 73
5
 74
0
 42
0.0000001
 43
0.0000001
 44
0.0000000001
 40
0.0
 40
0.0
 40
0.0
 40
0.0
 40
0.2536566067
 40
1.0
 40
1.0
 40
1.0
 40
1.0
 10
6.4391490998
 20
5.3813113194
 30
0.0
 10
6.4384082957
 20
5.3817239437
 30
0.0
 10
6.4355095331
 20
5.3833892561
 30
0.0
 10
6.4326998973
 20
5.3852106034
 30
0.0
 10
6.4306676768
 20
5.3866580647
 30
0.0
  0
SPLINE
  5
39F
100
AcDbEntity
  8
0
100
AcDbSpline
 62
7
  6
CONTINUOUS
 70
0
 71
3
 72
14
 73
10
 74
0
 42
0.0000001
 43
0.0000001
 44
0.0000000001
 40
0.0
 40
0.0
 40
0.0
 40
0.0
 40
0.1105506196
 40
0.2256508285
 40
0.3452484692
 40
0.4691298745
 40
0.5969663432
 40
0.728355425
 40
1.0
 40
1.0
 40
1.0
 40
1.0
 10
3.3424546844
 20
5.4264111859
 30
0.0
 10
3.3424546844
 20
5.4283662083
 30
0.0
 10
3.3422753609
 20
5.4323583457
 30
0.0
 10
3.3415113012
 20
5.4384214755
 30
0.0
 10
3.3402629002
 20
5.4446438538
 30
0.0
 10
3.3385541926
 20
5.450988349
 30
0.0
 10
3.3364158985
 20
5.4574206995
 30
0.0
 10
3.3330024681
 20
5.4661696104
 30
0.0
 10
3.3299661528
 20
5.4726283203
 30
0.0
 10
3.3277895339
 20
5.4769107884
 30
0.0
  0
SPLINE
  5
3A0
100
AcDbEntity
  8
0
100
AcDbSpline
 62
7
  6
CONTINUOUS
 70
0
 71
3
 72
15
 73
11
 74
0
 42
0.0000001
 43
0.0000001
 44
0.0000000001
 40
0.0
 40
0.0
 40
0.0
 40
0.0
 40
0.1190526659
 40
0.2404726323
 40
0.3638893569
 40
0.4889545387
 40
0.615356249
 40
0.7428158082
 40
0.8710987034
 40
1.0
 40
1.0
 40
1.0
 40
1.0
 10
3.3277895339
 20
5.4769107884
 30
0.0
 10
3.3270915545
 20
5.4782840535
 30
0.0
 10
3.3255444281
 20
5.4809898617
 30
0.0
 10
3.3228529511
 20
5.4848597212
 30
0.0
 10
3.319801779
 20
5.4885542319
 30
0.0
 10
3.3164253288
 20
5.492043597
 30
0.0
 10
3.3127564181
 20
5.4953029132
 30
0.0
 10
3.3088273083
 20
5.4983119503
 30
0.0
 10
3.3046700579
 20
5.5010552834
 30
0.0
 10
3.3017722645
 20
5.5026973097
 30
0.0
 10
3.3002951468
 20
5.5034719148
 30
0.0
  0
SPLINE
  5
3A1
100
AcDbEntity
  8
0
100
AcDbSpline
 62
7
  6
CONTINUOUS
 70
0
 71
3
 72
21
 73
17
 74
0
 42
0.0000001
 43
0.0000001
 44
0.0000000001
 40
0.0
 40
0.0
 40
0.0
 40
0.0
 40
0.1244689729
 40
0.1869048446
 40
0.2494285571
 40
0.3120176835
 40
0.3746534181
 40
0.4373193453
 40
0.5000000072
 40
0.5626806658
 40
0.6253465882
 40
0.6879823204
 40
0.7505714461
 40
0.813095157
 40
0.8755310279
 40
1.0
 40
1.0
 40
1.0
 40
1.0
 10
3.3002951468
 20
5.5034719148
 30
0.0
 10
3.2970500787
 20
5.5051736387
 30
0.0
 10
3.2920334977
 20
5.5074700398
 30
0.0
 10
3.2851161157
 20
5.5099421066
 30
0.0
 10
3.2798125869
 20
5.5114898249
 30
0.0
 10
3.2744188525
 20
5.5127122461
 30
0.0
 10
3.2689549155
 20
5.5135959706
 30
0.0
 10
3.2634430548
 20
5.5141305888
 30
0.0
 10
3.2579068318
 20
5.5143095527
 30
0.0
 10
3.2523706089
 20
5.5141305887
 30
0.0
 10
3.2468587484
 20
5.5135959705
 30
0.0
 10
3.2413948118
 20
5.512712246
 30
0.0
 10
3.2360010775
 20
5.5114898249
 30
0.0
 10
3.2306975487
 20
5.5099421065
 30
0.0
 10
3.2237801668
 20
5.5074700398
 30
0.0
 10
3.2187635859
 20
5.5051736387
 30
0.0
 10
3.2155185178
 20
5.5034719148
 30
0.0
  0
SPLINE
  5
3A2
100
AcDbEntity
  8
0
100
AcDbSpline
 62
7
  6
CONTINUOUS
 70
0
 71
3
 72
15
 73
11
 74
0
 42
0.0000001
 43
0.0000001
 44
0.0000000001
 40
0.0
 40
0.0
 40
0.0
 40
0.0
 40
0.1289012953
 40
0.2571841881
 40
0.3846437458
 40
0.5110454544
 40
0.6361106337
 40
0.7595273582
 40
0.8809473315
 40
1.0
 40
1.0
 40
1.0
 40
1.0
 10
3.2155185178
 20
5.5034719148
 30
0.0
 10
3.2140414001
 20
5.5026973097
 30
0.0
 10
3.2111436068
 20
5.5010552834
 30
0.0
 10
3.2069863564
 20
5.4983119504
 30
0.0
 10
3.2030572466
 20
5.4953029134
 30
0.0
 10
3.199388336
 20
5.4920435972
 30
0.0
 10
3.1960118858
 20
5.4885542321
 30
0.0
 10
3.1929607136
 20
5.4848597215
 30
0.0
 10
3.1902692366
 20
5.4809898618
 30
0.0
 10
3.1887221102
 20
5.4782840535
 30
0.0
 10
3.1880241307
 20
5.4769107884
 30
0.0
  0
SPLINE
  5
3A3
100
AcDbEntity
  8
0
100
AcDbSpline
 62
7
  6
CONTINUOUS
 70
0
 71
3
 72
14
 73
10
 74
0
 42
0.0000001
 43
0.0000001
 44
0.0000000001
 40
0.0
 40
0.0
 40
0.0
 40
0.0
 40
0.2716448115
 40
0.4030340843
 40
0.5308708001
 40
0.6547523537
 40
0.7743499615
 40
0.8894498393
 40
1.0
 40
1.0
 40
1.0
 40
1.0
 10
3.1880241307
 20
5.4769107884
 30
0.0
 10
3.1858475099
 20
5.4726283166
 30
0.0
 10
3.1828111917
 20
5.4661695997
 30
0.0
 10
3.1793977584
 20
5.4574206771
 30
0.0
 10
3.177259463
 20
5.4509883162
 30
0.0
 10
3.1755507559
 20
5.4446438142
 30
0.0
 10
3.1743023588
 20
5.438421439
 30
0.0
 10
3.1735383022
 20
5.4323583236
 30
0.0
 10
3.1733589802
 20
5.4283662002
 30
0.0
 10
3.1733589802
 20
5.4264111859
 30
0.0
  0
SPLINE
  5
3A4
100
AcDbEntity
  8
0
100
AcDbSpline
 62
7
  6
CONTINUOUS
 70
0
 71
3
 72
22
 73
18
 74
0
 42
0.0000001
 43
0.0000001
 44
0.0000000001
 40
0.0
 40
0.0
 40
0.0
 40
0.0
 40
0.0513382334
 40
0.1028711512
 40
0.1548633849
 40
0.2076712371
 40
0.2616990721
 40
0.3173590322
 40
0.3750247078
 40
0.4349920518
 40
0.4974533507
 40
0.5624866915
 40
0.6300611776
 40
0.7000557316
 40
0.7722842233
 40
0.8465190296
 40
1.0
 40
1.0
 40
1.0
 40
1.0
 10
3.1880241307
 20
5.8525018759
 30
0.0
 10
3.186914766
 20
5.8513394236
 30
0.0
 10
3.1847784863
 20
5.8489249817
 30
0.0
 10
3.1818853857
 20
5.8450280206
 30
0.0
 10
3.1793470435
 20
5.8408356323
 30
0.0
 10
3.1772066556
 20
5.8363392389
 30
0.0
 10
3.1755021706
 20
5.8315376835
 30
0.0
 10
3.174264921
 20
5.8264384971
 30
0.0
 10
3.1735179193
 20
5.8210574967
 30
0.0
 10
3.1732746086
 20
5.8154180202
 30
0.0
 10
3.173538312
 20
5.8095495487
 30
0.0
 10
3.1743023591
 20
5.8034859941
 30
0.0
 10
3.1755507928
 20
5.7972636613
 30
0.0
 10
3.1772595184
 20
5.7909190971
 30
0.0
 10
3.1793978302
 20
5.784486782
 30
0.0
 10
3.1828112422
 20
5.7757379147
 30
0.0
 10
3.1858475171
 20
5.769279237
 30
0.0
 10
3.1880241307
 20
5.7649967794
 30
0.0
  0
SPLINE
  5
3A5
100
AcDbEntity
  8
0
100
AcDbSpline
 62
7
  6
CONTINUOUS
 70
0
 71
3
 72
15
 73
11
 74
0
 42
0.0000001
 43
0.0000001
 44
0.0000000001
 40
0.0
 40
0.0
 40
0.0
 40
0.0
 40
0.1190526391
 40
0.2404725895
 40
0.3638893036
 40
0.4889544973
 40
0.6153562228
 40
0.7428157854
 40
0.8710986943
 40
1.0
 40
1.0
 40
1.0
 40
1.0
 10
3.1880241307
 20
5.7649967794
 30
0.0
 10
3.18872211
 20
5.7636235147
 30
0.0
 10
3.190269236
 20
5.7609177069
 30
0.0
 10
3.1929607125
 20
5.7570478479
 30
0.0
 10
3.1960118844
 20
5.7533533373
 30
0.0
 10
3.1993883346
 20
5.749863972
 30
0.0
 10
3.2030572456
 20
5.7466046553
 30
0.0
 10
3.2069863557
 20
5.7435956179
 30
0.0
 10
3.2111436064
 20
5.7408522846
 30
0.0
 10
3.2140414
 20
5.7392102582
 30
0.0
 10
3.2155185178
 20
5.738435653
 30
0.0
  0
SPLINE
  5
3A6
100
AcDbEntity
  8
0
100
AcDbSpline
 62
7
  6
CONTINUOUS
 70
0
 71
3
 72
15
 73
11
 74
0
 42
0.0000001
 43
0.0000001
 44
0.0000000001
 40
0.0
 40
0.0
 40
0.0
 40
0.0
 40
0.1289013025
 40
0.2571842081
 40
0.3846437697
 40
0.5110454904
 40
0.6361106768
 40
0.7595273905
 40
0.8809473475
 40
1.0
 40
1.0
 40
1.0
 40
1.0
 10
3.3002951468
 20
5.738435653
 30
0.0
 10
3.3017722645
 20
5.7392102582
 30
0.0
 10
3.3046700581
 20
5.7408522846
 30
0.0
 10
3.3088273088
 20
5.7435956178
 30
0.0
 10
3.3127564188
 20
5.7466046551
 30
0.0
 10
3.3164253296
 20
5.7498639716
 30
0.0
 10
3.3198017797
 20
5.7533533368
 30
0.0
 10
3.3228529517
 20
5.7570478473
 30
0.0
 10
3.3255444284
 20
5.7609177066
 30
0.0
 10
3.3270915545
 20
5.7636235145
 30
0.0
 10
3.3277895339
 20
5.7649967794
 30
0.0
  0
SPLINE
  5
3A7
100
AcDbEntity
  8
0
100
AcDbSpline
 62
7
  6
CONTINUOUS
 70
0
 71
3
 72
22
 73
18
 74
0
 42
0.0000001
 43
0.0000001
 44
0.0000000001
 40
0.0
 40
0.0
 40
0.0
 40
0.0
 40
0.1534809773
 40
0.2277157608
 40
0.2999442246
 40
0.3699387491
 40
0.4375132135
 40
0.5025465521
 40
0.5650078707
 40
0.624975204
 40
0.6826408888
 40
0.7383008708
 40
0.7923287298
 40
0.8451366032
 40
0.8971288537
 40
0.9486617736
 40
1.0
 40
1.0
 40
1.0
 40
1.0
 10
3.3277895339
 20
5.7649967794
 30
0.0
 10
3.3299661476
 20
5.7692792372
 30
0.0
 10
3.3330024224
 20
5.7757379144
 30
0.0
 10
3.3364158338
 20
5.7844867804
 30
0.0
 10
3.3385541449
 20
5.7909190931
 30
0.0
 10
3.34026287
 20
5.7972636549
 30
0.0
 10
3.3415113039
 20
5.803485986
 30
0.0
 10
3.3422753518
 20
5.8095495403
 30
0.0
 10
3.3425390559
 20
5.815418012
 30
0.0
 10
3.3422957461
 20
5.8210574891
 30
0.0
 10
3.3415487452
 20
5.8264384902
 30
0.0
 10
3.3403114958
 20
5.8315376785
 30
0.0
 10
3.3386070102
 20
5.8363392359
 30
0.0
 10
3.3364666217
 20
5.8408356312
 30
0.0
 10
3.3339282787
 20
5.8450280205
 30
0.0
 10
3.3310351783
 20
5.8489249822
 30
0.0
 10
3.3288988984
 20
5.8513394237
 30
0.0
 10
3.3277895339
 20
5.8525018759
 30
0.0
  0
SPLINE
  5
3A8
100
AcDbEntity
  8
0
100
AcDbSpline
 62
7
  6
CONTINUOUS
 70
0
 71
3
 72
9
 73
5
 74
0
 42
0.0000001
 43
0.0000001
 44
0.0000000001
 40
0.0
 40
0.0
 40
0.0
 40
0.0
 40
0.2427253626
 40
1.0
 40
1.0
 40
1.0
 40
1.0
 10
3.3277895339
 20
5.8525018759
 30
0.0
 10
3.3275334297
 20
5.8527702358
 30
0.0
 10
3.3264455981
 20
5.8538445442
 30
0.0
 10
3.3252393781
 20
5.8547957458
 30
0.0
 10
3.324286442
 20
5.8554525011
 30
0.0
  0
SPLINE
  5
3A9
100
AcDbEntity
  8
0
100
AcDbSpline
 62
7
  6
CONTINUOUS
 70
0
 71
3
 72
15
 73
11
 74
0
 42
0.0000001
 43
0.0000001
 44
0.0000000001
 40
0.0
 40
0.0
 40
0.0
 40
0.0
 40
0.1180230001
 40
0.236490574
 40
0.3560168432
 40
0.4774170162
 40
0.6016206137
 40
0.7295755273
 40
0.8621406681
 40
1.0
 40
1.0
 40
1.0
 40
1.0
 10
3.3277895339
 20
5.3894056919
 30
0.0
 10
3.328898917
 20
5.3905681635
 30
0.0
 10
3.3310352309
 20
5.3929825926
 30
0.0
 10
3.333928333
 20
5.3968795988
 30
0.0
 10
3.3364666988
 20
5.4010719929
 30
0.0
 10
3.3386070649
 20
5.4055684311
 30
0.0
 10
3.3403115308
 20
5.4103699526
 30
0.0
 10
3.3415487466
 20
5.4154691795
 30
0.0
 10
3.3422957424
 20
5.4208498054
 30
0.0
 10
3.3424546844
 20
5.424534232
 30
0.0
 10
3.3424546844
 20
5.4264111859
 30
0.0
  0
SPLINE
  5
3AA
100
AcDbEntity
  8
0
100
AcDbSpline
 62
7
  6
CONTINUOUS
 70
0
 71
3
 72
15
 73
11
 74
0
 42
0.0000001
 43
0.0000001
 44
0.0000000001
 40
0.0
 40
0.0
 40
0.0
 40
0.0
 40
0.1378598832
 40
0.2704253668
 40
0.3983802547
 40
0.5225836534
 40
0.6439835563
 40
0.7635096357
 40
0.8819770624
 40
1.0
 40
1.0
 40
1.0
 40
1.0
 10
3.1733589802
 20
5.4264111859
 30
0.0
 10
3.1733589802
 20
5.4245342245
 30
0.0
 10
3.1735179236
 20
5.4208497857
 30
0.0
 10
3.1742649223
 20
5.415469148
 30
0.0
 10
3.1755021423
 20
5.4103699204
 30
0.0
 10
3.1772066088
 20
5.4055684063
 30
0.0
 10
3.1793469736
 20
5.4010719774
 30
0.0
 10
3.1818853367
 20
5.3968795913
 30
0.0
 10
3.184778436
 20
5.3929825897
 30
0.0
 10
3.1869147482
 20
5.3905681629
 30
0.0
 10
3.1880241307
 20
5.3894056919
 30
0.0
  0
SPLINE
  5
3AB
100
AcDbEntity
  8
0
100
AcDbSpline
 62
7
  6
CONTINUOUS
 70
0
 71
3
 72
9
 73
5
 74
0
 42
0.0000001
 43
0.0000001
 44
0.0000000001
 40
0.0
 40
0.0
 40
0.0
 40
0.0
 40
0.2427253333
 40
1.0
 40
1.0
 40
1.0
 40
1.0
 10
3.1880241307
 20
5.3894056919
 30
0.0
 10
3.1882802349
 20
5.3891373321
 30
0.0
 10
3.1893680665
 20
5.3880630236
 30
0.0
 10
3.1905742865
 20
5.3871118221
 30
0.0
 10
3.1915272225
 20
5.3864550668
 30
0.0
  0
SPLINE
  5
3AC
100
AcDbEntity
  8
0
100
AcDbSpline
 62
7
  6
CONTINUOUS
 70
0
 71
3
 72
23
 73
19
 74
0
 42
0.0000001
 43
0.0000001
 44
0.0000000001
 40
0.0
 40
0.0
 40
0.0
 40
0.0
 40
0.1169601295
 40
0.1473153343
 40
0.1780601773
 40
0.2405988878
 40
0.3043477293
 40
0.3690325895
 40
0.4343549166
 40
0.5
 40
0.5656450834
 40
0.6309674105
 40
0.6956522707
 40
0.7594011122
 40
0.8219398227
 40
0.8526846657
 40
0.8830398705
 40
1.0
 40
1.0
 40
1.0
 40
1.0
 10
3.3383202449
 20
5.3144113351
 30
0.0
 10
3.3329328595
 20
5.318295479
 30
0.0
 10
3.3256542611
 20
5.3225407257
 30
0.0
 10
3.3164494987
 20
5.3267230009
 30
0.0
 10
3.3099429182
 20
5.329366429
 30
0.0
 10
3.3014869609
 20
5.3322266202
 30
0.0
 10
3.2909711874
 20
5.3349157991
 30
0.0
 10
3.2801313028
 20
5.3368555644
 30
0.0
 10
3.269073776
 20
5.3380270083
 30
0.0
 10
3.2579068323
 20
5.3384187658
 30
0.0
 10
3.2467398886
 20
5.3380270083
 30
0.0
 10
3.2356823618
 20
5.3368555644
 30
0.0
 10
3.2248424772
 20
5.3349157991
 30
0.0
 10
3.2143267037
 20
5.3322266202
 30
0.0
 10
3.2058707464
 20
5.329366429
 30
0.0
 10
3.1993641659
 20
5.3267230009
 30
0.0
 10
3.1901594035
 20
5.3225407257
 30
0.0
 10
3.1828808051
 20
5.318295479
 30
0.0
 10
3.1774934197
 20
5.3144113351
 30
0.0
  0
SPLINE
  5
3AD
100
AcDbEntity
  8
0
100
AcDbSpline
 62
7
  6
CONTINUOUS
 70
0
 71
3
 72
53
 73
49
 74
0
 42
0.0000001
 43
0.0000001
 44
0.0000000001
 40
0.0
 40
0.0
 40
0.0
 40
0.0
 40
0.0451446236
 40
0.090198747
 40
0.1350535379
 40
0.179613497
 40
0.223785726
 40
0.2456976787
 40
0.2674777209
 40
0.3105918494
 40
0.3530307723
 40
0.3947122052
 40
0.4355552977
 40
0.475471226
 40
0.5143753907
 40
0.5334241074
 40
0.5521918291
 40
0.588855758
 40
0.6067380891
 40
0.6243098103
 40
0.6584811522
 40
0.6750616542
 40
0.6912974302
 40
0.7227225076
 40
0.7527230369
 40
0.7671713797
 40
0.7812418421
 40
0.7949294895
 40
0.8082311388
 40
0.8336638933
 40
0.8457902563
 40
0.8575203879
 40
0.8688511412
 40
0.8797777622
 40
0.8902960909
 40
0.9004044801
 40
0.9193904184
 40
0.9282675096
 40
0.9367331045
 40
0.9447876942
 40
0.9524341641
 40
0.9596797343
 40
0.9665319612
 40
0.9729947051
 40
0.9790747868
 40
0.9847851852
 40
0.9901493075
 40
1.0
 40
1.0
 40
1.0
 40
1.0
 10
5.5445148663
 20
5.6209537839
 30
0.0
 10
5.5445154816
 20
5.6253361482
 30
0.0
 10
5.544530018
 20
5.6340920964
 30
0.0
 10
5.5445936292
 20
5.6472021368
 30
0.0
 10
5.5447009623
 20
5.6602551406
 30
0.0
 10
5.5448563639
 20
5.6732220494
 30
0.0
 10
5.545025268
 20
5.6839614014
 30
0.0
 10
5.5451794526
 20
5.6924893329
 30
0.0
 10
5.545345374
 20
5.7009143095
 30
0.0
 10
5.5455811494
 20
5.7113309273
 30
0.0
 10
5.5459285812
 20
5.7236772453
 30
0.0
 10
5.5463256539
 20
5.7358014621
 30
0.0
 10
5.5467583744
 20
5.7476793901
 30
0.0
 10
5.5472413798
 20
5.7592855793
 30
0.0
 10
5.5476958997
 20
5.7687752821
 30
0.0
 10
5.5480901945
 20
5.7762124183
 30
0.0
 10
5.5484984862
 20
5.7834309931
 30
0.0
 10
5.5489353563
 20
5.7905344957
 30
0.0
 10
5.5493940499
 20
5.7975202341
 30
0.0
 10
5.5498566591
 20
5.8042631934
 30
0.0
 10
5.550348116
 20
5.8108775211
 30
0.0
 10
5.5508864741
 20
5.8173579814
 30
0.0
 10
5.5514369021
 20
5.8235698294
 30
0.0
 10
5.5521545303
 20
5.8310745594
 30
0.0
 10
5.5529042985
 20
5.8384017785
 30
0.0
 10
5.5535307157
 20
5.8440478746
 30
0.0
 10
5.554011041
 20
5.8481168038
 30
0.0
 10
5.5545083377
 20
5.8520715311
 30
0.0
 10
5.5551810928
 20
5.8571157128
 30
0.0
 10
5.555888966
 20
5.8620021859
 30
0.0
 10
5.5566288531
 20
5.8667293653
 30
0.0
 10
5.5571811649
 20
5.8701002097
 30
0.0
 10
5.5577388371
 20
5.8733520759
 30
0.0
 10
5.5583078712
 20
5.8764825112
 30
0.0
 10
5.5588946639
 20
5.8794888953
 30
0.0
 10
5.5596854119
 20
5.8832521588
 30
0.0
 10
5.5605171818
 20
5.8868437293
 30
0.0
 10
5.5613884779
 20
5.8902610616
 30
0.0
 10
5.562033543
 20
5.8926407115
 30
0.0
 10
5.5626899731
 20
5.8948931243
 30
0.0
 10
5.5633627306
 20
5.8970168897
 30
0.0
 10
5.56406093
 20
5.8990093036
 30
0.0
 10
5.5647877262
 20
5.9008685998
 30
0.0
 10
5.5655340816
 20
5.9025975695
 30
0.0
 10
5.5662988371
 20
5.9041964128
 30
0.0
 10
5.5670856279
 20
5.9056652311
 30
0.0
 10
5.5681434114
 20
5.9073992675
 30
0.0
 10
5.5690408939
 20
5.908584553
 30
0.0
 10
5.5696980307
 20
5.9092792297
 30
0.0
  0
SPLINE
  5
3AE
100
AcDbEntity
  8
0
100
AcDbSpline
 62
7
  6
CONTINUOUS
 70
0
 71
3
 72
36
 73
32
 74
0
 42
0.0000001
 43
0.0000001
 44
0.0000000001
 40
0.0
 40
0.0
 40
0.0
 40
0.0
 40
0.0875624514
 40
0.1744587452
 40
0.2600307824
 40
0.3436304341
 40
0.4246288302
 40
0.5024205707
 40
0.5764300678
 40
0.6461160929
 40
0.6791796152
 40
0.7109771873
 40
0.7414531603
 40
0.7705543514
 40
0.7982312181
 40
0.8244372433
 40
0.8491307525
 40
0.8722739804
 40
0.8938337103
 40
0.9137830373
 40
0.9231477155
 40
0.9321033112
 40
0.9406489048
 40
0.9487838977
 40
0.956508181
 40
0.9638254557
 40
0.9707438565
 40
0.9772764954
 40
0.9834418878
 40
0.9892639087
 40
1.0
 40
1.0
 40
1.0
 40
1.0
 10
5.6146111003
 20
5.6209537839
 30
0.0
 10
5.6146124397
 20
5.6294469378
 30
0.0
 10
5.6145305638
 20
5.6463687605
 30
0.0
 10
5.6141612837
 20
5.6715882287
 30
0.0
 10
5.6135494959
 20
5.6964185492
 30
0.0
 10
5.6126930987
 20
5.720669273
 30
0.0
 10
5.6115926337
 20
5.7441547586
 30
0.0
 10
5.6102522557
 20
5.7666961003
 30
0.0
 10
5.6086788078
 20
5.7881223775
 30
0.0
 10
5.6071578806
 20
5.8052004879
 30
0.0
 10
5.6058238398
 20
5.8181827434
 30
0.0
 10
5.6047902126
 20
5.8273722075
 30
0.0
 10
5.6037084018
 20
5.8361690369
 30
0.0
 10
5.6025808985
 20
5.8445570305
 30
0.0
 10
5.601411026
 20
5.8525208541
 30
0.0
 10
5.6002019838
 20
5.8600461569
 30
0.0
 10
5.5989543337
 20
5.8671190804
 30
0.0
 10
5.5976696453
 20
5.8737268874
 30
0.0
 10
5.5963500311
 20
5.8798579071
 30
0.0
 10
5.5951984711
 20
5.8846568209
 30
0.0
 10
5.5942538583
 20
5.8882467258
 30
0.0
 10
5.5935509105
 20
5.890756115
 30
0.0
 10
5.592838136
 20
5.8931385092
 30
0.0
 10
5.5921154328
 20
5.8953928177
 30
0.0
 10
5.5913838348
 20
5.8975186644
 30
0.0
 10
5.5906406455
 20
5.8995150946
 30
0.0
 10
5.5898809061
 20
5.9013811884
 30
0.0
 10
5.5890983016
 20
5.9031160054
 30
0.0
 10
5.5882852436
 20
5.9047189281
 30
0.0
 10
5.5871817447
 20
5.9066271903
 30
0.0
 10
5.5862446007
 20
5.9079415055
 30
0.0
 10
5.5855653771
 20
5.908730852
 30
0.0
  0
SPLINE
  5
3AF
100
AcDbEntity
  8
0
100
AcDbSpline
 62
7
  6
CONTINUOUS
 70
0
 71
3
 72
22
 73
18
 74
0
 42
0.0000001
 43
0.0000001
 44
0.0000000001
 40
0.0
 40
0.0
 40
0.0
 40
0.0
 40
0.051470148
 40
0.103998382
 40
0.157857888
 40
0.2132632987
 40
0.2703668439
 40
0.329258258
 40
0.3899674105
 40
0.4524686736
 40
0.5166862587
 40
0.5825000261
 40
0.6497514708
 40
0.718249633
 40
0.7877767447
 40
0.8580938253
 40
1.0
 40
1.0
 40
1.0
 40
1.0
 10
3.1688181846
 20
5.9342970977
 30
0.0
 10
3.169276262
 20
5.9324491556
 30
0.0
 10
3.1704291523
 20
5.9287679517
 30
0.0
 10
3.1728127061
 20
5.9234244657
 30
0.0
 10
3.1758456708
 20
5.9182515609
 30
0.0
 10
3.1795032963
 20
5.9132893859
 30
0.0
 10
3.1837567545
 20
5.9085747465
 30
0.0
 10
3.188572964
 20
5.9041427918
 30
0.0
 10
3.1939149135
 20
5.9000263974
 30
0.0
 10
3.1997418336
 20
5.8962561416
 30
0.0
 10
3.2060094421
 20
5.8928600741
 30
0.0
 10
3.2126701958
 20
5.889863524
 30
0.0
 10
3.2196736809
 20
5.8872888868
 30
0.0
 10
3.2269666811
 20
5.8851554726
 30
0.0
 10
3.2344946436
 20
5.8834792179
 30
0.0
 10
3.2447957633
 20
5.8818662499
 30
0.0
 10
3.2526577497
 20
5.8813834288
 30
0.0
 10
3.2579068323
 20
5.8813834288
 30
0.0
  0
SPLINE
  5
3B0
100
AcDbEntity
  8
0
100
AcDbSpline
 62
7
  6
CONTINUOUS
 70
0
 71
3
 72
22
 73
18
 74
0
 42
0.0000001
 43
0.0000001
 44
0.0000000001
 40
0.0
 40
0.0
 40
0.0
 40
0.0
 40
0.0514698278
 40
0.1039975134
 40
0.1578563406
 40
0.2132610329
 40
0.2703638987
 40
0.3292547356
 40
0.3899634607
 40
0.4524644773
 40
0.5166820137
 40
0.5824959334
 40
0.6497477235
 40
0.7182464064
 40
0.7877741883
 40
0.8580920571
 40
1.0
 40
1.0
 40
1.0
 40
1.0
 10
3.3469970097
 20
5.9343032705
 30
0.0
 10
3.3465391577
 20
5.9324551724
 30
0.0
 10
3.3453866833
 20
5.9287736384
 30
0.0
 10
3.3430036312
 20
5.9234296217
 30
0.0
 10
3.3399710554
 20
5.9182561716
 30
0.0
 10
3.3363137067
 20
5.9132934467
 30
0.0
 10
3.3320604159
 20
5.9085782622
 30
0.0
 10
3.3272442683
 20
5.9041457764
 30
0.0
 10
3.32190228
 20
5.9000288732
 30
0.0
 10
3.3160752266
 20
5.8962581388
 30
0.0
 10
3.3098073977
 20
5.8928616303
 30
0.0
 10
3.3031463448
 20
5.8898646835
 30
0.0
 10
3.2961424908
 20
5.8872896999
 30
0.0
 10
3.2888490625
 20
5.8851559949
 30
0.0
 10
3.2813206234
 20
5.8834795094
 30
0.0
 10
3.2710188134
 20
5.881866317
 30
0.0
 10
3.2631562806
 20
5.8813834288
 30
0.0
 10
3.2579068323
 20
5.8813834288
 30
0.0
  0
SPLINE
  5
3B1
100
AcDbEntity
  8
0
100
AcDbSpline
 62
7
  6
CONTINUOUS
 70
0
 71
3
 72
23
 73
19
 74
0
 42
0.0000001
 43
0.0000001
 44
0.0000000001
 40
0.0
 40
0.0
 40
0.0
 40
0.0
 40
0.0513246375
 40
0.1035010394
 40
0.156880201
 40
0.2117510827
 40
0.2683315358
 40
0.3267653643
 40
0.3567103924
 40
0.3871394601
 40
0.4494241822
 40
0.51357553
 40
0.5794781614
 40
0.6469686957
 40
0.7158431756
 40
0.7858640784
 40
0.8567679761
 40
1.0
 40
1.0
 40
1.0
 40
1.0
 10
3.1638188105
 20
5.9387707893
 30
0.0
 10
3.1641051895
 20
5.9367195632
 30
0.0
 10
3.1649525625
 20
5.9326160608
 30
0.0
 10
3.1670069957
 20
5.9266118657
 30
0.0
 10
3.1698331717
 20
5.920770656
 30
0.0
 10
3.1734049456
 20
5.9151432067
 30
0.0
 10
3.177690174
 20
5.9097763136
 30
0.0
 10
3.1817918174
 20
5.9055915009
 30
0.0
 10
3.1853824877
 20
5.9024125337
 30
0.0
 10
3.189236848
 20
5.8993046671
 30
0.0
 10
3.194428179
 20
5.8956674393
 30
0.0
 10
3.201142725
 20
5.8917578176
 30
0.0
 10
3.2083346909
 20
5.8883010773
 30
0.0
 10
3.2159433124
 20
5.8853260805
 30
0.0
 10
3.2239045293
 20
5.8828574686
 30
0.0
 10
3.232152254
 20
5.8809156792
 30
0.0
 10
3.2434712489
 20
5.8790451007
 30
0.0
 10
3.2521269409
 20
5.8784852946
 30
0.0
 10
3.2579068323
 20
5.8784852946
 30
0.0
  0
SPLINE
  5
3B2
100
AcDbEntity
  8
0
100
AcDbSpline
 62
7
  6
CONTINUOUS
 70
0
 71
3
 72
23
 73
19
 74
0
 42
0.0000001
 43
0.0000001
 44
0.0000000001
 40
0.0
 40
0.0
 40
0.0
 40
0.0
 40
0.0513246751
 40
0.1035013362
 40
0.1568809041
 40
0.2117522657
 40
0.2683332059
 40
0.3267674733
 40
0.3567126876
 40
0.3871419146
 40
0.4494268634
 40
0.5135782991
 40
0.5794808732
 40
0.646971208
 40
0.715845358
 40
0.7858658183
 40
0.8567691847
 40
1.0
 40
1.0
 40
1.0
 40
1.0
 10
3.3519942031
 20
5.9387661279
 30
0.0
 10
3.3517076337
 20
5.936715008
 30
0.0
 10
3.3508599045
 20
5.9326117348
 30
0.0
 10
3.3488050308
 20
5.9266079232
 30
0.0
 10
3.3459785032
 20
5.9207671147
 30
0.0
 10
3.3424064666
 20
5.9151400754
 30
0.0
 10
3.3381210632
 20
5.9097735931
 30
0.0
 10
3.3340193438
 20
5.9055891127
 30
0.0
 10
3.3304286514
 20
5.9024104038
 30
0.0
 10
3.3265742989
 20
5.8993027973
 30
0.0
 10
3.321383028
 20
5.8956658812
 30
0.0
 10
3.3146686215
 20
5.8917566009
 30
0.0
 10
3.3074768596
 20
5.8883001691
 30
0.0
 10
3.2998684992
 20
5.8853254427
 30
0.0
 10
3.2919075924
 20
5.8828570583
 30
0.0
 10
3.2836602177
 20
5.88091545
 30
0.0
 10
3.2723417349
 20
5.879045048
 30
0.0
 10
3.2636864506
 20
5.8784852946
 30
0.0
 10
3.2579068323
 20
5.8784852946
 30
0.0
  0
SPLINE
  5
3B3
100
AcDbEntity
  8
0
100
AcDbSpline
 62
7
  6
CONTINUOUS
 70
0
 71
3
 72
35
 73
31
 74
0
 42
0.0000001
 43
0.0000001
 44
0.0000000001
 40
0.0
 40
0.0
 40
0.0
 40
0.0
 40
0.0978512189
 40
0.1951988219
 40
0.2890834401
 40
0.3769971285
 40
0.4599213582
 40
0.5399180607
 40
0.6181422132
 40
0.6926126698
 40
0.7275983778
 40
0.7606428235
 40
0.8209128422
 40
0.8484384832
 40
0.8744319995
 40
0.8990520092
 40
0.9221693278
 40
0.9431572829
 40
0.9613337782
 40
0.9760222283
 40
0.9818580882
 40
0.9866171505
 40
0.9903959291
 40
0.993338344
 40
0.9955828481
 40
0.9972572763
 40
0.9984706198
 40
0.9993025127
 40
0.9997965894
 40
1.0
 40
1.0
 40
1.0
 40
1.0
 10
5.5696980352
 20
5.9092792713
 30
0.0
 10
5.5698460644
 20
5.9094547682
 30
0.0
 10
5.5701603693
 20
5.9097888999
 30
0.0
 10
5.5706573088
 20
5.9102508201
 30
0.0
 10
5.5711516906
 20
5.9106804809
 30
0.0
 10
5.5716189848
 20
5.9110896511
 30
0.0
 10
5.5720677002
 20
5.9114705781
 30
0.0
 10
5.5725144473
 20
5.9118182881
 30
0.0
 10
5.5729653901
 20
5.9121265352
 30
0.0
 10
5.5733377012
 20
5.9123617502
 30
0.0
 10
5.5736225482
 20
5.9125368331
 30
0.0
 10
5.5738791121
 20
5.9126942983
 30
0.0
 10
5.5741208279
 20
5.912842511
 30
0.0
 10
5.5743504752
 20
5.9129786989
 30
0.0
 10
5.5745095518
 20
5.9130698677
 30
0.0
 10
5.574661528
 20
5.9131525559
 30
0.0
 10
5.574804988
 20
5.9132262042
 30
0.0
 10
5.5749357199
 20
5.9132915092
 30
0.0
 10
5.5750486086
 20
5.9133482548
 30
0.0
 10
5.575128873
 20
5.9133907971
 30
0.0
 10
5.5751797466
 20
5.9134213539
 30
0.0
 10
5.5752075319
 20
5.9134405242
 30
0.0
 10
5.5752284125
 20
5.9134575913
 30
0.0
 10
5.5752433492
 20
5.9134724764
 30
0.0
 10
5.5752533265
 20
5.9134851379
 30
0.0
 10
5.5752594347
 20
5.9134956369
 30
0.0
 10
5.5752624954
 20
5.9135037121
 30
0.0
 10
5.5752639698
 20
5.9135097716
 30
0.0
 10
5.5752640336
 20
5.9135129471
 30
0.0
 10
5.5752648096
 20
5.9135149963
 30
0.0
 10
5.5752652868
 20
5.9135149922
 30
0.0
  0
SPLINE
  5
3B4
100
AcDbEntity
  8
0
100
AcDbSpline
 62
7
  6
CONTINUOUS
 70
0
 71
3
 72
33
 73
29
 74
0
 42
0.0000001
 43
0.0000001
 44
0.0000000001
 40
0.0
 40
0.0
 40
0.0
 40
0.0
 40
0.1935288165
 40
0.2855280837
 40
0.3748010804
 40
0.4615158135
 40
0.5451280172
 40
0.624893503
 40
0.6999744539
 40
0.7688928111
 40
0.8004125459
 40
0.8296290868
 40
0.8562846334
 40
0.8801690767
 40
0.9013974287
 40
0.9202230547
 40
0.936897077
 40
0.9516718241
 40
0.9648079029
 40
0.976431381
 40
0.9815777133
 40
0.986208029
 40
0.9902669203
 40
0.9936981395
 40
0.9964447234
 40
0.9984491095
 40
0.9996532965
 40
1.0
 40
1.0
 40
1.0
 40
1.0
 10
5.5855653771
 20
5.908730852
 30
0.0
 10
5.5852424664
 20
5.9091080782
 30
0.0
 10
5.584750329
 20
5.9096517884
 30
0.0
 10
5.58406437
 20
5.910326104
 30
0.0
 10
5.5835533218
 20
5.9107865227
 30
0.0
 10
5.5830375939
 20
5.911208425
 30
0.0
 10
5.5825242599
 20
5.9115937311
 30
0.0
 10
5.5820216175
 20
5.9119428116
 30
0.0
 10
5.5815393053
 20
5.9122544347
 30
0.0
 10
5.581155185
 20
5.9124895607
 30
0.0
 10
5.5808702315
 20
5.9126612291
 30
0.0
 10
5.5806781698
 20
5.9127769522
 30
0.0
 10
5.5805034375
 20
5.9128834786
 30
0.0
 10
5.5803475771
 20
5.9129815561
 30
0.0
 10
5.5802098891
 20
5.9130707566
 30
0.0
 10
5.5800882985
 20
5.9131507664
 30
0.0
 10
5.5799804749
 20
5.9132215748
 30
0.0
 10
5.5798840661
 20
5.9132831653
 30
0.0
 10
5.5797970048
 20
5.9133352712
 30
0.0
 10
5.5797292895
 20
5.9133714496
 30
0.0
 10
5.579680106
 20
5.913395823
 30
0.0
 10
5.579647968
 20
5.9134110201
 30
0.0
 10
5.5796197885
 20
5.913423819
 30
0.0
 10
5.5795952904
 20
5.9134344409
 30
0.0
 10
5.5795770671
 20
5.9134422656
 30
0.0
 10
5.5795603247
 20
5.9134488324
 30
0.0
 10
5.5795564123
 20
5.9134509395
 30
0.0
 10
5.5795483628
 20
5.9134537724
 30
0.0
 10
5.5795492523
 20
5.9134537839
 30
0.0
  0
SPLINE
  5
3B5
100
AcDbEntity
  8
0
100
AcDbSpline
 62
7
  6
CONTINUOUS
 70
0
 71
3
 72
15
 73
11
 74
0
 42
0.0000001
 43
0.0000001
 44
0.0000000001
 40
0.0
 40
0.0
 40
0.0
 40
0.0
 40
0.1223267818
 40
0.2469184351
 40
0.3730647227
 40
0.5
 40
0.6269352773
 40
0.7530815649
 40
0.8776732182
 40
1.0
 40
1.0
 40
1.0
 40
1.0
 10
3.3002951468
 20
5.738435653
 30
0.0
 10
3.2969657369
 20
5.7373062475
 30
0.0
 10
3.2901416689
 20
5.7353215582
 30
0.0
 10
3.2796213641
 20
5.7331930056
 30
0.0
 10
3.2688316079
 20
5.7319051421
 30
0.0
 10
3.2579068323
 20
5.731474155
 30
0.0
 10
3.2469820567
 20
5.7319051421
 30
0.0
 10
3.2361923005
 20
5.7331930056
 30
0.0
 10
3.2256719957
 20
5.7353215582
 30
0.0
 10
3.2188479277
 20
5.7373062475
 30
0.0
 10
3.2155185178
 20
5.738435653
 30
0.0
  0
SPLINE
  5
3B6
100
AcDbEntity
  8
0
100
AcDbSpline
 62
7
  6
CONTINUOUS
 70
0
 71
3
 72
15
 73
11
 74
0
 42
0.0000001
 43
0.0000001
 44
0.0000000001
 40
0.0
 40
0.0
 40
0.0
 40
0.0
 40
0.13208501
 40
0.2634321583
 40
0.3933322672
 40
0.5211103913
 40
0.6461577425
 40
0.7075042414
 40
0.7679804662
 40
1.0
 40
1.0
 40
1.0
 40
1.0
 10
3.2579068323
 20
5.7427487105
 30
0.0
 10
3.2546200604
 20
5.7427487105
 30
0.0
 10
3.2480622054
 20
5.7429934186
 30
0.0
 10
3.2383275167
 20
5.7440916537
 30
0.0
 10
3.228809159
 20
5.7459085861
 30
0.0
 10
3.2196135312
 20
5.7484242901
 30
0.0
 10
3.2122566188
 20
5.7510973093
 30
0.0
 10
3.206628156
 20
5.7535643153
 30
0.0
 10
3.1987279077
 20
5.7574496875
 30
0.0
 10
3.1925355424
 20
5.7613939077
 30
0.0
 10
3.1880241307
 20
5.7649967794
 30
0.0
  0
SPLINE
  5
3B7
100
AcDbEntity
  8
0
100
AcDbSpline
 62
7
  6
CONTINUOUS
 70
0
 71
3
 72
15
 73
11
 74
0
 42
0.0000001
 43
0.0000001
 44
0.0000000001
 40
0.0
 40
0.0
 40
0.0
 40
0.0
 40
0.2320195328
 40
0.2924957575
 40
0.3538422566
 40
0.478889608
 40
0.6066677323
 40
0.7365678413
 40
0.8679149897
 40
1.0
 40
1.0
 40
1.0
 40
1.0
 10
3.3277895339
 20
5.7649967794
 30
0.0
 10
3.3232781222
 20
5.7613939077
 30
0.0
 10
3.317085757
 20
5.7574496875
 30
0.0
 10
3.3091855086
 20
5.7535643153
 30
0.0
 10
3.3035570459
 20
5.7510973094
 30
0.0
 10
3.2962001334
 20
5.7484242901
 30
0.0
 10
3.2870045057
 20
5.7459085861
 30
0.0
 10
3.2774861479
 20
5.7440916537
 30
0.0
 10
3.2677514593
 20
5.7429934186
 30
0.0
 10
3.2611936042
 20
5.7427487105
 30
0.0
 10
3.2579068323
 20
5.7427487105
 30
0.0
  0
SPLINE
  5
3B8
100
AcDbEntity
  8
0
100
AcDbSpline
 62
7
  6
CONTINUOUS
 70
0
 71
3
 72
39
 73
35
 74
0
 42
0.0000001
 43
0.0000001
 44
0.0000000001
 40
0.0
 40
0.0
 40
0.0
 40
0.0
 40
0.0257335715
 40
0.0519962071
 40
0.0789244729
 40
0.1066256898
 40
0.1351759928
 40
0.1646202502
 40
0.1949733783
 40
0.2262225464
 40
0.2583298552
 40
0.2912352355
 40
0.324859418
 40
0.3591068816
 40
0.3938687302
 40
0.4290254855
 40
0.4644498052
 40
0.5000091411
 40
0.5355683537
 40
0.5709923063
 40
0.6061484575
 40
0.6409094771
 40
0.6751559034
 40
0.7087788619
 40
0.7416828586
 40
0.7737886564
 40
0.8050362235
 40
0.8353877038
 40
0.8648303146
 40
0.8933790248
 40
0.9210787586
 40
0.9480057082
 40
0.9742672507
 40
1.0
 40
1.0
 40
1.0
 40
1.0
 10
3.3469955684
 20
5.3076101133
 30
0.0
 10
3.3465374664
 20
5.309458166
 30
0.0
 10
3.3453845381
 20
5.3131396028
 30
0.0
 10
3.3430008141
 20
5.3184834081
 30
0.0
 10
3.3399676112
 20
5.3236566104
 30
0.0
 10
3.3363096739
 20
5.3286190507
 30
0.0
 10
3.3320558385
 20
5.3333339192
 30
0.0
 10
3.3272391915
 20
5.3377660612
 30
0.0
 10
3.3218967531
 20
5.3418825951
 30
0.0
 10
3.3160693012
 20
5.3456529377
 30
0.0
 10
3.3098011298
 20
5.3490490355
 30
0.0
 10
3.3031397787
 20
5.3520455579
 30
0.0
 10
3.2961357195
 20
5.354620101
 30
0.0
 10
3.2888420033
 20
5.356753373
 30
0.0
 10
3.2813138757
 20
5.358429359
 30
0.0
 10
3.2736083674
 20
5.3596354583
 30
0.0
 10
3.2657838635
 20
5.3603625931
 30
0.0
 10
3.2578996604
 20
5.3606052866
 30
0.0
 10
3.2500155117
 20
5.3603617101
 30
0.0
 10
3.2421911705
 20
5.359633699
 30
0.0
 10
3.2344859318
 20
5.3584267366
 30
0.0
 10
3.2269581789
 20
5.3567499072
 30
0.0
 10
3.2196649395
 20
5.3546158178
 30
0.0
 10
3.2126614556
 20
5.3520404895
 30
0.0
 10
3.206000774
 20
5.3490432198
 30
0.0
 10
3.1997333612
 20
5.3456464182
 30
0.0
 10
3.1939067515
 20
5.3418754204
 30
0.0
 10
3.1885652326
 20
5.3377582845
 30
0.0
 10
3.1837495759
 20
5.3333255983
 30
0.0
 10
3.1794967943
 20
5.3286102474
 30
0.0
 10
3.1758399674
 20
5.3236473904
 30
0.0
 10
3.1728079234
 20
5.3184738405
 30
0.0
 10
3.1704253988
 20
5.3131297604
 30
0.0
 10
3.1692733037
 20
5.3094482102
 30
0.0
 10
3.1688156193
 20
5.3076001167
 30
0.0
  0
SPLINE
  5
3B9
100
AcDbEntity
  8
0
100
AcDbSpline
 62
7
  6
CONTINUOUS
 70
0
 71
3
 72
43
 73
39
 74
0
 42
0.0000001
 43
0.0000001
 44
0.0000000001
 40
0.0
 40
0.0
 40
0.0
 40
0.0
 40
0.0127950876
 40
0.0256723648
 40
0.0386566896
 40
0.0517706126
 40
0.0784578677
 40
0.1058910363
 40
0.134178932
 40
0.1633933684
 40
0.1935697261
 40
0.2247091755
 40
0.2567816696
 40
0.2897295449
 40
0.3234710952
 40
0.3579043711
 40
0.3929106644
 40
0.428358127
 40
0.4641050666
 40
0.5000033421
 40
0.5359015687
 40
0.5716483631
 40
0.607095587
 40
0.6421015535
 40
0.6765344217
 40
0.7102754931
 40
0.7432228301
 40
0.7752947409
 40
0.8064335784
 40
0.8366093146
 40
0.8658231409
 40
0.8941104608
 40
0.9215431116
 40
0.9482299306
 40
0.9613436733
 40
0.9743278458
 40
0.9872050009
 40
1.0
 40
1.0
 40
1.0
 40
1.0
 10
3.3519931966
 20
5.3031487421
 30
0.0
 10
3.3518501429
 20
5.3041714639
 30
0.0
 10
3.3514966791
 20
5.3062147954
 30
0.0
 10
3.3507694965
 20
5.3092508261
 30
0.0
 10
3.3498454634
 20
5.3122599607
 30
0.0
 10
3.3483453912
 20
5.3162497959
 30
0.0
 10
3.3459751109
 20
5.3211465876
 30
0.0
 10
3.3424026958
 20
5.3267726968
 30
0.0
 10
3.3381166832
 20
5.3321388693
 30
0.0
 10
3.3331547268
 20
5.3372000983
 30
0.0
 10
3.327559415
 20
5.3419149579
 30
0.0
 10
3.3213783398
 20
5.3462446529
 30
0.0
 10
3.31466372
 20
5.3501535721
 30
0.0
 10
3.3074720969
 20
5.3536094609
 30
0.0
 10
3.2998639261
 20
5.3565837287
 30
0.0
 10
3.2919031331
 20
5.3590517019
 30
0.0
 10
3.2836565969
 20
5.36099286
 30
0.0
 10
3.2751936129
 20
5.3623910352
 30
0.0
 10
3.2665853066
 20
5.3632345629
 30
0.0
 10
3.2579040413
 20
5.3635164039
 30
0.0
 10
3.2492227995
 20
5.363234201
 30
0.0
 10
3.2406145634
 20
5.3623903144
 30
0.0
 10
3.2321516957
 20
5.3609917864
 30
0.0
 10
3.223905321
 20
5.3590502843
 30
0.0
 10
3.2159447333
 20
5.356581979
 30
0.0
 10
3.2083368098
 20
5.3536073936
 30
0.0
 10
3.2011454739
 20
5.3501512044
 30
0.0
 10
3.1944311791
 20
5.3462420042
 30
0.0
 10
3.1882504636
 20
5.3419120502
 30
0.0
 10
3.1826555438
 20
5.3371969554
 30
0.0
 10
3.1776940083
 20
5.332135517
 30
0.0
 10
3.1734084423
 20
5.3267691627
 30
0.0
 10
3.1698364961
 20
5.3211429011
 30
0.0
 10
3.1674666266
 20
5.3162460116
 30
0.0
 10
3.1659668893
 20
5.3122561167
 30
0.0
 10
3.1650431076
 20
5.3092469432
 30
0.0
 10
3.164316179
 20
5.3062108817
 30
0.0
 10
3.1639628864
 20
5.3041675379
 30
0.0
 10
3.1638199183
 20
5.3031448113
 30
0.0
  0
SPLINE
  5
3BA
100
AcDbEntity
  8
0
100
AcDbSpline
 62
7
  6
CONTINUOUS
 70
0
 71
3
 72
36
 73
32
 74
0
 42
0.0000001
 43
0.0000001
 44
0.0000000001
 40
0.0
 40
0.0
 40
0.0
 40
0.0
 40
0.0875624514
 40
0.1744587452
 40
0.2600307824
 40
0.3436304341
 40
0.4246288302
 40
0.5024205707
 40
0.5764300678
 40
0.6461160929
 40
0.6791796152
 40
0.7109771873
 40
0.7414531603
 40
0.7705543514
 40
0.7982312181
 40
0.8244372433
 40
0.8491307525
 40
0.8722739804
 40
0.8938337103
 40
0.9137830373
 40
0.9231477155
 40
0.9321033112
 40
0.9406489048
 40
0.9487838977
 40
0.956508181
 40
0.9638254557
 40
0.9707438565
 40
0.9772764954
 40
0.9834418878
 40
0.9892639087
 40
1.0
 40
1.0
 40
1.0
 40
1.0
 10
4.1402025643
 20
5.6209537839
 30
0.0
 10
4.1402012249
 20
5.6294469378
 30
0.0
 10
4.1402831008
 20
5.6463687605
 30
0.0
 10
4.1406523809
 20
5.6715882287
 30
0.0
 10
4.1412641687
 20
5.6964185492
 30
0.0
 10
4.1421205659
 20
5.720669273
 30
0.0
 10
4.1432210309
 20
5.7441547586
 30
0.0
 10
4.1445614089
 20
5.7666961003
 30
0.0
 10
4.1461348568
 20
5.7881223775
 30
0.0
 10
4.147655784
 20
5.8052004879
 30
0.0
 10
4.1489898248
 20
5.8181827434
 30
0.0
 10
4.1500234519
 20
5.8273722075
 30
0.0
 10
4.1511052628
 20
5.8361690369
 30
0.0
 10
4.152232766
 20
5.8445570305
 30
0.0
 10
4.1534026386
 20
5.8525208541
 30
0.0
 10
4.1546116808
 20
5.8600461569
 30
0.0
 10
4.1558593309
 20
5.8671190804
 30
0.0
 10
4.1571440193
 20
5.8737268874
 30
0.0
 10
4.1584636335
 20
5.8798579071
 30
0.0
 10
4.1596151935
 20
5.8846568209
 30
0.0
 10
4.1605598062
 20
5.8882467258
 30
0.0
 10
4.1612627541
 20
5.890756115
 30
0.0
 10
4.1619755286
 20
5.8931385092
 30
0.0
 10
4.1626982318
 20
5.8953928177
 30
0.0
 10
4.1634298298
 20
5.8975186644
 30
0.0
 10
4.1641730191
 20
5.8995150946
 30
0.0
 10
4.1649327585
 20
5.9013811884
 30
0.0
 10
4.165715363
 20
5.9031160054
 30
0.0
 10
4.166528421
 20
5.9047189281
 30
0.0
 10
4.1676319199
 20
5.9066271903
 30
0.0
 10
4.1685690639
 20
5.9079415055
 30
0.0
 10
4.1692482875
 20
5.908730852
 30
0.0
  0
SPLINE
  5
3BB
100
AcDbEntity
  8
0
100
AcDbSpline
 62
7
  6
CONTINUOUS
 70
0
 71
3
 72
53
 73
49
 74
0
 42
0.0000001
 43
0.0000001
 44
0.0000000001
 40
0.0
 40
0.0
 40
0.0
 40
0.0
 40
0.0451446236
 40
0.090198747
 40
0.1350535379
 40
0.179613497
 40
0.223785726
 40
0.2456976787
 40
0.2674777209
 40
0.3105918494
 40
0.3530307723
 40
0.3947122052
 40
0.4355552977
 40
0.475471226
 40
0.5143753907
 40
0.5334241074
 40
0.5521918291
 40
0.588855758
 40
0.6067380891
 40
0.6243098103
 40
0.6584811522
 40
0.6750616542
 40
0.6912974302
 40
0.7227225076
 40
0.7527230369
 40
0.7671713797
 40
0.7812418421
 40
0.7949294895
 40
0.8082311388
 40
0.8336638933
 40
0.8457902563
 40
0.8575203879
 40
0.8688511412
 40
0.8797777622
 40
0.8902960909
 40
0.9004044801
 40
0.9193904184
 40
0.9282675096
 40
0.9367331045
 40
0.9447876942
 40
0.9524341641
 40
0.9596797343
 40
0.9665319612
 40
0.9729947051
 40
0.9790747868
 40
0.9847851852
 40
0.9901493075
 40
1.0
 40
1.0
 40
1.0
 40
1.0
 10
4.2102987983
 20
5.6209537839
 30
0.0
 10
4.210298183
 20
5.6253361482
 30
0.0
 10
4.2102836466
 20
5.6340920964
 30
0.0
 10
4.2102200354
 20
5.6472021368
 30
0.0
 10
4.2101127023
 20
5.6602551406
 30
0.0
 10
4.2099573007
 20
5.6732220494
 30
0.0
 10
4.2097883966
 20
5.6839614014
 30
0.0
 10
4.209634212
 20
5.6924893329
 30
0.0
 10
4.2094682906
 20
5.7009143095
 30
0.0
 10
4.2092325152
 20
5.7113309273
 30
0.0
 10
4.2088850833
 20
5.7236772453
 30
0.0
 10
4.2084880106
 20
5.7358014621
 30
0.0
 10
4.2080552902
 20
5.7476793901
 30
0.0
 10
4.2075722848
 20
5.7592855793
 30
0.0
 10
4.2071177649
 20
5.7687752821
 30
0.0
 10
4.2067234701
 20
5.7762124183
 30
0.0
 10
4.2063151784
 20
5.7834309931
 30
0.0
 10
4.2058783083
 20
5.7905344957
 30
0.0
 10
4.2054196147
 20
5.7975202341
 30
0.0
 10
4.2049570055
 20
5.8042631934
 30
0.0
 10
4.2044655486
 20
5.8108775211
 30
0.0
 10
4.2039271905
 20
5.8173579814
 30
0.0
 10
4.2033767625
 20
5.8235698294
 30
0.0
 10
4.2026591343
 20
5.8310745594
 30
0.0
 10
4.2019093661
 20
5.8384017785
 30
0.0
 10
4.2012829489
 20
5.8440478746
 30
0.0
 10
4.2008026236
 20
5.8481168038
 30
0.0
 10
4.2003053269
 20
5.8520715311
 30
0.0
 10
4.1996325718
 20
5.8571157128
 30
0.0
 10
4.1989246986
 20
5.8620021859
 30
0.0
 10
4.1981848115
 20
5.8667293653
 30
0.0
 10
4.1976324997
 20
5.8701002097
 30
0.0
 10
4.1970748275
 20
5.8733520759
 30
0.0
 10
4.1965057934
 20
5.8764825112
 30
0.0
 10
4.1959190007
 20
5.8794888953
 30
0.0
 10
4.1951282527
 20
5.8832521588
 30
0.0
 10
4.1942964828
 20
5.8868437293
 30
0.0
 10
4.1934251867
 20
5.8902610616
 30
0.0
 10
4.1927801216
 20
5.8926407115
 30
0.0
 10
4.1921236915
 20
5.8948931243
 30
0.0
 10
4.191450934
 20
5.8970168897
 30
0.0
 10
4.1907527346
 20
5.8990093036
 30
0.0
 10
4.1900259384
 20
5.9008685998
 30
0.0
 10
4.189279583
 20
5.9025975695
 30
0.0
 10
4.1885148275
 20
5.9041964128
 30
0.0
 10
4.1877280367
 20
5.9056652311
 30
0.0
 10
4.1866702532
 20
5.9073992675
 30
0.0
 10
4.1857727707
 20
5.908584553
 30
0.0
 10
4.1851156339
 20
5.9092792297
 30
0.0
  0
SPLINE
  5
3BC
100
AcDbEntity
  8
0
100
AcDbSpline
 62
7
  6
CONTINUOUS
 70
0
 71
3
 72
9
 73
5
 74
0
 42
0.0000001
 43
0.0000001
 44
0.0000000001
 40
0.0
 40
0.0
 40
0.0
 40
0.0
 40
0.2464070279
 40
1.0
 40
1.0
 40
1.0
 40
1.0
 10
3.3241459625
 20
5.3866580467
 30
0.0
 10
3.3234752407
 20
5.3861803214
 30
0.0
 10
3.3207253151
 20
5.3842809585
 30
0.0
 10
3.3178675731
 20
5.3825384842
 30
0.0
 10
3.3156674714
 20
5.3813129384
 30
0.0
  0
SPLINE
  5
3BD
100
AcDbEntity
  8
0
100
AcDbSpline
 62
7
  6
CONTINUOUS
 70
0
 71
3
 72
9
 73
5
 74
0
 42
0.0000001
 43
0.0000001
 44
0.0000000001
 40
0.0
 40
0.0
 40
0.0
 40
0.0
 40
0.2536566067
 40
1.0
 40
1.0
 40
1.0
 40
1.0
 10
3.2001490998
 20
5.3813113194
 30
0.0
 10
3.1994082957
 20
5.3817239437
 30
0.0
 10
3.1965095331
 20
5.3833892561
 30
0.0
 10
3.1936998973
 20
5.3852106034
 30
0.0
 10
3.1916676768
 20
5.3866580647
 30
0.0
  0
SPLINE
  5
3BE
100
AcDbEntity
  8
0
100
AcDbSpline
 62
7
  6
CONTINUOUS
 70
0
 71
3
 72
15
 73
11
 74
0
 42
0.0000001
 43
0.0000001
 44
0.0000000001
 40
0.0
 40
0.0
 40
0.0
 40
0.0
 40
0.1223267821
 40
0.2469184352
 40
0.3730647224
 40
0.4999999999
 40
0.6269352772
 40
0.7530815644
 40
0.8776732177
 40
1.0
 40
1.0
 40
1.0
 40
1.0
 10
3.2155185178
 20
5.5034719148
 30
0.0
 10
3.2188479277
 20
5.5046013203
 30
0.0
 10
3.2256719957
 20
5.5065860096
 30
0.0
 10
3.2361923005
 20
5.5087145622
 30
0.0
 10
3.2469820567
 20
5.5100024257
 30
0.0
 10
3.2579068323
 20
5.5104334128
 30
0.0
 10
3.2688316079
 20
5.5100024257
 30
0.0
 10
3.2796213641
 20
5.5087145622
 30
0.0
 10
3.2901416689
 20
5.5065860096
 30
0.0
 10
3.2969657369
 20
5.5046013203
 30
0.0
 10
3.3002951468
 20
5.5034719148
 30
0.0
  0
SPLINE
  5
3BF
100
AcDbEntity
  8
0
100
AcDbSpline
 62
7
  6
CONTINUOUS
 70
0
 71
3
 72
23
 73
19
 74
0
 42
0.0000001
 43
0.0000001
 44
0.0000000001
 40
0.0
 40
0.0
 40
0.0
 40
0.0
 40
0.1160097671
 40
0.146247879
 40
0.176921128
 40
0.239444805
 40
0.3033338924
 40
0.3682837457
 40
0.4339581408
 40
0.4999999999
 40
0.566041859
 40
0.6317162541
 40
0.6966661075
 40
0.760555195
 40
0.8230788721
 40
0.8537521212
 40
0.8839902332
 40
1.0
 40
1.0
 40
1.0
 40
1.0
 10
3.1880241307
 20
5.4769107884
 30
0.0
 10
3.1925355424
 20
5.4805136601
 30
0.0
 10
3.1987279078
 20
5.4844578803
 30
0.0
 10
3.2066281558
 20
5.4883432525
 30
0.0
 10
3.2122566194
 20
5.4908102584
 30
0.0
 10
3.2196135255
 20
5.4934832792
 30
0.0
 10
3.2288091772
 20
5.4959989755
 30
0.0
 10
3.2383274449
 20
5.4978159298
 30
0.0
 10
3.2480625867
 20
5.4989141358
 30
0.0
 10
3.2579068323
 20
5.4992815595
 30
0.0
 10
3.2677510779
 20
5.4989141358
 30
0.0
 10
3.2774862197
 20
5.4978159298
 30
0.0
 10
3.2870044874
 20
5.4959989755
 30
0.0
 10
3.2962001391
 20
5.4934832792
 30
0.0
 10
3.3035570452
 20
5.4908102584
 30
0.0
 10
3.3091855089
 20
5.4883432525
 30
0.0
 10
3.3170857568
 20
5.4844578803
 30
0.0
 10
3.3232781222
 20
5.4805136601
 30
0.0
 10
3.3277895339
 20
5.4769107884
 30
0.0
  0
SPLINE
  5
3C0
100
AcDbEntity
  8
0
100
AcDbSpline
 62
7
  6
CONTINUOUS
 70
0
 71
3
 72
35
 73
31
 74
0
 42
0.0000001
 43
0.0000001
 44
0.0000000001
 40
0.0
 40
0.0
 40
0.0
 40
0.0
 40
0.0978512189
 40
0.1951988219
 40
0.2890834401
 40
0.3769971285
 40
0.4599213582
 40
0.5399180607
 40
0.6181422132
 40
0.6926126698
 40
0.7275983778
 40
0.7606428235
 40
0.8209128422
 40
0.8484384832
 40
0.8744319995
 40
0.8990520092
 40
0.9221693278
 40
0.9431572829
 40
0.9613337782
 40
0.9760222283
 40
0.9818580882
 40
0.9866171505
 40
0.9903959291
 40
0.993338344
 40
0.9955828481
 40
0.9972572763
 40
0.9984706198
 40
0.9993025127
 40
0.9997965894
 40
1.0
 40
1.0
 40
1.0
 40
1.0
 10
4.1851156294
 20
5.9092792713
 30
0.0
 10
4.1849676002
 20
5.9094547682
 30
0.0
 10
4.1846532953
 20
5.9097888999
 30
0.0
 10
4.1841563558
 20
5.9102508201
 30
0.0
 10
4.183661974
 20
5.9106804809
 30
0.0
 10
4.1831946798
 20
5.9110896511
 30
0.0
 10
4.1827459644
 20
5.9114705781
 30
0.0
 10
4.1822992173
 20
5.9118182881
 30
0.0
 10
4.1818482744
 20
5.9121265352
 30
0.0
 10
4.1814759633
 20
5.9123617502
 30
0.0
 10
4.1811911164
 20
5.9125368331
 30
0.0
 10
4.1809345525
 20
5.9126942983
 30
0.0
 10
4.1806928367
 20
5.912842511
 30
0.0
 10
4.1804631894
 20
5.9129786989
 30
0.0
 10
4.1803041128
 20
5.9130698677
 30
0.0
 10
4.1801521366
 20
5.9131525559
 30
0.0
 10
4.1800086766
 20
5.9132262042
 30
0.0
 10
4.1798779447
 20
5.9132915092
 30
0.0
 10
4.179765056
 20
5.9133482548
 30
0.0
 10
4.1796847916
 20
5.9133907971
 30
0.0
 10
4.179633918
 20
5.9134213539
 30
0.0
 10
4.1796061327
 20
5.9134405242
 30
0.0
 10
4.1795852521
 20
5.9134575913
 30
0.0
 10
4.1795703154
 20
5.9134724764
 30
0.0
 10
4.1795603381
 20
5.9134851379
 30
0.0
 10
4.1795542299
 20
5.9134956369
 30
0.0
 10
4.1795511692
 20
5.9135037121
 30
0.0
 10
4.1795496948
 20
5.9135097716
 30
0.0
 10
4.179549631
 20
5.9135129471
 30
0.0
 10
4.179548855
 20
5.9135149963
 30
0.0
 10
4.1795483778
 20
5.9135149922
 30
0.0
  0
SPLINE
  5
3C1
100
AcDbEntity
  8
0
100
AcDbSpline
 62
7
  6
CONTINUOUS
 70
0
 71
3
 72
29
 73
25
 74
0
 42
0.0000001
 43
0.0000001
 44
0.0000000001
 40
0.0
 40
0.0
 40
0.0
 40
0.0
 40
0.063536123
 40
0.1267684449
 40
0.1896790511
 40
0.2522613336
 40
0.3145276597
 40
0.3455586333
 40
0.3765277384
 40
0.4074444693
 40
0.438320041
 40
0.469167246
 40
0.5
 40
0.530832754
 40
0.5616799591
 40
0.5925555308
 40
0.6234722617
 40
0.6544413667
 40
0.6854723403
 40
0.7477386664
 40
0.8103209489
 40
0.8732315551
 40
0.936463877
 40
1.0
 40
1.0
 40
1.0
 40
1.0
 10
3.9774068323
 20
5.3084537839
 30
0.0
 10
3.9809113753
 20
5.3145238304
 30
0.0
 10
3.9876759279
 20
5.3267687119
 30
0.0
 10
3.9969834246
 20
5.345517794
 30
0.0
 10
4.0052851509
 20
5.3646220099
 30
0.0
 10
4.0124201597
 20
5.3840810221
 30
0.0
 10
4.0172576647
 20
5.4005991842
 30
0.0
 10
4.0203714144
 20
5.4139524698
 30
0.0
 10
4.0223096853
 20
5.4240206391
 30
0.0
 10
4.023836296
 20
5.4341421468
 30
0.0
 10
4.0249373836
 20
5.4443054033
 30
0.0
 10
4.0256024376
 20
5.4544972985
 30
0.0
 10
4.0258248896
 20
5.4647037839
 30
0.0
 10
4.0256024376
 20
5.4749102694
 30
0.0
 10
4.0249373836
 20
5.4851021645
 30
0.0
 10
4.023836296
 20
5.495265421
 30
0.0
 10
4.0223096853
 20
5.5053869287
 30
0.0
 10
4.0203714144
 20
5.5154550981
 30
0.0
 10
4.0172576647
 20
5.5288083836
 30
0.0
 10
4.0124201597
 20
5.5453265457
 30
0.0
 10
4.0052851509
 20
5.5647855579
 30
0.0
 10
3.9969834246
 20
5.5838897738
 30
0.0
 10
3.9876759279
 20
5.602638856
 30
0.0
 10
3.9809113753
 20
5.6148837374
 30
0.0
 10
3.9774068323
 20
5.6209537839
 30
0.0
  0
SPLINE
  5
3C2
100
AcDbEntity
  8
0
100
AcDbSpline
 62
7
  6
CONTINUOUS
 70
0
 71
3
 72
27
 73
23
 74
0
 42
0.0000001
 43
0.0000001
 44
0.0000000001
 40
0.0
 40
0.0
 40
0.0
 40
0.0
 40
0.0320816573
 40
0.0639813046
 40
0.0957143852
 40
0.1273003299
 40
0.1900838723
 40
0.2524733492
 40
0.3145767907
 40
0.3764844852
 40
0.4382710708
 40
0.4999999999
 40
0.5617289289
 40
0.6235155144
 40
0.6854232089
 40
0.7475266504
 40
0.8099161271
 40
0.8726996692
 40
0.9042856136
 40
0.9360186942
 40
0.9679183423
 40
1.0
 40
1.0
 40
1.0
 40
1.0
 10
3.8774068323
 20
5.6209537839
 30
0.0
 10
3.8754119139
 20
5.6180483407
 30
0.0
 10
3.8715752527
 20
5.6121551258
 30
0.0
 10
3.866263561
 20
5.6030763321
 30
0.0
 10
3.8614012629
 20
5.59381043
 30
0.0
 10
3.8555137714
 20
5.5812664154
 30
0.0
 10
3.8492015149
 20
5.5652208875
 30
0.0
 10
3.8431985672
 20
5.5455226506
 30
0.0
 10
3.8386678153
 20
5.5255354323
 30
0.0
 10
3.8355105266
 20
5.5053552486
 30
0.0
 10
3.8336490218
 20
5.4850572806
 30
0.0
 10
3.8330340914
 20
5.464703784
 30
0.0
 10
3.8336490218
 20
5.4443502873
 30
0.0
 10
3.8355105266
 20
5.4240523193
 30
0.0
 10
3.8386678153
 20
5.4038721356
 30
0.0
 10
3.8431985672
 20
5.3838849173
 30
0.0
 10
3.8492015148
 20
5.3641866805
 30
0.0
 10
3.8555137712
 20
5.3481411527
 30
0.0
 10
3.8614012627
 20
5.3355971381
 30
0.0
 10
3.8662635609
 20
5.326331236
 30
0.0
 10
3.8715752527
 20
5.3172524422
 30
0.0
 10
3.8754119139
 20
5.3113592272
 30
0.0
 10
3.8774068323
 20
5.3084537839
 30
0.0
  0
SPLINE
  5
3C3
100
AcDbEntity
  8
0
100
AcDbSpline
 62
7
  6
CONTINUOUS
 70
0
 71
3
 72
29
 73
25
 74
0
 42
0.0000001
 43
0.0000001
 44
0.0000000001
 40
0.0
 40
0.0
 40
0.0
 40
0.0
 40
0.063536123
 40
0.1267684449
 40
0.1896790511
 40
0.2522613336
 40
0.3145276597
 40
0.3455586333
 40
0.3765277384
 40
0.4074444693
 40
0.438320041
 40
0.469167246
 40
0.5
 40
0.530832754
 40
0.5616799591
 40
0.5925555308
 40
0.6234722617
 40
0.6544413667
 40
0.6854723403
 40
0.7477386664
 40
0.8103209489
 40
0.8732315551
 40
0.936463877
 40
1.0
 40
1.0
 40
1.0
 40
1.0
 10
3.9774068323
 20
5.6209537839
 30
0.0
 10
3.9809113753
 20
5.6270238304
 30
0.0
 10
3.9876759279
 20
5.6392687119
 30
0.0
 10
3.9969834246
 20
5.658017794
 30
0.0
 10
4.0052851509
 20
5.6771220099
 30
0.0
 10
4.0124201597
 20
5.6965810221
 30
0.0
 10
4.0172576647
 20
5.7130991842
 30
0.0
 10
4.0203714144
 20
5.7264524698
 30
0.0
 10
4.0223096853
 20
5.7365206391
 30
0.0
 10
4.023836296
 20
5.7466421468
 30
0.0
 10
4.0249373836
 20
5.7568054033
 30
0.0
 10
4.0256024376
 20
5.7669972985
 30
0.0
 10
4.0258248896
 20
5.7772037839
 30
0.0
 10
4.0256024376
 20
5.7874102694
 30
0.0
 10
4.0249373836
 20
5.7976021645
 30
0.0
 10
4.023836296
 20
5.807765421
 30
0.0
 10
4.0223096853
 20
5.8178869287
 30
0.0
 10
4.0203714144
 20
5.8279550981
 30
0.0
 10
4.0172576647
 20
5.8413083836
 30
0.0
 10
4.0124201597
 20
5.8578265457
 30
0.0
 10
4.0052851509
 20
5.8772855579
 30
0.0
 10
3.9969834246
 20
5.8963897738
 30
0.0
 10
3.9876759279
 20
5.915138856
 30
0.0
 10
3.9809113753
 20
5.9273837374
 30
0.0
 10
3.9774068323
 20
5.9334537839
 30
0.0
  0
SPLINE
  5
3C4
100
AcDbEntity
  8
0
100
AcDbSpline
 62
7
  6
CONTINUOUS
 70
0
 71
3
 72
27
 73
23
 74
0
 42
0.0000001
 43
0.0000001
 44
0.0000000001
 40
0.0
 40
0.0
 40
0.0
 40
0.0
 40
0.0320816579
 40
0.0639813068
 40
0.0957143878
 40
0.1273003321
 40
0.1900838742
 40
0.2524733505
 40
0.3145767916
 40
0.3764844858
 40
0.4382710713
 40
0.5000000002
 40
0.5617289291
 40
0.6235155146
 40
0.6854232088
 40
0.7475266499
 40
0.8099161263
 40
0.8726996688
 40
0.9042856133
 40
0.9360186943
 40
0.9679183424
 40
1.0
 40
1.0
 40
1.0
 40
1.0
 10
3.8774068323
 20
5.9334537839
 30
0.0
 10
3.8754119139
 20
5.9305483406
 30
0.0
 10
3.8715752526
 20
5.9246551255
 30
0.0
 10
3.8662635607
 20
5.9155763316
 30
0.0
 10
3.8614012625
 20
5.9063104293
 30
0.0
 10
3.8555137711
 20
5.8937664147
 30
0.0
 10
3.8492015147
 20
5.877720887
 30
0.0
 10
3.8431985671
 20
5.8580226502
 30
0.0
 10
3.8386678153
 20
5.838035432
 30
0.0
 10
3.8355105266
 20
5.8178552484
 30
0.0
 10
3.8336490218
 20
5.7975572805
 30
0.0
 10
3.8330340914
 20
5.7772037839
 30
0.0
 10
3.8336490218
 20
5.7568502872
 30
0.0
 10
3.8355105266
 20
5.7365523193
 30
0.0
 10
3.8386678153
 20
5.7163721357
 30
0.0
 10
3.8431985671
 20
5.6963849175
 30
0.0
 10
3.8492015148
 20
5.6766866807
 30
0.0
 10
3.8555137712
 20
5.6606411528
 30
0.0
 10
3.8614012627
 20
5.6480971382
 30
0.0
 10
3.8662635609
 20
5.638831236
 30
0.0
 10
3.8715752527
 20
5.6297524422
 30
0.0
 10
3.8754119139
 20
5.6238592271
 30
0.0
 10
3.8774068323
 20
5.6209537839
 30
0.0
  0
SPLINE
  5
3C5
100
AcDbEntity
  8
0
100
AcDbSpline
 62
7
  6
CONTINUOUS
 70
0
 71
3
 72
31
 73
27
 74
0
 42
0.0000001
 43
0.0000001
 44
0.0000000001
 40
0.0
 40
0.0
 40
0.0
 40
0.0
 40
0.0639021759
 40
0.1277513399
 40
0.1914908542
 40
0.2233094215
 40
0.2550833568
 40
0.318468602
 40
0.3816190712
 40
0.4445067836
 40
0.5071161867
 40
0.5383181847
 40
0.5694500293
 40
0.6005138893
 40
0.6315122077
 40
0.6624466537
 40
0.6933185619
 40
0.724134238
 40
0.7549018568
 40
0.7856282498
 40
0.816316829
 40
0.8469696533
 40
0.8775941259
 40
0.9082008977
 40
0.9388001897
 40
1.0
 40
1.0
 40
1.0
 40
1.0
 10
5.2488760466
 20
5.6209537839
 30
0.0
 10
5.248875619
 20
5.6274628557
 30
0.0
 10
5.2484380049
 20
5.6404797257
 30
0.0
 10
5.246492542
 20
5.6599009057
 30
0.0
 10
5.2438072766
 20
5.6759278801
 30
0.0
 10
5.2410265401
 20
5.6885984373
 30
0.0
 10
5.237832496
 20
5.7011339482
 30
0.0
 10
5.2330722155
 20
5.7165541921
 30
0.0
 10
5.2261692037
 20
5.7345864732
 30
0.0
 10
5.2181275517
 20
5.752053529
 30
0.0
 10
5.2105089946
 20
5.7660933059
 30
0.0
 10
5.2039034363
 20
5.7769736159
 30
0.0
 10
5.198705621
 20
5.7849437
 30
0.0
 10
5.1932646603
 20
5.7927243774
 30
0.0
 10
5.1875887313
 20
5.8003102207
 30
0.0
 10
5.1816888381
 20
5.8076981086
 30
0.0
 10
5.1755747269
 20
5.8148852853
 30
0.0
 10
5.1692507986
 20
5.8218656871
 30
0.0
 10
5.1627204124
 20
5.8286327676
 30
0.0
 10
5.1559903764
 20
5.8351827022
 30
0.0
 10
5.1490719462
 20
5.8415158809
 30
0.0
 10
5.1419754601
 20
5.8476329524
 30
0.0
 10
5.1347063894
 20
5.8535306355
 30
0.0
 10
5.1272682316
 20
5.8592048619
 30
0.0
 10
5.1171317996
 20
5.8664672152
 30
0.0
 10
5.1092897534
 20
5.8715731139
 30
0.0
 10
5.1039690782
 20
5.8748213117
 30
0.0
  0
SPLINE
  5
3C6
100
AcDbEntity
  8
0
100
AcDbSpline
 62
7
  6
CONTINUOUS
 70
0
 71
3
 72
27
 73
23
 74
0
 42
0.0000001
 43
0.0000001
 44
0.0000000001
 40
0.0
 40
0.0
 40
0.0
 40
0.0
 40
0.0206637554
 40
0.0557845742
 40
0.1086158711
 40
0.1800308757
 40
0.266807961
 40
0.3651190255
 40
0.4712194224
 40
0.5793081236
 40
0.6824421198
 40
0.7759242536
 40
0.8178446646
 40
0.8557914498
 40
0.9171546835
 40
0.9585702865
 40
0.9727104924
 40
0.9832275892
 40
0.9906980605
 40
0.9956662176
 40
0.9986180613
 40
1.0
 40
1.0
 40
1.0
 40
1.0
 10
6.7471068259
 20
5.601100862
 30
0.0
 10
6.7470763655
 20
5.6008128278
 30
0.0
 10
6.7470019989
 20
5.6000344169
 30
0.0
 10
6.7468754046
 20
5.5985172149
 30
0.0
 10
6.7467112536
 20
5.5962894016
 30
0.0
 10
6.7465150572
 20
5.5933380229
 30
0.0
 10
6.7462901378
 20
5.589749698
 30
0.0
 10
6.7460464079
 20
5.5856754349
 30
0.0
 10
6.7457992214
 20
5.5813021388
 30
0.0
 10
6.745569979
 20
5.5768601675
 30
0.0
 10
6.7453671631
 20
5.5725939814
 30
0.0
 10
6.7452181996
 20
5.5692537685
 30
0.0
 10
6.7451164189
 20
5.5668260908
 30
0.0
 10
6.7450379613
 20
5.564848041
 30
0.0
 10
6.7449691705
 20
5.5628766956
 30
0.0
 10
6.744929259
 20
5.561238287
 30
0.0
 10
6.7449186951
 20
5.5603122035
 30
0.0
 10
6.7449177429
 20
5.5598618664
 30
0.0
 10
6.7449206202
 20
5.5595401067
 30
0.0
 10
6.7449252864
 20
5.5593244216
 30
0.0
 10
6.7449302462
 20
5.5591941292
 30
0.0
 10
6.7449336146
 20
5.5591334691
 30
0.0
 10
6.7449350817
 20
5.5591141543
 30
0.0
  0
SPLINE
  5
3C7
100
AcDbEntity
  8
0
100
AcDbSpline
 62
7
  6
CONTINUOUS
 70
0
 71
3
 72
9
 73
5
 74
0
 42
0.0000001
 43
0.0000001
 44
0.0000000001
 40
0.0
 40
0.0
 40
0.0
 40
0.0
 40
0.2578931729
 40
1.0
 40
1.0
 40
1.0
 40
1.0
 10
3.3242864165
 20
5.3864550491
 30
0.0
 10
3.3246109203
 20
5.3866786938
 30
0.0
 10
3.3258497226
 20
5.387573328
 30
0.0
 10
3.3270065781
 20
5.3885852684
 30
0.0
 10
3.3277895339
 20
5.3894056919
 30
0.0
  0
SPLINE
  5
3C8
100
AcDbEntity
  8
0
100
AcDbSpline
 62
7
  6
CONTINUOUS
 70
0
 71
3
 72
33
 73
29
 74
0
 42
0.0000001
 43
0.0000001
 44
0.0000000001
 40
0.0
 40
0.0
 40
0.0
 40
0.0
 40
0.1935288165
 40
0.2855280837
 40
0.3748010804
 40
0.4615158135
 40
0.5451280172
 40
0.624893503
 40
0.6999744539
 40
0.7688928111
 40
0.8004125459
 40
0.8296290868
 40
0.8562846334
 40
0.8801690767
 40
0.9013974287
 40
0.9202230547
 40
0.936897077
 40
0.9516718241
 40
0.9648079029
 40
0.976431381
 40
0.9815777133
 40
0.986208029
 40
0.9902669203
 40
0.9936981395
 40
0.9964447234
 40
0.9984491095
 40
0.9996532965
 40
1.0
 40
1.0
 40
1.0
 40
1.0
 10
4.1692482875
 20
5.908730852
 30
0.0
 10
4.1695711982
 20
5.9091080782
 30
0.0
 10
4.1700633356
 20
5.9096517884
 30
0.0
 10
4.1707492946
 20
5.910326104
 30
0.0
 10
4.1712603428
 20
5.9107865227
 30
0.0
 10
4.1717760706
 20
5.911208425
 30
0.0
 10
4.1722894047
 20
5.9115937311
 30
0.0
 10
4.1727920471
 20
5.9119428116
 30
0.0
 10
4.1732743593
 20
5.9122544347
 30
0.0
 10
4.1736584796
 20
5.9124895607
 30
0.0
 10
4.1739434331
 20
5.9126612291
 30
0.0
 10
4.1741354948
 20
5.9127769522
 30
0.0
 10
4.1743102271
 20
5.9128834786
 30
0.0
 10
4.1744660875
 20
5.9129815561
 30
0.0
 10
4.1746037755
 20
5.9130707566
 30
0.0
 10
4.1747253661
 20
5.9131507664
 30
0.0
 10
4.1748331897
 20
5.9132215748
 30
0.0
 10
4.1749295985
 20
5.9132831653
 30
0.0
 10
4.1750166598
 20
5.9133352712
 30
0.0
 10
4.1750843751
 20
5.9133714496
 30
0.0
 10
4.1751335586
 20
5.913395823
 30
0.0
 10
4.1751656966
 20
5.9134110201
 30
0.0
 10
4.1751938761
 20
5.913423819
 30
0.0
 10
4.1752183742
 20
5.9134344409
 30
0.0
 10
4.1752365975
 20
5.9134422656
 30
0.0
 10
4.1752533399
 20
5.9134488324
 30
0.0
 10
4.1752572523
 20
5.9134509395
 30
0.0
 10
4.1752653018
 20
5.9134537724
 30
0.0
 10
4.1752644123
 20
5.9134537839
 30
0.0
  0
LINE
  5
3C9
100
AcDbEntity
  8
0
100
AcDbLine
 62
7
  6
CONTINUOUS
 10
6.7444343474
 20
5.5591037839
 11
6.7444170732
 21
5.5601661329
  0
SPLINE
  5
3CA
100
AcDbEntity
  8
0
100
AcDbSpline
 62
7
  6
CONTINUOUS
 70
0
 71
3
 72
21
 73
17
 74
0
 42
0.0000001
 43
0.0000001
 44
0.0000000001
 40
0.0
 40
0.0
 40
0.0
 40
0.0
 40
0.0243388653
 40
0.0604374301
 40
0.1099146317
 40
0.1723467995
 40
0.2450711912
 40
0.3257429228
 40
0.5022924609
 40
0.6775720519
 40
0.7569674916
 40
0.8282439382
 40
0.8893259422
 40
0.9381629864
 40
0.9746155833
 40
1.0
 40
1.0
 40
1.0
 40
1.0
 10
6.7444170732
 20
5.5601661329
 30
0.0
 10
6.7444184466
 20
5.5604933872
 30
0.0
 10
6.7444293624
 20
5.561305978
 30
0.0
 10
6.7444661033
 20
5.5627834388
 30
0.0
 10
6.7445330207
 20
5.5647724289
 30
0.0
 10
6.7446316698
 20
5.5672530365
 30
0.0
 10
6.7447562479
 20
5.5701523633
 30
0.0
 10
6.744957705
 20
5.5745841935
 30
0.0
 10
6.745243846
 20
5.5803925482
 30
0.0
 10
6.7455740607
 20
5.5861813735
 30
0.0
 10
6.7458397223
 20
5.5905560154
 30
0.0
 10
6.7460190672
 20
5.5933975793
 30
0.0
 10
6.7461799862
 20
5.5958285963
 30
0.0
 10
6.746320526
 20
5.5977916794
 30
0.0
 10
6.7464372372
 20
5.5992752174
 30
0.0
 10
6.746509612
 20
5.6001035297
 30
0.0
 10
6.746541475
 20
5.6004433547
 30
0.0
  0
SPLINE
  5
3CB
100
AcDbEntity
  8
0
100
AcDbSpline
 62
7
  6
CONTINUOUS
 70
0
 71
3
 72
29
 73
25
 74
0
 42
0.0000001
 43
0.0000001
 44
0.0000000001
 40
0.0
 40
0.0
 40
0.0
 40
0.0
 40
0.063536123
 40
0.1267684449
 40
0.1896790511
 40
0.2522613336
 40
0.3145276597
 40
0.3455586333
 40
0.3765277384
 40
0.4074444693
 40
0.438320041
 40
0.469167246
 40
0.5
 40
0.530832754
 40
0.5616799591
 40
0.5925555308
 40
0.6234722617
 40
0.6544413667
 40
0.6854723403
 40
0.7477386664
 40
0.8103209489
 40
0.8732315551
 40
0.936463877
 40
1.0
 40
1.0
 40
1.0
 40
1.0
 10
5.7774068323
 20
5.6209537839
 30
0.0
 10
5.7739022893
 20
5.6148837374
 30
0.0
 10
5.7671377367
 20
5.602638856
 30
0.0
 10
5.75783024
 20
5.5838897738
 30
0.0
 10
5.7495285137
 20
5.5647855579
 30
0.0
 10
5.7423935049
 20
5.5453265457
 30
0.0
 10
5.7375559999
 20
5.5288083836
 30
0.0
 10
5.7344422502
 20
5.515455098
 30
0.0
 10
5.7325039793
 20
5.5053869287
 30
0.0
 10
5.7309773686
 20
5.495265421
 30
0.0
 10
5.729876281
 20
5.4851021645
 30
0.0
 10
5.729211227
 20
5.4749102693
 30
0.0
 10
5.728988775
 20
5.4647037839
 30
0.0
 10
5.729211227
 20
5.4544972985
 30
0.0
 10
5.729876281
 20
5.4443054033
 30
0.0
 10
5.7309773686
 20
5.4341421468
 30
0.0
 10
5.7325039793
 20
5.4240206391
 30
0.0
 10
5.7344422502
 20
5.4139524698
 30
0.0
 10
5.7375559999
 20
5.4005991842
 30
0.0
 10
5.7423935049
 20
5.3840810221
 30
0.0
 10
5.7495285137
 20
5.3646220099
 30
0.0
 10
5.75783024
 20
5.345517794
 30
0.0
 10
5.7671377367
 20
5.3267687119
 30
0.0
 10
5.7739022893
 20
5.3145238304
 30
0.0
 10
5.7774068323
 20
5.3084537839
 30
0.0
  0
LINE
  5
3CC
100
AcDbEntity
  8
0
100
AcDbLine
 62
7
  6
CONTINUOUS
 10
6.745947603
 20
5.6547037839
 11
6.7458714557
 21
5.6549273421
  0
LINE
  5
3CD
100
AcDbEntity
  8
0
100
AcDbLine
 62
7
  6
CONTINUOUS
 10
6.7458714557
 20
5.6549273421
 11
6.7451802187
 21
5.6619715204
  0
SPLINE
  5
3CE
100
AcDbEntity
  8
0
100
AcDbSpline
 62
7
  6
CONTINUOUS
 70
0
 71
3
 72
27
 73
23
 74
0
 42
0.0000001
 43
0.0000001
 44
0.0000000001
 40
0.0
 40
0.0
 40
0.0
 40
0.0
 40
0.0320816579
 40
0.0639813068
 40
0.0957143878
 40
0.1273003321
 40
0.1900838742
 40
0.2524733505
 40
0.3145767916
 40
0.3764844858
 40
0.4382710713
 40
0.5000000002
 40
0.5617289291
 40
0.6235155146
 40
0.6854232088
 40
0.7475266499
 40
0.8099161263
 40
0.8726996688
 40
0.9042856133
 40
0.9360186943
 40
0.9679183424
 40
1.0
 40
1.0
 40
1.0
 40
1.0
 10
5.8774068323
 20
5.3084537839
 30
0.0
 10
5.8794017507
 20
5.3113592272
 30
0.0
 10
5.883238412
 20
5.3172524423
 30
0.0
 10
5.8885501039
 20
5.3263312362
 30
0.0
 10
5.8934124021
 20
5.3355971385
 30
0.0
 10
5.8992998935
 20
5.3481411531
 30
0.0
 10
5.9056121499
 20
5.3641866809
 30
0.0
 10
5.9116150975
 20
5.3838849176
 30
0.0
 10
5.9161458493
 20
5.4038721358
 30
0.0
 10
5.919303138
 20
5.4240523194
 30
0.0
 10
5.9211646428
 20
5.4443502873
 30
0.0
 10
5.9217795732
 20
5.464703784
 30
0.0
 10
5.9211646428
 20
5.4850572806
 30
0.0
 10
5.919303138
 20
5.5053552486
 30
0.0
 10
5.9161458493
 20
5.5255354322
 30
0.0
 10
5.9116150975
 20
5.5455226503
 30
0.0
 10
5.9056121498
 20
5.5652208872
 30
0.0
 10
5.8992998934
 20
5.581266415
 30
0.0
 10
5.8934124019
 20
5.5938104296
 30
0.0
 10
5.8885501037
 20
5.6030763318
 30
0.0
 10
5.8832384119
 20
5.6121551257
 30
0.0
 10
5.8794017507
 20
5.6180483407
 30
0.0
 10
5.8774068323
 20
5.6209537839
 30
0.0
  0
LINE
  5
3CF
100
AcDbEntity
  8
0
100
AcDbLine
 62
7
  6
CONTINUOUS
 10
6.7462214028
 20
5.629458704
 11
6.7465230629
 21
5.6367037839
  0
SPLINE
  5
3D0
100
AcDbEntity
  8
0
100
AcDbSpline
 62
7
  6
CONTINUOUS
 70
0
 71
3
 72
36
 73
32
 74
0
 42
0.0000001
 43
0.0000001
 44
0.0000000001
 40
0.0
 40
0.0
 40
0.0
 40
0.0
 40
0.0875624514
 40
0.1744587452
 40
0.2600307824
 40
0.3436304341
 40
0.4246288302
 40
0.5024205707
 40
0.5764300678
 40
0.6461160929
 40
0.6791796152
 40
0.7109771873
 40
0.7414531603
 40
0.7705543514
 40
0.7982312181
 40
0.8244372433
 40
0.8491307525
 40
0.8722739804
 40
0.8938337103
 40
0.9137830373
 40
0.9231477155
 40
0.9321033112
 40
0.9406489048
 40
0.9487838977
 40
0.956508181
 40
0.9638254557
 40
0.9707438565
 40
0.9772764954
 40
0.9834418878
 40
0.9892639087
 40
1.0
 40
1.0
 40
1.0
 40
1.0
 10
5.6146111003
 20
5.6209537839
 30
0.0
 10
5.6146124397
 20
5.61246063
 30
0.0
 10
5.6145305638
 20
5.5955388073
 30
0.0
 10
5.6141612837
 20
5.5703193391
 30
0.0
 10
5.6135494959
 20
5.5454890186
 30
0.0
 10
5.6126930987
 20
5.5212382948
 30
0.0
 10
5.6115926337
 20
5.4977528093
 30
0.0
 10
5.6102522557
 20
5.4752114675
 30
0.0
 10
5.6086788078
 20
5.4537851904
 30
0.0
 10
5.6071578806
 20
5.4367070799
 30
0.0
 10
5.6058238398
 20
5.4237248244
 30
0.0
 10
5.6047902126
 20
5.4145353603
 30
0.0
 10
5.6037084018
 20
5.4057385309
 30
0.0
 10
5.6025808985
 20
5.3973505373
 30
0.0
 10
5.601411026
 20
5.3893867137
 30
0.0
 10
5.6002019838
 20
5.3818614109
 30
0.0
 10
5.5989543337
 20
5.3747884874
 30
0.0
 10
5.5976696453
 20
5.3681806804
 30
0.0
 10
5.5963500311
 20
5.3620496607
 30
0.0
 10
5.5951984711
 20
5.3572507469
 30
0.0
 10
5.5942538583
 20
5.353660842
 30
0.0
 10
5.5935509105
 20
5.3511514528
 30
0.0
 10
5.592838136
 20
5.3487690586
 30
0.0
 10
5.5921154328
 20
5.3465147502
 30
0.0
 10
5.5913838348
 20
5.3443889034
 30
0.0
 10
5.5906406455
 20
5.3423924732
 30
0.0
 10
5.5898809061
 20
5.3405263794
 30
0.0
 10
5.5890983016
 20
5.3387915624
 30
0.0
 10
5.5882852436
 20
5.3371886397
 30
0.0
 10
5.5871817447
 20
5.3352803775
 30
0.0
 10
5.5862446007
 20
5.3339660623
 30
0.0
 10
5.5855653771
 20
5.3331767158
 30
0.0
  0
SPLINE
  5
3D1
100
AcDbEntity
  8
0
100
AcDbSpline
 62
7
  6
CONTINUOUS
 70
0
 71
3
 72
13
 73
9
 74
0
 42
0.0000001
 43
0.0000001
 44
0.0000000001
 40
0.0
 40
0.0
 40
0.0
 40
0.0
 40
0.2339644181
 40
0.3561623786
 40
0.481263421
 40
0.6087849963
 40
0.7381796442
 40
1.0
 40
1.0
 40
1.0
 40
1.0
 10
3.3178018077
 20
5.9127029647
 30
0.0
 10
3.3137890965
 20
5.9098098799
 30
0.0
 10
3.3072395736
 20
5.9059897667
 30
0.0
 10
3.29788262
 20
5.9019758023
 30
0.0
 10
3.2903669859
 20
5.899433404
 30
0.0
 10
3.2825339854
 20
5.8974304221
 30
0.0
 10
3.2717308527
 20
5.8954970699
 30
0.0
 10
3.2634427098
 20
5.8949187451
 30
0.0
 10
3.2579068323
 20
5.8949187451
 30
0.0
  0
LINE
  5
3D2
100
AcDbEntity
  8
0
100
AcDbLine
 62
7
  6
CONTINUOUS
 10
6.7401383105
 20
5.7181946926
 11
6.740021952
 21
5.7209537839
  0
SPLINE
  5
3D3
100
AcDbEntity
  8
0
100
AcDbSpline
 62
7
  6
CONTINUOUS
 70
0
 71
3
 72
53
 73
49
 74
0
 42
0.0000001
 43
0.0000001
 44
0.0000000001
 40
0.0
 40
0.0
 40
0.0
 40
0.0
 40
0.0451446236
 40
0.090198747
 40
0.1350535379
 40
0.179613497
 40
0.223785726
 40
0.2456976787
 40
0.2674777209
 40
0.3105918494
 40
0.3530307723
 40
0.3947122052
 40
0.4355552977
 40
0.475471226
 40
0.5143753907
 40
0.5334241074
 40
0.5521918291
 40
0.588855758
 40
0.6067380891
 40
0.6243098103
 40
0.6584811522
 40
0.6750616542
 40
0.6912974302
 40
0.7227225076
 40
0.7527230369
 40
0.7671713797
 40
0.7812418421
 40
0.7949294895
 40
0.8082311388
 40
0.8336638933
 40
0.8457902563
 40
0.8575203879
 40
0.8688511412
 40
0.8797777622
 40
0.8902960909
 40
0.9004044801
 40
0.9193904184
 40
0.9282675096
 40
0.9367331045
 40
0.9447876942
 40
0.9524341641
 40
0.9596797343
 40
0.9665319612
 40
0.9729947051
 40
0.9790747868
 40
0.9847851852
 40
0.9901493075
 40
1.0
 40
1.0
 40
1.0
 40
1.0
 10
5.5445148663
 20
5.6209537839
 30
0.0
 10
5.5445154816
 20
5.6165714196
 30
0.0
 10
5.544530018
 20
5.6078154714
 30
0.0
 10
5.5445936292
 20
5.5947054311
 30
0.0
 10
5.5447009623
 20
5.5816524272
 30
0.0
 10
5.5448563639
 20
5.5686855184
 30
0.0
 10
5.545025268
 20
5.5579461664
 30
0.0
 10
5.5451794526
 20
5.5494182349
 30
0.0
 10
5.545345374
 20
5.5409932584
 30
0.0
 10
5.5455811494
 20
5.5305766405
 30
0.0
 10
5.5459285812
 20
5.5182303225
 30
0.0
 10
5.5463256539
 20
5.5061061057
 30
0.0
 10
5.5467583744
 20
5.4942281777
 30
0.0
 10
5.5472413798
 20
5.4826219885
 30
0.0
 10
5.5476958997
 20
5.4731322857
 30
0.0
 10
5.5480901945
 20
5.4656951495
 30
0.0
 10
5.5484984862
 20
5.4584765747
 30
0.0
 10
5.5489353563
 20
5.4513730721
 30
0.0
 10
5.5493940499
 20
5.4443873337
 30
0.0
 10
5.5498566591
 20
5.4376443744
 30
0.0
 10
5.550348116
 20
5.4310300467
 30
0.0
 10
5.5508864741
 20
5.4245495865
 30
0.0
 10
5.5514369021
 20
5.4183377384
 30
0.0
 10
5.5521545303
 20
5.4108330084
 30
0.0
 10
5.5529042985
 20
5.4035057893
 30
0.0
 10
5.5535307157
 20
5.3978596932
 30
0.0
 10
5.554011041
 20
5.3937907641
 30
0.0
 10
5.5545083377
 20
5.3898360367
 30
0.0
 10
5.5551810928
 20
5.384791855
 30
0.0
 10
5.555888966
 20
5.3799053819
 30
0.0
 10
5.5566288531
 20
5.3751782025
 30
0.0
 10
5.5571811649
 20
5.3718073582
 30
0.0
 10
5.5577388371
 20
5.3685554919
 30
0.0
 10
5.5583078712
 20
5.3654250566
 30
0.0
 10
5.5588946639
 20
5.3624186725
 30
0.0
 10
5.5596854119
 20
5.358655409
 30
0.0
 10
5.5605171818
 20
5.3550638385
 30
0.0
 10
5.5613884779
 20
5.3516465062
 30
0.0
 10
5.562033543
 20
5.3492668563
 30
0.0
 10
5.5626899731
 20
5.3470144435
 30
0.0
 10
5.5633627306
 20
5.3448906781
 30
0.0
 10
5.56406093
 20
5.3428982642
 30
0.0
 10
5.5647877262
 20
5.341038968
 30
0.0
 10
5.5655340816
 20
5.3393099983
 30
0.0
 10
5.5662988371
 20
5.3377111551
 30
0.0
 10
5.5670856279
 20
5.3362423368
 30
0.0
 10
5.5681434114
 20
5.3345083003
 30
0.0
 10
5.5690408939
 20
5.3333230148
 30
0.0
 10
5.5696980307
 20
5.3326283381
 30
0.0
  0
LINE
  5
3D4
100
AcDbEntity
  8
0
100
AcDbLine
 62
7
  6
CONTINUOUS
 10
6.7372593882
 20
5.7390947241
 11
6.737179562
 21
5.7393177948
  0
LINE
  5
3D5
100
AcDbEntity
  8
0
100
AcDbLine
 62
7
  6
CONTINUOUS
 10
6.737179562
 20
5.7393177948
 11
6.7371376586
 21
5.739493472
  0
SPLINE
  5
3D6
100
AcDbEntity
  8
0
100
AcDbSpline
 62
7
  6
CONTINUOUS
 70
0
 71
3
 72
13
 73
9
 74
0
 42
0.0000001
 43
0.0000001
 44
0.0000000001
 40
0.0
 40
0.0
 40
0.0
 40
0.0
 40
0.2339644181
 40
0.3561623786
 40
0.481263421
 40
0.6087849963
 40
0.7381796442
 40
1.0
 40
1.0
 40
1.0
 40
1.0
 10
3.1980118569
 20
5.9127029647
 30
0.0
 10
3.2020245681
 20
5.9098098799
 30
0.0
 10
3.208574091
 20
5.9059897667
 30
0.0
 10
3.2179310446
 20
5.9019758023
 30
0.0
 10
3.2254466787
 20
5.899433404
 30
0.0
 10
3.2332796792
 20
5.8974304221
 30
0.0
 10
3.2440828119
 20
5.8954970699
 30
0.0
 10
3.2523709548
 20
5.8949187451
 30
0.0
 10
3.2579068323
 20
5.8949187451
 30
0.0
  0
SPLINE
  5
3D7
100
AcDbEntity
  8
0
100
AcDbSpline
 62
7
  6
CONTINUOUS
 70
0
 71
3
 72
35
 73
31
 74
0
 42
0.0000001
 43
0.0000001
 44
0.0000000001
 40
0.0
 40
0.0
 40
0.0
 40
0.0
 40
0.0978512189
 40
0.1951988219
 40
0.2890834401
 40
0.3769971285
 40
0.4599213582
 40
0.5399180607
 40
0.6181422132
 40
0.6926126698
 40
0.7275983778
 40
0.7606428235
 40
0.8209128422
 40
0.8484384832
 40
0.8744319995
 40
0.8990520092
 40
0.9221693278
 40
0.9431572829
 40
0.9613337782
 40
0.9760222283
 40
0.9818580882
 40
0.9866171505
 40
0.9903959291
 40
0.993338344
 40
0.9955828481
 40
0.9972572763
 40
0.9984706198
 40
0.9993025127
 40
0.9997965894
 40
1.0
 40
1.0
 40
1.0
 40
1.0
 10
5.5696980352
 20
5.3326282965
 30
0.0
 10
5.5698460644
 20
5.3324527996
 30
0.0
 10
5.5701603693
 20
5.3321186679
 30
0.0
 10
5.5706573088
 20
5.3316567477
 30
0.0
 10
5.5711516906
 20
5.3312270869
 30
0.0
 10
5.5716189848
 20
5.3308179167
 30
0.0
 10
5.5720677002
 20
5.3304369897
 30
0.0
 10
5.5725144473
 20
5.3300892797
 30
0.0
 10
5.5729653901
 20
5.3297810326
 30
0.0
 10
5.5733377012
 20
5.3295458176
 30
0.0
 10
5.5736225482
 20
5.3293707347
 30
0.0
 10
5.5738791121
 20
5.3292132695
 30
0.0
 10
5.5741208279
 20
5.3290650569
 30
0.0
 10
5.5743504752
 20
5.328928869
 30
0.0
 10
5.5745095518
 20
5.3288377001
 30
0.0
 10
5.574661528
 20
5.328755012
 30
0.0
 10
5.574804988
 20
5.3286813636
 30
0.0
 10
5.5749357199
 20
5.3286160586
 30
0.0
 10
5.5750486086
 20
5.3285593131
 30
0.0
 10
5.575128873
 20
5.3285167707
 30
0.0
 10
5.5751797466
 20
5.3284862139
 30
0.0
 10
5.5752075319
 20
5.3284670436
 30
0.0
 10
5.5752284125
 20
5.3284499766
 30
0.0
 10
5.5752433492
 20
5.3284350914
 30
0.0
 10
5.5752533265
 20
5.3284224299
 30
0.0
 10
5.5752594347
 20
5.3284119309
 30
0.0
 10
5.5752624954
 20
5.3284038558
 30
0.0
 10
5.5752639698
 20
5.3283977962
 30
0.0
 10
5.5752640336
 20
5.3283946208
 30
0.0
 10
5.5752648096
 20
5.3283925715
 30
0.0
 10
5.5752652868
 20
5.3283925757
 30
0.0
  0
SPLINE
  5
3D8
100
AcDbEntity
  8
0
100
AcDbSpline
 62
7
  6
CONTINUOUS
 70
0
 71
3
 72
29
 73
25
 74
0
 42
0.0000001
 43
0.0000001
 44
0.0000000001
 40
0.0
 40
0.0
 40
0.0
 40
0.0
 40
0.063536123
 40
0.1267684449
 40
0.1896790511
 40
0.2522613336
 40
0.3145276597
 40
0.3455586333
 40
0.3765277384
 40
0.4074444693
 40
0.438320041
 40
0.469167246
 40
0.5
 40
0.530832754
 40
0.5616799591
 40
0.5925555308
 40
0.6234722617
 40
0.6544413667
 40
0.6854723403
 40
0.7477386664
 40
0.8103209489
 40
0.8732315551
 40
0.936463877
 40
1.0
 40
1.0
 40
1.0
 40
1.0
 10
5.7774068323
 20
5.9334537839
 30
0.0
 10
5.7739022893
 20
5.9273837374
 30
0.0
 10
5.7671377367
 20
5.915138856
 30
0.0
 10
5.75783024
 20
5.8963897738
 30
0.0
 10
5.7495285137
 20
5.8772855579
 30
0.0
 10
5.7423935049
 20
5.8578265457
 30
0.0
 10
5.7375559999
 20
5.8413083836
 30
0.0
 10
5.7344422502
 20
5.827955098
 30
0.0
 10
5.7325039793
 20
5.8178869287
 30
0.0
 10
5.7309773686
 20
5.807765421
 30
0.0
 10
5.729876281
 20
5.7976021645
 30
0.0
 10
5.729211227
 20
5.7874102693
 30
0.0
 10
5.728988775
 20
5.7772037839
 30
0.0
 10
5.729211227
 20
5.7669972985
 30
0.0
 10
5.729876281
 20
5.7568054033
 30
0.0
 10
5.7309773686
 20
5.7466421468
 30
0.0
 10
5.7325039793
 20
5.7365206391
 30
0.0
 10
5.7344422502
 20
5.7264524698
 30
0.0
 10
5.7375559999
 20
5.7130991842
 30
0.0
 10
5.7423935049
 20
5.6965810221
 30
0.0
 10
5.7495285137
 20
5.6771220099
 30
0.0
 10
5.75783024
 20
5.658017794
 30
0.0
 10
5.7671377367
 20
5.6392687119
 30
0.0
 10
5.7739022893
 20
5.6270238304
 30
0.0
 10
5.7774068323
 20
5.6209537839
 30
0.0
  0
SPLINE
  5
3D9
100
AcDbEntity
  8
0
100
AcDbSpline
 62
7
  6
CONTINUOUS
 70
0
 71
3
 72
27
 73
23
 74
0
 42
0.0000001
 43
0.0000001
 44
0.0000000001
 40
0.0
 40
0.0
 40
0.0
 40
0.0
 40
0.0320816573
 40
0.0639813046
 40
0.0957143852
 40
0.1273003299
 40
0.1900838723
 40
0.2524733492
 40
0.3145767907
 40
0.3764844852
 40
0.4382710708
 40
0.4999999999
 40
0.5617289289
 40
0.6235155144
 40
0.6854232089
 40
0.7475266504
 40
0.8099161271
 40
0.8726996692
 40
0.9042856136
 40
0.9360186942
 40
0.9679183423
 40
1.0
 40
1.0
 40
1.0
 40
1.0
 10
5.8774068323
 20
5.6209537839
 30
0.0
 10
5.8794017507
 20
5.6238592271
 30
0.0
 10
5.8832384119
 20
5.629752442
 30
0.0
 10
5.8885501036
 20
5.6388312357
 30
0.0
 10
5.8934124017
 20
5.6480971378
 30
0.0
 10
5.8992998932
 20
5.6606411524
 30
0.0
 10
5.9056121497
 20
5.6766866803
 30
0.0
 10
5.9116150974
 20
5.6963849172
 30
0.0
 10
5.9161458493
 20
5.7163721355
 30
0.0
 10
5.919303138
 20
5.7365523192
 30
0.0
 10
5.9211646428
 20
5.7568502872
 30
0.0
 10
5.9217795732
 20
5.7772037839
 30
0.0
 10
5.9211646428
 20
5.7975572805
 30
0.0
 10
5.919303138
 20
5.8178552485
 30
0.0
 10
5.9161458493
 20
5.8380354322
 30
0.0
 10
5.9116150974
 20
5.8580226505
 30
0.0
 10
5.9056121498
 20
5.8777208873
 30
0.0
 10
5.8992998934
 20
5.8937664151
 30
0.0
 10
5.8934124019
 20
5.9063104297
 30
0.0
 10
5.8885501037
 20
5.9155763318
 30
0.0
 10
5.8832384119
 20
5.9246551256
 30
0.0
 10
5.8794017507
 20
5.9305483407
 30
0.0
 10
5.8774068323
 20
5.9334537839
 30
0.0
  0
SPLINE
  5
3DA
100
AcDbEntity
  8
0
100
AcDbSpline
 62
7
  6
CONTINUOUS
 70
0
 71
3
 72
33
 73
29
 74
0
 42
0.0000001
 43
0.0000001
 44
0.0000000001
 40
0.0
 40
0.0
 40
0.0
 40
0.0
 40
0.1935288165
 40
0.2855280837
 40
0.3748010804
 40
0.4615158135
 40
0.5451280172
 40
0.624893503
 40
0.6999744539
 40
0.7688928111
 40
0.8004125459
 40
0.8296290868
 40
0.8562846334
 40
0.8801690767
 40
0.9013974287
 40
0.9202230547
 40
0.936897077
 40
0.9516718241
 40
0.9648079029
 40
0.976431381
 40
0.9815777133
 40
0.986208029
 40
0.9902669203
 40
0.9936981395
 40
0.9964447234
 40
0.9984491095
 40
0.9996532965
 40
1.0
 40
1.0
 40
1.0
 40
1.0
 10
5.5855653771
 20
5.3331767158
 30
0.0
 10
5.5852424664
 20
5.3327994896
 30
0.0
 10
5.584750329
 20
5.3322557794
 30
0.0
 10
5.58406437
 20
5.3315814638
 30
0.0
 10
5.5835533218
 20
5.3311210451
 30
0.0
 10
5.5830375939
 20
5.3306991428
 30
0.0
 10
5.5825242599
 20
5.3303138367
 30
0.0
 10
5.5820216175
 20
5.3299647562
 30
0.0
 10
5.5815393053
 20
5.3296531331
 30
0.0
 10
5.581155185
 20
5.3294180071
 30
0.0
 10
5.5808702315
 20
5.3292463387
 30
0.0
 10
5.5806781698
 20
5.3291306156
 30
0.0
 10
5.5805034375
 20
5.3290240892
 30
0.0
 10
5.5803475771
 20
5.3289260117
 30
0.0
 10
5.5802098891
 20
5.3288368112
 30
0.0
 10
5.5800882985
 20
5.3287568014
 30
0.0
 10
5.5799804749
 20
5.3286859931
 30
0.0
 10
5.5798840661
 20
5.3286244025
 30
0.0
 10
5.5797970048
 20
5.3285722967
 30
0.0
 10
5.5797292895
 20
5.3285361182
 30
0.0
 10
5.579680106
 20
5.3285117449
 30
0.0
 10
5.579647968
 20
5.3284965477
 30
0.0
 10
5.5796197885
 20
5.3284837488
 30
0.0
 10
5.5795952904
 20
5.3284731269
 30
0.0
 10
5.5795770671
 20
5.3284653022
 30
0.0
 10
5.5795603247
 20
5.3284587354
 30
0.0
 10
5.5795564123
 20
5.3284566283
 30
0.0
 10
5.5795483628
 20
5.3284537954
 30
0.0
 10
5.5795492523
 20
5.3284537839
 30
0.0
  0
SPLINE
  5
3DB
100
AcDbEntity
  8
0
100
AcDbSpline
 62
7
  6
CONTINUOUS
 70
0
 71
3
 72
31
 73
27
 74
0
 42
0.0000001
 43
0.0000001
 44
0.0000000001
 40
0.0
 40
0.0
 40
0.0
 40
0.0
 40
0.0639021759
 40
0.1277513399
 40
0.1914908542
 40
0.2233094215
 40
0.2550833568
 40
0.318468602
 40
0.3816190712
 40
0.4445067836
 40
0.5071161867
 40
0.5383181847
 40
0.5694500293
 40
0.6005138893
 40
0.6315122077
 40
0.6624466537
 40
0.6933185619
 40
0.724134238
 40
0.7549018568
 40
0.7856282498
 40
0.816316829
 40
0.8469696533
 40
0.8775941259
 40
0.9082008977
 40
0.9388001897
 40
1.0
 40
1.0
 40
1.0
 40
1.0
 10
5.2488760466
 20
5.6209537839
 30
0.0
 10
5.248875619
 20
5.6144447122
 30
0.0
 10
5.2484380049
 20
5.6014278422
 30
0.0
 10
5.246492542
 20
5.5820066621
 30
0.0
 10
5.2438072766
 20
5.5659796877
 30
0.0
 10
5.2410265401
 20
5.5533091305
 30
0.0
 10
5.237832496
 20
5.5407736197
 30
0.0
 10
5.2330722155
 20
5.5253533757
 30
0.0
 10
5.2261692037
 20
5.5073210946
 30
0.0
 10
5.2181275517
 20
5.4898540389
 30
0.0
 10
5.2105089946
 20
5.4758142619
 30
0.0
 10
5.2039034363
 20
5.4649339519
 30
0.0
 10
5.198705621
 20
5.4569638678
 30
0.0
 10
5.1932646603
 20
5.4491831904
 30
0.0
 10
5.1875887313
 20
5.4415973471
 30
0.0
 10
5.1816888381
 20
5.4342094592
 30
0.0
 10
5.1755747269
 20
5.4270222825
 30
0.0
 10
5.1692507986
 20
5.4200418807
 30
0.0
 10
5.1627204124
 20
5.4132748002
 30
0.0
 10
5.1559903764
 20
5.4067248656
 30
0.0
 10
5.1490719462
 20
5.4003916869
 30
0.0
 10
5.1419754601
 20
5.3942746154
 30
0.0
 10
5.1347063894
 20
5.3883769323
 30
0.0
 10
5.1272682316
 20
5.3827027059
 30
0.0
 10
5.1171317996
 20
5.3754403526
 30
0.0
 10
5.1092897534
 20
5.3703344539
 30
0.0
 10
5.1039690782
 20
5.3670862561
 30
0.0
  0
SPLINE
  5
3DC
100
AcDbEntity
  8
0
100
AcDbSpline
 62
7
  6
CONTINUOUS
 70
0
 71
3
 72
15
 73
11
 74
0
 42
0.0000001
 43
0.0000001
 44
0.0000000001
 40
0.0
 40
0.0
 40
0.0
 40
0.0
 40
0.233920258
 40
0.2946306693
 40
0.3561203536
 40
0.4811977838
 40
0.6086953798
 40
0.7380655505
 40
0.8687086889
 40
1.0
 40
1.0
 40
1.0
 40
1.0
 10
3.3383202449
 20
5.9274962327
 30
0.0
 10
3.3329328595
 20
5.9236120888
 30
0.0
 10
3.3256542613
 20
5.919366842
 30
0.0
 10
3.3164494985
 20
5.915184567
 30
0.0
 10
3.3099429188
 20
5.9125411384
 30
0.0
 10
3.3014869557
 20
5.9096809501
 30
0.0
 10
3.2909712049
 20
5.906991761
 30
0.0
 10
3.2801312302
 20
5.9050520197
 30
0.0
 10
3.2690741562
 20
5.9038805463
 30
0.0
 10
3.2616345165
 20
5.9036196022
 30
0.0
 10
3.2579068323
 20
5.9036196022
 30
0.0
  0
LINE
  5
3DD
100
AcDbEntity
  8
0
100
AcDbLine
 62
7
  6
CONTINUOUS
 10
6.7318803718
 20
5.4699382927
 11
6.7332462413
 21
5.4787404627
  0
LINE
  5
3DE
100
AcDbEntity
  8
0
100
AcDbLine
 62
7
  6
CONTINUOUS
 10
6.7332462413
 20
5.4787404627
 11
6.7335235637
 21
5.4804747802
  0
LINE
  5
3DF
100
AcDbEntity
  8
0
100
AcDbLine
 62
7
  6
CONTINUOUS
 10
6.7335235637
 20
5.4804747802
 11
6.7342265101
 21
5.4848351746
  0
LINE
  5
3E0
100
AcDbEntity
  8
0
100
AcDbLine
 62
7
  6
CONTINUOUS
 10
6.738817893
 20
5.5124937019
 11
6.7390375371
 21
5.5137755267
  0
LINE
  5
3E1
100
AcDbEntity
  8
0
100
AcDbLine
 62
7
  6
CONTINUOUS
 10
6.7390375371
 20
5.5137755267
 11
6.7391422904
 21
5.5143844287
  0
SPLINE
  5
3E2
100
AcDbEntity
  8
0
100
AcDbSpline
 62
7
  6
CONTINUOUS
 70
0
 71
3
 72
53
 73
49
 74
0
 42
0.0000001
 43
0.0000001
 44
0.0000000001
 40
0.0
 40
0.0
 40
0.0
 40
0.0
 40
0.0451446236
 40
0.090198747
 40
0.1350535379
 40
0.179613497
 40
0.223785726
 40
0.2456976787
 40
0.2674777209
 40
0.3105918494
 40
0.3530307723
 40
0.3947122052
 40
0.4355552977
 40
0.475471226
 40
0.5143753907
 40
0.5334241074
 40
0.5521918291
 40
0.588855758
 40
0.6067380891
 40
0.6243098103
 40
0.6584811522
 40
0.6750616542
 40
0.6912974302
 40
0.7227225076
 40
0.7527230369
 40
0.7671713797
 40
0.7812418421
 40
0.7949294895
 40
0.8082311388
 40
0.8336638933
 40
0.8457902563
 40
0.8575203879
 40
0.8688511412
 40
0.8797777622
 40
0.8902960909
 40
0.9004044801
 40
0.9193904184
 40
0.9282675096
 40
0.9367331045
 40
0.9447876942
 40
0.9524341641
 40
0.9596797343
 40
0.9665319612
 40
0.9729947051
 40
0.9790747868
 40
0.9847851852
 40
0.9901493075
 40
1.0
 40
1.0
 40
1.0
 40
1.0
 10
4.2102987983
 20
5.6209537839
 30
0.0
 10
4.210298183
 20
5.6165714196
 30
0.0
 10
4.2102836466
 20
5.6078154714
 30
0.0
 10
4.2102200354
 20
5.5947054311
 30
0.0
 10
4.2101127023
 20
5.5816524272
 30
0.0
 10
4.2099573007
 20
5.5686855184
 30
0.0
 10
4.2097883966
 20
5.5579461664
 30
0.0
 10
4.209634212
 20
5.5494182349
 30
0.0
 10
4.2094682906
 20
5.5409932584
 30
0.0
 10
4.2092325152
 20
5.5305766405
 30
0.0
 10
4.2088850833
 20
5.5182303225
 30
0.0
 10
4.2084880106
 20
5.5061061057
 30
0.0
 10
4.2080552902
 20
5.4942281777
 30
0.0
 10
4.2075722848
 20
5.4826219885
 30
0.0
 10
4.2071177649
 20
5.4731322857
 30
0.0
 10
4.2067234701
 20
5.4656951495
 30
0.0
 10
4.2063151784
 20
5.4584765747
 30
0.0
 10
4.2058783083
 20
5.4513730721
 30
0.0
 10
4.2054196147
 20
5.4443873337
 30
0.0
 10
4.2049570055
 20
5.4376443744
 30
0.0
 10
4.2044655486
 20
5.4310300467
 30
0.0
 10
4.2039271905
 20
5.4245495865
 30
0.0
 10
4.2033767625
 20
5.4183377384
 30
0.0
 10
4.2026591343
 20
5.4108330084
 30
0.0
 10
4.2019093661
 20
5.4035057893
 30
0.0
 10
4.2012829489
 20
5.3978596932
 30
0.0
 10
4.2008026236
 20
5.3937907641
 30
0.0
 10
4.2003053269
 20
5.3898360367
 30
0.0
 10
4.1996325718
 20
5.384791855
 30
0.0
 10
4.1989246986
 20
5.3799053819
 30
0.0
 10
4.1981848115
 20
5.3751782025
 30
0.0
 10
4.1976324997
 20
5.3718073582
 30
0.0
 10
4.1970748275
 20
5.3685554919
 30
0.0
 10
4.1965057934
 20
5.3654250566
 30
0.0
 10
4.1959190007
 20
5.3624186725
 30
0.0
 10
4.1951282527
 20
5.358655409
 30
0.0
 10
4.1942964828
 20
5.3550638385
 30
0.0
 10
4.1934251867
 20
5.3516465062
 30
0.0
 10
4.1927801216
 20
5.3492668563
 30
0.0
 10
4.1921236915
 20
5.3470144435
 30
0.0
 10
4.191450934
 20
5.3448906781
 30
0.0
 10
4.1907527346
 20
5.3428982642
 30
0.0
 10
4.1900259384
 20
5.341038968
 30
0.0
 10
4.189279583
 20
5.3393099983
 30
0.0
 10
4.1885148275
 20
5.3377111551
 30
0.0
 10
4.1877280367
 20
5.3362423368
 30
0.0
 10
4.1866702532
 20
5.3345083003
 30
0.0
 10
4.1857727707
 20
5.3333230148
 30
0.0
 10
4.1851156339
 20
5.3326283381
 30
0.0
  0
SPLINE
  5
3E3
100
AcDbEntity
  8
0
100
AcDbSpline
 62
7
  6
CONTINUOUS
 70
0
 71
3
 72
27
 73
23
 74
0
 42
0.0000001
 43
0.0000001
 44
0.0000000001
 40
0.0
 40
0.0
 40
0.0
 40
0.0
 40
0.0201496801
 40
0.0548031291
 40
0.1073554726
 40
0.1788346888
 40
0.266031875
 40
0.3650142376
 40
0.4719455134
 40
0.5808528466
 40
0.6846296939
 40
0.7784949231
 40
0.8204812079
 40
0.8583780168
 40
0.9193219726
 40
0.9601160932
 40
0.9739386476
 40
0.9841551477
 40
0.9913480773
 40
0.9960679732
 40
0.9988021461
 40
1.0
 40
1.0
 40
1.0
 40
1.0
 10
3.0077127062
 20
5.6007751382
 30
0.0
 10
3.0077282101
 20
5.6010570101
 30
0.0
 10
3.0077623675
 20
5.6018240775
 30
0.0
 10
3.0078108312
 20
5.6033273759
 30
0.0
 10
3.0078604007
 20
5.6055500392
 30
0.0
 10
3.0079046418
 20
5.6085090467
 30
0.0
 10
3.007944543
 20
5.6121186426
 30
0.0
 10
3.0079780618
 20
5.6162250075
 30
0.0
 10
3.0079993101
 20
5.6206356266
 30
0.0
 10
3.007998624
 20
5.625113472
 30
0.0
 10
3.0079804253
 20
5.6294082123
 30
0.0
 10
3.0079562482
 20
5.6327653357
 30
0.0
 10
3.0079321034
 20
5.6351994398
 30
0.0
 10
3.0079078981
 20
5.6371722866
 30
0.0
 10
3.0078742862
 20
5.6391283073
 30
0.0
 10
3.0078290694
 20
5.6407467474
 30
0.0
 10
3.0077916832
 20
5.6416543044
 30
0.0
 10
3.0077695293
 20
5.6420913135
 30
0.0
 10
3.0077503247
 20
5.6424007568
 30
0.0
 10
3.0077349658
 20
5.6426053965
 30
0.0
 10
3.0077238496
 20
5.6427261022
 30
0.0
 10
3.0077178306
 20
5.6427808678
 30
0.0
 10
3.0077156389
 20
5.642797506
 30
0.0
  0
SPLINE
  5
3E4
100
AcDbEntity
  8
0
100
AcDbSpline
 62
7
  6
CONTINUOUS
 70
0
 71
3
 72
15
 73
11
 74
0
 42
0.0000001
 43
0.0000001
 44
0.0000000001
 40
0.0
 40
0.0
 40
0.0
 40
0.0
 40
0.233920258
 40
0.2946306693
 40
0.3561203536
 40
0.4811977838
 40
0.6086953798
 40
0.7380655505
 40
0.8687086889
 40
1.0
 40
1.0
 40
1.0
 40
1.0
 10
3.1774934197
 20
5.9274962327
 30
0.0
 10
3.1828808051
 20
5.9236120888
 30
0.0
 10
3.1901594033
 20
5.919366842
 30
0.0
 10
3.1993641661
 20
5.915184567
 30
0.0
 10
3.2058707458
 20
5.9125411384
 30
0.0
 10
3.2143267089
 20
5.9096809501
 30
0.0
 10
3.2248424597
 20
5.906991761
 30
0.0
 10
3.2356824344
 20
5.9050520197
 30
0.0
 10
3.2467395084
 20
5.9038805463
 30
0.0
 10
3.2541791481
 20
5.9036196022
 30
0.0
 10
3.2579068323
 20
5.9036196022
 30
0.0
  0
SPLINE
  5
3E5
100
AcDbEntity
  8
0
100
AcDbSpline
 62
7
  6
CONTINUOUS
 70
0
 71
3
 72
36
 73
32
 74
0
 42
0.0000001
 43
0.0000001
 44
0.0000000001
 40
0.0
 40
0.0
 40
0.0
 40
0.0
 40
0.0875624514
 40
0.1744587452
 40
0.2600307824
 40
0.3436304341
 40
0.4246288302
 40
0.5024205707
 40
0.5764300678
 40
0.6461160929
 40
0.6791796152
 40
0.7109771873
 40
0.7414531603
 40
0.7705543514
 40
0.7982312181
 40
0.8244372433
 40
0.8491307525
 40
0.8722739804
 40
0.8938337103
 40
0.9137830373
 40
0.9231477155
 40
0.9321033112
 40
0.9406489048
 40
0.9487838977
 40
0.956508181
 40
0.9638254557
 40
0.9707438565
 40
0.9772764954
 40
0.9834418878
 40
0.9892639087
 40
1.0
 40
1.0
 40
1.0
 40
1.0
 10
4.1402025643
 20
5.6209537839
 30
0.0
 10
4.1402012249
 20
5.61246063
 30
0.0
 10
4.1402831008
 20
5.5955388073
 30
0.0
 10
4.1406523809
 20
5.5703193391
 30
0.0
 10
4.1412641687
 20
5.5454890186
 30
0.0
 10
4.1421205659
 20
5.5212382948
 30
0.0
 10
4.1432210309
 20
5.4977528093
 30
0.0
 10
4.1445614089
 20
5.4752114675
 30
0.0
 10
4.1461348568
 20
5.4537851904
 30
0.0
 10
4.147655784
 20
5.4367070799
 30
0.0
 10
4.1489898248
 20
5.4237248244
 30
0.0
 10
4.1500234519
 20
5.4145353603
 30
0.0
 10
4.1511052628
 20
5.4057385309
 30
0.0
 10
4.152232766
 20
5.3973505373
 30
0.0
 10
4.1534026386
 20
5.3893867137
 30
0.0
 10
4.1546116808
 20
5.3818614109
 30
0.0
 10
4.1558593309
 20
5.3747884874
 30
0.0
 10
4.1571440193
 20
5.3681806804
 30
0.0
 10
4.1584636335
 20
5.3620496607
 30
0.0
 10
4.1596151935
 20
5.3572507469
 30
0.0
 10
4.1605598062
 20
5.353660842
 30
0.0
 10
4.1612627541
 20
5.3511514528
 30
0.0
 10
4.1619755286
 20
5.3487690586
 30
0.0
 10
4.1626982318
 20
5.3465147502
 30
0.0
 10
4.1634298298
 20
5.3443889034
 30
0.0
 10
4.1641730191
 20
5.3423924732
 30
0.0
 10
4.1649327585
 20
5.3405263794
 30
0.0
 10
4.165715363
 20
5.3387915624
 30
0.0
 10
4.166528421
 20
5.3371886397
 30
0.0
 10
4.1676319199
 20
5.3352803775
 30
0.0
 10
4.1685690639
 20
5.3339660623
 30
0.0
 10
4.1692482875
 20
5.3331767158
 30
0.0
  0
SPLINE
  5
3E6
100
AcDbEntity
  8
0
100
AcDbSpline
 62
7
  6
CONTINUOUS
 70
0
 71
3
 72
15
 73
11
 74
0
 42
0.0000001
 43
0.0000001
 44
0.0000000001
 40
0.0
 40
0.0
 40
0.0
 40
0.0
 40
0.1378600822
 40
0.2704257026
 40
0.398380598
 40
0.5225839517
 40
0.6439837706
 40
0.7635097653
 40
0.8819771062
 40
1.0
 40
1.0
 40
1.0
 40
1.0
 10
6.4123589802
 20
5.4264111859
 30
0.0
 10
6.4123589802
 20
5.4245342218
 30
0.0
 10
6.4125179241
 20
5.4208497783
 30
0.0
 10
6.413264924
 20
5.4154691361
 30
0.0
 10
6.4145021457
 20
5.4103699075
 30
0.0
 10
6.4162066129
 20
5.4055683953
 30
0.0
 10
6.4183469775
 20
5.4010719695
 30
0.0
 10
6.4208853397
 20
5.3968795869
 30
0.0
 10
6.4237784375
 20
5.3929825879
 30
0.0
 10
6.4259147486
 20
5.3905681625
 30
0.0
 10
6.4270241307
 20
5.3894056919
 30
0.0
  0
SPLINE
  5
3E7
100
AcDbEntity
  8
0
100
AcDbSpline
 62
7
  6
CONTINUOUS
 70
0
 71
3
 72
9
 73
5
 74
0
 42
0.0000001
 43
0.0000001
 44
0.0000000001
 40
0.0
 40
0.0
 40
0.0
 40
0.0
 40
0.2427253323
 40
1.0
 40
1.0
 40
1.0
 40
1.0
 10
6.4270241307
 20
5.3894056919
 30
0.0
 10
6.4272802349
 20
5.3891373321
 30
0.0
 10
6.4283680665
 20
5.3880630236
 30
0.0
 10
6.4295742865
 20
5.3871118221
 30
0.0
 10
6.4305272225
 20
5.3864550668
 30
0.0
  0
SPLINE
  5
3E8
100
AcDbEntity
  8
0
100
AcDbSpline
 62
7
  6
CONTINUOUS
 70
0
 71
3
 72
35
 73
31
 74
0
 42
0.0000001
 43
0.0000001
 44
0.0000000001
 40
0.0
 40
0.0
 40
0.0
 40
0.0
 40
0.0978512189
 40
0.1951988219
 40
0.2890834401
 40
0.3769971285
 40
0.4599213582
 40
0.5399180607
 40
0.6181422132
 40
0.6926126698
 40
0.7275983778
 40
0.7606428235
 40
0.8209128422
 40
0.8484384832
 40
0.8744319995
 40
0.8990520092
 40
0.9221693278
 40
0.9431572829
 40
0.9613337782
 40
0.9760222283
 40
0.9818580882
 40
0.9866171505
 40
0.9903959291
 40
0.993338344
 40
0.9955828481
 40
0.9972572763
 40
0.9984706198
 40
0.9993025127
 40
0.9997965894
 40
1.0
 40
1.0
 40
1.0
 40
1.0
 10
4.1851156294
 20
5.3326282965
 30
0.0
 10
4.1849676002
 20
5.3324527996
 30
0.0
 10
4.1846532953
 20
5.3321186679
 30
0.0
 10
4.1841563558
 20
5.3316567477
 30
0.0
 10
4.183661974
 20
5.3312270869
 30
0.0
 10
4.1831946798
 20
5.3308179167
 30
0.0
 10
4.1827459644
 20
5.3304369897
 30
0.0
 10
4.1822992173
 20
5.3300892797
 30
0.0
 10
4.1818482744
 20
5.3297810326
 30
0.0
 10
4.1814759633
 20
5.3295458176
 30
0.0
 10
4.1811911164
 20
5.3293707347
 30
0.0
 10
4.1809345525
 20
5.3292132695
 30
0.0
 10
4.1806928367
 20
5.3290650569
 30
0.0
 10
4.1804631894
 20
5.328928869
 30
0.0
 10
4.1803041128
 20
5.3288377001
 30
0.0
 10
4.1801521366
 20
5.328755012
 30
0.0
 10
4.1800086766
 20
5.3286813636
 30
0.0
 10
4.1798779447
 20
5.3286160586
 30
0.0
 10
4.179765056
 20
5.3285593131
 30
0.0
 10
4.1796847916
 20
5.3285167707
 30
0.0
 10
4.179633918
 20
5.3284862139
 30
0.0
 10
4.1796061327
 20
5.3284670436
 30
0.0
 10
4.1795852521
 20
5.3284499766
 30
0.0
 10
4.1795703154
 20
5.3284350914
 30
0.0
 10
4.1795603381
 20
5.3284224299
 30
0.0
 10
4.1795542299
 20
5.3284119309
 30
0.0
 10
4.1795511692
 20
5.3284038558
 30
0.0
 10
4.1795496948
 20
5.3283977962
 30
0.0
 10
4.179549631
 20
5.3283946208
 30
0.0
 10
4.179548855
 20
5.3283925715
 30
0.0
 10
4.1795483778
 20
5.3283925757
 30
0.0
  0
SPLINE
  5
3E9
100
AcDbEntity
  8
0
100
AcDbSpline
 62
7
  6
CONTINUOUS
 70
0
 71
3
 72
33
 73
29
 74
0
 42
0.0000001
 43
0.0000001
 44
0.0000000001
 40
0.0
 40
0.0
 40
0.0
 40
0.0
 40
0.1935288165
 40
0.2855280837
 40
0.3748010804
 40
0.4615158135
 40
0.5451280172
 40
0.624893503
 40
0.6999744539
 40
0.7688928111
 40
0.8004125459
 40
0.8296290868
 40
0.8562846334
 40
0.8801690767
 40
0.9013974287
 40
0.9202230547
 40
0.936897077
 40
0.9516718241
 40
0.9648079029
 40
0.976431381
 40
0.9815777133
 40
0.986208029
 40
0.9902669203
 40
0.9936981395
 40
0.9964447234
 40
0.9984491095
 40
0.9996532965
 40
1.0
 40
1.0
 40
1.0
 40
1.0
 10
4.1692482875
 20
5.3331767158
 30
0.0
 10
4.1695711982
 20
5.3327994896
 30
0.0
 10
4.1700633356
 20
5.3322557794
 30
0.0
 10
4.1707492946
 20
5.3315814638
 30
0.0
 10
4.1712603428
 20
5.3311210451
 30
0.0
 10
4.1717760706
 20
5.3306991428
 30
0.0
 10
4.1722894047
 20
5.3303138367
 30
0.0
 10
4.1727920471
 20
5.3299647562
 30
0.0
 10
4.1732743593
 20
5.3296531331
 30
0.0
 10
4.1736584796
 20
5.3294180071
 30
0.0
 10
4.1739434331
 20
5.3292463387
 30
0.0
 10
4.1741354948
 20
5.3291306156
 30
0.0
 10
4.1743102271
 20
5.3290240892
 30
0.0
 10
4.1744660875
 20
5.3289260117
 30
0.0
 10
4.1746037755
 20
5.3288368112
 30
0.0
 10
4.1747253661
 20
5.3287568014
 30
0.0
 10
4.1748331897
 20
5.3286859931
 30
0.0
 10
4.1749295985
 20
5.3286244025
 30
0.0
 10
4.1750166598
 20
5.3285722967
 30
0.0
 10
4.1750843751
 20
5.3285361182
 30
0.0
 10
4.1751335586
 20
5.3285117449
 30
0.0
 10
4.1751656966
 20
5.3284965477
 30
0.0
 10
4.1751938761
 20
5.3284837488
 30
0.0
 10
4.1752183742
 20
5.3284731269
 30
0.0
 10
4.1752365975
 20
5.3284653022
 30
0.0
 10
4.1752533399
 20
5.3284587354
 30
0.0
 10
4.1752572523
 20
5.3284566283
 30
0.0
 10
4.1752653018
 20
5.3284537954
 30
0.0
 10
4.1752644123
 20
5.3284537839
 30
0.0
  0
SPLINE
  5
3EA
100
AcDbEntity
  8
0
100
AcDbSpline
 62
7
  6
CONTINUOUS
 70
0
 71
3
 72
15
 73
11
 74
0
 42
0.0000001
 43
0.0000001
 44
0.0000000001
 40
0.0
 40
0.0
 40
0.0
 40
0.0
 40
0.1180229882
 40
0.2364905461
 40
0.3560167985
 40
0.4774169416
 40
0.6016204939
 40
0.7295753687
 40
0.8621405455
 40
1.0
 40
1.0
 40
1.0
 40
1.0
 10
6.5667895339
 20
5.3894056919
 30
0.0
 10
6.5678989169
 20
5.3905681634
 30
0.0
 10
6.5700352306
 20
5.3929825921
 30
0.0
 10
6.5729283323
 20
5.3968795978
 30
0.0
 10
6.5754666979
 20
5.4010719911
 30
0.0
 10
6.5776070637
 20
5.4055684281
 30
0.0
 10
6.5793115295
 20
5.4103699479
 30
0.0
 10
6.5805487458
 20
5.415469174
 30
0.0
 10
6.5812957421
 20
5.4208498015
 30
0.0
 10
6.5814546844
 20
5.4245342303
 30
0.0
 10
6.5814546844
 20
5.4264111859
 30
0.0
  0
SPLINE
  5
3EB
100
AcDbEntity
  8
0
100
AcDbSpline
 62
7
  6
CONTINUOUS
 70
0
 71
3
 72
35
 73
31
 74
0
 42
0.0000001
 43
0.0000001
 44
0.0000000001
 40
0.0
 40
0.0
 40
0.0
 40
0.0
 40
0.031012978
 40
0.0620282686
 40
0.0930481761
 40
0.1240749543
 40
0.186138524
 40
0.2482545219
 40
0.2793462759
 40
0.3104562678
 40
0.3415858632
 40
0.3727362325
 40
0.403908353
 40
0.4351029907
 40
0.466320683
 40
0.4975617539
 40
0.5288263
 40
0.5601141893
 40
0.5914250696
 40
0.6227583616
 40
0.6541132775
 40
0.6854888244
 40
0.7168838062
 40
0.748296841
 40
0.8111522618
 40
0.8740594832
 40
0.9055366942
 40
0.9370202055
 40
0.9685102154
 40
1.0
 40
1.0
 40
1.0
 40
1.0
 10
4.6501568323
 20
3.0432485962
 30
0.0
 10
4.6501568323
 20
3.0395870504
 30
0.0
 10
4.6503394279
 20
3.0322623615
 30
0.0
 10
4.6511603441
 20
3.0213030638
 30
0.0
 10
4.652526396
 20
3.0103961138
 30
0.0
 10
4.6550698701
 20
2.9959603612
 30
0.0
 10
4.6595949932
 20
2.978170142
 30
0.0
 10
4.6658674055
 20
2.9609103076
 30
0.0
 10
4.6718941023
 20
2.9475216145
 30
0.0
 10
4.676911389
 20
2.9377056826
 30
0.0
 10
4.6824116391
 20
2.9281443147
 30
0.0
 10
4.6883816378
 20
2.9188602005
 30
0.0
 10
4.6948069988
 20
2.9098758028
 30
0.0
 10
4.7016722762
 20
2.9012127682
 30
0.0
 10
4.7089608713
 20
2.89289193
 30
0.0
 10
4.7166552313
 20
2.8849333328
 30
0.0
 10
4.7247368567
 20
2.8773561889
 30
0.0
 10
4.7331862319
 20
2.8701787055
 30
0.0
 10
4.7419829965
 20
2.8634181581
 30
0.0
 10
4.7511059897
 20
2.8570908826
 30
0.0
 10
4.7605332272
 20
2.8512120771
 30
0.0
 10
4.7702419046
 20
2.8457958955
 30
0.0
 10
4.7802089615
 20
2.8408553436
 30
0.0
 10
4.7938108059
 20
2.834917773
 30
0.0
 10
4.8113423723
 20
2.8287405913
 30
0.0
 10
4.8293968834
 20
2.8242879994
 30
0.0
 10
4.8440499263
 20
2.82178427
 30
0.0
 10
4.8551244503
 20
2.8204391067
 30
0.0
 10
4.8662520226
 20
2.8196308606
 30
0.0
 10
4.8736889923
 20
2.8194510344
 30
0.0
 10
4.8774068323
 20
2.8194510344
 30
0.0
  0
SPLINE
  5
3EC
100
AcDbEntity
  8
0
100
AcDbSpline
 62
7
  6
CONTINUOUS
 70
0
 71
3
 72
31
 73
27
 74
0
 42
0.0000001
 43
0.0000001
 44
0.0000000001
 40
0.0
 40
0.0
 40
0.0
 40
0.0
 40
0.0310153095
 40
0.0620329408
 40
0.0930551852
 40
0.1240842926
 40
0.18615254
 40
0.2482732102
 40
0.2793673102
 40
0.3104796435
 40
0.3416115788
 40
0.3727642962
 40
0.4351168002
 40
0.4975614034
 40
0.5600997674
 40
0.6227299589
 40
0.6540872347
 40
0.6854651434
 40
0.7168624899
 40
0.7482778908
 40
0.8111380433
 40
0.8740499837
 40
0.9055295994
 40
0.9370154928
 40
0.9685077284
 40
1.0
 40
1.0
 40
1.0
 40
1.0
 10
4.6501568464
 20
2.9998365518
 30
0.0
 10
4.6501568464
 20
2.9961750064
 30
0.0
 10
4.6503394186
 20
2.9888503171
 30
0.0
 10
4.6511603227
 20
2.9778910168
 30
0.0
 10
4.6525264199
 20
2.9669840728
 30
0.0
 10
4.6550698571
 20
2.9525483144
 30
0.0
 10
4.6595950159
 20
2.9347581021
 30
0.0
 10
4.6658673806
 20
2.91749826
 30
0.0
 10
4.671894108
 20
2.9041095596
 30
0.0
 10
4.6769113774
 20
2.8942936827
 30
0.0
 10
4.6824117388
 20
2.884732133
 30
0.0
 10
4.6903726319
 20
2.872351655
 30
0.0
 10
4.7014685958
 20
2.8576194798
 30
0.0
 10
4.7164704256
 20
2.8413217439
 30
0.0
 10
4.7330213388
 20
2.8265506164
 30
0.0
 10
4.7479705421
 20
2.8156339695
 30
0.0
 10
4.7605330891
 20
2.8078001336
 30
0.0
 10
4.7702419382
 20
2.8023838181
 30
0.0
 10
4.7802089565
 20
2.7974433164
 30
0.0
 10
4.7938108068
 20
2.7915057127
 30
0.0
 10
4.8113423729
 20
2.7853285628
 30
0.0
 10
4.8293968814
 20
2.7808759427
 30
0.0
 10
4.8440499305
 20
2.7783722299
 30
0.0
 10
4.8551244423
 20
2.7770270648
 30
0.0
 10
4.8662520121
 20
2.7762188103
 30
0.0
 10
4.8736889786
 20
2.7760389899
 30
0.0
 10
4.8774068323
 20
2.7760389899
 30
0.0
  0
SPLINE
  5
3ED
100
AcDbEntity
  8
0
100
AcDbSpline
 62
7
  6
CONTINUOUS
 70
0
 71
3
 72
35
 73
31
 74
0
 42
0.0000001
 43
0.0000001
 44
0.0000000001
 40
0.0
 40
0.0
 40
0.0
 40
0.0
 40
0.031012978
 40
0.0620282686
 40
0.0930481761
 40
0.1240749543
 40
0.186138524
 40
0.2482545219
 40
0.2793462759
 40
0.3104562678
 40
0.3415858632
 40
0.3727362325
 40
0.403908353
 40
0.4351029907
 40
0.466320683
 40
0.4975617539
 40
0.5288263
 40
0.5601141893
 40
0.5914250696
 40
0.6227583616
 40
0.6541132775
 40
0.6854888244
 40
0.7168838062
 40
0.748296841
 40
0.8111522618
 40
0.8740594832
 40
0.9055366942
 40
0.9370202055
 40
0.9685102154
 40
1.0
 40
1.0
 40
1.0
 40
1.0
 10
5.1046568323
 20
3.0432485962
 30
0.0
 10
5.1046568323
 20
3.0395870504
 30
0.0
 10
5.1044742367
 20
3.0322623615
 30
0.0
 10
5.1036533205
 20
3.0213030638
 30
0.0
 10
5.1022872686
 20
3.0103961138
 30
0.0
 10
5.0997437945
 20
2.9959603612
 30
0.0
 10
5.0952186714
 20
2.978170142
 30
0.0
 10
5.088946259
 20
2.9609103076
 30
0.0
 10
5.0829195623
 20
2.9475216145
 30
0.0
 10
5.0779022756
 20
2.9377056826
 30
0.0
 10
5.0724020255
 20
2.9281443147
 30
0.0
 10
5.0664320268
 20
2.9188602005
 30
0.0
 10
5.0600066658
 20
2.9098758028
 30
0.0
 10
5.0531413884
 20
2.9012127682
 30
0.0
 10
5.0458527932
 20
2.89289193
 30
0.0
 10
5.0381584333
 20
2.8849333328
 30
0.0
 10
5.0300768079
 20
2.8773561889
 30
0.0
 10
5.0216274327
 20
2.8701787055
 30
0.0
 10
5.012830668
 20
2.8634181581
 30
0.0
 10
5.0037076749
 20
2.8570908826
 30
0.0
 10
4.9942804374
 20
2.8512120771
 30
0.0
 10
4.98457176
 20
2.8457958955
 30
0.0
 10
4.9746047031
 20
2.8408553436
 30
0.0
 10
4.9610028587
 20
2.834917773
 30
0.0
 10
4.9434712923
 20
2.8287405913
 30
0.0
 10
4.9254167811
 20
2.8242879994
 30
0.0
 10
4.9107637383
 20
2.82178427
 30
0.0
 10
4.8996892143
 20
2.8204391067
 30
0.0
 10
4.888561642
 20
2.8196308606
 30
0.0
 10
4.8811246723
 20
2.8194510344
 30
0.0
 10
4.8774068323
 20
2.8194510344
 30
0.0
  0
SPLINE
  5
3EE
100
AcDbEntity
  8
0
100
AcDbSpline
 62
7
  6
CONTINUOUS
 70
0
 71
3
 72
21
 73
17
 74
0
 42
0.0000001
 43
0.0000001
 44
0.0000000001
 40
0.0
 40
0.0
 40
0.0
 40
0.0
 40
0.1169633321
 40
0.1780523831
 40
0.2405926779
 40
0.3043430909
 40
0.3690295209
 40
0.4343534172
 40
0.5000000666
 40
0.5656467136
 40
0.6309706027
 40
0.6956570211
 40
0.7594074181
 40
0.8219476931
 40
0.8830367211
 40
1.0
 40
1.0
 40
1.0
 40
1.0
 10
3.31780107
 20
5.329205135
 30
0.0
 10
3.31378837
 20
5.332098139
 30
0.0
 10
3.3072388724
 20
5.3359181458
 30
0.0
 10
3.2978820519
 20
5.3399319864
 30
0.0
 10
3.2903663517
 20
5.3424743308
 30
0.0
 10
3.2825340358
 20
5.3444771665
 30
0.0
 10
3.2744601533
 20
5.3459219639
 30
0.0
 10
3.2662242146
 20
5.3467944612
 30
0.0
 10
3.2579067707
 20
5.3470862452
 30
0.0
 10
3.2495893274
 20
5.3467944526
 30
0.0
 10
3.2413533905
 20
5.3459219468
 30
0.0
 10
3.233279511
 20
5.3444771409
 30
0.0
 10
3.2254471992
 20
5.3424742972
 30
0.0
 10
3.2179315043
 20
5.3399319449
 30
0.0
 10
3.2085746924
 20
5.3359180947
 30
0.0
 10
3.2020252024
 20
5.332098081
 30
0.0
 10
3.1980125083
 20
5.3292050728
 30
0.0
  0
LINE
  5
3EF
100
AcDbEntity
  8
0
100
AcDbLine
 62
7
  6
CONTINUOUS
 10
3.008214973
 20
5.6428037839
 11
3.0082917406
 21
5.6416409138
  0
SPLINE
  5
3F0
100
AcDbEntity
  8
0
100
AcDbSpline
 62
7
  6
CONTINUOUS
 70
0
 71
3
 72
22
 73
18
 74
0
 42
0.0000001
 43
0.0000001
 44
0.0000000001
 40
0.0
 40
0.0
 40
0.0
 40
0.0
 40
0.0255013498
 40
0.0628078767
 40
0.1133479273
 40
0.176450358
 40
0.2494582487
 40
0.3301438454
 40
0.4165252964
 40
0.5060534274
 40
0.6800100306
 40
0.7587180021
 40
0.8293686147
 40
0.8899245539
 40
0.9384000598
 40
0.9746601645
 40
1.0
 40
1.0
 40
1.0
 40
1.0
 10
3.0082917406
 20
5.6416409138
 30
0.0
 10
3.0083072743
 20
5.6412998603
 30
0.0
 10
3.0083381502
 20
5.640459539
 30
0.0
 10
3.0083772717
 20
5.6389425445
 30
0.0
 10
3.0084123562
 20
5.6369219544
 30
0.0
 10
3.0084413737
 20
5.6344232779
 30
0.0
 10
3.008466259
 20
5.6315209604
 30
0.0
 10
3.0084859553
 20
5.6283069415
 30
0.0
 10
3.0084983913
 20
5.6248717136
 30
0.0
 10
3.0085001022
 20
5.6201877633
 30
0.0
 10
3.0084751689
 20
5.6156065841
 30
0.0
 10
3.0084358498
 20
5.6112782817
 30
0.0
 10
3.0084036209
 20
5.6084681687
 30
0.0
 10
3.0083685745
 20
5.6060628694
 30
0.0
 10
3.0083298113
 20
5.6041181073
 30
0.0
 10
3.00829009
 20
5.6026449612
 30
0.0
 10
3.0082607599
 20
5.6018207794
 30
0.0
 10
3.0082465663
 20
5.6014818317
 30
0.0
  0
LINE
  5
3F1
100
AcDbEntity
  8
0
100
AcDbLine
 62
7
  6
CONTINUOUS
 10
3.0082465663
 20
5.6014818317
 11
3.0081820504
 21
5.6003037839
  0
SPLINE
  5
3F2
100
AcDbEntity
  8
0
100
AcDbSpline
 62
7
  6
CONTINUOUS
 70
0
 71
3
 72
31
 73
27
 74
0
 42
0.0000001
 43
0.0000001
 44
0.0000000001
 40
0.0
 40
0.0
 40
0.0
 40
0.0
 40
0.0310153095
 40
0.0620329408
 40
0.0930551852
 40
0.1240842926
 40
0.18615254
 40
0.2482732102
 40
0.2793673102
 40
0.3104796435
 40
0.3416115788
 40
0.3727642962
 40
0.4351168002
 40
0.4975614034
 40
0.5600997674
 40
0.6227299589
 40
0.6540872347
 40
0.6854651434
 40
0.7168624899
 40
0.7482778908
 40
0.8111380433
 40
0.8740499837
 40
0.9055295994
 40
0.9370154928
 40
0.9685077284
 40
1.0
 40
1.0
 40
1.0
 40
1.0
 10
5.1046568182
 20
2.9998365518
 30
0.0
 10
5.1046568182
 20
2.9961750064
 30
0.0
 10
5.104474246
 20
2.9888503171
 30
0.0
 10
5.1036533419
 20
2.9778910168
 30
0.0
 10
5.1022872447
 20
2.9669840728
 30
0.0
 10
5.0997438075
 20
2.9525483144
 30
0.0
 10
5.0952186487
 20
2.9347581021
 30
0.0
 10
5.088946284
 20
2.91749826
 30
0.0
 10
5.0829195566
 20
2.9041095596
 30
0.0
 10
5.0779022872
 20
2.8942936827
 30
0.0
 10
5.0724019258
 20
2.884732133
 30
0.0
 10
5.0644410327
 20
2.872351655
 30
0.0
 10
5.0533450688
 20
2.8576194798
 30
0.0
 10
5.038343239
 20
2.8413217439
 30
0.0
 10
5.0217923258
 20
2.8265506164
 30
0.0
 10
5.0068431225
 20
2.8156339695
 30
0.0
 10
4.9942805755
 20
2.8078001336
 30
0.0
 10
4.9845717264
 20
2.8023838181
 30
0.0
 10
4.9746047081
 20
2.7974433164
 30
0.0
 10
4.9610028578
 20
2.7915057127
 30
0.0
 10
4.9434712917
 20
2.7853285628
 30
0.0
 10
4.9254167832
 20
2.7808759427
 30
0.0
 10
4.9107637341
 20
2.7783722299
 30
0.0
 10
4.8996892223
 20
2.7770270648
 30
0.0
 10
4.8885616525
 20
2.7762188103
 30
0.0
 10
4.881124686
 20
2.7760389899
 30
0.0
 10
4.8774068323
 20
2.7760389899
 30
0.0
  0
SPLINE
  5
3F3
100
AcDbEntity
  8
0
100
AcDbSpline
 62
7
  6
CONTINUOUS
 70
0
 71
3
 72
31
 73
27
 74
0
 42
0.0000001
 43
0.0000001
 44
0.0000000001
 40
0.0
 40
0.0
 40
0.0
 40
0.0
 40
0.0639021759
 40
0.1277513399
 40
0.1914908542
 40
0.2233094215
 40
0.2550833568
 40
0.318468602
 40
0.3816190712
 40
0.4445067836
 40
0.5071161867
 40
0.5383181847
 40
0.5694500293
 40
0.6005138893
 40
0.6315122077
 40
0.6624466537
 40
0.6933185619
 40
0.724134238
 40
0.7549018568
 40
0.7856282498
 40
0.816316829
 40
0.8469696533
 40
0.8775941259
 40
0.9082008977
 40
0.9388001897
 40
1.0
 40
1.0
 40
1.0
 40
1.0
 10
4.505937618
 20
5.6209537839
 30
0.0
 10
4.5059380456
 20
5.6144447122
 30
0.0
 10
4.5063756597
 20
5.6014278422
 30
0.0
 10
4.5083211226
 20
5.5820066621
 30
0.0
 10
4.511006388
 20
5.5659796877
 30
0.0
 10
4.5137871245
 20
5.5533091305
 30
0.0
 10
4.5169811686
 20
5.5407736197
 30
0.0
 10
4.5217414491
 20
5.5253533757
 30
0.0
 10
4.5286444609
 20
5.5073210946
 30
0.0
 10
4.5366861129
 20
5.4898540389
 30
0.0
 10
4.54430467
 20
5.4758142619
 30
0.0
 10
4.5509102283
 20
5.4649339519
 30
0.0
 10
4.5561080436
 20
5.4569638678
 30
0.0
 10
4.5615490043
 20
5.4491831904
 30
0.0
 10
4.5672249333
 20
5.4415973471
 30
0.0
 10
4.5731248265
 20
5.4342094592
 30
0.0
 10
4.5792389377
 20
5.4270222825
 30
0.0
 10
4.585562866
 20
5.4200418807
 30
0.0
 10
4.5920932522
 20
5.4132748002
 30
0.0
 10
4.5988232882
 20
5.4067248656
 30
0.0
 10
4.6057417184
 20
5.4003916869
 30
0.0
 10
4.6128382045
 20
5.3942746154
 30
0.0
 10
4.6201072752
 20
5.3883769323
 30
0.0
 10
4.6275454329
 20
5.3827027059
 30
0.0
 10
4.637681865
 20
5.3754403526
 30
0.0
 10
4.6455239112
 20
5.3703344539
 30
0.0
 10
4.6508445864
 20
5.3670862561
 30
0.0
  0
SPLINE
  5
3F4
100
AcDbEntity
  8
0
100
AcDbSpline
 62
7
  6
CONTINUOUS
 70
0
 71
3
 72
9
 73
5
 74
0
 42
0.0000001
 43
0.0000001
 44
0.0000000001
 40
0.0
 40
0.0
 40
0.0
 40
0.0
 40
0.2578931738
 40
1.0
 40
1.0
 40
1.0
 40
1.0
 10
3.1915272482
 20
5.8554525187
 30
0.0
 10
3.1912027443
 20
5.855228874
 30
0.0
 10
3.189963942
 20
5.8543342398
 30
0.0
 10
3.1888070865
 20
5.8533222994
 30
0.0
 10
3.1880241307
 20
5.8525018759
 30
0.0
  0
LINE
  5
3F5
100
AcDbEntity
  8
0
100
AcDbLine
 62
7
  6
CONTINUOUS
 10
3.0104775506
 20
5.6802037839
 11
3.0105415208
 21
5.6797418977
  0
LINE
  5
3F6
100
AcDbEntity
  8
0
100
AcDbLine
 62
7
  6
CONTINUOUS
 10
3.0105415208
 20
5.6797418977
 11
3.0104386577
 21
5.6750684125
  0
SPLINE
  5
3F7
100
AcDbEntity
  8
0
100
AcDbSpline
 62
7
  6
CONTINUOUS
 70
0
 71
3
 72
47
 73
43
 74
0
 42
0.0000001
 43
0.0000001
 44
0.0000000001
 40
0.0
 40
0.0
 40
0.0
 40
0.0
 40
0.0155081584
 40
0.0310190065
 40
0.0465310475
 40
0.0620466883
 40
0.0930831582
 40
0.1241457913
 40
0.1396939909
 40
0.1552513085
 40
0.1708184278
 40
0.1863959395
 40
0.2175744981
 40
0.2487991099
 40
0.2800706062
 40
0.311388018
 40
0.3427486209
 40
0.3741480431
 40
0.4055804402
 40
0.4370387224
 40
0.4685148218
 40
0.5
 40
0.5314851782
 40
0.5629612776
 40
0.5944195598
 40
0.6258519569
 40
0.6572513791
 40
0.688611982
 40
0.7199293938
 40
0.7512008901
 40
0.7824255019
 40
0.8136040605
 40
0.8291815722
 40
0.8447486915
 40
0.8603060091
 40
0.8758542087
 40
0.9069168418
 40
0.9379533117
 40
0.9534689525
 40
0.9689809935
 40
0.9844918416
 40
1.0
 40
1.0
 40
1.0
 40
1.0
 10
5.0539068323
 20
3.0575745709
 30
0.0
 10
5.0539068323
 20
3.0547308484
 30
0.0
 10
5.053764975
 20
3.0490418838
 30
0.0
 10
5.0531274684
 20
3.0405300335
 30
0.0
 10
5.0520664362
 20
3.0320587439
 30
0.0
 10
5.0500909686
 20
3.020846865
 30
0.0
 10
5.0465764339
 20
3.0070295928
 30
0.0
 10
5.0417047849
 20
2.9936242643
 30
0.0
 10
5.0370239821
 20
2.9832255506
 30
0.0
 10
5.0331271688
 20
2.9756017848
 30
0.0
 10
5.0288551669
 20
2.9681755383
 30
0.0
 10
5.0226721185
 20
2.9585599039
 30
0.0
 10
5.0140541069
 20
2.9471177209
 30
0.0
 10
5.0024026563
 20
2.9344597397
 30
0.0
 10
4.9895473659
 20
2.9229869952
 30
0.0
 10
4.9756126526
 20
2.9128108338
 30
0.0
 10
4.9607326048
 20
2.9040288804
 30
0.0
 10
4.945050596
 20
2.8967255866
 30
0.0
 10
4.9287175859
 20
2.8909711537
 30
0.0
 10
4.9118907898
 20
2.8868209237
 30
0.0
 10
4.8947321684
 20
2.8843147129
 30
0.0
 10
4.8774068323
 20
2.883476607
 30
0.0
 10
4.8600814961
 20
2.8843147129
 30
0.0
 10
4.8429228748
 20
2.8868209237
 30
0.0
 10
4.8260960787
 20
2.8909711537
 30
0.0
 10
4.8097630686
 20
2.8967255866
 30
0.0
 10
4.7940810598
 20
2.9040288804
 30
0.0
 10
4.779201012
 20
2.9128108338
 30
0.0
 10
4.7652662987
 20
2.9229869952
 30
0.0
 10
4.7524110083
 20
2.9344597397
 30
0.0
 10
4.7407595577
 20
2.9471177209
 30
0.0
 10
4.7321415461
 20
2.9585599039
 30
0.0
 10
4.7259584977
 20
2.9681755383
 30
0.0
 10
4.7216864958
 20
2.9756017848
 30
0.0
 10
4.7177896825
 20
2.9832255506
 30
0.0
 10
4.7131088797
 20
2.9936242643
 30
0.0
 10
4.7082372307
 20
3.0070295928
 30
0.0
 10
4.704722696
 20
3.020846865
 30
0.0
 10
4.7027472284
 20
3.0320587439
 30
0.0
 10
4.7016861962
 20
3.0405300335
 30
0.0
 10
4.7010486896
 20
3.0490418838
 30
0.0
 10
4.7009068323
 20
3.0547308484
 30
0.0
 10
4.7009068323
 20
3.0575745709
 30
0.0
  0
LINE
  5
3F8
100
AcDbEntity
  8
0
100
AcDbLine
 62
7
  6
CONTINUOUS
 10
3.0131993052
 20
5.7056908931
 11
3.0123296331
 21
5.7007037839
  0
SPLINE
  5
3F9
100
AcDbEntity
  8
0
100
AcDbSpline
 62
7
  6
CONTINUOUS
 70
0
 71
3
 72
14
 73
10
 74
0
 42
0.0000001
 43
0.0000001
 44
0.0000000001
 40
0.0
 40
0.0
 40
0.0
 40
0.0
 40
0.2716447772
 40
0.4030340332
 40
0.5308707229
 40
0.6547522414
 40
0.7743498259
 40
0.889449741
 40
1.0
 40
1.0
 40
1.0
 40
1.0
 10
6.4270241307
 20
5.4769107884
 30
0.0
 10
6.4248475102
 20
5.4726283171
 30
0.0
 10
6.4218111923
 20
5.4661696011
 30
0.0
 10
6.4183977593
 20
5.4574206798
 30
0.0
 10
6.4162594642
 20
5.4509883203
 30
0.0
 10
6.4145507571
 20
5.4446438198
 30
0.0
 10
6.4133023595
 20
5.4384214451
 30
0.0
 10
6.4125383025
 20
5.4323583277
 30
0.0
 10
6.4123589802
 20
5.4283662019
 30
0.0
 10
6.4123589802
 20
5.4264111859
 30
0.0
  0
SPLINE
  5
3FA
100
AcDbEntity
  8
0
100
AcDbSpline
 62
7
  6
CONTINUOUS
 70
0
 71
3
 72
31
 73
27
 74
0
 42
0.0000001
 43
0.0000001
 44
0.0000000001
 40
0.0
 40
0.0
 40
0.0
 40
0.0
 40
0.0639021759
 40
0.1277513399
 40
0.1914908542
 40
0.2233094215
 40
0.2550833568
 40
0.318468602
 40
0.3816190712
 40
0.4445067836
 40
0.5071161867
 40
0.5383181847
 40
0.5694500293
 40
0.6005138893
 40
0.6315122077
 40
0.6624466537
 40
0.6933185619
 40
0.724134238
 40
0.7549018568
 40
0.7856282498
 40
0.816316829
 40
0.8469696533
 40
0.8775941259
 40
0.9082008977
 40
0.9388001897
 40
1.0
 40
1.0
 40
1.0
 40
1.0
 10
4.505937618
 20
5.6209537839
 30
0.0
 10
4.5059380456
 20
5.6274628557
 30
0.0
 10
4.5063756597
 20
5.6404797257
 30
0.0
 10
4.5083211226
 20
5.6599009057
 30
0.0
 10
4.511006388
 20
5.6759278801
 30
0.0
 10
4.5137871245
 20
5.6885984373
 30
0.0
 10
4.5169811686
 20
5.7011339482
 30
0.0
 10
4.5217414491
 20
5.7165541921
 30
0.0
 10
4.5286444609
 20
5.7345864732
 30
0.0
 10
4.5366861129
 20
5.752053529
 30
0.0
 10
4.54430467
 20
5.7660933059
 30
0.0
 10
4.5509102283
 20
5.7769736159
 30
0.0
 10
4.5561080436
 20
5.7849437
 30
0.0
 10
4.5615490043
 20
5.7927243774
 30
0.0
 10
4.5672249333
 20
5.8003102207
 30
0.0
 10
4.5731248265
 20
5.8076981086
 30
0.0
 10
4.5792389377
 20
5.8148852853
 30
0.0
 10
4.585562866
 20
5.8218656871
 30
0.0
 10
4.5920932522
 20
5.8286327676
 30
0.0
 10
4.5988232882
 20
5.8351827022
 30
0.0
 10
4.6057417184
 20
5.8415158809
 30
0.0
 10
4.6128382045
 20
5.8476329524
 30
0.0
 10
4.6201072752
 20
5.8535306355
 30
0.0
 10
4.6275454329
 20
5.8592048619
 30
0.0
 10
4.637681865
 20
5.8664672152
 30
0.0
 10
4.6455239112
 20
5.8715731139
 30
0.0
 10
4.6508445864
 20
5.8748213117
 30
0.0
  0
SPLINE
  5
3FB
100
AcDbEntity
  8
0
100
AcDbSpline
 62
7
  6
CONTINUOUS
 70
0
 71
3
 72
31
 73
27
 74
0
 42
0.0000001
 43
0.0000001
 44
0.0000000001
 40
0.0
 40
0.0
 40
0.0
 40
0.0
 40
0.0310140151
 40
0.062033418
 40
0.0930552194
 40
0.1240842021
 40
0.1861525311
 40
0.2482732223
 40
0.2793673114
 40
0.3104796329
 40
0.341611571
 40
0.3727643045
 40
0.4351167952
 40
0.4975614022
 40
0.5600997708
 40
0.6227299477
 40
0.6540872435
 40
0.6854651527
 40
0.7168624838
 40
0.7482778802
 40
0.8111380438
 40
0.8740500374
 40
0.9055295042
 40
0.9370154162
 40
0.9685081246
 40
1.0
 40
1.0
 40
1.0
 40
1.0
 10
5.0539068323
 20
3.0480239211
 30
0.0
 10
5.0539068323
 20
3.0451801993
 30
0.0
 10
5.0537649754
 20
3.0394912351
 30
0.0
 10
5.0531274681
 20
3.0309793838
 30
0.0
 10
5.0520664361
 20
3.022508093
 30
0.0
 10
5.0500909685
 20
3.0112962146
 30
0.0
 10
5.0465764337
 20
2.9974789425
 30
0.0
 10
5.0417047851
 20
2.9840736143
 30
0.0
 10
5.037023982
 20
2.9736749007
 30
0.0
 10
5.0331271695
 20
2.9660511361
 30
0.0
 10
5.0288551679
 20
2.9586248897
 30
0.0
 10
5.0226721145
 20
2.949009252
 30
0.0
 10
5.0140541398
 20
2.93756709
 30
0.0
 10
5.0024025349
 20
2.9249090199
 30
0.0
 10
4.9895478192
 20
2.913436608
 30
0.0
 10
4.9779371143
 20
2.9049578798
 30
0.0
 10
4.9681800598
 20
2.8988735199
 30
0.0
 10
4.9606393993
 20
2.8946668146
 30
0.0
 10
4.9528982596
 20
2.8908295996
 30
0.0
 10
4.9423339962
 20
2.8862180198
 30
0.0
 10
4.9287176248
 20
2.8814203352
 30
0.0
 10
4.9146950874
 20
2.8779621342
 30
0.0
 10
4.9033144056
 20
2.8760175194
 30
0.0
 10
4.8947130469
 20
2.8749727615
 30
0.0
 10
4.8860705022
 20
2.8743450302
 30
0.0
 10
4.8802943699
 20
2.8742053527
 30
0.0
 10
4.8774068323
 20
2.8742053527
 30
0.0
  0
LINE
  5
3FC
100
AcDbEntity
  8
0
100
AcDbLine
 62
7
  6
CONTINUOUS
 10
3.0151931587
 20
5.7247037839
 11
3.0152283253
 21
5.7241214553
  0
LINE
  5
3FD
100
AcDbEntity
  8
0
100
AcDbLine
 62
7
  6
CONTINUOUS
 10
3.0152283253
 20
5.7241214553
 11
3.0148909214
 21
5.7198945708
  0
SPLINE
  5
3FE
100
AcDbEntity
  8
0
100
AcDbSpline
 62
7
  6
CONTINUOUS
 70
0
 71
3
 72
31
 73
27
 74
0
 42
0.0000001
 43
0.0000001
 44
0.0000000001
 40
0.0
 40
0.0
 40
0.0
 40
0.0
 40
0.0314918754
 40
0.0629845838
 40
0.0944704958
 40
0.1259499626
 40
0.1888619562
 40
0.2517221198
 40
0.2831375162
 40
0.3145348473
 40
0.3459127565
 40
0.3772700523
 40
0.4399002292
 40
0.5024385978
 40
0.5648832048
 40
0.6272356955
 40
0.658388429
 40
0.6895203671
 40
0.7206326886
 40
0.7517267777
 40
0.8138474689
 40
0.8759157979
 40
0.9069447806
 40
0.937966582
 40
0.9689859849
 40
1.0
 40
1.0
 40
1.0
 40
1.0
 10
4.8774068323
 20
2.8742053527
 30
0.0
 10
4.8745192947
 20
2.8742053527
 30
0.0
 10
4.8687431624
 20
2.8743450302
 30
0.0
 10
4.8601006177
 20
2.8749727615
 30
0.0
 10
4.851499259
 20
2.8760175194
 30
0.0
 10
4.8401185772
 20
2.8779621342
 30
0.0
 10
4.8260960397
 20
2.8814203352
 30
0.0
 10
4.8124796684
 20
2.8862180198
 30
0.0
 10
4.801915405
 20
2.8908295996
 30
0.0
 10
4.7941742653
 20
2.8946668146
 30
0.0
 10
4.7866336048
 20
2.8988735199
 30
0.0
 10
4.7768765503
 20
2.9049578798
 30
0.0
 10
4.7652658454
 20
2.913436608
 30
0.0
 10
4.7524111297
 20
2.9249090199
 30
0.0
 10
4.7407595248
 20
2.93756709
 30
0.0
 10
4.7321415501
 20
2.949009252
 30
0.0
 10
4.7259584967
 20
2.9586248897
 30
0.0
 10
4.7216864951
 20
2.9660511361
 30
0.0
 10
4.7177896826
 20
2.9736749007
 30
0.0
 10
4.7131088795
 20
2.9840736143
 30
0.0
 10
4.7082372309
 20
2.9974789425
 30
0.0
 10
4.7047226961
 20
3.0112962146
 30
0.0
 10
4.7027472285
 20
3.022508093
 30
0.0
 10
4.7016861965
 20
3.0309793838
 30
0.0
 10
4.7010486892
 20
3.0394912351
 30
0.0
 10
4.7009068323
 20
3.0451801993
 30
0.0
 10
4.7009068323
 20
3.0480239211
 30
0.0
  0
SPLINE
  5
3FF
100
AcDbEntity
  8
0
100
AcDbSpline
 62
7
  6
CONTINUOUS
 70
0
 71
3
 72
14
 73
10
 74
0
 42
0.0000001
 43
0.0000001
 44
0.0000000001
 40
0.0
 40
0.0
 40
0.0
 40
0.0
 40
0.110550781
 40
0.2256511195
 40
0.3452487931
 40
0.4691301773
 40
0.5969665758
 40
0.7283555744
 40
1.0
 40
1.0
 40
1.0
 40
1.0
 10
6.5814546844
 20
5.4264111859
 30
0.0
 10
6.5814546844
 20
5.4283662112
 30
0.0
 10
6.5812753603
 20
5.4323583537
 30
0.0
 10
6.5805112995
 20
5.4384214891
 30
0.0
 10
6.5792628968
 20
5.4446438697
 30
0.0
 10
6.5775541885
 20
5.4509883637
 30
0.0
 10
6.5754158947
 20
5.457420711
 30
0.0
 10
6.5720024654
 20
5.4661696166
 30
0.0
 10
6.5689661516
 20
5.4726283226
 30
0.0
 10
6.5667895339
 20
5.4769107884
 30
0.0
  0
LINE
  5
400
100
AcDbEntity
  8
0
100
AcDbLine
 62
7
  6
CONTINUOUS
 10
3.0194824773
 20
5.7505882999
 11
3.0182389565
 21
5.7452037839
  0
SPLINE
  5
401
100
AcDbEntity
  8
0
100
AcDbSpline
 62
7
  6
CONTINUOUS
 70
0
 71
3
 72
15
 73
11
 74
0
 42
0.0000001
 43
0.0000001
 44
0.0000000001
 40
0.0
 40
0.0
 40
0.0
 40
0.0
 40
0.1190526651
 40
0.2404726307
 40
0.3638893543
 40
0.4889545373
 40
0.6153562488
 40
0.7428158074
 40
0.8710987028
 40
1.0
 40
1.0
 40
1.0
 40
1.0
 10
6.5667895339
 20
5.4769107884
 30
0.0
 10
6.5660915545
 20
5.4782840534
 30
0.0
 10
6.5645444281
 20
5.4809898616
 30
0.0
 10
6.5618529512
 20
5.4848597212
 30
0.0
 10
6.558801779
 20
5.4885542318
 30
0.0
 10
6.5554253289
 20
5.4920435969
 30
0.0
 10
6.5517564182
 20
5.4953029132
 30
0.0
 10
6.5478273083
 20
5.4983119503
 30
0.0
 10
6.5436700579
 20
5.5010552834
 30
0.0
 10
6.5407722645
 20
5.5026973097
 30
0.0
 10
6.5392951468
 20
5.5034719148
 30
0.0
  0
SPLINE
  5
402
100
AcDbEntity
  8
0
100
AcDbSpline
 62
7
  6
CONTINUOUS
 70
0
 71
3
 72
21
 73
17
 74
0
 42
0.0000001
 43
0.0000001
 44
0.0000000001
 40
0.0
 40
0.0
 40
0.0
 40
0.0
 40
0.1244689733
 40
0.1869048452
 40
0.249428558
 40
0.3120176847
 40
0.3746534199
 40
0.4373193476
 40
0.5000000097
 40
0.5626806682
 40
0.62534659
 40
0.6879823217
 40
0.7505714469
 40
0.8130951577
 40
0.8755310282
 40
1.0
 40
1.0
 40
1.0
 40
1.0
 10
6.5392951468
 20
5.5034719148
 30
0.0
 10
6.5360500787
 20
5.5051736387
 30
0.0
 10
6.5310334977
 20
5.5074700398
 30
0.0
 10
6.5241161157
 20
5.5099421066
 30
0.0
 10
6.5188125868
 20
5.511489825
 30
0.0
 10
6.5134188523
 20
5.5127122461
 30
0.0
 10
6.5079549154
 20
5.5135959706
 30
0.0
 10
6.5024430546
 20
5.5141305888
 30
0.0
 10
6.4969068315
 20
5.5143095527
 30
0.0
 10
6.4913706087
 20
5.5141305886
 30
0.0
 10
6.4858587483
 20
5.5135959705
 30
0.0
 10
6.4803948116
 20
5.512712246
 30
0.0
 10
6.4750010774
 20
5.5114898249
 30
0.0
 10
6.4696975487
 20
5.5099421065
 30
0.0
 10
6.4627801668
 20
5.5074700398
 30
0.0
 10
6.4577635859
 20
5.5051736387
 30
0.0
 10
6.4545185178
 20
5.5034719148
 30
0.0
  0
SPLINE
  5
403
100
AcDbEntity
  8
0
100
AcDbSpline
 62
7
  6
CONTINUOUS
 70
0
 71
3
 72
15
 73
11
 74
0
 42
0.0000001
 43
0.0000001
 44
0.0000000001
 40
0.0
 40
0.0
 40
0.0
 40
0.0
 40
0.1289012959
 40
0.257184189
 40
0.384643746
 40
0.511045456
 40
0.6361106364
 40
0.7595273599
 40
0.8809473323
 40
1.0
 40
1.0
 40
1.0
 40
1.0
 10
6.4545185178
 20
5.5034719148
 30
0.0
 10
6.4530414001
 20
5.5026973097
 30
0.0
 10
6.4501436068
 20
5.5010552834
 30
0.0
 10
6.4459863564
 20
5.4983119504
 30
0.0
 10
6.4420572466
 20
5.4953029133
 30
0.0
 10
6.4383883359
 20
5.4920435971
 30
0.0
 10
6.4350118858
 20
5.4885542321
 30
0.0
 10
6.4319607136
 20
5.4848597214
 30
0.0
 10
6.4292692365
 20
5.4809898618
 30
0.0
 10
6.4277221101
 20
5.4782840535
 30
0.0
 10
6.4270241307
 20
5.4769107884
 30
0.0
  0
SPLINE
  5
404
100
AcDbEntity
  8
0
100
AcDbSpline
 62
7
  6
CONTINUOUS
 70
0
 71
3
 72
22
 73
18
 74
0
 42
0.0000001
 43
0.0000001
 44
0.0000000001
 40
0.0
 40
0.0
 40
0.0
 40
0.0
 40
0.1534809861
 40
0.2277157735
 40
0.2999442409
 40
0.369938767
 40
0.4375132307
 40
0.5025465675
 40
0.5650078845
 40
0.6249752179
 40
0.6826409029
 40
0.7383008846
 40
0.792328742
 40
0.8451366125
 40
0.8971288598
 40
0.9486617754
 40
1.0
 40
1.0
 40
1.0
 40
1.0
 10
6.5667895339
 20
5.7649967794
 30
0.0
 10
6.5689661477
 20
5.7692792374
 30
0.0
 10
6.5720024227
 20
5.7757379151
 30
0.0
 10
6.5754158342
 20
5.7844867815
 30
0.0
 10
6.5775541454
 20
5.7909190945
 30
0.0
 10
6.5792628704
 20
5.7972636564
 30
0.0
 10
6.5805113042
 20
5.8034859875
 30
0.0
 10
6.5812753519
 20
5.8095495418
 30
0.0
 10
6.5815390559
 20
5.8154180133
 30
0.0
 10
6.581295746
 20
5.8210574904
 30
0.0
 10
6.5805487449
 20
5.8264384915
 30
0.0
 10
6.5793114953
 20
5.8315376796
 30
0.0
 10
6.5776070098
 20
5.8363392369
 30
0.0
 10
6.5754666213
 20
5.840835632
 30
0.0
 10
6.5729282784
 20
5.845028021
 30
0.0
 10
6.5700351782
 20
5.8489249824
 30
0.0
 10
6.5678988984
 20
5.8513394238
 30
0.0
 10
6.5667895339
 20
5.8525018759
 30
0.0
  0
SPLINE
  5
405
100
AcDbEntity
  8
0
100
AcDbSpline
 62
7
  6
CONTINUOUS
 70
0
 71
3
 72
9
 73
5
 74
0
 42
0.0000001
 43
0.0000001
 44
0.0000000001
 40
0.0
 40
0.0
 40
0.0
 40
0.0
 40
0.2427253626
 40
1.0
 40
1.0
 40
1.0
 40
1.0
 10
6.5667895339
 20
5.8525018759
 30
0.0
 10
6.5665334297
 20
5.8527702358
 30
0.0
 10
6.5654455981
 20
5.8538445442
 30
0.0
 10
6.5642393781
 20
5.8547957458
 30
0.0
 10
6.563286442
 20
5.8554525011
 30
0.0
  0
SPLINE
  5
406
100
AcDbEntity
  8
0
100
AcDbSpline
 62
7
  6
CONTINUOUS
 70
0
 71
3
 72
22
 73
18
 74
0
 42
0.0000001
 43
0.0000001
 44
0.0000000001
 40
0.0
 40
0.0
 40
0.0
 40
0.0
 40
0.0513382317
 40
0.1028711452
 40
0.1548633758
 40
0.207671225
 40
0.2616990583
 40
0.317359018
 40
0.3750246938
 40
0.434992038
 40
0.4974533354
 40
0.5624866743
 40
0.6300611597
 40
0.7000557151
 40
0.7722842103
 40
0.8465190206
 40
1.0
 40
1.0
 40
1.0
 40
1.0
 10
6.4270241307
 20
5.8525018759
 30
0.0
 10
6.425914766
 20
5.8513394236
 30
0.0
 10
6.4237784864
 20
5.8489249819
 30
0.0
 10
6.420885386
 20
5.845028021
 30
0.0
 10
6.4183470439
 20
5.8408356331
 30
0.0
 10
6.4162066561
 20
5.8363392399
 30
0.0
 10
6.4145021711
 20
5.8315376846
 30
0.0
 10
6.4132649213
 20
5.8264384983
 30
0.0
 10
6.4125179194
 20
5.821057498
 30
0.0
 10
6.4122746086
 20
5.8154180215
 30
0.0
 10
6.4125383119
 20
5.8095495502
 30
0.0
 10
6.4133023588
 20
5.8034859957
 30
0.0
 10
6.4145507924
 20
5.7972636629
 30
0.0
 10
6.416259518
 20
5.7909190985
 30
0.0
 10
6.4183978298
 20
5.7844867831
 30
0.0
 10
6.4218112419
 20
5.7757379154
 30
0.0
 10
6.424847517
 20
5.7692792372
 30
0.0
 10
6.4270241307
 20
5.7649967794
 30
0.0
  0
SPLINE
  5
407
100
AcDbEntity
  8
0
100
AcDbSpline
 62
7
  6
CONTINUOUS
 70
0
 71
3
 72
15
 73
11
 74
0
 42
0.0000001
 43
0.0000001
 44
0.0000000001
 40
0.0
 40
0.0
 40
0.0
 40
0.0
 40
0.1190526391
 40
0.2404725895
 40
0.3638893036
 40
0.4889544973
 40
0.6153562228
 40
0.7428157854
 40
0.8710986943
 40
1.0
 40
1.0
 40
1.0
 40
1.0
 10
6.4270241307
 20
5.7649967794
 30
0.0
 10
6.42772211
 20
5.7636235147
 30
0.0
 10
6.429269236
 20
5.7609177069
 30
0.0
 10
6.4319607125
 20
5.7570478479
 30
0.0
 10
6.4350118844
 20
5.7533533373
 30
0.0
 10
6.4383883346
 20
5.749863972
 30
0.0
 10
6.4420572456
 20
5.7466046553
 30
0.0
 10
6.4459863557
 20
5.7435956179
 30
0.0
 10
6.4501436064
 20
5.7408522846
 30
0.0
 10
6.4530414
 20
5.7392102582
 30
0.0
 10
6.4545185178
 20
5.738435653
 30
0.0
  0
SPLINE
  5
408
100
AcDbEntity
  8
0
100
AcDbSpline
 62
7
  6
CONTINUOUS
 70
0
 71
3
 72
15
 73
11
 74
0
 42
0.0000001
 43
0.0000001
 44
0.0000000001
 40
0.0
 40
0.0
 40
0.0
 40
0.0
 40
0.1289013025
 40
0.2571842081
 40
0.3846437697
 40
0.5110454904
 40
0.6361106768
 40
0.7595273905
 40
0.8809473475
 40
1.0
 40
1.0
 40
1.0
 40
1.0
 10
6.5392951468
 20
5.738435653
 30
0.0
 10
6.5407722645
 20
5.7392102582
 30
0.0
 10
6.5436700581
 20
5.7408522846
 30
0.0
 10
6.5478273088
 20
5.7435956178
 30
0.0
 10
6.5517564188
 20
5.7466046551
 30
0.0
 10
6.5554253296
 20
5.7498639716
 30
0.0
 10
6.5588017797
 20
5.7533533368
 30
0.0
 10
6.5618529517
 20
5.7570478473
 30
0.0
 10
6.5645444284
 20
5.7609177066
 30
0.0
 10
6.5660915545
 20
5.7636235145
 30
0.0
 10
6.5667895339
 20
5.7649967794
 30
0.0
  0
LINE
  5
409
100
AcDbEntity
  8
0
100
AcDbLine
 62
7
  6
CONTINUOUS
 10
3.0184287031
 20
5.4968242931
 11
3.0185448253
 21
5.4959308415
  0
LINE
  5
40A
100
AcDbEntity
  8
0
100
AcDbLine
 62
7
  6
CONTINUOUS
 10
3.0185448253
 20
5.4959308415
 11
3.0185750263
 21
5.4956964246
  0
SPLINE
  5
40B
100
AcDbEntity
  8
0
100
AcDbSpline
 62
7
  6
CONTINUOUS
 70
0
 71
3
 72
39
 73
35
 74
0
 42
0.0000001
 43
0.0000001
 44
0.0000000001
 40
0.0
 40
0.0
 40
0.0
 40
0.0
 40
0.0311673866
 40
0.0623097177
 40
0.0934296859
 40
0.1245303725
 40
0.1556151957
 40
0.1866878513
 40
0.2177522481
 40
0.2488124404
 40
0.2798725557
 40
0.3109367233
 40
0.342009001
 40
0.3730933044
 40
0.4041933383
 40
0.4353125319
 40
0.4664539804
 40
0.4976203918
 40
0.5288140407
 40
0.5600367301
 40
0.5912897607
 40
0.6225739106
 40
0.6538894226
 40
0.6852360021
 40
0.7166128231
 40
0.7480185441
 40
0.7794513337
 40
0.8109088987
 40
0.8423885432
 40
0.8738871428
 40
0.9054014361
 40
0.9369273771
 40
0.9684619756
 40
1.0
 40
1.0
 40
1.0
 40
1.0
 10
5.053910157
 20
3.143981345
 30
0.0
 10
5.0561420678
 20
3.1401885043
 30
0.0
 10
5.0603553024
 20
3.1324562429
 30
0.0
 10
5.0658920433
 20
3.1204720951
 30
0.0
 10
5.0706206759
 20
3.1081561348
 30
0.0
 10
5.0745205037
 20
3.095561836
 30
0.0
 10
5.0775748908
 20
3.0827430566
 30
0.0
 10
5.0797706963
 20
3.0697548382
 30
0.0
 10
5.0810985008
 20
3.0566528924
 30
0.0
 10
5.0815526016
 20
3.0434934361
 30
0.0
 10
5.0811310495
 20
3.030332929
 30
0.0
 10
5.0798356541
 20
3.0172278366
 30
0.0
 10
5.0776719768
 20
3.004234386
 30
0.0
 10
5.0746493065
 20
2.991408324
 30
0.0
 10
5.070780619
 20
2.9788046776
 30
0.0
 10
5.0660825235
 20
2.9664775168
 30
0.0
 10
5.0605751931
 20
2.95447972
 30
0.0
 10
5.0542822716
 20
2.9428627486
 30
0.0
 10
5.0472307718
 20
2.9316764263
 30
0.0
 10
5.0394509591
 20
2.920968725
 30
0.0
 10
5.0309762206
 20
2.9107855601
 30
0.0
 10
5.0218429213
 20
2.9011705939
 30
0.0
 10
5.0120902477
 20
2.8921650489
 30
0.0
 10
5.0017600392
 20
2.8838075315
 30
0.0
 10
4.9908966082
 20
2.8761338688
 30
0.0
 10
4.9795465525
 20
2.8691769491
 30
0.0
 10
4.9677585539
 20
2.8629665866
 30
0.0
 10
4.9555831655
 20
2.8575293888
 30
0.0
 10
4.9430726035
 20
2.8528886642
 30
0.0
 10
4.9302804902
 20
2.8490642684
 30
0.0
 10
4.9172617537
 20
2.8460726471
 30
0.0
 10
4.9040719466
 20
2.8439265106
 30
0.0
 10
4.8907684309
 20
2.8426352013
 30
0.0
 10
4.8818599689
 20
2.8423478146
 30
0.0
 10
4.8774068323
 20
2.8423478146
 30
0.0
  0
LINE
  5
40C
100
AcDbEntity
  8
0
100
AcDbLine
 62
7
  6
CONTINUOUS
 10
3.0099446749
 20
5.5717111432
 11
3.009990677
 21
5.5712425065
  0
LINE
  5
40D
100
AcDbEntity
  8
0
100
AcDbLine
 62
7
  6
CONTINUOUS
 10
3.009990677
 20
5.5712425065
 11
3.010038955
 21
5.570745825
  0
SPLINE
  5
40E
100
AcDbEntity
  8
0
100
AcDbSpline
 62
7
  6
CONTINUOUS
 70
0
 71
3
 72
39
 73
35
 74
0
 42
0.0000001
 43
0.0000001
 44
0.0000000001
 40
0.0
 40
0.0
 40
0.0
 40
0.0
 40
0.0315380244
 40
0.0630726229
 40
0.0945985639
 40
0.1261128572
 40
0.1576114568
 40
0.1890911013
 40
0.2205486663
 40
0.2519814559
 40
0.2833871769
 40
0.3147639979
 40
0.3461105774
 40
0.3774260894
 40
0.4087102393
 40
0.4399632699
 40
0.4711859593
 40
0.5023796082
 40
0.5335460196
 40
0.5646874681
 40
0.5958066617
 40
0.6269066956
 40
0.657990999
 40
0.6890632767
 40
0.7201274443
 40
0.7511875596
 40
0.7822477519
 40
0.8133121487
 40
0.8443848043
 40
0.8754696275
 40
0.9065703141
 40
0.9376902823
 40
0.9688326134
 40
1.0
 40
1.0
 40
1.0
 40
1.0
 10
4.8774068323
 20
2.8423478146
 30
0.0
 10
4.8729536957
 20
2.8423478146
 30
0.0
 10
4.8640452337
 20
2.8426352013
 30
0.0
 10
4.850741718
 20
2.8439265106
 30
0.0
 10
4.8375519109
 20
2.8460726471
 30
0.0
 10
4.8245331744
 20
2.8490642684
 30
0.0
 10
4.8117410611
 20
2.8528886642
 30
0.0
 10
4.7992304991
 20
2.8575293888
 30
0.0
 10
4.7870551107
 20
2.8629665866
 30
0.0
 10
4.7752671121
 20
2.8691769491
 30
0.0
 10
4.7639170564
 20
2.8761338688
 30
0.0
 10
4.7530536253
 20
2.8838075315
 30
0.0
 10
4.7427234169
 20
2.8921650489
 30
0.0
 10
4.7329707432
 20
2.9011705939
 30
0.0
 10
4.723837444
 20
2.9107855601
 30
0.0
 10
4.7153627055
 20
2.920968725
 30
0.0
 10
4.7075828928
 20
2.9316764263
 30
0.0
 10
4.700531393
 20
2.9428627486
 30
0.0
 10
4.6942384715
 20
2.95447972
 30
0.0
 10
4.6887311411
 20
2.9664775168
 30
0.0
 10
4.6840330456
 20
2.9788046776
 30
0.0
 10
4.6801643581
 20
2.991408324
 30
0.0
 10
4.6771416878
 20
3.004234386
 30
0.0
 10
4.6749780105
 20
3.0172278366
 30
0.0
 10
4.6736826151
 20
3.030332929
 30
0.0
 10
4.673261063
 20
3.0434934361
 30
0.0
 10
4.6737151638
 20
3.0566528924
 30
0.0
 10
4.6750429683
 20
3.0697548382
 30
0.0
 10
4.6772387738
 20
3.0827430566
 30
0.0
 10
4.6802931609
 20
3.095561836
 30
0.0
 10
4.6841929887
 20
3.1081561348
 30
0.0
 10
4.6889216213
 20
3.1204720951
 30
0.0
 10
4.6944583622
 20
3.1324562429
 30
0.0
 10
4.6986715968
 20
3.1401885043
 30
0.0
 10
4.7009035076
 20
3.143981345
 30
0.0
  0
SPLINE
  5
40F
100
AcDbEntity
  8
0
100
AcDbSpline
 62
7
  6
CONTINUOUS
 70
0
 71
3
 72
15
 73
11
 74
0
 42
0.0000001
 43
0.0000001
 44
0.0000000001
 40
0.0
 40
0.0
 40
0.0
 40
0.0
 40
0.13208501
 40
0.2634321583
 40
0.3933322672
 40
0.5211103913
 40
0.6461577425
 40
0.7075042414
 40
0.7679804662
 40
1.0
 40
1.0
 40
1.0
 40
1.0
 10
6.4969068323
 20
5.7427487105
 30
0.0
 10
6.4936200604
 20
5.7427487105
 30
0.0
 10
6.4870622054
 20
5.7429934186
 30
0.0
 10
6.4773275167
 20
5.7440916537
 30
0.0
 10
6.467809159
 20
5.7459085861
 30
0.0
 10
6.4586135312
 20
5.7484242901
 30
0.0
 10
6.4512566188
 20
5.7510973093
 30
0.0
 10
6.445628156
 20
5.7535643153
 30
0.0
 10
6.4377279077
 20
5.7574496875
 30
0.0
 10
6.4315355424
 20
5.7613939077
 30
0.0
 10
6.4270241307
 20
5.7649967794
 30
0.0
  0
SPLINE
  5
410
100
AcDbEntity
  8
0
100
AcDbSpline
 62
7
  6
CONTINUOUS
 70
0
 71
3
 72
15
 73
11
 74
0
 42
0.0000001
 43
0.0000001
 44
0.0000000001
 40
0.0
 40
0.0
 40
0.0
 40
0.0
 40
0.2320195328
 40
0.2924957575
 40
0.3538422566
 40
0.478889608
 40
0.6066677323
 40
0.7365678413
 40
0.8679149897
 40
1.0
 40
1.0
 40
1.0
 40
1.0
 10
6.5667895339
 20
5.7649967794
 30
0.0
 10
6.5622781222
 20
5.7613939077
 30
0.0
 10
6.556085757
 20
5.7574496875
 30
0.0
 10
6.5481855086
 20
5.7535643153
 30
0.0
 10
6.5425570459
 20
5.7510973094
 30
0.0
 10
6.5352001334
 20
5.7484242901
 30
0.0
 10
6.5260045057
 20
5.7459085861
 30
0.0
 10
6.5164861479
 20
5.7440916537
 30
0.0
 10
6.5067514593
 20
5.7429934186
 30
0.0
 10
6.5001936042
 20
5.7427487105
 30
0.0
 10
6.4969068323
 20
5.7427487105
 30
0.0
  0
SPLINE
  5
411
100
AcDbEntity
  8
0
100
AcDbSpline
 62
7
  6
CONTINUOUS
 70
0
 71
3
 72
15
 73
11
 74
0
 42
0.0000001
 43
0.0000001
 44
0.0000000001
 40
0.0
 40
0.0
 40
0.0
 40
0.0
 40
0.1223267818
 40
0.2469184351
 40
0.3730647227
 40
0.5
 40
0.6269352773
 40
0.7530815649
 40
0.8776732182
 40
1.0
 40
1.0
 40
1.0
 40
1.0
 10
6.5392951468
 20
5.738435653
 30
0.0
 10
6.5359657369
 20
5.7373062475
 30
0.0
 10
6.5291416689
 20
5.7353215582
 30
0.0
 10
6.5186213641
 20
5.7331930056
 30
0.0
 10
6.5078316079
 20
5.7319051421
 30
0.0
 10
6.4969068323
 20
5.731474155
 30
0.0
 10
6.4859820567
 20
5.7319051421
 30
0.0
 10
6.4751923005
 20
5.7331930056
 30
0.0
 10
6.4646719957
 20
5.7353215582
 30
0.0
 10
6.4578479277
 20
5.7373062475
 30
0.0
 10
6.4545185178
 20
5.738435653
 30
0.0
  0
SPLINE
  5
412
100
AcDbEntity
  8
0
100
AcDbSpline
 62
7
  6
CONTINUOUS
 70
0
 71
3
 72
21
 73
17
 74
0
 42
0.0000001
 43
0.0000001
 44
0.0000000001
 40
0.0
 40
0.0
 40
0.0
 40
0.0
 40
0.1244691987
 40
0.1869051071
 40
0.2494288184
 40
0.3120178972
 40
0.3746535138
 40
0.4373193433
 40
0.5
 40
0.5626806567
 40
0.6253464862
 40
0.6879821028
 40
0.7505711816
 40
0.8130948929
 40
0.8755308013
 40
1.0
 40
1.0
 40
1.0
 40
1.0
 10
3.3002951468
 20
5.738435653
 30
0.0
 10
3.2970500728
 20
5.736733926
 30
0.0
 10
3.2920334843
 20
5.7344375227
 30
0.0
 10
3.2851160949
 20
5.7319654536
 30
0.0
 10
3.2798125657
 20
5.7304177379
 30
0.0
 10
3.2744188358
 20
5.7291953192
 30
0.0
 10
3.2689549067
 20
5.728311595
 30
0.0
 10
3.2634430522
 20
5.7277769795
 30
0.0
 10
3.2579068323
 20
5.7275980149
 30
0.0
 10
3.2523706124
 20
5.7277769795
 30
0.0
 10
3.2468587579
 20
5.728311595
 30
0.0
 10
3.2413948288
 20
5.7291953192
 30
0.0
 10
3.2360010989
 20
5.7304177379
 30
0.0
 10
3.2306975697
 20
5.7319654536
 30
0.0
 10
3.2237801803
 20
5.7344375227
 30
0.0
 10
3.2187635918
 20
5.736733926
 30
0.0
 10
3.2155185178
 20
5.738435653
 30
0.0
  0
SPLINE
  5
413
100
AcDbEntity
  8
0
100
AcDbSpline
 62
7
  6
CONTINUOUS
 70
0
 71
3
 72
9
 73
5
 74
0
 42
0.0000001
 43
0.0000001
 44
0.0000000001
 40
0.0
 40
0.0
 40
0.0
 40
0.0
 40
0.2536552471
 40
1.0
 40
1.0
 40
1.0
 40
1.0
 10
3.3156680195
 20
5.860594324
 30
0.0
 10
3.3164085108
 20
5.8601818341
 30
0.0
 10
3.3193060703
 20
5.8585170722
 30
0.0
 10
3.3221145644
 20
5.8566963966
 30
0.0
 10
3.3241459878
 20
5.8552495031
 30
0.0
  0
SPLINE
  5
414
100
AcDbEntity
  8
0
100
AcDbSpline
 62
7
  6
CONTINUOUS
 70
0
 71
3
 72
9
 73
5
 74
0
 42
0.0000001
 43
0.0000001
 44
0.0000000001
 40
0.0
 40
0.0
 40
0.0
 40
0.0
 40
0.2464070838
 40
1.0
 40
1.0
 40
1.0
 40
1.0
 10
3.191667702
 20
5.8552495211
 30
0.0
 10
3.1923384124
 20
5.8557272383
 30
0.0
 10
3.1950882902
 20
5.8576265692
 30
0.0
 10
3.1979459808
 20
5.8593690168
 30
0.0
 10
3.2001460423
 20
5.8605945453
 30
0.0
  0
LINE
  5
415
100
AcDbEntity
  8
0
100
AcDbLine
 62
7
  6
CONTINUOUS
 10
6.7405264317
 20
5.7209537839
 11
6.7407495016
 21
5.7170338867
  0
SPLINE
  5
416
100
AcDbEntity
  8
0
100
AcDbSpline
 62
7
  6
CONTINUOUS
 70
0
 71
3
 72
9
 73
5
 74
0
 42
0.0000001
 43
0.0000001
 44
0.0000000001
 40
0.0
 40
0.0
 40
0.0
 40
0.0
 40
0.2578931728
 40
1.0
 40
1.0
 40
1.0
 40
1.0
 10
6.5632864165
 20
5.3864550491
 30
0.0
 10
6.5636109203
 20
5.3866786938
 30
0.0
 10
6.5648497226
 20
5.387573328
 30
0.0
 10
6.5660065781
 20
5.3885852684
 30
0.0
 10
6.5667895339
 20
5.3894056919
 30
0.0
  0
SPLINE
  5
417
100
AcDbEntity
  8
0
100
AcDbSpline
 62
7
  6
CONTINUOUS
 70
0
 71
3
 72
21
 73
17
 74
0
 42
0.0000001
 43
0.0000001
 44
0.0000000001
 40
0.0
 40
0.0
 40
0.0
 40
0.0
 40
0.1169632592
 40
0.1780522763
 40
0.2405925541
 40
0.3043429632
 40
0.3690293934
 40
0.4343532879
 40
0.4999999334
 40
0.5656465813
 40
0.630970483
 40
0.6956569248
 40
0.7594073499
 40
0.8219476475
 40
0.8830366876
 40
1.0
 40
1.0
 40
1.0
 40
1.0
 10
6.4370125154
 20
5.3292050678
 30
0.0
 10
6.4410252096
 20
5.3320980742
 30
0.0
 10
6.4475746936
 20
5.3359180934
 30
0.0
 10
6.4569315006
 20
5.3399319516
 30
0.0
 10
6.4644471949
 20
5.3424743055
 30
0.0
 10
6.4722795083
 20
5.3444771461
 30
0.0
 10
6.4803533899
 20
5.3459219458
 30
0.0
 10
6.4885893277
 20
5.346794445
 30
0.0
 10
6.4969067707
 20
5.3470862339
 30
0.0
 10
6.5052242143
 20
5.3467944536
 30
0.0
 10
6.513460154
 20
5.3459219629
 30
0.0
 10
6.5215340385
 20
5.3444771716
 30
0.0
 10
6.5293663561
 20
5.3424743392
 30
0.0
 10
6.5368820556
 20
5.3399319931
 30
0.0
 10
6.5462388711
 20
5.3359181444
 30
0.0
 10
6.5527883628
 20
5.3320981322
 30
0.0
 10
6.5568010628
 20
5.32920513
 30
0.0
  0
LINE
  5
418
100
AcDbEntity
  8
0
100
AcDbLine
 62
7
  6
CONTINUOUS
 10
6.7454249937
 20
5.6654537839
 11
6.7454687783
 21
5.6648346401
  0
SPLINE
  5
419
100
AcDbEntity
  8
0
100
AcDbSpline
 62
7
  6
CONTINUOUS
 70
0
 71
3
 72
28
 73
24
 74
0
 42
0.0000001
 43
0.0000001
 44
0.0000000001
 40
0.0
 40
0.0
 40
0.0
 40
0.0
 40
0.2096845729
 40
0.3086532997
 40
0.4029259405
 40
0.491934938
 40
0.5751429183
 40
0.6520517683
 40
0.7222018132
 40
0.7851696682
 40
0.840578857
 40
0.8880986152
 40
0.9274457234
 40
0.9439802278
 40
0.9583903838
 40
0.9706567087
 40
0.9807648585
 40
0.9887096459
 40
0.9918723488
 40
0.9944988227
 40
0.9965966309
 40
0.9981816897
 40
1.0
 40
1.0
 40
1.0
 40
1.0
 10
6.7454687783
 20
5.6648346401
 30
0.0
 10
6.7455194327
 20
5.6641241465
 30
0.0
 10
6.7455960609
 20
5.6630784528
 30
0.0
 10
6.7457009724
 20
5.6617137418
 30
0.0
 10
6.7457769221
 20
5.6607579509
 30
0.0
 10
6.745851204
 20
5.659855739
 30
0.0
 10
6.745923369
 20
5.6590125411
 30
0.0
 10
6.745992978
 20
5.6582334275
 30
0.0
 10
6.7460596006
 20
5.6575230826
 30
0.0
 10
6.7461228264
 20
5.6568857825
 30
0.0
 10
6.7461822411
 20
5.6563253668
 30
0.0
 10
6.7462374693
 20
5.6558452156
 30
0.0
 10
6.7462818419
 20
5.6554967587
 30
0.0
 10
6.7463155305
 20
5.6552603623
 30
0.0
 10
6.7463380501
 20
5.6551153067
 30
0.0
 10
6.7463592447
 20
5.6549921555
 30
0.0
 10
6.7463790969
 20
5.6548910703
 30
0.0
 10
6.7463953717
 20
5.6548208631
 30
0.0
 10
6.7464081411
 20
5.6547759249
 30
0.0
 10
6.7464165215
 20
5.6547505862
 30
0.0
 10
6.7464247403
 20
5.6547304284
 30
0.0
 10
6.7464330425
 20
5.6547146425
 30
0.0
 10
6.7464420456
 20
5.6547037839
 30
0.0
 10
6.7464482224
 20
5.6547037839
 30
0.0
  0
SPLINE
  5
41A
100
AcDbEntity
  8
0
100
AcDbSpline
 62
7
  6
CONTINUOUS
 70
0
 71
3
 72
28
 73
24
 74
0
 42
0.0000001
 43
0.0000001
 44
0.0000000001
 40
0.0
 40
0.0
 40
0.0
 40
0.0
 40
0.0017660227
 40
0.0033130905
 40
0.0053707031
 40
0.0079558852
 40
0.0110766748
 40
0.0189388044
 40
0.028966779
 40
0.0411538145
 40
0.0554885892
 40
0.0719534449
 40
0.1111734603
 40
0.1585928273
 40
0.2139298952
 40
0.2768578298
 40
0.3470018523
 40
0.4239403446
 40
0.5072151578
 40
0.596326889
 40
0.6907395525
 40
0.7898812614
 40
1.0
 40
1.0
 40
1.0
 40
1.0
 10
6.7470233105
 20
5.6367037839
 30
0.0
 10
6.7470173311
 20
5.6367037839
 30
0.0
 10
6.7470087461
 20
5.6366928941
 30
0.0
 10
6.7470015776
 20
5.6366771303
 30
0.0
 10
6.7469946227
 20
5.6366569977
 30
0.0
 10
6.7469878882
 20
5.6366316974
 30
0.0
 10
6.7469779872
 20
5.6365867729
 30
0.0
 10
6.7469662193
 20
5.6365166145
 30
0.0
 10
6.7469528479
 20
5.6364156399
 30
0.0
 10
6.7469395427
 20
5.6362926033
 30
0.0
 10
6.7469263117
 20
5.6361476573
 30
0.0
 10
6.7469077505
 20
5.6359113107
 30
0.0
 10
6.7468856689
 20
5.6355629059
 30
0.0
 10
6.7468611623
 20
5.6350828257
 30
0.0
 10
6.7468375975
 20
5.6345223464
 30
0.0
 10
6.746815139
 20
5.6338848297
 30
0.0
 10
6.7467939568
 20
5.6331740964
 30
0.0
 10
6.7467741896
 20
5.6323944092
 30
0.0
 10
6.7467559708
 20
5.6315504483
 30
0.0
 10
6.746739415
 20
5.6306472794
 30
0.0
 10
6.7467246275
 20
5.6296903515
 30
0.0
 10
6.7467070529
 20
5.6283237214
 30
0.0
 10
6.7466973625
 20
5.6272766786
 30
0.0
 10
6.7466921939
 20
5.6265652848
 30
0.0
  0
LINE
  5
41B
100
AcDbEntity
  8
0
100
AcDbLine
 62
7
  6
CONTINUOUS
 10
6.7466921939
 20
5.6265652848
 11
6.7466881
 21
5.6259537839
  0
LINE
  5
41C
100
AcDbEntity
  8
0
100
AcDbLine
 62
7
  6
CONTINUOUS
 10
6.7396450974
 20
5.5143713545
 11
6.7393227865
 21
5.5124914898
  0
LINE
  5
41D
100
AcDbEntity
  8
0
100
AcDbLine
 62
7
  6
CONTINUOUS
 10
6.7393227865
 20
5.5124914898
 11
6.7389715569
 21
5.5104281896
  0
LINE
  5
41E
100
AcDbEntity
  8
0
100
AcDbLine
 62
7
  6
CONTINUOUS
 10
6.7389715569
 20
5.5104281896
 11
6.7387200445
 21
5.5089429039
  0
LINE
  5
41F
100
AcDbEntity
  8
0
100
AcDbLine
 62
7
  6
CONTINUOUS
 10
6.7340496843
 20
5.4805829833
 11
6.7337695129
 21
5.4788302138
  0
LINE
  5
420
100
AcDbEntity
  8
0
100
AcDbLine
 62
7
  6
CONTINUOUS
 10
6.7337695129
 20
5.4788302138
 11
6.7323902535
 21
5.4699382927
  0
LINE
  5
421
100
AcDbEntity
  8
0
100
AcDbLine
 62
7
  6
CONTINUOUS
 10
6.7371732864
 20
5.7420947241
 11
6.737765688
 21
5.7390947241
  0
LINE
  5
422
100
AcDbEntity
  8
0
100
AcDbLine
 62
7
  6
CONTINUOUS
 10
6.7309892236
 20
5.7787937869
 11
6.7343534979
 21
5.7587665543
  0
LINE
  5
423
100
AcDbEntity
  8
0
100
AcDbLine
 62
7
  6
CONTINUOUS
 10
6.7343534979
 20
5.7587665543
 11
6.7345138476
 21
5.7578557205
  0
LINE
  5
424
100
AcDbEntity
  8
0
100
AcDbLine
 62
7
  6
CONTINUOUS
 10
6.7345138476
 20
5.7578557205
 11
6.7348370719
 21
5.756026178
  0
LINE
  5
425
100
AcDbEntity
  8
0
100
AcDbLine
 62
7
  6
CONTINUOUS
 10
6.7309892236
 20
5.7787937869
 11
6.7306474351
 21
5.7812842372
  0
LINE
  5
426
100
AcDbEntity
  8
0
100
AcDbLine
 62
7
  6
CONTINUOUS
 10
3.0177322035
 20
5.7452037839
 11
3.0193377056
 21
5.7524612473
  0
LINE
  5
427
100
AcDbEntity
  8
0
100
AcDbLine
 62
7
  6
CONTINUOUS
 10
3.0141871911
 20
5.7179442167
 11
3.0146884153
 21
5.7247037839
  0
SPLINE
  5
428
100
AcDbEntity
  8
0
100
AcDbSpline
 62
7
  6
CONTINUOUS
 70
0
 71
3
 72
23
 73
19
 74
0
 42
0.0000001
 43
0.0000001
 44
0.0000000001
 40
0.0
 40
0.0
 40
0.0
 40
0.0
 40
0.1169601295
 40
0.1473153343
 40
0.1780601773
 40
0.2405988878
 40
0.3043477293
 40
0.3690325895
 40
0.4343549166
 40
0.5
 40
0.5656450834
 40
0.6309674105
 40
0.6956522707
 40
0.7594011122
 40
0.8219398227
 40
0.8526846657
 40
0.8830398705
 40
1.0
 40
1.0
 40
1.0
 40
1.0
 10
6.4164934197
 20
5.3144113351
 30
0.0
 10
6.4218808051
 20
5.318295479
 30
0.0
 10
6.4291594035
 20
5.3225407257
 30
0.0
 10
6.4383641659
 20
5.3267230009
 30
0.0
 10
6.4448707464
 20
5.329366429
 30
0.0
 10
6.4533267037
 20
5.3322266202
 30
0.0
 10
6.4638424772
 20
5.3349157991
 30
0.0
 10
6.4746823618
 20
5.3368555644
 30
0.0
 10
6.4857398886
 20
5.3380270083
 30
0.0
 10
6.4969068323
 20
5.3384187658
 30
0.0
 10
6.508073776
 20
5.3380270083
 30
0.0
 10
6.5191313028
 20
5.3368555644
 30
0.0
 10
6.5299711874
 20
5.3349157991
 30
0.0
 10
6.5404869609
 20
5.3322266202
 30
0.0
 10
6.5489429182
 20
5.329366429
 30
0.0
 10
6.5554494987
 20
5.3267230009
 30
0.0
 10
6.5646542611
 20
5.3225407257
 30
0.0
 10
6.5719328595
 20
5.318295479
 30
0.0
 10
6.5773202449
 20
5.3144113351
 30
0.0
  0
LINE
  5
429
100
AcDbEntity
  8
0
100
AcDbLine
 62
7
  6
CONTINUOUS
 10
3.0118267646
 20
5.7007037839
 11
3.0129274186
 21
5.7073912878
  0
SPLINE
  5
42A
100
AcDbEntity
  8
0
100
AcDbSpline
 62
7
  6
CONTINUOUS
 70
0
 71
3
 72
25
 73
21
 74
0
 42
0.0000001
 43
0.0000001
 44
0.0000000001
 40
0.0
 40
0.0
 40
0.0
 40
0.0
 40
0.2132443634
 40
0.4080733365
 40
0.4972976152
 40
0.5804194061
 40
0.6570005231
 40
0.7266397149
 40
0.7889677105
 40
0.8436613861
 40
0.8904331398
 40
0.9290495441
 40
0.9593180325
 40
0.9712828375
 40
0.9811224052
 40
0.9888364421
 40
0.994448537
 40
0.9964898395
 40
0.9980501856
 40
1.0
 40
1.0
 40
1.0
 40
1.0
 10
3.0098426778
 20
5.6729953287
 30
0.0
 10
3.0098677888
 20
5.6735081922
 30
0.0
 10
3.0099135896
 20
5.6744897413
 30
0.0
 10
3.0099628459
 20
5.6756861947
 30
0.0
 10
3.0099945724
 20
5.6765697595
 30
0.0
 10
3.0100137293
 20
5.6771688546
 30
0.0
 10
3.0100288652
 20
5.6777208895
 30
0.0
 10
3.0100399082
 20
5.6782229409
 30
0.0
 10
3.0100468133
 20
5.6786723588
 30
0.0
 10
3.0100495623
 20
5.6790667576
 30
0.0
 10
3.0100481981
 20
5.6794040738
 30
0.0
 10
3.0100427382
 20
5.6796825229
 30
0.0
 10
3.0100345505
 20
5.6798770691
 30
0.0
 10
3.0100251773
 20
5.680002122
 30
0.0
 10
3.0100178087
 20
5.6800728234
 30
0.0
 10
3.010009419
 20
5.6801280261
 30
0.0
 10
3.0100014418
 20
5.6801641412
 30
0.0
 10
3.0099936642
 20
5.6801851605
 30
0.0
 10
3.0099878614
 20
5.6801967752
 30
0.0
 10
3.0099805823
 20
5.6802037839
 30
0.0
 10
3.0099758873
 20
5.6802037839
 30
0.0
  0
LINE
  5
42B
100
AcDbEntity
  8
0
100
AcDbLine
 62
7
  6
CONTINUOUS
 10
3.0120110668
 20
5.5427037839
 11
3.0119231036
 21
5.5442037839
  0
LINE
  5
42C
100
AcDbEntity
  8
0
100
AcDbLine
 62
7
  6
CONTINUOUS
 10
3.0095375343
 20
5.5707462591
 11
3.0094747962
 21
5.5713911605
  0
LINE
  5
42D
100
AcDbEntity
  8
0
100
AcDbLine
 62
7
  6
CONTINUOUS
 10
3.0094747962
 20
5.5713911605
 11
3.0094433573
 21
5.5717111432
  0
LINE
  5
42E
100
AcDbEntity
  8
0
100
AcDbLine
 62
7
  6
CONTINUOUS
 10
3.0143037928
 20
5.5232037839
 11
3.0140514396
 21
5.5247037839
  0
LINE
  5
42F
100
AcDbEntity
  8
0
100
AcDbLine
 62
7
  6
CONTINUOUS
 10
3.0180680507
 20
5.4956964246
 11
3.0160552184
 21
5.5103024166
  0
ENDSEC
  0
SECTION
  2
OBJECTS
  0
DICTIONARY
  5
C
100
AcDbDictionary
280
0
281
1
  3
ACAD_GROUP
350
D
  3
ACAD_MLINESTYLE
350
17
  3
ACAD_LAYOUT
350
1A
  3
ACAD_PLOTSETTINGS
350
19
  3
ACAD_PLOTSTYLENAME
350
E
  0
DICTIONARY
  5
D
102
{ACAD_REACTORS
330
C
102
}
100
AcDbDictionary
280
0
281
1
  0
ACDBDICTIONARYWDFLT
  5
E
102
{ACAD_REACTORS
330
C
102
}
100
AcDbDictionary
281
1
  3
Normal
350
F
100
AcDbDictionaryWithDefault
340
F
  0
DICTIONARY
  5
17
102
{ACAD_REACTORS
330
C
102
}
100
AcDbDictionary
280
0
281
1
  3
Standard
350
18
  0
DICTIONARY
  5
19
102
{ACAD_REACTORS
330
C
102
}
100
AcDbDictionary
281
1
  0
DICTIONARY
  5
1A
102
{ACAD_REACTORS
330
C
102
}
100
AcDbDictionary
281
1
  3
Model
350
430
  3
Layout1
350
431
  0
ACDBPLACEHOLDER
  5
F
102
{ACAD_REACTORS
330
E
102
}
  0
MLINESTYLE
  5
18
102
{ACAD_REACTORS
330
17
102
}
100
AcDbMlineStyle
  2
STANDARD
 70
0
  3

 62
256
 51
90.0
 52
90.0
 71
2
 49
0.5
 62
256
  6
BYLAYER
 49
-0.5
 62
256
  6
BYLAYER
  0
LAYOUT
  5
430
102
{ACAD_REACTORS
330
1A
102
}
100
AcDbPlotSettings
  1

  2
none_device
  4
ANSI_A_(11.00_x_8.50_Inches)
  6

 40
0.0
 41
0.0
 42
0.0
 43
0.0
 44
279.4
 45
215.9
 46
0.0
 47
0.0
 48
0.0
 49
0.0
140
0.0
141
0.0
142
1.0
143
1.0
 70
1024
 72
0
 73
0
 74
0
  7

 75
0
147
1.0
148
0.0
149
0.0
100
AcDbLayout
  1
Model
 70
0
 71
0
 10
0.0
 20
0.0
 11
11.0
 21
8.5
 12
0.0
 22
0.0
 32
0.0
 14
0.0
 24
0.0
 34
0.0
 15
0.0
 25
0.0
 35
0.0
146
0.0
 13
0.0
 23
0.0
 33
0.0
 16
1.0
 26
0.0
 36
0.0
 17
0.0
 27
1.0
 37
0.0
 76
0
330
202
345
0
346
0
  0
LAYOUT
  5
431
102
{ACAD_REACTORS
330
1A
102
}
100
AcDbPlotSettings
  1

  2
none_device
  4
ANSI_A_(11.00_x_8.50_Inches)
  6

 40
0.0
 41
0.0
 42
0.0
 43
0.0
 44
279.4
 45
215.9
 46
0.0
 47
0.0
 48
0.0
 49
0.0
140
0.0
141
0.0
142
1.0
143
1.0
 70
0
 72
0
 73
0
 74
0
  7

 75
0
147
1.0
148
0.0
149
0.0
100
AcDbLayout
  1
Layout1
 70
0
 71
1
 10
0.0
 20
0.0
 11
11.0
 21
8.5
 12
0.0
 22
0.0
 32
0.0
 14
0.0
 24
0.0
 34
0.0
 15
0.0
 25
0.0
 35
0.0
146
0.0
 13
0.0
 23
0.0
 33
0.0
 16
1.0
 26
0.0
 36
0.0
 17
0.0
 27
1.0
 37
0.0
 76
0
330
203
345
0
346
0
  0
ENDSEC
  0
EOF
