999
DXF file: E:\BT Custom\CADOUTPUT\_RIGHT.dxf
999
Pro/ENGINEER 2018400 by Parametric Technology Corporation
  0
SECTION
  2
HEADER
  9
$ACADVER
  1
AC1018
  9
$DWGCODEPAGE
  3
ANSI_1252
  9
$EXTMAX
 10
22.0
 20
17.0
 30
0.0
  9
$EXTMIN
 10
0.0
 20
0.0
 30
0.0
  9
$LIMMIN
 10
0.0
 20
0.0
  9
$LIMMAX
 10
22.0
 20
17.0
  9
$VIEWCTR
 10
11.0
 20
8.5
  9
$VIEWSIZE
 40
17.0
  9
$CLAYER
  8
0
  9
$LTSCALE
 40
1.21
  9
$CELTYPE
  6
BYLAYER
  9
$DIMSCALE
 40
1.0
  9
$DIMASZ
 40
0.1
  9
$DIMEXO
 40
0.0625
  9
$DIMDLI
 40
0.836
  9
$DIMEXE
 40
0.125
  9
$DIMCEN
 40
0.198
  9
$DIMLFAC
 40
1.0
  9
$DIMBLK
  1
_FILLED
  9
$DIMALT
 70
1
  9
$DIMALTD
 70
2
  9
$DIMALTTD
 70
2
  9
$DIMALTF
 40
25.4
  9
$DIMTXT
 40
0.08
  9
$DIMTOL
 70
1
  9
$DIMLIM
 70
0
  9
$DIMTFAC
 40
1.0
  9
$DIMTP
 40
0.001
  9
$DIMTM
 40
0.001
  9
$DIMGAP
 40
0.09
  9
$DIMDSEP
 70
46
  9
$AUNITS
 70
0
  9
$PDMODE
 70
3
  9
$PDSIZE
 40
0.06
  9
$HANDSEED
  5
5E1
  9
$TILEMODE
 70
1
  9
$MEASUREMENT
 70
0
  9
$INSUNITS
 70
1
  0
ENDSEC
  0
SECTION
  2
CLASSES
  0
CLASS
  1
ACDBDICTIONARYWDFLT
  2
AcDbDictionaryWithDefault
  3
AutoCAD 2000
 90
0
 91
1
280
0
281
0
  0
CLASS
  1
ACDBPLACEHOLDER
  2
AcDbPlaceHolder
  3
AutoCAD 2000
 90
0
 91
1
280
0
281
0
  0
CLASS
  1
LAYOUT
  2
AcDbLayout
  3
AutoCAD 2000
 90
0
 91
0
280
0
281
0
  0
ENDSEC
  0
SECTION
  2
TABLES
  0
TABLE
  2
VPORT
  5
8
100
AcDbSymbolTable
 70
2
  0
VPORT
  5
1F4
100
AcDbSymbolTableRecord
100
AcDbViewportTableRecord
  2
*ACTIVE
 70
0
 10
0.0
 20
0.0
 11
1.0
 21
1.0
 12
11.0
 22
8.5
 13
0.0
 23
0.0
 14
1.0
 24
1.0
 15
0.0
 25
0.0
 16
0.0
 26
0.0
 36
1.0
 17
0.0
 27
0.0
 37
0.0
 40
17.0
 41
1.2941176471
 42
50.0
 43
0.0
 44
0.0
 50
0.0
 51
0.0
 71
0
 72
100
 73
1
 74
1
 75
0
 76
0
 77
0
 78
0
  0
ENDTAB
  0
TABLE
  2
LTYPE
  5
5
100
AcDbSymbolTable
 70
6
  0
LTYPE
  5
14
100
AcDbSymbolTableRecord
100
AcDbLinetypeTableRecord
  2
BYBLOCK
 70
0
  3

 72
65
 73
0
 40
0.0
  0
LTYPE
  5
15
100
AcDbSymbolTableRecord
100
AcDbLinetypeTableRecord
  2
BYLAYER
 70
0
  3

 72
65
 73
0
 40
0.0
  0
LTYPE
  5
16
100
AcDbSymbolTableRecord
100
AcDbLinetypeTableRecord
  2
CONTINUOUS
 70
64
  3
Solid line
 72
65
 73
0
 40
0.0
  0
LTYPE
  5
1F5
100
AcDbSymbolTableRecord
100
AcDbLinetypeTableRecord
  2
CENTER
 70
64
  3
____ _ ____ _ ____ _ ____ _ ____ _ ____ _ ____
 72
65
 73
4
 40
0.6
 49
0.375
 74
0
 49
-0.075
 74
0
 49
0.075
 74
0
 49
-0.075
 74
0
  0
LTYPE
  5
1F6
100
AcDbSymbolTableRecord
100
AcDbLinetypeTableRecord
  2
HIDDEN
 70
64
  3
- - - - - - - - - - - - - - - - - - - -
 72
65
 73
2
 40
0.2
 49
0.1
 74
0
 49
-0.1
 74
0
  0
LTYPE
  5
1F7
100
AcDbSymbolTableRecord
100
AcDbLinetypeTableRecord
  2
PHANTOM
 70
64
  3
_____ _ _ _____ _ _ _____ _ _ _____
 72
65
 73
6
 40
0.8
 49
0.45
 74
0
 49
-0.05
 74
0
 49
0.1
 74
0
 49
-0.05
 74
0
 49
0.1
 74
0
 49
-0.05
 74
0
  0
LTYPE
  5
1F8
100
AcDbSymbolTableRecord
100
AcDbLinetypeTableRecord
  2
DOT
 70
64
  3
. . . . . . . . . . . . . . . . . . . .
 72
65
 73
2
 40
0.2
 49
0.1
 74
0
 49
-0.1
 74
0
  0
LTYPE
  5
1F9
100
AcDbSymbolTableRecord
100
AcDbLinetypeTableRecord
  2
DASHED
 70
64
  3
- - - - - - - - - - - - - - - - - - - -
 72
65
 73
2
 40
0.2
 49
0.1
 74
0
 49
-0.1
 74
0
  0
ENDTAB
  0
TABLE
  2
LAYER
  5
2
100
AcDbSymbolTable
 70
36
  0
LAYER
  5
10
100
AcDbSymbolTableRecord
100
AcDbLayerTableRecord
  2
0
 70
0
 62
7
  6
CONTINUOUS
370
-3
390
F
  0
LAYER
  5
1FA
100
AcDbSymbolTableRecord
100
AcDbLayerTableRecord
  2
DEFAULT_1
 70
0
 62
7
  6
CENTER
370
-3
390
F
  0
LAYER
  5
1FB
100
AcDbSymbolTableRecord
100
AcDbLayerTableRecord
  2
DEFAULT_2
 70
0
 62
8
  6
HIDDEN
370
-3
390
F
  0
LAYER
  5
1FC
100
AcDbSymbolTableRecord
100
AcDbLayerTableRecord
  2
DEFAULT_3
 70
0
 62
7
  6
PHANTOM
370
-3
390
F
  0
LAYER
  5
1FD
100
AcDbSymbolTableRecord
100
AcDbLayerTableRecord
  2
ALL_FEATURES
 70
0
 62
7
  6
CONTINUOUS
370
-3
390
F
  0
LAYER
  5
1FE
100
AcDbSymbolTableRecord
100
AcDbLayerTableRecord
  2
AXES_FEATURES
 70
0
 62
7
  6
CONTINUOUS
370
-3
390
F
  0
LAYER
  5
1FF
100
AcDbSymbolTableRecord
100
AcDbLayerTableRecord
  2
DIMENSIONS
 70
0
 62
7
  6
CONTINUOUS
370
-3
390
F
  0
ENDTAB
  0
TABLE
  2
STYLE
  5
3
100
AcDbSymbolTable
 70
1
  0
STYLE
  5
11
100
AcDbSymbolTableRecord
100
AcDbTextStyleTableRecord
  2
STANDARD
 70
0
 40
0.0
 41
0.8
 50
0.0
 71
0
 42
0.2
  3
txt
  4

  0
STYLE
  5
200
100
AcDbSymbolTableRecord
100
AcDbTextStyleTableRecord
  2
TEXTSTYLE_1
 70
0
 40
0.0
 41
0.8
 50
0.0
 71
0
 42
0.2
  3
gdt
  4

  0
ENDTAB
  0
TABLE
  2
VIEW
  5
6
100
AcDbSymbolTable
 70
0
  0
ENDTAB
  0
TABLE
  2
UCS
  5
7
100
AcDbSymbolTable
 70
0
  0
ENDTAB
  0
TABLE
  2
APPID
  5
9
100
AcDbSymbolTable
 70
1
  0
APPID
  5
201
100
AcDbSymbolTableRecord
100
AcDbRegAppTableRecord
  2
ACAD
 70
0
  0
ENDTAB
  0
TABLE
  2
BLOCK_RECORD
  5
1
100
AcDbSymbolTable
 70
0
  0
BLOCK_RECORD
  5
202
100
AcDbSymbolTableRecord
100
AcDbBlockTableRecord
  2
*Model_Space
  0
BLOCK_RECORD
  5
203
100
AcDbSymbolTableRecord
100
AcDbBlockTableRecord
  2
*Paper_Space
  0
BLOCK_RECORD
  5
204
100
AcDbSymbolTableRecord
100
AcDbBlockTableRecord
  2
_FILLED
  0
ENDTAB
  0
TABLE
  2
DIMSTYLE
  5
A
100
AcDbSymbolTable
 70
1
100
AcDbDimStyleTable
 71
0
  0
DIMSTYLE
105
205
100
AcDbSymbolTableRecord
100
AcDbDimStyleTableRecord
  2
STANDARD
 70
0
  3

  4

 40
1.0
 41
0.1
 42
0.0625
 43
0.38
 44
0.125
 45
0.0
 46
0.0
 47
0.001
 48
0.001
140
0.08
141
0.09
142
0.0
143
25.4
144
1.0
145
0.0
146
1.0
147
0.09
 71
1.0
 72
0.0
 73
1
 74
1
 75
0
 76
0
 77
0
 78
4
 79
1
170
1
171
2
172
0
173
0
174
0
175
0
176
0
177
0
178
0
270
2
179
3
271
3
272
3
273
2
274
2
275
0
280
0
281
0
282
0
283
1
284
4
285
0
286
0
287
3
288
0
340
11
278
46
341
204
342
204
343
204
344
204
  0
ENDTAB
  0
ENDSEC
  0
SECTION
  2
BLOCKS
  0
BLOCK
  5
20
100
AcDbEntity
  8
0
100
AcDbBlockBegin
  2
*Model_Space
 70
0
 10
0.0
 20
0.0
 30
0.0
  3
*Model_Space
  1

  0
ENDBLK
  5
21
100
AcDbEntity
  8
0
100
AcDbBlockEnd
  0
BLOCK
  5
1C
100
AcDbEntity
  8
0
100
AcDbBlockBegin
  2
*Paper_Space
 70
0
 10
0.0
 20
0.0
 30
0.0
  3
*Paper_Space
  1

  0
ENDBLK
  5
1D
100
AcDbEntity
  8
0
100
AcDbBlockEnd
  0
BLOCK
  5
206
100
AcDbEntity
  8
0
100
AcDbBlockBegin
  2
_FILLED
 70
64
 10
0.0
 20
0.0
  3
_FILLED
  1

  0
SOLID
  5
207
100
AcDbEntity
  8
0
  6
BYBLOCK
 62
0
100
AcDbTrace
 10
0.0
 20
0.0
 11
-1.0
 21
0.2
 12
-1.0
 22
-0.2
 13
-1.0
 23
-0.2
  0
ENDBLK
  5
208
100
AcDbEntity
  8
0
  6
BYBLOCK
 62
0
100
AcDbBlockEnd
  0
ENDSEC
  0
SECTION
  2
ENTITIES
  0
LWPOLYLINE
  5
209
100
AcDbEntity
  8
0
100
AcDbPolyline
 62
7
  6
CONTINUOUS
 90
51
 70
0
 10
12.4581333866
 20
-5.8087714462
 10
12.549703251
 20
-5.7949007293
 10
12.6532941893
 20
-5.739785215
 10
12.7251525758
 20
-5.6610546312
 10
12.768268458
 20
-5.5783831342
 10
12.7967094277
 20
-5.4896690082
 10
12.8186897131
 20
-5.3822023452
 10
12.8366526924
 20
-5.2457518573
 10
12.8509165721
 20
-5.0752349534
 10
12.8612724576
 20
-4.8718739378
 10
12.8676560618
 20
-4.6453909705
 10
12.8705922152
 20
-4.4022561504
 10
12.8706302218
 20
-4.147231499
 10
12.8682840981
 20
-3.8850535344
 10
12.8640047405
 20
-3.6167299308
 10
12.8581070884
 20
-3.3430474902
 10
12.8508297521
 20
-3.0648812877
 10
12.8423454231
 20
-2.7820529654
 10
12.8327533511
 20
-2.4934211943
 10
12.8221576211
 20
-2.1990189731
 10
12.8106581589
 20
-1.8992395809
 10
12.7983262799
 20
-1.5940717701
 10
12.7852059052
 20
-1.2831062318
 10
12.7713124747
 20
-0.9655165985
 10
12.7566722872
 20
-0.6409074833
 10
12.7413265715
 20
-0.3092896987
 10
12.7253043578
 20
0.0295408105
 10
12.7086240143
 20
0.3759659169
 10
12.6912921418
 20
0.7305673824
 10
12.6733118595
 20
1.0939536081
 10
12.6546994941
 20
1.466461973
 10
12.635466303
 20
1.8485546512
 10
12.6156203925
 20
2.2407994541
 10
12.595167067
 20
2.6438825408
 10
12.5741117566
 20
3.0585650933
 10
12.5524651585
 20
3.4856084302
 10
12.5302371077
 20
3.925921972
 10
12.5074418951
 20
4.3805016822
 10
12.4841010172
 20
4.8504322363
 10
12.4602436676
 20
5.3369518101
 10
12.4358960015
 20
5.8417818822
 10
12.4111027724
 20
6.3668313408
 10
12.3859421771
 20
6.9140749197
 10
12.3605276541
 20
7.4857651521
 10
12.3349918456
 20
8.0852941833
 10
12.3095586585
 20
8.7163550661
 10
12.2845957127
 20
9.3828193762
 10
12.2605867402
 20
10.0919809469
 10
12.238400345
 20
10.8530244703
 10
12.2196726611
 20
11.6748317833
 10
12.2077078484
 20
12.510838138
  0
LINE
  5
20A
100
AcDbEntity
  8
0
100
AcDbLine
 62
7
  6
CONTINUOUS
 10
12.458217709
 20
-5.8087715642
 11
12.4581333866
 21
-5.8087714462
  0
LINE
  5
20B
100
AcDbEntity
  8
0
100
AcDbLine
 62
7
  6
CONTINUOUS
 10
7.9790184994
 20
22.3398156522
 11
8.0569836269
 21
22.368192638
  0
LINE
  5
20C
100
AcDbEntity
  8
0
100
AcDbLine
 62
7
  6
CONTINUOUS
 10
8.2152928342
 20
23.3607688291
 11
8.2234463249
 21
23.3689223198
  0
LINE
  5
20D
100
AcDbEntity
  8
0
100
AcDbLine
 62
7
  6
CONTINUOUS
 10
8.215293112
 20
23.3057674879
 11
8.2234463249
 21
23.3139207008
  0
LINE
  5
20E
100
AcDbEntity
  8
0
100
AcDbLine
 62
7
  6
CONTINUOUS
 10
8.1737459437
 20
23.1224173282
 11
8.1818994613
 21
23.1305708458
  0
LINE
  5
20F
100
AcDbEntity
  8
0
100
AcDbLine
 62
7
  6
CONTINUOUS
 10
8.215293112
 20
23.1445109004
 11
8.2234463249
 21
23.1526641133
  0
LINE
  5
210
100
AcDbEntity
  8
0
100
AcDbLine
 62
7
  6
CONTINUOUS
 10
8.1737459437
 20
23.0278524683
 11
8.1818994613
 21
23.0360059859
  0
LINE
  5
211
100
AcDbEntity
  8
0
100
AcDbLine
 62
7
  6
CONTINUOUS
 10
8.215293112
 20
22.8879887143
 11
8.2234463249
 21
22.8961419272
  0
LINE
  5
212
100
AcDbEntity
  8
0
100
AcDbLine
 62
7
  6
CONTINUOUS
 10
8.1737459437
 20
22.8451671875
 11
8.1818994613
 21
22.8533207051
  0
LINE
  5
213
100
AcDbEntity
  8
0
100
AcDbLine
 62
7
  6
CONTINUOUS
 10
8.0550029914
 20
22.6376801238
 11
8.0677692496
 21
22.650446382
  0
LINE
  5
214
100
AcDbEntity
  8
0
100
AcDbLine
 62
7
  6
CONTINUOUS
 10
8.0550029914
 20
22.6050573659
 11
8.0677692496
 21
22.6178236241
  0
LINE
  5
215
100
AcDbEntity
  8
0
100
AcDbLine
 62
7
  6
CONTINUOUS
 10
8.1737459437
 20
22.5868111857
 11
8.1818994613
 21
22.5949647033
  0
LINE
  5
216
100
AcDbEntity
  8
0
100
AcDbLine
 62
7
  6
CONTINUOUS
 10
8.215293112
 20
22.5536824927
 11
8.2234466737
 21
22.5618360544
  0
LINE
  5
217
100
AcDbEntity
  8
0
100
AcDbLine
 62
7
  6
CONTINUOUS
 10
7.9521467152
 20
22.2622896426
 11
7.9602999364
 21
22.2704428638
  0
LINE
  5
218
100
AcDbEntity
  8
0
100
AcDbLine
 62
7
  6
CONTINUOUS
 10
7.9521467152
 20
22.169872929
 11
7.9602999347
 21
22.1780261485
  0
LINE
  5
219
100
AcDbEntity
  8
0
100
AcDbLine
 62
7
  6
CONTINUOUS
 10
8.0550029914
 20
22.1920605913
 11
8.0677692496
 21
22.2048268495
  0
LINE
  5
21A
100
AcDbEntity
  8
0
100
AcDbLine
 62
7
  6
CONTINUOUS
 10
8.1737459437
 20
22.2703909974
 11
8.1818994613
 21
22.278544515
  0
LINE
  5
21B
100
AcDbEntity
  8
0
100
AcDbLine
 62
7
  6
CONTINUOUS
 10
8.215293112
 20
22.1643746521
 11
8.2234463249
 21
22.1725278651
  0
LINE
  5
21C
100
AcDbEntity
  8
0
100
AcDbLine
 62
7
  6
CONTINUOUS
 10
8.0550029914
 20
21.9896578582
 11
8.0677692496
 21
22.0024241164
  0
LINE
  5
21D
100
AcDbEntity
  8
0
100
AcDbLine
 62
7
  6
CONTINUOUS
 10
7.9521467152
 20
21.8606405784
 11
7.9602999364
 21
21.8687937996
  0
LINE
  5
21E
100
AcDbEntity
  8
0
100
AcDbLine
 62
7
  6
CONTINUOUS
 10
8.1737459437
 20
21.9174701358
 11
8.1818994613
 21
21.9256236533
  0
LWPOLYLINE
  5
21F
100
AcDbEntity
  8
0
100
AcDbPolyline
 62
7
  6
CONTINUOUS
 90
4
 70
0
 10
8.1113225427
 20
22.657749811
 10
8.1096461523
 20
22.6562353675
 10
8.1075890488
 20
22.6550094698
 10
8.1052273588
 20
22.6542015207
  0
LWPOLYLINE
  5
220
100
AcDbEntity
  8
0
100
AcDbPolyline
 62
7
  6
CONTINUOUS
 90
3
 70
0
 10
8.0909749893
 20
21.0053153853
 10
8.0866604876
 20
21.0029157238
 10
8.0834296223
 20
21.0024483721
  0
LINE
  5
221
100
AcDbEntity
  8
0
100
AcDbLine
 62
7
  6
CONTINUOUS
 10
10.2266575179
 20
21.2828381041
 11
10.0936128986
 21
21.2396092868
  0
LINE
  5
222
100
AcDbEntity
  8
0
100
AcDbLine
 62
7
  6
CONTINUOUS
 10
8.0550029914
 20
21.7719764795
 11
8.0677692496
 21
21.7847427377
  0
LINE
  5
223
100
AcDbEntity
  8
0
100
AcDbLine
 62
7
  6
CONTINUOUS
 10
7.9521467152
 20
21.5157367079
 11
7.9602999347
 21
21.5238899274
  0
LINE
  5
224
100
AcDbEntity
  8
0
100
AcDbLine
 62
7
  6
CONTINUOUS
 10
8.215293112
 20
21.7465958785
 11
8.2234463249
 21
21.7547490915
  0
LINE
  5
225
100
AcDbEntity
  8
0
100
AcDbLine
 62
7
  6
CONTINUOUS
 10
8.1737459437
 20
21.5520995741
 11
8.1818994613
 21
21.5602530917
  0
LINE
  5
226
100
AcDbEntity
  8
0
100
AcDbLine
 62
7
  6
CONTINUOUS
 10
8.215293112
 20
21.3288171049
 11
8.2234463249
 21
21.3369703179
  0
LINE
  5
227
100
AcDbEntity
  8
0
100
AcDbLine
 62
7
  6
CONTINUOUS
 10
8.0550029914
 20
21.1324683292
 11
8.0677692496
 21
21.1452345873
  0
LINE
  5
228
100
AcDbEntity
  8
0
100
AcDbLine
 62
7
  6
CONTINUOUS
 10
8.1737459437
 20
21.1991787124
 11
8.1818994613
 21
21.20733223
  0
LINE
  5
229
100
AcDbEntity
  8
0
100
AcDbLine
 62
7
  6
CONTINUOUS
 10
8.0550029914
 20
20.9862226115
 11
8.0677692496
 21
20.9989888697
  0
LINE
  5
22A
100
AcDbEntity
  8
0
100
AcDbLine
 62
7
  6
CONTINUOUS
 10
8.215293112
 20
20.9395092644
 11
8.2234463249
 21
20.9476624773
  0
LINE
  5
22B
100
AcDbEntity
  8
0
100
AcDbLine
 62
7
  6
CONTINUOUS
 10
8.1737459437
 20
20.8827585241
 11
8.1818994613
 21
20.8909120417
  0
LINE
  5
22C
100
AcDbEntity
  8
0
100
AcDbLine
 62
7
  6
CONTINUOUS
 10
8.1737459437
 20
20.6244025223
 11
8.1818994613
 21
20.6325560399
  0
LINE
  5
22D
100
AcDbEntity
  8
0
100
AcDbLine
 62
7
  6
CONTINUOUS
 10
8.215293112
 20
20.6052030428
 11
8.2234463249
 21
20.6133562557
  0
LINE
  5
22E
100
AcDbEntity
  8
0
100
AcDbLine
 62
7
  6
CONTINUOUS
 10
8.0922957656
 20
21.0069617164
 11
8.0909749893
 21
21.0053153853
  0
LINE
  5
22F
100
AcDbEntity
  8
0
100
AcDbLine
 62
7
  6
CONTINUOUS
 10
8.1737459437
 20
20.4417172415
 11
8.1818994613
 21
20.449870759
  0
LINE
  5
230
100
AcDbEntity
  8
0
100
AcDbLine
 62
7
  6
CONTINUOUS
 10
8.215293112
 20
20.3486808567
 11
8.2234463251
 21
20.3568340698
  0
LINE
  5
231
100
AcDbEntity
  8
0
100
AcDbLine
 62
7
  6
CONTINUOUS
 10
8.215293112
 20
20.1874242692
 11
8.2234463249
 21
20.1955774821
  0
LWPOLYLINE
  5
232
100
AcDbEntity
  8
0
100
AcDbPolyline
 62
7
  6
CONTINUOUS
 90
5
 70
0
 10
12.1780374317
 20
-5.6519904195
 10
12.2158482341
 20
-5.6983875876
 10
12.2788641349
 20
-5.7526777854
 10
12.3691736414
 20
-5.7957359892
 10
12.458217709
 20
-5.8087715642
  0
LWPOLYLINE
  5
233
100
AcDbEntity
  8
0
100
AcDbPolyline
 62
7
  6
CONTINUOUS
 90
5
 70
0
 10
8.1002317913
 20
21.7915388839
 10
8.1004869101
 20
21.7921319055
 10
8.0999900927
 20
21.7914531291
 10
8.0973135379
 20
21.7893590206
 10
8.0925472687
 20
21.7882024847
  0
LWPOLYLINE
  5
234
100
AcDbEntity
  8
0
100
AcDbPolyline
 62
7
  6
CONTINUOUS
 90
6
 70
0
 10
8.1053077302
 20
22.2116066023
 10
8.1056227272
 20
22.2123263446
 10
8.1052677258
 20
22.2118321153
 10
8.1028755591
 20
22.2097789203
 10
8.098206266
 20
22.2083142005
 10
8.0974296965
 20
22.2082864427
  0
LWPOLYLINE
  5
235
100
AcDbEntity
  8
0
100
AcDbPolyline
 62
7
  6
CONTINUOUS
 90
5
 70
0
 10
8.102674372
 20
22.0089986439
 10
8.1029904786
 20
22.0097199091
 10
8.1025513676
 20
22.0091341578
 10
8.0999882698
 20
22.0071040067
 10
8.0950818856
 20
22.0058819676
  0
LINE
  5
236
100
AcDbEntity
  8
0
100
AcDbLine
 62
7
  6
CONTINUOUS
 10
11.3433836336
 20
-4.4892823745
 11
12.1783632953
 21
-5.6524453468
  0
LWPOLYLINE
  5
237
100
AcDbEntity
  8
0
100
AcDbPolyline
 62
7
  6
CONTINUOUS
 90
6
 70
0
 10
8.1126937206
 20
22.6277421694
 10
8.1128255969
 20
22.6282181431
 10
8.1128089966
 20
22.6281838982
 10
8.1123627633
 20
22.6272211085
 10
8.1108294318
 20
22.6250659037
 10
8.1075484754
 20
22.6225624611
  0
LINE
  5
238
100
AcDbEntity
  8
0
100
AcDbLine
 62
7
  6
CONTINUOUS
 10
10.9616145056
 20
18.8878382327
 11
10.817667848
 21
18.7100789145
  0
LINE
  5
239
100
AcDbEntity
  8
0
100
AcDbLine
 62
7
  6
CONTINUOUS
 10
11.7983056208
 20
-4.162715405
 11
12.3011447336
 21
-4.8631921517
  0
LWPOLYLINE
  5
23A
100
AcDbEntity
  8
0
100
AcDbPolyline
 62
7
  6
CONTINUOUS
 90
6
 70
0
 10
8.0946105375
 20
21.1540929088
 10
8.0947184648
 20
21.1545545807
 10
8.0946347353
 20
21.1543899799
 10
8.0933172445
 20
21.1523702119
 10
8.0896624381
 20
21.1496652844
 10
8.085128054
 20
21.148694171
  0
LINE
  5
23B
100
AcDbEntity
  8
0
100
AcDbLine
 62
7
  6
CONTINUOUS
 10
9.0870119339
 20
19.8173328898
 11
9.1888090121
 21
20.0459728709
  0
LINE
  5
23C
100
AcDbEntity
  8
0
100
AcDbLine
 62
7
  6
CONTINUOUS
 10
8.2722861637
 20
23.4442570408
 11
8.2725297893
 21
23.4462005609
  0
LWPOLYLINE
  5
23D
100
AcDbEntity
  8
0
100
AcDbPolyline
 62
7
  6
CONTINUOUS
 90
7
 70
0
 10
8.1141877791
 20
22.6634500016
 10
8.1141922009
 20
22.6634770608
 10
8.1141597656
 20
22.663305517
 10
8.1140142889
 20
22.6626795707
 10
8.1135452696
 20
22.661272943
 10
8.1126431518
 20
22.659496802
 10
8.1113225427
 20
22.657749811
  0
LINE
  5
23E
100
AcDbEntity
  8
0
100
AcDbLine
 62
7
  6
CONTINUOUS
 10
8.1629128931
 20
22.9400038416
 11
8.1475731172
 21
22.8510664844
  0
LINE
  5
23F
100
AcDbEntity
  8
0
100
AcDbLine
 62
7
  6
CONTINUOUS
 10
10.3314803993
 20
13.7750508424
 11
10.2493911423
 21
13.7175713258
  0
LINE
  5
240
100
AcDbEntity
  8
0
100
AcDbLine
 62
7
  6
CONTINUOUS
 10
8.2928942703
 20
23.554838138
 11
8.3006506217
 21
23.702838138
  0
LINE
  5
241
100
AcDbEntity
  8
0
100
AcDbLine
 62
7
  6
CONTINUOUS
 10
11.4896819747
 20
14.020838138
 11
11.4735722489
 21
14.0095262104
  0
LINE
  5
242
100
AcDbEntity
  8
0
100
AcDbLine
 62
7
  6
CONTINUOUS
 10
12.4185958148
 20
14.143367817
 11
12.4539241023
 21
14.1681049502
  0
LINE
  5
243
100
AcDbEntity
  8
0
100
AcDbLine
 62
7
  6
CONTINUOUS
 10
8.0933976461
 20
22.470741402
 11
8.0933975861
 21
22.4707791194
  0
LINE
  5
244
100
AcDbEntity
  8
0
100
AcDbLine
 62
7
  6
CONTINUOUS
 10
7.9463811007
 20
22.2483590518
 11
7.9463811007
 21
21.8538602996
  0
LINE
  5
245
100
AcDbEntity
  8
0
100
AcDbLine
 62
7
  6
CONTINUOUS
 10
7.9463811007
 20
21.8467134984
 11
7.9463811007
 21
21.6307529649
  0
LINE
  5
246
100
AcDbEntity
  8
0
100
AcDbLine
 62
7
  6
CONTINUOUS
 10
7.9463811007
 20
21.559664686
 11
7.9463811007
 21
21.5089627776
  0
LINE
  5
247
100
AcDbEntity
  8
0
100
AcDbLine
 62
7
  6
CONTINUOUS
 10
7.9463811007
 20
21.5018159764
 11
7.9463811007
 21
21.1073172242
  0
LINE
  5
248
100
AcDbEntity
  8
0
100
AcDbLine
 62
9
  6
CONTINUOUS
 10
7.952146092
 20
22.2622890194
 11
7.952146092
 21
21.8876348036
  0
LINE
  5
249
100
AcDbEntity
  8
0
100
AcDbLine
 62
9
  6
CONTINUOUS
 10
7.952146092
 20
21.8606399553
 11
7.952146092
 21
21.616826508
  0
LINE
  5
24A
100
AcDbEntity
  8
0
100
AcDbLine
 62
9
  6
CONTINUOUS
 10
7.952146092
 20
21.5157360847
 11
7.952146092
 21
21.0933872566
  0
LINE
  5
24B
100
AcDbEntity
  8
0
100
AcDbLine
 62
7
  6
CONTINUOUS
 10
7.9521950064
 20
20.7380218604
 11
7.9521950004
 21
20.754047335
  0
LINE
  5
24C
100
AcDbEntity
  8
0
100
AcDbLine
 62
9
  6
CONTINUOUS
 10
7.9570674952
 20
21.5206574879
 11
7.9570674952
 21
21.6119051048
  0
LINE
  5
24D
100
AcDbEntity
  8
0
100
AcDbLine
 62
9
  6
CONTINUOUS
 10
7.9570674952
 20
21.8655613585
 11
7.9570674952
 21
21.9211374553
  0
LINE
  5
24E
100
AcDbEntity
  8
0
100
AcDbLine
 62
9
  6
CONTINUOUS
 10
7.9602999364
 20
21.0852334122
 11
7.9602999347
 21
21.5238899274
  0
LINE
  5
24F
100
AcDbEntity
  8
0
100
AcDbLine
 62
9
  6
CONTINUOUS
 10
7.9602999364
 20
21.6086726636
 11
7.9602999364
 21
21.8687937996
  0
LINE
  5
250
100
AcDbEntity
  8
0
100
AcDbLine
 62
9
  6
CONTINUOUS
 10
7.9602999347
 20
21.9179050159
 11
7.9602999364
 21
22.2704428638
  0
LINE
  5
251
100
AcDbEntity
  8
0
100
AcDbLine
 62
7
  6
CONTINUOUS
 10
7.96606614
 20
22.3213148352
 11
7.96606614
 21
21.0343614408
  0
LINE
  5
252
100
AcDbEntity
  8
0
100
AcDbLine
 62
9
  6
CONTINUOUS
 10
7.9790184688
 20
22.3398156411
 11
7.9790184688
 21
21.0158606349
  0
LINE
  5
253
100
AcDbEntity
  8
0
100
AcDbLine
 62
7
  6
CONTINUOUS
 10
8.0515436227
 20
22.6293282831
 11
8.0515436227
 21
22.5041282627
  0
LINE
  5
254
100
AcDbEntity
  8
0
100
AcDbLine
 62
7
  6
CONTINUOUS
 10
8.0515436227
 20
22.1837023165
 11
8.0515436227
 21
22.0911379239
  0
LINE
  5
255
100
AcDbEntity
  8
0
100
AcDbLine
 62
7
  6
CONTINUOUS
 10
8.0515436227
 20
21.9812996039
 11
8.0515436227
 21
21.8887351704
  0
LINE
  5
256
100
AcDbEntity
  8
0
100
AcDbLine
 62
7
  6
CONTINUOUS
 10
8.0515436227
 20
21.7636196724
 11
8.0515436227
 21
21.6710523445
  0
LINE
  5
257
100
AcDbEntity
  8
0
100
AcDbLine
 62
7
  6
CONTINUOUS
 10
8.0515436227
 20
21.1241159924
 11
8.0515436227
 21
21.0315397238
  0
LINE
  5
258
100
AcDbEntity
  8
0
100
AcDbLine
 62
7
  6
CONTINUOUS
 10
8.0515436227
 20
20.9894636376
 11
8.0515436227
 21
20.8852938133
  0
LINE
  5
259
100
AcDbEntity
  8
0
100
AcDbLine
 62
7
  6
CONTINUOUS
 10
8.0515436227
 20
20.8829042681
 11
8.0515436227
 21
20.7833843292
  0
LINE
  5
25A
100
AcDbEntity
  8
0
100
AcDbLine
 62
9
  6
CONTINUOUS
 10
8.0550029545
 20
22.6376800869
 11
8.0550029545
 21
22.4957764607
  0
LINE
  5
25B
100
AcDbEntity
  8
0
100
AcDbLine
 62
9
  6
CONTINUOUS
 10
8.0550029545
 20
22.1920605544
 11
8.0550029545
 21
22.082779686
  0
LINE
  5
25C
100
AcDbEntity
  8
0
100
AcDbLine
 62
9
  6
CONTINUOUS
 10
8.0550029545
 20
21.9896578213
 11
8.0550029545
 21
21.880376953
  0
LINE
  5
25D
100
AcDbEntity
  8
0
100
AcDbLine
 62
9
  6
CONTINUOUS
 10
8.0550029545
 20
21.7719764426
 11
8.0550029545
 21
21.6626955743
  0
LINE
  5
25E
100
AcDbEntity
  8
0
100
AcDbLine
 62
9
  6
CONTINUOUS
 10
8.055002955
 20
21.1324682928
 11
8.055002955
 21
21.0231874235
  0
LINE
  5
25F
100
AcDbEntity
  8
0
100
AcDbLine
 62
9
  6
CONTINUOUS
 10
8.0550029545
 20
20.9862225746
 11
8.0550029545
 21
20.7750299734
  0
LINE
  5
260
100
AcDbEntity
  8
0
100
AcDbLine
 62
9
  6
CONTINUOUS
 10
8.0569836269
 20
20.988203247
 11
8.0569836269
 21
21.0231874235
  0
LINE
  5
261
100
AcDbEntity
  8
0
100
AcDbLine
 62
9
  6
CONTINUOUS
 10
8.0569836269
 20
21.1344489647
 11
8.0569836269
 21
21.6607149019
  0
LINE
  5
262
100
AcDbEntity
  8
0
100
AcDbLine
 62
9
  6
CONTINUOUS
 10
8.0569836269
 20
21.773957115
 11
8.0569836269
 21
21.8783962806
  0
LINE
  5
263
100
AcDbEntity
  8
0
100
AcDbLine
 62
9
  6
CONTINUOUS
 10
8.0569836269
 20
21.9916384937
 11
8.0569836269
 21
22.0807990136
  0
LINE
  5
264
100
AcDbEntity
  8
0
100
AcDbLine
 62
9
  6
CONTINUOUS
 10
8.0569836269
 20
22.1920605913
 11
8.0569836269
 21
22.368192638
  0
LINE
  5
265
100
AcDbEntity
  8
0
100
AcDbLine
 62
9
  6
CONTINUOUS
 10
8.0677692496
 20
20.7622636783
 11
8.0677692496
 21
20.9989888697
  0
LINE
  5
266
100
AcDbEntity
  8
0
100
AcDbLine
 62
9
  6
CONTINUOUS
 10
8.0677692496
 20
21.0104211289
 11
8.0677692496
 21
21.1452345873
  0
LINE
  5
267
100
AcDbEntity
  8
0
100
AcDbLine
 62
9
  6
CONTINUOUS
 10
8.0677692496
 20
21.6499292792
 11
8.0677692496
 21
21.7847427377
  0
LINE
  5
268
100
AcDbEntity
  8
0
100
AcDbLine
 62
9
  6
CONTINUOUS
 10
8.0677692496
 20
21.8676106579
 11
8.0677692496
 21
22.0024241164
  0
LINE
  5
269
100
AcDbEntity
  8
0
100
AcDbLine
 62
9
  6
CONTINUOUS
 10
8.0677692496
 20
22.0700133909
 11
8.0677692496
 21
22.2048268495
  0
LINE
  5
26A
100
AcDbEntity
  8
0
100
AcDbLine
 62
9
  6
CONTINUOUS
 10
8.0677692496
 20
22.4830101656
 11
8.0677692496
 21
22.650446382
  0
LINE
  5
26B
100
AcDbEntity
  8
0
100
AcDbLine
 62
9
  6
CONTINUOUS
 10
8.0761209482
 20
22.6539057945
 11
8.0761209482
 21
22.4795507531
  0
LINE
  5
26C
100
AcDbEntity
  8
0
100
AcDbLine
 62
9
  6
CONTINUOUS
 10
8.0761209482
 20
22.2082862619
 11
8.0761209482
 21
22.0665539785
  0
LINE
  5
26D
100
AcDbEntity
  8
0
100
AcDbLine
 62
9
  6
CONTINUOUS
 10
8.0761209482
 20
22.0058835289
 11
8.0761209482
 21
21.8641512454
  0
LINE
  5
26E
100
AcDbEntity
  8
0
100
AcDbLine
 62
9
  6
CONTINUOUS
 10
8.0761209482
 20
21.7882021502
 11
8.0761209482
 21
21.6464698667
  0
LINE
  5
26F
100
AcDbEntity
  8
0
100
AcDbLine
 62
9
  6
CONTINUOUS
 10
8.0761209482
 20
21.1486939999
 11
8.0761209482
 21
21.0069617164
  0
LINE
  5
270
100
AcDbEntity
  8
0
100
AcDbLine
 62
9
  6
CONTINUOUS
 10
8.0761209482
 20
21.0024482822
 11
8.0761209482
 21
20.7588042658
  0
LINE
  5
271
100
AcDbEntity
  8
0
100
AcDbLine
 62
9
  6
CONTINUOUS
 10
8.08268608
 20
21.0024482822
 11
8.08268608
 21
21.0069617164
  0
LINE
  5
272
100
AcDbEntity
  8
0
100
AcDbLine
 62
9
  6
CONTINUOUS
 10
8.08268608
 20
21.1486939999
 11
8.08268608
 21
21.6464698667
  0
LINE
  5
273
100
AcDbEntity
  8
0
100
AcDbLine
 62
9
  6
CONTINUOUS
 10
8.08268608
 20
21.7882021502
 11
8.08268608
 21
21.8641512454
  0
LINE
  5
274
100
AcDbEntity
  8
0
100
AcDbLine
 62
9
  6
CONTINUOUS
 10
8.08268608
 20
22.0058835289
 11
8.08268608
 21
22.0665536572
  0
LINE
  5
275
100
AcDbEntity
  8
0
100
AcDbLine
 62
9
  6
CONTINUOUS
 10
8.0826860786
 20
22.2082862619
 11
8.08268608
 21
22.401216047
  0
LINE
  5
276
100
AcDbEntity
  8
0
100
AcDbLine
 62
7
  6
CONTINUOUS
 10
8.1408018977
 20
22.5992524505
 11
8.1407996267
 21
20.5164208152
  0
LINE
  5
277
100
AcDbEntity
  8
0
100
AcDbLine
 62
7
  6
CONTINUOUS
 10
8.1407996267
 20
22.8392554608
 11
8.1408018977
 21
22.5992524505
  0
LINE
  5
278
100
AcDbEntity
  8
0
100
AcDbLine
 62
7
  6
CONTINUOUS
 10
8.1475731172
 20
22.8510528666
 11
8.1475731172
 21
20.5046228935
  0
LINE
  5
279
100
AcDbEntity
  8
0
100
AcDbLine
 62
9
  6
CONTINUOUS
 10
8.1629128931
 20
22.9400038416
 11
8.162912893
 21
20.4156724344
  0
LINE
  5
27A
100
AcDbEntity
  8
0
100
AcDbLine
 62
7
  6
CONTINUOUS
 10
8.1679803292
 20
23.1084975252
 11
8.1679803292
 21
23.0224461221
  0
LINE
  5
27B
100
AcDbEntity
  8
0
100
AcDbLine
 62
7
  6
CONTINUOUS
 10
8.1679803292
 20
23.013926093
 11
8.1679803292
 21
22.9278854098
  0
LINE
  5
27C
100
AcDbEntity
  8
0
100
AcDbLine
 62
7
  6
CONTINUOUS
 10
8.1679803292
 20
22.831235237
 11
8.1679803292
 21
22.7452057041
  0
LINE
  5
27D
100
AcDbEntity
  8
0
100
AcDbLine
 62
7
  6
CONTINUOUS
 10
8.1679803292
 20
22.5728826501
 11
8.1679803292
 21
22.4868462874
  0
LINE
  5
27E
100
AcDbEntity
  8
0
100
AcDbLine
 62
7
  6
CONTINUOUS
 10
8.1679803292
 20
22.2564693651
 11
8.1679803292
 21
22.170419196
  0
LINE
  5
27F
100
AcDbEntity
  8
0
100
AcDbLine
 62
7
  6
CONTINUOUS
 10
8.1679803292
 20
21.9035478544
 11
8.1679803292
 21
21.8174989833
  0
LINE
  5
280
100
AcDbEntity
  8
0
100
AcDbLine
 62
7
  6
CONTINUOUS
 10
8.1679803292
 20
21.538170414
 11
8.1679803292
 21
21.4521353003
  0
LINE
  5
281
100
AcDbEntity
  8
0
100
AcDbLine
 62
7
  6
CONTINUOUS
 10
8.1679803292
 20
21.1852468129
 11
8.1679803292
 21
21.099217178
  0
LINE
  5
282
100
AcDbEntity
  8
0
100
AcDbLine
 62
7
  6
CONTINUOUS
 10
8.1679803292
 20
20.8688308255
 11
8.1679803292
 21
20.782792789
  0
LINE
  5
283
100
AcDbEntity
  8
0
100
AcDbLine
 62
7
  6
CONTINUOUS
 10
8.1679803292
 20
20.6104817743
 11
8.1679803292
 21
20.5244298366
  0
LINE
  5
284
100
AcDbEntity
  8
0
100
AcDbLine
 62
7
  6
CONTINUOUS
 10
8.1679803292
 20
20.4277943205
 11
8.1679803292
 21
20.3417467286
  0
LINE
  5
285
100
AcDbEntity
  8
0
100
AcDbLine
 62
7
  6
CONTINUOUS
 10
8.1679803292
 20
20.3332130459
 11
8.1679803292
 21
20.2471982835
  0
LINE
  5
286
100
AcDbEntity
  8
0
100
AcDbLine
 62
9
  6
CONTINUOUS
 10
8.1699798737
 20
22.9139593569
 11
8.1699798737
 21
22.839530756
  0
LINE
  5
287
100
AcDbEntity
  8
0
100
AcDbLine
 62
9
  6
CONTINUOUS
 10
8.1699798737
 20
22.7369101852
 11
8.1699798737
 21
22.5811747542
  0
LINE
  5
288
100
AcDbEntity
  8
0
100
AcDbLine
 62
9
  6
CONTINUOUS
 10
8.1699798737
 20
22.4785541834
 11
8.1699798815
 21
22.2647545775
  0
LINE
  5
289
100
AcDbEntity
  8
0
100
AcDbLine
 62
9
  6
CONTINUOUS
 10
8.1699798815
 20
22.1621339835
 11
8.1699798815
 21
21.9118337158
  0
LINE
  5
28A
100
AcDbEntity
  8
0
100
AcDbLine
 62
9
  6
CONTINUOUS
 10
8.1699798815
 20
21.8092131218
 11
8.1699798815
 21
21.5464631542
  0
LINE
  5
28B
100
AcDbEntity
  8
0
100
AcDbLine
 62
9
  6
CONTINUOUS
 10
8.1699798815
 20
21.4438425602
 11
8.1699798815
 21
21.1935422925
  0
LINE
  5
28C
100
AcDbEntity
  8
0
100
AcDbLine
 62
9
  6
CONTINUOUS
 10
8.1699798815
 20
21.0909216985
 11
8.1699798815
 21
20.8771221042
  0
LINE
  5
28D
100
AcDbEntity
  8
0
100
AcDbLine
 62
9
  6
CONTINUOUS
 10
8.1699798815
 20
20.7745015102
 11
8.1699798815
 21
20.6187661024
  0
LINE
  5
28E
100
AcDbEntity
  8
0
100
AcDbLine
 62
9
  6
CONTINUOUS
 10
8.1699798815
 20
20.5161455084
 11
8.1699798815
 21
20.4417169191
  0
LINE
  5
28F
100
AcDbEntity
  8
0
100
AcDbLine
 62
9
  6
CONTINUOUS
 10
8.1737456213
 20
23.1224170058
 11
8.1737456213
 21
22.9139593569
  0
LINE
  5
290
100
AcDbEntity
  8
0
100
AcDbLine
 62
9
  6
CONTINUOUS
 10
8.1737456213
 20
22.845166865
 11
8.1737456213
 21
22.7312740761
  0
LINE
  5
291
100
AcDbEntity
  8
0
100
AcDbLine
 62
9
  6
CONTINUOUS
 10
8.1737456213
 20
22.5868108632
 11
8.1737456213
 21
22.4729180743
  0
LINE
  5
292
100
AcDbEntity
  8
0
100
AcDbLine
 62
9
  6
CONTINUOUS
 10
8.1737456213
 20
22.270390675
 11
8.1737456213
 21
22.1564978861
  0
LINE
  5
293
100
AcDbEntity
  8
0
100
AcDbLine
 62
9
  6
CONTINUOUS
 10
8.1737456213
 20
21.9174698133
 11
8.1737456213
 21
21.8035770244
  0
LINE
  5
294
100
AcDbEntity
  8
0
100
AcDbLine
 62
9
  6
CONTINUOUS
 10
8.1737456213
 20
21.5520992516
 11
8.1737456213
 21
21.4382064627
  0
LINE
  5
295
100
AcDbEntity
  8
0
100
AcDbLine
 62
9
  6
CONTINUOUS
 10
8.1737456213
 20
21.1991783899
 11
8.1737456213
 21
21.085285601
  0
LINE
  5
296
100
AcDbEntity
  8
0
100
AcDbLine
 62
9
  6
CONTINUOUS
 10
8.1737456213
 20
20.8827582017
 11
8.1737456213
 21
20.7688654128
  0
LINE
  5
297
100
AcDbEntity
  8
0
100
AcDbLine
 62
9
  6
CONTINUOUS
 10
8.1737456213
 20
20.6244021999
 11
8.1737456213
 21
20.510509411
  0
LINE
  5
298
100
AcDbEntity
  8
0
100
AcDbLine
 62
9
  6
CONTINUOUS
 10
8.1737456213
 20
20.4417169191
 11
8.1737456213
 21
20.2332592702
  0
LINE
  5
299
100
AcDbEntity
  8
0
100
AcDbLine
 62
9
  6
CONTINUOUS
 10
8.1818994613
 20
20.2251059908
 11
8.1818994613
 21
20.3136867671
  0
LINE
  5
29A
100
AcDbEntity
  8
0
100
AcDbLine
 62
9
  6
CONTINUOUS
 10
8.1818994613
 20
20.3196702901
 11
8.1818994613
 21
20.449870759
  0
LINE
  5
29B
100
AcDbEntity
  8
0
100
AcDbLine
 62
9
  6
CONTINUOUS
 10
8.1818994613
 20
20.5023555709
 11
8.1818994613
 21
20.6325560399
  0
LINE
  5
29C
100
AcDbEntity
  8
0
100
AcDbLine
 62
9
  6
CONTINUOUS
 10
8.1818994613
 20
20.7607115727
 11
8.1818994613
 21
20.8909120417
  0
LINE
  5
29D
100
AcDbEntity
  8
0
100
AcDbLine
 62
9
  6
CONTINUOUS
 10
8.1818994613
 20
21.077131761
 11
8.1818994613
 21
21.20733223
  0
LINE
  5
29E
100
AcDbEntity
  8
0
100
AcDbLine
 62
9
  6
CONTINUOUS
 10
8.1818994613
 20
21.4300526227
 11
8.1818994613
 21
21.5602530917
  0
LINE
  5
29F
100
AcDbEntity
  8
0
100
AcDbLine
 62
9
  6
CONTINUOUS
 10
8.1818994613
 20
21.7954231843
 11
8.1818994613
 21
21.9256236533
  0
LINE
  5
2A0
100
AcDbEntity
  8
0
100
AcDbLine
 62
9
  6
CONTINUOUS
 10
8.1818994613
 20
22.1483440461
 11
8.1818994613
 21
22.278544515
  0
LINE
  5
2A1
100
AcDbEntity
  8
0
100
AcDbLine
 62
9
  6
CONTINUOUS
 10
8.1818994613
 20
22.4647642343
 11
8.1818994613
 21
22.5949647033
  0
LINE
  5
2A2
100
AcDbEntity
  8
0
100
AcDbLine
 62
9
  6
CONTINUOUS
 10
8.1818994613
 20
22.7231202361
 11
8.1818994613
 21
22.8533207051
  0
LINE
  5
2A3
100
AcDbEntity
  8
0
100
AcDbLine
 62
9
  6
CONTINUOUS
 10
8.1818994613
 20
22.9058055169
 11
8.1818994613
 21
23.1305708458
  0
LINE
  5
2A4
100
AcDbEntity
  8
0
100
AcDbLine
 62
9
  6
CONTINUOUS
 10
8.1896742053
 20
20.4544143215
 11
8.1896742053
 21
20.4978120085
  0
LINE
  5
2A5
100
AcDbEntity
  8
0
100
AcDbLine
 62
9
  6
CONTINUOUS
 10
8.1896742053
 20
20.6370996023
 11
8.1896742053
 21
20.7561680103
  0
LINE
  5
2A6
100
AcDbEntity
  8
0
100
AcDbLine
 62
9
  6
CONTINUOUS
 10
8.1896742053
 20
20.8954556041
 11
8.1896742053
 21
21.0725881986
  0
LINE
  5
2A7
100
AcDbEntity
  8
0
100
AcDbLine
 62
9
  6
CONTINUOUS
 10
8.1896742053
 20
21.2118757924
 11
8.1896742053
 21
21.4255090602
  0
LINE
  5
2A8
100
AcDbEntity
  8
0
100
AcDbLine
 62
9
  6
CONTINUOUS
 10
8.1896742053
 20
21.5647966541
 11
8.1896742053
 21
21.7908796219
  0
LINE
  5
2A9
100
AcDbEntity
  8
0
100
AcDbLine
 62
9
  6
CONTINUOUS
 10
8.1896742053
 20
21.9301672158
 11
8.1896742053
 21
22.1438004836
  0
LINE
  5
2AA
100
AcDbEntity
  8
0
100
AcDbLine
 62
9
  6
CONTINUOUS
 10
8.1896742053
 20
22.2830880774
 11
8.1896742053
 21
22.4602206719
  0
LINE
  5
2AB
100
AcDbEntity
  8
0
100
AcDbLine
 62
9
  6
CONTINUOUS
 10
8.1896742053
 20
22.5992524505
 11
8.1896742053
 21
22.7185766737
  0
LINE
  5
2AC
100
AcDbEntity
  8
0
100
AcDbLine
 62
9
  6
CONTINUOUS
 10
8.1896742053
 20
22.8578642675
 11
8.1896742053
 21
22.9012619545
  0
LINE
  5
2AD
100
AcDbEntity
  8
0
100
AcDbLine
 62
9
  6
CONTINUOUS
 10
8.1958191788
 20
23.136336753
 11
8.1958191788
 21
22.9000396097
  0
LINE
  5
2AE
100
AcDbEntity
  8
0
100
AcDbLine
 62
9
  6
CONTINUOUS
 10
8.1958191788
 20
22.8590866123
 11
8.1958191788
 21
22.7173543288
  0
LINE
  5
2AF
100
AcDbEntity
  8
0
100
AcDbLine
 62
9
  6
CONTINUOUS
 10
8.1958191788
 20
22.6007306105
 11
8.1958191788
 21
22.458998327
  0
LINE
  5
2B0
100
AcDbEntity
  8
0
100
AcDbLine
 62
9
  6
CONTINUOUS
 10
8.1958191788
 20
22.2843104223
 11
8.1958191788
 21
22.1425781388
  0
LINE
  5
2B1
100
AcDbEntity
  8
0
100
AcDbLine
 62
9
  6
CONTINUOUS
 10
8.1958191788
 20
21.9313895606
 11
8.1958191788
 21
21.7896572771
  0
LINE
  5
2B2
100
AcDbEntity
  8
0
100
AcDbLine
 62
9
  6
CONTINUOUS
 10
8.1958191788
 20
21.5660189989
 11
8.1958191788
 21
21.4242867154
  0
LINE
  5
2B3
100
AcDbEntity
  8
0
100
AcDbLine
 62
9
  6
CONTINUOUS
 10
8.1958191788
 20
21.2130981372
 11
8.1958191788
 21
21.0713658537
  0
LINE
  5
2B4
100
AcDbEntity
  8
0
100
AcDbLine
 62
9
  6
CONTINUOUS
 10
8.1958191788
 20
20.896677949
 11
8.1958191788
 21
20.7549456655
  0
LINE
  5
2B5
100
AcDbEntity
  8
0
100
AcDbLine
 62
9
  6
CONTINUOUS
 10
8.1958191788
 20
20.6383219472
 11
8.1958191788
 21
20.4965896637
  0
LINE
  5
2B6
100
AcDbEntity
  8
0
100
AcDbLine
 62
9
  6
CONTINUOUS
 10
8.1958191788
 20
20.4556366663
 11
8.1958191788
 21
20.219339523
  0
LINE
  5
2B7
100
AcDbEntity
  8
0
100
AcDbLine
 62
9
  6
CONTINUOUS
 10
8.2073176271
 20
20.4556366663
 11
8.2073176271
 21
20.4965896637
  0
LINE
  5
2B8
100
AcDbEntity
  8
0
100
AcDbLine
 62
9
  6
CONTINUOUS
 10
8.2073176271
 20
20.6383219472
 11
8.2073176271
 21
20.7549456655
  0
LINE
  5
2B9
100
AcDbEntity
  8
0
100
AcDbLine
 62
9
  6
CONTINUOUS
 10
8.2073176271
 20
20.8981705087
 11
8.2073176271
 21
21.0713658537
  0
LINE
  5
2BA
100
AcDbEntity
  8
0
100
AcDbLine
 62
9
  6
CONTINUOUS
 10
8.2073176271
 20
21.2130981372
 11
8.2073176271
 21
21.4242867154
  0
LINE
  5
2BB
100
AcDbEntity
  8
0
100
AcDbLine
 62
9
  6
CONTINUOUS
 10
8.2073176271
 20
21.5660189989
 11
8.2073176271
 21
21.7896572771
  0
LINE
  5
2BC
100
AcDbEntity
  8
0
100
AcDbLine
 62
9
  6
CONTINUOUS
 10
8.2073176271
 20
21.9313895606
 11
8.2073176271
 21
22.1425781388
  0
LINE
  5
2BD
100
AcDbEntity
  8
0
100
AcDbLine
 62
9
  6
CONTINUOUS
 10
8.2073176271
 20
22.6007306105
 11
8.2073176271
 21
22.7173543288
  0
LINE
  5
2BE
100
AcDbEntity
  8
0
100
AcDbLine
 62
9
  6
CONTINUOUS
 10
8.2073176271
 20
22.8590866123
 11
8.2073176271
 21
22.9000396097
  0
LINE
  5
2BF
100
AcDbEntity
  8
0
100
AcDbLine
 62
9
  6
CONTINUOUS
 10
8.2073176217
 20
22.2843104223
 11
8.2073176271
 21
22.4575057504
  0
LINE
  5
2C0
100
AcDbEntity
  8
0
100
AcDbLine
 62
7
  6
CONTINUOUS
 10
8.2095274975
 20
23.3468493362
 11
8.2095274975
 21
23.182190636
  0
LINE
  5
2C1
100
AcDbEntity
  8
0
100
AcDbLine
 62
7
  6
CONTINUOUS
 10
8.2095274975
 20
23.130584478
 11
8.2095274975
 21
23.0209218417
  0
LINE
  5
2C2
100
AcDbEntity
  8
0
100
AcDbLine
 62
7
  6
CONTINUOUS
 10
8.2095274975
 20
22.8740660838
 11
8.2095274975
 21
22.7643958637
  0
LINE
  5
2C3
100
AcDbEntity
  8
0
100
AcDbLine
 62
7
  6
CONTINUOUS
 10
8.2095274975
 20
22.5397620969
 11
8.2095274975
 21
22.4300874075
  0
LINE
  5
2C4
100
AcDbEntity
  8
0
100
AcDbLine
 62
7
  6
CONTINUOUS
 10
8.2095274975
 20
22.1504534348
 11
8.2095274975
 21
22.0407803883
  0
LINE
  5
2C5
100
AcDbEntity
  8
0
100
AcDbLine
 62
7
  6
CONTINUOUS
 10
8.2095274975
 20
21.73267161
 11
8.2095274975
 21
21.623004666
  0
LINE
  5
2C6
100
AcDbEntity
  8
0
100
AcDbLine
 62
7
  6
CONTINUOUS
 10
8.2095274975
 20
21.3148896764
 11
8.2095274975
 21
21.2052290525
  0
LINE
  5
2C7
100
AcDbEntity
  8
0
100
AcDbLine
 62
7
  6
CONTINUOUS
 10
8.2095274975
 20
20.9255797439
 11
8.2095274975
 21
20.8159233038
  0
LINE
  5
2C8
100
AcDbEntity
  8
0
100
AcDbLine
 62
7
  6
CONTINUOUS
 10
8.2095274975
 20
20.5912732448
 11
8.2095274975
 21
20.4816173597
  0
LINE
  5
2C9
100
AcDbEntity
  8
0
100
AcDbLine
 62
7
  6
CONTINUOUS
 10
8.2095274975
 20
20.3347529689
 11
8.2095274975
 21
20.2250932634
  0
LINE
  5
2CA
100
AcDbEntity
  8
0
100
AcDbLine
 62
7
  6
CONTINUOUS
 10
8.2095274975
 20
20.173500636
 11
8.2095274975
 21
20.0088269398
  0
LINE
  5
2CB
100
AcDbEntity
  8
0
100
AcDbLine
 62
9
  6
CONTINUOUS
 10
8.2152928342
 20
23.3607688291
 11
8.2152928342
 21
23.1682522846
  0
LINE
  5
2CC
100
AcDbEntity
  8
0
100
AcDbLine
 62
9
  6
CONTINUOUS
 10
8.2152928342
 20
23.1445106226
 11
8.2152928342
 21
23.0069956971
  0
LINE
  5
2CD
100
AcDbEntity
  8
0
100
AcDbLine
 62
9
  6
CONTINUOUS
 10
8.2152928343
 20
22.8879884366
 11
8.2152928343
 21
22.750473511
  0
LINE
  5
2CE
100
AcDbEntity
  8
0
100
AcDbLine
 62
9
  6
CONTINUOUS
 10
8.2152928601
 20
22.5536822408
 11
8.2152928601
 21
22.4161672636
  0
LINE
  5
2CF
100
AcDbEntity
  8
0
100
AcDbLine
 62
9
  6
CONTINUOUS
 10
8.2152928343
 20
22.1643743744
 11
8.2152928343
 21
22.0268594488
  0
LINE
  5
2D0
100
AcDbEntity
  8
0
100
AcDbLine
 62
9
  6
CONTINUOUS
 10
8.2152928342
 20
21.7465956008
 11
8.2152928342
 21
21.6090806752
  0
LINE
  5
2D1
100
AcDbEntity
  8
0
100
AcDbLine
 62
9
  6
CONTINUOUS
 10
8.2152928342
 20
21.3288168272
 11
8.2152928342
 21
21.1913019016
  0
LINE
  5
2D2
100
AcDbEntity
  8
0
100
AcDbLine
 62
9
  6
CONTINUOUS
 10
8.2152928342
 20
20.9395089866
 11
8.2152928342
 21
20.8019940611
  0
LINE
  5
2D3
100
AcDbEntity
  8
0
100
AcDbLine
 62
9
  6
CONTINUOUS
 10
8.2152928343
 20
20.605202765
 11
8.2152928343
 21
20.4676878395
  0
LINE
  5
2D4
100
AcDbEntity
  8
0
100
AcDbLine
 62
9
  6
CONTINUOUS
 10
8.2152928343
 20
20.3486805789
 11
8.2152928343
 21
20.2111656534
  0
LINE
  5
2D5
100
AcDbEntity
  8
0
100
AcDbLine
 62
9
  6
CONTINUOUS
 10
8.2152928343
 20
20.1874239914
 11
8.2152928342
 21
19.9949074469
  0
LINE
  5
2D6
100
AcDbEntity
  8
0
100
AcDbLine
 62
9
  6
CONTINUOUS
 10
8.2234463249
 20
19.9867539562
 11
8.2234463249
 21
20.1955774821
  0
LINE
  5
2D7
100
AcDbEntity
  8
0
100
AcDbLine
 62
9
  6
CONTINUOUS
 10
8.2234463251
 20
20.2030121625
 11
8.2234463251
 21
20.3568340698
  0
LINE
  5
2D8
100
AcDbEntity
  8
0
100
AcDbLine
 62
9
  6
CONTINUOUS
 10
8.2234463249
 20
20.4595343488
 11
8.2234463249
 21
20.6133562557
  0
LINE
  5
2D9
100
AcDbEntity
  8
0
100
AcDbLine
 62
9
  6
CONTINUOUS
 10
8.2234463249
 20
20.7938405704
 11
8.2234463249
 21
20.9476624773
  0
LINE
  5
2DA
100
AcDbEntity
  8
0
100
AcDbLine
 62
9
  6
CONTINUOUS
 10
8.2234463249
 20
21.1831484109
 11
8.2234463249
 21
21.3369703179
  0
LINE
  5
2DB
100
AcDbEntity
  8
0
100
AcDbLine
 62
9
  6
CONTINUOUS
 10
8.2234463249
 20
21.6009271845
 11
8.2234463249
 21
21.7547490915
  0
LINE
  5
2DC
100
AcDbEntity
  8
0
100
AcDbLine
 62
9
  6
CONTINUOUS
 10
8.2234463249
 20
22.0187059581
 11
8.2234463249
 21
22.1725278651
  0
LINE
  5
2DD
100
AcDbEntity
  8
0
100
AcDbLine
 62
9
  6
CONTINUOUS
 10
8.2234463249
 20
22.7423200203
 11
8.2234463249
 21
22.8961419272
  0
LINE
  5
2DE
100
AcDbEntity
  8
0
100
AcDbLine
 62
9
  6
CONTINUOUS
 10
8.2234463249
 20
22.9988422064
 11
8.2234463249
 21
23.1526641133
  0
LINE
  5
2DF
100
AcDbEntity
  8
0
100
AcDbLine
 62
9
  6
CONTINUOUS
 10
8.2234463249
 20
23.1600987939
 11
8.2234463249
 21
23.3689223198
  0
LINE
  5
2E0
100
AcDbEntity
  8
0
100
AcDbLine
 62
9
  6
CONTINUOUS
 10
8.2234466737
 20
22.40801345
 11
8.2234466737
 21
22.5618360544
  0
LINE
  5
2E1
100
AcDbEntity
  8
0
100
AcDbLine
 62
9
  6
CONTINUOUS
 10
8.2373663471
 20
23.3746885317
 11
8.2373663471
 21
22.9930759945
  0
LINE
  5
2E2
100
AcDbEntity
  8
0
100
AcDbLine
 62
9
  6
CONTINUOUS
 10
8.2373663471
 20
22.9019081391
 11
8.2373663471
 21
22.7365538084
  0
LINE
  5
2E3
100
AcDbEntity
  8
0
100
AcDbLine
 62
9
  6
CONTINUOUS
 10
8.2373663471
 20
22.5676019175
 11
8.2373663471
 21
22.4022475868
  0
LINE
  5
2E4
100
AcDbEntity
  8
0
100
AcDbLine
 62
9
  6
CONTINUOUS
 10
8.2373663471
 20
22.1782940769
 11
8.2373663471
 21
22.0129397462
  0
LINE
  5
2E5
100
AcDbEntity
  8
0
100
AcDbLine
 62
9
  6
CONTINUOUS
 10
8.2373663471
 20
21.7605153034
 11
8.2373663471
 21
21.5951609726
  0
LINE
  5
2E6
100
AcDbEntity
  8
0
100
AcDbLine
 62
9
  6
CONTINUOUS
 10
8.2373663471
 20
21.3427365298
 11
8.2373663471
 21
21.1773821991
  0
LINE
  5
2E7
100
AcDbEntity
  8
0
100
AcDbLine
 62
9
  6
CONTINUOUS
 10
8.2373663471
 20
20.9534286892
 11
8.2373663471
 21
20.7880743585
  0
LINE
  5
2E8
100
AcDbEntity
  8
0
100
AcDbLine
 62
9
  6
CONTINUOUS
 10
8.2373663471
 20
20.6191224676
 11
8.2373663471
 21
20.4537681369
  0
LINE
  5
2E9
100
AcDbEntity
  8
0
100
AcDbLine
 62
9
  6
CONTINUOUS
 10
8.2373663471
 20
20.3626002815
 11
8.2373663471
 21
19.9809877443
  0
LINE
  5
2EA
100
AcDbEntity
  8
0
100
AcDbLine
 62
7
  6
CONTINUOUS
 10
8.2722861637
 20
23.4439576633
 11
8.2722861637
 21
19.9115065068
  0
LINE
  5
2EB
100
AcDbEntity
  8
0
100
AcDbLine
 62
9
  6
CONTINUOUS
 10
8.2725264803
 20
22.1526889713
 11
8.2725277012
 21
22.4760504264
  0
LINE
  5
2EC
100
AcDbEntity
  8
0
100
AcDbLine
 62
9
  6
CONTINUOUS
 10
8.2725264805
 20
19.9094748723
 11
8.2725264803
 21
22.1526889713
  0
LINE
  5
2ED
100
AcDbEntity
  8
0
100
AcDbLine
 62
7
  6
CONTINUOUS
 10
8.2928942703
 20
19.800838138
 11
8.2928942703
 21
23.554838138
  0
LINE
  5
2EE
100
AcDbEntity
  8
0
100
AcDbLine
 62
9
  6
CONTINUOUS
 10
8.3006506217
 20
19.652838138
 11
8.3006506217
 21
23.702838138
  0
LINE
  5
2EF
100
AcDbEntity
  8
0
100
AcDbLine
 62
7
  6
CONTINUOUS
 10
8.4103723071
 20
23.8277752794
 11
8.4103723071
 21
19.5279009966
  0
LINE
  5
2F0
100
AcDbEntity
  8
0
100
AcDbLine
 62
9
  6
CONTINUOUS
 10
8.4809163928
 20
19.5767555311
 11
8.4809163928
 21
23.7789207449
  0
LINE
  5
2F1
100
AcDbEntity
  8
0
100
AcDbLine
 62
9
  6
CONTINUOUS
 10
8.5560600657
 20
19.6756026924
 11
8.5560600657
 21
23.6800735836
  0
LINE
  5
2F2
100
AcDbEntity
  8
0
100
AcDbLine
 62
9
  6
CONTINUOUS
 10
8.2725277012
 20
22.4760504264
 11
8.2725248733
 21
23.4453614913
  0
LINE
  5
2F3
100
AcDbEntity
  8
0
100
AcDbLine
 62
9
  6
CONTINUOUS
 10
8.2725248733
 20
23.4453614913
 11
8.2725267
 21
23.4462022638
  0
LINE
  5
2F4
100
AcDbEntity
  8
0
100
AcDbLine
 62
7
  6
CONTINUOUS
 10
12.3797429957
 20
13.5221500656
 11
12.3636332698
 21
13.510838138
  0
LINE
  5
2F5
100
AcDbEntity
  8
0
100
AcDbLine
 62
7
  6
CONTINUOUS
 10
8.2928942703
 20
19.800838138
 11
8.3006506217
 21
19.652838138
  0
LINE
  5
2F6
100
AcDbEntity
  8
0
100
AcDbLine
 62
9
  6
CONTINUOUS
 10
8.8354471971
 20
23.582838138
 11
8.8354471971
 21
19.772838138
  0
LINE
  5
2F7
100
AcDbEntity
  8
0
100
AcDbLine
 62
9
  6
CONTINUOUS
 10
9.0184960246
 20
19.772838138
 11
9.0184960246
 21
23.582838138
  0
LINE
  5
2F8
100
AcDbEntity
  8
0
100
AcDbLine
 62
9
  6
CONTINUOUS
 10
9.0870119339
 20
23.5383433862
 11
9.0870119339
 21
19.8173328898
  0
LINE
  5
2F9
100
AcDbEntity
  8
0
100
AcDbLine
 62
9
  6
CONTINUOUS
 10
9.1888090121
 20
20.0459728709
 11
9.1888090121
 21
23.3097034051
  0
LINE
  5
2FA
100
AcDbEntity
  8
0
100
AcDbLine
 62
9
  6
CONTINUOUS
 10
9.2070799213
 20
23.297838138
 11
9.2070799213
 21
20.057838138
  0
LINE
  5
2FB
100
AcDbEntity
  8
0
100
AcDbLine
 62
9
  6
CONTINUOUS
 10
9.2410683538
 20
20.057838138
 11
9.2410683538
 21
23.297838138
  0
LINE
  5
2FC
100
AcDbEntity
  8
0
100
AcDbLine
 62
9
  6
CONTINUOUS
 10
9.2605974607
 20
23.282152531
 11
9.2605974607
 21
20.073523745
  0
LINE
  5
2FD
100
AcDbEntity
  8
0
100
AcDbLine
 62
7
  6
CONTINUOUS
 10
11.1838703267
 20
12.922660915
 11
11.1263908101
 21
12.840571658
  0
LINE
  5
2FE
100
AcDbEntity
  8
0
100
AcDbLine
 62
7
  6
CONTINUOUS
 10
8.2722861637
 20
19.9114192352
 11
8.2725297893
 21
19.9094757151
  0
LINE
  5
2FF
100
AcDbEntity
  8
0
100
AcDbLine
 62
7
  6
CONTINUOUS
 10
9.9172015941
 20
21.137838138
 11
9.9172015941
 21
22.217838138
  0
LINE
  5
300
100
AcDbEntity
  8
0
100
AcDbLine
 62
9
  6
CONTINUOUS
 10
9.9772015941
 20
22.161838138
 11
9.9772015941
 21
21.193838138
  0
LINE
  5
301
100
AcDbEntity
  8
0
100
AcDbLine
 62
9
  6
CONTINUOUS
 10
9.9972015941
 20
21.193838138
 11
9.9972015941
 21
22.161838138
  0
LINE
  5
302
100
AcDbEntity
  8
0
100
AcDbLine
 62
9
  6
CONTINUOUS
 10
10.0690467967
 20
21.2242804866
 11
10.0690467967
 21
22.1313957894
  0
LINE
  5
303
100
AcDbEntity
  8
0
100
AcDbLine
 62
9
  6
CONTINUOUS
 10
10.0936128986
 20
22.1160669892
 11
10.0936128986
 21
21.2396092868
  0
LINE
  5
304
100
AcDbEntity
  8
0
100
AcDbLine
 62
7
  6
CONTINUOUS
 10
10.2266575179
 20
21.2828381041
 11
10.2266575746
 21
22.0728381535
  0
LINE
  5
305
100
AcDbEntity
  8
0
100
AcDbLine
 62
9
  6
CONTINUOUS
 10
10.2493911423
 20
14.1681049502
 11
10.2493911423
 21
13.7175713258
  0
LINE
  5
306
100
AcDbEntity
  8
0
100
AcDbLine
 62
9
  6
CONTINUOUS
 10
10.2713789078
 20
22.052838138
 11
10.2713789078
 21
21.302838138
  0
LINE
  5
307
100
AcDbEntity
  8
0
100
AcDbLine
 62
9
  6
CONTINUOUS
 10
10.3314803993
 20
13.7750508424
 11
10.3314803993
 21
14.1106254336
  0
LINE
  5
308
100
AcDbEntity
  8
0
100
AcDbLine
 62
7
  6
CONTINUOUS
 10
10.3566576223
 20
14.131925989
 11
10.3566576223
 21
13.753750287
  0
LINE
  5
309
100
AcDbEntity
  8
0
100
AcDbLine
 62
9
  6
CONTINUOUS
 10
10.3815207808
 20
13.7519208448
 11
10.3815207808
 21
14.1337554312
  0
LINE
  5
30A
100
AcDbEntity
  8
0
100
AcDbLine
 62
7
  6
CONTINUOUS
 10
10.5166576223
 20
14.9345165423
 11
10.5166576223
 21
14.892838138
  0
LINE
  5
30B
100
AcDbEntity
  8
0
100
AcDbLine
 62
7
  6
CONTINUOUS
 10
10.5166576223
 20
14.772838138
 11
10.5166576223
 21
14.732838138
  0
LINE
  5
30C
100
AcDbEntity
  8
0
100
AcDbLine
 62
7
  6
CONTINUOUS
 10
10.5166576223
 20
13.152838138
 11
10.5166576223
 21
13.112838138
  0
LINE
  5
30D
100
AcDbEntity
  8
0
100
AcDbLine
 62
7
  6
CONTINUOUS
 10
10.5166576223
 20
12.992838138
 11
10.5166576223
 21
12.9511597337
  0
LINE
  5
30E
100
AcDbEntity
  8
0
100
AcDbLine
 62
7
  6
CONTINUOUS
 10
10.5716576223
 20
14.712838138
 11
10.5716576223
 21
14.0550685747
  0
LINE
  5
30F
100
AcDbEntity
  8
0
100
AcDbLine
 62
7
  6
CONTINUOUS
 10
10.5716576223
 20
13.8306077013
 11
10.5716576223
 21
13.172838138
  0
LINE
  5
310
100
AcDbEntity
  8
0
100
AcDbLine
 62
7
  6
CONTINUOUS
 10
10.7166576223
 20
18.647838138
 11
10.7166576223
 21
18.577838138
  0
LINE
  5
311
100
AcDbEntity
  8
0
100
AcDbLine
 62
9
  6
CONTINUOUS
 10
10.7266576223
 20
21.302838138
 11
10.7266576223
 21
22.052838138
  0
LINE
  5
312
100
AcDbEntity
  8
0
100
AcDbLine
 62
9
  6
CONTINUOUS
 10
10.7429916066
 20
13.756160208
 11
10.7429916066
 21
14.129516068
  0
LINE
  5
313
100
AcDbEntity
  8
0
100
AcDbLine
 62
9
  6
CONTINUOUS
 10
10.7651516437
 20
14.138838138
 11
10.7651516437
 21
14.1195262037
  0
LINE
  5
314
100
AcDbEntity
  8
0
100
AcDbLine
 62
9
  6
CONTINUOUS
 10
10.7651516437
 20
13.7661474795
 11
10.7651516437
 21
13.746838138
  0
LINE
  5
315
100
AcDbEntity
  8
0
100
AcDbLine
 62
9
  6
CONTINUOUS
 10
11.0716576223
 20
8.8299970421
 11
11.6316576223
 21
8.8299970421
  0
LINE
  5
316
100
AcDbEntity
  8
0
100
AcDbLine
 62
9
  6
CONTINUOUS
 10
8.1026027918
 20
22.6539057945
 11
8.1026073491
 21
22.6538815104
  0
LINE
  5
317
100
AcDbEntity
  8
0
100
AcDbLine
 62
7
  6
CONTINUOUS
 10
8.162912893
 20
20.4156724344
 11
8.1475731172
 21
20.5046097912
  0
LINE
  5
318
100
AcDbEntity
  8
0
100
AcDbLine
 62
9
  6
CONTINUOUS
 10
8.1022245017
 20
22.6212830355
 11
8.1026073459
 21
22.6187056671
  0
LWPOLYLINE
  5
319
100
AcDbEntity
  8
0
100
AcDbPolyline
 62
7
  6
CONTINUOUS
 90
51
 70
0
 10
11.6476427384
 20
12.510838138
 10
11.6578062823
 20
11.7652855339
 10
11.6738334429
 20
11.0241640412
 10
11.6928999187
 20
10.3326630748
 10
11.7137161291
 20
9.6843570671
 10
11.735535697
 20
9.0730769141
 10
11.7579362449
 20
8.4925183391
 10
11.7806083023
 20
7.9388296006
 10
11.8033180214
 20
7.4094606849
 10
11.8259195074
 20
6.9018245183
 10
11.8483209985
 20
6.4135361161
 10
11.8704399702
 20
5.942998508
 10
11.8922171108
 20
5.4888204442
 10
11.9136157101
 20
5.049650142
 10
11.9346151768
 20
4.6241925355
 10
11.9551967281
 20
4.211408613
 10
11.9753406325
 20
3.8104958175
 10
11.9950330227
 20
3.4207073663
 10
12.0142641366
 20
3.0413527047
 10
12.0330271447
 20
2.6717949121
 10
12.0513145694
 20
2.3114993415
 10
12.0691222828
 20
1.9599323256
 10
12.0864475959
 20
1.6165827964
 10
12.1032856066
 20
1.2810185129
 10
12.1196288457
 20
0.952878464
 10
12.1354671554
 20
0.6318733782
 10
12.1507882212
 20
0.3177694897
 10
12.1655915998
 20
0.0100932378
 10
12.1798733131
 20
-0.2915609513
 10
12.1936220459
 20
-0.5874694573
 10
12.206819538
 20
-0.8777928106
 10
12.2194403681
 20
-1.1625707919
 10
12.2314546277
 20
-1.4417892371
 10
12.2428554492
 20
-1.7160709839
 10
12.2536237097
 20
-1.9859153435
 10
12.2637211286
 20
-2.2515389289
 10
12.2730917719
 20
-2.5129001983
 10
12.2816628408
 20
-2.7696562101
 10
12.2893575409
 20
-3.0215707486
 10
12.2961193063
 20
-3.2696760538
 10
12.301840842
 20
-3.51439848
 10
12.3063538035
 20
-3.755331048
 10
12.3094359602
 20
-3.9913228805
 10
12.3108481132
 20
-4.2221778083
 10
12.3102615526
 20
-4.4463333617
 10
12.3072413585
 20
-4.6602926016
 10
12.3013276032
 20
-4.8596296578
 10
12.2922129376
 20
-5.0371930121
 10
12.2803428355
 20
-5.1813115032
 10
12.267071576
 20
-5.2853965746
 10
12.2541095048
 20
-5.3511664229
  0
LINE
  5
31A
100
AcDbEntity
  8
0
100
AcDbLine
 62
7
  6
CONTINUOUS
 10
10.9766576223
 20
21.052838138
 11
10.9766576223
 21
18.9275733386
  0
LINE
  5
31B
100
AcDbEntity
  8
0
100
AcDbLine
 62
7
  6
CONTINUOUS
 10
11.0716576223
 20
12.832838138
 11
11.0716576223
 21
8.8299970421
  0
LINE
  5
31C
100
AcDbEntity
  8
0
100
AcDbLine
 62
7
  6
CONTINUOUS
 10
11.1556576223
 20
13.3575361288
 11
11.1556576223
 21
13.3563321594
  0
LINE
  5
31D
100
AcDbEntity
  8
0
100
AcDbLine
 62
7
  6
CONTINUOUS
 10
11.1556576223
 20
14.5281400846
 11
11.1556576223
 21
14.5293441166
  0
LINE
  5
31E
100
AcDbEntity
  8
0
100
AcDbLine
 62
7
  6
CONTINUOUS
 10
11.3716576223
 20
14.120838138
 11
11.3716576223
 21
14.020838138
  0
LINE
  5
31F
100
AcDbEntity
  8
0
100
AcDbLine
 62
7
  6
CONTINUOUS
 10
11.4584151945
 20
13.9685133579
 11
11.4584151945
 21
13.5631629181
  0
LINE
  5
320
100
AcDbEntity
  8
0
100
AcDbLine
 62
7
  6
CONTINUOUS
 10
11.4716576223
 20
14.880838138
 11
11.4716576223
 21
14.220838138
  0
LINE
  5
321
100
AcDbEntity
  8
0
100
AcDbLine
 62
7
  6
CONTINUOUS
 10
11.4970516006
 20
13.5631629181
 11
11.4970516006
 21
13.9685133579
  0
LINE
  5
322
100
AcDbEntity
  8
0
100
AcDbLine
 62
7
  6
CONTINUOUS
 10
11.5476576223
 20
13.3575361914
 11
11.5476576223
 21
13.3563321594
  0
LINE
  5
323
100
AcDbEntity
  8
0
100
AcDbLine
 62
7
  6
CONTINUOUS
 10
11.5561957629
 20
13.9685133579
 11
11.5561957629
 21
13.5631629181
  0
LINE
  5
324
100
AcDbEntity
  8
0
100
AcDbLine
 62
7
  6
CONTINUOUS
 10
11.6206576223
 20
13.510838138
 11
11.6206576223
 21
12.510838138
  0
LINE
  5
325
100
AcDbEntity
  8
0
100
AcDbLine
 62
7
  6
CONTINUOUS
 10
11.6316576223
 20
12.510838138
 11
11.6316576223
 21
8.8299970421
  0
LINE
  5
326
100
AcDbEntity
  8
0
100
AcDbLine
 62
7
  6
CONTINUOUS
 10
11.7266576223
 20
21.052838138
 11
11.7266576223
 21
18.9275733388
  0
LINE
  5
327
100
AcDbEntity
  8
0
100
AcDbLine
 62
7
  6
CONTINUOUS
 10
11.0712191476
 20
8.713982797
 11
11.0008621733
 21
-0.57901109
  0
LINE
  5
328
100
AcDbEntity
  8
0
100
AcDbLine
 62
7
  6
CONTINUOUS
 10
11.6312030988
 20
8.7097431755
 11
11.5608461245
 21
-0.5832507114
  0
LINE
  5
329
100
AcDbEntity
  8
0
100
AcDbLine
 62
7
  6
CONTINUOUS
 10
11.9230559362
 20
13.5631629181
 11
11.9230559362
 21
13.9685133579
  0
LINE
  5
32A
100
AcDbEntity
  8
0
100
AcDbLine
 62
7
  6
CONTINUOUS
 10
11.9866576223
 20
18.647838138
 11
11.9866576223
 21
18.577838138
  0
LINE
  5
32B
100
AcDbEntity
  8
0
100
AcDbLine
 62
7
  6
CONTINUOUS
 10
12.0244381907
 20
13.9685133579
 11
12.0244381907
 21
13.5631629181
  0
LINE
  5
32C
100
AcDbEntity
  8
0
100
AcDbLine
 62
7
  6
CONTINUOUS
 10
12.2326576223
 20
13.510838138
 11
12.2326576223
 21
12.510838138
  0
LINE
  5
32D
100
AcDbEntity
  8
0
100
AcDbLine
 62
7
  6
CONTINUOUS
 10
12.3526619579
 20
13.5631629181
 11
12.3526619579
 21
13.9685133579
  0
LINE
  5
32E
100
AcDbEntity
  8
0
100
AcDbLine
 62
9
  6
CONTINUOUS
 10
12.3718348452
 20
14.020838138
 11
12.3718348452
 21
14.0150791556
  0
LINE
  5
32F
100
AcDbEntity
  8
0
100
AcDbLine
 62
7
  6
CONTINUOUS
 10
12.3816576223
 20
14.880838138
 11
12.3816576223
 21
14.220838138
  0
LINE
  5
330
100
AcDbEntity
  8
0
100
AcDbLine
 62
7
  6
CONTINUOUS
 10
12.39490005
 20
13.9685133579
 11
12.39490005
 21
13.5631629181
  0
LINE
  5
331
100
AcDbEntity
  8
0
100
AcDbLine
 62
9
  6
CONTINUOUS
 10
12.4539241023
 20
13.7175713258
 11
12.4539241023
 21
14.020838138
  0
LINE
  5
332
100
AcDbEntity
  8
0
100
AcDbLine
 62
9
  6
CONTINUOUS
 10
12.4539241023
 20
14.1252633809
 11
12.4539241023
 21
14.1681049502
  0
LINE
  5
333
100
AcDbEntity
  8
0
100
AcDbLine
 62
7
  6
CONTINUOUS
 10
12.4816576223
 20
14.120838138
 11
12.4816576223
 21
14.020838138
  0
LINE
  5
334
100
AcDbEntity
  8
0
100
AcDbLine
 62
7
  6
CONTINUOUS
 10
12.5083251878
 20
14.9715997169
 11
12.5083251878
 21
16.0700765591
  0
LINE
  5
335
100
AcDbEntity
  8
0
100
AcDbLine
 62
7
  6
CONTINUOUS
 10
12.9666576211
 20
16.0708381364
 11
12.9666576211
 21
14.9708381396
  0
LINE
  5
336
100
AcDbEntity
  8
0
100
AcDbLine
 62
9
  6
CONTINUOUS
 10
13.1540075617
 20
16.113338138
 11
13.1540075617
 21
16.1060653214
  0
LINE
  5
337
100
AcDbEntity
  8
0
100
AcDbLine
 62
9
  6
CONTINUOUS
 10
13.1540075617
 20
15.5281109546
 11
13.1540075617
 21
15.5135653214
  0
LINE
  5
338
100
AcDbEntity
  8
0
100
AcDbLine
 62
9
  6
CONTINUOUS
 10
13.1540075617
 20
14.9356109546
 11
13.1540075617
 21
14.928338138
  0
LINE
  5
339
100
AcDbEntity
  8
0
100
AcDbLine
 62
7
  6
CONTINUOUS
 10
13.1866576223
 20
16.2232225665
 11
13.1866576223
 21
14.818452952
  0
LINE
  5
33A
100
AcDbEntity
  8
0
100
AcDbLine
 62
7
  6
CONTINUOUS
 10
13.3066576223
 20
16.390838138
 11
13.3066576223
 21
14.650838138
  0
LINE
  5
33B
100
AcDbEntity
  8
0
100
AcDbLine
 62
9
  6
CONTINUOUS
 10
13.4366576223
 20
16.520838138
 11
13.4366576223
 21
14.520838138
  0
LINE
  5
33C
100
AcDbEntity
  8
0
100
AcDbLine
 62
7
  6
CONTINUOUS
 10
13.4666576223
 20
14.52083869
 11
13.4666576223
 21
16.520837586
  0
LINE
  5
33D
100
AcDbEntity
  8
0
100
AcDbLine
 62
7
  6
CONTINUOUS
 10
13.4766576223
 20
14.9708470391
 11
13.4766576223
 21
16.0708292369
  0
LINE
  5
33E
100
AcDbEntity
  8
0
100
AcDbLine
 62
7
  6
CONTINUOUS
 10
11.5194449179
 20
12.922660915
 11
11.5769244344
 21
12.840571658
  0
LINE
  5
33F
100
AcDbEntity
  8
0
100
AcDbLine
 62
7
  6
CONTINUOUS
 10
11.6207216961
 20
12.510838138
 11
12.2325935484
 21
12.510838138
  0
LINE
  5
340
100
AcDbEntity
  8
0
100
AcDbLine
 62
7
  6
CONTINUOUS
 10
11.6060744756
 20
12.832838138
 11
11.5814863214
 21
12.832838138
  0
LINE
  5
341
100
AcDbEntity
  8
0
100
AcDbLine
 62
7
  6
CONTINUOUS
 10
11.1218289231
 20
12.832838138
 11
10.6349792179
 21
12.832838138
  0
LINE
  5
342
100
AcDbEntity
  8
0
100
AcDbLine
 62
9
  6
CONTINUOUS
 10
11.1263908101
 20
12.840571658
 11
11.5769244344
 21
12.840571658
  0
LINE
  5
343
100
AcDbEntity
  8
0
100
AcDbLine
 62
9
  6
CONTINUOUS
 10
11.6130750604
 20
12.8495048047
 11
11.5706693778
 21
12.8495048047
  0
LINE
  5
344
100
AcDbEntity
  8
0
100
AcDbLine
 62
9
  6
CONTINUOUS
 10
11.1326458667
 20
12.8495048047
 11
10.6152593876
 21
12.8495048047
  0
LINE
  5
345
100
AcDbEntity
  8
0
100
AcDbLine
 62
9
  6
CONTINUOUS
 10
11.5194449179
 20
12.922660915
 11
11.1838703267
 21
12.922660915
  0
LINE
  5
346
100
AcDbEntity
  8
0
100
AcDbLine
 62
9
  6
CONTINUOUS
 10
10.5333242889
 20
12.9314394677
 11
11.1867638939
 21
12.9314394677
  0
LINE
  5
347
100
AcDbEntity
  8
0
100
AcDbLine
 62
9
  6
CONTINUOUS
 10
11.5165513506
 20
12.9314394677
 11
11.6206576223
 21
12.9314394677
  0
LINE
  5
348
100
AcDbEntity
  8
0
100
AcDbLine
 62
7
  6
CONTINUOUS
 10
11.1625667326
 20
12.947838138
 11
11.540748512
 21
12.947838138
  0
LINE
  5
349
100
AcDbEntity
  8
0
100
AcDbLine
 62
9
  6
CONTINUOUS
 10
10.5166576223
 20
12.9511597337
 11
11.1591093972
 21
12.9511597337
  0
LINE
  5
34A
100
AcDbEntity
  8
0
100
AcDbLine
 62
9
  6
CONTINUOUS
 10
11.5442058474
 20
12.9511597337
 11
11.6206576223
 21
12.9511597337
  0
LINE
  5
34B
100
AcDbEntity
  8
0
100
AcDbLine
 62
9
  6
CONTINUOUS
 10
11.160740329
 20
12.9727012966
 11
11.5425749155
 21
12.9727012966
  0
LINE
  5
34C
100
AcDbEntity
  8
0
100
AcDbLine
 62
7
  6
CONTINUOUS
 10
11.6206576223
 20
12.992838138
 11
11.5237579045
 21
12.992838138
  0
LINE
  5
34D
100
AcDbEntity
  8
0
100
AcDbLine
 62
7
  6
CONTINUOUS
 10
11.17955734
 20
12.992838138
 11
10.5166576223
 21
12.992838138
  0
LINE
  5
34E
100
AcDbEntity
  8
0
100
AcDbLine
 62
7
  6
CONTINUOUS
 10
10.5166576223
 20
13.112838138
 11
11.2360458732
 21
13.112838138
  0
LINE
  5
34F
100
AcDbEntity
  8
0
100
AcDbLine
 62
7
  6
CONTINUOUS
 10
11.4672693714
 20
13.112838138
 11
11.6206576223
 21
13.112838138
  0
LINE
  5
350
100
AcDbEntity
  8
0
100
AcDbLine
 62
9
  6
CONTINUOUS
 10
11.6206576223
 20
13.152838138
 11
11.4631576223
 21
13.152838138
  0
LINE
  5
351
100
AcDbEntity
  8
0
100
AcDbLine
 62
9
  6
CONTINUOUS
 10
11.2401576223
 20
13.152838138
 11
10.5166576223
 21
13.152838138
  0
LINE
  5
352
100
AcDbEntity
  8
0
100
AcDbLine
 62
7
  6
CONTINUOUS
 10
10.3314803993
 20
14.1106254336
 11
10.2493911423
 21
14.1681049502
  0
LINE
  5
353
100
AcDbEntity
  8
0
100
AcDbLine
 62
7
  6
CONTINUOUS
 10
11.4735722489
 20
13.5221500656
 11
11.4896819747
 21
13.510838138
  0
LINE
  5
354
100
AcDbEntity
  8
0
100
AcDbLine
 62
7
  6
CONTINUOUS
 10
11.1838703267
 20
14.963015361
 11
11.1263908101
 21
15.045104618
  0
LINE
  5
355
100
AcDbEntity
  8
0
100
AcDbLine
 62
7
  6
CONTINUOUS
 10
8.1099584057
 20
20.8558054993
 11
8.1101037046
 21
20.8555504849
  0
LINE
  5
356
100
AcDbEntity
  8
0
100
AcDbLine
 62
7
  6
CONTINUOUS
 10
11.6206576223
 20
13.172838138
 11
11.4645443679
 21
13.172838138
  0
LINE
  5
357
100
AcDbEntity
  8
0
100
AcDbLine
 62
7
  6
CONTINUOUS
 10
11.2387708766
 20
13.172838138
 11
10.5366579772
 21
13.172838138
  0
LINE
  5
358
100
AcDbEntity
  8
0
100
AcDbLine
 62
9
  6
CONTINUOUS
 10
11.5383355523
 20
13.3341721224
 11
11.1649796922
 21
13.3341721224
  0
LINE
  5
359
100
AcDbEntity
  8
0
100
AcDbLine
 62
9
  6
CONTINUOUS
 10
11.1556576223
 20
13.3563321594
 11
11.1749076314
 21
13.3563321594
  0
LINE
  5
35A
100
AcDbEntity
  8
0
100
AcDbLine
 62
9
  6
CONTINUOUS
 10
11.5284191408
 20
13.3563321594
 11
11.5476576223
 21
13.3563321594
  0
LINE
  5
35B
100
AcDbEntity
  8
0
100
AcDbLine
 62
7
  6
CONTINUOUS
 10
11.4897016159
 20
13.510838138
 11
12.3636136286
 21
13.510838138
  0
LINE
  5
35C
100
AcDbEntity
  8
0
100
AcDbLine
 62
7
  6
CONTINUOUS
 10
11.4970516006
 20
13.5631629181
 11
11.5561957629
 21
13.5631629181
  0
LINE
  5
35D
100
AcDbEntity
  8
0
100
AcDbLine
 62
7
  6
CONTINUOUS
 10
11.9230559362
 20
13.5631629181
 11
12.0244381907
 21
13.5631629181
  0
LINE
  5
35E
100
AcDbEntity
  8
0
100
AcDbLine
 62
7
  6
CONTINUOUS
 10
12.3526619579
 20
13.5631629181
 11
12.39490005
 21
13.5631629181
  0
LINE
  5
35F
100
AcDbEntity
  8
0
100
AcDbLine
 62
7
  6
CONTINUOUS
 10
10.7663560396
 20
13.746838138
 11
10.7651516461
 21
13.746838138
  0
LINE
  5
360
100
AcDbEntity
  8
0
100
AcDbLine
 62
7
  6
CONTINUOUS
 10
12.39490005
 20
13.9685133579
 11
12.3526619579
 21
13.9685133579
  0
LINE
  5
361
100
AcDbEntity
  8
0
100
AcDbLine
 62
7
  6
CONTINUOUS
 10
12.0244381907
 20
13.9685133579
 11
11.9230559362
 21
13.9685133579
  0
LINE
  5
362
100
AcDbEntity
  8
0
100
AcDbLine
 62
7
  6
CONTINUOUS
 10
11.5561957629
 20
13.9685133579
 11
11.4970516006
 21
13.9685133579
  0
LINE
  5
363
100
AcDbEntity
  8
0
100
AcDbLine
 62
7
  6
CONTINUOUS
 10
11.3716576223
 20
14.020838138
 11
12.4816576223
 21
14.020838138
  0
LINE
  5
364
100
AcDbEntity
  8
0
100
AcDbLine
 62
7
  6
CONTINUOUS
 10
12.4816576223
 20
14.120838138
 11
11.3716576223
 21
14.120838138
  0
LINE
  5
365
100
AcDbEntity
  8
0
100
AcDbLine
 62
7
  6
CONTINUOUS
 10
10.7663561654
 20
14.138838138
 11
10.7651516461
 21
14.138838138
  0
LINE
  5
366
100
AcDbEntity
  8
0
100
AcDbLine
 62
7
  6
CONTINUOUS
 10
12.39490005
 20
13.7589004121
 11
12.4539241023
 21
13.7175713258
  0
LINE
  5
367
100
AcDbEntity
  8
0
100
AcDbLine
 62
7
  6
CONTINUOUS
 10
12.3636332698
 20
14.020838138
 11
12.3797429957
 21
14.0095262104
  0
LINE
  5
368
100
AcDbEntity
  8
0
100
AcDbLine
 62
7
  6
CONTINUOUS
 10
9.0870119339
 20
23.5383433862
 11
9.1888090121
 21
23.3097034051
  0
LINE
  5
369
100
AcDbEntity
  8
0
100
AcDbLine
 62
9
  6
CONTINUOUS
 10
11.4716576223
 20
14.220838138
 11
12.3816576223
 21
14.220838138
  0
LINE
  5
36A
100
AcDbEntity
  8
0
100
AcDbLine
 62
7
  6
CONTINUOUS
 10
13.4366576223
 20
14.520838138
 11
13.4666576223
 21
14.520838138
  0
LINE
  5
36B
100
AcDbEntity
  8
0
100
AcDbLine
 62
9
  6
CONTINUOUS
 10
11.1748961037
 20
14.5293441166
 11
11.1556576223
 21
14.5293441166
  0
LINE
  5
36C
100
AcDbEntity
  8
0
100
AcDbLine
 62
9
  6
CONTINUOUS
 10
11.1649796922
 20
14.5515041536
 11
11.4716576223
 21
14.5515041536
  0
LINE
  5
36D
100
AcDbEntity
  8
0
100
AcDbLine
 62
7
  6
CONTINUOUS
 10
11.4716576223
 20
14.712838138
 11
11.4645443679
 21
14.712838138
  0
LINE
  5
36E
100
AcDbEntity
  8
0
100
AcDbLine
 62
7
  6
CONTINUOUS
 10
11.2387708766
 20
14.712838138
 11
10.5366664575
 21
14.712838138
  0
LINE
  5
36F
100
AcDbEntity
  8
0
100
AcDbLine
 62
9
  6
CONTINUOUS
 10
10.5166581162
 20
14.732838138
 11
11.2401576223
 21
14.732838138
  0
LINE
  5
370
100
AcDbEntity
  8
0
100
AcDbLine
 62
9
  6
CONTINUOUS
 10
11.4631576223
 20
14.732838138
 11
11.4716576223
 21
14.732838138
  0
LINE
  5
371
100
AcDbEntity
  8
0
100
AcDbLine
 62
7
  6
CONTINUOUS
 10
11.4716576223
 20
14.772838138
 11
11.4672693714
 21
14.772838138
  0
LINE
  5
372
100
AcDbEntity
  8
0
100
AcDbLine
 62
7
  6
CONTINUOUS
 10
11.2360458732
 20
14.772838138
 11
10.5166576223
 21
14.772838138
  0
LINE
  5
373
100
AcDbEntity
  8
0
100
AcDbLine
 62
7
  6
CONTINUOUS
 10
12.4066576223
 20
14.880838138
 11
11.4466576223
 21
14.880838138
  0
LINE
  5
374
100
AcDbEntity
  8
0
100
AcDbLine
 62
7
  6
CONTINUOUS
 10
10.5166576223
 20
14.892838138
 11
11.17955734
 21
14.892838138
  0
LINE
  5
375
100
AcDbEntity
  8
0
100
AcDbLine
 62
9
  6
CONTINUOUS
 10
11.4087170249
 20
14.9129749794
 11
11.160740329
 21
14.9129749794
  0
LINE
  5
376
100
AcDbEntity
  8
0
100
AcDbLine
 62
7
  6
CONTINUOUS
 10
12.9886481053
 20
14.928338138
 11
13.1866576223
 21
14.928338138
  0
LINE
  5
377
100
AcDbEntity
  8
0
100
AcDbLine
 62
9
  6
CONTINUOUS
 10
11.1591093972
 20
14.9345165423
 11
10.5166581162
 21
14.9345165423
  0
LINE
  5
378
100
AcDbEntity
  8
0
100
AcDbLine
 62
7
  6
CONTINUOUS
 10
13.1540075617
 20
14.9356109546
 11
13.1866576223
 21
14.9356109546
  0
LINE
  5
379
100
AcDbEntity
  8
0
100
AcDbLine
 62
7
  6
CONTINUOUS
 10
11.3820817153
 20
14.937838138
 11
11.1625667326
 21
14.937838138
  0
LINE
  5
37A
100
AcDbEntity
  8
0
100
AcDbLine
 62
9
  6
CONTINUOUS
 10
11.1867638939
 20
14.9542368083
 11
10.533324773
 21
14.9542368083
  0
LINE
  5
37B
100
AcDbEntity
  8
0
100
AcDbLine
 62
9
  6
CONTINUOUS
 10
11.1838703267
 20
14.963015361
 11
11.355109956
 21
14.963015361
  0
LINE
  5
37C
100
AcDbEntity
  8
0
100
AcDbLine
 62
7
  6
CONTINUOUS
 10
13.4666576223
 20
14.970838138
 11
13.4766576223
 21
14.970838138
  0
LINE
  5
37D
100
AcDbEntity
  8
0
100
AcDbLine
 62
9
  6
CONTINUOUS
 10
10.615258952
 20
15.0361714713
 11
11.1326458667
 21
15.0361714713
  0
LINE
  5
37E
100
AcDbEntity
  8
0
100
AcDbLine
 62
9
  6
CONTINUOUS
 10
11.2857282334
 20
15.045104618
 11
11.1263908101
 21
15.045104618
  0
LINE
  5
37F
100
AcDbEntity
  8
0
100
AcDbLine
 62
7
  6
CONTINUOUS
 10
11.1218289231
 20
15.052838138
 11
10.6349795301
 21
15.052838138
  0
LINE
  5
380
100
AcDbEntity
  8
0
100
AcDbLine
 62
7
  6
CONTINUOUS
 10
8.2152928342
 20
19.9949074469
 11
8.2234463249
 21
19.9867539562
  0
LINE
  5
381
100
AcDbEntity
  8
0
100
AcDbLine
 62
7
  6
CONTINUOUS
 10
8.215293112
 20
20.0499087881
 11
8.2234463249
 21
20.0417555752
  0
LINE
  5
382
100
AcDbEntity
  8
0
100
AcDbLine
 62
7
  6
CONTINUOUS
 10
8.1737459437
 20
20.2332589478
 11
8.1818994613
 21
20.2251054302
  0
LINE
  5
383
100
AcDbEntity
  8
0
100
AcDbLine
 62
7
  6
CONTINUOUS
 10
8.215293112
 20
20.2111653756
 11
8.2234463251
 21
20.2030121625
  0
LINE
  5
384
100
AcDbEntity
  8
0
100
AcDbLine
 62
7
  6
CONTINUOUS
 10
13.1866576223
 20
15.5135653214
 11
13.1540075617
 21
15.5135653214
  0
LINE
  5
385
100
AcDbEntity
  8
0
100
AcDbLine
 62
7
  6
CONTINUOUS
 10
13.1540075617
 20
15.5281109546
 11
13.1866576223
 21
15.5281109546
  0
LINE
  5
386
100
AcDbEntity
  8
0
100
AcDbLine
 62
7
  6
CONTINUOUS
 10
13.4666576223
 20
16.070838138
 11
13.4766576223
 21
16.070838138
  0
LINE
  5
387
100
AcDbEntity
  8
0
100
AcDbLine
 62
7
  6
CONTINUOUS
 10
13.1866576223
 20
16.1060653214
 11
13.1540075617
 21
16.1060653214
  0
LINE
  5
388
100
AcDbEntity
  8
0
100
AcDbLine
 62
7
  6
CONTINUOUS
 10
12.9886481053
 20
16.113338138
 11
13.1866576223
 21
16.113338138
  0
LINE
  5
389
100
AcDbEntity
  8
0
100
AcDbLine
 62
7
  6
CONTINUOUS
 10
8.1737459437
 20
20.3278238077
 11
8.1818994613
 21
20.3196702901
  0
LINE
  5
38A
100
AcDbEntity
  8
0
100
AcDbLine
 62
7
  6
CONTINUOUS
 10
8.215293112
 20
20.4676875617
 11
8.2234463249
 21
20.4595343488
  0
LINE
  5
38B
100
AcDbEntity
  8
0
100
AcDbLine
 62
7
  6
CONTINUOUS
 10
8.1737459437
 20
20.5105090885
 11
8.1818994613
 21
20.5023555709
  0
LINE
  5
38C
100
AcDbEntity
  8
0
100
AcDbLine
 62
7
  6
CONTINUOUS
 10
8.0550029914
 20
20.7750299365
 11
8.0677692496
 21
20.7622636783
  0
LINE
  5
38D
100
AcDbEntity
  8
0
100
AcDbLine
 62
7
  6
CONTINUOUS
 10
8.0550029914
 20
20.8769416693
 11
8.0677692496
 21
20.8641754112
  0
LINE
  5
38E
100
AcDbEntity
  8
0
100
AcDbLine
 62
7
  6
CONTINUOUS
 10
8.1737459437
 20
20.7688650903
 11
8.1818994613
 21
20.7607115727
  0
LINE
  5
38F
100
AcDbEntity
  8
0
100
AcDbLine
 62
7
  6
CONTINUOUS
 10
8.215293112
 20
20.8019937833
 11
8.2234463249
 21
20.7938405704
  0
LINE
  5
390
100
AcDbEntity
  8
0
100
AcDbLine
 62
7
  6
CONTINUOUS
 10
7.9521467152
 20
21.0933866334
 11
7.9602999364
 21
21.0852334122
  0
LINE
  5
391
100
AcDbEntity
  8
0
100
AcDbLine
 62
7
  6
CONTINUOUS
 10
8.0550029914
 20
21.023187387
 11
8.0677692496
 21
21.0104211289
  0
LINE
  5
392
100
AcDbEntity
  8
0
100
AcDbLine
 62
7
  6
CONTINUOUS
 10
7.9521467152
 20
21.2719220143
 11
7.9602999347
 21
21.2637687947
  0
LINE
  5
393
100
AcDbEntity
  8
0
100
AcDbLine
 62
7
  6
CONTINUOUS
 10
8.1737459437
 20
21.0852852786
 11
8.1818994613
 21
21.077131761
  0
LINE
  5
394
100
AcDbEntity
  8
0
100
AcDbLine
 62
7
  6
CONTINUOUS
 10
8.215293112
 20
21.1913016239
 11
8.2234463249
 21
21.1831484109
  0
LINE
  5
395
100
AcDbEntity
  8
0
100
AcDbLine
 62
7
  6
CONTINUOUS
 10
7.9521467152
 20
21.6168258848
 11
7.9602999364
 21
21.6086726636
  0
LINE
  5
396
100
AcDbEntity
  8
0
100
AcDbLine
 62
7
  6
CONTINUOUS
 10
8.1737459437
 20
21.4382061403
 11
8.1818994613
 21
21.4300526227
  0
LINE
  5
397
100
AcDbEntity
  8
0
100
AcDbLine
 62
7
  6
CONTINUOUS
 10
8.0550029914
 20
21.6626955374
 11
8.0677692496
 21
21.6499292792
  0
LINE
  5
398
100
AcDbEntity
  8
0
100
AcDbLine
 62
7
  6
CONTINUOUS
 10
8.215293112
 20
21.6090803975
 11
8.2234463249
 21
21.6009271845
  0
LINE
  5
399
100
AcDbEntity
  8
0
100
AcDbLine
 62
7
  6
CONTINUOUS
 10
11.7417007371
 20
18.8878382349
 11
11.8856473965
 21
18.7100789145
  0
LINE
  5
39A
100
AcDbEntity
  8
0
100
AcDbLine
 62
7
  6
CONTINUOUS
 10
13.4366576223
 20
16.520838138
 11
13.4666576223
 21
16.520838138
  0
LWPOLYLINE
  5
39B
100
AcDbEntity
  8
0
100
AcDbPolyline
 62
7
  6
CONTINUOUS
 90
4
 70
0
 10
8.1072815101
 20
20.7575058558
 10
8.1106515346
 20
20.7548516584
 10
8.1119554434
 20
20.7529452059
 10
8.1122097375
 20
20.752399365
  0
LINE
  5
39C
100
AcDbEntity
  8
0
100
AcDbLine
 62
7
  6
CONTINUOUS
 10
7.9521467152
 20
21.9260582354
 11
7.9602999347
 21
21.9179050159
  0
LINE
  5
39D
100
AcDbEntity
  8
0
100
AcDbLine
 62
7
  6
CONTINUOUS
 10
8.0550029914
 20
21.8803769161
 11
8.0677692496
 21
21.8676106579
  0
LINE
  5
39E
100
AcDbEntity
  8
0
100
AcDbLine
 62
7
  6
CONTINUOUS
 10
8.1737459437
 20
21.8035767019
 11
8.1818994613
 21
21.7954231843
  0
LINE
  5
39F
100
AcDbEntity
  8
0
100
AcDbLine
 62
7
  6
CONTINUOUS
 10
8.0550029914
 20
22.0827796491
 11
8.0677692496
 21
22.0700133909
  0
LINE
  5
3A0
100
AcDbEntity
  8
0
100
AcDbLine
 62
7
  6
CONTINUOUS
 10
8.215293112
 20
22.0268591711
 11
8.2234463249
 21
22.0187059581
  0
LINE
  5
3A1
100
AcDbEntity
  8
0
100
AcDbLine
 62
7
  6
CONTINUOUS
 10
8.1737459437
 20
22.1564975636
 11
8.1818994613
 21
22.1483440461
  0
LINE
  5
3A2
100
AcDbEntity
  8
0
100
AcDbLine
 62
7
  6
CONTINUOUS
 10
8.0550029914
 20
22.4957764238
 11
8.0677692496
 21
22.4830101656
  0
LINE
  5
3A3
100
AcDbEntity
  8
0
100
AcDbLine
 62
7
  6
CONTINUOUS
 10
8.215293112
 20
22.4161670116
 11
8.2234466737
 21
22.40801345
  0
LINE
  5
3A4
100
AcDbEntity
  8
0
100
AcDbLine
 62
7
  6
CONTINUOUS
 10
8.1737459437
 20
22.4729177519
 11
8.1818994613
 21
22.4647642343
  0
LINE
  5
3A5
100
AcDbEntity
  8
0
100
AcDbLine
 62
7
  6
CONTINUOUS
 10
8.1737459437
 20
22.7312737537
 11
8.1818994613
 21
22.7231202361
  0
LINE
  5
3A6
100
AcDbEntity
  8
0
100
AcDbLine
 62
7
  6
CONTINUOUS
 10
8.215293112
 20
22.7504732332
 11
8.2234463249
 21
22.7423200203
  0
LINE
  5
3A7
100
AcDbEntity
  8
0
100
AcDbLine
 62
7
  6
CONTINUOUS
 10
8.1737459437
 20
22.9139590345
 11
8.1818994613
 21
22.9058055169
  0
LINE
  5
3A8
100
AcDbEntity
  8
0
100
AcDbLine
 62
7
  6
CONTINUOUS
 10
8.215293112
 20
23.0069954193
 11
8.2234463249
 21
22.9988422064
  0
LINE
  5
3A9
100
AcDbEntity
  8
0
100
AcDbLine
 62
7
  6
CONTINUOUS
 10
8.215293112
 20
23.1682520068
 11
8.2234463249
 21
23.1600987939
  0
LINE
  5
3AA
100
AcDbEntity
  8
0
100
AcDbLine
 62
9
  6
CONTINUOUS
 10
10.8107649287
 20
18.4726901888
 11
11.8925503158
 21
18.4726901888
  0
LINE
  5
3AB
100
AcDbEntity
  8
0
100
AcDbLine
 62
9
  6
CONTINUOUS
 10
10.7543946495
 20
18.5379022024
 11
11.9489205951
 21
18.5379022024
  0
LINE
  5
3AC
100
AcDbEntity
  8
0
100
AcDbLine
 62
9
  6
CONTINUOUS
 10
10.7166576223
 20
18.577838138
 11
11.9866576223
 21
18.577838138
  0
LINE
  5
3AD
100
AcDbEntity
  8
0
100
AcDbLine
 62
9
  6
CONTINUOUS
 10
11.9866576223
 20
18.647838138
 11
10.7166576223
 21
18.647838138
  0
LINE
  5
3AE
100
AcDbEntity
  8
0
100
AcDbLine
 62
7
  6
CONTINUOUS
 10
11.9466576223
 20
18.687838138
 11
10.7566576223
 21
18.687838138
  0
LINE
  5
3AF
100
AcDbEntity
  8
0
100
AcDbLine
 62
9
  6
CONTINUOUS
 10
10.817667848
 20
18.7100789145
 11
11.8856473965
 21
18.7100789145
  0
LINE
  5
3B0
100
AcDbEntity
  8
0
100
AcDbLine
 62
7
  6
CONTINUOUS
 10
11.7417007371
 20
18.8878382349
 11
10.9616145074
 21
18.8878382349
  0
LINE
  5
3B1
100
AcDbEntity
  8
0
100
AcDbLine
 62
9
  6
CONTINUOUS
 10
10.9766576223
 20
18.9275733388
 11
11.7266576223
 21
18.9275733388
  0
LINE
  5
3B2
100
AcDbEntity
  8
0
100
AcDbLine
 62
7
  6
CONTINUOUS
 10
8.8354471971
 20
19.772838138
 11
9.0184960246
 21
19.772838138
  0
LINE
  5
3B3
100
AcDbEntity
  8
0
100
AcDbLine
 62
7
  6
CONTINUOUS
 10
8.2373663471
 20
19.9809877443
 11
8.2722861637
 21
19.9809877443
  0
LINE
  5
3B4
100
AcDbEntity
  8
0
100
AcDbLine
 62
7
  6
CONTINUOUS
 10
8.2722861637
 20
20.0359893633
 11
8.2373663471
 21
20.0359893633
  0
LINE
  5
3B5
100
AcDbEntity
  8
0
100
AcDbLine
 62
7
  6
CONTINUOUS
 10
9.2070799213
 20
20.057838138
 11
9.2410683538
 21
20.057838138
  0
LINE
  5
3B6
100
AcDbEntity
  8
0
100
AcDbLine
 62
7
  6
CONTINUOUS
 10
8.2722861637
 20
20.1972459508
 11
8.2373663471
 21
20.1972459508
  0
LINE
  5
3B7
100
AcDbEntity
  8
0
100
AcDbLine
 62
7
  6
CONTINUOUS
 10
8.1019424897
 20
20.7588040995
 11
8.1072815101
 21
20.7575058558
  0
LINE
  5
3B8
100
AcDbEntity
  8
0
100
AcDbLine
 62
7
  6
CONTINUOUS
 10
7.9790184994
 20
21.0158606238
 11
8.0564560428
 21
20.9876756629
  0
LINE
  5
3B9
100
AcDbEntity
  8
0
100
AcDbLine
 62
7
  6
CONTINUOUS
 10
8.2106702482
 20
20.219339523
 11
8.1958191788
 21
20.219339523
  0
LINE
  5
3BA
100
AcDbEntity
  8
0
100
AcDbLine
 62
7
  6
CONTINUOUS
 10
8.2095274975
 20
20.3139043829
 11
8.1958191788
 21
20.3139043829
  0
LINE
  5
3BB
100
AcDbEntity
  8
0
100
AcDbLine
 62
7
  6
CONTINUOUS
 10
8.259338499
 20
20.3626002815
 11
8.2373663471
 21
20.3626002815
  0
LINE
  5
3BC
100
AcDbEntity
  8
0
100
AcDbLine
 62
7
  6
CONTINUOUS
 10
8.2722861637
 20
20.4537681369
 11
8.2373663471
 21
20.4537681369
  0
LINE
  5
3BD
100
AcDbEntity
  8
0
100
AcDbLine
 62
7
  6
CONTINUOUS
 10
8.2163004554
 20
20.4556366663
 11
8.1958191788
 21
20.4556366663
  0
LINE
  5
3BE
100
AcDbEntity
  8
0
100
AcDbLine
 62
7
  6
CONTINUOUS
 10
8.2095274975
 20
20.4965896637
 11
8.1958191788
 21
20.4965896637
  0
LINE
  5
3BF
100
AcDbEntity
  8
0
100
AcDbLine
 62
7
  6
CONTINUOUS
 10
8.1475731172
 20
20.5164208152
 11
8.1407996267
 21
20.5164208152
  0
LINE
  5
3C0
100
AcDbEntity
  8
0
100
AcDbLine
 62
7
  6
CONTINUOUS
 10
8.2623881684
 20
20.6191224676
 11
8.2373663471
 21
20.6191224676
  0
LINE
  5
3C1
100
AcDbEntity
  8
0
100
AcDbLine
 62
7
  6
CONTINUOUS
 10
8.2181504158
 20
20.6383219472
 11
8.1958191788
 21
20.6383219472
  0
LINE
  5
3C2
100
AcDbEntity
  8
0
100
AcDbLine
 62
7
  6
CONTINUOUS
 10
8.2380539107
 20
20.7549456655
 11
8.1958191788
 21
20.7549456655
  0
LINE
  5
3C3
100
AcDbEntity
  8
0
100
AcDbLine
 62
7
  6
CONTINUOUS
 10
8.1019403705
 20
20.7588042658
 11
8.0761209482
 21
20.7588042658
  0
LINE
  5
3C4
100
AcDbEntity
  8
0
100
AcDbLine
 62
7
  6
CONTINUOUS
 10
8.2722861637
 20
20.7880743585
 11
8.2373663471
 21
20.7880743585
  0
LINE
  5
3C5
100
AcDbEntity
  8
0
100
AcDbLine
 62
7
  6
CONTINUOUS
 10
8.1007568145
 20
20.8607159987
 11
8.0761209482
 21
20.8607159987
  0
LINE
  5
3C6
100
AcDbEntity
  8
0
100
AcDbLine
 62
7
  6
CONTINUOUS
 10
8.2095274975
 20
20.896677949
 11
8.1958191788
 21
20.896677949
  0
LINE
  5
3C7
100
AcDbEntity
  8
0
100
AcDbLine
 62
7
  6
CONTINUOUS
 10
8.2663645745
 20
20.9534286892
 11
8.2373663471
 21
20.9534286892
  0
LINE
  5
3C8
100
AcDbEntity
  8
0
100
AcDbLine
 62
7
  6
CONTINUOUS
 10
8.0834318796
 20
21.0024482822
 11
8.0761209482
 21
21.0024482822
  0
LINE
  5
3C9
100
AcDbEntity
  8
0
100
AcDbLine
 62
7
  6
CONTINUOUS
 10
8.0990631481
 20
21.0069617262
 11
8.0761209482
 21
21.0069617164
  0
LINE
  5
3CA
100
AcDbEntity
  8
0
100
AcDbLine
 62
9
  6
CONTINUOUS
 10
11.7266576223
 20
21.052838138
 11
10.9766576223
 21
21.052838138
  0
LINE
  5
3CB
100
AcDbEntity
  8
0
100
AcDbLine
 62
7
  6
CONTINUOUS
 10
8.2348408292
 20
21.0713658537
 11
8.1958191788
 21
21.0713658537
  0
LINE
  5
3CC
100
AcDbEntity
  8
0
100
AcDbLine
 62
7
  6
CONTINUOUS
 10
8.0851264984
 20
21.1486939999
 11
8.0761209482
 21
21.1486939999
  0
LINE
  5
3CD
100
AcDbEntity
  8
0
100
AcDbLine
 62
7
  6
CONTINUOUS
 10
8.2722861637
 20
21.1773821991
 11
8.2373663471
 21
21.1773821991
  0
LINE
  5
3CE
100
AcDbEntity
  8
0
100
AcDbLine
 62
7
  6
CONTINUOUS
 10
9.9972015941
 20
21.193838138
 11
9.9772015941
 21
21.193838138
  0
LWPOLYLINE
  5
3CF
100
AcDbEntity
  8
0
100
AcDbPolyline
 62
7
  6
CONTINUOUS
 90
5
 70
0
 10
8.1007547026
 20
20.8607181547
 10
8.1012572823
 20
20.8607073164
 10
8.1059824216
 20
20.8594398163
 10
8.1090246875
 20
20.8570734056
 10
8.1099584057
 20
20.8558054993
  0
LWPOLYLINE
  5
3D0
100
AcDbEntity
  8
0
100
AcDbPolyline
 62
7
  6
CONTINUOUS
 90
5
 70
0
 10
8.0990609964
 20
21.0069637869
 10
8.0997418391
 20
21.006943039
 10
8.1044250282
 20
21.005560781
 10
8.107090536
 20
21.0033628219
 10
8.1076606617
 20
21.0025646198
  0
LWPOLYLINE
  5
3D1
100
AcDbEntity
  8
0
100
AcDbPolyline
 62
7
  6
CONTINUOUS
 90
4
 70
0
 10
8.0916467864
 20
21.6464722937
 10
8.095015277
 20
21.6459083662
 10
8.098568707
 20
21.6437630634
 10
8.0995527977
 20
21.6425935986
  0
LWPOLYLINE
  5
3D2
100
AcDbEntity
  8
0
100
AcDbPolyline
 62
7
  6
CONTINUOUS
 90
4
 70
0
 10
8.0867526545
 20
22.0665536572
 10
8.091291614
 20
22.0655561727
 10
8.094553503
 20
22.0631684357
 10
8.0954699835
 20
22.0619461753
  0
LWPOLYLINE
  5
3D3
100
AcDbEntity
  8
0
100
AcDbPolyline
 62
7
  6
CONTINUOUS
 90
4
 70
0
 10
8.0891040955
 20
21.8641509503
 10
8.0940599904
 20
21.8629122594
 10
8.0968227234
 20
21.8606861809
 10
8.0974269011
 20
21.8598331561
  0
LINE
  5
3D4
100
AcDbEntity
  8
0
100
AcDbLine
 62
7
  6
CONTINUOUS
 10
8.0916497096
 20
21.6464699476
 11
8.091633875
 21
21.6464698667
  0
LINE
  5
3D5
100
AcDbEntity
  8
0
100
AcDbLine
 62
7
  6
CONTINUOUS
 10
8.2095274975
 20
21.2130981372
 11
8.1958191788
 21
21.2130981372
  0
LINE
  5
3D6
100
AcDbEntity
  8
0
100
AcDbLine
 62
7
  6
CONTINUOUS
 10
10.2713789883
 20
21.302838138
 11
10.7266576223
 21
21.302838138
  0
LINE
  5
3D7
100
AcDbEntity
  8
0
100
AcDbLine
 62
7
  6
CONTINUOUS
 10
8.2709980937
 20
21.3427365298
 11
8.2373663471
 21
21.3427365298
  0
LINE
  5
3D8
100
AcDbEntity
  8
0
100
AcDbLine
 62
7
  6
CONTINUOUS
 10
8.2312588241
 20
21.4242867154
 11
8.1958191788
 21
21.4242867154
  0
LINE
  5
3D9
100
AcDbEntity
  8
0
100
AcDbLine
 62
7
  6
CONTINUOUS
 10
8.2275524086
 20
21.5660189989
 11
8.1958191788
 21
21.5660189989
  0
LINE
  5
3DA
100
AcDbEntity
  8
0
100
AcDbLine
 62
7
  6
CONTINUOUS
 10
8.2722861637
 20
21.5951609726
 11
8.2373663471
 21
21.5951609726
  0
LINE
  5
3DB
100
AcDbEntity
  8
0
100
AcDbLine
 62
7
  6
CONTINUOUS
 10
8.091633875
 20
21.6464698667
 11
8.0761209482
 21
21.6464698667
  0
LINE
  5
3DC
100
AcDbEntity
  8
0
100
AcDbLine
 62
7
  6
CONTINUOUS
 10
8.2722861637
 20
21.7605153034
 11
8.2373663471
 21
21.7605153034
  0
LINE
  5
3DD
100
AcDbEntity
  8
0
100
AcDbLine
 62
7
  6
CONTINUOUS
 10
8.0925447051
 20
21.7882021502
 11
8.0761209482
 21
21.7882021502
  0
LINE
  5
3DE
100
AcDbEntity
  8
0
100
AcDbLine
 62
7
  6
CONTINUOUS
 10
8.2275524082
 20
21.7896572771
 11
8.1958191788
 21
21.7896572771
  0
LINE
  5
3DF
100
AcDbEntity
  8
0
100
AcDbLine
 62
7
  6
CONTINUOUS
 10
8.0891069525
 20
21.8641512454
 11
8.0761209482
 21
21.8641512454
  0
LINE
  5
3E0
100
AcDbEntity
  8
0
100
AcDbLine
 62
7
  6
CONTINUOUS
 10
8.2312588238
 20
21.9313895606
 11
8.1958191788
 21
21.9313895606
  0
LINE
  5
3E1
100
AcDbEntity
  8
0
100
AcDbLine
 62
7
  6
CONTINUOUS
 10
8.2709980819
 20
22.0129397462
 11
8.2373663471
 21
22.0129397462
  0
LINE
  5
3E2
100
AcDbEntity
  8
0
100
AcDbLine
 62
7
  6
CONTINUOUS
 10
10.2713789078
 20
22.052838138
 11
10.7266576223
 21
22.052838138
  0
LINE
  5
3E3
100
AcDbEntity
  8
0
100
AcDbLine
 62
7
  6
CONTINUOUS
 10
8.0867573267
 20
22.0665539785
 11
8.0761209482
 21
22.0665539785
  0
LINE
  5
3E4
100
AcDbEntity
  8
0
100
AcDbLine
 62
7
  6
CONTINUOUS
 10
8.2095274975
 20
22.1425781388
 11
8.1958191788
 21
22.1425781388
  0
LINE
  5
3E5
100
AcDbEntity
  8
0
100
AcDbLine
 62
7
  6
CONTINUOUS
 10
9.9972015941
 20
22.161838138
 11
9.9772015941
 21
22.161838138
  0
LINE
  5
3E6
100
AcDbEntity
  8
0
100
AcDbLine
 62
7
  6
CONTINUOUS
 10
8.2722861637
 20
22.1782940769
 11
8.2373663471
 21
22.1782940769
  0
LINE
  5
3E7
100
AcDbEntity
  8
0
100
AcDbLine
 62
7
  6
CONTINUOUS
 10
8.0974249619
 20
22.2082862619
 11
8.0761209482
 21
22.2082862619
  0
LINE
  5
3E8
100
AcDbEntity
  8
0
100
AcDbLine
 62
7
  6
CONTINUOUS
 10
8.0761209482
 20
22.0058835289
 11
8.0950799052
 21
22.0058835112
  0
LWPOLYLINE
  5
3E9
100
AcDbEntity
  8
0
100
AcDbPolyline
 62
7
  6
CONTINUOUS
 90
7
 70
0
 10
8.081968063
 20
22.4795502783
 10
8.0848679394
 20
22.4791857182
 10
8.0888550439
 20
22.4773124385
 10
8.0915732298
 20
22.4745315363
 10
8.0929264842
 20
22.4718964701
 10
8.093359716
 20
22.4702477282
 10
8.0934001194
 20
22.4699726527
  0
LINE
  5
3EA
100
AcDbEntity
  8
0
100
AcDbLine
 62
7
  6
CONTINUOUS
 10
10.2266575179
 20
22.0728381719
 11
10.0936128986
 21
22.1160669892
  0
LWPOLYLINE
  5
3EB
100
AcDbEntity
  8
0
100
AcDbPolyline
 62
7
  6
CONTINUOUS
 90
3
 70
0
 10
8.1075484754
 20
22.6225624611
 10
8.1029023508
 20
22.6213015878
 10
8.102224738
 20
22.6212823918
  0
LINE
  5
3EC
100
AcDbEntity
  8
0
100
AcDbLine
 62
7
  6
CONTINUOUS
 10
8.1052273588
 20
22.6542015207
 11
8.1026037483
 21
22.653906289
  0
LINE
  5
3ED
100
AcDbEntity
  8
0
100
AcDbLine
 62
7
  6
CONTINUOUS
 10
8.2348408284
 20
22.2843104223
 11
8.1958191788
 21
22.2843104223
  0
LINE
  5
3EE
100
AcDbEntity
  8
0
100
AcDbLine
 62
7
  6
CONTINUOUS
 10
8.2663645779
 20
22.4022475868
 11
8.2373663471
 21
22.4022475868
  0
LINE
  5
3EF
100
AcDbEntity
  8
0
100
AcDbLine
 62
7
  6
CONTINUOUS
 10
8.2095274975
 20
22.458998327
 11
8.1958191788
 21
22.458998327
  0
LINE
  5
3F0
100
AcDbEntity
  8
0
100
AcDbLine
 62
7
  6
CONTINUOUS
 10
8.0819681138
 20
22.4795507531
 11
8.0761209482
 21
22.4795507531
  0
LINE
  5
3F1
100
AcDbEntity
  8
0
100
AcDbLine
 62
7
  6
CONTINUOUS
 10
8.2722861637
 20
22.5676019175
 11
8.2373663471
 21
22.5676019175
  0
LINE
  5
3F2
100
AcDbEntity
  8
0
100
AcDbLine
 62
7
  6
CONTINUOUS
 10
8.2380538944
 20
22.6007306105
 11
8.1958191788
 21
22.6007306105
  0
LINE
  5
3F3
100
AcDbEntity
  8
0
100
AcDbLine
 62
7
  6
CONTINUOUS
 10
8.1022240198
 20
22.6212830366
 11
8.0761209482
 21
22.6212830366
  0
LINE
  5
3F4
100
AcDbEntity
  8
0
100
AcDbLine
 62
7
  6
CONTINUOUS
 10
8.1026027918
 20
22.6539057945
 11
8.0761209482
 21
22.6539057945
  0
LINE
  5
3F5
100
AcDbEntity
  8
0
100
AcDbLine
 62
7
  6
CONTINUOUS
 10
8.2181504443
 20
22.7173543288
 11
8.1958191788
 21
22.7173543288
  0
LINE
  5
3F6
100
AcDbEntity
  8
0
100
AcDbLine
 62
7
  6
CONTINUOUS
 10
8.2623881685
 20
22.7365538084
 11
8.2373663471
 21
22.7365538084
  0
LINE
  5
3F7
100
AcDbEntity
  8
0
100
AcDbLine
 62
7
  6
CONTINUOUS
 10
8.1475731172
 20
22.8392554608
 11
8.1407996267
 21
22.8392554608
  0
LINE
  5
3F8
100
AcDbEntity
  8
0
100
AcDbLine
 62
7
  6
CONTINUOUS
 10
8.2095274975
 20
22.8590866123
 11
8.1958191788
 21
22.8590866123
  0
LINE
  5
3F9
100
AcDbEntity
  8
0
100
AcDbLine
 62
7
  6
CONTINUOUS
 10
8.2163004561
 20
22.9000396097
 11
8.1958191788
 21
22.9000396097
  0
LINE
  5
3FA
100
AcDbEntity
  8
0
100
AcDbLine
 62
7
  6
CONTINUOUS
 10
8.2722861637
 20
22.9019081391
 11
8.2373663471
 21
22.9019081391
  0
LINE
  5
3FB
100
AcDbEntity
  8
0
100
AcDbLine
 62
7
  6
CONTINUOUS
 10
8.2593385068
 20
22.9930759945
 11
8.2373663471
 21
22.9930759945
  0
LINE
  5
3FC
100
AcDbEntity
  8
0
100
AcDbLine
 62
7
  6
CONTINUOUS
 10
8.2095274975
 20
23.0417718931
 11
8.1958191788
 21
23.0417718931
  0
LINE
  5
3FD
100
AcDbEntity
  8
0
100
AcDbLine
 62
7
  6
CONTINUOUS
 10
8.2106702482
 20
23.136336753
 11
8.1958191788
 21
23.136336753
  0
LINE
  5
3FE
100
AcDbEntity
  8
0
100
AcDbLine
 62
7
  6
CONTINUOUS
 10
8.2722861637
 20
23.1584303252
 11
8.2373663471
 21
23.1584303252
  0
LINE
  5
3FF
100
AcDbEntity
  8
0
100
AcDbLine
 62
7
  6
CONTINUOUS
 10
9.2070799213
 20
23.297838138
 11
9.2410683538
 21
23.297838138
  0
LINE
  5
400
100
AcDbEntity
  8
0
100
AcDbLine
 62
7
  6
CONTINUOUS
 10
8.2722861637
 20
23.3196869127
 11
8.2373663471
 21
23.3196869127
  0
LINE
  5
401
100
AcDbEntity
  8
0
100
AcDbLine
 62
7
  6
CONTINUOUS
 10
8.2373663471
 20
23.3746885317
 11
8.2722861637
 21
23.3746885317
  0
LINE
  5
402
100
AcDbEntity
  8
0
100
AcDbLine
 62
7
  6
CONTINUOUS
 10
8.8354471971
 20
23.582838138
 11
9.0184960246
 21
23.582838138
  0
ARC
  5
403
100
AcDbEntity
  8
0
100
AcDbCircle
 62
7
  6
CONTINUOUS
 10
-4.2689704068
 20
8.8299688455
 40
15.9006280291
100
AcDbArc
 50
359.5667788026
 51
0.0001016028
  0
ARC
  5
404
100
AcDbEntity
  8
0
100
AcDbCircle
 62
7
  6
CONTINUOUS
 10
-4.2689761721
 20
8.8299688638
 40
15.3406337944
100
AcDbArc
 50
359.5667991613
 51
0.0001052433
  0
ARC
  5
405
100
AcDbEntity
  8
0
100
AcDbCircle
 62
9
  6
CONTINUOUS
 10
7.5585412377
 20
-4.9057409732
 40
5.0443896653
100
AcDbArc
 50
354.607618576
 51
355.2175488214
  0
ARC
  5
406
100
AcDbEntity
  8
0
100
AcDbCircle
 62
7
  6
CONTINUOUS
 10
-8.203343
 20
16.687838138
 40
20.175
100
AcDbArc
 50
358.9518438983
 51
5.0755073159
  0
ARC
  5
407
100
AcDbEntity
  8
0
100
AcDbCircle
 62
9
  6
CONTINUOUS
 10
-0.7152165258
 20
23.7318097485
 40
8.8939142077
100
AcDbArc
 50
352.8728504377
 51
353.0307169926
  0
ARC
  5
408
100
AcDbEntity
  8
0
100
AcDbCircle
 62
7
  6
CONTINUOUS
 10
11.3514169904
 20
11.5819351223
 40
2.9526966288
100
AcDbArc
 50
87.6582700712
 51
89.9953306451
  0
ARC
  5
409
100
AcDbEntity
  8
0
100
AcDbCircle
 62
7
  6
CONTINUOUS
 10
10.0916576223
 20
13.942838138
 40
0.275
100
AcDbArc
 50
55.0
 51
305.0
  0
ARC
  5
40A
100
AcDbEntity
  8
0
100
AcDbCircle
 62
7
  6
CONTINUOUS
 10
10.9901576223
 20
13.155462179
 40
0.25
100
AcDbArc
 50
313.0260516848
 51
45.6300695472
  0
ARC
  5
40B
100
AcDbEntity
  8
0
100
AcDbCircle
 62
7
  6
CONTINUOUS
 10
10.9901576223
 20
14.730214097
 40
0.25
100
AcDbArc
 50
314.3699304528
 51
46.9739483152
  0
ARC
  5
40C
100
AcDbEntity
  8
0
100
AcDbCircle
 62
7
  6
CONTINUOUS
 10
10.5642816633
 20
13.581338138
 40
0.25
100
AcDbArc
 50
44.3699304528
 51
136.9739483152
  0
ARC
  5
40D
100
AcDbEntity
  8
0
100
AcDbCircle
 62
7
  6
CONTINUOUS
 10
10.5642816633
 20
14.304338138
 40
0.25
100
AcDbArc
 50
223.0260516848
 51
315.6300695472
  0
ARC
  5
40E
100
AcDbEntity
  8
0
100
AcDbCircle
 62
7
  6
CONTINUOUS
 10
10.5166576223
 20
15.052838138
 40
0.1
100
AcDbArc
 50
279.5940682269
 51
350.4059317729
  0
ARC
  5
40F
100
AcDbEntity
  8
0
100
AcDbCircle
 62
7
  6
CONTINUOUS
 10
10.5166576223
 20
12.832838138
 40
0.1
100
AcDbArc
 50
9.5940682271
 51
80.4059317731
  0
ARC
  5
410
100
AcDbEntity
  8
0
100
AcDbCircle
 62
7
  6
CONTINUOUS
 10
10.5341576223
 20
14.832838138
 40
0.0625
100
AcDbArc
 50
106.2602047083
 51
253.7397952917
  0
ARC
  5
411
100
AcDbEntity
  8
0
100
AcDbCircle
 62
7
  6
CONTINUOUS
 10
10.5341576223
 20
13.052838138
 40
0.0625
100
AcDbArc
 50
106.2602047083
 51
253.7397952917
  0
ARC
  5
412
100
AcDbEntity
  8
0
100
AcDbCircle
 62
7
  6
CONTINUOUS
 10
11.1866576223
 20
13.3563321619
 40
0.031
100
AcDbArc
 50
180.0
 51
225.630086753
  0
ARC
  5
413
100
AcDbEntity
  8
0
100
AcDbCircle
 62
7
  6
CONTINUOUS
 10
11.1866576223
 20
14.5293441141
 40
0.031
100
AcDbArc
 50
134.369913247
 51
180.0
  0
ARC
  5
414
100
AcDbEntity
  8
0
100
AcDbCircle
 62
7
  6
CONTINUOUS
 10
10.7651516461
 20
13.777838138
 40
0.031
100
AcDbArc
 50
224.3699285546
 51
270.0
  0
ARC
  5
415
100
AcDbEntity
  8
0
100
AcDbCircle
 62
7
  6
CONTINUOUS
 10
10.7651516461
 20
14.107838138
 40
0.031
100
AcDbArc
 50
90.0
 51
135.6300714454
  0
ARC
  5
416
100
AcDbEntity
  8
0
100
AcDbCircle
 62
7
  6
CONTINUOUS
 10
10.5366576223
 20
14.9345165423
 40
0.02
100
AcDbArc
 50
99.5940682269
 51
180.0
  0
ARC
  5
417
100
AcDbEntity
  8
0
100
AcDbCircle
 62
7
  6
CONTINUOUS
 10
10.5366576223
 20
13.152838138
 40
0.02
100
AcDbArc
 50
90.0
 51
180.0
  0
ARC
  5
418
100
AcDbEntity
  8
0
100
AcDbCircle
 62
7
  6
CONTINUOUS
 10
10.5366576223
 20
12.9511597337
 40
0.02
100
AcDbArc
 50
180.0
 51
260.4059317731
  0
ARC
  5
419
100
AcDbEntity
  8
0
100
AcDbCircle
 62
7
  6
CONTINUOUS
 10
10.6349792179
 20
12.852838138
 40
0.02
100
AcDbArc
 50
189.5940682269
 51
270.0
  0
ARC
  5
41A
100
AcDbEntity
  8
0
100
AcDbCircle
 62
7
  6
CONTINUOUS
 10
10.5366576223
 20
14.732838138
 40
0.02
100
AcDbArc
 50
180.0
 51
270.0
  0
ARC
  5
41B
100
AcDbEntity
  8
0
100
AcDbCircle
 62
7
  6
CONTINUOUS
 10
10.6349792179
 20
15.032838138
 40
0.02
100
AcDbArc
 50
90.0
 51
170.4059317731
  0
ARC
  5
41C
100
AcDbEntity
  8
0
100
AcDbCircle
 62
7
  6
CONTINUOUS
 10
11.1707638939
 20
12.931838138
 40
0.016
100
AcDbArc
 50
325.0000000002
 51
90.0
  0
ARC
  5
41D
100
AcDbEntity
  8
0
100
AcDbCircle
 62
7
  6
CONTINUOUS
 10
11.1716576223
 20
12.9610046001
 40
0.016
100
AcDbArc
 50
133.0260516848
 51
235.3765489002
  0
ARC
  5
41E
100
AcDbEntity
  8
0
100
AcDbCircle
 62
7
  6
CONTINUOUS
 10
11.1707638939
 20
14.953838138
 40
0.016
100
AcDbArc
 50
270.0
 51
34.9999999998
  0
ARC
  5
41F
100
AcDbEntity
  8
0
100
AcDbCircle
 62
7
  6
CONTINUOUS
 10
11.1716576223
 20
14.9246716759
 40
0.016
100
AcDbArc
 50
124.6234510998
 51
226.9739483152
  0
ARC
  5
420
100
AcDbEntity
  8
0
100
AcDbCircle
 62
7
  6
CONTINUOUS
 10
10.3406576223
 20
13.7619444097
 40
0.016
100
AcDbArc
 50
0.0
 51
124.9999999998
  0
ARC
  5
421
100
AcDbEntity
  8
0
100
AcDbCircle
 62
7
  6
CONTINUOUS
 10
10.3406576223
 20
14.1237318663
 40
0.016
100
AcDbArc
 50
235.0000000002
 51
360.0
  0
ARC
  5
422
100
AcDbEntity
  8
0
100
AcDbCircle
 62
7
  6
CONTINUOUS
 10
10.3698240844
 20
14.122838138
 40
0.016
100
AcDbArc
 50
43.0260516849
 51
145.3765489001
  0
ARC
  5
423
100
AcDbEntity
  8
0
100
AcDbCircle
 62
7
  6
CONTINUOUS
 10
10.3698240844
 20
13.762838138
 40
0.016
100
AcDbArc
 50
214.6234510999
 51
316.9739483151
  0
ARC
  5
424
100
AcDbEntity
  8
0
100
AcDbCircle
 62
9
  6
CONTINUOUS
 10
6.5338234743
 20
20.6471159908
 40
1.5843450996
100
AcDbArc
 50
7.5483904243
 51
7.7309227285
  0
ARC
  5
425
100
AcDbEntity
  8
0
100
AcDbCircle
 62
7
  6
CONTINUOUS
 10
8.0029029304
 20
20.1056081921
 40
0.2729490031
100
AcDbArc
 50
17.1008470379
 51
17.5006532926
  0
ARC
  5
426
100
AcDbEntity
  8
0
100
AcDbCircle
 62
7
  6
CONTINUOUS
 10
8.7112751387
 20
19.4796223844
 40
0.25
100
AcDbArc
 50
128.3789847991
 51
157.1367765694
  0
ARC
  5
427
100
AcDbEntity
  8
0
100
AcDbCircle
 62
7
  6
CONTINUOUS
 10
8.1119114847
 20
20.2904371718
 40
0.1660972774
100
AcDbArc
 50
20.0354900915
 51
20.2056160357
  0
ARC
  5
428
100
AcDbEntity
  8
0
100
AcDbCircle
 62
7
  6
CONTINUOUS
 10
8.4072015941
 20
19.607838138
 40
0.08
100
AcDbArc
 50
272.2714508417
 51
337.1367765692
  0
ARC
  5
429
100
AcDbEntity
  8
0
100
AcDbCircle
 62
7
  6
CONTINUOUS
 10
8.2292125368
 20
20.008826594
 40
0.0196850394
100
AcDbArc
 50
179.998993262
 51
224.9988567098
  0
ARC
  5
42A
100
AcDbEntity
  8
0
100
AcDbCircle
 62
7
  6
CONTINUOUS
 10
8.2373663471
 20
20.0006727837
 40
0.0196850394
100
AcDbArc
 50
224.9975411857
 51
270.0
  0
ARC
  5
42B
100
AcDbEntity
  8
0
100
AcDbCircle
 62
7
  6
CONTINUOUS
 10
8.2373663471
 20
20.0556744027
 40
0.0196850394
100
AcDbArc
 50
225.0000000002
 51
270.0
  0
ARC
  5
42C
100
AcDbEntity
  8
0
100
AcDbCircle
 62
7
  6
CONTINUOUS
 10
8.2373663471
 20
20.1816586546
 40
0.0196850394
100
AcDbArc
 50
115.4026752971
 51
134.9999999998
  0
ARC
  5
42D
100
AcDbEntity
  8
0
100
AcDbCircle
 62
7
  6
CONTINUOUS
 10
8.2292125368
 20
20.1735048443
 40
0.0196850394
100
AcDbArc
 50
135.0011432896
 51
180.0
  0
ARC
  5
42E
100
AcDbEntity
  8
0
100
AcDbCircle
 62
7
  6
CONTINUOUS
 10
8.2292125368
 20
20.0638282129
 40
0.0196850394
100
AcDbArc
 50
180.0
 51
224.9988567095
  0
ARC
  5
42F
100
AcDbEntity
  8
0
100
AcDbCircle
 62
7
  6
CONTINUOUS
 10
8.2373663471
 20
20.2169309902
 40
0.0196850394
100
AcDbArc
 50
225.0000000002
 51
270.0
  0
ARC
  5
430
100
AcDbEntity
  8
0
100
AcDbCircle
 62
7
  6
CONTINUOUS
 10
8.2373663471
 20
20.3429152421
 40
0.0196850394
100
AcDbArc
 50
90.0
 51
134.9999999997
  0
ARC
  5
431
100
AcDbEntity
  8
0
100
AcDbCircle
 62
7
  6
CONTINUOUS
 10
8.2292125368
 20
20.3347614318
 40
0.0196850394
100
AcDbArc
 50
135.0011432897
 51
180.0
  0
ARC
  5
432
100
AcDbEntity
  8
0
100
AcDbCircle
 62
7
  6
CONTINUOUS
 10
8.2292125368
 20
20.2250848004
 40
0.0196850394
100
AcDbArc
 50
180.0
 51
224.9988567103
  0
ARC
  5
433
100
AcDbEntity
  8
0
100
AcDbCircle
 62
7
  6
CONTINUOUS
 10
8.1876653686
 20
20.3332329568
 40
0.0196850394
100
AcDbArc
 50
167.2907770745
 51
180.0
  0
ARC
  5
434
100
AcDbEntity
  8
0
100
AcDbCircle
 62
7
  6
CONTINUOUS
 10
8.1958191788
 20
20.2390245623
 40
0.0196850394
100
AcDbArc
 50
225.0000000001
 51
270.0
  0
ARC
  5
435
100
AcDbEntity
  8
0
100
AcDbCircle
 62
7
  6
CONTINUOUS
 10
8.1876653686
 20
20.2471783726
 40
0.0196850394
100
AcDbArc
 50
180.0
 51
224.998672795
  0
ARC
  5
436
100
AcDbEntity
  8
0
100
AcDbCircle
 62
7
  6
CONTINUOUS
 10
8.1876653686
 20
20.3417432325
 40
0.0196850394
100
AcDbArc
 50
180.0
 51
224.9986727935
  0
ARC
  5
437
100
AcDbEntity
  8
0
100
AcDbCircle
 62
7
  6
CONTINUOUS
 10
8.1958191788
 20
20.3335894222
 40
0.0196850394
100
AcDbArc
 50
225.0000000004
 51
270.0
  0
ARC
  5
438
100
AcDbEntity
  8
0
100
AcDbCircle
 62
7
  6
CONTINUOUS
 10
7.9966513685
 20
20.7825234981
 40
0.246967532
100
AcDbArc
 50
0.0342742198
 51
1.2588008813
  0
ARC
  5
439
100
AcDbEntity
  8
0
100
AcDbCircle
 62
7
  6
CONTINUOUS
 10
8.0115964784
 20
20.556914486
 40
0.2243095538
100
AcDbArc
 50
15.5086731636
 51
15.9119768458
  0
ARC
  5
43A
100
AcDbEntity
  8
0
100
AcDbCircle
 62
7
  6
CONTINUOUS
 10
8.0807111134
 20
20.7380231037
 40
0.1285161186
100
AcDbArc
 50
173.0424336458
 51
179.9830432091
  0
ARC
  5
43B
100
AcDbEntity
  8
0
100
AcDbCircle
 62
7
  6
CONTINUOUS
 10
8.0633546463
 20
20.7833815914
 40
0.0118110236
100
AcDbArc
 50
180.0
 51
224.9997468355
  0
ARC
  5
43C
100
AcDbEntity
  8
0
100
AcDbCircle
 62
7
  6
CONTINUOUS
 10
8.0761209482
 20
20.7706152895
 40
0.0118110236
100
AcDbArc
 50
225.0
 51
270.0
  0
ARC
  5
43D
100
AcDbEntity
  8
0
100
AcDbCircle
 62
7
  6
CONTINUOUS
 10
7.9311266953
 20
21.1150514948
 40
0.312492167
100
AcDbArc
 50
0.0112215036
 51
0.8821195162
  0
ARC
  5
43E
100
AcDbEntity
  8
0
100
AcDbCircle
 62
7
  6
CONTINUOUS
 10
7.9711520809
 20
21.1286338613
 40
0.2713662439
100
AcDbArc
 50
9.4755185355
 51
10.4351524352
  0
ARC
  5
43F
100
AcDbEntity
  8
0
100
AcDbCircle
 62
7
  6
CONTINUOUS
 10
7.96606614
 20
21.1073060582
 40
0.0196850394
100
AcDbArc
 50
180.0
 51
224.9974348679
  0
ARC
  5
440
100
AcDbEntity
  8
0
100
AcDbCircle
 62
7
  6
CONTINUOUS
 10
7.9463811007
 20
21.0713133983
 40
0.0196850394
100
AcDbArc
 50
0.0039181288
 51
45.0000000001
  0
ARC
  5
441
100
AcDbEntity
  8
0
100
AcDbCircle
 62
7
  6
CONTINUOUS
 10
7.9463811007
 20
21.2498487791
 40
0.0196850394
100
AcDbArc
 50
0.0039289499
 51
45.000000001
  0
ARC
  5
442
100
AcDbEntity
  8
0
100
AcDbCircle
 62
7
  6
CONTINUOUS
 10
7.9857511794
 20
21.03435851
 40
0.0196850394
100
AcDbArc
 50
180.0
 51
249.9999051803
  0
ARC
  5
443
100
AcDbEntity
  8
0
100
AcDbCircle
 62
7
  6
CONTINUOUS
 10
8.0633546463
 20
20.8852933242
 40
0.0118110236
100
AcDbArc
 50
180.0
 51
224.9997468348
  0
ARC
  5
444
100
AcDbEntity
  8
0
100
AcDbCircle
 62
7
  6
CONTINUOUS
 10
8.0761209482
 20
20.8725270223
 40
0.0118110236
100
AcDbArc
 50
225.0
 51
270.0
  0
ARC
  5
445
100
AcDbEntity
  8
0
100
AcDbCircle
 62
7
  6
CONTINUOUS
 10
8.0761209482
 20
20.9906372585
 40
0.0118110236
100
AcDbArc
 50
90.0
 51
135.0
  0
ARC
  5
446
100
AcDbEntity
  8
0
100
AcDbCircle
 62
7
  6
CONTINUOUS
 10
8.0633546463
 20
20.9778709566
 40
0.0118110236
100
AcDbArc
 50
135.0002531649
 51
180.0
  0
ARC
  5
447
100
AcDbEntity
  8
0
100
AcDbCircle
 62
7
  6
CONTINUOUS
 10
8.0633546463
 20
21.0315390419
 40
0.0118110236
100
AcDbArc
 50
180.0
 51
224.999749965
  0
ARC
  5
448
100
AcDbEntity
  8
0
100
AcDbCircle
 62
7
  6
CONTINUOUS
 10
8.0761209482
 20
21.01877274
 40
0.0118110236
100
AcDbArc
 50
225.0000000002
 51
270.0
  0
ARC
  5
449
100
AcDbEntity
  8
0
100
AcDbCircle
 62
7
  6
CONTINUOUS
 10
8.0761209482
 20
21.1368829762
 40
0.0118110236
100
AcDbArc
 50
90.0
 51
134.9999999998
  0
ARC
  5
44A
100
AcDbEntity
  8
0
100
AcDbCircle
 62
7
  6
CONTINUOUS
 10
8.0633546463
 20
21.1241166743
 40
0.0118110236
100
AcDbArc
 50
135.0002500351
 51
180.0
  0
ARC
  5
44B
100
AcDbEntity
  8
0
100
AcDbCircle
 62
7
  6
CONTINUOUS
 10
8.0633546463
 20
20.8759592238
 40
0.0118110236
100
AcDbArc
 50
157.5002563998
 51
180.0
  0
ARC
  5
44C
100
AcDbEntity
  8
0
100
AcDbCircle
 62
7
  6
CONTINUOUS
 10
8.1876653686
 20
20.6104830975
 40
0.0196850394
100
AcDbArc
 50
135.0013272118
 51
180.0
  0
ARC
  5
44D
100
AcDbEntity
  8
0
100
AcDbCircle
 62
7
  6
CONTINUOUS
 10
8.1958191788
 20
20.5162747031
 40
0.0196850394
100
AcDbArc
 50
225.0000000001
 51
270.0
  0
ARC
  5
44E
100
AcDbEntity
  8
0
100
AcDbCircle
 62
7
  6
CONTINUOUS
 10
8.1876653686
 20
20.5244285133
 40
0.0196850394
100
AcDbArc
 50
180.0
 51
224.9986727883
  0
ARC
  5
44F
100
AcDbEntity
  8
0
100
AcDbCircle
 62
7
  6
CONTINUOUS
 10
8.1876653686
 20
20.4277978167
 40
0.0196850394
100
AcDbArc
 50
135.0013272065
 51
180.0
  0
ARC
  5
450
100
AcDbEntity
  8
0
100
AcDbCircle
 62
7
  6
CONTINUOUS
 10
8.1958191788
 20
20.4359516269
 40
0.0196850394
100
AcDbArc
 50
90.0
 51
134.9999999996
  0
ARC
  5
451
100
AcDbEntity
  8
0
100
AcDbCircle
 62
7
  6
CONTINUOUS
 10
8.1706661529
 20
20.4170600473
 40
0.0078740157
100
AcDbArc
 50
190.1468867902
 51
249.6248379632
  0
ARC
  5
452
100
AcDbEntity
  8
0
100
AcDbCircle
 62
7
  6
CONTINUOUS
 10
8.1326124261
 20
20.7381488603
 40
0.1804161275
100
AcDbArc
 50
180.0454016304
 51
194.4391442525
  0
ARC
  5
453
100
AcDbEntity
  8
0
100
AcDbCircle
 62
7
  6
CONTINUOUS
 10
8.1958191788
 20
20.6186369078
 40
0.0196850394
100
AcDbArc
 50
90.0
 51
134.9999999999
  0
ARC
  5
454
100
AcDbEntity
  8
0
100
AcDbCircle
 62
7
  6
CONTINUOUS
 10
8.1876653686
 20
20.7827845152
 40
0.0196850394
100
AcDbArc
 50
180.0
 51
224.9986727949
  0
ARC
  5
455
100
AcDbEntity
  8
0
100
AcDbCircle
 62
7
  6
CONTINUOUS
 10
8.1958191788
 20
20.7746307049
 40
0.0196850394
100
AcDbArc
 50
225.0000000001
 51
270.0
  0
ARC
  5
456
100
AcDbEntity
  8
0
100
AcDbCircle
 62
9
  6
CONTINUOUS
 10
8.265844041
 20
20.5943758177
 40
0.3783732273
100
AcDbArc
 50
124.3398522783
 51
124.8035706247
  0
ARC
  5
457
100
AcDbEntity
  8
0
100
AcDbCircle
 62
9
  6
CONTINUOUS
 10
8.2636511714
 20
20.5975333656
 40
0.374528909
100
AcDbArc
 50
124.8038187408
 51
124.968898393
  0
ARC
  5
458
100
AcDbEntity
  8
0
100
AcDbCircle
 62
7
  6
CONTINUOUS
 10
8.2586481414
 20
20.5816459324
 40
0.3705535286
100
AcDbArc
 50
124.0497122392
 51
124.2862121686
  0
ARC
  5
459
100
AcDbEntity
  8
0
100
AcDbCircle
 62
7
  6
CONTINUOUS
 10
8.2570742968
 20
20.5839552571
 40
0.3677588968
100
AcDbArc
 50
124.2862965703
 51
124.4560829863
  0
ARC
  5
45A
100
AcDbEntity
  8
0
100
AcDbCircle
 62
9
  6
CONTINUOUS
 10
8.259017679
 20
20.6041203904
 40
0.3664754834
100
AcDbArc
 50
124.9654988438
 51
125.8374020376
  0
ARC
  5
45B
100
AcDbEntity
  8
0
100
AcDbCircle
 62
7
  6
CONTINUOUS
 10
8.2552734069
 20
20.5865778041
 40
0.3645775519
100
AcDbArc
 50
124.4558987994
 51
124.7531144934
  0
ARC
  5
45C
100
AcDbEntity
  8
0
100
AcDbCircle
 62
7
  6
CONTINUOUS
 10
8.2524007223
 20
20.5907163048
 40
0.3595397444
100
AcDbArc
 50
124.7529349418
 51
125.2946706609
  0
ARC
  5
45D
100
AcDbEntity
  8
0
100
AcDbCircle
 62
9
  6
CONTINUOUS
 10
8.2532781431
 20
20.6120601833
 40
0.3566784142
100
AcDbArc
 50
125.8367126283
 51
126.4743683484
  0
ARC
  5
45E
100
AcDbEntity
  8
0
100
AcDbCircle
 62
7
  6
CONTINUOUS
 10
8.2373663471
 20
20.4734531762
 40
0.0196850394
100
AcDbArc
 50
225.0000000002
 51
270.0
  0
ARC
  5
45F
100
AcDbEntity
  8
0
100
AcDbCircle
 62
7
  6
CONTINUOUS
 10
8.2373663471
 20
20.5994374282
 40
0.0196850394
100
AcDbArc
 50
90.0
 51
134.9999999998
  0
ARC
  5
460
100
AcDbEntity
  8
0
100
AcDbCircle
 62
7
  6
CONTINUOUS
 10
8.2292125368
 20
20.5912836179
 40
0.0196850394
100
AcDbArc
 50
135.0011432895
 51
180.0
  0
ARC
  5
461
100
AcDbEntity
  8
0
100
AcDbCircle
 62
7
  6
CONTINUOUS
 10
8.2292125368
 20
20.4816069865
 40
0.0196850394
100
AcDbArc
 50
180.0
 51
224.9988567095
  0
ARC
  5
462
100
AcDbEntity
  8
0
100
AcDbCircle
 62
7
  6
CONTINUOUS
 10
8.270777492
 20
20.644396142
 40
0.3599767447
100
AcDbArc
 50
127.6336997219
 51
127.8625776334
  0
ARC
  5
463
100
AcDbEntity
  8
0
100
AcDbCircle
 62
7
  6
CONTINUOUS
 10
8.2685311198
 20
20.6472813816
 40
0.3563201358
100
AcDbArc
 50
127.8621587672
 51
128.3397705631
  0
ARC
  5
464
100
AcDbEntity
  8
0
100
AcDbCircle
 62
7
  6
CONTINUOUS
 10
8.2646444444
 20
20.6521861153
 40
0.3500621311
100
AcDbArc
 50
128.3387924395
 51
128.9974508239
  0
ARC
  5
465
100
AcDbEntity
  8
0
100
AcDbCircle
 62
7
  6
CONTINUOUS
 10
8.262046816
 20
20.6553971267
 40
0.345931966
100
AcDbArc
 50
128.9977547174
 51
129.2959481297
  0
ARC
  5
466
100
AcDbEntity
  8
0
100
AcDbCircle
 62
9
  6
CONTINUOUS
 10
8.2076433296
 20
20.6352547077
 40
0.202300493
100
AcDbArc
 50
137.7740233073
 51
138.156171543
  0
ARC
  5
467
100
AcDbEntity
  8
0
100
AcDbCircle
 62
7
  6
CONTINUOUS
 10
8.2373663471
 20
20.8077593978
 40
0.0196850394
100
AcDbArc
 50
225.0000000003
 51
270.0
  0
ARC
  5
468
100
AcDbEntity
  8
0
100
AcDbCircle
 62
7
  6
CONTINUOUS
 10
8.2292125368
 20
20.8159132081
 40
0.0196850394
100
AcDbArc
 50
180.0
 51
224.99885671
  0
ARC
  5
469
100
AcDbEntity
  8
0
100
AcDbCircle
 62
9
  6
CONTINUOUS
 10
8.1763845415
 20
20.8751881813
 40
0.06941235
100
AcDbArc
 50
195.4283952456
 51
196.0285165159
  0
ARC
  5
46A
100
AcDbEntity
  8
0
100
AcDbCircle
 62
9
  6
CONTINUOUS
 10
8.167219731
 20
21.0213789022
 40
0.0628795014
100
AcDbArc
 50
196.6795310398
 51
197.1213002057
  0
ARC
  5
46B
100
AcDbEntity
  8
0
100
AcDbCircle
 62
9
  6
CONTINUOUS
 10
8.1611283688
 20
21.0195041922
 40
0.0565061798
100
AcDbArc
 50
197.1229639361
 51
197.7781172615
  0
ARC
  5
46C
100
AcDbEntity
  8
0
100
AcDbCircle
 62
7
  6
CONTINUOUS
 10
8.2373663471
 20
20.9337436498
 40
0.0196850394
100
AcDbArc
 50
90.0
 51
134.9999999997
  0
ARC
  5
46D
100
AcDbEntity
  8
0
100
AcDbCircle
 62
7
  6
CONTINUOUS
 10
8.2292125368
 20
20.9255898395
 40
0.0196850394
100
AcDbArc
 50
135.00114329
 51
180.0
  0
ARC
  5
46E
100
AcDbEntity
  8
0
100
AcDbCircle
 62
7
  6
CONTINUOUS
 10
8.1876653686
 20
21.1852592875
 40
0.0196850394
100
AcDbArc
 50
135.0013272053
 51
180.0
  0
ARC
  5
46F
100
AcDbEntity
  8
0
100
AcDbCircle
 62
7
  6
CONTINUOUS
 10
8.1958191788
 20
21.1934130978
 40
0.0196850394
100
AcDbArc
 50
90.0
 51
134.9999999998
  0
ARC
  5
470
100
AcDbEntity
  8
0
100
AcDbCircle
 62
7
  6
CONTINUOUS
 10
8.1958191788
 20
21.0910508931
 40
0.0196850394
100
AcDbArc
 50
225.0000000002
 51
270.0
  0
ARC
  5
471
100
AcDbEntity
  8
0
100
AcDbCircle
 62
7
  6
CONTINUOUS
 10
8.1876653686
 20
21.0992047034
 40
0.0196850394
100
AcDbArc
 50
180.0
 51
224.9986727946
  0
ARC
  5
472
100
AcDbEntity
  8
0
100
AcDbCircle
 62
7
  6
CONTINUOUS
 10
8.2373663471
 20
21.1970672384
 40
0.0196850394
100
AcDbArc
 50
224.9999999999
 51
270.0
  0
ARC
  5
473
100
AcDbEntity
  8
0
100
AcDbCircle
 62
7
  6
CONTINUOUS
 10
8.2292125368
 20
21.2052210487
 40
0.0196850394
100
AcDbArc
 50
180.0
 51
224.9988567098
  0
ARC
  5
474
100
AcDbEntity
  8
0
100
AcDbCircle
 62
7
  6
CONTINUOUS
 10
8.1876653686
 20
20.8688390993
 40
0.0196850394
100
AcDbArc
 50
135.0013272058
 51
180.0
  0
ARC
  5
475
100
AcDbEntity
  8
0
100
AcDbCircle
 62
7
  6
CONTINUOUS
 10
8.1958191788
 20
20.8769929096
 40
0.0196850394
100
AcDbArc
 50
90.0
 51
134.9999999999
  0
ARC
  5
476
100
AcDbEntity
  8
0
100
AcDbCircle
 62
7
  6
CONTINUOUS
 10
7.9018644415
 20
21.4859008386
 40
0.3417544148
100
AcDbArc
 50
0.0003572508
 51
0.3847572259
  0
ARC
  5
477
100
AcDbEntity
  8
0
100
AcDbCircle
 62
7
  6
CONTINUOUS
 10
7.9023394313
 20
21.8697756401
 40
0.341279425
100
AcDbArc
 50
359.7139472696
 51
359.9996082109
  0
ARC
  5
478
100
AcDbEntity
  8
0
100
AcDbCircle
 62
7
  6
CONTINUOUS
 10
7.96606614
 20
21.2858414391
 40
0.0196850394
100
AcDbArc
 50
180.0
 51
224.9974348101
  0
ARC
  5
479
100
AcDbEntity
  8
0
100
AcDbCircle
 62
7
  6
CONTINUOUS
 10
7.96606614
 20
21.5018172831
 40
0.0196850394
100
AcDbArc
 50
135.0025651903
 51
180.0
  0
ARC
  5
47A
100
AcDbEntity
  8
0
100
AcDbCircle
 62
7
  6
CONTINUOUS
 10
7.9463811007
 20
21.537809943
 40
0.0196850394
100
AcDbArc
 50
314.999999999
 51
359.9960710504
  0
ARC
  5
47B
100
AcDbEntity
  8
0
100
AcDbCircle
 62
7
  6
CONTINUOUS
 10
7.96606614
 20
21.6307453096
 40
0.0196850394
100
AcDbArc
 50
180.0
 51
224.9974348681
  0
ARC
  5
47C
100
AcDbEntity
  8
0
100
AcDbCircle
 62
7
  6
CONTINUOUS
 10
7.96606614
 20
21.8467211536
 40
0.0196850394
100
AcDbArc
 50
135.0025651318
 51
180.0
  0
ARC
  5
47D
100
AcDbEntity
  8
0
100
AcDbCircle
 62
7
  6
CONTINUOUS
 10
7.9463811007
 20
21.5947526497
 40
0.0196850394
100
AcDbArc
 50
0.0039181288
 51
45.0000000001
  0
ARC
  5
47E
100
AcDbEntity
  8
0
100
AcDbCircle
 62
7
  6
CONTINUOUS
 10
7.9463811007
 20
21.8827138136
 40
0.0196850394
100
AcDbArc
 50
314.9999999999
 51
359.9960818712
  0
ARC
  5
47F
100
AcDbEntity
  8
0
100
AcDbCircle
 62
7
  6
CONTINUOUS
 10
7.9463811007
 20
21.9039850003
 40
0.0196850394
100
AcDbArc
 50
0.0039289499
 51
45.000000001
  0
ARC
  5
480
100
AcDbEntity
  8
0
100
AcDbCircle
 62
7
  6
CONTINUOUS
 10
7.96606614
 20
21.8538589929
 40
0.0196850394
100
AcDbArc
 50
180.0
 51
190.6595944996
  0
ARC
  5
481
100
AcDbEntity
  8
0
100
AcDbCircle
 62
7
  6
CONTINUOUS
 10
7.96606614
 20
21.5089551224
 40
0.0196850394
100
AcDbArc
 50
180.0
 51
190.6595944687
  0
ARC
  5
482
100
AcDbEntity
  8
0
100
AcDbCircle
 62
7
  6
CONTINUOUS
 10
8.0633546463
 20
21.8887285709
 40
0.0118110236
100
AcDbArc
 50
180.0
 51
224.9997468347
  0
ARC
  5
483
100
AcDbEntity
  8
0
100
AcDbCircle
 62
7
  6
CONTINUOUS
 10
8.0633546463
 20
21.6710471923
 40
0.0118110236
100
AcDbArc
 50
180.0
 51
224.9997468346
  0
ARC
  5
484
100
AcDbEntity
  8
0
100
AcDbCircle
 62
7
  6
CONTINUOUS
 10
8.0633546463
 20
21.7636248246
 40
0.0118110236
100
AcDbArc
 50
135.0002531657
 51
180.0
  0
ARC
  5
485
100
AcDbEntity
  8
0
100
AcDbCircle
 62
7
  6
CONTINUOUS
 10
7.9320317487
 20
22.240600909
 40
0.3115871098
100
AcDbArc
 50
358.8102006208
 51
359.9931356114
  0
ARC
  5
486
100
AcDbEntity
  8
0
100
AcDbCircle
 62
7
  6
CONTINUOUS
 10
7.9639463809
 20
22.2282969824
 40
0.2786790932
100
AcDbArc
 50
349.5767978335
 51
350.6135101858
  0
ARC
  5
487
100
AcDbEntity
  8
0
100
AcDbCircle
 62
7
  6
CONTINUOUS
 10
8.0053787265
 20
22.5730550784
 40
0.2382401351
100
AcDbArc
 50
358.7184356219
 51
359.98796656
  0
ARC
  5
488
100
AcDbEntity
  8
0
100
AcDbCircle
 62
7
  6
CONTINUOUS
 10
8.0435183207
 20
22.40518843
 40
0.0393700787
100
AcDbArc
 50
290.0
 51
354.208879842
  0
ARC
  5
489
100
AcDbEntity
  8
0
100
AcDbCircle
 62
7
  6
CONTINUOUS
 10
7.96606614
 20
21.9399776602
 40
0.0196850394
100
AcDbArc
 50
180.0
 51
224.9974348101
  0
ARC
  5
48A
100
AcDbEntity
  8
0
100
AcDbCircle
 62
7
  6
CONTINUOUS
 10
7.96606614
 20
22.1559535042
 40
0.0196850394
100
AcDbArc
 50
135.0025651903
 51
180.0
  0
ARC
  5
48B
100
AcDbEntity
  8
0
100
AcDbCircle
 62
7
  6
CONTINUOUS
 10
7.9463811007
 20
22.1919461641
 40
0.0196850394
100
AcDbArc
 50
314.999999999
 51
359.9960710504
  0
ARC
  5
48C
100
AcDbEntity
  8
0
100
AcDbCircle
 62
7
  6
CONTINUOUS
 10
7.96606614
 20
22.2483702178
 40
0.0196850394
100
AcDbArc
 50
135.002565132
 51
180.0
  0
ARC
  5
48D
100
AcDbEntity
  8
0
100
AcDbCircle
 62
7
  6
CONTINUOUS
 10
7.9463811007
 20
22.2843628777
 40
0.0196850394
100
AcDbArc
 50
314.9999999999
 51
359.9960818712
  0
ARC
  5
48E
100
AcDbEntity
  8
0
100
AcDbCircle
 62
7
  6
CONTINUOUS
 10
7.9857511794
 20
22.321317766
 40
0.0196850394
100
AcDbArc
 50
110.0000948198
 51
180.0
  0
ARC
  5
48F
100
AcDbEntity
  8
0
100
AcDbCircle
 62
7
  6
CONTINUOUS
 10
8.0633546463
 20
22.5041280787
 40
0.0118110236
100
AcDbArc
 50
180.0
 51
224.9997468361
  0
ARC
  5
490
100
AcDbEntity
  8
0
100
AcDbCircle
 62
7
  6
CONTINUOUS
 10
8.0633546463
 20
22.091131304
 40
0.0118110236
100
AcDbArc
 50
180.0
 51
224.9997468355
  0
ARC
  5
491
100
AcDbEntity
  8
0
100
AcDbCircle
 62
7
  6
CONTINUOUS
 10
8.0633546463
 20
22.1837089364
 40
0.0118110236
100
AcDbArc
 50
135.0002531656
 51
180.0
  0
ARC
  5
492
100
AcDbEntity
  8
0
100
AcDbCircle
 62
7
  6
CONTINUOUS
 10
8.0633546463
 20
21.9813062033
 40
0.0118110236
100
AcDbArc
 50
135.0002531652
 51
180.0
  0
ARC
  5
493
100
AcDbEntity
  8
0
100
AcDbCircle
 62
9
  6
CONTINUOUS
 10
8.1539501001
 20
21.7769516871
 40
0.0562269279
100
AcDbArc
 50
163.6940927009
 51
165.0562887521
  0
ARC
  5
494
100
AcDbEntity
  8
0
100
AcDbCircle
 62
7
  6
CONTINUOUS
 10
8.2373663471
 20
21.3230514904
 40
0.0196850394
100
AcDbArc
 50
90.0
 51
135.0000000001
  0
ARC
  5
495
100
AcDbEntity
  8
0
100
AcDbCircle
 62
7
  6
CONTINUOUS
 10
8.2292125368
 20
21.3148976801
 40
0.0196850394
100
AcDbArc
 50
135.0011432902
 51
180.0
  0
ARC
  5
496
100
AcDbEntity
  8
0
100
AcDbCircle
 62
7
  6
CONTINUOUS
 10
8.1876653686
 20
21.9035507109
 40
0.0196850394
100
AcDbArc
 50
135.0013272053
 51
180.0
  0
ARC
  5
497
100
AcDbEntity
  8
0
100
AcDbCircle
 62
7
  6
CONTINUOUS
 10
8.1958191788
 20
21.9117045212
 40
0.0196850394
100
AcDbArc
 50
90.0
 51
134.9999999999
  0
ARC
  5
498
100
AcDbEntity
  8
0
100
AcDbCircle
 62
7
  6
CONTINUOUS
 10
8.1958191788
 20
21.8093423165
 40
0.0196850394
100
AcDbArc
 50
225.0000000001
 51
270.0
  0
ARC
  5
499
100
AcDbEntity
  8
0
100
AcDbCircle
 62
7
  6
CONTINUOUS
 10
8.1876653686
 20
21.8174961268
 40
0.0196850394
100
AcDbArc
 50
180.0
 51
224.998672795
  0
ARC
  5
49A
100
AcDbEntity
  8
0
100
AcDbCircle
 62
7
  6
CONTINUOUS
 10
8.2373663471
 20
21.614846012
 40
0.0196850394
100
AcDbArc
 50
225.0000000003
 51
270.0
  0
ARC
  5
49B
100
AcDbEntity
  8
0
100
AcDbCircle
 62
7
  6
CONTINUOUS
 10
8.2373663471
 20
21.740830264
 40
0.0196850394
100
AcDbArc
 50
90.0
 51
134.9999999997
  0
ARC
  5
49C
100
AcDbEntity
  8
0
100
AcDbCircle
 62
7
  6
CONTINUOUS
 10
8.2292125368
 20
21.7326764537
 40
0.0196850394
100
AcDbArc
 50
135.0011432902
 51
180.0
  0
ARC
  5
49D
100
AcDbEntity
  8
0
100
AcDbCircle
 62
7
  6
CONTINUOUS
 10
8.2292125368
 20
21.6229998223
 40
0.0196850394
100
AcDbArc
 50
180.0
 51
224.9988567098
  0
ARC
  5
49E
100
AcDbEntity
  8
0
100
AcDbCircle
 62
7
  6
CONTINUOUS
 10
8.1958191788
 20
21.5463339595
 40
0.0196850394
100
AcDbArc
 50
90.0
 51
134.9999999998
  0
ARC
  5
49F
100
AcDbEntity
  8
0
100
AcDbCircle
 62
7
  6
CONTINUOUS
 10
8.1958191788
 20
21.4439717548
 40
0.0196850394
100
AcDbArc
 50
225.0000000002
 51
270.0
  0
ARC
  5
4A0
100
AcDbEntity
  8
0
100
AcDbCircle
 62
7
  6
CONTINUOUS
 10
8.1876653686
 20
21.4521255651
 40
0.0196850394
100
AcDbArc
 50
180.0
 51
224.9986727949
  0
ARC
  5
4A1
100
AcDbEntity
  8
0
100
AcDbCircle
 62
7
  6
CONTINUOUS
 10
8.1876653686
 20
21.5381801492
 40
0.0196850394
100
AcDbArc
 50
135.0013272051
 51
180.0
  0
ARC
  5
4A2
100
AcDbEntity
  8
0
100
AcDbCircle
 62
7
  6
CONTINUOUS
 10
8.0761209482
 20
21.875962269
 40
0.0118110236
100
AcDbArc
 50
224.9999999998
 51
270.0
  0
ARC
  5
4A3
100
AcDbEntity
  8
0
100
AcDbCircle
 62
7
  6
CONTINUOUS
 10
8.0761209482
 20
21.6582808903
 40
0.0118110236
100
AcDbArc
 50
225.0000000005
 51
270.0
  0
ARC
  5
4A4
100
AcDbEntity
  8
0
100
AcDbCircle
 62
7
  6
CONTINUOUS
 10
8.0761209482
 20
21.7763911266
 40
0.0118110236
100
AcDbArc
 50
90.0
 51
134.9999999995
  0
ARC
  5
4A5
100
AcDbEntity
  8
0
100
AcDbCircle
 62
9
  6
CONTINUOUS
 10
8.1574041312
 20
22.469356677
 40
0.0640863532
100
AcDbArc
 50
179.0515210622
 51
179.3768466842
  0
ARC
  5
4A6
100
AcDbEntity
  8
0
100
AcDbCircle
 62
9
  6
CONTINUOUS
 10
8.1573770569
 20
21.9930469876
 40
0.0574980893
100
AcDbArc
 50
162.9157204485
 51
163.8669148153
  0
ARC
  5
4A7
100
AcDbEntity
  8
0
100
AcDbCircle
 62
9
  6
CONTINUOUS
 10
8.1449810113
 20
22.469473535
 40
0.0516627003
100
AcDbArc
 50
179.3565944538
 51
180.0341803169
  0
ARC
  5
4A8
100
AcDbEntity
  8
0
100
AcDbCircle
 62
7
  6
CONTINUOUS
 10
8.1876653686
 20
22.4868371767
 40
0.0196850394
100
AcDbArc
 50
180.0
 51
224.9986727884
  0
ARC
  5
4A9
100
AcDbEntity
  8
0
100
AcDbCircle
 62
7
  6
CONTINUOUS
 10
8.1958191788
 20
22.4786833664
 40
0.0196850394
100
AcDbArc
 50
225.0000000001
 51
270.0
  0
ARC
  5
4AA
100
AcDbEntity
  8
0
100
AcDbCircle
 62
7
  6
CONTINUOUS
 10
8.1876653686
 20
22.5728917608
 40
0.0196850394
100
AcDbArc
 50
135.0013272118
 51
180.0
  0
ARC
  5
4AB
100
AcDbEntity
  8
0
100
AcDbCircle
 62
7
  6
CONTINUOUS
 10
8.2373663471
 20
22.4219326262
 40
0.0196850394
100
AcDbArc
 50
225.0000000003
 51
270.0
  0
ARC
  5
4AC
100
AcDbEntity
  8
0
100
AcDbCircle
 62
7
  6
CONTINUOUS
 10
8.2292125368
 20
22.4300864365
 40
0.0196850394
100
AcDbArc
 50
180.0
 51
224.9989630351
  0
ARC
  5
4AD
100
AcDbEntity
  8
0
100
AcDbCircle
 62
7
  6
CONTINUOUS
 10
8.2292125368
 20
22.5397630679
 40
0.0196850394
100
AcDbArc
 50
135.0010369649
 51
180.0
  0
ARC
  5
4AE
100
AcDbEntity
  8
0
100
AcDbCircle
 62
7
  6
CONTINUOUS
 10
8.2373663471
 20
22.5479168782
 40
0.0196850394
100
AcDbArc
 50
90.0
 51
134.9999999997
  0
ARC
  5
4AF
100
AcDbEntity
  8
0
100
AcDbCircle
 62
7
  6
CONTINUOUS
 10
8.1876653686
 20
22.2564715726
 40
0.0196850394
100
AcDbArc
 50
135.0013272065
 51
180.0
  0
ARC
  5
4B0
100
AcDbEntity
  8
0
100
AcDbCircle
 62
7
  6
CONTINUOUS
 10
8.1876653686
 20
22.1704169885
 40
0.0196850394
100
AcDbArc
 50
180.0
 51
224.9986727935
  0
ARC
  5
4B1
100
AcDbEntity
  8
0
100
AcDbCircle
 62
7
  6
CONTINUOUS
 10
8.1958191788
 20
22.1622631782
 40
0.0196850394
100
AcDbArc
 50
225.0000000004
 51
270.0
  0
ARC
  5
4B2
100
AcDbEntity
  8
0
100
AcDbCircle
 62
7
  6
CONTINUOUS
 10
8.1958191788
 20
22.2646253829
 40
0.0196850394
100
AcDbArc
 50
90.0
 51
134.9999999996
  0
ARC
  5
4B3
100
AcDbEntity
  8
0
100
AcDbCircle
 62
7
  6
CONTINUOUS
 10
8.2373663471
 20
22.0326247856
 40
0.0196850394
100
AcDbArc
 50
225.0000000002
 51
270.0
  0
ARC
  5
4B4
100
AcDbEntity
  8
0
100
AcDbCircle
 62
7
  6
CONTINUOUS
 10
8.2373663471
 20
22.1586090376
 40
0.0196850394
100
AcDbArc
 50
90.0
 51
134.9999999998
  0
ARC
  5
4B5
100
AcDbEntity
  8
0
100
AcDbCircle
 62
7
  6
CONTINUOUS
 10
8.2292125368
 20
22.1504552273
 40
0.0196850394
100
AcDbArc
 50
135.0011432896
 51
180.0
  0
ARC
  5
4B6
100
AcDbEntity
  8
0
100
AcDbCircle
 62
7
  6
CONTINUOUS
 10
8.2292125368
 20
22.0407785959
 40
0.0196850394
100
AcDbArc
 50
180.0
 51
224.9988567095
  0
ARC
  5
4B7
100
AcDbEntity
  8
0
100
AcDbCircle
 62
7
  6
CONTINUOUS
 10
8.0761209482
 20
22.4913617767
 40
0.0118110236
100
AcDbArc
 50
224.9999999994
 51
270.0
  0
ARC
  5
4B8
100
AcDbEntity
  8
0
100
AcDbCircle
 62
7
  6
CONTINUOUS
 10
8.0761209482
 20
22.0783650021
 40
0.0118110236
100
AcDbArc
 50
224.9999999998
 51
270.0
  0
ARC
  5
4B9
100
AcDbEntity
  8
0
100
AcDbCircle
 62
7
  6
CONTINUOUS
 10
8.0761209482
 20
22.1964752383
 40
0.0118110236
100
AcDbArc
 50
90.0
 51
135.0000000002
  0
ARC
  5
4BA
100
AcDbEntity
  8
0
100
AcDbCircle
 62
7
  6
CONTINUOUS
 10
8.0761209482
 20
21.9940725053
 40
0.0118110236
100
AcDbArc
 50
90.0
 51
135.0000000002
  0
ARC
  5
4BB
100
AcDbEntity
  8
0
100
AcDbCircle
 62
9
  6
CONTINUOUS
 10
8.0823973475
 20
22.4707558849
 40
0.0110007297
100
AcDbArc
 50
353.1435510634
 51
355.9260021328
  0
ARC
  5
4BC
100
AcDbEntity
  8
0
100
AcDbCircle
 62
9
  6
CONTINUOUS
 10
8.0825669274
 20
22.4707437889
 40
0.0108307189
100
AcDbArc
 50
355.9260958036
 51
359.9873732438
  0
ARC
  5
4BD
100
AcDbEntity
  8
0
100
AcDbCircle
 62
7
  6
CONTINUOUS
 10
8.0039219864
 20
22.8008981824
 40
0.2322759999
100
AcDbArc
 50
344.2838736114
 51
344.5026483341
  0
ARC
  5
4BE
100
AcDbEntity
  8
0
100
AcDbCircle
 62
9
  6
CONTINUOUS
 10
8.1025913225
 20
22.6657193933
 40
0.0118423374
100
AcDbArc
 50
310.2583431484
 51
314.2622245693
  0
ARC
  5
4BF
100
AcDbEntity
  8
0
100
AcDbCircle
 62
9
  6
CONTINUOUS
 10
8.1025966677
 20
22.6657012511
 40
0.0118256175
100
AcDbArc
 50
314.3050269967
 51
330.916833034
  0
ARC
  5
4C0
100
AcDbEntity
  8
0
100
AcDbCircle
 62
7
  6
CONTINUOUS
 10
8.0761209482
 20
22.6420947709
 40
0.0118110236
100
AcDbArc
 50
90.0
 51
135.0000000004
  0
ARC
  5
4C1
100
AcDbEntity
  8
0
100
AcDbCircle
 62
7
  6
CONTINUOUS
 10
8.0633546463
 20
22.6293284689
 40
0.0118110236
100
AcDbArc
 50
135.0002531647
 51
180.0
  0
ARC
  5
4C2
100
AcDbEntity
  8
0
100
AcDbCircle
 62
7
  6
CONTINUOUS
 10
8.0761209482
 20
22.609472013
 40
0.0118110236
100
AcDbArc
 50
90.0
 51
135.0000000006
  0
ARC
  5
4C3
100
AcDbEntity
  8
0
100
AcDbCircle
 62
7
  6
CONTINUOUS
 10
8.0633546463
 20
22.596705711
 40
0.0118110236
100
AcDbArc
 50
135.0002531659
 51
180.0
  0
ARC
  5
4C4
100
AcDbEntity
  8
0
100
AcDbCircle
 62
9
  6
CONTINUOUS
 10
8.1026108729
 20
22.6656894752
 40
0.0118068724
100
AcDbArc
 50
290.7636118269
 51
310.2797652929
  0
ARC
  5
4C5
100
AcDbEntity
  8
0
100
AcDbCircle
 62
9
  6
CONTINUOUS
 10
8.1026093785
 20
22.6656887203
 40
0.0118063336
100
AcDbArc
 50
269.9901527934
 51
288.0364280329
  0
ARC
  5
4C6
100
AcDbEntity
  8
0
100
AcDbCircle
 62
9
  6
CONTINUOUS
 10
8.1026458026
 20
22.6656775216
 40
0.0117709473
100
AcDbArc
 50
334.1388331834
 51
352.1201059752
  0
ARC
  5
4C7
100
AcDbEntity
  8
0
100
AcDbCircle
 62
9
  6
CONTINUOUS
 10
8.1026290038
 20
22.6656558117
 40
0.0117689688
100
AcDbArc
 50
287.9951842767
 51
290.7391766413
  0
ARC
  5
4C8
100
AcDbEntity
  8
0
100
AcDbCircle
 62
9
  6
CONTINUOUS
 10
8.1026658261
 20
22.665663196
 40
0.0117466811
100
AcDbArc
 50
330.9150795375
 51
334.159109059
  0
ARC
  5
4C9
100
AcDbEntity
  8
0
100
AcDbCircle
 62
7
  6
CONTINUOUS
 10
7.9856309322
 20
23.2554603615
 40
0.291040709
100
AcDbArc
 50
342.5547036598
 51
342.8900233126
  0
ARC
  5
4CA
100
AcDbEntity
  8
0
100
AcDbCircle
 62
7
  6
CONTINUOUS
 10
8.2373663471
 20
22.7562388478
 40
0.0196850394
100
AcDbArc
 50
225.0000000002
 51
270.0
  0
ARC
  5
4CB
100
AcDbEntity
  8
0
100
AcDbCircle
 62
7
  6
CONTINUOUS
 10
8.2373663471
 20
22.8822230998
 40
0.0196850394
100
AcDbArc
 50
90.0
 51
134.9999999998
  0
ARC
  5
4CC
100
AcDbEntity
  8
0
100
AcDbCircle
 62
7
  6
CONTINUOUS
 10
8.2292125368
 20
22.8740692895
 40
0.0196850394
100
AcDbArc
 50
135.0011432895
 51
180.0
  0
ARC
  5
4CD
100
AcDbEntity
  8
0
100
AcDbCircle
 62
7
  6
CONTINUOUS
 10
8.2292125368
 20
22.7643926581
 40
0.0196850394
100
AcDbArc
 50
180.0
 51
224.9988567094
  0
ARC
  5
4CE
100
AcDbEntity
  8
0
100
AcDbCircle
 62
7
  6
CONTINUOUS
 10
8.1958191788
 20
22.8394015729
 40
0.0196850394
100
AcDbArc
 50
90.0
 51
134.9999999999
  0
ARC
  5
4CF
100
AcDbEntity
  8
0
100
AcDbCircle
 62
7
  6
CONTINUOUS
 10
8.1958191788
 20
22.7370393682
 40
0.0196850394
100
AcDbArc
 50
225.0000000001
 51
270.0
  0
ARC
  5
4D0
100
AcDbEntity
  8
0
100
AcDbCircle
 62
7
  6
CONTINUOUS
 10
8.1876653686
 20
22.7451931785
 40
0.0196850394
100
AcDbArc
 50
180.0
 51
224.998672795
  0
ARC
  5
4D1
100
AcDbEntity
  8
0
100
AcDbCircle
 62
7
  6
CONTINUOUS
 10
8.1876653686
 20
22.8312477627
 40
0.0196850394
100
AcDbArc
 50
135.0013272058
 51
180.0
  0
ARC
  5
4D2
100
AcDbEntity
  8
0
100
AcDbCircle
 62
7
  6
CONTINUOUS
 10
8.1876653686
 20
22.9278784593
 40
0.0196850394
100
AcDbArc
 50
180.0
 51
224.9986727946
  0
ARC
  5
4D3
100
AcDbEntity
  8
0
100
AcDbCircle
 62
7
  6
CONTINUOUS
 10
8.1958191788
 20
22.9197246491
 40
0.0196850394
100
AcDbArc
 50
225.0000000002
 51
270.0
  0
ARC
  5
4D4
100
AcDbEntity
  8
0
100
AcDbCircle
 62
7
  6
CONTINUOUS
 10
8.1958191788
 20
22.5810455711
 40
0.0196850394
100
AcDbArc
 50
90.0
 51
134.9999999999
  0
ARC
  5
4D5
100
AcDbEntity
  8
0
100
AcDbCircle
 62
7
  6
CONTINUOUS
 10
8.1706661529
 20
22.9386162287
 40
0.0078740157
100
AcDbArc
 50
110.3751729783
 51
169.8531132105
  0
ARC
  5
4D6
100
AcDbEntity
  8
0
100
AcDbCircle
 62
7
  6
CONTINUOUS
 10
8.1137149624
 20
23.0646098293
 40
0.1641889431
100
AcDbArc
 50
339.7608445227
 51
339.9780861396
  0
ARC
  5
4D7
100
AcDbEntity
  8
0
100
AcDbCircle
 62
7
  6
CONTINUOUS
 10
8.2373663471
 20
23.1740176214
 40
0.0196850394
100
AcDbArc
 50
224.9999999999
 51
244.5973246504
  0
ARC
  5
4D8
100
AcDbEntity
  8
0
100
AcDbCircle
 62
7
  6
CONTINUOUS
 10
8.2373663471
 20
23.3000018733
 40
0.0196850394
100
AcDbArc
 50
90.0
 51
135.0000000001
  0
ARC
  5
4D9
100
AcDbEntity
  8
0
100
AcDbCircle
 62
7
  6
CONTINUOUS
 10
8.2292125368
 20
23.2918480631
 40
0.0196850394
100
AcDbArc
 50
135.0011432902
 51
180.0
  0
ARC
  5
4DA
100
AcDbEntity
  8
0
100
AcDbCircle
 62
7
  6
CONTINUOUS
 10
8.2292125368
 20
23.1821714317
 40
0.0196850394
100
AcDbArc
 50
180.0
 51
224.9988567098
  0
ARC
  5
4DB
100
AcDbEntity
  8
0
100
AcDbCircle
 62
7
  6
CONTINUOUS
 10
8.2373663471
 20
23.0127610339
 40
0.0196850394
100
AcDbArc
 50
225.0000000003
 51
270.0
  0
ARC
  5
4DC
100
AcDbEntity
  8
0
100
AcDbCircle
 62
7
  6
CONTINUOUS
 10
8.2373663471
 20
23.1387452858
 40
0.0196850394
100
AcDbArc
 50
90.0
 51
134.9999999997
  0
ARC
  5
4DD
100
AcDbEntity
  8
0
100
AcDbCircle
 62
7
  6
CONTINUOUS
 10
8.2292125368
 20
23.1305914756
 40
0.0196850394
100
AcDbArc
 50
135.00114329
 51
180.0
  0
ARC
  5
4DE
100
AcDbEntity
  8
0
100
AcDbCircle
 62
7
  6
CONTINUOUS
 10
8.2292125368
 20
23.0209148442
 40
0.0196850394
100
AcDbArc
 50
180.0
 51
224.99885671
  0
ARC
  5
4DF
100
AcDbEntity
  8
0
100
AcDbCircle
 62
7
  6
CONTINUOUS
 10
8.2292125368
 20
23.346849682
 40
0.0196850394
100
AcDbArc
 50
135.0011432902
 51
180.001006738
  0
ARC
  5
4E0
100
AcDbEntity
  8
0
100
AcDbCircle
 62
7
  6
CONTINUOUS
 10
8.1958191788
 20
23.0220868538
 40
0.0196850394
100
AcDbArc
 50
90.0
 51
134.9999999998
  0
ARC
  5
4E1
100
AcDbEntity
  8
0
100
AcDbCircle
 62
7
  6
CONTINUOUS
 10
8.2373663471
 20
23.3550034923
 40
0.0196850394
100
AcDbArc
 50
90.0
 51
135.0024588143
  0
ARC
  5
4E2
100
AcDbEntity
  8
0
100
AcDbCircle
 62
7
  6
CONTINUOUS
 10
8.1876653686
 20
23.0139330435
 40
0.0196850394
100
AcDbArc
 50
135.0013272053
 51
180.0
  0
ARC
  5
4E3
100
AcDbEntity
  8
0
100
AcDbCircle
 62
7
  6
CONTINUOUS
 10
8.1876653686
 20
23.0224433192
 40
0.0196850394
100
AcDbArc
 50
180.0
 51
192.7092229253
  0
ARC
  5
4E4
100
AcDbEntity
  8
0
100
AcDbCircle
 62
7
  6
CONTINUOUS
 10
8.1876653686
 20
23.1084979034
 40
0.0196850394
100
AcDbArc
 50
135.0013272051
 51
180.0
  0
ARC
  5
4E5
100
AcDbEntity
  8
0
100
AcDbCircle
 62
7
  6
CONTINUOUS
 10
8.1958191788
 20
23.1166517137
 40
0.0196850394
100
AcDbArc
 50
90.0
 51
134.9999999998
  0
ARC
  5
4E6
100
AcDbEntity
  8
0
100
AcDbCircle
 62
7
  6
CONTINUOUS
 10
8.7112751387
 20
23.8760538916
 40
0.25
100
AcDbArc
 50
202.8632234306
 51
231.6210152009
  0
ARC
  5
4E7
100
AcDbEntity
  8
0
100
AcDbCircle
 62
7
  6
CONTINUOUS
 10
8.4072015941
 20
23.747838138
 40
0.08
100
AcDbArc
 50
22.8632234308
 51
87.7285491583
  0
ARC
  5
4E8
100
AcDbEntity
  8
0
100
AcDbCircle
 62
7
  6
CONTINUOUS
 10
11.1158626077
 20
19.6636564075
 40
1.9
100
AcDbArc
 50
129.1146502196
 51
167.5422489206
  0
ARC
  5
4E9
100
AcDbEntity
  8
0
100
AcDbCircle
 62
7
  6
CONTINUOUS
 10
10.7266576223
 20
21.052838138
 40
1.0
100
AcDbArc
 50
0.0
 51
90.0
  0
ARC
  5
4EA
100
AcDbEntity
  8
0
100
AcDbCircle
 62
7
  6
CONTINUOUS
 10
8.8354471971
 20
19.322838138
 40
0.45
100
AcDbArc
 50
90.0
 51
128.3789847992
  0
ARC
  5
4EB
100
AcDbEntity
  8
0
100
AcDbCircle
 62
7
  6
CONTINUOUS
 10
10.7266576223
 20
21.052838138
 40
0.25
100
AcDbArc
 50
0.0
 51
90.0
  0
ARC
  5
4EC
100
AcDbEntity
  8
0
100
AcDbCircle
 62
7
  6
CONTINUOUS
 10
9.0184960246
 20
19.847838138
 40
0.075
100
AcDbArc
 50
270.0
 51
335.9999999998
  0
ARC
  5
4ED
100
AcDbEntity
  8
0
100
AcDbCircle
 62
7
  6
CONTINUOUS
 10
10.7510001903
 20
18.4779982989
 40
0.06
100
AcDbArc
 50
354.9244926841
 51
86.7567985982
  0
ARC
  5
4EE
100
AcDbEntity
  8
0
100
AcDbCircle
 62
7
  6
CONTINUOUS
 10
10.9166576223
 20
18.9275733388
 40
0.06
100
AcDbArc
 50
318.5281704494
 51
360.0
  0
ARC
  5
4EF
100
AcDbEntity
  8
0
100
AcDbCircle
 62
7
  6
CONTINUOUS
 10
10.7710390903
 20
18.747838138
 40
0.06
100
AcDbArc
 50
270.0
 51
321.0
  0
ARC
  5
4F0
100
AcDbEntity
  8
0
100
AcDbCircle
 62
7
  6
CONTINUOUS
 10
9.9772015941
 20
21.253838138
 40
0.06
100
AcDbArc
 50
180.0
 51
270.0
  0
ARC
  5
4F1
100
AcDbEntity
  8
0
100
AcDbCircle
 62
7
  6
CONTINUOUS
 10
10.1121539183
 20
21.1825458958
 40
0.06
100
AcDbArc
 50
108.0000000005
 51
135.9268242885
  0
ARC
  5
4F2
100
AcDbEntity
  8
0
100
AcDbCircle
 62
7
  6
CONTINUOUS
 10
10.2713789078
 20
21.242838138
 40
0.06
100
AcDbArc
 50
90.0
 51
138.1897285507
  0
ARC
  5
4F3
100
AcDbEntity
  8
0
100
AcDbCircle
 62
7
  6
CONTINUOUS
 10
10.7566576223
 20
18.577838138
 40
0.04
100
AcDbArc
 50
180.0
 51
266.7567985982
  0
ARC
  5
4F4
100
AcDbEntity
  8
0
100
AcDbCircle
 62
7
  6
CONTINUOUS
 10
10.7566576223
 20
18.647838138
 40
0.04
100
AcDbArc
 50
90.0
 51
180.0
  0
ARC
  5
4F5
100
AcDbEntity
  8
0
100
AcDbCircle
 62
7
  6
CONTINUOUS
 10
9.2410683538
 20
20.077838138
 40
0.02
100
AcDbArc
 50
270.0
 51
347.542248921
  0
ARC
  5
4F6
100
AcDbEntity
  8
0
100
AcDbCircle
 62
7
  6
CONTINUOUS
 10
9.2070799213
 20
20.037838138
 40
0.02
100
AcDbArc
 50
90.0
 51
155.9999999988
  0
ARC
  5
4F7
100
AcDbEntity
  8
0
100
AcDbCircle
 62
7
  6
CONTINUOUS
 10
10.5023644741
 20
21.677838138
 40
2.5590551181
100
AcDbArc
 50
174.5049555658
 51
175.9886462846
  0
ARC
  5
4F8
100
AcDbEntity
  8
0
100
AcDbCircle
 62
7
  6
CONTINUOUS
 10
10.5023644741
 20
21.677838138
 40
2.5590551181
100
AcDbArc
 50
177.3528405073
 51
183.7405671051
  0
ARC
  5
4F9
100
AcDbEntity
  8
0
100
AcDbCircle
 62
7
  6
CONTINUOUS
 10
11.1158626077
 20
23.6920198685
 40
1.9
100
AcDbArc
 50
192.4577510794
 51
230.8853497804
  0
ARC
  5
4FA
100
AcDbEntity
  8
0
100
AcDbCircle
 62
7
  6
CONTINUOUS
 10
8.8354471971
 20
24.032838138
 40
0.45
100
AcDbArc
 50
231.6210152008
 51
270.0
  0
ARC
  5
4FB
100
AcDbEntity
  8
0
100
AcDbCircle
 62
7
  6
CONTINUOUS
 10
9.9972015941
 20
21.293838138
 40
0.1
100
AcDbArc
 50
270.0
 51
315.9268242884
  0
ARC
  5
4FC
100
AcDbEntity
  8
0
100
AcDbCircle
 62
7
  6
CONTINUOUS
 10
9.9972015941
 20
22.061838138
 40
0.1
100
AcDbArc
 50
44.0731757116
 51
90.0
  0
ARC
  5
4FD
100
AcDbEntity
  8
0
100
AcDbCircle
 62
7
  6
CONTINUOUS
 10
9.0184960246
 20
23.507838138
 40
0.075
100
AcDbArc
 50
24.0000000002
 51
90.0
  0
ARC
  5
4FE
100
AcDbEntity
  8
0
100
AcDbCircle
 62
7
  6
CONTINUOUS
 10
10.2713789078
 20
22.112838138
 40
0.06
100
AcDbArc
 50
221.8103698099
 51
270.0
  0
ARC
  5
4FF
100
AcDbEntity
  8
0
100
AcDbCircle
 62
7
  6
CONTINUOUS
 10
9.9772015941
 20
22.101838138
 40
0.06
100
AcDbArc
 50
90.0
 51
180.0
  0
ARC
  5
500
100
AcDbEntity
  8
0
100
AcDbCircle
 62
7
  6
CONTINUOUS
 10
10.1121539183
 20
22.1731303802
 40
0.06
100
AcDbArc
 50
224.0731757115
 51
251.9999999995
  0
ARC
  5
501
100
AcDbEntity
  8
0
100
AcDbCircle
 62
7
  6
CONTINUOUS
 10
9.2410683538
 20
23.277838138
 40
0.02
100
AcDbArc
 50
12.457751079
 51
90.0
  0
ARC
  5
502
100
AcDbEntity
  8
0
100
AcDbCircle
 62
7
  6
CONTINUOUS
 10
9.2070799213
 20
23.317838138
 40
0.02
100
AcDbArc
 50
204.0000000012
 51
270.0
  0
ARC
  5
503
100
AcDbEntity
  8
0
100
AcDbCircle
 62
7
  6
CONTINUOUS
 10
11.3516576223
 20
12.682838138
 40
0.275
100
AcDbArc
 50
11.2347802014
 51
35.0
  0
ARC
  5
504
100
AcDbEntity
  8
0
100
AcDbCircle
 62
7
  6
CONTINUOUS
 10
11.3516576223
 20
12.682838138
 40
0.275
100
AcDbArc
 50
145.0
 51
348.5477878269
  0
ARC
  5
505
100
AcDbEntity
  8
0
100
AcDbCircle
 62
7
  6
CONTINUOUS
 10
11.7131576223
 20
13.155462179
 40
0.25
100
AcDbArc
 50
134.3699304528
 51
226.9739483152
  0
ARC
  5
506
100
AcDbEntity
  8
0
100
AcDbCircle
 62
7
  6
CONTINUOUS
 10
11.5166576223
 20
13.3563321619
 40
0.031
100
AcDbArc
 50
314.369913247
 51
360.0
  0
ARC
  5
507
100
AcDbEntity
  8
0
100
AcDbCircle
 62
7
  6
CONTINUOUS
 10
11.6287857515
 20
12.852838138
 40
0.02
100
AcDbArc
 50
234.3878420539
 51
245.711585371
  0
ARC
  5
508
100
AcDbEntity
  8
0
100
AcDbCircle
 62
7
  6
CONTINUOUS
 10
11.5325513506
 20
12.931838138
 40
0.016
100
AcDbArc
 50
90.0
 51
214.9999999998
  0
ARC
  5
509
100
AcDbEntity
  8
0
100
AcDbCircle
 62
7
  6
CONTINUOUS
 10
11.5316576223
 20
12.9610046001
 40
0.016
100
AcDbArc
 50
304.6234510999
 51
46.9739483152
  0
ARC
  5
50A
100
AcDbEntity
  8
0
100
AcDbCircle
 62
7
  6
CONTINUOUS
 10
11.3516576223
 20
13.942838138
 40
0.62
100
AcDbArc
 50
289.4548850728
 51
295.7513008418
  0
ARC
  5
50B
100
AcDbEntity
  8
0
100
AcDbCircle
 62
7
  6
CONTINUOUS
 10
11.3516576223
 20
13.942838138
 40
0.62
100
AcDbArc
 50
199.4548850728
 51
250.5451149272
  0
ARC
  5
50C
100
AcDbEntity
  8
0
100
AcDbCircle
 62
7
  6
CONTINUOUS
 10
11.3516576223
 20
13.942838138
 40
0.62
100
AcDbArc
 50
109.4548850728
 51
160.5451149272
  0
ARC
  5
50D
100
AcDbEntity
  8
0
100
AcDbCircle
 62
9
  6
CONTINUOUS
 10
11.3516576223
 20
13.942838138
 40
0.5722066449
100
AcDbArc
 50
90.0
 51
269.99499437
  0
ARC
  5
50E
100
AcDbEntity
  8
0
100
AcDbCircle
 62
9
  6
CONTINUOUS
 10
11.3516576223
 20
13.942838138
 40
0.5722066449
100
AcDbArc
 50
270.0
 51
298.0581257842
  0
ARC
  5
50F
100
AcDbEntity
  8
0
100
AcDbCircle
 62
9
  6
CONTINUOUS
 10
11.3516576223
 20
13.942838138
 40
0.5722066449
100
AcDbArc
 50
77.8914877412
 51
89.9950540305
  0
ARC
  5
510
100
AcDbEntity
  8
0
100
AcDbCircle
 62
7
  6
CONTINUOUS
 10
11.3516576223
 20
13.942838138
 40
0.545
100
AcDbArc
 50
77.248410298
 51
299.6523508503
  0
ARC
  5
511
100
AcDbEntity
  8
0
100
AcDbCircle
 62
9
  6
CONTINUOUS
 10
11.3516576223
 20
13.942838138
 40
0.5080880281
100
AcDbArc
 50
76.3028006068
 51
301.5320797528
  0
ARC
  5
512
100
AcDbEntity
  8
0
100
AcDbCircle
 62
9
  6
CONTINUOUS
 10
11.3516576223
 20
13.942838138
 40
0.4726895633
100
AcDbArc
 50
75.2593592542
 51
293.6878988097
  0
ARC
  5
513
100
AcDbEntity
  8
0
100
AcDbCircle
 62
9
  6
CONTINUOUS
 10
11.3516576223
 20
13.942838138
 40
0.4531552433
100
AcDbArc
 50
74.6124399494
 51
287.715757289
  0
ARC
  5
514
100
AcDbEntity
  8
0
100
AcDbCircle
 62
7
  6
CONTINUOUS
 10
11.3516576223
 20
13.942838138
 40
0.415
100
AcDbArc
 50
73.1714533217
 51
285.5971696615
  0
ARC
  5
515
100
AcDbEntity
  8
0
100
AcDbCircle
 62
9
  6
CONTINUOUS
 10
11.3516576223
 20
13.942838138
 40
0.4018695612
100
AcDbArc
 50
72.6069331382
 51
285.6650517051
  0
ARC
  5
516
100
AcDbEntity
  8
0
100
AcDbCircle
 62
7
  6
CONTINUOUS
 10
11.3716576223
 20
14.220838138
 40
0.1
100
AcDbArc
 50
270.0
 51
360.0
  0
ARC
  5
517
100
AcDbEntity
  8
0
100
AcDbCircle
 62
7
  6
CONTINUOUS
 10
12.2367037951
 20
13.7406026623
 40
0.2119697109
100
AcDbArc
 50
299.8708387828
 51
303.1649078517
  0
ARC
  5
518
100
AcDbEntity
  8
0
100
AcDbCircle
 62
7
  6
CONTINUOUS
 10
11.9266576223
 20
15.520838138
 40
0.8
100
AcDbArc
 50
306.8698976458
 51
316.6425274094
  0
ARC
  5
519
100
AcDbEntity
  8
0
100
AcDbCircle
 62
7
  6
CONTINUOUS
 10
11.9266576223
 20
15.520838138
 40
0.8
100
AcDbArc
 50
43.3574725907
 51
233.1301023542
  0
ARC
  5
51A
100
AcDbEntity
  8
0
100
AcDbCircle
 62
7
  6
CONTINUOUS
 10
11.3516576223
 20
15.202838138
 40
0.275
100
AcDbArc
 50
140.2161413531
 51
215.0
  0
ARC
  5
51B
100
AcDbEntity
  8
0
100
AcDbCircle
 62
7
  6
CONTINUOUS
 10
11.7131576223
 20
14.730214097
 40
0.25
100
AcDbArc
 50
165.2182134595
 51
194.2985639235
  0
ARC
  5
51C
100
AcDbEntity
  8
0
100
AcDbCircle
 62
7
  6
CONTINUOUS
 10
12.6116576223
 20
13.942838138
 40
0.275
100
AcDbArc
 50
235.0
 51
125.0
  0
ARC
  5
51D
100
AcDbEntity
  8
0
100
AcDbCircle
 62
7
  6
CONTINUOUS
 10
12.4816576223
 20
14.220838138
 40
0.1
100
AcDbArc
 50
180.0
 51
270.0
  0
ARC
  5
51E
100
AcDbEntity
  8
0
100
AcDbCircle
 62
7
  6
CONTINUOUS
 10
12.7372240807
 20
14.810338138
 40
0.28
100
AcDbArc
 50
34.974673615
 51
144.8349182041
  0
ARC
  5
51F
100
AcDbEntity
  8
0
100
AcDbCircle
 62
7
  6
CONTINUOUS
 10
12.7372240807
 20
16.231338138
 40
0.28
100
AcDbArc
 50
215.1650817959
 51
325.0253263796
  0
ARC
  5
520
100
AcDbEntity
  8
0
100
AcDbCircle
 62
7
  6
CONTINUOUS
 10
13.1540075617
 20
16.000838138
 40
0.2
100
AcDbArc
 50
145.7711336722
 51
159.5126853897
  0
ARC
  5
521
100
AcDbEntity
  8
0
100
AcDbCircle
 62
7
  6
CONTINUOUS
 10
13.1540075617
 20
15.040838138
 40
0.2
100
AcDbArc
 50
200.4873146169
 51
214.2288663278
  0
ARC
  5
522
100
AcDbEntity
  8
0
100
AcDbCircle
 62
7
  6
CONTINUOUS
 10
13.3166576223
 20
14.818452952
 40
0.13
100
AcDbArc
 50
180.0000000166
 51
265.5882742142
  0
ARC
  5
523
100
AcDbEntity
  8
0
100
AcDbCircle
 62
7
  6
CONTINUOUS
 10
13.3166576223
 20
16.223223324
 40
0.13
100
AcDbArc
 50
94.4117257858
 51
179.9999999834
  0
ARC
  5
524
100
AcDbEntity
  8
0
100
AcDbCircle
 62
7
  6
CONTINUOUS
 10
13.4366576223
 20
14.650838138
 40
0.13
100
AcDbArc
 50
180.0
 51
270.0
  0
ARC
  5
525
100
AcDbEntity
  8
0
100
AcDbCircle
 62
7
  6
CONTINUOUS
 10
13.4366576223
 20
16.390838138
 40
0.13
100
AcDbArc
 50
90.0
 51
180.0
  0
ARC
  5
526
100
AcDbEntity
  8
0
100
AcDbCircle
 62
7
  6
CONTINUOUS
 10
15.2152036249
 20
21.677838138
 40
7.1691060898
100
AcDbArc
 50
173.6126430217
 51
174.208879842
  0
ARC
  5
527
100
AcDbEntity
  8
0
100
AcDbCircle
 62
7
  6
CONTINUOUS
 10
15.2152036249
 20
21.677838138
 40
7.1691060898
100
AcDbArc
 50
170.6768182409
 51
172.097905872
  0
ARC
  5
528
100
AcDbEntity
  8
0
100
AcDbCircle
 62
7
  6
CONTINUOUS
 10
15.2152036248
 20
21.677838138
 40
7.1691060898
100
AcDbArc
 50
187.3617183163
 51
189.3231817588
  0
ARC
  5
529
100
AcDbEntity
  8
0
100
AcDbCircle
 62
7
  6
CONTINUOUS
 10
15.2152389356
 20
21.6778381383
 40
7.1643816812
100
AcDbArc
 50
194.2898330329
 51
194.9326914327
  0
ARC
  5
52A
100
AcDbEntity
  8
0
100
AcDbCircle
 62
7
  6
CONTINUOUS
 10
15.2152389356
 20
21.6778381383
 40
7.1643816812
100
AcDbArc
 50
165.0673085672
 51
165.7101669722
  0
ARC
  5
52B
100
AcDbEntity
  8
0
100
AcDbCircle
 62
7
  6
CONTINUOUS
 10
11.9523150543
 20
18.4779982989
 40
0.06
100
AcDbArc
 50
93.2432014019
 51
185.0755073159
  0
ARC
  5
52C
100
AcDbEntity
  8
0
100
AcDbCircle
 62
7
  6
CONTINUOUS
 10
11.9322761542
 20
18.747838138
 40
0.06
100
AcDbArc
 50
219.0
 51
270.0
  0
ARC
  5
52D
100
AcDbEntity
  8
0
100
AcDbCircle
 62
7
  6
CONTINUOUS
 10
11.7866576223
 20
18.9275733386
 40
0.06
100
AcDbArc
 50
180.0
 51
221.4718321501
  0
ARC
  5
52E
100
AcDbEntity
  8
0
100
AcDbCircle
 62
7
  6
CONTINUOUS
 10
11.9466576223
 20
18.577838138
 40
0.04
100
AcDbArc
 50
273.2432014018
 51
360.0
  0
ARC
  5
52F
100
AcDbEntity
  8
0
100
AcDbCircle
 62
7
  6
CONTINUOUS
 10
11.9466576223
 20
18.647838138
 40
0.04
100
AcDbArc
 50
0.0
 51
90.0
  0
ARC
  5
530
100
AcDbEntity
  8
0
100
AcDbCircle
 62
7
  6
CONTINUOUS
 10
30.9066582445
 20
16.687838138
 40
20.175
100
AcDbArc
 50
174.9244926841
 51
184.6489114399
  0
SPLINE
  5
531
100
AcDbEntity
  8
0
100
AcDbSpline
 62
7
  6
CONTINUOUS
 70
0
 71
3
 72
13
 73
9
 74
0
 42
0.0000001
 43
0.0000001
 44
0.0000000001
 40
0.0
 40
0.0
 40
0.0
 40
0.0
 40
0.3230479268
 40
0.5911183977
 40
0.7067500257
 40
0.811887546
 40
0.9086828249
 40
1.0
 40
1.0
 40
1.0
 40
1.0
 10
8.272265354
 20
22.4066992845
 30
0.0
 10
8.2717906986
 20
22.4060263158
 30
0.0
 10
8.2708635808
 20
22.4048342264
 30
0.0
 10
8.2695562198
 20
22.4035779984
 30
0.0
 10
8.2685216471
 20
22.4028779127
 30
0.0
 10
8.2677931841
 20
22.4025178103
 30
0.0
 10
8.2670744964
 20
22.4022990471
 30
0.0
 10
8.2665938103
 20
22.4022485692
 30
0.0
 10
8.2663610229
 20
22.4022487078
 30
0.0
  0
SPLINE
  5
532
100
AcDbEntity
  8
0
100
AcDbSpline
 62
7
  6
CONTINUOUS
 70
0
 71
3
 72
11
 73
7
 74
0
 42
0.0000001
 43
0.0000001
 44
0.0000000001
 40
0.0
 40
0.0
 40
0.0
 40
0.0
 40
0.2885076622
 40
0.5549217022
 40
0.7933781846
 40
1.0
 40
1.0
 40
1.0
 40
1.0
 10
8.2436188563
 20
21.1151126971
 30
0.0
 10
8.2436188563
 20
21.1121635512
 30
0.0
 10
8.2435342933
 20
21.1064906344
 30
0.0
 10
8.2431371656
 20
21.098388441
 30
0.0
 10
8.2424809202
 20
21.0911430716
 30
0.0
 10
8.2418361498
 20
21.0866357573
 30
0.0
 10
8.2414559886
 20
21.084558149
 30
0.0
  0
SPLINE
  5
533
100
AcDbEntity
  8
0
100
AcDbSpline
 62
7
  6
CONTINUOUS
 70
0
 71
3
 72
16
 73
12
 74
0
 42
0.0000001
 43
0.0000001
 44
0.0000000001
 40
0.0
 40
0.0
 40
0.0
 40
0.0
 40
0.1989288818
 40
0.3756121375
 40
0.5296916078
 40
0.6611177809
 40
0.7706286869
 40
0.8602922221
 40
0.9341696315
 40
0.9675136273
 40
1.0
 40
1.0
 40
1.0
 40
1.0
 10
8.2414559886
 20
21.084558149
 30
0.0
 10
8.2412704832
 20
21.0835443487
 30
0.0
 10
8.2408829531
 20
21.0816365261
 30
0.0
 10
8.2402015452
 20
21.0789767419
 30
0.0
 10
8.2394589609
 20
21.0766979811
 30
0.0
 10
8.2386595443
 20
21.0748104326
 30
0.0
 10
8.2378040575
 20
21.073319703
 30
0.0
 10
8.2368941985
 20
21.0722245589
 30
0.0
 10
8.2360418547
 20
21.0716273815
 30
0.0
 10
8.2353490739
 20
21.0714018533
 30
0.0
 10
8.2350068865
 20
21.0713660549
 30
0.0
 10
8.2348385776
 20
21.0713661735
 30
0.0
  0
SPLINE
  5
534
100
AcDbEntity
  8
0
100
AcDbSpline
 62
7
  6
CONTINUOUS
 70
0
 71
3
 72
15
 73
11
 74
0
 42
0.0000001
 43
0.0000001
 44
0.0000000001
 40
0.0
 40
0.0
 40
0.0
 40
0.0
 40
0.1446870914
 40
0.2889591088
 40
0.4297416837
 40
0.5645244252
 40
0.6909618176
 40
0.806904425
 40
0.9104046012
 40
1.0
 40
1.0
 40
1.0
 40
1.0
 10
8.243614603
 20
21.8680717885
 30
0.0
 10
8.2435983601
 20
21.8648139384
 30
0.0
 10
8.2434742419
 20
21.8583077188
 30
0.0
 10
8.2430277293
 20
21.8486404633
 30
0.0
 10
8.2423271624
 20
21.8392117612
 30
0.0
 10
8.2413907422
 20
21.8302070489
 30
0.0
 10
8.2402360866
 20
21.8217917565
 30
0.0
 10
8.2388909211
 20
21.814118337
 30
0.0
 10
8.2373794261
 20
21.8073234684
 30
0.0
 10
8.2361940411
 20
21.8031359493
 30
0.0
 10
8.2355615802
 20
21.8012202501
 30
0.0
  0
SPLINE
  5
535
100
AcDbEntity
  8
0
100
AcDbSpline
 62
7
  6
CONTINUOUS
 70
0
 71
3
 72
15
 73
11
 74
0
 42
0.0000001
 43
0.0000001
 44
0.0000000001
 40
0.0
 40
0.0
 40
0.0
 40
0.0
 40
0.1915598706
 40
0.3629762036
 40
0.5140850741
 40
0.6450014597
 40
0.7564093974
 40
0.8501007282
 40
0.929405869
 40
1.0
 40
1.0
 40
1.0
 40
1.0
 10
8.2355615802
 20
21.8012202501
 30
0.0
 10
8.2352669996
 20
21.800327977
 30
0.0
 10
8.2346739562
 20
21.7986483455
 30
0.0
 10
8.2337101422
 20
21.7963166049
 30
0.0
 10
8.2327262014
 20
21.7943195806
 30
0.0
 10
8.231726746
 20
21.7926650391
 30
0.0
 10
8.2307137778
 20
21.7913585424
 30
0.0
 10
8.2296862269
 20
21.7904024858
 30
0.0
 10
8.2286365515
 20
21.7898023427
 30
0.0
 10
8.2278971566
 20
21.7896574014
 30
0.0
 10
8.227550877
 20
21.7896572869
 30
0.0
  0
SPLINE
  5
536
100
AcDbEntity
  8
0
100
AcDbSpline
 62
7
  6
CONTINUOUS
 70
0
 71
3
 72
11
 73
7
 74
0
 42
0.0000001
 43
0.0000001
 44
0.0000000001
 40
0.0
 40
0.0
 40
0.0
 40
0.0
 40
0.2510262293
 40
0.5070822157
 40
0.7594859896
 40
1.0
 40
1.0
 40
1.0
 40
1.0
 10
8.2435516792
 20
22.234130982
 30
0.0
 10
8.2434635176
 20
22.2298196889
 30
0.0
 10
8.243119536
 20
22.2211134821
 30
0.0
 10
8.2421574384
 20
22.2080999643
 30
0.0
 10
8.2407755393
 20
22.1953059355
 30
0.0
 10
8.2395683036
 20
22.1869225216
 30
0.0
 10
8.2388941411
 20
22.182846282
 30
0.0
  0
SPLINE
  5
537
100
AcDbEntity
  8
0
100
AcDbSpline
 62
7
  6
CONTINUOUS
 70
0
 71
3
 72
9
 73
5
 74
0
 42
0.0000001
 43
0.0000001
 44
0.0000000001
 40
0.0
 40
0.0
 40
0.0
 40
0.0
 40
0.5325373741
 40
1.0
 40
1.0
 40
1.0
 40
1.0
 10
8.2436188563
 20
20.7826712335
 30
0.0
 10
8.2436188563
 20
20.7803137022
 30
0.0
 10
8.2435477983
 20
20.7758863279
 30
0.0
 10
8.243295041
 20
20.7714644758
 30
0.0
 10
8.2431148777
 20
20.7694028863
 30
0.0
  0
SPLINE
  5
538
100
AcDbEntity
  8
0
100
AcDbSpline
 62
7
  6
CONTINUOUS
 70
0
 71
3
 72
17
 73
13
 74
0
 42
0.0000001
 43
0.0000001
 44
0.0000000001
 40
0.0
 40
0.0
 40
0.0
 40
0.0
 40
0.2070648518
 40
0.3899500005
 40
0.548120557
 40
0.6813001711
 40
0.7899262851
 40
0.8757017336
 40
0.9112251377
 40
0.9428700848
 40
0.9719089508
 40
1.0
 40
1.0
 40
1.0
 40
1.0
 10
8.2431148777
 20
20.7694028863
 30
0.0
 10
8.2430182092
 20
20.768296718
 30
0.0
 10
8.2428017528
 20
20.7662162547
 30
0.0
 10
8.242371143
 20
20.7633074783
 30
0.0
 10
8.2418589845
 20
20.7608149447
 30
0.0
 10
8.2412686787
 20
20.7587493834
 30
0.0
 10
8.240604288
 20
20.7571196212
 30
0.0
 10
8.2399523083
 20
20.7560590237
 30
0.0
 10
8.2393785422
 20
20.7554681239
 30
0.0
 10
8.2389546877
 20
20.7551675869
 30
0.0
 10
8.2385098194
 20
20.7549854772
 30
0.0
 10
8.2382018552
 20
20.7549460698
 30
0.0
 10
8.2380512172
 20
20.754946217
 30
0.0
  0
SPLINE
  5
539
100
AcDbEntity
  8
0
100
AcDbSpline
 62
7
  6
CONTINUOUS
 70
0
 71
3
 72
13
 73
9
 74
0
 42
0.0000001
 43
0.0000001
 44
0.0000000001
 40
0.0
 40
0.0
 40
0.0
 40
0.0
 40
0.2922613194
 40
0.5637532668
 40
0.687883327
 40
0.8026318554
 40
0.9069695918
 40
1.0
 40
1.0
 40
1.0
 40
1.0
 10
8.2436188563
 20
21.4859029695
 30
0.0
 10
8.2436188563
 20
21.4810760731
 30
0.0
 10
8.2434235341
 20
21.4717641186
 30
0.0
 10
8.2426669732
 20
21.4604230961
 30
0.0
 10
8.241744425
 20
21.4520434321
 30
0.0
 10
8.240941494
 20
21.4464308961
 30
0.0
 10
8.24001777
 20
21.4413582131
 30
0.0
 10
8.2392861864
 20
21.4381797911
 30
0.0
 10
8.2388941411
 20
21.4366941892
 30
0.0
  0
SPLINE
  5
53A
100
AcDbEntity
  8
0
100
AcDbSpline
 62
7
  6
CONTINUOUS
 70
0
 71
3
 72
15
 73
11
 74
0
 42
0.0000001
 43
0.0000001
 44
0.0000000001
 40
0.0
 40
0.0
 40
0.0
 40
0.0
 40
0.193882933
 40
0.3668117547
 40
0.5186127367
 40
0.6494193416
 40
0.7600324978
 40
0.8524382133
 40
0.9303218175
 40
1.0
 40
1.0
 40
1.0
 40
1.0
 10
8.2388941411
 20
21.4366941892
 30
0.0
 10
8.2386417272
 20
21.4357377015
 30
0.0
 10
8.2381266948
 20
21.4339375446
 30
0.0
 10
8.2372640257
 20
21.4314344573
 30
0.0
 10
8.2363600163
 20
21.4292907979
 30
0.0
 10
8.2354187461
 20
21.4275150862
 30
0.0
 10
8.2344420493
 20
21.4261128412
 30
0.0
 10
8.2334288924
 20
21.4250855543
 30
0.0
 10
8.2323690277
 20
21.424439319
 30
0.0
 10
8.2316106767
 20
21.4242866877
 30
0.0
 10
8.2312551636
 20
21.4242869997
 30
0.0
  0
LINE
  5
53B
100
AcDbEntity
  8
0
100
AcDbLine
 62
7
  6
CONTINUOUS
 10
8.2722789958
 20
22.0131341778
 11
8.2709948242
 21
22.0129404774
  0
SPLINE
  5
53C
100
AcDbEntity
  8
0
100
AcDbSpline
 62
7
  6
CONTINUOUS
 70
0
 71
3
 72
12
 73
8
 74
0
 42
0.0000001
 43
0.0000001
 44
0.0000000001
 40
0.0
 40
0.0
 40
0.0
 40
0.0
 40
0.2663769331
 40
0.5352260219
 40
0.7861208484
 40
0.8987813454
 40
1.0
 40
1.0
 40
1.0
 40
1.0
 10
8.2386485122
 20
22.9929248346
 30
0.0
 10
8.2375942694
 20
22.9863420673
 30
0.0
 10
8.235320112
 20
22.973140016
 30
0.0
 10
8.2315810501
 20
22.953823127
 30
0.0
 10
8.2282547912
 20
22.9383475247
 30
0.0
 10
8.2255716911
 20
22.9270288759
 30
0.0
 10
8.224252419
 20
22.9218408302
 30
0.0
 10
8.2236011298
 20
22.9193927715
 30
0.0
  0
SPLINE
  5
53D
100
AcDbEntity
  8
0
100
AcDbSpline
 62
7
  6
CONTINUOUS
 70
0
 71
3
 72
14
 73
10
 74
0
 42
0.0000001
 43
0.0000001
 44
0.0000000001
 40
0.0
 40
0.0
 40
0.0
 40
0.0
 40
0.3491819851
 40
0.5008265106
 40
0.6360270401
 40
0.7540083341
 40
0.8542464552
 40
0.9363321635
 40
1.0
 40
1.0
 40
1.0
 40
1.0
 10
8.2236011298
 20
22.9193927715
 30
0.0
 10
8.2230219753
 20
22.9172158521
 30
0.0
 10
8.222161506
 20
22.914101087
 30
0.0
 10
8.2209760732
 20
22.910172752
 30
0.0
 10
8.2201740509
 20
22.9076871011
 30
0.0
 10
8.2194205545
 20
22.9055349747
 30
0.0
 10
8.2187209125
 20
22.9037277209
 30
0.0
 10
8.2180799993
 20
22.9022755702
 30
0.0
 10
8.2176408552
 20
22.9014418933
 30
0.0
 10
8.2174235173
 20
22.9010933728
 30
0.0
  0
SPLINE
  5
53E
100
AcDbEntity
  8
0
100
AcDbSpline
 62
7
  6
CONTINUOUS
 70
0
 71
3
 72
11
 73
7
 74
0
 42
0.0000001
 43
0.0000001
 44
0.0000000001
 40
0.0
 40
0.0
 40
0.0
 40
0.0
 40
0.3512603248
 40
0.6287922437
 40
0.8395401491
 40
1.0
 40
1.0
 40
1.0
 40
1.0
 10
8.2174235173
 20
22.9010933728
 30
0.0
 10
8.2173250478
 20
22.9009354682
 30
0.0
 10
8.2171390272
 20
22.9006584559
 30
0.0
 10
8.2168479442
 20
22.9003200905
 30
0.0
 10
8.2165777282
 20
22.9001032274
 30
0.0
 10
8.216382418
 20
22.900039733
 30
0.0
 10
8.2162974092
 20
22.9000396434
 30
0.0
  0
SPLINE
  5
53F
100
AcDbEntity
  8
0
100
AcDbSpline
 62
7
  6
CONTINUOUS
 70
0
 71
3
 72
19
 73
15
 74
0
 42
0.0000001
 43
0.0000001
 44
0.0000000001
 40
0.0
 40
0.0
 40
0.0
 40
0.0
 40
0.2080846429
 40
0.3944751055
 40
0.557571581
 40
0.6959686895
 40
0.7556282045
 40
0.8088242778
 40
0.8555246199
 40
0.8957590614
 40
0.9296901307
 40
0.9577299592
 40
0.9806709297
 40
1.0
 40
1.0
 40
1.0
 40
1.0
 10
8.2275144748
 20
22.7379812587
 30
0.0
 10
8.227079542
 20
22.7364357506
 30
0.0
 10
8.2262240915
 20
22.7335144022
 30
0.0
 10
8.22490563
 20
22.7294186098
 30
0.0
 10
8.2236321686
 20
22.7258753316
 30
0.0
 10
8.2225731387
 20
22.7232960513
 30
0.0
 10
8.2217459485
 20
22.7215423035
 30
0.0
 10
8.2211750285
 20
22.7204510934
 30
0.0
 10
8.2206238721
 20
22.7195201539
 30
0.0
 10
8.2200934882
 20
22.7187518638
 30
0.0
 10
8.2195843674
 20
22.7181474846
 30
0.0
 10
8.2190955791
 20
22.7177068329
 30
0.0
 10
8.2186237913
 20
22.7174288356
 30
0.0
 10
8.2182969927
 20
22.7173562562
 30
0.0
 10
8.2181478537
 20
22.717355962
 30
0.0
  0
SPLINE
  5
540
100
AcDbEntity
  8
0
100
AcDbSpline
 62
7
  6
CONTINUOUS
 70
0
 71
3
 72
16
 73
12
 74
0
 42
0.0000001
 43
0.0000001
 44
0.0000000001
 40
0.0
 40
0.0
 40
0.0
 40
0.0
 40
0.1965850164
 40
0.3727458049
 40
0.5278656315
 40
0.6615384348
 40
0.7738999385
 40
0.8658156015
 40
0.90477289
 40
0.9396354267
 40
1.0
 40
1.0
 40
1.0
 40
1.0
 10
8.2722653447
 20
22.7505977514
 30
0.0
 10
8.2718251007
 20
22.7495224908
 30
0.0
 10
8.2709583251
 20
22.7474964936
 30
0.0
 10
8.2696165677
 20
22.7446787159
 30
0.0
 10
8.2683103923
 20
22.7422593146
 30
0.0
 10
8.2670459413
 20
22.7402505546
 30
0.0
 10
8.2658294151
 20
22.7386624957
 30
0.0
 10
8.2648078272
 20
22.7376399636
 30
0.0
 10
8.2640089344
 20
22.7370679697
 30
0.0
 10
8.2633086082
 20
22.7366948209
 30
0.0
 10
8.2627434748
 20
22.7365543456
 30
0.0
 10
8.2623866968
 20
22.7365549039
 30
0.0
  0
LINE
  5
541
100
AcDbEntity
  8
0
100
AcDbLine
 62
7
  6
CONTINUOUS
 10
8.2722653447
 20
23.0213894374
 11
8.2679806115
 21
23.0083948975
  0
SPLINE
  5
542
100
AcDbEntity
  8
0
100
AcDbSpline
 62
7
  6
CONTINUOUS
 70
0
 71
3
 72
17
 73
13
 74
0
 42
0.0000001
 43
0.0000001
 44
0.0000000001
 40
0.0
 40
0.0
 40
0.0
 40
0.0
 40
0.2064924691
 40
0.3905705865
 40
0.5513135618
 40
0.6879168299
 40
0.7999604808
 40
0.8468642557
 40
0.8878233028
 40
0.9230660949
 40
0.9530028954
 40
1.0
 40
1.0
 40
1.0
 40
1.0
 10
8.2677663596
 20
23.0078103922
 30
0.0
 10
8.2673526952
 20
23.0066885044
 30
0.0
 10
8.2665468394
 20
23.004574975
 30
0.0
 10
8.2653241408
 20
23.0016254124
 30
0.0
 10
8.2641623417
 20
22.9990902675
 30
0.0
 10
8.2630679253
 20
22.9969862181
 30
0.0
 10
8.2621720606
 20
22.9955248234
 30
0.0
 10
8.2614823475
 20
22.994593996
 30
0.0
 10
8.2610170735
 20
22.9940533377
 30
0.0
 10
8.2605705209
 20
22.9936273952
 30
0.0
 10
8.2600483679
 20
22.9932446439
 30
0.0
 10
8.2596073558
 20
22.9930758392
 30
0.0
 10
8.2593352129
 20
22.9930759284
 30
0.0
  0
SPLINE
  5
543
100
AcDbEntity
  8
0
100
AcDbSpline
 62
7
  6
CONTINUOUS
 70
0
 71
3
 72
10
 73
6
 74
0
 42
0.0000001
 43
0.0000001
 44
0.0000000001
 40
0.0
 40
0.0
 40
0.0
 40
0.0
 40
0.549470844
 40
0.788966451
 40
1.0
 40
1.0
 40
1.0
 40
1.0
 10
8.2722653447
 20
23.2006203226
 30
0.0
 10
8.2708243569
 20
23.1949517077
 30
0.0
 10
8.268693645
 20
23.1868274743
 30
0.0
 10
8.2658146341
 20
23.1765793953
 30
0.0
 10
8.2644516786
 20
23.1719811453
 30
0.0
 10
8.2637907033
 20
23.1698342206
 30
0.0
  0
SPLINE
  5
544
100
AcDbEntity
  8
0
100
AcDbSpline
 62
7
  6
CONTINUOUS
 70
0
 71
3
 72
10
 73
6
 74
0
 42
0.0000001
 43
0.0000001
 44
0.0000000001
 40
0.0
 40
0.0
 40
0.0
 40
0.0
 40
0.5672503839
 40
0.801074318
 40
1.0
 40
1.0
 40
1.0
 40
1.0
 10
8.2632848214
 20
23.1682077851
 30
0.0
 10
8.2626899285
 20
23.1663154841
 30
0.0
 10
8.2618225731
 20
23.1636511889
 30
0.0
 10
8.2606416764
 20
23.1603595259
 30
0.0
 10
8.2600943995
 20
23.1589483494
 30
0.0
 10
8.2598299327
 20
23.1583049645
 30
0.0
  0
SPLINE
  5
545
100
AcDbEntity
  8
0
100
AcDbSpline
 62
7
  6
CONTINUOUS
 70
0
 71
3
 72
17
 73
13
 74
0
 42
0.0000001
 43
0.0000001
 44
0.0000000001
 40
0.0
 40
0.0
 40
0.0
 40
0.0
 40
0.0285539183
 40
0.0580101919
 40
0.0899913849
 40
0.125756485
 40
0.2117511345
 40
0.3203172002
 40
0.4532386921
 40
0.6110249219
 40
0.7934446258
 40
1.0
 40
1.0
 40
1.0
 40
1.0
 10
8.2380521128
 20
22.6007302102
 30
0.0
 10
8.2381995979
 20
22.6007303478
 30
0.0
 10
8.2385007392
 20
22.6006926675
 30
0.0
 10
8.2389363734
 20
22.6005183992
 30
0.0
 10
8.2393520599
 20
22.6002306316
 30
0.0
 10
8.2399146342
 20
22.5996654516
 30
0.0
 10
8.2405561811
 20
22.598649751
 30
0.0
 10
8.2412120949
 20
22.5970869686
 30
0.0
 10
8.2417973818
 20
22.5951059977
 30
0.0
 10
8.2423082125
 20
22.5927146581
 30
0.0
 10
8.2427414546
 20
22.5899228055
 30
0.0
 10
8.2429621601
 20
22.5879252655
 30
0.0
 10
8.2430615588
 20
22.5868630171
 30
0.0
  0
LINE
  5
546
100
AcDbEntity
  8
0
100
AcDbLine
 62
7
  6
CONTINUOUS
 10
8.2430615588
 20
22.5868630171
 11
8.2433837724
 21
22.5824275545
  0
LINE
  5
547
100
AcDbEntity
  8
0
100
AcDbLine
 62
7
  6
CONTINUOUS
 10
8.2433837724
 20
22.5824275545
 11
8.2436188563
 21
22.5730050425
  0
SPLINE
  5
548
100
AcDbEntity
  8
0
100
AcDbSpline
 62
7
  6
CONTINUOUS
 70
0
 71
3
 72
10
 73
6
 74
0
 42
0.0000001
 43
0.0000001
 44
0.0000000001
 40
0.0
 40
0.0
 40
0.0
 40
0.0
 40
0.199320171
 40
0.433261014
 40
1.0
 40
1.0
 40
1.0
 40
1.0
 10
8.2598188463
 20
20.1973938492
 30
0.0
 10
8.2600791444
 20
20.1967619733
 30
0.0
 10
8.2606180028
 20
20.1953773598
 30
0.0
 10
8.2617803352
 20
20.1921515819
 30
0.0
 10
8.262633657
 20
20.1895416614
 30
0.0
 10
8.2632180854
 20
20.1876885085
 30
0.0
  0
SPLINE
  5
549
100
AcDbEntity
  8
0
100
AcDbSpline
 62
7
  6
CONTINUOUS
 70
0
 71
3
 72
10
 73
6
 74
0
 42
0.0000001
 43
0.0000001
 44
0.0000000001
 40
0.0
 40
0.0
 40
0.0
 40
0.0
 40
0.2109264449
 40
0.450388211
 40
1.0
 40
1.0
 40
1.0
 40
1.0
 10
8.2637844944
 20
20.1858700626
 30
0.0
 10
8.2644458217
 20
20.1837216554
 30
0.0
 10
8.2658086135
 20
20.1791189873
 30
0.0
 10
8.2686882434
 20
20.1688579962
 30
0.0
 10
8.2708234235
 20
20.1607234859
 30
0.0
 10
8.2722669073
 20
20.1550468046
 30
0.0
  0
SPLINE
  5
54A
100
AcDbEntity
  8
0
100
AcDbSpline
 62
7
  6
CONTINUOUS
 70
0
 71
3
 72
17
 73
13
 74
0
 42
0.0000001
 43
0.0000001
 44
0.0000000001
 40
0.0
 40
0.0
 40
0.0
 40
0.0
 40
0.0469623874
 40
0.0769058462
 40
0.1121621375
 40
0.1531371737
 40
0.2000566189
 40
0.3121235917
 40
0.4487270516
 40
0.609445205
 40
0.7935013275
 40
1.0
 40
1.0
 40
1.0
 40
1.0
 10
8.259333277
 20
20.3626004134
 30
0.0
 10
8.2596062465
 20
20.3626004312
 30
0.0
 10
8.2600485996
 20
20.3624305718
 30
0.0
 10
8.2605725852
 20
20.3620463946
 30
0.0
 10
8.2610209996
 20
20.3616187089
 30
0.0
 10
8.2614882588
 20
20.3610758606
 30
0.0
 10
8.2621808029
 20
20.3601412791
 30
0.0
 10
8.263079865
 20
20.3586739494
 30
0.0
 10
8.2641768336
 20
20.3565611143
 30
0.0
 10
8.2653405606
 20
20.3540155604
 30
0.0
 10
8.2665651072
 20
20.3510539627
 30
0.0
 10
8.2673724238
 20
20.3489319477
 30
0.0
 10
8.2677869983
 20
20.3478055414
 30
0.0
  0
LINE
  5
54B
100
AcDbEntity
  8
0
100
AcDbLine
 62
7
  6
CONTINUOUS
 10
8.2679566524
 20
20.3473424546
 11
8.2722669073
 21
20.3342791231
  0
SPLINE
  5
54C
100
AcDbEntity
  8
0
100
AcDbSpline
 62
7
  6
CONTINUOUS
 70
0
 71
3
 72
16
 73
12
 74
0
 42
0.0000001
 43
0.0000001
 44
0.0000000001
 40
0.0
 40
0.0
 40
0.0
 40
0.0
 40
0.060427873
 40
0.0952921858
 40
0.1342357362
 40
0.2261015607
 40
0.3384184912
 40
0.4720844007
 40
0.6272229766
 40
0.8034048184
 40
1.0
 40
1.0
 40
1.0
 40
1.0
 10
8.2623886689
 20
20.6191214183
 30
0.0
 10
8.262745215
 20
20.6191220044
 30
0.0
 10
8.263309829
 20
20.6189819656
 30
0.0
 10
8.264009344
 20
20.6186094781
 30
0.0
 10
8.2648066489
 20
20.6180387537
 30
0.0
 10
8.2658259319
 20
20.6170182619
 30
0.0
 10
8.2670397207
 20
20.6154331484
 30
0.0
 10
8.268301907
 20
20.6134279711
 30
0.0
 10
8.2696067602
 20
20.6110129528
 30
0.0
 10
8.2709476337
 20
20.608200294
 30
0.0
 10
8.2718139126
 20
20.606177949
 30
0.0
 10
8.2722538534
 20
20.6051046298
 30
0.0
  0
SPLINE
  5
54D
100
AcDbEntity
  8
0
100
AcDbSpline
 62
7
  6
CONTINUOUS
 70
0
 71
3
 72
13
 73
9
 74
0
 42
0.0000001
 43
0.0000001
 44
0.0000000001
 40
0.0
 40
0.0
 40
0.0
 40
0.0
 40
0.0912119757
 40
0.1879427499
 40
0.2930671552
 40
0.4087181777
 40
0.6768720758
 40
1.0
 40
1.0
 40
1.0
 40
1.0
 10
8.2663606615
 20
20.9534278339
 30
0.0
 10
8.2665932834
 20
20.9534279724
 30
0.0
 10
8.2670737514
 20
20.9533774027
 30
0.0
 10
8.2677921874
 20
20.9531582596
 30
0.0
 10
8.2685206332
 20
20.9527976693
 30
0.0
 10
8.2695556656
 20
20.9520968949
 30
0.0
 10
8.2708639592
 20
20.9508398474
 30
0.0
 10
8.2717918927
 20
20.9496470104
 30
0.0
 10
8.2722669073
 20
20.9489736004
 30
0.0
  0
SPLINE
  5
54E
100
AcDbEntity
  8
0
100
AcDbSpline
 62
7
  6
CONTINUOUS
 70
0
 71
3
 72
19
 73
15
 74
0
 42
0.0000001
 43
0.0000001
 44
0.0000000001
 40
0.0
 40
0.0
 40
0.0
 40
0.0
 40
0.0195786486
 40
0.0427113387
 40
0.07087736
 40
0.1048779761
 40
0.1451302021
 40
0.1918007032
 40
0.2449327114
 40
0.3045064575
 40
0.4427131469
 40
0.6056399135
 40
0.7919175781
 40
1.0
 40
1.0
 40
1.0
 40
1.0
 10
8.2181484994
 20
20.6383203665
 30
0.0
 10
8.2182947052
 20
20.6383201363
 30
0.0
 10
8.2186143816
 20
20.6382507918
 30
0.0
 10
8.2190769131
 20
20.637983452
 30
0.0
 10
8.2195556887
 20
20.6375589612
 30
0.0
 10
8.220053846
 20
20.636976488
 30
0.0
 10
8.2205723669
 20
20.6362359796
 30
0.0
 10
8.2211109652
 20
20.6353387153
 30
0.0
 10
8.2216686909
 20
20.6342868334
 30
0.0
 10
8.2224767329
 20
20.6325958403
 30
0.0
 10
8.2235116244
 20
20.6301071968
 30
0.0
 10
8.2247570871
 20
20.6266863252
 30
0.0
 10
8.2260476405
 20
20.6227291961
 30
0.0
 10
8.2268853389
 20
20.6199055805
 30
0.0
 10
8.2273113921
 20
20.6184112495
 30
0.0
  0
SPLINE
  5
54F
100
AcDbEntity
  8
0
100
AcDbSpline
 62
7
  6
CONTINUOUS
 70
0
 71
3
 72
11
 73
7
 74
0
 42
0.0000001
 43
0.0000001
 44
0.0000000001
 40
0.0
 40
0.0
 40
0.0
 40
0.0
 40
0.2405312915
 40
0.493471978
 40
0.749824464
 40
1.0
 40
1.0
 40
1.0
 40
1.0
 10
8.2388158128
 20
21.1733078463
 30
0.0
 10
8.2395254932
 20
21.1690610788
 30
0.0
 10
8.2407894215
 20
21.1603157187
 30
0.0
 10
8.242218509
 20
21.1469670169
 30
0.0
 10
8.243190217
 20
21.133404137
 30
0.0
 10
8.2435131508
 20
21.1243401678
 30
0.0
 10
8.2435818275
 20
21.1198623998
 30
0.0
  0
LINE
  5
550
100
AcDbEntity
  8
0
100
AcDbLine
 62
7
  6
CONTINUOUS
 10
8.2709936434
 20
21.3427354852
 11
8.272278972
 21
21.3425417485
  0
SPLINE
  5
551
100
AcDbEntity
  8
0
100
AcDbSpline
 62
7
  6
CONTINUOUS
 70
0
 71
3
 72
15
 73
11
 74
0
 42
0.0000001
 43
0.0000001
 44
0.0000000001
 40
0.0
 40
0.0
 40
0.0
 40
0.0
 40
0.0702028497
 40
0.1484769385
 40
0.2410828765
 40
0.3517226496
 40
0.4824096392
 40
0.6339587175
 40
0.8065358236
 40
1.0
 40
1.0
 40
1.0
 40
1.0
 10
8.2312552847
 20
21.9313895061
 30
0.0
 10
8.2316062614
 20
21.9313896446
 30
0.0
 10
8.2323537704
 20
21.9312407687
 30
0.0
 10
8.2334007818
 20
21.9306111982
 30
0.0
 10
8.2344026267
 20
21.9296091929
 30
0.0
 10
8.2353689506
 20
21.9282410178
 30
0.0
 10
8.2363009704
 20
21.9265081657
 30
0.0
 10
8.2371971022
 20
21.9244159695
 30
0.0
 10
8.23805317
 20
21.9219724199
 30
0.0
 10
8.2385648927
 20
21.9202145488
 30
0.0
 10
8.2388158128
 20
21.9192804454
 30
0.0
  0
SPLINE
  5
552
100
AcDbEntity
  8
0
100
AcDbSpline
 62
7
  6
CONTINUOUS
 70
0
 71
3
 72
13
 73
9
 74
0
 42
0.0000001
 43
0.0000001
 44
0.0000000001
 40
0.0
 40
0.0
 40
0.0
 40
0.0
 40
0.0924907214
 40
0.1964714635
 40
0.3110432031
 40
0.4351635588
 40
0.7070258308
 40
1.0
 40
1.0
 40
1.0
 40
1.0
 10
8.2388158128
 20
21.9192804454
 30
0.0
 10
8.239214563
 20
21.917796013
 30
0.0
 10
8.2399581744
 20
21.9146147371
 30
0.0
 10
8.2408961832
 20
21.9095301368
 30
0.0
 10
8.2417120033
 20
21.9038928874
 30
0.0
 10
8.2426506018
 20
21.8954591014
 30
0.0
 10
8.243420421
 20
21.88403004
 30
0.0
 10
8.2436188563
 20
21.8746420945
 30
0.0
 10
8.2436188563
 20
21.8697733065
 30
0.0
  0
SPLINE
  5
553
100
AcDbEntity
  8
0
100
AcDbSpline
 62
7
  6
CONTINUOUS
 70
0
 71
3
 72
16
 73
12
 74
0
 42
0.0000001
 43
0.0000001
 44
0.0000000001
 40
0.0
 40
0.0
 40
0.0
 40
0.0
 40
0.0326569394
 40
0.066163428
 40
0.1402944359
 40
0.2300833135
 40
0.3396034374
 40
0.4709433553
 40
0.6248511139
 40
0.8013116568
 40
1.0
 40
1.0
 40
1.0
 40
1.0
 10
8.2348383473
 20
22.2843100757
 30
0.0
 10
8.2350053969
 20
22.2843102208
 30
0.0
 10
8.2353449529
 20
22.2842749976
 30
0.0
 10
8.2360322707
 20
22.2840529883
 30
0.0
 10
8.236878593
 20
22.2834656342
 30
0.0
 10
8.2377833414
 20
22.2823870111
 30
0.0
 10
8.2386342282
 20
22.2809184249
 30
0.0
 10
8.2394295541
 20
22.279058692
 30
0.0
 10
8.2401688796
 20
22.276813377
 30
0.0
 10
8.2408480172
 20
22.27419226
 30
0.0
 10
8.2412348874
 20
22.2723118843
 30
0.0
 10
8.2414202687
 20
22.2713125857
 30
0.0
  0
SPLINE
  5
554
100
AcDbEntity
  8
0
100
AcDbSpline
 62
7
  6
CONTINUOUS
 70
0
 71
3
 72
11
 73
7
 74
0
 42
0.0000001
 43
0.0000001
 44
0.0000000001
 40
0.0
 40
0.0
 40
0.0
 40
0.0
 40
0.2060584878
 40
0.4443702875
 40
0.7109991533
 40
1.0
 40
1.0
 40
1.0
 40
1.0
 10
8.2414202687
 20
22.2713125857
 30
0.0
 10
8.2418069405
 20
22.26922823
 30
0.0
 10
8.2424624314
 20
22.2647000543
 30
0.0
 10
8.24312944
 20
22.2574136388
 30
0.0
 10
8.2435330021
 20
22.2492535706
 30
0.0
 10
8.2436188563
 20
22.2435368037
 30
0.0
 10
8.2436188563
 20
22.2405635789
 30
0.0
  0
SPLINE
  5
555
100
AcDbEntity
  8
0
100
AcDbSpline
 62
7
  6
CONTINUOUS
 70
0
 71
3
 72
16
 73
12
 74
0
 42
0.0000001
 43
0.0000001
 44
0.0000000001
 40
0.0
 40
0.0
 40
0.0
 40
0.0
 40
0.0712879299
 40
0.1510950684
 40
0.2450439208
 40
0.356491637
 40
0.4194187166
 40
0.4872924189
 40
0.6380632425
 40
0.8090065185
 40
1.0
 40
1.0
 40
1.0
 40
1.0
 10
8.22755071
 20
21.5660189315
 30
0.0
 10
8.2278909745
 20
21.5660187575
 30
0.0
 10
8.2286161439
 20
21.5658794499
 30
0.0
 10
8.2296482301
 20
21.5653005044
 30
0.0
 10
8.2306590854
 20
21.5643764816
 30
0.0
 10
8.2314548896
 20
21.5633677806
 30
0.0
 10
8.2320920579
 20
21.5624025386
 30
0.0
 10
8.2327743411
 20
21.561243984
 30
0.0
 10
8.2336088061
 20
21.5595798938
 30
0.0
 10
8.2345591122
 20
21.5573233959
 30
0.0
 10
8.2351445889
 20
21.5556972216
 30
0.0
 10
8.2354355962
 20
21.5548332849
 30
0.0
  0
SPLINE
  5
556
100
AcDbEntity
  8
0
100
AcDbSpline
 62
7
  6
CONTINUOUS
 70
0
 71
3
 72
15
 73
11
 74
0
 42
0.0000001
 43
0.0000001
 44
0.0000000001
 40
0.0
 40
0.0
 40
0.0
 40
0.0
 40
0.0889351465
 40
0.1919440276
 40
0.3075833626
 40
0.4339187173
 40
0.5688044037
 40
0.7098817849
 40
0.8546329936
 40
1.0
 40
1.0
 40
1.0
 40
1.0
 10
8.2354355962
 20
21.5548332849
 30
0.0
 10
8.2360730056
 20
21.5529409569
 30
0.0
 10
8.2372681698
 20
21.5487959077
 30
0.0
 10
8.2387928323
 20
21.5420578321
 30
0.0
 10
8.2401516069
 20
21.5344298508
 30
0.0
 10
8.2413208165
 20
21.5260479713
 30
0.0
 10
8.2422732557
 20
21.5170643331
 30
0.0
 10
8.2429907335
 20
21.5076443148
 30
0.0
 10
8.2434542256
 20
21.4979729278
 30
0.0
 10
8.2435892906
 20
21.491459545
 30
0.0
 10
8.2436111507
 20
21.4881957981
 30
0.0
  0
SPLINE
  5
557
100
AcDbEntity
  8
0
100
AcDbSpline
 62
7
  6
CONTINUOUS
 70
0
 71
3
 72
10
 73
6
 74
0
 42
0.0000001
 43
0.0000001
 44
0.0000000001
 40
0.0
 40
0.0
 40
0.0
 40
0.0
 40
0.3703751084
 40
0.6488329567
 40
1.0
 40
1.0
 40
1.0
 40
1.0
 10
8.2162972627
 20
20.4556367738
 30
0.0
 10
8.216483117
 20
20.4556365926
 30
0.0
 10
8.2167832301
 20
20.45542843
 30
0.0
 10
8.2171071636
 20
20.4550576666
 30
0.0
 10
8.2172887672
 20
20.4547952319
 30
0.0
 10
8.2173835574
 20
20.4546466828
 30
0.0
  0
SPLINE
  5
558
100
AcDbEntity
  8
0
100
AcDbSpline
 62
7
  6
CONTINUOUS
 70
0
 71
3
 72
14
 73
10
 74
0
 42
0.0000001
 43
0.0000001
 44
0.0000000001
 40
0.0
 40
0.0
 40
0.0
 40
0.0
 40
0.0634260481
 40
0.1452666442
 40
0.2452979598
 40
0.3631449447
 40
0.4983109725
 40
0.6500549907
 40
1.0
 40
1.0
 40
1.0
 40
1.0
 10
8.2173835574
 20
20.4546466828
 30
0.0
 10
8.2175948842
 20
20.4543155046
 30
0.0
 10
8.2180217504
 20
20.4535211518
 30
0.0
 10
8.2186441048
 20
20.4521347005
 30
0.0
 10
8.219323164
 20
20.4504062229
 30
0.0
 10
8.220054222
 20
20.4483450433
 30
0.0
 10
8.2208322238
 20
20.4459615273
 30
0.0
 10
8.2219830945
 20
20.4421883172
 30
0.0
 10
8.2228183688
 20
20.4391947215
 30
0.0
 10
8.2233809936
 20
20.4371014667
 30
0.0
  0
SPLINE
  5
559
100
AcDbEntity
  8
0
100
AcDbSpline
 62
7
  6
CONTINUOUS
 70
0
 71
3
 72
13
 73
9
 74
0
 42
0.0000001
 43
0.0000001
 44
0.0000000001
 40
0.0
 40
0.0
 40
0.0
 40
0.0
 40
0.1001696177
 40
0.2122111016
 40
0.3339298026
 40
0.4629149487
 40
0.7325585074
 40
1.0
 40
1.0
 40
1.0
 40
1.0
 10
8.2233809936
 20
20.4371014667
 30
0.0
 10
8.2240388901
 20
20.4346537518
 30
0.0
 10
8.2253731058
 20
20.4294521722
 30
0.0
 10
8.2273353406
 20
20.4212334678
 30
0.0
 10
8.2293386931
 20
20.4122759434
 30
0.0
 10
8.2320559449
 20
20.3993928015
 30
0.0
 10
8.2352640105
 20
20.3828461068
 30
0.0
 10
8.2375759722
 20
20.369453081
 30
0.0
 10
8.2386464374
 20
20.362771223
 30
0.0
  0
SPLINE
  5
55A
100
AcDbEntity
  8
0
100
AcDbSpline
 62
9
  6
CONTINUOUS
 70
0
 71
3
 72
28
 73
24
 74
0
 42
0.0000001
 43
0.0000001
 44
0.0000000001
 40
0.0
 40
0.0
 40
0.0
 40
0.0
 40
0.082710931
 40
0.1522129248
 40
0.2084095741
 40
0.2513757707
 40
0.2680754825
 40
0.2818147967
 40
0.2929533986
 40
0.3021578984
 40
0.3105647753
 40
0.3196130273
 40
0.3304874555
 40
0.3438952788
 40
0.3602179836
 40
0.3796681895
 40
0.4283930731
 40
0.4906588892
 40
0.5667321675
 40
0.6565106058
 40
0.759236892
 40
0.8740327686
 40
1.0
 40
1.0
 40
1.0
 40
1.0
 10
8.109670639
 20
20.8560223383
 30
0.0
 10
8.1098344364
 20
20.8554526259
 30
0.0
 10
8.1101502159
 20
20.8544082262
 30
0.0
 10
8.1106393586
 20
20.8529961159
 30
0.0
 10
8.1111010959
 20
20.8518784927
 30
0.0
 10
8.1114860129
 20
20.8511394572
 30
0.0
 10
8.1117908467
 20
20.850709543
 30
0.0
 10
8.1119933469
 20
20.8504893807
 30
0.0
 10
8.1121909571
 20
20.8503423563
 30
0.0
 10
8.1123890137
 20
20.85027064
 30
0.0
 10
8.1125857881
 20
20.8502860636
 30
0.0
 10
8.112766859
 20
20.8503882755
 30
0.0
 10
8.1129312075
 20
20.8505646893
 30
0.0
 10
8.1130848216
 20
20.8508132638
 30
0.0
 10
8.1132295758
 20
20.851135389
 30
0.0
 10
8.1134261993
 20
20.8517088046
 30
0.0
 10
8.1136369486
 20
20.8526216241
 30
0.0
 10
8.113841854
 20
20.8539470434
 30
0.0
 10
8.1140096452
 20
20.8555739289
 30
0.0
 10
8.1141392832
 20
20.8574947006
 30
0.0
 10
8.1142321075
 20
20.8596953604
 30
0.0
 10
8.1142887122
 20
20.8621566168
 30
0.0
 10
8.1143023307
 20
20.8638821812
 30
0.0
 10
8.1143041185
 20
20.8647849901
 30
0.0
  0
SPLINE
  5
55B
100
AcDbEntity
  8
0
100
AcDbSpline
 62
9
  6
CONTINUOUS
 70
0
 71
3
 72
35
 73
31
 74
0
 42
0.0000001
 43
0.0000001
 44
0.0000000001
 40
0.0
 40
0.0
 40
0.0
 40
0.0
 40
0.0140490241
 40
0.0319283338
 40
0.0535006409
 40
0.0785903244
 40
0.1384712657
 40
0.2096015243
 40
0.2896566419
 40
0.3760568484
 40
0.46605024
 40
0.5567781054
 40
0.64537609
 40
0.7290360986
 40
0.7681842821
 40
0.8051171887
 40
0.8395481894
 40
0.8712042538
 40
0.8998276668
 40
0.925193825
 40
0.9470903465
 40
0.9653448453
 40
0.9798073552
 40
0.9855835801
 40
0.9903775935
 40
0.9941851552
 40
0.9970150119
 40
0.9980734901
 40
0.9989064919
 40
1.0
 40
1.0
 40
1.0
 40
1.0
 10
8.1026073407
 20
22.6187061142
 30
0.0
 10
8.1026073441
 20
22.6180461115
 30
0.0
 10
8.1025675577
 20
22.61654626
 30
0.0
 10
8.1024348406
 20
22.6140362866
 30
0.0
 10
8.1022201093
 20
22.6110116961
 30
0.0
 10
8.1018006388
 20
22.6060239841
 30
0.0
 10
8.1010736759
 20
22.5987263267
 30
0.0
 10
8.0999663296
 20
22.5888726154
 30
0.0
 10
8.0986114142
 20
22.5777935738
 30
0.0
 10
8.0970526561
 20
22.5658471403
 30
0.0
 10
8.0953394377
 20
22.5534155553
 30
0.0
 10
8.0935264023
 20
22.540893804
 30
0.0
 10
8.0916712627
 20
22.528679085
 30
0.0
 10
8.0901064262
 20
22.518871461
 30
0.0
 10
8.0888746065
 20
22.5114688215
 30
0.0
 10
8.0879972189
 20
22.5063517756
 30
0.0
 10
8.0871528478
 20
22.5015862447
 30
0.0
 10
8.0863482897
 20
22.4972101945
 30
0.0
 10
8.0855899472
 20
22.4932587459
 30
0.0
 10
8.0848843331
 20
22.4897641931
 30
0.0
 10
8.0842374601
 20
22.4867549017
 30
0.0
 10
8.0836549773
 20
22.48425612
 30
0.0
 10
8.08320091
 20
22.4825052687
 30
0.0
 10
8.0828660946
 20
22.4813777731
 30
0.0
 10
8.0826538553
 20
22.4807364397
 30
0.0
 10
8.0824608824
 20
22.480234767
 30
0.0
 10
8.082307642
 20
22.4799072742
 30
0.0
 10
8.0821883663
 20
22.479718238
 30
0.0
 10
8.0821023113
 20
22.4796111178
 30
0.0
 10
8.0820197372
 20
22.4795502512
 30
0.0
 10
8.0819683657
 20
22.4795502778
 30
0.0
  0
SPLINE
  5
55C
100
AcDbEntity
  8
0
100
AcDbSpline
 62
9
  6
CONTINUOUS
 70
0
 71
3
 72
13
 73
9
 74
0
 42
0.0000001
 43
0.0000001
 44
0.0000000001
 40
0.0
 40
0.0
 40
0.0
 40
0.0
 40
0.2766797439
 40
0.5224089718
 40
0.6325573938
 40
0.7470985641
 40
0.8700521967
 40
1.0
 40
1.0
 40
1.0
 40
1.0
 10
8.1026073407
 20
22.6187061142
 30
0.0
 10
8.1041371114
 20
22.6187054146
 30
0.0
 10
8.1070560644
 20
22.6192571686
 30
0.0
 10
8.1100990932
 20
22.6211219801
 30
0.0
 10
8.1119136766
 20
22.622998243
 30
0.0
 10
8.1130134049
 20
22.6245861049
 30
0.0
 10
8.1138670796
 20
22.6264414257
 30
0.0
 10
8.1142029743
 20
22.6278098364
 30
0.0
 10
8.114305403
 20
22.6285209831
 30
0.0
  0
SPLINE
  5
55D
100
AcDbEntity
  8
0
100
AcDbSpline
 62
9
  6
CONTINUOUS
 70
0
 71
3
 72
25
 73
21
 74
0
 42
0.0000001
 43
0.0000001
 44
0.0000000001
 40
0.0
 40
0.0
 40
0.0
 40
0.0
 40
0.1135568644
 40
0.2130969495
 40
0.2985062616
 40
0.3696872823
 40
0.4692514218
 40
0.498363027
 40
0.5161056709
 40
0.5234967617
 40
0.5321915418
 40
0.5434332027
 40
0.5577880496
 40
0.5755008035
 40
0.5966793321
 40
0.6495707841
 40
0.7165300068
 40
0.7974091702
 40
0.8919853043
 40
1.0
 40
1.0
 40
1.0
 40
1.0
 10
8.1127932007
 20
22.628468922
 30
0.0
 10
8.1128509556
 20
22.6287053719
 30
0.0
 10
8.1129623549
 20
22.6291484097
 30
0.0
 10
8.1131299481
 20
22.6297657621
 30
0.0
 10
8.1132864881
 20
22.6302925751
 30
0.0
 10
8.1134615
 20
22.6308113563
 30
0.0
 10
8.1136226243
 20
22.6312153884
 30
0.0
 10
8.1137927863
 20
22.631474364
 30
0.0
 10
8.1138984626
 20
22.6315487917
 30
0.0
 10
8.1139729234
 20
22.6315310378
 30
0.0
 10
8.1140172741
 20
22.6314905703
 30
0.0
 10
8.1140566629
 20
22.6314280784
 30
0.0
 10
8.1140928556
 20
22.631342277
 30
0.0
 10
8.1141262052
 20
22.6312330114
 30
0.0
 10
8.114170182
 20
22.6310411355
 30
0.0
 10
8.1142144842
 20
22.6307417542
 30
0.0
 10
8.1142540441
 20
22.6303132434
 30
0.0
 10
8.1142824586
 20
22.6297943197
 30
0.0
 10
8.1142998099
 20
22.6291869278
 30
0.0
 10
8.1143036966
 20
22.628752679
 30
0.0
 10
8.1143041185
 20
22.6285211573
 30
0.0
  0
LINE
  5
55E
100
AcDbEntity
  8
0
100
AcDbLine
 62
9
  6
CONTINUOUS
 10
8.1026074693
 20
22.6538823869
 11
8.0981235194
 21
22.6221753479
  0
LINE
  5
55F
100
AcDbEntity
  8
0
100
AcDbLine
 62
9
  6
CONTINUOUS
 10
8.0981235194
 20
22.6221753479
 11
8.0980318691
 21
22.6215469139
  0
SPLINE
  5
560
100
AcDbEntity
  8
0
100
AcDbSpline
 62
9
  6
CONTINUOUS
 70
0
 71
3
 72
31
 73
27
 74
0
 42
0.0000001
 43
0.0000001
 44
0.0000000001
 40
0.0
 40
0.0
 40
0.0
 40
0.0
 40
0.0799920192
 40
0.1459758074
 40
0.1737146095
 40
0.1979584257
 40
0.2187241579
 40
0.2360457967
 40
0.2499911553
 40
0.2607036617
 40
0.268522753
 40
0.2743437559
 40
0.2800905809
 40
0.2877339046
 40
0.2982181128
 40
0.3119065142
 40
0.3289544914
 40
0.3494375213
 40
0.3733955663
 40
0.4008507428
 40
0.4662916639
 40
0.5457400759
 40
0.6390322915
 40
0.7459761298
 40
0.8663684945
 40
1.0
 40
1.0
 40
1.0
 40
1.0
 10
8.0933183202
 20
22.4694427151
 30
0.0
 10
8.0933183147
 20
22.4691440528
 30
0.0
 10
8.0933235044
 20
22.4685990095
 30
0.0
 10
8.0933481633
 20
22.4679507211
 30
0.0
 10
8.0933802536
 20
22.4675113985
 30
0.0
 10
8.0934079022
 20
22.4672411465
 30
0.0
 10
8.0934403942
 20
22.4670106184
 30
0.0
 10
8.0934777218
 20
22.4668198608
 30
0.0
 10
8.0935194935
 20
22.4666685079
 30
0.0
 10
8.0935663616
 20
22.4665562448
 30
0.0
 10
8.0936178665
 20
22.4664799679
 30
0.0
 10
8.0936850633
 20
22.4664415796
 30
0.0
 10
8.0937598358
 20
22.4664592089
 30
0.0
 10
8.0938282222
 20
22.4665184716
 30
0.0
 10
8.0939003919
 20
22.4666132591
 30
0.0
 10
8.0939770226
 20
22.4667470927
 30
0.0
 10
8.0940588027
 20
22.4669200666
 30
0.0
 10
8.0941454871
 20
22.467132749
 30
0.0
 10
8.09423706
 20
22.4673851308
 30
0.0
 10
8.0943736709
 20
22.4677995363
 30
0.0
 10
8.0945533308
 20
22.4684176009
 30
0.0
 10
8.0947769336
 20
22.469278384
 30
0.0
 10
8.0950185529
 20
22.4702943529
 30
0.0
 10
8.0952775785
 20
22.471463143
 30
0.0
 10
8.0955533523
 20
22.4727823806
 30
0.0
 10
8.0957384335
 20
22.4737125973
 30
0.0
 10
8.0958339327
 20
22.4742023059
 30
0.0
  0
SPLINE
  5
561
100
AcDbEntity
  8
0
100
AcDbSpline
 62
9
  6
CONTINUOUS
 70
0
 71
3
 72
19
 73
15
 74
0
 42
0.0000001
 43
0.0000001
 44
0.0000000001
 40
0.0
 40
0.0
 40
0.0
 40
0.0
 40
0.0376366942
 40
0.0840082299
 40
0.1382446346
 40
0.1993284076
 40
0.3374187944
 40
0.4881983121
 40
0.6406918873
 40
0.7837078153
 40
0.8482903173
 40
0.9065919592
 40
0.9574737691
 40
1.0
 40
1.0
 40
1.0
 40
1.0
 10
8.0958339327
 20
22.4742023059
 30
0.0
 10
8.0961885897
 20
22.4760209437
 30
0.0
 10
8.0969265659
 20
22.480090709
 30
0.0
 10
8.0980457823
 20
22.4868040907
 30
0.0
 10
8.0992741672
 20
22.49466913
 30
0.0
 10
8.1011025128
 20
22.5070102016
 30
0.0
 10
8.1034605195
 20
22.5240770958
 30
0.0
 10
8.1062285073
 20
22.54562916
 30
0.0
 10
8.1088341365
 20
22.5674456918
 30
0.0
 10
8.1107737399
 20
22.5850673666
 30
0.0
 10
8.1120887497
 20
22.5980917851
 30
0.0
 10
8.1128881883
 20
22.6066091409
 30
0.0
 10
8.1135198487
 20
22.6140513119
 30
0.0
 10
8.1138544528
 20
22.6186379228
 30
0.0
 10
8.1139857999
 20
22.6207274123
 30
0.0
  0
LINE
  5
562
100
AcDbEntity
  8
0
100
AcDbLine
 62
9
  6
CONTINUOUS
 10
8.1139857999
 20
22.6207274123
 11
8.1143041185
 21
22.6285211573
  0
SPLINE
  5
563
100
AcDbEntity
  8
0
100
AcDbSpline
 62
9
  6
CONTINUOUS
 70
0
 71
3
 72
22
 73
18
 74
0
 42
0.0000001
 43
0.0000001
 44
0.0000000001
 40
0.0
 40
0.0
 40
0.0
 40
0.0
 40
0.0080931253
 40
0.016545162
 40
0.0258027889
 40
0.0362079955
 40
0.0612924385
 40
0.092948074
 40
0.1316519799
 40
0.1775638502
 40
0.2306845725
 40
0.2909335117
 40
0.3581367232
 40
0.4320815304
 40
0.5990931497
 40
0.7894223097
 40
1.0
 40
1.0
 40
1.0
 40
1.0
 10
8.0974296909
 20
22.2082864427
 30
0.0
 10
8.0975272216
 20
22.2082861212
 30
0.0
 10
8.097727436
 20
22.2082595929
 30
0.0
 10
8.0980182972
 20
22.2081420849
 30
0.0
 10
8.0982997072
 20
22.2079495359
 30
0.0
 10
8.098686868
 20
22.2075712252
 30
0.0
 10
8.0991403597
 20
22.2068925261
 30
0.0
 10
8.0996236344
 20
22.2058465709
 30
0.0
 10
8.1000773351
 20
22.2045187425
 30
0.0
 10
8.1004996692
 20
22.2029125564
 30
0.0
 10
8.1008886807
 20
22.2010321337
 30
0.0
 10
8.1012419264
 20
22.1988844239
 30
0.0
 10
8.1015579749
 20
22.1964776751
 30
0.0
 10
8.1019428702
 20
22.1927836538
 30
0.0
 10
8.102303717
 20
22.1875972313
 30
0.0
 10
8.1025561394
 20
22.180757023
 30
0.0
 10
8.1026073543
 20
22.1759253446
 30
0.0
 10
8.1026073496
 20
22.173387646
 30
0.0
  0
SPLINE
  5
564
100
AcDbEntity
  8
0
100
AcDbSpline
 62
9
  6
CONTINUOUS
 70
0
 71
3
 72
11
 73
7
 74
0
 42
0.0000001
 43
0.0000001
 44
0.0000000001
 40
0.0
 40
0.0
 40
0.0
 40
0.0
 40
0.4473224684
 40
0.6736376392
 40
0.7486541218
 40
1.0
 40
1.0
 40
1.0
 40
1.0
 10
8.1143041185
 20
22.6640639668
 30
0.0
 10
8.1143040866
 20
22.664069583
 30
0.0
 10
8.1143026011
 20
22.6640762379
 30
0.0
 10
8.1143043376
 20
22.664089636
 30
0.0
 10
8.1142959542
 20
22.6640891334
 30
0.0
 10
8.1142960223
 20
22.6640833616
 30
0.0
 10
8.1142949927
 20
22.6640803785
 30
0.0
  0
LINE
  5
565
100
AcDbEntity
  8
0
100
AcDbLine
 62
9
  6
CONTINUOUS
 10
8.1142949927
 20
22.6640803785
 11
8.1139958996
 21
22.6621631375
  0
LINE
  5
566
100
AcDbEntity
  8
0
100
AcDbLine
 62
9
  6
CONTINUOUS
 10
8.1094403079
 20
22.624037393
 11
8.109502268
 21
22.6245323886
  0
LINE
  5
567
100
AcDbEntity
  8
0
100
AcDbLine
 62
9
  6
CONTINUOUS
 10
8.109502268
 20
22.6245323886
 11
8.1099767015
 21
22.6283268835
  0
LINE
  5
568
100
AcDbEntity
  8
0
100
AcDbLine
 62
9
  6
CONTINUOUS
 10
8.1129836155
 20
22.6526470182
 11
8.1139630043
 21
22.6608386135
  0
LINE
  5
569
100
AcDbEntity
  8
0
100
AcDbLine
 62
9
  6
CONTINUOUS
 10
8.1139630043
 20
22.6608386135
 11
8.1143041185
 21
22.6640639668
  0
SPLINE
  5
56A
100
AcDbEntity
  8
0
100
AcDbSpline
 62
9
  6
CONTINUOUS
 70
0
 71
3
 72
24
 73
20
 74
0
 42
0.0000001
 43
0.0000001
 44
0.0000000001
 40
0.0
 40
0.0
 40
0.0
 40
0.0
 40
0.0076947247
 40
0.0158804338
 40
0.0250444894
 40
0.0355337597
 40
0.0475669447
 40
0.061279184
 40
0.0940234344
 40
0.1341240596
 40
0.1816705381
 40
0.2365771491
 40
0.2985548167
 40
0.3672607312
 40
0.442332038
 40
0.5233850049
 40
0.6099342524
 40
0.7973193519
 40
1.0
 40
1.0
 40
1.0
 40
1.0
 10
8.0950818651
 20
22.0058819676
 30
0.0
 10
8.0952164054
 20
22.005881645
 30
0.0
 10
8.0954953994
 20
22.0058406088
 30
0.0
 10
8.0958993257
 20
22.0056605414
 30
0.0
 10
8.0962912924
 20
22.0053666245
 30
0.0
 10
8.0966727441
 20
22.0049621144
 30
0.0
 10
8.0970456315
 20
22.004448298
 30
0.0
 10
8.0975626897
 20
22.0035645287
 30
0.0
 10
8.0981697769
 20
22.0021733425
 30
0.0
 10
8.0988272686
 20
22.0001719711
 30
0.0
 10
8.0994446993
 20
21.9977555454
 30
0.0
 10
8.1000172395
 20
21.9949372577
 30
0.0
 10
8.1005419128
 20
21.9917343072
 30
0.0
 10
8.1010146639
 20
21.9881674656
 30
0.0
 10
8.1014317861
 20
21.9842581851
 30
0.0
 10
8.1017893282
 20
21.9800298814
 30
0.0
 10
8.102194421
 20
21.9738359322
 30
0.0
 10
8.1025257336
 20
21.9655075827
 30
0.0
 10
8.1026069013
 20
21.9586870005
 30
0.0
 10
8.1026064937
 20
21.9551431722
 30
0.0
  0
SPLINE
  5
56B
100
AcDbEntity
  8
0
100
AcDbSpline
 62
9
  6
CONTINUOUS
 70
0
 71
3
 72
11
 73
7
 74
0
 42
0.0000001
 43
0.0000001
 44
0.0000000001
 40
0.0
 40
0.0
 40
0.0
 40
0.0
 40
0.1984547719
 40
0.4209047903
 40
0.6846847897
 40
1.0
 40
1.0
 40
1.0
 40
1.0
 10
8.0925475576
 20
21.7882024844
 30
0.0
 10
8.0927424587
 20
21.7882022342
 30
0.0
 10
8.0931583376
 20
21.7881189673
 30
0.0
 10
8.093744328
 20
21.7877718909
 30
0.0
 10
8.0943124161
 20
21.787219982
 30
0.0
 10
8.0946513058
 20
21.7867607341
 30
0.0
 10
8.0948217646
 20
21.7865022021
 30
0.0
  0
SPLINE
  5
56C
100
AcDbEntity
  8
0
100
AcDbSpline
 62
9
  6
CONTINUOUS
 70
0
 71
3
 72
18
 73
14
 74
0
 42
0.0000001
 43
0.0000001
 44
0.0000000001
 40
0.0
 40
0.0
 40
0.0
 40
0.0
 40
0.0252469398
 40
0.0564228217
 40
0.0936133229
 40
0.136701504
 40
0.1855067712
 40
0.239817126
 40
0.3637817625
 40
0.5055021685
 40
0.6614899667
 40
0.8277463411
 40
1.0
 40
1.0
 40
1.0
 40
1.0
 10
8.0948217646
 20
21.7865022021
 30
0.0
 10
8.0951318955
 20
21.7860318318
 30
0.0
 10
8.0957253084
 20
21.7849155469
 30
0.0
 10
8.0965033032
 20
21.7829747552
 30
0.0
 10
8.0972556289
 20
21.7806020954
 30
0.0
 10
8.0979775468
 20
21.7778124234
 30
0.0
 10
8.0986635354
 20
21.7746218907
 30
0.0
 10
8.099562376
 20
21.7696339919
 30
0.0
 10
8.1005286855
 20
21.7625556229
 30
0.0
 10
8.1014382711
 20
21.7531880281
 30
0.0
 10
8.1021062153
 20
21.7428541885
 30
0.0
 10
8.1025167519
 20
21.7318254942
 30
0.0
 10
8.1026069182
 20
21.7242709502
 30
0.0
 10
8.1026064938
 20
21.7204269515
 30
0.0
  0
SPLINE
  5
56D
100
AcDbEntity
  8
0
100
AcDbSpline
 62
9
  6
CONTINUOUS
 70
0
 71
3
 72
25
 73
21
 74
0
 42
0.0000001
 43
0.0000001
 44
0.0000000001
 40
0.0
 40
0.0
 40
0.0
 40
0.0
 40
0.1878043758
 40
0.3695598901
 40
0.4559066466
 40
0.5381004723
 40
0.6153076298
 40
0.6867518462
 40
0.7518237747
 40
0.8099588877
 40
0.860624606
 40
0.9034698682
 40
0.9219169895
 40
0.938371887
 40
0.9528500384
 40
0.9653958183
 40
0.9761064115
 40
0.9851826692
 40
0.9929682059
 40
1.0
 40
1.0
 40
1.0
 40
1.0
 10
8.1026074694
 20
21.7204271846
 30
0.0
 10
8.102607603
 20
21.7156581468
 30
0.0
 10
8.1024672328
 20
21.7062731531
 30
0.0
 10
8.1019459897
 20
21.6947056532
 30
0.0
 10
8.1013161724
 20
21.6858322603
 30
0.0
 10
8.1007602832
 20
21.6796162442
 30
0.0
 10
8.100118649
 20
21.6737889934
 30
0.0
 10
8.0993966036
 20
21.6684094208
 30
0.0
 10
8.0986036932
 20
21.6635298031
 30
0.0
 10
8.0977497314
 20
21.6591967647
 30
0.0
 10
8.0968425557
 20
21.6554529789
 30
0.0
 10
8.0960149756
 20
21.6527302036
 30
0.0
 10
8.0953187496
 20
21.6508820094
 30
0.0
 10
8.0948155229
 20
21.6497326919
 30
0.0
 10
8.0943061695
 20
21.6487519623
 30
0.0
 10
8.0937914926
 20
21.6479418043
 30
0.0
 10
8.0932709896
 20
21.6473035435
 30
0.0
 10
8.0927427865
 20
21.646837413
 30
0.0
 10
8.0922030111
 20
21.6465456725
 30
0.0
 10
8.091825389
 20
21.6464741992
 30
0.0
 10
8.0916468363
 20
21.6464722942
 30
0.0
  0
SPLINE
  5
56E
100
AcDbEntity
  8
0
100
AcDbSpline
 62
9
  6
CONTINUOUS
 70
0
 71
3
 72
17
 73
13
 74
0
 42
0.0000001
 43
0.0000001
 44
0.0000000001
 40
0.0
 40
0.0
 40
0.0
 40
0.0
 40
0.2236976033
 40
0.4184101748
 40
0.584072122
 40
0.7207167667
 40
0.8285842153
 40
0.908420553
 40
0.9384909244
 40
0.9627468571
 40
0.98246905
 40
1.0
 40
1.0
 40
1.0
 40
1.0
 10
8.1026074697
 20
20.7632912303
 30
0.0
 10
8.1026075008
 20
20.7629435556
 30
0.0
 10
8.1026018219
 20
20.7622932299
 30
0.0
 10
8.1025720634
 20
20.7613858097
 30
0.0
 10
8.1025219859
 20
20.7606148458
 30
0.0
 10
8.1024523775
 20
20.7599806833
 30
0.0
 10
8.1023634405
 20
20.7594843476
 30
0.0
 10
8.1022682437
 20
20.7591575416
 30
0.0
 10
8.1021746919
 20
20.7589704258
 30
0.0
 10
8.1021054641
 20
20.7588774341
 30
0.0
 10
8.1020282216
 20
20.758817938
 30
0.0
 10
8.1019696752
 20
20.7588041545
 30
0.0
 10
8.1019424283
 20
20.7588040994
 30
0.0
  0
SPLINE
  5
56F
100
AcDbEntity
  8
0
100
AcDbSpline
 62
9
  6
CONTINUOUS
 70
0
 71
3
 72
13
 73
9
 74
0
 42
0.0000001
 43
0.0000001
 44
0.0000000001
 40
0.0
 40
0.0
 40
0.0
 40
0.0
 40
0.2798079376
 40
0.5266742938
 40
0.6365732326
 40
0.750334769
 40
0.8719269565
 40
1.0
 40
1.0
 40
1.0
 40
1.0
 10
8.1026073484
 20
20.7632912284
 30
0.0
 10
8.1041356341
 20
20.7632919206
 30
0.0
 10
8.1070414388
 20
20.7627602983
 30
0.0
 10
8.1100911217
 20
20.7609502159
 30
0.0
 10
8.1119110521
 20
20.7591225616
 30
0.0
 10
8.1130113586
 20
20.7575796253
 30
0.0
 10
8.1138660556
 20
20.7557760453
 30
0.0
 10
8.1142030381
 20
20.7544433282
 30
0.0
 10
8.1143056031
 20
20.7537513647
 30
0.0
  0
SPLINE
  5
570
100
AcDbEntity
  8
0
100
AcDbSpline
 62
9
  6
CONTINUOUS
 70
0
 71
3
 72
15
 73
11
 74
0
 42
0.0000001
 43
0.0000001
 44
0.0000000001
 40
0.0
 40
0.0
 40
0.0
 40
0.0
 40
0.1385011917
 40
0.2798461976
 40
0.4205181412
 40
0.5577300825
 40
0.6877405398
 40
0.8055645135
 40
0.9104039024
 40
1.0
 40
1.0
 40
1.0
 40
1.0
 10
8.1044390655
 20
20.8552410962
 30
0.0
 10
8.1050037112
 20
20.8509813262
 30
0.0
 10
8.1061125058
 20
20.8423700471
 30
0.0
 10
8.1076919654
 20
20.8294192313
 30
0.0
 10
8.1091682249
 20
20.8164964868
 30
0.0
 10
8.1105212705
 20
20.8039139578
 30
0.0
 10
8.1117232456
 20
20.7920282606
 30
0.0
 10
8.1126971807
 20
20.7811296332
 30
0.0
 10
8.1134590944
 20
20.7714716497
 30
0.0
 10
8.1138639923
 20
20.7654524627
 30
0.0
 10
8.1140154182
 20
20.7626768516
 30
0.0
  0
LINE
  5
571
100
AcDbEntity
  8
0
100
AcDbLine
 62
9
  6
CONTINUOUS
 10
8.1140154182
 20
20.7626768516
 11
8.1143041185
 21
20.7537511707
  0
SPLINE
  5
572
100
AcDbEntity
  8
0
100
AcDbSpline
 62
9
  6
CONTINUOUS
 70
0
 71
3
 72
29
 73
25
 74
0
 42
0.0000001
 43
0.0000001
 44
0.0000000001
 40
0.0
 40
0.0
 40
0.0
 40
0.0
 40
0.0041673545
 40
0.007117794
 40
0.0107739917
 40
0.0151788987
 40
0.0203542659
 40
0.0263111714
 40
0.0330542519
 40
0.0488729773
 40
0.0677276293
 40
0.0895129032
 40
0.1141154868
 40
0.1712063912
 40
0.2375770987
 40
0.3116638604
 40
0.3916542092
 40
0.4756003301
 40
0.5614675599
 40
0.7304303032
 40
0.8093061858
 40
0.8816995134
 40
0.9458198177
 40
1.0
 40
1.0
 40
1.0
 40
1.0
 10
8.0834326133
 20
21.0024483723
 30
0.0
 10
8.0836152538
 20
21.0024478342
 30
0.0
 10
8.0839117299
 20
21.002270719
 30
0.0
 10
8.0842268015
 20
21.0019266008
 30
0.0
 10
8.0845077307
 20
21.0015303802
 30
0.0
 10
8.0847976712
 20
21.0010281537
 30
0.0
 10
8.0851004252
 20
21.0004175707
 30
0.0
 10
8.085414166
 20
20.9996995519
 30
0.0
 10
8.0858715634
 20
20.998536101
 30
0.0
 10
8.0864582756
 20
20.9968175383
 30
0.0
 10
8.0871678275
 20
20.9944466973
 30
0.0
 10
8.0879096477
 20
20.9916849075
 30
0.0
 10
8.0889893072
 20
20.9872798889
 30
0.0
 10
8.09036148
 20
20.9809363406
 30
0.0
 10
8.0919905245
 20
20.9724325632
 30
0.0
 10
8.093626716
 20
20.9629100968
 30
0.0
 10
8.0952312635
 20
20.9526021099
 30
0.0
 10
8.0967626826
 20
20.9417613034
 30
0.0
 10
8.0986443745
 20
20.9270333363
 30
0.0
 10
8.1002223457
 20
20.9124912871
 30
0.0
 10
8.1014308831
 20
20.8985082656
 30
0.0
 10
8.1020845055
 20
20.8890905115
 30
0.0
 10
8.1024930306
 20
20.8807424726
 30
0.0
 10
8.1026069567
 20
20.8755577793
 30
0.0
 10
8.1026064938
 20
20.8731832422
 30
0.0
  0
SPLINE
  5
573
100
AcDbEntity
  8
0
100
AcDbSpline
 62
9
  6
CONTINUOUS
 70
0
 71
3
 72
17
 73
13
 74
0
 42
0.0000001
 43
0.0000001
 44
0.0000000001
 40
0.0
 40
0.0
 40
0.0
 40
0.0
 40
0.1998859022
 40
0.3847520347
 40
0.5465863824
 40
0.6814073608
 40
0.7898916581
 40
0.8823610372
 40
0.9218960152
 40
0.9553488135
 40
0.9816875219
 40
1.0
 40
1.0
 40
1.0
 40
1.0
 10
8.1026073489
 20
21.7204271641
 30
0.0
 10
8.1033880225
 20
21.7204271483
 30
0.0
 10
8.1048907168
 20
21.7204336226
 30
0.0
 10
8.1070253109
 20
21.7204613529
 30
0.0
 10
8.1089054954
 20
21.7205034461
 30
0.0
 10
8.1104869954
 20
21.7205554893
 30
0.0
 10
8.1117970435
 20
21.7206153916
 30
0.0
 10
8.1127345906
 20
21.7206739907
 30
0.0
 10
8.113378415
 20
21.7207293713
 30
0.0
 10
8.1137642356
 20
21.7207710498
 30
0.0
 10
8.1140659916
 20
21.7208148588
 30
0.0
 10
8.1142373715
 20
21.7208499911
 30
0.0
 10
8.1143056043
 20
21.7208714285
 30
0.0
  0
SPLINE
  5
574
100
AcDbEntity
  8
0
100
AcDbSpline
 62
9
  6
CONTINUOUS
 70
0
 71
3
 72
31
 73
27
 74
0
 42
0.0000001
 43
0.0000001
 44
0.0000000001
 40
0.0
 40
0.0
 40
0.0
 40
0.0
 40
0.0220750402
 40
0.041250392
 40
0.0575115292
 40
0.0709013315
 40
0.0815967604
 40
0.0900715373
 40
0.0937718839
 40
0.0973242762
 40
0.1009248384
 40
0.1047624295
 40
0.1089937073
 40
0.1137332292
 40
0.1250140603
 40
0.1389912179
 40
0.1558250215
 40
0.175581654
 40
0.1982771691
 40
0.2524243932
 40
0.3179422449
 40
0.3939011528
 40
0.4791766984
 40
0.5725502678
 40
0.7784524517
 40
1.0
 40
1.0
 40
1.0
 40
1.0
 10
8.0999848244
 20
21.7927382779
 30
0.0
 10
8.1001700886
 20
21.7933700854
 30
0.0
 10
8.1005393114
 20
21.7945442478
 30
0.0
 10
8.1011417793
 20
21.7961514785
 30
0.0
 10
8.1017516638
 20
21.7974757239
 30
0.0
 10
8.1023687697
 20
21.7985129357
 30
0.0
 10
8.1029942974
 20
21.7992623462
 30
0.0
 10
8.1035635701
 20
21.7996645333
 30
0.0
 10
8.1040162185
 20
21.7998019482
 30
0.0
 10
8.1043425847
 20
21.7998207989
 30
0.0
 10
8.1046677156
 20
21.7997594496
 30
0.0
 10
8.1049891289
 20
21.7996196322
 30
0.0
 10
8.105306474
 20
21.7994037815
 30
0.0
 10
8.1057510465
 20
21.7989923361
 30
0.0
 10
8.1062910536
 20
21.7982713116
 30
0.0
 10
8.1068952158
 20
21.7971685604
 30
0.0
 10
8.1074899925
 20
21.7957805438
 30
0.0
 10
8.1080733398
 20
21.7941102838
 30
0.0
 10
8.1088807992
 20
21.7913435247
 30
0.0
 10
8.1098129629
 20
21.7871973474
 30
0.0
 10
8.1107951018
 20
21.7814444684
 30
0.0
 10
8.1116830604
 20
21.7747385889
 30
0.0
 10
8.1124618629
 20
21.7671838715
 30
0.0
 10
8.1133684271
 20
21.7557492963
 30
0.0
 10
8.1141175067
 20
21.7402293435
 30
0.0
 10
8.1143009376
 20
21.7274793207
 30
0.0
 10
8.1143041185
 20
21.7208714475
 30
0.0
  0
SPLINE
  5
575
100
AcDbEntity
  8
0
100
AcDbSpline
 62
9
  6
CONTINUOUS
 70
0
 71
3
 72
19
 73
15
 74
0
 42
0.0000001
 43
0.0000001
 44
0.0000000001
 40
0.0
 40
0.0
 40
0.0
 40
0.0
 40
0.2157990177
 40
0.4079476272
 40
0.5745476889
 40
0.7138690399
 40
0.7729914815
 40
0.8250138744
 40
0.8699307427
 40
0.9078088523
 40
0.9388542547
 40
0.9635729087
 40
0.9831641691
 40
1.0
 40
1.0
 40
1.0
 40
1.0
 10
8.1026074751
 20
21.0308699566
 30
0.0
 10
8.1026075446
 20
21.0290864828
 30
0.0
 10
8.1025741071
 20
21.0257148345
 30
0.0
 10
8.1024068026
 20
21.0209687507
 30
0.0
 10
8.1021286663
 20
21.0168610967
 30
0.0
 10
8.1017926497
 20
21.013861143
 30
0.0
 10
8.1014553764
 20
21.0118183413
 30
0.0
 10
8.1011912452
 20
21.0105554063
 30
0.0
 10
8.100903161
 20
21.0094783066
 30
0.0
 10
8.100592041
 20
21.0085891728
 30
0.0
 10
8.1002584312
 20
21.0078883405
 30
0.0
 10
8.0998994836
 20
21.0073745854
 30
0.0
 10
8.0995040057
 20
21.0070442342
 30
0.0
 10
8.0992001546
 20
21.0069641952
 30
0.0
 10
8.0990610152
 20
21.0069637869
 30
0.0
  0
SPLINE
  5
576
100
AcDbEntity
  8
0
100
AcDbSpline
 62
9
  6
CONTINUOUS
 70
0
 71
3
 72
14
 73
10
 74
0
 42
0.0000001
 43
0.0000001
 44
0.0000000001
 40
0.0
 40
0.0
 40
0.0
 40
0.0
 40
0.1622014289
 40
0.3148842986
 40
0.5754705781
 40
0.6831556877
 40
0.7884789592
 40
0.8943786472
 40
1.0
 40
1.0
 40
1.0
 40
1.0
 10
8.1026073489
 20
21.0308699412
 30
0.0
 10
8.1033897303
 20
21.030870192
 30
0.0
 10
8.1049112647
 20
21.0307697807
 30
0.0
 10
8.1076374409
 20
21.0302266593
 30
0.0
 10
8.1100029839
 20
21.0292682295
 30
0.0
 10
8.1118770145
 20
21.0279491323
 30
0.0
 10
8.1129806311
 20
21.0268656502
 30
0.0
 10
8.1138468688
 20
21.0255924096
 30
0.0
 10
8.1142011218
 20
21.0246198843
 30
0.0
 10
8.1143055983
 20
21.0241212454
 30
0.0
  0
SPLINE
  5
577
100
AcDbEntity
  8
0
100
AcDbSpline
 62
9
  6
CONTINUOUS
 70
0
 71
3
 72
40
 73
36
 74
0
 42
0.0000001
 43
0.0000001
 44
0.0000000001
 40
0.0
 40
0.0
 40
0.0
 40
0.0
 40
0.0175948466
 40
0.025079349
 40
0.0316736889
 40
0.0373730988
 40
0.0421836741
 40
0.0461325846
 40
0.0492958839
 40
0.0518462367
 40
0.0541040054
 40
0.0565094947
 40
0.0594371643
 40
0.0631042465
 40
0.0676124312
 40
0.0730025088
 40
0.0792886703
 40
0.0864717305
 40
0.0945452004
 40
0.1133267845
 40
0.1355738531
 40
0.1612145989
 40
0.1901315233
 40
0.2221139791
 40
0.2569344068
 40
0.2943470848
 40
0.3340804435
 40
0.3758594778
 40
0.4644106095
 40
0.5576326531
 40
0.6528656788
 40
0.7473778541
 40
0.8385263477
 40
0.9235477781
 40
1.0
 40
1.0
 40
1.0
 40
1.0
 10
8.0942714836
 20
21.1542223369
 30
0.0
 10
8.0943846691
 20
21.1550790443
 30
0.0
 10
8.094570528
 20
21.1562976307
 30
0.0
 10
8.094886412
 20
21.157821191
 30
0.0
 10
8.0951252766
 20
21.1587631645
 30
0.0
 10
8.0953785311
 20
21.1595648001
 30
0.0
 10
8.0956458204
 20
21.1602237733
 30
0.0
 10
8.0959277766
 20
21.1607392616
 30
0.0
 10
8.0962272442
 20
21.1611117463
 30
0.0
 10
8.0965546686
 20
21.1613419479
 30
0.0
 10
8.0969171386
 20
21.1614043088
 30
0.0
 10
8.0972825424
 20
21.161286763
 30
0.0
 10
8.0976393643
 20
21.1610181005
 30
0.0
 10
8.0980006196
 20
21.1606064999
 30
0.0
 10
8.0983707273
 20
21.1600510127
 30
0.0
 10
8.0987509767
 20
21.1593521553
 30
0.0
 10
8.0991407512
 20
21.1585113955
 30
0.0
 10
8.0995393441
 20
21.1575309671
 30
0.0
 10
8.1001106514
 20
21.1559595558
 30
0.0
 10
8.1008296433
 20
21.1536564202
 30
0.0
 10
8.1016788143
 20
21.1504934923
 30
0.0
 10
8.1025447104
 20
21.1468215293
 30
0.0
 10
8.1034205045
 20
21.1426620986
 30
0.0
 10
8.1043008723
 20
21.1380438475
 30
0.0
 10
8.1051787485
 20
21.1330010706
 30
0.0
 10
8.1060476374
 20
21.1275708885
 30
0.0
 10
8.106902003
 20
21.1217927095
 30
0.0
 10
8.1080357024
 20
21.1135173938
 30
0.0
 10
8.109365325
 20
21.1026179745
 30
0.0
 10
8.1107764918
 20
21.0890858887
 30
0.0
 10
8.111994979
 20
21.0752411828
 30
0.0
 10
8.1129878078
 20
21.0614805996
 30
0.0
 10
8.1137290081
 20
21.0482063281
 30
0.0
 10
8.1141863473
 20
21.0358066963
 30
0.0
 10
8.1143017616
 20
21.0278759845
 30
0.0
 10
8.1143041185
 20
21.0241211171
 30
0.0
  0
LINE
  5
578
100
AcDbEntity
  8
0
100
AcDbLine
 62
9
  6
CONTINUOUS
 10
8.0988377253
 20
21.6429434973
 11
8.0996550704
 21
21.6401275852
  0
SPLINE
  5
579
100
AcDbEntity
  8
0
100
AcDbSpline
 62
9
  6
CONTINUOUS
 70
0
 71
3
 72
34
 73
30
 74
0
 42
0.0000001
 43
0.0000001
 44
0.0000000001
 40
0.0
 40
0.0
 40
0.0
 40
0.0
 40
0.0185806029
 40
0.0343238639
 40
0.0472855183
 40
0.0576323457
 40
0.0619532177
 40
0.0658201634
 40
0.0693689023
 40
0.0727725253
 40
0.0762251368
 40
0.0799123037
 40
0.0839869527
 40
0.0885626641
 40
0.0994922939
 40
0.1130759089
 40
0.1294643582
 40
0.1487183163
 40
0.1708449521
 40
0.1958077355
 40
0.2235533728
 40
0.2540198778
 40
0.3227445424
 40
0.4010382262
 40
0.4878014813
 40
0.5817146708
 40
0.6813972972
 40
0.785425639
 40
1.0
 40
1.0
 40
1.0
 40
1.0
 10
8.0996550704
 20
21.6401275852
 30
0.0
 10
8.0998389483
 20
21.6395686855
 30
0.0
 10
8.1002044913
 20
21.6385443529
 30
0.0
 10
8.1008098911
 20
21.6371725556
 30
0.0
 10
8.1014246176
 20
21.636097053
 30
0.0
 10
8.1019766976
 20
21.6354084923
 30
0.0
 10
8.1024318949
 20
21.6350345176
 30
0.0
 10
8.102756762
 20
21.6348495186
 30
0.0
 10
8.1030859174
 20
21.6347444244
 30
0.0
 10
8.1034180041
 20
21.634721732
 30
0.0
 10
8.1037496332
 20
21.6347820416
 30
0.0
 10
8.1040782199
 20
21.6349232681
 30
0.0
 10
8.1044035555
 20
21.6351428582
 30
0.0
 10
8.1048609845
 20
21.6355640593
 30
0.0
 10
8.105418217
 20
21.6363054309
 30
0.0
 10
8.1060443818
 20
21.6374414515
 30
0.0
 10
8.1066639682
 20
21.6388738732
 30
0.0
 10
8.1072744761
 20
21.6405992876
 30
0.0
 10
8.1078734366
 20
21.6426136665
 30
0.0
 10
8.1084585611
 20
21.6449104974
 30
0.0
 10
8.1090273756
 20
21.6474825248
 30
0.0
 10
8.1097912981
 20
21.6514292067
 30
0.0
 10
8.1106702302
 20
21.6569818616
 30
0.0
 10
8.1115904641
 20
21.6643282446
 30
0.0
 10
8.1123955804
 20
21.6724899495
 30
0.0
 10
8.1130758685
 20
21.6813422283
 30
0.0
 10
8.1136196226
 20
21.6907516023
 30
0.0
 10
8.1141492885
 20
21.7039868998
 30
0.0
 10
8.1142967414
 20
21.7140767721
 30
0.0
 10
8.1143041185
 20
21.7208714475
 30
0.0
  0
SPLINE
  5
57A
100
AcDbEntity
  8
0
100
AcDbSpline
 62
9
  6
CONTINUOUS
 70
0
 71
3
 72
21
 73
17
 74
0
 42
0.0000001
 43
0.0000001
 44
0.0000000001
 40
0.0
 40
0.0
 40
0.0
 40
0.0
 40
0.2207313765
 40
0.414572442
 40
0.58075019
 40
0.6532536027
 40
0.7186013498
 40
0.7767425533
 40
0.8276685162
 40
0.8714785188
 40
0.8907764235
 40
0.9083792342
 40
0.9386903008
 40
0.9630588679
 40
0.9827257893
 40
1.0
 40
1.0
 40
1.0
 40
1.0
 10
8.1026074694
 20
20.8731787746
 30
0.0
 10
8.1026075165
 20
20.872226588
 30
0.0
 10
8.1025910721
 20
20.870438111
 30
0.0
 10
8.1025063237
 20
20.8679340546
 30
0.0
 10
8.1023837
 20
20.8660717403
 30
0.0
 10
8.1022512861
 20
20.8647667919
 30
0.0
 10
8.1021423793
 20
20.8639282348
 30
0.0
 10
8.1020195932
 20
20.8631857302
 30
0.0
 10
8.1018829614
 20
20.8625403058
 30
0.0
 10
8.1017530539
 20
20.8620653905
 30
0.0
 10
8.1016401959
 20
20.861735875
 30
0.0
 10
8.101532852
 20
20.8614664846
 30
0.0
 10
8.1013937159
 20
20.8611862818
 30
0.0
 10
8.1012029709
 20
20.8609257214
 30
0.0
 10
8.1009914912
 20
20.8607584608
 30
0.0
 10
8.1008306255
 20
20.860718558
 30
0.0
 10
8.1007561094
 20
20.8607181603
 30
0.0
  0
SPLINE
  5
57B
100
AcDbEntity
  8
0
100
AcDbSpline
 62
9
  6
CONTINUOUS
 70
0
 71
3
 72
13
 73
9
 74
0
 42
0.0000001
 43
0.0000001
 44
0.0000000001
 40
0.0
 40
0.0
 40
0.0
 40
0.0
 40
0.2934196405
 40
0.5454613316
 40
0.6543748933
 40
0.7647831975
 40
0.8803526455
 40
1.0
 40
1.0
 40
1.0
 40
1.0
 10
8.1026073489
 20
20.873178763
 30
0.0
 10
8.1041298748
 20
20.8731793701
 30
0.0
 10
8.1069832428
 20
20.8727273448
 30
0.0
 10
8.1100560198
 20
20.8711462462
 30
0.0
 10
8.1118985778
 20
20.8695239511
 30
0.0
 10
8.1130009366
 20
20.8681689064
 30
0.0
 10
8.1138601312
 20
20.8665817366
 30
0.0
 10
8.114202469
 20
20.8653973664
 30
0.0
 10
8.1143056043
 20
20.8647851544
 30
0.0
  0
LINE
  5
57C
100
AcDbEntity
  8
0
100
AcDbLine
 62
9
  6
CONTINUOUS
 10
8.0985572316
 20
21.0073181397
 11
8.0999848244
 21
21.0010988364
  0
SPLINE
  5
57D
100
AcDbEntity
  8
0
100
AcDbSpline
 62
9
  6
CONTINUOUS
 70
0
 71
3
 72
19
 73
15
 74
0
 42
0.0000001
 43
0.0000001
 44
0.0000000001
 40
0.0
 40
0.0
 40
0.0
 40
0.0
 40
0.0452909389
 40
0.0970752168
 40
0.1547583412
 40
0.2174787777
 40
0.3542518267
 40
0.4995400036
 40
0.6450173391
 40
0.7821904163
 40
0.8451657424
 40
0.9030333232
 40
0.9548358576
 40
1.0
 40
1.0
 40
1.0
 40
1.0
 10
8.0999848244
 20
21.0010988364
 30
0.0
 10
8.1004117273
 20
20.9990718661
 30
0.0
 10
8.101268404
 20
20.9947149984
 30
0.0
 10
8.1025031575
 20
20.9877451742
 30
0.0
 10
8.1037577644
 20
20.9799702527
 30
0.0
 10
8.1054854645
 20
20.968335296
 30
0.0
 10
8.1075438452
 20
20.9527000756
 30
0.0
 10
8.109759252
 20
20.9332710541
 30
0.0
 10
8.1116396433
 20
20.9137883383
 30
0.0
 10
8.112880328
 20
20.8980283525
 30
0.0
 10
8.1136135653
 20
20.8862502366
 30
0.0
 10
8.1140036712
 20
20.8783634322
 30
0.0
 10
8.1142396405
 20
20.8712855111
 30
0.0
 10
8.1143023737
 20
20.866850628
 30
0.0
 10
8.1143041185
 20
20.8647849901
 30
0.0
  0
LINE
  5
57E
100
AcDbEntity
  8
0
100
AcDbLine
 62
9
  6
CONTINUOUS
 10
8.1114628067
 20
20.7548918528
 11
8.1121452175
 21
20.7520899283
  0
SPLINE
  5
57F
100
AcDbEntity
  8
0
100
AcDbSpline
 62
9
  6
CONTINUOUS
 70
0
 71
3
 72
25
 73
21
 74
0
 42
0.0000001
 43
0.0000001
 44
0.0000000001
 40
0.0
 40
0.0
 40
0.0
 40
0.0
 40
0.1008533109
 40
0.1878525057
 40
0.2609551966
 40
0.3201778135
 40
0.3656529366
 40
0.3978545727
 40
0.4094780767
 40
0.4187560725
 40
0.4267947852
 40
0.4352321807
 40
0.4455401773
 40
0.4585895591
 40
0.4944628056
 40
0.5444291949
 40
0.6085601969
 40
0.6865868483
 40
0.7781285735
 40
1.0
 40
1.0
 40
1.0
 40
1.0
 10
8.1121452175
 20
20.7520899283
 30
0.0
 10
8.1122260809
 20
20.7517864731
 30
0.0
 10
8.1123818982
 20
20.7512226144
 30
0.0
 10
8.1126183769
 20
20.7504450342
 30
0.0
 10
8.1128398872
 20
20.7497989472
 30
0.0
 10
8.1130455883
 20
20.7492841831
 30
0.0
 10
8.1132349356
 20
20.7489024545
 30
0.0
 10
8.113391552
 20
20.748669005
 30
0.0
 10
8.1135161824
 20
20.748558794
 30
0.0
 10
8.1135987142
 20
20.7485182067
 30
0.0
 10
8.1136820743
 20
20.7485164339
 30
0.0
 10
8.1137583282
 20
20.7485565938
 30
0.0
 10
8.1138251646
 20
20.748631202
 30
0.0
 10
8.1139166097
 20
20.748792321
 30
0.0
 10
8.1140094123
 20
20.7490883801
 30
0.0
 10
8.1140981833
 20
20.7495467925
 30
0.0
 10
8.1141712459
 20
20.7501410886
 30
0.0
 10
8.1142288327
 20
20.7508665792
 30
0.0
 10
8.1142881737
 20
20.7520841921
 30
0.0
 10
8.1143020037
 20
20.7530602943
 30
0.0
 10
8.1143041185
 20
20.7537511707
 30
0.0
  0
SPLINE
  5
580
100
AcDbEntity
  8
0
100
AcDbSpline
 62
9
  6
CONTINUOUS
 70
0
 71
3
 72
28
 73
24
 74
0
 42
0.0000001
 43
0.0000001
 44
0.0000000001
 40
0.0
 40
0.0
 40
0.0
 40
0.0
 40
0.0024096454
 40
0.0051120292
 40
0.0082641643
 40
0.0119621218
 40
0.0211894887
 40
0.0330297571
 40
0.0475523827
 40
0.0647661754
 40
0.0846174067
 40
0.1070140076
 40
0.1318552847
 40
0.1590357775
 40
0.2199381945
 40
0.2885248522
 40
0.3634619517
 40
0.4433132632
 40
0.5264620903
 40
0.6959890989
 40
0.8582522005
 40
0.932478395
 40
1.0
 40
1.0
 40
1.0
 40
1.0
 10
8.0851281993
 20
21.1486941713
 30
0.0
 10
8.0852248088
 20
21.1486943738
 30
0.0
 10
8.0854307047
 20
21.1486593021
 30
0.0
 10
8.0857313169
 20
21.1485128579
 30
0.0
 10
8.0860356378
 20
21.1482771491
 30
0.0
 10
8.0864820192
 20
21.1478098356
 30
0.0
 10
8.0870416787
 20
21.1469831626
 30
0.0
 10
8.0876993821
 20
21.1457155681
 30
0.0
 10
8.0883818662
 20
21.1441056423
 30
0.0
 10
8.0890847921
 20
21.1421598049
 30
0.0
 10
8.089804583
 20
21.1398865353
 30
0.0
 10
8.0905374555
 20
21.1372981709
 30
0.0
 10
8.0912793236
 20
21.1344079612
 30
0.0
 10
8.0923147706
 20
21.1300002341
 30
0.0
 10
8.0935865462
 20
21.1238478612
 30
0.0
 10
8.0950386103
 20
21.1157808149
 30
0.0
 10
8.0964363859
 20
21.1069341873
 30
0.0
 10
8.097749638
 20
21.0974849168
 30
0.0
 10
8.0993643512
 20
21.0842505523
 30
0.0
 10
8.1009848026
 20
21.0676907989
 30
0.0
 10
8.1020668838
 20
21.0514448396
 30
0.0
 10
8.1025231178
 20
21.0392639749
 30
0.0
 10
8.1026068724
 20
21.0335807526
 30
0.0
 10
8.1026064722
 20
21.030873614
 30
0.0
  0
SPLINE
  5
581
100
AcDbEntity
  8
0
100
AcDbSpline
 62
9
  6
CONTINUOUS
 70
0
 71
3
 72
18
 73
14
 74
0
 42
0.0000001
 43
0.0000001
 44
0.0000000001
 40
0.0
 40
0.0
 40
0.0
 40
0.0
 40
0.153535084
 40
0.3099382405
 40
0.4632184665
 40
0.6075730383
 40
0.7376369807
 40
0.7958184086
 40
0.8487263787
 40
0.8959336651
 40
0.9370418241
 40
0.9717715333
 40
1.0
 40
1.0
 40
1.0
 40
1.0
 10
8.1026072534
 20
21.9551445915
 30
0.0
 10
8.1026072734
 20
21.9505847365
 30
0.0
 10
8.1024653789
 20
21.9413794021
 30
0.0
 10
8.1018713651
 20
21.9276334477
 30
0.0
 10
8.1009152551
 20
21.914180929
 30
0.0
 10
8.0996362059
 20
21.9015412922
 30
0.0
 10
8.0983022869
 20
21.8917508354
 30
0.0
 10
8.0970888655
 20
21.8846916497
 30
0.0
 10
8.0961669268
 20
21.8800809332
 30
0.0
 10
8.0952100567
 20
21.875996463
 30
0.0
 10
8.0942273215
 20
21.8724750289
 30
0.0
 10
8.0932286796
 20
21.8695485496
 30
0.0
 10
8.0924842963
 20
21.8678286577
 30
0.0
 10
8.0920972309
 20
21.8670849989
 30
0.0
  0
SPLINE
  5
582
100
AcDbEntity
  8
0
100
AcDbSpline
 62
9
  6
CONTINUOUS
 70
0
 71
3
 72
13
 73
9
 74
0
 42
0.0000001
 43
0.0000001
 44
0.0000000001
 40
0.0
 40
0.0
 40
0.0
 40
0.0
 40
0.3403625191
 40
0.6122067693
 40
0.7252507534
 40
0.8254150041
 40
0.9156464389
 40
1.0
 40
1.0
 40
1.0
 40
1.0
 10
8.0920972309
 20
21.8670849989
 30
0.0
 10
8.0918684372
 20
21.8666454235
 30
0.0
 10
8.0914226419
 20
21.8658718078
 30
0.0
 10
8.0907660366
 20
21.8650353537
 30
0.0
 10
8.0902333696
 20
21.8645684425
 30
0.0
 10
8.0898583507
 20
21.8643306609
 30
0.0
 10
8.0894826469
 20
21.8641849255
 30
0.0
 10
8.0892275646
 20
21.8641510706
 30
0.0
 10
8.0891047494
 20
21.8641509508
 30
0.0
  0
SPLINE
  5
583
100
AcDbEntity
  8
0
100
AcDbSpline
 62
9
  6
CONTINUOUS
 70
0
 71
3
 72
34
 73
30
 74
0
 42
0.0000001
 43
0.0000001
 44
0.0000000001
 40
0.0
 40
0.0
 40
0.0
 40
0.0
 40
0.0975604616
 40
0.1974611798
 40
0.2973338339
 40
0.3956258841
 40
0.4903412202
 40
0.5793477671
 40
0.661063411
 40
0.7341654997
 40
0.7975913675
 40
0.8253244446
 40
0.8501803931
 40
0.871999248
 40
0.8906798184
 40
0.9062897659
 40
0.9189698585
 40
0.9289470724
 40
0.9330419937
 40
0.9366334264
 40
0.939851085
 40
0.9428874108
 40
0.9459832308
 40
0.9493799156
 40
0.9532746629
 40
0.9577977752
 40
0.9689436046
 40
0.9830214127
 40
1.0
 40
1.0
 40
1.0
 40
1.0
 10
8.1143041185
 20
21.9580374314
 30
0.0
 10
8.1143133381
 20
21.9543002064
 30
0.0
 10
8.1142515628
 20
21.9467357352
 30
0.0
 10
8.1139385845
 20
21.9353494499
 30
0.0
 10
8.1134163844
 20
21.9239429274
 30
0.0
 10
8.1127418658
 20
21.9127435397
 30
0.0
 10
8.1119157056
 20
21.9019714075
 30
0.0
 10
8.1109155199
 20
21.891851754
 30
0.0
 10
8.1097793595
 20
21.8825799572
 30
0.0
 10
8.1085389801
 20
21.8743111967
 30
0.0
 10
8.107397253
 20
21.8681213149
 30
0.0
 10
8.1064309973
 20
21.8637829401
 30
0.0
 10
8.1057284384
 20
21.8610200247
 30
0.0
 10
8.105018863
 20
21.8586182184
 30
0.0
 10
8.104302842
 20
21.8565904206
 30
0.0
 10
8.1035857286
 20
21.8549375964
 30
0.0
 10
8.1028711029
 20
21.8536551115
 30
0.0
 10
8.1022421481
 20
21.8528359757
 30
0.0
 10
8.1017312402
 20
21.8523887153
 30
0.0
 10
8.1013724332
 20
21.852169741
 30
0.0
 10
8.1010109784
 20
21.8520486982
 30
0.0
 10
8.1006479274
 20
21.8520330213
 30
0.0
 10
8.1002900038
 20
21.8521272114
 30
0.0
 10
8.0999425123
 20
21.8523287495
 30
0.0
 10
8.0996054403
 20
21.8526344586
 30
0.0
 10
8.0991344266
 20
21.8532201092
 30
0.0
 10
8.0985815456
 20
21.854224093
 30
0.0
 10
8.0979772186
 20
21.8557249361
 30
0.0
 10
8.0976216501
 20
21.8568615627
 30
0.0
 10
8.0974431821
 20
21.8574869945
 30
0.0
  0
LINE
  5
584
100
AcDbEntity
  8
0
100
AcDbLine
 62
9
  6
CONTINUOUS
 10
8.0974431821
 20
21.8574869945
 11
8.0967611969
 21
21.8602083152
  0
SPLINE
  5
585
100
AcDbEntity
  8
0
100
AcDbSpline
 62
9
  6
CONTINUOUS
 70
0
 71
3
 72
16
 73
12
 74
0
 42
0.0000001
 43
0.0000001
 44
0.0000000001
 40
0.0
 40
0.0
 40
0.0
 40
0.0
 40
0.1894368927
 40
0.3652066662
 40
0.5201650692
 40
0.6508472018
 40
0.7581742132
 40
0.8531863072
 40
0.8961429099
 40
0.9350698305
 40
1.0
 40
1.0
 40
1.0
 40
1.0
 10
8.1026072534
 20
21.9551445916
 30
0.0
 10
8.1033882376
 20
21.9551444847
 30
0.0
 10
8.1048942263
 20
21.9551867809
 30
0.0
 10
8.1070321919
 20
21.9553679476
 30
0.0
 10
8.1089157111
 20
21.9556429829
 30
0.0
 10
8.1105010342
 20
21.9559837269
 30
0.0
 10
8.1118180127
 20
21.956376834
 30
0.0
 10
8.1127558233
 20
21.9567624912
 30
0.0
 10
8.1133929864
 20
21.9571211994
 30
0.0
 10
8.1138846966
 20
21.9574716054
 30
0.0
 10
8.1141878608
 20
21.9577968695
 30
0.0
 10
8.1143053921
 20
21.9580373725
 30
0.0
  0
SPLINE
  5
586
100
AcDbEntity
  8
0
100
AcDbSpline
 62
9
  6
CONTINUOUS
 70
0
 71
3
 72
31
 73
27
 74
0
 42
0.0000001
 43
0.0000001
 44
0.0000000001
 40
0.0
 40
0.0
 40
0.0
 40
0.0
 40
0.025535016
 40
0.0481047993
 40
0.0677186894
 40
0.0844168692
 40
0.098297202
 40
0.1095859951
 40
0.1187441274
 40
0.1266168917
 40
0.1344749239
 40
0.1435940463
 40
0.1548258144
 40
0.1686341017
 40
0.1852670827
 40
0.204864518
 40
0.2274846808
 40
0.2531016159
 40
0.3130977109
 40
0.3843091914
 40
0.4660032709
 40
0.5573644037
 40
0.6575277433
 40
0.7655888908
 40
0.8803340667
 40
1.0
 40
1.0
 40
1.0
 40
1.0
 10
8.1024161482
 20
22.0099386653
 30
0.0
 10
8.1025898614
 20
22.0105031765
 30
0.0
 10
8.1029349372
 20
22.0115613479
 30
0.0
 10
8.103486063
 20
22.013028208
 30
0.0
 10
8.1040371557
 20
22.0142747467
 30
0.0
 10
8.1045866372
 20
22.0152991187
 30
0.0
 10
8.1051342093
 20
22.0161010846
 30
0.0
 10
8.1056823169
 20
22.0166817722
 30
0.0
 10
8.106240348
 20
22.0170432939
 30
0.0
 10
8.1068220756
 20
22.0171617407
 30
0.0
 10
8.1073946166
 20
22.0170078517
 30
0.0
 10
8.1079262122
 20
22.0166124685
 30
0.0
 10
8.1084318793
 20
22.0159994457
 30
0.0
 10
8.1089213676
 20
22.0151659197
 30
0.0
 10
8.1093966635
 20
22.0141089153
 30
0.0
 10
8.109856748
 20
22.0128267138
 30
0.0
 10
8.1103002092
 20
22.011320963
 30
0.0
 10
8.1109003814
 20
22.0088898582
 30
0.0
 10
8.1115789103
 20
22.005324091
 30
0.0
 10
8.112276949
 20
22.0004483077
 30
0.0
 10
8.1128854546
 20
21.9948302577
 30
0.0
 10
8.1133968345
 20
21.9885307392
 30
0.0
 10
8.1138027193
 20
21.9816125968
 30
0.0
 10
8.1140935503
 20
21.9741474199
 30
0.0
 10
8.1142647917
 20
21.9662274338
 30
0.0
 10
8.114302729
 20
21.9608053495
 30
0.0
 10
8.1143041185
 20
21.9580374314
 30
0.0
  0
SPLINE
  5
587
100
AcDbEntity
  8
0
100
AcDbSpline
 62
9
  6
CONTINUOUS
 70
0
 71
3
 72
31
 73
27
 74
0
 42
0.0000001
 43
0.0000001
 44
0.0000000001
 40
0.0
 40
0.0
 40
0.0
 40
0.0
 40
0.0631408963
 40
0.0901521853
 40
0.114112518
 40
0.135036215
 40
0.1529689454
 40
0.1680189758
 40
0.1804168969
 40
0.1905909065
 40
0.1993135255
 40
0.2077755157
 40
0.2172755927
 40
0.2287722017
 40
0.2428068748
 40
0.2596539084
 40
0.2794536975
 40
0.3022773744
 40
0.3281581965
 40
0.3891165262
 40
0.4623088211
 40
0.5476140599
 40
0.6448584732
 40
0.7534667761
 40
0.8722614742
 40
1.0
 40
1.0
 40
1.0
 40
1.0
 10
8.1073205807
 20
21.0022510677
 30
0.0
 10
8.1075506988
 20
21.0015338559
 30
0.0
 10
8.1079001827
 20
21.0005159075
 30
0.0
 10
8.1084100057
 20
20.9992533866
 30
0.0
 10
8.1087651788
 20
20.9984723579
 30
0.0
 10
8.1091127514
 20
20.9978079279
 30
0.0
 10
8.1094523473
 20
20.9972609359
 30
0.0
 10
8.1097841637
 20
20.9968315239
 30
0.0
 10
8.1101093664
 20
20.9965189574
 30
0.0
 10
8.110432185
 20
20.9963227074
 30
0.0
 10
8.1107594353
 20
20.9962521317
 30
0.0
 10
8.1110793644
 20
20.9963230475
 30
0.0
 10
8.1113740708
 20
20.9965254636
 30
0.0
 10
8.1116478206
 20
20.9968449895
 30
0.0
 10
8.1119074618
 20
20.9972806501
 30
0.0
 10
8.1121551241
 20
20.9978331919
 30
0.0
 10
8.1123911291
 20
20.9985028405
 30
0.0
 10
8.1126152705
 20
20.9992891052
 30
0.0
 10
8.1129141673
 20
21.0005630767
 30
0.0
 10
8.1132427526
 20
21.0024450558
 30
0.0
 10
8.1135674735
 20
21.0050433778
 30
0.0
 10
8.1138361638
 20
21.0080828934
 30
0.0
 10
8.1140447623
 20
21.0115502638
 30
0.0
 10
8.1141919159
 20
21.0154205178
 30
0.0
 10
8.1142809004
 20
21.0196563147
 30
0.0
 10
8.1143018564
 20
21.0225972922
 30
0.0
 10
8.1143041185
 20
21.0241211171
 30
0.0
  0
SPLINE
  5
588
100
AcDbEntity
  8
0
100
AcDbSpline
 62
9
  6
CONTINUOUS
 70
0
 71
3
 72
31
 73
27
 74
0
 42
0.0000001
 43
0.0000001
 44
0.0000000001
 40
0.0
 40
0.0
 40
0.0
 40
0.0
 40
0.1252236836
 40
0.2426258297
 40
0.3509942538
 40
0.4493229737
 40
0.5369031851
 40
0.6130828907
 40
0.6773786107
 40
0.7049669161
 40
0.7294735514
 40
0.7508954016
 40
0.7692822979
 40
0.7847366925
 40
0.7974496771
 40
0.8077875165
 40
0.8164509784
 40
0.8246101215
 40
0.8336267791
 40
0.8445334366
 40
0.8579219657
 40
0.8741054205
 40
0.8932403766
 40
0.9153893411
 40
0.9405718527
 40
1.0
 40
1.0
 40
1.0
 40
1.0
 10
8.1143041185
 20
22.1785571656
 30
0.0
 10
8.1143038594
 20
22.1806829566
 30
0.0
 10
8.114276155
 20
22.1848018315
 30
0.0
 10
8.1141459943
 20
22.1907591184
 30
0.0
 10
8.1139292909
 20
22.1962570875
 30
0.0
 10
8.1136274366
 20
22.2012440177
 30
0.0
 10
8.1132450365
 20
22.2056774263
 30
0.0
 10
8.1127851752
 20
22.2095222227
 30
0.0
 10
8.112322608
 20
22.21233917
 30
0.0
 10
8.1119043506
 20
22.2142706661
 30
0.0
 10
8.1115903647
 20
22.2154789936
 30
0.0
 10
8.1112605483
 20
22.216520477
 30
0.0
 10
8.1109157885
 20
22.2173940315
 30
0.0
 10
8.1105567028
 20
22.2180998808
 30
0.0
 10
8.1101822765
 20
22.218639147
 30
0.0
 10
8.1097881308
 20
22.2190139344
 30
0.0
 10
8.1093606557
 20
22.2192158286
 30
0.0
 10
8.1089078019
 20
22.2192164107
 30
0.0
 10
8.1084619888
 20
22.2190215748
 30
0.0
 10
8.1080234794
 20
22.2186575848
 30
0.0
 10
8.1075815011
 20
22.2181281526
 30
0.0
 10
8.107133049
 20
22.217431818
 30
0.0
 10
8.1066775471
 20
22.2165681409
 30
0.0
 10
8.1062153842
 20
22.2155381763
 30
0.0
 10
8.1055546801
 20
22.2138500198
 30
0.0
 10
8.1051111651
 20
22.2124824352
 30
0.0
 10
8.1048211814
 20
22.2115161608
 30
0.0
  0
LINE
  5
589
100
AcDbEntity
  8
0
100
AcDbLine
 62
9
  6
CONTINUOUS
 10
8.0910435716
 20
20.8609696668
 11
8.0913086401
 21
20.8593500133
  0
SPLINE
  5
58A
100
AcDbEntity
  8
0
100
AcDbSpline
 62
9
  6
CONTINUOUS
 70
0
 71
3
 72
17
 73
13
 74
0
 42
0.0000001
 43
0.0000001
 44
0.0000000001
 40
0.0
 40
0.0
 40
0.0
 40
0.0
 40
0.1434359725
 40
0.2936313121
 40
0.4444528646
 40
0.5896549719
 40
0.7231314162
 40
0.839186805
 40
0.889082604
 40
0.9328140925
 40
0.9699145529
 40
1.0
 40
1.0
 40
1.0
 40
1.0
 10
8.0913086401
 20
20.8593500133
 30
0.0
 10
8.0920523821
 20
20.8547832524
 30
0.0
 10
8.093515097
 20
20.8454247238
 30
0.0
 10
8.0955775238
 20
20.8312365352
 30
0.0
 10
8.0975021473
 20
20.8169714894
 30
0.0
 10
8.0992089935
 20
20.803221997
 30
0.0
 10
8.1006258637
 20
20.7905675267
 30
0.0
 10
8.1015599047
 20
20.7809533061
 30
0.0
 10
8.102102397
 20
20.774211054
 30
0.0
 10
8.1023833287
 20
20.7700032338
 30
0.0
 10
8.1025570694
 20
20.7664293338
 30
0.0
 10
8.1026073309
 20
20.7642621332
 30
0.0
 10
8.1026073314
 20
20.7632916432
 30
0.0
  0
SPLINE
  5
58B
100
AcDbEntity
  8
0
100
AcDbSpline
 62
9
  6
CONTINUOUS
 70
0
 71
3
 72
28
 73
24
 74
0
 42
0.0000001
 43
0.0000001
 44
0.0000000001
 40
0.0
 40
0.0
 40
0.0
 40
0.0
 40
0.0764693099
 40
0.1573092929
 40
0.3265367182
 40
0.4120103775
 40
0.4960706375
 40
0.5773130486
 40
0.6543833057
 40
0.7259739619
 40
0.7909704369
 40
0.848323289
 40
0.8971186109
 40
0.9181092229
 40
0.9367369295
 40
0.9529467616
 40
0.9667112889
 40
0.9780734499
 40
0.9871556744
 40
0.9909264315
 40
0.9942561118
 40
0.9972371031
 40
1.0
 40
1.0
 40
1.0
 40
1.0
 10
8.1026074692
 20
22.1733878509
 30
0.0
 10
8.1026075598
 20
22.1706000595
 30
0.0
 10
8.1025401547
 20
22.1648649982
 30
0.0
 10
8.1021666382
 20
22.1529660144
 30
0.0
 10
8.1014506455
 20
22.1407514513
 30
0.0
 10
8.1004278219
 20
22.1284435083
 30
0.0
 10
8.0995157598
 20
22.1193462269
 30
0.0
 10
8.0984792469
 20
22.1105707267
 30
0.0
 10
8.0973381971
 20
22.1022667389
 30
0.0
 10
8.0961101364
 20
22.0945743027
 30
0.0
 10
8.0948196726
 20
22.0876217367
 30
0.0
 10
8.0934898208
 20
22.0815246954
 30
0.0
 10
8.0923164777
 20
22.0770382924
 30
0.0
 10
8.0913569945
 20
22.0739605819
 30
0.0
 10
8.0906783858
 20
22.0720410868
 30
0.0
 10
8.0900075372
 20
22.0704002615
 30
0.0
 10
8.0893464131
 20
22.0690441335
 30
0.0
 10
8.088698304
 20
22.0679766251
 30
0.0
 10
8.0881386821
 20
22.0672864766
 30
0.0
 10
8.0876906012
 20
22.0669002023
 30
0.0
 10
8.0873781333
 20
22.0667033675
 30
0.0
 10
8.0870677454
 20
22.0665823502
 30
0.0
 10
8.0868576657
 20
22.0665538048
 30
0.0
 10
8.0867569407
 20
22.0665536555
 30
0.0
  0
SPLINE
  5
58C
100
AcDbEntity
  8
0
100
AcDbSpline
 62
9
  6
CONTINUOUS
 70
0
 71
3
 72
15
 73
11
 74
0
 42
0.0000001
 43
0.0000001
 44
0.0000000001
 40
0.0
 40
0.0
 40
0.0
 40
0.0
 40
0.1735798285
 40
0.3357966411
 40
0.4809857684
 40
0.6065002988
 40
0.7135335934
 40
0.814100107
 40
0.9099575868
 40
1.0
 40
1.0
 40
1.0
 40
1.0
 10
8.1026073488
 20
22.1733878461
 30
0.0
 10
8.1033890226
 20
22.1733876549
 30
0.0
 10
8.1049023687
 20
22.1734638416
 30
0.0
 10
8.1070473599
 20
22.1737898836
 30
0.0
 10
8.108937024
 20
22.1742849366
 30
0.0
 10
8.1105274914
 20
22.1748991978
 30
0.0
 10
8.1118530962
 20
22.1756103163
 30
0.0
 10
8.1129535473
 20
22.176431443
 30
0.0
 10
8.1138246803
 20
22.1773972526
 30
0.0
 10
8.1141986166
 20
22.1781659484
 30
0.0
 10
8.1143056044
 20
22.1785570631
 30
0.0
  0
SPLINE
  5
58D
100
AcDbEntity
  8
0
100
AcDbSpline
 62
9
  6
CONTINUOUS
 70
0
 71
3
 72
36
 73
32
 74
0
 42
0.0000001
 43
0.0000001
 44
0.0000000001
 40
0.0
 40
0.0
 40
0.0
 40
0.0
 40
0.0190651358
 40
0.0346647976
 40
0.0411661865
 40
0.0468195356
 40
0.0516535143
 40
0.0557192389
 40
0.0591097315
 40
0.0619941751
 40
0.0646382306
 40
0.0673716413
 40
0.0704901096
 40
0.0741934341
 40
0.0785987083
 40
0.083773115
 40
0.0965642107
 40
0.1127349886
 40
0.1323222343
 40
0.1552465115
 40
0.181386047
 40
0.2106019371
 40
0.2775422179
 40
0.3545164378
 40
0.4397399669
 40
0.5311952633
 40
0.6266099711
 40
0.7236281787
 40
0.8198212887
 40
0.9126886053
 40
1.0
 40
1.0
 40
1.0
 40
1.0
 10
8.0951744004
 20
22.0618014299
 30
0.0
 10
8.0953186884
 20
22.0609530708
 30
0.0
 10
8.0956129962
 20
22.0594157238
 30
0.0
 10
8.0960799258
 20
22.0576145629
 30
0.0
 10
8.0964922066
 20
22.0564308341
 30
0.0
 10
8.0967935342
 20
22.0557248632
 30
0.0
 10
8.0971056261
 20
22.0551455005
 30
0.0
 10
8.0974290805
 20
22.0546923158
 30
0.0
 10
8.0977667086
 20
22.0543649331
 30
0.0
 10
8.0981240943
 20
22.0541659455
 30
0.0
 10
8.0985012852
 20
22.0541074408
 30
0.0
 10
8.0988827441
 20
22.0541940464
 30
0.0
 10
8.0992598576
 20
22.0544125128
 30
0.0
 10
8.09963725
 20
22.0547544474
 30
0.0
 10
8.1000187436
 20
22.0552189246
 30
0.0
 10
8.1005741321
 20
22.0560638142
 30
0.0
 10
8.1012605972
 20
22.0574482966
 30
0.0
 10
8.1020567091
 20
22.05949123
 30
0.0
 10
8.1028658418
 20
22.0620147975
 30
0.0
 10
8.1036843233
 20
22.0650040722
 30
0.0
 10
8.1045059653
 20
22.0684410527
 30
0.0
 10
8.1056499719
 20
22.0738417298
 30
0.0
 10
8.1070226456
 20
22.0815367333
 30
0.0
 10
8.1085379863
 20
22.0917687302
 30
0.0
 10
8.1099446813
 20
22.1031320788
 30
0.0
 10
8.1112050811
 20
22.1153494437
 30
0.0
 10
8.1122856636
 20
22.1281183242
 30
0.0
 10
8.1131609156
 20
22.1411171913
 30
0.0
 10
8.1138099523
 20
22.1540142798
 30
0.0
 10
8.1142029135
 20
22.166483407
 30
0.0
 10
8.1142992479
 20
22.1746162
 30
0.0
 10
8.1143041185
 20
22.1785571656
 30
0.0
  0
SPLINE
  5
58E
100
AcDbEntity
  8
0
100
AcDbSpline
 62
7
  6
CONTINUOUS
 70
0
 71
3
 72
14
 73
10
 74
0
 42
0.0000001
 43
0.0000001
 44
0.0000000001
 40
0.0
 40
0.0
 40
0.0
 40
0.0
 40
0.317891
 40
0.4677741985
 40
0.6070534428
 40
0.7325674672
 40
0.841479438
 40
0.9313111421
 40
1.0
 40
1.0
 40
1.0
 40
1.0
 10
11.3516576223
 20
13.3510445346
 30
0.0
 10
11.3311946889
 20
13.3510445346
 30
0.0
 10
11.3010823604
 20
13.351360349
 30
0.0
 10
11.2620184624
 20
13.3523710589
 30
0.0
 10
11.2353414817
 20
13.3533100194
 30
0.0
 10
11.2113084705
 20
13.3543615139
 30
0.0
 10
11.1904629128
 20
13.3554299557
 30
0.0
 10
11.173276117
 20
13.3564144242
 30
0.0
 10
11.1630918946
 20
13.3570518265
 30
0.0
 10
11.1586795101
 20
13.3573365972
 30
0.0
  0
LINE
  5
58F
100
AcDbEntity
  8
0
100
AcDbLine
 62
7
  6
CONTINUOUS
 10
11.1586795101
 20
13.3573365972
 11
11.1550770382
 21
13.3575709136
  0
SPLINE
  5
590
100
AcDbEntity
  8
0
100
AcDbSpline
 62
7
  6
CONTINUOUS
 70
0
 71
3
 72
8
 73
4
 74
0
 42
0.0000001
 43
0.0000001
 44
0.0000000001
 40
0.0
 40
0.0
 40
0.0
 40
0.0
 40
1.0
 40
1.0
 40
1.0
 40
1.0
 10
11.1550770382
 20
13.3575709136
 30
0.0
 10
11.1550471484
 20
13.3575728737
 30
0.0
 10
11.1550172587
 20
13.3575748337
 30
0.0
 10
11.1549873689
 20
13.3575767938
 30
0.0
  0
LINE
  5
591
100
AcDbEntity
  8
0
100
AcDbLine
 62
7
  6
CONTINUOUS
 10
11.1549873689
 20
13.3575767938
 11
11.1451576223
 21
13.3582376334
  0
LINE
  5
592
100
AcDbEntity
  8
0
100
AcDbLine
 62
7
  6
CONTINUOUS
 10
11.5581576223
 20
13.3582376334
 11
11.5483397367
 21
13.3575776574
  0
SPLINE
  5
593
100
AcDbEntity
  8
0
100
AcDbSpline
 62
7
  6
CONTINUOUS
 70
0
 71
3
 72
8
 73
4
 74
0
 42
0.0000001
 43
0.0000001
 44
0.0000000001
 40
0.0
 40
0.0
 40
0.0
 40
0.0
 40
1.0
 40
1.0
 40
1.0
 40
1.0
 10
11.5483397367
 20
13.3575776574
 30
0.0
 10
11.548309954
 20
13.3575757047
 30
0.0
 10
11.5482801713
 20
13.357573752
 30
0.0
 10
11.5482503886
 20
13.3575717993
 30
0.0
  0
LINE
  5
594
100
AcDbEntity
  8
0
100
AcDbLine
 62
7
  6
CONTINUOUS
 10
11.5482503886
 20
13.3575717993
 11
11.5445578325
 21
13.3573316795
  0
SPLINE
  5
595
100
AcDbEntity
  8
0
100
AcDbSpline
 62
7
  6
CONTINUOUS
 70
0
 71
3
 72
14
 73
10
 74
0
 42
0.0000001
 43
0.0000001
 44
0.0000000001
 40
0.0
 40
0.0
 40
0.0
 40
0.0
 40
0.0688020195
 40
0.1587069099
 40
0.2676542464
 40
0.3931700081
 40
0.5324207334
 40
0.6822516983
 40
1.0
 40
1.0
 40
1.0
 40
1.0
 10
11.5445578325
 20
13.3573316795
 30
0.0
 10
11.5401399604
 20
13.3570466289
 30
0.0
 10
11.5299478936
 20
13.3564086202
 30
0.0
 10
11.512753724
 20
13.3554250831
 30
0.0
 10
11.4919095033
 20
13.3543567756
 30
0.0
 10
11.4678856078
 20
13.3533066774
 30
0.0
 10
11.4412244605
 20
13.3523692347
 30
0.0
 10
11.4021907244
 20
13.3513593176
 30
0.0
 10
11.3721031027
 20
13.3510445346
 30
0.0
 10
11.3516576223
 20
13.3510445346
 30
0.0
  0
LINE
  5
596
100
AcDbEntity
  8
0
100
AcDbLine
 62
7
  6
CONTINUOUS
 10
10.7670571176
 20
13.736338138
 11
10.7664022296
 21
13.7460712492
  0
SPLINE
  5
597
100
AcDbEntity
  8
0
100
AcDbSpline
 62
7
  6
CONTINUOUS
 70
0
 71
3
 72
8
 73
4
 74
0
 42
0.0000001
 43
0.0000001
 44
0.0000000001
 40
0.0
 40
0.0
 40
0.0
 40
0.0
 40
1.0
 40
1.0
 40
1.0
 40
1.0
 10
10.7664022296
 20
13.7460712492
 30
0.0
 10
10.766400302
 20
13.7461005914
 30
0.0
 10
10.7663983745
 20
13.7461299336
 30
0.0
 10
10.766396447
 20
13.7461592758
 30
0.0
  0
LINE
  5
598
100
AcDbEntity
  8
0
100
AcDbLine
 62
7
  6
CONTINUOUS
 10
10.766396447
 20
13.7461592758
 11
10.7661200383
 21
13.7504124915
  0
SPLINE
  5
599
100
AcDbEntity
  8
0
100
AcDbSpline
 62
7
  6
CONTINUOUS
 70
0
 71
3
 72
13
 73
9
 74
0
 42
0.0000001
 43
0.0000001
 44
0.0000000001
 40
0.0
 40
0.0
 40
0.0
 40
0.0
 40
0.197124522
 40
0.3413464533
 40
0.4997095524
 40
0.6581112818
 40
0.8024472816
 40
1.0
 40
1.0
 40
1.0
 40
1.0
 10
10.7661200383
 20
13.7504124915
 30
0.0
 10
10.7644964394
 20
13.7756567149
 30
0.0
 10
10.7622133642
 20
13.8194067334
 30
0.0
 10
10.7602720561
 20
13.883506719
 30
0.0
 10
10.7596522031
 20
13.9426649028
 30
0.0
 10
10.7602658596
 20
14.0018377839
 30
0.0
 10
10.7622016139
 20
14.0660125233
 30
0.0
 10
10.7644855429
 20
14.1098322202
 30
0.0
 10
10.7661115602
 20
14.1351313506
 30
0.0
  0
LINE
  5
59A
100
AcDbEntity
  8
0
100
AcDbLine
 62
7
  6
CONTINUOUS
 10
10.7661115602
 20
14.1351313506
 11
10.766397316
 21
14.1395299854
  0
SPLINE
  5
59B
100
AcDbEntity
  8
0
100
AcDbSpline
 62
7
  6
CONTINUOUS
 70
0
 71
3
 72
8
 73
4
 74
0
 42
0.0000001
 43
0.0000001
 44
0.0000000001
 40
0.0
 40
0.0
 40
0.0
 40
0.0
 40
1.0
 40
1.0
 40
1.0
 40
1.0
 10
10.766397316
 20
14.1395299854
 30
0.0
 10
10.7663992303
 20
14.1395591277
 30
0.0
 10
10.7664011446
 20
14.13958827
 30
0.0
 10
10.766403059
 20
14.1396174123
 30
0.0
  0
LINE
  5
59C
100
AcDbEntity
  8
0
100
AcDbLine
 62
7
  6
CONTINUOUS
 10
10.766403059
 20
14.1396174123
 11
10.7670571176
 21
14.149338138
  0
LINE
  5
59D
100
AcDbEntity
  8
0
100
AcDbLine
 62
7
  6
CONTINUOUS
 10
11.1451576223
 20
14.5274386426
 11
11.1549755078
 21
14.5280986186
  0
SPLINE
  5
59E
100
AcDbEntity
  8
0
100
AcDbSpline
 62
7
  6
CONTINUOUS
 70
0
 71
3
 72
8
 73
4
 74
0
 42
0.0000001
 43
0.0000001
 44
0.0000000001
 40
0.0
 40
0.0
 40
0.0
 40
0.0
 40
1.0
 40
1.0
 40
1.0
 40
1.0
 10
11.1549755078
 20
14.5280986186
 30
0.0
 10
11.1550052905
 20
14.5281005713
 30
0.0
 10
11.1550350733
 20
14.528102524
 30
0.0
 10
11.155064856
 20
14.5281044767
 30
0.0
  0
LINE
  5
59F
100
AcDbEntity
  8
0
100
AcDbLine
 62
7
  6
CONTINUOUS
 10
11.155064856
 20
14.5281044767
 11
11.158757412
 21
14.5283445965
  0
SPLINE
  5
5A0
100
AcDbEntity
  8
0
100
AcDbSpline
 62
7
  6
CONTINUOUS
 70
0
 71
3
 72
14
 73
10
 74
0
 42
0.0000001
 43
0.0000001
 44
0.0000000001
 40
0.0
 40
0.0
 40
0.0
 40
0.0
 40
0.0688020195
 40
0.1587069099
 40
0.2676542464
 40
0.3931700081
 40
0.5324207334
 40
0.6822516983
 40
1.0
 40
1.0
 40
1.0
 40
1.0
 10
11.158757412
 20
14.5283445965
 30
0.0
 10
11.1631752841
 20
14.5286296471
 30
0.0
 10
11.1733673509
 20
14.5292676558
 30
0.0
 10
11.1905615205
 20
14.5302511929
 30
0.0
 10
11.2114057413
 20
14.5313195004
 30
0.0
 10
11.2354296367
 20
14.5323695986
 30
0.0
 10
11.262090784
 20
14.5333070413
 30
0.0
 10
11.3011245201
 20
14.5343169584
 30
0.0
 10
11.3312121418
 20
14.5346317414
 30
0.0
 10
11.3516576223
 20
14.5346317414
 30
0.0
  0
SPLINE
  5
5A1
100
AcDbEntity
  8
0
100
AcDbSpline
 62
7
  6
CONTINUOUS
 70
0
 71
3
 72
9
 73
5
 74
0
 42
0.0000001
 43
0.0000001
 44
0.0000000001
 40
0.0
 40
0.0
 40
0.0
 40
0.0
 40
0.2552102018
 40
1.0
 40
1.0
 40
1.0
 40
1.0
 10
8.0446653343
 20
20.8841696001
 30
0.0
 10
8.0428215055
 20
20.8828642888
 30
0.0
 10
8.0356458079
 20
20.8776809111
 30
0.0
 10
8.0286709769
 20
20.8722178424
 30
0.0
 10
8.0236173124
 20
20.8679839531
 30
0.0
  0
SPLINE
  5
5A2
100
AcDbEntity
  8
0
100
AcDbSpline
 62
7
  6
CONTINUOUS
 70
0
 71
3
 72
9
 73
5
 74
0
 42
0.0000001
 43
0.0000001
 44
0.0000000001
 40
0.0
 40
0.0
 40
0.0
 40
0.0
 40
0.255409793
 40
1.0
 40
1.0
 40
1.0
 40
1.0
 10
8.0236173124
 20
20.8679839531
 30
0.0
 10
8.0219697564
 20
20.8666036538
 30
0.0
 10
8.0155775433
 20
20.8611302619
 30
0.0
 10
8.0094245057
 20
20.8553758506
 30
0.0
 10
8.0050094054
 20
20.8509296512
 30
0.0
  0
SPLINE
  5
5A3
100
AcDbEntity
  8
0
100
AcDbSpline
 62
7
  6
CONTINUOUS
 70
0
 71
3
 72
9
 73
5
 74
0
 42
0.0000001
 43
0.0000001
 44
0.0000000001
 40
0.0
 40
0.0
 40
0.0
 40
0.0
 40
0.2572168785
 40
1.0
 40
1.0
 40
1.0
 40
1.0
 10
8.0050094054
 20
20.8509296512
 30
0.0
 10
8.0031047727
 20
20.8490116026
 30
0.0
 10
7.9958199833
 20
20.8414372659
 30
0.0
 10
7.9890303973
 20
20.8333805781
 30
0.0
 10
7.9843538216
 20
20.8271307451
 30
0.0
  0
SPLINE
  5
5A4
100
AcDbEntity
  8
0
100
AcDbSpline
 62
7
  6
CONTINUOUS
 70
0
 71
3
 72
9
 73
5
 74
0
 42
0.0000001
 43
0.0000001
 44
0.0000000001
 40
0.0
 40
0.0
 40
0.0
 40
0.0
 40
0.2552030533
 40
1.0
 40
1.0
 40
1.0
 40
1.0
 10
7.9843538216
 20
20.8271307451
 30
0.0
 10
7.9831836729
 20
20.8255669441
 30
0.0
 10
7.9786877832
 20
20.8193732409
 30
0.0
 10
7.9745585098
 20
20.8129113155
 30
0.0
 10
7.9717314538
 20
20.8079616649
 30
0.0
  0
SPLINE
  5
5A5
100
AcDbEntity
  8
0
100
AcDbSpline
 62
7
  6
CONTINUOUS
 70
0
 71
3
 72
9
 73
5
 74
0
 42
0.0000001
 43
0.0000001
 44
0.0000000001
 40
0.0
 40
0.0
 40
0.0
 40
0.0
 40
0.2554718877
 40
1.0
 40
1.0
 40
1.0
 40
1.0
 10
7.9717314538
 20
20.8079616649
 30
0.0
 10
7.9705843296
 20
20.8059532631
 30
0.0
 10
7.9662530052
 20
20.798002633
 30
0.0
 10
7.9625797751
 20
20.7896888063
 30
0.0
 10
7.9602922611
 20
20.7833482427
 30
0.0
  0
SPLINE
  5
5A6
100
AcDbEntity
  8
0
100
AcDbSpline
 62
7
  6
CONTINUOUS
 70
0
 71
3
 72
9
 73
5
 74
0
 42
0.0000001
 43
0.0000001
 44
0.0000000001
 40
0.0
 40
0.0
 40
0.0
 40
0.0
 40
0.5048593094
 40
1.0
 40
1.0
 40
1.0
 40
1.0
 10
7.9602922611
 20
20.7833482427
 30
0.0
 10
7.9585416447
 20
20.7784958595
 30
0.0
 10
7.9555851374
 20
20.7686909747
 30
0.0
 10
7.9537535543
 20
20.7586128421
 30
0.0
 10
7.9531413699
 20
20.7535908039
 30
0.0
  0
SPLINE
  5
5A7
100
AcDbEntity
  8
0
100
AcDbSpline
 62
7
  6
CONTINUOUS
 70
0
 71
3
 72
15
 73
11
 74
0
 42
0.0000001
 43
0.0000001
 44
0.0000000001
 40
0.0
 40
0.0
 40
0.0
 40
0.0
 40
0.1215518082
 40
0.2425785323
 40
0.3642729918
 40
0.4872406383
 40
0.6116877976
 40
0.738148162
 40
0.8674000296
 40
1.0
 40
1.0
 40
1.0
 40
1.0
 10
7.9521963159
 20
20.7540175503
 30
0.0
 10
7.9521947478
 20
20.7620555887
 30
0.0
 10
7.9532782666
 20
20.778118118
 30
0.0
 10
7.9581055983
 20
20.8017862526
 30
0.0
 10
7.9659725471
 20
20.8247208967
 30
0.0
 10
7.9766274227
 20
20.846741755
 30
0.0
 10
7.9898483901
 20
20.8676911696
 30
0.0
 10
8.0054351623
 20
20.8874686027
 30
0.0
 10
8.0231842148
 20
20.9060709147
 30
0.0
 10
8.0361731554
 20
20.9175552613
 30
0.0
 10
8.042959052
 20
20.9231086927
 30
0.0
  0
SPLINE
  5
5A8
100
AcDbEntity
  8
0
100
AcDbSpline
 62
9
  6
CONTINUOUS
 70
0
 71
3
 72
15
 73
11
 74
0
 42
0.0000001
 43
0.0000001
 44
0.0000000001
 40
0.0
 40
0.0
 40
0.0
 40
0.0
 40
0.1424013578
 40
0.2847218737
 40
0.4241909711
 40
0.5581869989
 40
0.6843121441
 40
0.8007535792
 40
0.9062067641
 40
1.0
 40
1.0
 40
1.0
 40
1.0
 10
8.1342280029
 20
20.5661405008
 30
0.0
 10
8.1304358427
 20
20.5658797418
 30
0.0
 10
8.1228288073
 20
20.5656729987
 30
0.0
 10
8.1115097862
 20
20.5662664672
 30
0.0
 10
8.1004987024
 20
20.567758173
 30
0.0
 10
8.0900770638
 20
20.5700971698
 30
0.0
 10
8.0805095906
 20
20.5732338718
 30
0.0
 10
8.0720300031
 20
20.5770847298
 30
0.0
 10
8.0648626044
 20
20.581565095
 30
0.0
 10
8.0608366273
 20
20.5850968343
 30
0.0
 10
8.0591491901
 20
20.5869463391
 30
0.0
  0
LINE
  5
5A9
100
AcDbEntity
  8
0
100
AcDbLine
 62
9
  6
CONTINUOUS
 10
8.0578398201
 20
20.7712120451
 11
8.0582730647
 21
20.7716879058
  0
SPLINE
  5
5AA
100
AcDbEntity
  8
0
100
AcDbSpline
 62
9
  6
CONTINUOUS
 70
0
 71
3
 72
9
 73
5
 74
0
 42
0.0000001
 43
0.0000001
 44
0.0000000001
 40
0.0
 40
0.0
 40
0.0
 40
0.0
 40
0.4963573835
 40
1.0
 40
1.0
 40
1.0
 40
1.0
 10
7.9521968259
 20
20.7540472611
 30
0.0
 10
7.9521974882
 20
20.7598902038
 30
0.0
 10
7.9530086758
 20
20.7716752589
 30
0.0
 10
7.9554008887
 20
20.7832406245
 30
0.0
 10
7.9569711463
 20
20.7889575991
 30
0.0
  0
SPLINE
  5
5AB
100
AcDbEntity
  8
0
100
AcDbSpline
 62
9
  6
CONTINUOUS
 70
0
 71
3
 72
15
 73
11
 74
0
 42
0.0000001
 43
0.0000001
 44
0.0000000001
 40
0.0
 40
0.0
 40
0.0
 40
0.0
 40
0.1167037635
 40
0.2344061651
 40
0.3539646538
 40
0.476168667
 40
0.601653283
 40
0.7308679481
 40
0.8637937733
 40
1.0
 40
1.0
 40
1.0
 40
1.0
 10
8.0102903285
 20
20.5997962449
 30
0.0
 10
8.0116779624
 20
20.5982761457
 30
0.0
 10
8.014700773
 20
20.5954294451
 30
0.0
 10
8.0198437216
 20
20.5918538975
 30
0.0
 10
8.0255361867
 20
20.5890140167
 30
0.0
 10
8.0316980824
 20
20.5869549951
 30
0.0
 10
8.0382434316
 20
20.5856942578
 30
0.0
 10
8.0450831205
 20
20.5852583306
 30
0.0
 10
8.0521125847
 20
20.5856412526
 30
0.0
 10
8.0568051682
 20
20.5864246865
 30
0.0
 10
8.0591501696
 20
20.5869455884
 30
0.0
  0
SPLINE
  5
5AC
100
AcDbEntity
  8
0
100
AcDbSpline
 62
7
  6
CONTINUOUS
 70
0
 71
3
 72
9
 73
5
 74
0
 42
0.0000001
 43
0.0000001
 44
0.0000000001
 40
0.0
 40
0.0
 40
0.0
 40
0.0
 40
0.2552101761
 40
1.0
 40
1.0
 40
1.0
 40
1.0
 10
8.0446652342
 20
20.884169529
 30
0.0
 10
8.0428214145
 20
20.8828642232
 30
0.0
 10
8.0356457518
 20
20.8776808672
 30
0.0
 10
8.0286709539
 20
20.8722178228
 30
0.0
 10
8.0236173124
 20
20.8679839531
 30
0.0
  0
SPLINE
  5
5AD
100
AcDbEntity
  8
0
100
AcDbSpline
 62
7
  6
CONTINUOUS
 70
0
 71
3
 72
9
 73
5
 74
0
 42
0.0000001
 43
0.0000001
 44
0.0000000001
 40
0.0
 40
0.0
 40
0.0
 40
0.0
 40
0.2554097958
 40
1.0
 40
1.0
 40
1.0
 40
1.0
 10
8.0236173124
 20
20.8679839531
 30
0.0
 10
8.0219697564
 20
20.8666036538
 30
0.0
 10
8.0155775432
 20
20.861130262
 30
0.0
 10
8.0094245056
 20
20.8553758507
 30
0.0
 10
8.0050094054
 20
20.8509296512
 30
0.0
  0
SPLINE
  5
5AE
100
AcDbEntity
  8
0
100
AcDbSpline
 62
7
  6
CONTINUOUS
 70
0
 71
3
 72
9
 73
5
 74
0
 42
0.0000001
 43
0.0000001
 44
0.0000000001
 40
0.0
 40
0.0
 40
0.0
 40
0.0
 40
0.2572168754
 40
1.0
 40
1.0
 40
1.0
 40
1.0
 10
8.0050094054
 20
20.8509296512
 30
0.0
 10
8.0031047728
 20
20.8490116025
 30
0.0
 10
7.9958199836
 20
20.8414372657
 30
0.0
 10
7.9890303978
 20
20.8333805779
 30
0.0
 10
7.9843538218
 20
20.8271307451
 30
0.0
  0
SPLINE
  5
5AF
100
AcDbEntity
  8
0
100
AcDbSpline
 62
7
  6
CONTINUOUS
 70
0
 71
3
 72
9
 73
5
 74
0
 42
0.0000001
 43
0.0000001
 44
0.0000000001
 40
0.0
 40
0.0
 40
0.0
 40
0.0
 40
0.2552030602
 40
1.0
 40
1.0
 40
1.0
 40
1.0
 10
7.9843538218
 20
20.8271307451
 30
0.0
 10
7.983183673
 20
20.825566944
 30
0.0
 10
7.9786877831
 20
20.819373241
 30
0.0
 10
7.9745585098
 20
20.8129113155
 30
0.0
 10
7.9717314539
 20
20.8079616649
 30
0.0
  0
SPLINE
  5
5B0
100
AcDbEntity
  8
0
100
AcDbSpline
 62
7
  6
CONTINUOUS
 70
0
 71
3
 72
9
 73
5
 74
0
 42
0.0000001
 43
0.0000001
 44
0.0000000001
 40
0.0
 40
0.0
 40
0.0
 40
0.0
 40
0.2554718898
 40
1.0
 40
1.0
 40
1.0
 40
1.0
 10
7.9717314539
 20
20.8079616649
 30
0.0
 10
7.9705843297
 20
20.8059532631
 30
0.0
 10
7.9662530054
 20
20.7980026329
 30
0.0
 10
7.9625797752
 20
20.7896888062
 30
0.0
 10
7.9602922607
 20
20.7833482427
 30
0.0
  0
SPLINE
  5
5B1
100
AcDbEntity
  8
0
100
AcDbSpline
 62
7
  6
CONTINUOUS
 70
0
 71
3
 72
9
 73
5
 74
0
 42
0.0000001
 43
0.0000001
 44
0.0000000001
 40
0.0
 40
0.0
 40
0.0
 40
0.0
 40
0.504859266
 40
1.0
 40
1.0
 40
1.0
 40
1.0
 10
7.9602922607
 20
20.7833482427
 30
0.0
 10
7.9585416481
 20
20.7784958712
 30
0.0
 10
7.9555851466
 20
20.768691009
 30
0.0
 10
7.9537535646
 20
20.7586129001
 30
0.0
 10
7.9531413791
 20
20.7535908733
 30
0.0
  0
SPLINE
  5
5B2
100
AcDbEntity
  8
0
100
AcDbSpline
 62
7
  6
CONTINUOUS
 70
0
 71
3
 72
15
 73
11
 74
0
 42
0.0000001
 43
0.0000001
 44
0.0000000001
 40
0.0
 40
0.0
 40
0.0
 40
0.0
 40
0.1215518075
 40
0.2425785323
 40
0.364272993
 40
0.4872406403
 40
0.6116877999
 40
0.7381481642
 40
0.8674000311
 40
1.0
 40
1.0
 40
1.0
 40
1.0
 10
7.9521963314
 20
20.7540175713
 30
0.0
 10
7.9521947639
 20
20.7620556083
 30
0.0
 10
7.9532782835
 20
20.778118135
 30
0.0
 10
7.9581056156
 20
20.8017862657
 30
0.0
 10
7.965972564
 20
20.8247209061
 30
0.0
 10
7.9766274384
 20
20.8467417608
 30
0.0
 10
7.9898484041
 20
20.8676911719
 30
0.0
 10
8.0054351738
 20
20.8874686018
 30
0.0
 10
8.0231842233
 20
20.9060709108
 30
0.0
 10
8.0361731617
 20
20.9175552556
 30
0.0
 10
8.0429590571
 20
20.9231086861
 30
0.0
  0
SPLINE
  5
5B3
100
AcDbEntity
  8
0
100
AcDbSpline
 62
7
  6
CONTINUOUS
 70
0
 71
3
 72
11
 73
7
 74
0
 42
0.0000001
 43
0.0000001
 44
0.0000000001
 40
0.0
 40
0.0
 40
0.0
 40
0.0
 40
0.2453107018
 40
0.4930340855
 40
0.743784195
 40
1.0
 40
1.0
 40
1.0
 40
1.0
 10
7.9578951123
 20
20.6931618207
 30
0.0
 10
7.9600899736
 20
20.6846013245
 30
0.0
 10
7.9657393618
 20
20.6676923204
 30
0.0
 10
7.977526865
 20
20.6435523953
 30
0.0
 10
7.9924120671
 20
20.6207264908
 30
0.0
 10
8.004069191
 20
20.6066155624
 30
0.0
 10
8.0102902019
 20
20.5997967221
 30
0.0
  0
SPLINE
  5
5B4
100
AcDbEntity
  8
0
100
AcDbSpline
 62
7
  6
CONTINUOUS
 70
0
 71
3
 72
11
 73
7
 74
0
 42
0.0000001
 43
0.0000001
 44
0.0000000001
 40
0.0
 40
0.0
 40
0.0
 40
0.0
 40
0.2493672177
 40
0.4978139067
 40
0.747528501
 40
1.0
 40
1.0
 40
1.0
 40
1.0
 10
8.0102902467
 20
20.5997962973
 30
0.0
 10
8.0131201929
 20
20.596694475
 30
0.0
 10
8.0191607677
 20
20.5908480693
 30
0.0
 10
8.0291801386
 20
20.5831898275
 30
0.0
 10
8.0399855732
 20
20.5765940359
 30
0.0
 10
8.047601894
 20
20.5728898438
 30
0.0
 10
8.0515017314
 20
20.5711978528
 30
0.0
  0
SPLINE
  5
5B5
100
AcDbEntity
  8
0
100
AcDbSpline
 62
7
  6
CONTINUOUS
 70
0
 71
3
 72
11
 73
7
 74
0
 42
0.0000001
 43
0.0000001
 44
0.0000000001
 40
0.0
 40
0.0
 40
0.0
 40
0.0
 40
0.2426033563
 40
0.4913087579
 40
0.7448271058
 40
1.0
 40
1.0
 40
1.0
 40
1.0
 10
8.0515017314
 20
20.5711978528
 30
0.0
 10
8.057863678
 20
20.5684376464
 30
0.0
 10
8.0711516367
 20
20.5637477526
 30
0.0
 10
8.0919808034
 20
20.5591296594
 30
0.0
 10
8.1135444828
 20
20.5567892906
 30
0.0
 10
8.1281166655
 20
20.5567346431
 30
0.0
 10
8.1354021
 20
20.557092636
 30
0.0
  0
SPLINE
  5
5B6
100
AcDbEntity
  8
0
100
AcDbSpline
 62
9
  6
CONTINUOUS
 70
0
 71
3
 72
20
 73
16
 74
0
 42
0.0000001
 43
0.0000001
 44
0.0000000001
 40
0.0
 40
0.0
 40
0.0
 40
0.0
 40
0.1376375019
 40
0.2655817987
 40
0.3266415208
 40
0.3862195579
 40
0.4447499502
 40
0.5027000353
 40
0.5605518133
 40
0.6187881998
 40
0.6778819691
 40
0.7382760306
 40
0.8003694072
 40
0.8645157259
 40
1.0
 40
1.0
 40
1.0
 40
1.0
 10
8.0591491934
 20
20.58694634
 30
0.0
 10
8.0528382879
 20
20.5938637163
 30
0.0
 10
8.0415249873
 20
20.6080457847
 30
0.0
 10
8.0305753756
 20
20.6275223242
 30
0.0
 10
8.0244422271
 20
20.6433077148
 30
0.0
 10
8.0211523161
 20
20.6550658538
 30
0.0
 10
8.0191158128
 20
20.6668907612
 30
0.0
 10
8.0183417718
 20
20.6787478076
 30
0.0
 10
8.0188292062
 20
20.6906000442
 30
0.0
 10
8.0205766804
 20
20.7024112268
 30
0.0
 10
8.023582624
 20
20.714144139
 30
0.0
 10
8.027832862
 20
20.7257636702
 30
0.0
 10
8.0333115586
 20
20.7372385209
 30
0.0
 10
8.0423951235
 20
20.7525731557
 30
0.0
 10
8.0507876172
 20
20.7633433807
 30
0.0
 10
8.0569363574
 20
20.770209878
 30
0.0
  0
LINE
  5
5B7
100
AcDbEntity
  8
0
100
AcDbLine
 62
9
  6
CONTINUOUS
 10
8.0578398194
 20
20.7712120458
 11
8.0582730639
 21
20.7716879064
  0
SPLINE
  5
5B8
100
AcDbEntity
  8
0
100
AcDbSpline
 62
9
  6
CONTINUOUS
 70
0
 71
3
 72
14
 73
10
 74
0
 42
0.0000001
 43
0.0000001
 44
0.0000000001
 40
0.0
 40
0.0
 40
0.0
 40
0.0
 40
0.1092173326
 40
0.2217553431
 40
0.3383650196
 40
0.4596827959
 40
0.5862017352
 40
0.7182906214
 40
1.0
 40
1.0
 40
1.0
 40
1.0
 10
7.9569711462
 20
20.7889575989
 30
0.0
 10
7.9583307779
 20
20.7939077294
 30
0.0
 10
7.9616512611
 20
20.8038124574
 30
0.0
 10
7.9682481556
 20
20.8183111289
 30
0.0
 10
7.9764987721
 20
20.8325968037
 30
0.0
 10
7.9863762817
 20
20.8466175855
 30
0.0
 10
7.9978425003
 20
20.8603326498
 30
0.0
 10
8.015571695
 20
20.8785412863
 30
0.0
 10
8.0305987017
 20
20.8910020728
 30
0.0
 10
8.0412459814
 20
20.8988734563
 30
0.0
  0
SPLINE
  5
5B9
100
AcDbEntity
  8
0
100
AcDbSpline
 62
9
  6
CONTINUOUS
 70
0
 71
3
 72
15
 73
11
 74
0
 42
0.0000001
 43
0.0000001
 44
0.0000000001
 40
0.0
 40
0.0
 40
0.0
 40
0.0
 40
0.1167037555
 40
0.2344061464
 40
0.353964625
 40
0.4761686313
 40
0.6016532457
 40
0.7308679159
 40
0.8637937541
 40
1.0
 40
1.0
 40
1.0
 40
1.0
 10
8.010290226
 20
20.5997962784
 30
0.0
 10
8.0116778615
 20
20.5982761743
 30
0.0
 10
8.0147006764
 20
20.5954294647
 30
0.0
 10
8.0198436344
 20
20.5918539062
 30
0.0
 10
8.0255361114
 20
20.5890140172
 30
0.0
 10
8.031698021
 20
20.5869549908
 30
0.0
 10
8.0382433856
 20
20.585694252
 30
0.0
 10
8.0450830908
 20
20.5852583267
 30
0.0
 10
8.0521125717
 20
20.585641254
 30
0.0
 10
8.056805166
 20
20.5864246935
 30
0.0
 10
8.0591501727
 20
20.5869455987
 30
0.0
  0
SPLINE
  5
5BA
100
AcDbEntity
  8
0
100
AcDbSpline
 62
7
  6
CONTINUOUS
 70
0
 71
3
 72
12
 73
8
 74
0
 42
0.0000001
 43
0.0000001
 44
0.0000000001
 40
0.0
 40
0.0
 40
0.0
 40
0.0
 40
0.2495001669
 40
0.499772428
 40
0.6248825551
 40
0.7499447633
 40
1.0
 40
1.0
 40
1.0
 40
1.0
 10
11.6060744756
 20
12.832838138
 30
0.0
 10
11.6074523505
 20
12.832838138
 30
0.0
 10
11.6102196041
 20
12.8331302724
 30
0.0
 10
11.6135308962
 20
12.8341887446
 30
0.0
 10
11.6160032015
 20
12.8354346229
 30
0.0
 10
11.618331906
 20
12.836927249
 30
0.0
 10
11.619895337
 20
12.8383163359
 30
0.0
 10
11.6208266775
 20
12.8393359441
 30
0.0
  0
SPLINE
  5
5BB
100
AcDbEntity
  8
0
100
AcDbSpline
 62
9
  6
CONTINUOUS
 70
0
 71
3
 72
18
 73
14
 74
0
 42
0.0000001
 43
0.0000001
 44
0.0000000001
 40
0.0
 40
0.0
 40
0.0
 40
0.0
 40
0.1774032784
 40
0.3460743374
 40
0.5009158926
 40
0.6384983029
 40
0.7563985247
 40
0.8077142086
 40
0.8539905608
 40
0.8955415554
 40
0.9330175388
 40
0.9673935545
 40
1.0
 40
1.0
 40
1.0
 40
1.0
 10
11.6130750605
 20
12.8495048047
 30
0.0
 10
11.6130071937
 20
12.8483737865
 30
0.0
 10
11.6128049714
 20
12.8461708808
 30
0.0
 10
11.6122992817
 20
12.8430091777
 30
0.0
 10
11.6116063171
 20
12.8401429951
 30
0.0
 10
11.6107525955
 20
12.8376608883
 30
0.0
 10
11.609889793
 20
12.8358922199
 30
0.0
 10
11.6091227387
 20
12.834746949
 30
0.0
 10
11.608549514
 20
12.8340649667
 30
0.0
 10
11.6079538909
 20
12.8335259718
 30
0.0
 10
11.6073399443
 20
12.8331339268
 30
0.0
 10
11.6067121398
 20
12.832893473
 30
0.0
 10
11.6062827288
 20
12.832838138
 30
0.0
 10
11.6060744756
 20
12.832838138
 30
0.0
  0
SPLINE
  5
5BC
100
AcDbEntity
  8
0
100
AcDbSpline
 62
9
  6
CONTINUOUS
 70
0
 71
3
 72
9
 73
5
 74
0
 42
0.0000001
 43
0.0000001
 44
0.0000000001
 40
0.0
 40
0.0
 40
0.0
 40
0.0
 40
0.2528578503
 40
1.0
 40
1.0
 40
1.0
 40
1.0
 10
11.620577321
 20
12.8595783213
 30
0.0
 10
11.6198616156
 20
12.8587967409
 30
0.0
 10
11.617098368
 20
12.8556467025
 30
0.0
 10
11.6146326493
 20
12.8522213198
 30
0.0
 10
11.6130753862
 20
12.8495046121
 30
0.0
  0
SPLINE
  5
5BD
100
AcDbEntity
  8
0
100
AcDbSpline
 62
7
  6
CONTINUOUS
 70
0
 71
3
 72
45
 73
41
 74
0
 42
0.0000001
 43
0.0000001
 44
0.0000000001
 40
0.0
 40
0.0
 40
0.0
 40
0.0
 40
0.0173067093
 40
0.0345436805
 40
0.0516509656
 40
0.068586489
 40
0.0853264322
 40
0.1018640344
 40
0.1343344883
 40
0.1661443552
 40
0.1974364094
 40
0.2283408484
 40
0.2589622301
 40
0.2893803929
 40
0.319654316
 40
0.3498263547
 40
0.3799276214
 40
0.4099811763
 40
0.4400029835
 40
0.4700059711
 40
0.5000000354
 40
0.529994101
 40
0.5599970829
 40
0.5900188886
 40
0.6200724427
 40
0.6501737027
 40
0.6803457296
 40
0.71061962
 40
0.7410377769
 40
0.7716591423
 40
0.8025635232
 40
0.8338555453
 40
0.8656653775
 40
0.8981358628
 40
0.9146734607
 40
0.9314134036
 40
0.9483489766
 40
0.9654562894
 40
0.9826932913
 40
1.0
 40
1.0
 40
1.0
 40
1.0
 10
13.1540075617
 20
15.5281109546
 30
0.0
 10
13.1497679625
 20
15.5281109546
 30
0.0
 10
13.1412982029
 20
15.5285874221
 30
0.0
 10
13.1287986464
 20
15.5307024651
 30
0.0
 10
13.1166890681
 20
15.5341326003
 30
0.0
 10
13.1051162733
 20
15.5387534254
 30
0.0
 10
13.094178099
 20
15.5444218616
 30
0.0
 10
13.0806024024
 20
15.5531230218
 30
0.0
 10
13.0653563132
 20
15.5658967552
 30
0.0
 10
13.0497399574
 20
15.5834289956
 30
0.0
 10
13.0366201136
 20
15.602414979
 30
0.0
 10
13.0256889864
 20
15.6223914879
 30
0.0
 10
13.0166476303
 20
15.6430474347
 30
0.0
 10
13.009234063
 20
15.664171042
 30
0.0
 10
13.0032255816
 20
15.6856172898
 30
0.0
 10
12.9984361281
 20
15.7072853868
 30
0.0
 10
12.9947130949
 20
15.7291049267
 30
0.0
 10
12.9919391055
 20
15.7510266682
 30
0.0
 10
12.9900209582
 20
15.7730145916
 30
0.0
 10
12.9888946607
 20
15.7950420953
 30
0.0
 10
12.9885248463
 20
15.8170881642
 30
0.0
 10
12.9888946557
 20
15.8391342323
 30
0.0
 10
12.9900209746
 20
15.8611617332
 30
0.0
 10
12.991939101
 20
15.8831496563
 30
0.0
 10
12.9947131036
 20
15.9050713943
 30
0.0
 10
12.9984361417
 20
15.9268909282
 30
0.0
 10
13.0032255846
 20
15.9485590149
 30
0.0
 10
13.0092340745
 20
15.9700052474
 30
0.0
 10
13.016647628
 20
15.9911288452
 30
0.0
 10
13.0256889817
 20
16.0117847717
 30
0.0
 10
13.0366200903
 20
16.0317612607
 30
0.0
 10
13.0497399133
 20
16.0507472208
 30
0.0
 10
13.06535625
 20
16.0682794672
 30
0.0
 10
13.0806023373
 20
16.081053199
 30
0.0
 10
13.0941780284
 20
16.0897543802
 30
0.0
 10
13.1051162144
 20
16.095422818
 30
0.0
 10
13.1166890222
 20
16.1000436609
 30
0.0
 10
13.1287986254
 20
16.1034738065
 30
0.0
 10
13.1412981956
 20
16.1055888537
 30
0.0
 10
13.1497679626
 20
16.1060653214
 30
0.0
 10
13.1540075617
 20
16.1060653214
 30
0.0
  0
SPLINE
  5
5BE
100
AcDbEntity
  8
0
100
AcDbSpline
 62
7
  6
CONTINUOUS
 70
0
 71
3
 72
45
 73
41
 74
0
 42
0.0000001
 43
0.0000001
 44
0.0000000001
 40
0.0
 40
0.0
 40
0.0
 40
0.0
 40
0.017306708
 40
0.0345436864
 40
0.0516509827
 40
0.0685865241
 40
0.0853264708
 40
0.1018640709
 40
0.1343345219
 40
0.166144409
 40
0.1974365029
 40
0.2283409414
 40
0.2589623152
 40
0.2893804784
 40
0.319654404
 40
0.3498264362
 40
0.3799277084
 40
0.4099812702
 40
0.4400030769
 40
0.4700060677
 40
0.5000001302
 40
0.5299941985
 40
0.5599971806
 40
0.5900189922
 40
0.6200725427
 40
0.6501737952
 40
0.6803458279
 40
0.7106197328
 40
0.7410379029
 40
0.7716592647
 40
0.8025636173
 40
0.8338556113
 40
0.8656654168
 40
0.898135888
 40
0.9146734931
 40
0.9314134377
 40
0.9483489957
 40
0.9654563018
 40
0.9826932924
 40
1.0
 40
1.0
 40
1.0
 40
1.0
 10
13.1540075617
 20
14.9356109546
 30
0.0
 10
13.1497679628
 20
14.9356109546
 30
0.0
 10
13.1412982018
 20
14.9360874221
 30
0.0
 10
13.1287986411
 20
14.9382024661
 30
0.0
 10
13.1166890544
 20
14.9416326047
 30
0.0
 10
13.1051162535
 20
14.946253436
 30
0.0
 10
13.0941780748
 20
14.9519218739
 30
0.0
 10
13.0806023817
 20
14.960623039
 30
0.0
 10
13.0653562905
 20
14.9733967754
 30
0.0
 10
13.0497399293
 20
14.9909290301
 30
0.0
 10
13.0366200821
 20
15.0099150288
 30
0.0
 10
13.0256889536
 20
15.0298915457
 30
0.0
 10
13.0166476046
 20
15.0505474936
 30
0.0
 10
13.0092340426
 20
15.0716711016
 30
0.0
 10
13.0032255747
 20
15.0931173521
 30
0.0
 10
12.9984361113
 20
15.1147854469
 30
0.0
 10
12.9947130795
 20
15.1366049891
 30
0.0
 10
12.9919391115
 20
15.1585267358
 30
0.0
 10
12.9900209387
 20
15.1805146594
 30
0.0
 10
12.988894667
 20
15.2025421649
 30
0.0
 10
12.9885248458
 20
15.2245882343
 30
0.0
 10
12.9888946501
 20
15.2466343032
 30
0.0
 10
12.9900209941
 20
15.2686618046
 30
0.0
 10
12.9919390928
 20
15.2906497308
 30
0.0
 10
12.9947131219
 20
15.3125714645
 30
0.0
 10
12.9984361602
 20
15.3343909965
 30
0.0
 10
13.0032255956
 20
15.3560590882
 30
0.0
 10
13.0092340946
 20
15.3775053271
 30
0.0
 10
13.0166476669
 20
15.3986289245
 30
0.0
 10
13.025689024
 20
15.4192848441
 30
0.0
 10
13.0366201267
 20
15.4392613197
 30
0.0
 10
13.0497399447
 20
15.4582472588
 30
0.0
 10
13.0653562744
 20
15.475779488
 30
0.0
 10
13.0806023556
 20
15.4885532148
 30
0.0
 10
13.0941780489
 20
15.4972543899
 30
0.0
 10
13.1051162329
 20
15.5029228284
 30
0.0
 10
13.1166890376
 20
15.5075436658
 30
0.0
 10
13.1287986332
 20
15.5109738082
 30
0.0
 10
13.1412981989
 20
15.5130888539
 30
0.0
 10
13.1497679629
 20
15.5135653214
 30
0.0
 10
13.1540075617
 20
15.5135653214
 30
0.0
  0
SPLINE
  5
5BF
100
AcDbEntity
  8
0
100
AcDbSpline
 62
7
  6
CONTINUOUS
 70
0
 71
3
 72
25
 73
21
 74
0
 42
0.0000001
 43
0.0000001
 44
0.0000000001
 40
0.0
 40
0.0
 40
0.0
 40
0.0
 40
0.0371329313
 40
0.071898901
 40
0.1050172291
 40
0.1370658205
 40
0.1993048953
 40
0.2599091251
 40
0.3195082742
 40
0.3785061627
 40
0.4958310111
 40
0.6137797304
 40
0.6735722291
 40
0.7342810628
 40
0.7962867863
 40
0.8601950604
 40
0.8931497425
 40
0.9271347451
 40
0.9625811286
 40
1.0
 40
1.0
 40
1.0
 40
1.0
 10
8.410395876
 20
19.5281297084
 30
0.0
 10
8.4082181912
 20
19.5283541208
 30
0.0
 10
8.4040188749
 20
19.5289871958
 30
0.0
 10
8.3980038501
 20
19.5304880415
 30
0.0
 10
8.3924235617
 20
19.5323973041
 30
0.0
 10
8.3854985172
 20
19.5353156459
 30
0.0
 10
8.3773474623
 20
19.5394637385
 30
0.0
 10
8.368214977
 20
19.5451676841
 30
0.0
 10
8.3596905305
 20
19.5514246267
 30
0.0
 10
8.3490798765
 20
19.5604337746
 30
0.0
 10
8.3369970709
 20
19.5729433917
 30
0.0
 10
8.3263180473
 20
19.5867262236
 30
0.0
 10
8.3187800529
 20
19.5986033625
 30
0.0
 10
8.3136193861
 20
19.6080540588
 30
0.0
 10
8.3090127894
 20
19.6180562384
 30
0.0
 10
8.3057722398
 20
19.6268564535
 30
0.0
 10
8.3035743824
 20
19.6342537387
 30
0.0
 10
8.302185383
 20
19.6401322881
 30
0.0
 10
8.3011525939
 20
19.646351643
 30
0.0
 10
8.3007660787
 20
19.6506350862
 30
0.0
 10
8.3006506217
 20
19.652838138
 30
0.0
  0
SPLINE
  5
5C0
100
AcDbEntity
  8
0
100
AcDbSpline
 62
7
  6
CONTINUOUS
 70
0
 71
3
 72
25
 73
21
 74
0
 42
0.0000001
 43
0.0000001
 44
0.0000000001
 40
0.0
 40
0.0
 40
0.0
 40
0.0
 40
0.0371329313
 40
0.071898901
 40
0.1050172291
 40
0.1370658205
 40
0.1993048953
 40
0.2599091251
 40
0.3195082742
 40
0.3785061627
 40
0.4958310111
 40
0.6137797304
 40
0.6735722291
 40
0.7342810628
 40
0.7962867863
 40
0.8601950604
 40
0.8931497425
 40
0.9271347451
 40
0.9625811286
 40
1.0
 40
1.0
 40
1.0
 40
1.0
 10
8.410395876
 20
23.8275465676
 30
0.0
 10
8.4082181912
 20
23.8273221552
 30
0.0
 10
8.4040188749
 20
23.8266890802
 30
0.0
 10
8.3980038501
 20
23.8251882345
 30
0.0
 10
8.3924235617
 20
23.8232789719
 30
0.0
 10
8.3854985172
 20
23.8203606301
 30
0.0
 10
8.3773474623
 20
23.8162125375
 30
0.0
 10
8.368214977
 20
23.8105085919
 30
0.0
 10
8.3596905305
 20
23.8042516493
 30
0.0
 10
8.3490798765
 20
23.7952425014
 30
0.0
 10
8.3369970709
 20
23.7827328843
 30
0.0
 10
8.3263180473
 20
23.7689500524
 30
0.0
 10
8.3187800529
 20
23.7570729135
 30
0.0
 10
8.3136193861
 20
23.7476222172
 30
0.0
 10
8.3090127894
 20
23.7376200376
 30
0.0
 10
8.3057722398
 20
23.7288198225
 30
0.0
 10
8.3035743824
 20
23.7214225373
 30
0.0
 10
8.302185383
 20
23.7155439879
 30
0.0
 10
8.3011525939
 20
23.709324633
 30
0.0
 10
8.3007660787
 20
23.7050411898
 30
0.0
 10
8.3006506217
 20
23.702838138
 30
0.0
  0
SPLINE
  5
5C1
100
AcDbEntity
  8
0
100
AcDbSpline
 62
7
  6
CONTINUOUS
 70
0
 71
3
 72
11
 73
7
 74
0
 42
0.0000001
 43
0.0000001
 44
0.0000000001
 40
0.0
 40
0.0
 40
0.0
 40
0.0
 40
0.1795724747
 40
0.400235822
 40
0.6711466795
 40
1.0
 40
1.0
 40
1.0
 40
1.0
 10
11.473572282
 20
14.0095215852
 30
0.0
 10
11.4728087795
 20
14.0089339961
 30
0.0
 10
11.4712793817
 20
14.0073996852
 30
0.0
 10
11.4692192302
 20
14.0044328996
 30
0.0
 10
11.4671801583
 20
14.0005220529
 30
0.0
 10
11.4659621178
 20
13.9975396074
 30
0.0
 10
11.4653466564
 20
13.9958860939
 30
0.0
  0
SPLINE
  5
5C2
100
AcDbEntity
  8
0
100
AcDbSpline
 62
7
  6
CONTINUOUS
 70
0
 71
3
 72
9
 73
5
 74
0
 42
0.0000001
 43
0.0000001
 44
0.0000000001
 40
0.0
 40
0.0
 40
0.0
 40
0.0
 40
0.4278754408
 40
1.0
 40
1.0
 40
1.0
 40
1.0
 10
11.4653466564
 20
13.9958860939
 30
0.0
 10
11.4639405106
 20
13.992108308
 30
0.0
 10
11.4612752321
 20
13.9830507694
 30
0.0
 10
11.4593700396
 20
13.973818065
 30
0.0
 10
11.4584151945
 20
13.9685133579
 30
0.0
  0
SPLINE
  5
5C3
100
AcDbEntity
  8
0
100
AcDbSpline
 62
7
  6
CONTINUOUS
 70
0
 71
3
 72
11
 73
7
 74
0
 42
0.0000001
 43
0.0000001
 44
0.0000000001
 40
0.0
 40
0.0
 40
0.0
 40
0.0
 40
0.1795724747
 40
0.400235822
 40
0.6711466795
 40
1.0
 40
1.0
 40
1.0
 40
1.0
 10
12.3797429625
 20
14.0095215852
 30
0.0
 10
12.3805064651
 20
14.0089339961
 30
0.0
 10
12.3820358628
 20
14.0073996852
 30
0.0
 10
12.3840960143
 20
14.0044328996
 30
0.0
 10
12.3861350863
 20
14.0005220529
 30
0.0
 10
12.3873531268
 20
13.9975396074
 30
0.0
 10
12.3879685881
 20
13.9958860939
 30
0.0
  0
SPLINE
  5
5C4
100
AcDbEntity
  8
0
100
AcDbSpline
 62
7
  6
CONTINUOUS
 70
0
 71
3
 72
9
 73
5
 74
0
 42
0.0000001
 43
0.0000001
 44
0.0000000001
 40
0.0
 40
0.0
 40
0.0
 40
0.0
 40
0.4278754408
 40
1.0
 40
1.0
 40
1.0
 40
1.0
 10
12.3879685881
 20
13.9958860939
 30
0.0
 10
12.3893747339
 20
13.992108308
 30
0.0
 10
12.3920400125
 20
13.9830507694
 30
0.0
 10
12.393945205
 20
13.973818065
 30
0.0
 10
12.39490005
 20
13.9685133579
 30
0.0
  0
SPLINE
  5
5C5
100
AcDbEntity
  8
0
100
AcDbSpline
 62
7
  6
CONTINUOUS
 70
0
 71
3
 72
13
 73
9
 74
0
 42
0.0000001
 43
0.0000001
 44
0.0000000001
 40
0.0
 40
0.0
 40
0.0
 40
0.0
 40
0.3839283968
 40
0.6653894322
 40
0.7741034695
 40
0.8644739949
 40
0.9388388789
 40
1.0
 40
1.0
 40
1.0
 40
1.0
 10
12.39490005
 20
13.5631629181
 30
0.0
 10
12.3938942928
 20
13.5575753651
 30
0.0
 10
12.3918929556
 20
13.5479341886
 30
0.0
 10
12.3885735085
 20
13.5369482824
 30
0.0
 10
12.3857756623
 20
13.5304084249
 30
0.0
 10
12.3838455423
 20
13.5268460541
 30
0.0
 10
12.3818980619
 20
13.5241199114
 30
0.0
 10
12.380460665
 20
13.5226998717
 30
0.0
 10
12.3797429969
 20
13.5221494804
 30
0.0
  0
SPLINE
  5
5C6
100
AcDbEntity
  8
0
100
AcDbSpline
 62
7
  6
CONTINUOUS
 70
0
 71
3
 72
32
 73
28
 74
0
 42
0.0000001
 43
0.0000001
 44
0.0000000001
 40
0.0
 40
0.0
 40
0.0
 40
0.0
 40
0.0852468216
 40
0.1704078147
 40
0.2546508084
 40
0.3372534971
 40
0.4174975379
 40
0.4946703464
 40
0.5681094634
 40
0.6371944301
 40
0.7013620893
 40
0.7314472834
 40
0.7601305491
 40
0.8131094505
 40
0.8373475402
 40
0.8600583797
 40
0.8812677891
 40
0.9010214227
 40
0.9193811957
 40
0.9364388523
 40
0.9523857519
 40
0.9601343712
 40
0.9678650521
 40
0.9756746274
 40
0.9836108714
 40
0.9917042325
 40
1.0
 40
1.0
 40
1.0
 40
1.0
 10
11.0008621733
 20
-0.57901109
 30
0.0
 10
11.000012831
 20
-0.6911951652
 30
0.0
 10
10.9993500292
 20
-0.9154595133
 30
0.0
 10
11.001410304
 20
-1.2505854781
 30
0.0
 10
11.0065158405
 20
-1.5821991913
 30
0.0
 10
11.0146167322
 20
-1.9072806138
 30
0.0
 10
11.0256369076
 20
-2.2229666119
 30
0.0
 10
11.039486464
 20
-2.5264701782
 30
0.0
 10
11.0560397361
 20
-2.8151308706
 30
0.0
 10
11.0751653671
 20
-3.086478333
 30
0.0
 10
11.0934822639
 20
-3.3006644206
 30
0.0
 10
11.1094589064
 20
-3.4616637442
 30
0.0
 10
11.1254256583
 20
-3.6078583012
 30
0.0
 10
11.1427419985
 20
-3.7461634302
 30
0.0
 10
11.161845996
 20
-3.8762806862
 30
0.0
 10
11.1762787106
 20
-3.9648147788
 30
0.0
 10
11.1913127443
 20
-4.047257797
 30
0.0
 10
11.2070405179
 20
-4.1237353581
 30
0.0
 10
11.2235785213
 20
-4.1944453118
 30
0.0
 10
11.241128749
 20
-4.2597362457
 30
0.0
 10
11.2570854115
 20
-4.3109656537
 30
0.0
 10
11.2711668873
 20
-4.34986011
 30
0.0
 10
11.2825868469
 20
-4.3783085906
 30
0.0
 10
11.2951301307
 20
-4.4065522613
 30
0.0
 10
11.3091576428
 20
-4.4346302353
 30
0.0
 10
11.3250743613
 20
-4.462427558
 30
0.0
 10
11.3370170527
 20
-4.4804134505
 30
0.0
 10
11.3433836336
 20
-4.4892823745
 30
0.0
  0
SPLINE
  5
5C7
100
AcDbEntity
  8
0
100
AcDbSpline
 62
7
  6
CONTINUOUS
 70
0
 71
3
 72
32
 73
28
 74
0
 42
0.0000001
 43
0.0000001
 44
0.0000000001
 40
0.0
 40
0.0
 40
0.0
 40
0.0
 40
0.2528424392
 40
0.3633803459
 40
0.4625129982
 40
0.5496252577
 40
0.6240995975
 40
0.685316813
 40
0.7107606292
 40
0.7326588208
 40
0.7509599699
 40
0.7656420967
 40
0.7766835538
 40
0.7840611825
 40
0.7863684227
 40
0.7877503481
 40
0.7882036862
 40
0.7886825308
 40
0.7924502934
 40
0.7999892505
 40
0.8113298415
 40
0.826503881
 40
0.845544546
 40
0.8684863541
 40
0.8953651407
 40
0.9262180357
 40
1.0
 40
1.0
 40
1.0
 40
1.0
 10
11.7914702881
 20
-4.1414901324
 30
0.0
 10
11.7925562056
 20
-4.1445318313
 30
0.0
 10
11.794158786
 20
-4.1488885825
 30
0.0
 10
11.7962862394
 20
-4.1544003153
 30
0.0
 10
11.7976878088
 20
-4.1579228046
 30
0.0
 10
11.7989519695
 20
-4.1610039554
 30
0.0
 10
11.8000624314
 20
-4.1636244972
 30
0.0
 10
11.8008899182
 20
-4.1655091486
 30
0.0
 10
11.801464004
 20
-4.1667715737
 30
0.0
 10
11.801818806
 20
-4.1675310589
 30
0.0
 10
11.80212333
 20
-4.1681633155
 30
0.0
 10
11.8023721531
 20
-4.1686654947
 30
0.0
 10
11.8025663518
 20
-4.1690463756
 30
0.0
 10
11.8026847688
 20
-4.1692730355
 30
0.0
 10
11.8027564103
 20
-4.169407283
 30
0.0
 10
11.802775281
 20
-4.1694423125
 30
0.0
 10
11.8027974037
 20
-4.1694834054
 30
0.0
 10
11.8027504542
 20
-4.1694015003
 30
0.0
 10
11.8026980334
 20
-4.1693112407
 30
0.0
 10
11.8025345434
 20
-4.169033726
 30
0.0
 10
11.8023174835
 20
-4.1686754541
 30
0.0
 10
11.8020078427
 20
-4.1681749092
 30
0.0
 10
11.8016181773
 20
-4.1675604352
 30
0.0
 10
11.8011388893
 20
-4.1668217967
 30
0.0
 10
11.8005689128
 20
-4.1659636135
 30
0.0
 10
11.799624695
 20
-4.1645739818
 30
0.0
 10
11.7988552256
 20
-4.1634810284
 30
0.0
 10
11.7983056208
 20
-4.162715405
 30
0.0
  0
SPLINE
  5
5C8
100
AcDbEntity
  8
0
100
AcDbSpline
 62
7
  6
CONTINUOUS
 70
0
 71
3
 72
24
 73
20
 74
0
 42
0.0000001
 43
0.0000001
 44
0.0000000001
 40
0.0
 40
0.0
 40
0.0
 40
0.0
 40
0.167480725
 40
0.3322384578
 40
0.4120503474
 40
0.4893467951
 40
0.5635343791
 40
0.6340454738
 40
0.7003271148
 40
0.7618442783
 40
0.8180802336
 40
0.8685304379
 40
0.912667055
 40
0.9321888987
 40
0.9499063601
 40
0.9657067303
 40
0.9794435474
 40
0.9909466063
 40
1.0
 40
1.0
 40
1.0
 40
1.0
 10
11.5608461245
 20
-0.5832507114
 30
0.0
 10
11.5593359478
 20
-0.7827200963
 30
0.0
 10
11.5596153184
 20
-1.1784473384
 30
0.0
 10
11.568035021
 20
-1.6691657466
 30
0.0
 10
11.5797233416
 20
-2.0523453692
 30
0.0
 10
11.5906929225
 20
-2.3276123903
 30
0.0
 10
11.6038712552
 20
-2.5916921265
 30
0.0
 10
11.6191425033
 20
-2.842517778
 30
0.0
 10
11.6363729437
 20
-3.078088804
 30
0.0
 10
11.6553971203
 20
-3.2964611517
 30
0.0
 10
11.6760117217
 20
-3.4957443488
 30
0.0
 10
11.6979719051
 20
-3.6740442837
 30
0.0
 10
11.7178131759
 20
-3.8085156318
 30
0.0
 10
11.7343028429
 20
-3.9040286153
 30
0.0
 10
11.7462161514
 20
-3.9660716097
 30
0.0
 10
11.7580313559
 20
-4.0211043697
 30
0.0
 10
11.7695221065
 20
-4.0686223222
 30
0.0
 10
11.780381452
 20
-4.1080035834
 30
0.0
 10
11.787844804
 20
-4.1313350039
 30
0.0
 10
11.7914702881
 20
-4.1414901324
 30
0.0
  0
SPLINE
  5
5C9
100
AcDbEntity
  8
0
100
AcDbSpline
 62
7
  6
CONTINUOUS
 70
0
 71
3
 72
13
 73
9
 74
0
 42
0.0000001
 43
0.0000001
 44
0.0000000001
 40
0.0
 40
0.0
 40
0.0
 40
0.0
 40
0.3839283968
 40
0.6653894322
 40
0.7741034695
 40
0.8644739949
 40
0.9388388789
 40
1.0
 40
1.0
 40
1.0
 40
1.0
 10
11.4584151945
 20
13.5631629181
 30
0.0
 10
11.4594209517
 20
13.5575753651
 30
0.0
 10
11.4614222889
 20
13.5479341886
 30
0.0
 10
11.464741736
 20
13.5369482824
 30
0.0
 10
11.4675395822
 20
13.5304084249
 30
0.0
 10
11.4694697022
 20
13.5268460541
 30
0.0
 10
11.4714171826
 20
13.5241199114
 30
0.0
 10
11.4728545795
 20
13.5226998717
 30
0.0
 10
11.4735722476
 20
13.5221494804
 30
0.0
  0
SPLINE
  5
5CA
100
AcDbEntity
  8
0
100
AcDbSpline
 62
9
  6
CONTINUOUS
 70
0
 71
3
 72
24
 73
20
 74
0
 42
0.0000001
 43
0.0000001
 44
0.0000000001
 40
0.0
 40
0.0
 40
0.0
 40
0.0
 40
0.1878365773
 40
0.3716334063
 40
0.5429744885
 40
0.694750724
 40
0.7612634928
 40
0.8205087006
 40
0.8719114635
 40
0.9149589346
 40
0.9332021282
 40
0.9492111599
 40
0.9629727076
 40
0.9744851157
 40
0.9837700347
 40
0.9909019446
 40
0.993724083
 40
0.9961163401
 40
1.0
 40
1.0
 40
1.0
 40
1.0
 10
11.37796111
 20
8.6898112958
 30
0.0
 10
11.3585612701
 20
8.6898112958
 30
0.0
 10
11.3201781674
 20
8.6901272576
 30
0.0
 10
11.2641135471
 20
8.6914931987
 30
0.0
 10
11.2118029441
 20
8.6936996232
 30
0.0
 10
11.171637288
 20
8.6962407063
 30
0.0
 10
11.1430769302
 20
8.6986873648
 30
0.0
 10
11.1248762749
 20
8.7005782886
 30
0.0
 10
11.1091279815
 20
8.7025808719
 30
0.0
 10
11.0976287579
 20
8.7044017711
 30
0.0
 10
11.0897940757
 20
8.7059409034
 30
0.0
 10
11.0849584722
 20
8.707044547
 30
0.0
 10
11.0808413561
 20
8.7081575572
 30
0.0
 10
11.0774481164
 20
8.7092748074
 30
0.0
 10
11.0747868788
 20
8.7103939886
 30
0.0
 10
11.0730516395
 20
8.7113858439
 30
0.0
 10
11.0720766641
 20
8.7122168258
 30
0.0
 10
11.0714667833
 20
8.7129311015
 30
0.0
 10
11.071220327
 20
8.7135816721
 30
0.0
 10
11.0712245133
 20
8.7139827562
 30
0.0
  0
SPLINE
  5
5CB
100
AcDbEntity
  8
0
100
AcDbSpline
 62
9
  6
CONTINUOUS
 70
0
 71
3
 72
24
 73
20
 74
0
 42
0.0000001
 43
0.0000001
 44
0.0000000001
 40
0.0
 40
0.0
 40
0.0
 40
0.0
 40
0.1975634038
 40
0.3853681474
 40
0.5564225496
 40
0.6339266981
 40
0.7052175225
 40
0.7697386688
 40
0.8269502776
 40
0.8763405165
 40
0.9175649507
 40
0.9350401025
 40
0.9503897471
 40
0.9635978839
 40
0.9746646891
 40
0.9836358878
 40
0.9906243479
 40
0.9958812809
 40
1.0
 40
1.0
 40
1.0
 40
1.0
 10
11.3076041357
 20
-0.6031825911
 30
0.0
 10
11.3244634097
 20
-0.6031825911
 30
0.0
 10
11.3573497946
 20
-0.6029462805
 30
0.0
 10
11.4048225583
 20
-0.6018812814
 30
0.0
 10
11.4420329603
 20
-0.6003882373
 30
0.0
 10
11.4692835392
 20
-0.598826676
 30
0.0
 10
11.4874426163
 20
-0.5975459499
 30
0.0
 10
11.5038543968
 20
-0.5961315583
 30
0.0
 10
11.5183779342
 20
-0.5945984585
 30
0.0
 10
11.5308870449
 20
-0.5929574037
 30
0.0
 10
11.5399898822
 20
-0.5914472636
 30
0.0
 10
11.5461777215
 20
-0.5901617261
 30
0.0
 10
11.549995883
 20
-0.5892344233
 30
0.0
 10
11.5532453257
 20
-0.5882934255
 30
0.0
 10
11.5559196031
 20
-0.5873399728
 30
0.0
 10
11.5580212342
 20
-0.5863780685
 30
0.0
 10
11.5595545902
 20
-0.5854023986
 30
0.0
 10
11.5605564798
 20
-0.5843990785
 30
0.0
 10
11.5608370905
 20
-0.5836021267
 30
0.0
 10
11.5608407588
 20
-0.5832506707
 30
0.0
  0
SPLINE
  5
5CC
100
AcDbEntity
  8
0
100
AcDbSpline
 62
9
  6
CONTINUOUS
 70
0
 71
3
 72
20
 73
16
 74
0
 42
0.0000001
 43
0.0000001
 44
0.0000000001
 40
0.0
 40
0.0
 40
0.0
 40
0.0
 40
0.1250783703
 40
0.1879397167
 40
0.2507958307
 40
0.3136618276
 40
0.3765337505
 40
0.4393628722
 40
0.5021195407
 40
0.5647826022
 40
0.627336582
 40
0.6897791964
 40
0.752104793
 40
0.8761712912
 40
1.0
 40
1.0
 40
1.0
 40
1.0
 10
11.5743953758
 20
-4.048461141
 30
0.0
 10
11.5488999306
 20
-4.048461141
 30
0.0
 10
11.5103317088
 20
-4.05379325
 30
0.0
 10
11.4620537007
 20
-4.0709241053
 30
0.0
 10
11.4277841344
 20
-4.0886191094
 30
0.0
 10
11.3962336798
 20
-4.1107842376
 30
0.0
 10
11.3679735851
 20
-4.1370101893
 30
0.0
 10
11.343513036
 20
-4.1667841511
 30
0.0
 10
11.323369198
 20
-4.1995827019
 30
0.0
 10
11.3078595701
 20
-4.2347496189
 30
0.0
 10
11.2973395195
 20
-4.2716502014
 30
0.0
 10
11.291952933
 20
-4.3095772483
 30
0.0
 10
11.2917957598
 20
-4.3604356456
 30
0.0
 10
11.3047478951
 20
-4.4231942123
 30
0.0
 10
11.328568804
 20
-4.4686178292
 30
0.0
 10
11.3432753953
 20
-4.4891314854
 30
0.0
  0
SPLINE
  5
5CD
100
AcDbEntity
  8
0
100
AcDbSpline
 62
7
  6
CONTINUOUS
 70
0
 71
3
 72
20
 73
16
 74
0
 42
0.0000001
 43
0.0000001
 44
0.0000000001
 40
0.0
 40
0.0
 40
0.0
 40
0.0
 40
0.0644234397
 40
0.1280816632
 40
0.1911460311
 40
0.253647424
 40
0.3157400457
 40
0.3775949952
 40
0.4393148538
 40
0.5009594171
 40
0.6242162011
 40
0.7478747967
 40
0.8101180746
 40
0.8728554444
 40
1.0
 40
1.0
 40
1.0
 40
1.0
 10
12.0244381907
 20
13.5631629181
 30
0.0
 10
12.0303945905
 20
13.559267635
 30
0.0
 10
12.0426459556
 20
13.5521328156
 30
0.0
 10
12.0618388298
 20
13.5432647929
 30
0.0
 10
12.0815024871
 20
13.5361079951
 30
0.0
 10
12.1014632154
 20
13.5304487057
 30
0.0
 10
12.1216253803
 20
13.5261668083
 30
0.0
 10
12.1419245366
 20
13.5231467139
 30
0.0
 10
12.162307991
 20
13.5212517909
 30
0.0
 10
12.1895407001
 20
13.5201351572
 30
0.0
 10
12.2236659216
 20
13.5214138472
 30
0.0
 10
12.257557124
 20
13.5262452199
 30
0.0
 10
12.2842750981
 20
13.5327143584
 30
0.0
 10
12.3108405039
 20
13.5411189858
 30
0.0
 10
12.3300953663
 20
13.5497961516
 30
0.0
 10
12.3422745593
 20
13.556793054
 30
0.0
  0
SPLINE
  5
5CE
100
AcDbEntity
  8
0
100
AcDbSpline
 62
9
  6
CONTINUOUS
 70
0
 71
3
 72
13
 73
9
 74
0
 42
0.0000001
 43
0.0000001
 44
0.0000000001
 40
0.0
 40
0.0
 40
0.0
 40
0.0
 40
0.2490112616
 40
0.3738174872
 40
0.4987453423
 40
0.623890978
 40
0.7493396082
 40
1.0
 40
1.0
 40
1.0
 40
1.0
 10
11.7983056107
 20
-4.1627154122
 30
0.0
 10
11.7856866926
 20
-4.1451392955
 30
0.0
 10
11.7634522224
 20
-4.1209076135
 30
0.0
 10
11.7289034434
 20
-4.0946302258
 30
0.0
 10
11.7007452149
 20
-4.0780929547
 30
0.0
 10
11.6707808335
 20
-4.0649719796
 30
0.0
 10
11.6290228273
 20
-4.0523479185
 30
0.0
 10
11.5961756063
 20
-4.048461141
 30
0.0
 10
11.5743953758
 20
-4.048461141
 30
0.0
  0
SPLINE
  5
5CF
100
AcDbEntity
  8
0
100
AcDbSpline
 62
7
  6
CONTINUOUS
 70
0
 71
3
 72
21
 73
17
 74
0
 42
0.0000001
 43
0.0000001
 44
0.0000000001
 40
0.0
 40
0.0
 40
0.0
 40
0.0
 40
0.0643261145
 40
0.127867004
 40
0.1907901869
 40
0.2531413661
 40
0.3151097766
 40
0.3768609402
 40
0.4999994278
 40
0.6231372174
 40
0.6848874534
 40
0.746855404
 40
0.8092075444
 40
0.8721321591
 40
0.9356736673
 40
1.0
 40
1.0
 40
1.0
 40
1.0
 10
12.3526619579
 20
13.9685133579
 30
0.0
 10
12.3464953629
 20
13.9725461015
 30
0.0
 10
12.3337983562
 20
13.9799090418
 30
0.0
 10
12.3138894957
 20
13.9889908257
 30
0.0
 10
12.293493777
 20
13.9962557964
 30
0.0
 10
12.2727925117
 20
14.0019317666
 30
0.0
 10
12.2518831704
 20
14.0061437221
 30
0.0
 10
12.2238550341
 20
14.0099824814
 30
0.0
 10
12.1885502744
 20
14.0118780839
 30
0.0
 10
12.1532456917
 20
14.0099819945
 30
0.0
 10
12.1252177257
 20
14.0061437898
 30
0.0
 10
12.1043083662
 20
14.0019321808
 30
0.0
 10
12.083606741
 20
13.9962566859
 30
0.0
 10
12.0632106353
 20
13.9889917134
 30
0.0
 10
12.0433017596
 20
13.9799093088
 30
0.0
 10
12.0306048066
 20
13.9725461152
 30
0.0
 10
12.0244381907
 20
13.9685133579
 30
0.0
  0
SPLINE
  5
5D0
100
AcDbEntity
  8
0
100
AcDbSpline
 62
9
  6
CONTINUOUS
 70
0
 71
3
 72
20
 73
16
 74
0
 42
0.0000001
 43
0.0000001
 44
0.0000000001
 40
0.0
 40
0.0
 40
0.0
 40
0.0
 40
0.0591251888
 40
0.1196837867
 40
0.1816289665
 40
0.2446816834
 40
0.372810508
 40
0.4374889859
 40
0.5022931232
 40
0.567094153
 40
0.6316975714
 40
0.7591210836
 40
0.8214238022
 40
0.8823698392
 40
1.0
 40
1.0
 40
1.0
 40
1.0
 10
12.178031934
 20
-5.651994361
 30
0.0
 10
12.1737380203
 20
-5.6460049659
 30
0.0
 10
12.1655372733
 20
-5.6335192178
 30
0.0
 10
12.1547537228
 20
-5.6135830794
 30
0.0
 10
12.1455439678
 20
-5.5923343246
 30
0.0
 10
12.1354468308
 20
-5.5624154746
 30
0.0
 10
12.1290635853
 20
-5.5309823441
 30
0.0
 10
12.126797208
 20
-5.4989187051
 30
0.0
 10
12.1273310312
 20
-5.4746718788
 30
0.0
 10
12.1300699973
 20
-5.4505872813
 30
0.0
 10
12.1364060807
 20
-5.4191795714
 30
0.0
 10
12.1465132664
 20
-5.3889532842
 30
0.0
 10
12.1600213496
 20
-5.3607454283
 30
0.0
 10
12.1752670403
 20
-5.3348474763
 30
0.0
 10
12.1888806259
 20
-5.3170868728
 30
0.0
 10
12.1986639101
 20
-5.3061664023
 30
0.0
  0
SPLINE
  5
5D1
100
AcDbEntity
  8
0
100
AcDbSpline
 62
9
  6
CONTINUOUS
 70
0
 71
3
 72
9
 73
5
 74
0
 42
0.0000001
 43
0.0000001
 44
0.0000000001
 40
0.0
 40
0.0
 40
0.0
 40
0.0
 40
0.5198433156
 40
1.0
 40
1.0
 40
1.0
 40
1.0
 10
12.1986639101
 20
-5.3061664023
 30
0.0
 10
12.209177966
 20
-5.2944302169
 30
0.0
 10
12.2312890833
 20
-5.2734695845
 30
0.0
 10
12.2564243901
 20
-5.2562903151
 30
0.0
 10
12.2690490271
 20
-5.249048809
 30
0.0
  0
SPLINE
  5
5D2
100
AcDbEntity
  8
0
100
AcDbSpline
 62
9
  6
CONTINUOUS
 70
0
 71
3
 72
24
 73
20
 74
0
 42
0.0000001
 43
0.0000001
 44
0.0000000001
 40
0.0
 40
0.0
 40
0.0
 40
0.0
 40
0.0038836599
 40
0.006275917
 40
0.0090980554
 40
0.0162299653
 40
0.0255148843
 40
0.0370272924
 40
0.0507888401
 40
0.0667978718
 40
0.0850410654
 40
0.1280885365
 40
0.1794912994
 40
0.2387365072
 40
0.305249276
 40
0.4570255115
 40
0.6283665937
 40
0.8121634227
 40
1.0
 40
1.0
 40
1.0
 40
1.0
 10
11.000867539
 20
-0.5790111307
 30
0.0
 10
11.0008633527
 20
-0.5794122148
 30
0.0
 10
11.001109809
 20
-0.5800627854
 30
0.0
 10
11.0017196898
 20
-0.5807770612
 30
0.0
 10
11.0026946652
 20
-0.581608043
 30
0.0
 10
11.0044299045
 20
-0.5825998984
 30
0.0
 10
11.0070911421
 20
-0.5837190795
 30
0.0
 10
11.0104843817
 20
-0.5848363297
 30
0.0
 10
11.0146014979
 20
-0.5859493399
 30
0.0
 10
11.0194371014
 20
-0.5870529835
 30
0.0
 10
11.0272717836
 20
-0.5885921159
 30
0.0
 10
11.0387710072
 20
-0.590413015
 30
0.0
 10
11.0545193006
 20
-0.5924155984
 30
0.0
 10
11.0727199559
 20
-0.5943065221
 30
0.0
 10
11.1012803137
 20
-0.5967531806
 30
0.0
 10
11.1414459698
 20
-0.5992942638
 30
0.0
 10
11.1937565728
 20
-0.6015006882
 30
0.0
 10
11.2498211931
 20
-0.6028666294
 30
0.0
 10
11.2882042958
 20
-0.6031825911
 30
0.0
 10
11.3076041357
 20
-0.6031825911
 30
0.0
  0
SPLINE
  5
5D3
100
AcDbEntity
  8
0
100
AcDbSpline
 62
7
  6
CONTINUOUS
 70
0
 71
3
 72
21
 73
17
 74
0
 42
0.0000001
 43
0.0000001
 44
0.0000000001
 40
0.0
 40
0.0
 40
0.0
 40
0.0
 40
0.0632260502
 40
0.1261995983
 40
0.1889475978
 40
0.2513993202
 40
0.3136597523
 40
0.375829471
 40
0.4999999779
 40
0.6241706513
 40
0.6863403628
 40
0.7486006541
 40
0.8110522191
 40
0.8738001954
 40
0.9367738454
 40
1.0
 40
1.0
 40
1.0
 40
1.0
 10
11.9230559362
 20
13.9685133579
 30
0.0
 10
11.916129476
 20
13.9725659789
 30
0.0
 10
11.9018813013
 20
13.9799502197
 30
0.0
 10
11.8796499225
 20
13.9890159668
 30
0.0
 10
11.8568717401
 20
13.9962700738
 30
0.0
 10
11.8337472009
 20
14.0019398101
 30
0.0
 10
11.8103888884
 20
14.0061482812
 30
0.0
 10
11.779057194
 20
14.0099861543
 30
0.0
 10
11.7396258299
 20
14.0118765381
 30
0.0
 10
11.7001945777
 20
14.0099850231
 30
0.0
 10
11.6688628316
 20
14.0061476585
 30
0.0
 10
11.6455044512
 20
14.0019397884
 30
0.0
 10
11.6223798285
 20
13.9962705299
 30
0.0
 10
11.599601659
 20
13.9890163778
 30
0.0
 10
11.5773703667
 20
13.9799503506
 30
0.0
 10
11.5631222345
 20
13.9725659856
 30
0.0
 10
11.5561957629
 20
13.9685133579
 30
0.0
  0
SPLINE
  5
5D4
100
AcDbEntity
  8
0
100
AcDbSpline
 62
7
  6
CONTINUOUS
 70
0
 71
3
 72
9
 73
5
 74
0
 42
0.0000001
 43
0.0000001
 44
0.0000000001
 40
0.0
 40
0.0
 40
0.0
 40
0.0
 40
0.5721101605
 40
1.0
 40
1.0
 40
1.0
 40
1.0
 10
11.4970516006
 20
13.9685133579
 30
0.0
 10
11.4960969031
 20
13.9738172446
 30
0.0
 10
11.4941919523
 20
13.9830487572
 30
0.0
 10
11.4915270945
 20
13.992105126
 30
0.0
 10
11.4901212795
 20
13.9958826227
 30
0.0
  0
SPLINE
  5
5D5
100
AcDbEntity
  8
0
100
AcDbSpline
 62
7
  6
CONTINUOUS
 70
0
 71
3
 72
9
 73
5
 74
0
 42
0.0000001
 43
0.0000001
 44
0.0000000001
 40
0.0
 40
0.0
 40
0.0
 40
0.0
 40
0.5710105518
 40
1.0
 40
1.0
 40
1.0
 40
1.0
 10
11.4901212795
 20
13.9958826227
 30
0.0
 10
11.4892722597
 20
13.9981639821
 30
0.0
 10
11.4876177197
 20
14.0021004608
 30
0.0
 10
11.4853868285
 20
14.0057723968
 30
0.0
 10
11.4842342629
 20
14.0071922722
 30
0.0
  0
LINE
  5
5D6
100
AcDbEntity
  8
0
100
AcDbLine
 62
7
  6
CONTINUOUS
 10
11.4842342629
 20
14.0071922722
 11
11.4819869939
 21
14.0094504939
  0
SPLINE
  5
5D7
100
AcDbEntity
  8
0
100
AcDbSpline
 62
7
  6
CONTINUOUS
 70
0
 71
3
 72
11
 73
7
 74
0
 42
0.0000001
 43
0.0000001
 44
0.0000000001
 40
0.0
 40
0.0
 40
0.0
 40
0.0
 40
0.2667583739
 40
0.5013372846
 40
0.7351855756
 40
1.0
 40
1.0
 40
1.0
 40
1.0
 10
11.4819869939
 20
14.0094504939
 30
0.0
 10
11.4813471515
 20
14.0099538956
 30
0.0
 10
11.4800303058
 20
14.0107803283
 30
0.0
 10
11.4777834022
 20
14.0112699537
 30
0.0
 10
11.4755336554
 20
14.0108203391
 30
0.0
 10
11.4742127672
 20
14.0100145004
 30
0.0
 10
11.473572282
 20
14.0095215852
 30
0.0
  0
SPLINE
  5
5D8
100
AcDbEntity
  8
0
100
AcDbSpline
 62
9
  6
CONTINUOUS
 70
0
 71
3
 72
24
 73
20
 74
0
 42
0.0000001
 43
0.0000001
 44
0.0000000001
 40
0.0
 40
0.0
 40
0.0
 40
0.0
 40
0.0041187191
 40
0.0093756521
 40
0.0163641122
 40
0.0253353109
 40
0.0364021161
 40
0.0496102529
 40
0.0649598975
 40
0.0824350493
 40
0.1236594835
 40
0.1730497224
 40
0.2302613312
 40
0.2947824775
 40
0.3660733019
 40
0.4435774504
 40
0.6146318526
 40
0.8024365962
 40
1.0
 40
1.0
 40
1.0
 40
1.0
 10
11.6311977331
 20
8.7097432162
 30
0.0
 10
11.6311940648
 20
8.7093917603
 30
0.0
 10
11.6309134541
 20
8.7085948084
 30
0.0
 10
11.6299115645
 20
8.7075914884
 30
0.0
 10
11.6283782085
 20
8.7066158184
 30
0.0
 10
11.6262765774
 20
8.7056539141
 30
0.0
 10
11.6236023001
 20
8.7047004614
 30
0.0
 10
11.6203528573
 20
8.7037594636
 30
0.0
 10
11.6165346958
 20
8.7028321609
 30
0.0
 10
11.6103468565
 20
8.7015466233
 30
0.0
 10
11.6012440192
 20
8.7000364833
 30
0.0
 10
11.5887349085
 20
8.6983954285
 30
0.0
 10
11.5742113711
 20
8.6968623286
 30
0.0
 10
11.5577995906
 20
8.695447937
 30
0.0
 10
11.5396405135
 20
8.694167211
 30
0.0
 10
11.5123899346
 20
8.6926056497
 30
0.0
 10
11.4751795326
 20
8.6911126055
 30
0.0
 10
11.4277067689
 20
8.6900476065
 30
0.0
 10
11.394820384
 20
8.6898112958
 30
0.0
 10
11.37796111
 20
8.6898112958
 30
0.0
  0
SPLINE
  5
5D9
100
AcDbEntity
  8
0
100
AcDbSpline
 62
7
  6
CONTINUOUS
 70
0
 71
3
 72
20
 73
16
 74
0
 42
0.0000001
 43
0.0000001
 44
0.0000000001
 40
0.0
 40
0.0
 40
0.0
 40
0.0
 40
0.1260980227
 40
0.1888922917
 40
0.2513932666
 40
0.3136597307
 40
0.3758158438
 40
0.4379267035
 40
0.5000177055
 40
0.6241841677
 40
0.6863408725
 40
0.748607632
 40
0.8111082615
 40
0.8739021613
 40
1.0
 40
1.0
 40
1.0
 40
1.0
 10
11.5561957629
 20
13.5631629181
 30
0.0
 10
11.5700069251
 20
13.5550821086
 30
0.0
 10
11.5919783193
 20
13.545073736
 30
0.0
 10
11.622388328
 20
13.535400181
 30
0.0
 10
11.645525328
 20
13.5297335056
 30
0.0
 10
11.6688814905
 20
13.525520472
 30
0.0
 10
11.692387154
 20
13.5226382436
 30
0.0
 10
11.7159840358
 20
13.5209377068
 30
0.0
 10
11.7475009016
 20
13.5201793184
 30
0.0
 10
11.7790471418
 20
13.5216820628
 30
0.0
 10
11.8103700938
 20
13.5255195049
 30
0.0
 10
11.8337268577
 20
13.529733305
 30
0.0
 10
11.8568635964
 20
13.535400052
 30
0.0
 10
11.887273475
 20
13.5450738347
 30
0.0
 10
11.9092447941
 20
13.5550821204
 30
0.0
 10
11.9230559362
 20
13.5631629181
 30
0.0
  0
SPLINE
  5
5DA
100
AcDbEntity
  8
0
100
AcDbSpline
 62
9
  6
CONTINUOUS
 70
0
 71
3
 72
33
 73
29
 74
0
 42
0.0000001
 43
0.0000001
 44
0.0000000001
 40
0.0
 40
0.0
 40
0.0
 40
0.0
 40
0.0294648857
 40
0.060367232
 40
0.0925522525
 40
0.1258701694
 40
0.1953234912
 40
0.2676235467
 40
0.3417057634
 40
0.4165291519
 40
0.4910864473
 40
0.5643782281
 40
0.6354261823
 40
0.7032690142
 40
0.7356987503
 40
0.7669851297
 40
0.7970219574
 40
0.8257073429
 40
0.8529626746
 40
0.8787200678
 40
0.9029310292
 40
0.9255875713
 40
0.9467199543
 40
0.9663447439
 40
0.9755625699
 40
0.9843098779
 40
0.9924928483
 40
1.0
 40
1.0
 40
1.0
 40
1.0
 10
11.9546329072
 20
12.510838138
 30
0.0
 10
11.9562817155
 20
12.3355084048
 30
0.0
 10
11.9609986987
 20
11.9763072109
 30
0.0
 10
11.9716221704
 20
11.4256537888
 30
0.0
 10
11.9857341896
 20
10.8521434583
 30
0.0
 10
12.0091678916
 20
10.0493953465
 30
0.0
 10
12.0457915948
 20
9.0082284938
 30
0.0
 10
12.0984119036
 20
7.724923461
 30
0.0
 10
12.1579710153
 20
6.4099341432
 30
0.0
 10
12.2221239238
 20
5.0817146533
 30
0.0
 10
12.2884906211
 20
3.7583143698
 30
0.0
 10
12.3547154364
 20
2.4574024913
 30
0.0
 10
12.4184371817
 20
1.1963709195
 30
0.0
 10
12.4682455127
 20
0.1781055778
 30
0.0
 10
12.5046020491
 20
-0.6039215593
 30
0.0
 10
12.5293505147
 20
-1.1612710277
 30
0.0
 10
12.5517036511
 20
-1.6964216905
 30
0.0
 10
12.5713823
 20
-2.2076731288
 30
0.0
 10
12.5880747966
 20
-2.6935513146
 30
0.0
 10
12.601479043
 20
-3.1528954049
 30
0.0
 10
12.6112815392
 20
-3.5849588118
 30
0.0
 10
12.6171119839
 20
-3.9895718191
 30
0.0
 10
12.6184714712
 20
-4.3669352918
 30
0.0
 10
12.6152800784
 20
-4.6643226894
 30
0.0
 10
12.6094330237
 20
-4.8879378383
 30
0.0
 10
12.6034864476
 20
-5.0434292781
 30
0.0
 10
12.5957623882
 20
-5.1886502904
 30
0.0
 10
12.589096446
 20
-5.281787806
 30
0.0
 10
12.5853685666
 20
-5.3263050007
 30
0.0
  0
LINE
  5
5DB
100
AcDbEntity
  8
0
100
AcDbLine
 62
9
  6
CONTINUOUS
 10
12.5806068018
 20
-5.3797922003
 11
12.5800272394
 21
-5.3858723216
  0
SPLINE
  5
5DC
100
AcDbEntity
  8
0
100
AcDbSpline
 62
9
  6
CONTINUOUS
 70
0
 71
3
 72
21
 73
17
 74
0
 42
0.0000001
 43
0.0000001
 44
0.0000000001
 40
0.0
 40
0.0
 40
0.0
 40
0.0
 40
0.2245211231
 40
0.418864237
 40
0.5045696214
 40
0.5825710568
 40
0.652886922
 40
0.7157271176
 40
0.7713692478
 40
0.8201305037
 40
0.8623890685
 40
0.8986122804
 40
0.9293936448
 40
0.9555991726
 40
0.9785306265
 40
1.0
 40
1.0
 40
1.0
 40
1.0
 10
12.5800272394
 20
-5.3858723216
 30
0.0
 10
12.5767657387
 20
-5.4198429826
 30
0.0
 10
12.5699563242
 20
-5.4831526636
 30
0.0
 10
12.5593714693
 20
-5.55913225
 30
0.0
 10
12.5501032897
 20
-5.6127649817
 30
0.0
 10
12.5431650506
 20
-5.6476574381
 30
0.0
 10
12.5359539644
 20
-5.6789385352
 30
0.0
 10
12.5284784945
 20
-5.7066530152
 30
0.0
 10
12.5207432167
 20
-5.730879718
 30
0.0
 10
12.5127499744
 20
-5.7517063556
 30
0.0
 10
12.5044971854
 20
-5.7692226431
 30
0.0
 10
12.4959813549
 20
-5.7835209828
 30
0.0
 10
12.4871637436
 20
-5.7946798343
 30
0.0
 10
12.4779619496
 20
-5.8027506252
 30
0.0
 10
12.4682778224
 20
-5.8076865183
 30
0.0
 10
12.4614810207
 20
-5.8087739244
 30
0.0
 10
12.458217709
 20
-5.8087721402
 30
0.0
  0
SPLINE
  5
5DD
100
AcDbEntity
  8
0
100
AcDbSpline
 62
7
  6
CONTINUOUS
 70
0
 71
3
 72
15
 73
11
 74
0
 42
0.0000001
 43
0.0000001
 44
0.0000000001
 40
0.0
 40
0.0
 40
0.0
 40
0.0
 40
0.0988072336
 40
0.1862535828
 40
0.272819185
 40
0.3692686833
 40
0.4838890898
 40
0.6235499163
 40
0.7940014066
 40
1.0
 40
1.0
 40
1.0
 40
1.0
 10
11.4735722476
 20
13.5221494804
 30
0.0
 10
11.4741844908
 20
13.5216799413
 30
0.0
 10
11.4754426151
 20
13.5209085051
 30
0.0
 10
11.4775654781
 20
13.5204257296
 30
0.0
 10
11.479697847
 20
13.5207802131
 30
0.0
 10
11.481759858
 20
13.5219215154
 30
0.0
 10
11.4837784871
 20
13.5238004338
 30
0.0
 10
11.4857658003
 20
13.5264723296
 30
0.0
 10
11.4877313043
 20
13.5299997434
 30
0.0
 10
11.4889100648
 20
13.5326969637
 30
0.0
 10
11.4895055893
 20
13.5341912621
 30
0.0
  0
SPLINE
  5
5DE
100
AcDbEntity
  8
0
100
AcDbSpline
 62
7
  6
CONTINUOUS
 70
0
 71
3
 72
9
 73
5
 74
0
 42
0.0000001
 43
0.0000001
 44
0.0000000001
 40
0.0
 40
0.0
 40
0.0
 40
0.0
 40
0.4211708787
 40
1.0
 40
1.0
 40
1.0
 40
1.0
 10
11.4895055893
 20
13.5341912621
 30
0.0
 10
11.4910634207
 20
13.5381001943
 30
0.0
 10
11.4939920593
 20
13.5476824925
 30
0.0
 10
11.4960271122
 20
13.5574713029
 30
0.0
 10
11.4970516006
 20
13.5631629181
 30
0.0
  0
ENDSEC
  0
SECTION
  2
OBJECTS
  0
DICTIONARY
  5
C
100
AcDbDictionary
280
0
281
1
  3
ACAD_GROUP
350
D
  3
ACAD_MLINESTYLE
350
17
  3
ACAD_LAYOUT
350
1A
  3
ACAD_PLOTSETTINGS
350
19
  3
ACAD_PLOTSTYLENAME
350
E
  0
DICTIONARY
  5
D
102
{ACAD_REACTORS
330
C
102
}
100
AcDbDictionary
280
0
281
1
  0
ACDBDICTIONARYWDFLT
  5
E
102
{ACAD_REACTORS
330
C
102
}
100
AcDbDictionary
281
1
  3
Normal
350
F
100
AcDbDictionaryWithDefault
340
F
  0
DICTIONARY
  5
17
102
{ACAD_REACTORS
330
C
102
}
100
AcDbDictionary
280
0
281
1
  3
Standard
350
18
  0
DICTIONARY
  5
19
102
{ACAD_REACTORS
330
C
102
}
100
AcDbDictionary
281
1
  0
DICTIONARY
  5
1A
102
{ACAD_REACTORS
330
C
102
}
100
AcDbDictionary
281
1
  3
Model
350
5DF
  3
Layout1
350
5E0
  0
ACDBPLACEHOLDER
  5
F
102
{ACAD_REACTORS
330
E
102
}
  0
MLINESTYLE
  5
18
102
{ACAD_REACTORS
330
17
102
}
100
AcDbMlineStyle
  2
STANDARD
 70
0
  3

 62
256
 51
90.0
 52
90.0
 71
2
 49
0.5
 62
256
  6
BYLAYER
 49
-0.5
 62
256
  6
BYLAYER
  0
LAYOUT
  5
5DF
102
{ACAD_REACTORS
330
1A
102
}
100
AcDbPlotSettings
  1

  2
none_device
  4
ANSI_C_(22.00_x_17.00_Inches)
  6

 40
0.0
 41
0.0
 42
0.0
 43
0.0
 44
558.8
 45
431.8
 46
0.0
 47
0.0
 48
0.0
 49
0.0
140
0.0
141
0.0
142
1.0
143
1.0
 70
1024
 72
0
 73
0
 74
0
  7

 75
0
147
1.0
148
0.0
149
0.0
100
AcDbLayout
  1
Model
 70
0
 71
0
 10
0.0
 20
0.0
 11
22.0
 21
17.0
 12
0.0
 22
0.0
 32
0.0
 14
0.0
 24
0.0
 34
0.0
 15
0.0
 25
0.0
 35
0.0
146
0.0
 13
0.0
 23
0.0
 33
0.0
 16
1.0
 26
0.0
 36
0.0
 17
0.0
 27
1.0
 37
0.0
 76
0
330
202
345
0
346
0
  0
LAYOUT
  5
5E0
102
{ACAD_REACTORS
330
1A
102
}
100
AcDbPlotSettings
  1

  2
none_device
  4
ANSI_C_(22.00_x_17.00_Inches)
  6

 40
0.0
 41
0.0
 42
0.0
 43
0.0
 44
558.8
 45
431.8
 46
0.0
 47
0.0
 48
0.0
 49
0.0
140
0.0
141
0.0
142
1.0
143
1.0
 70
0
 72
0
 73
0
 74
0
  7

 75
0
147
1.0
148
0.0
149
0.0
100
AcDbLayout
  1
Layout1
 70
0
 71
1
 10
0.0
 20
0.0
 11
22.0
 21
17.0
 12
0.0
 22
0.0
 32
0.0
 14
0.0
 24
0.0
 34
0.0
 15
0.0
 25
0.0
 35
0.0
146
0.0
 13
0.0
 23
0.0
 33
0.0
 16
1.0
 26
0.0
 36
0.0
 17
0.0
 27
1.0
 37
0.0
 76
0
330
203
345
0
346
0
  0
ENDSEC
  0
EOF
