999
DXF file: 930-4261_right.dxf
999
Pro/ENGINEER 2018400 by Parametric Technology Corporation
  0
SECTION
  2
HEADER
  9
$ACADVER
  1
AC1027
  9
$DWGCODEPAGE
  3
ANSI_1252
  9
$EXTMAX
 10
11.0
 20
8.5
 30
0.0
  9
$EXTMIN
 10
0.0
 20
0.0
 30
0.0
  9
$LIMMIN
 10
0.0
 20
0.0
  9
$LIMMAX
 10
11.0
 20
8.5
  9
$VIEWCTR
 10
5.5
 20
4.25
  9
$VIEWSIZE
 40
8.5
  9
$CLAYER
  8
0
  9
$LTSCALE
 40
0.605
  9
$CELTYPE
  6
BYLAYER
  9
$DIMSCALE
 40
1.0
  9
$DIMASZ
 40
0.1
  9
$DIMEXO
 40
0.0625
  9
$DIMDLI
 40
0.418
  9
$DIMEXE
 40
0.125
  9
$DIMCEN
 40
0.099
  9
$DIMLFAC
 40
1.0
  9
$DIMBLK
  1
_FILLED
  9
$DIMALT
 70
1
  9
$DIMALTD
 70
1
  9
$DIMALTTD
 70
2
  9
$DIMALTF
 40
25.4
  9
$DIMTXT
 40
0.08
  9
$DIMTOL
 70
1
  9
$DIMLIM
 70
0
  9
$DIMTFAC
 40
1.0
  9
$DIMTP
 40
0.01
  9
$DIMTM
 40
0.01
  9
$DIMGAP
 40
0.09
  9
$DIMDSEP
 70
46
  9
$AUNITS
 70
0
  9
$PDMODE
 70
3
  9
$PDSIZE
 40
0.3125
  9
$HANDSEED
  5
3A8
  9
$TILEMODE
 70
1
  9
$MEASUREMENT
 70
0
  9
$INSUNITS
 70
1
  0
ENDSEC
  0
SECTION
  2
CLASSES
  0
CLASS
  1
ACDBDICTIONARYWDFLT
  2
AcDbDictionaryWithDefault
  3
AutoCAD 2000
 90
0
 91
1
280
0
281
0
  0
CLASS
  1
ACDBPLACEHOLDER
  2
AcDbPlaceHolder
  3
AutoCAD 2000
 90
0
 91
1
280
0
281
0
  0
CLASS
  1
LAYOUT
  2
AcDbLayout
  3
AutoCAD 2000
 90
0
 91
0
280
0
281
0
  0
ENDSEC
  0
SECTION
  2
TABLES
  0
TABLE
  2
VPORT
  5
8
100
AcDbSymbolTable
 70
2
  0
VPORT
  5
1F4
100
AcDbSymbolTableRecord
100
AcDbViewportTableRecord
  2
*ACTIVE
 70
0
 10
0.0
 20
0.0
 11
1.0
 21
1.0
 12
5.5
 22
4.25
 13
0.0
 23
0.0
 14
1.0
 24
1.0
 15
0.0
 25
0.0
 16
0.0
 26
0.0
 36
1.0
 17
0.0
 27
0.0
 37
0.0
 40
8.5
 41
1.2941176471
 42
50.0
 43
0.0
 44
0.0
 50
0.0
 51
0.0
 71
0
 72
100
 73
1
 74
1
 75
0
 76
0
 77
0
 78
0
  0
ENDTAB
  0
TABLE
  2
LTYPE
  5
5
100
AcDbSymbolTable
 70
6
  0
LTYPE
  5
14
100
AcDbSymbolTableRecord
100
AcDbLinetypeTableRecord
  2
BYBLOCK
 70
0
  3

 72
65
 73
0
 40
0.0
  0
LTYPE
  5
15
100
AcDbSymbolTableRecord
100
AcDbLinetypeTableRecord
  2
BYLAYER
 70
0
  3

 72
65
 73
0
 40
0.0
  0
LTYPE
  5
16
100
AcDbSymbolTableRecord
100
AcDbLinetypeTableRecord
  2
CONTINUOUS
 70
64
  3
Solid line
 72
65
 73
0
 40
0.0
  0
LTYPE
  5
1F5
100
AcDbSymbolTableRecord
100
AcDbLinetypeTableRecord
  2
CENTER
 70
64
  3
____ _ ____ _ ____ _ ____ _ ____ _ ____ _ ____
 72
65
 73
4
 40
0.6
 49
0.375
 74
0
 49
-0.075
 74
0
 49
0.075
 74
0
 49
-0.075
 74
0
  0
LTYPE
  5
1F6
100
AcDbSymbolTableRecord
100
AcDbLinetypeTableRecord
  2
HIDDEN
 70
64
  3
- - - - - - - - - - - - - - - - - - - -
 72
65
 73
2
 40
0.2
 49
0.1
 74
0
 49
-0.1
 74
0
  0
LTYPE
  5
1F7
100
AcDbSymbolTableRecord
100
AcDbLinetypeTableRecord
  2
PHANTOM
 70
64
  3
_____ _ _ _____ _ _ _____ _ _ _____
 72
65
 73
6
 40
0.8
 49
0.45
 74
0
 49
-0.05
 74
0
 49
0.1
 74
0
 49
-0.05
 74
0
 49
0.1
 74
0
 49
-0.05
 74
0
  0
LTYPE
  5
1F8
100
AcDbSymbolTableRecord
100
AcDbLinetypeTableRecord
  2
DOT
 70
64
  3
. . . . . . . . . . . . . . . . . . . .
 72
65
 73
2
 40
0.2
 49
0.1
 74
0
 49
-0.1
 74
0
  0
LTYPE
  5
1F9
100
AcDbSymbolTableRecord
100
AcDbLinetypeTableRecord
  2
DASHED
 70
64
  3
- - - - - - - - - - - - - - - - - - - -
 72
65
 73
2
 40
0.2
 49
0.1
 74
0
 49
-0.1
 74
0
  0
ENDTAB
  0
TABLE
  2
LAYER
  5
2
100
AcDbSymbolTable
 70
36
  0
LAYER
  5
10
100
AcDbSymbolTableRecord
100
AcDbLayerTableRecord
  2
0
 70
0
 62
7
  6
CONTINUOUS
370
-3
390
F
  0
LAYER
  5
1FA
100
AcDbSymbolTableRecord
100
AcDbLayerTableRecord
  2
DEFAULT_1
 70
0
 62
7
  6
CENTER
370
-3
390
F
  0
LAYER
  5
1FB
100
AcDbSymbolTableRecord
100
AcDbLayerTableRecord
  2
DEFAULT_2
 70
0
 62
8
  6
HIDDEN
370
-3
390
F
  0
LAYER
  5
1FC
100
AcDbSymbolTableRecord
100
AcDbLayerTableRecord
  2
DEFAULT_3
 70
0
 62
7
  6
PHANTOM
370
-3
390
F
  0
LAYER
  5
1FD
100
AcDbSymbolTableRecord
100
AcDbLayerTableRecord
  2
DEFAULT_COORDINATE_SYSTEM
 70
0
 62
7
  6
CONTINUOUS
370
-3
390
F
  0
LAYER
  5
1FE
100
AcDbSymbolTableRecord
100
AcDbLayerTableRecord
  2
DEFAULT_DATUM_AXES
 70
0
 62
7
  6
CONTINUOUS
370
-3
390
F
  0
LAYER
  5
1FF
100
AcDbSymbolTableRecord
100
AcDbLayerTableRecord
  2
DEFAULT_DATUM_PLANES
 70
0
 62
7
  6
CONTINUOUS
370
-3
390
F
  0
ENDTAB
  0
TABLE
  2
STYLE
  5
3
100
AcDbSymbolTable
 70
1
  0
STYLE
  5
11
100
AcDbSymbolTableRecord
100
AcDbTextStyleTableRecord
  2
STANDARD
 70
0
 40
0.0
 41
0.8
 50
0.0
 71
0
 42
0.2
  3
txt
  4

  0
STYLE
  5
200
100
AcDbSymbolTableRecord
100
AcDbTextStyleTableRecord
  2
TEXTSTYLE_1
 70
0
 40
0.0
 41
0.8
 50
0.0
 71
0
 42
0.2
  3
gdt
  4

  0
ENDTAB
  0
TABLE
  2
VIEW
  5
6
100
AcDbSymbolTable
 70
0
  0
ENDTAB
  0
TABLE
  2
UCS
  5
7
100
AcDbSymbolTable
 70
0
  0
ENDTAB
  0
TABLE
  2
APPID
  5
9
100
AcDbSymbolTable
 70
1
  0
APPID
  5
201
100
AcDbSymbolTableRecord
100
AcDbRegAppTableRecord
  2
ACAD
 70
0
  0
ENDTAB
  0
TABLE
  2
BLOCK_RECORD
  5
1
100
AcDbSymbolTable
 70
0
  0
BLOCK_RECORD
  5
202
100
AcDbSymbolTableRecord
100
AcDbBlockTableRecord
  2
*Model_Space
  0
BLOCK_RECORD
  5
203
100
AcDbSymbolTableRecord
100
AcDbBlockTableRecord
  2
*Paper_Space
  0
BLOCK_RECORD
  5
204
100
AcDbSymbolTableRecord
100
AcDbBlockTableRecord
  2
_FILLED
  0
ENDTAB
  0
TABLE
  2
DIMSTYLE
  5
A
100
AcDbSymbolTable
 70
1
100
AcDbDimStyleTable
 71
0
  0
DIMSTYLE
105
205
100
AcDbSymbolTableRecord
100
AcDbDimStyleTableRecord
  2
STANDARD
 70
0
  3

  4

 40
1.0
 41
0.1
 42
0.0625
 43
0.38
 44
0.125
 45
0.0
 46
0.0
 47
0.01
 48
0.01
140
0.08
141
0.09
142
0.0
143
25.4
144
1.0
145
0.0
146
1.0
147
0.09
 71
1.0
 72
0.0
 73
1
 74
1
 75
0
 76
0
 77
0
 78
4
 79
1
170
1
171
1
172
0
173
0
174
0
175
0
176
0
177
0
178
0
270
2
179
2
271
2
272
2
273
2
274
2
275
0
280
0
281
0
282
0
283
1
284
4
285
0
286
0
287
3
288
0
340
11
278
46
341
204
342
204
343
204
344
204
  0
ENDTAB
  0
ENDSEC
  0
SECTION
  2
BLOCKS
  0
BLOCK
  5
20
100
AcDbEntity
  8
0
100
AcDbBlockBegin
  2
*Model_Space
 70
0
 10
0.0
 20
0.0
 30
0.0
  3
*Model_Space
  1

  0
ENDBLK
  5
21
100
AcDbEntity
  8
0
100
AcDbBlockEnd
  0
BLOCK
  5
1C
100
AcDbEntity
  8
0
100
AcDbBlockBegin
  2
*Paper_Space
 70
0
 10
0.0
 20
0.0
 30
0.0
  3
*Paper_Space
  1

  0
ENDBLK
  5
1D
100
AcDbEntity
  8
0
100
AcDbBlockEnd
  0
BLOCK
  5
206
100
AcDbEntity
  8
0
100
AcDbBlockBegin
  2
_FILLED
 70
64
 10
0.0
 20
0.0
  3
_FILLED
  1

  0
SOLID
  5
207
100
AcDbEntity
  8
0
  6
BYBLOCK
 62
0
100
AcDbTrace
 10
0.0
 20
0.0
 11
-1.0
 21
0.2
 12
-1.0
 22
-0.2
 13
-1.0
 23
-0.2
  0
ENDBLK
  5
208
100
AcDbEntity
  8
0
  6
BYBLOCK
 62
0
100
AcDbBlockEnd
  0
ENDSEC
  0
SECTION
  2
ENTITIES
  0
MTEXT
  5
209
100
AcDbEntity
  8
0
100
AcDbMText
 62
2
  6
CONTINUOUS
  7
STANDARD
 71
3
 72
1
 10
5.9308747822
 20
1.2726281804
 30
0.0
 11
1.0
 21
0.0
 31
0.0
 73
2
 44
0.9
  1
SCALE  .125
 40
0.08
 41
0.704
  0
LINE
  5
20A
100
AcDbEntity
  8
0
100
AcDbLine
 62
7
  6
CONTINUOUS
 10
0.0
 20
0.0
 11
0.0
 21
8.5
  0
LINE
  5
20B
100
AcDbEntity
  8
0
100
AcDbLine
 62
7
  6
CONTINUOUS
 10
0.0
 20
0.0
 11
11.0
 21
0.0
  0
LINE
  5
20C
100
AcDbEntity
  8
0
100
AcDbLine
 62
7
  6
CONTINUOUS
 10
0.0
 20
8.5
 11
11.0
 21
8.5
  0
LINE
  5
20D
100
AcDbEntity
  8
0
100
AcDbLine
 62
7
  6
CONTINUOUS
 10
11.0
 20
0.0
 11
11.0
 21
8.5
  0
LINE
  5
20E
100
AcDbEntity
  8
0
100
AcDbLine
 62
7
  6
CONTINUOUS
 10
6.1330964635
 20
1.9407492985
 11
5.3932214635
 21
1.9407492985
  0
LINE
  5
20F
100
AcDbEntity
  8
0
100
AcDbLine
 62
7
  6
CONTINUOUS
 10
6.1330964635
 20
1.9469992985
 11
5.3932214635
 21
1.9469992985
  0
LINE
  5
210
100
AcDbEntity
  8
0
100
AcDbLine
 62
7
  6
CONTINUOUS
 10
6.062473494
 20
2.0256097884
 11
5.463844433
 21
2.0256097884
  0
LINE
  5
211
100
AcDbEntity
  8
0
100
AcDbLine
 62
7
  6
CONTINUOUS
 10
6.0548490809
 20
2.0358848648
 11
5.4714688461
 21
2.0358848648
  0
LINE
  5
212
100
AcDbEntity
  8
0
100
AcDbLine
 62
7
  6
CONTINUOUS
 10
5.5444089422
 20
2.1076242985
 11
5.9819089848
 21
2.1076242985
  0
LINE
  5
213
100
AcDbEntity
  8
0
100
AcDbLine
 62
7
  6
CONTINUOUS
 10
5.904645184
 20
2.1100849284
 11
5.621672743
 21
2.1100849284
  0
LINE
  5
214
100
AcDbEntity
  8
0
100
AcDbLine
 62
7
  6
CONTINUOUS
 10
5.8997239065
 20
2.1150061882
 11
5.6265940205
 21
2.1150061882
  0
LINE
  5
215
100
AcDbEntity
  8
0
100
AcDbLine
 62
7
  6
CONTINUOUS
 10
5.5470440699
 20
6.7322027001
 11
5.5782250042
 21
6.745118266
  0
LINE
  5
216
100
AcDbEntity
  8
0
100
AcDbLine
 62
7
  6
CONTINUOUS
 10
5.5516145047
 20
6.7039918031
 11
5.5518225787
 21
6.7040779902
  0
LINE
  5
217
100
AcDbEntity
  8
0
100
AcDbLine
 62
7
  6
CONTINUOUS
 10
5.5538564315
 20
6.6785371297
 11
5.5540645055
 21
6.6786233168
  0
LINE
  5
218
100
AcDbEntity
  8
0
100
AcDbLine
 62
7
  6
CONTINUOUS
 10
5.5560983583
 20
6.6530824563
 11
5.5563064324
 21
6.6531686434
  0
LINE
  5
219
100
AcDbEntity
  8
0
100
AcDbLine
 62
7
  6
CONTINUOUS
 10
5.6350268163
 20
6.4625323027
 11
5.6352348903
 21
6.4626184898
  0
LINE
  5
21A
100
AcDbEntity
  8
0
100
AcDbLine
 62
7
  6
CONTINUOUS
 10
5.6514407068
 20
6.4429478489
 11
5.6516487808
 21
6.443034036
  0
LINE
  5
21B
100
AcDbEntity
  8
0
100
AcDbLine
 62
7
  6
CONTINUOUS
 10
5.6678545972
 20
6.4233633951
 11
5.6680626713
 21
6.4234495822
  0
LINE
  5
21C
100
AcDbEntity
  8
0
100
AcDbLine
 62
7
  6
CONTINUOUS
 10
5.6845709284
 20
6.4001834931
 11
5.6942613257
 21
6.4041973871
  0
LINE
  5
21D
100
AcDbEntity
  8
0
100
AcDbLine
 62
7
  6
CONTINUOUS
 10
4.6118463367
 20
6.5284470366
 11
4.6205452749
 21
6.6278763557
  0
LINE
  5
21E
100
AcDbEntity
  8
0
100
AcDbLine
 62
7
  6
CONTINUOUS
 10
4.7550595369
 20
6.5047438262
 11
4.7398460351
 21
6.4326723688
  0
LINE
  5
21F
100
AcDbEntity
  8
0
100
AcDbLine
 62
7
  6
CONTINUOUS
 10
4.7491172596
 20
6.5164373871
 11
4.7578161979
 21
6.6158667062
  0
LINE
  5
220
100
AcDbEntity
  8
0
100
AcDbLine
 62
7
  6
CONTINUOUS
 10
5.7406589635
 20
5.9639579599
 11
5.7381589635
 21
5.9614579599
  0
LINE
  5
221
100
AcDbEntity
  8
0
100
AcDbLine
 62
7
  6
CONTINUOUS
 10
4.6039637704
 20
6.5179629929
 11
4.6064310677
 21
6.444344666
  0
LINE
  5
222
100
AcDbEntity
  8
0
100
AcDbLine
 62
7
  6
CONTINUOUS
 10
5.6476416934
 20
5.6905193578
 11
5.6469895236
 21
5.6890717408
  0
LINE
  5
223
100
AcDbEntity
  8
0
100
AcDbLine
 62
7
  6
CONTINUOUS
 10
5.6469895236
 20
5.6890717408
 11
5.6463569066
 21
5.6876977992
  0
LINE
  5
224
100
AcDbEntity
  8
0
100
AcDbLine
 62
7
  6
CONTINUOUS
 10
5.6463569066
 20
5.6876977992
 11
5.6457471645
 21
5.686399652
  0
LINE
  5
225
100
AcDbEntity
  8
0
100
AcDbLine
 62
7
  6
CONTINUOUS
 10
5.6457471645
 20
5.686399652
 11
5.6451632493
 21
5.6851788221
  0
LINE
  5
226
100
AcDbEntity
  8
0
100
AcDbLine
 62
7
  6
CONTINUOUS
 10
5.6451632493
 20
5.6851788221
 11
5.644607497
 21
5.6840357918
  0
LINE
  5
227
100
AcDbEntity
  8
0
100
AcDbLine
 62
7
  6
CONTINUOUS
 10
5.644607497
 20
5.6840357918
 11
5.6440818329
 21
5.6829706583
  0
LINE
  5
228
100
AcDbEntity
  8
0
100
AcDbLine
 62
7
  6
CONTINUOUS
 10
5.6440818329
 20
5.6829706583
 11
5.6435878474
 21
5.6819830895
  0
LINE
  5
229
100
AcDbEntity
  8
0
100
AcDbLine
 62
7
  6
CONTINUOUS
 10
5.6435878474
 20
5.6819830895
 11
5.6431269492
 21
5.6810727823
  0
LINE
  5
22A
100
AcDbEntity
  8
0
100
AcDbLine
 62
7
  6
CONTINUOUS
 10
5.6431269492
 20
5.6810727823
 11
5.6425001996
 21
5.6798512279
  0
LINE
  5
22B
100
AcDbEntity
  8
0
100
AcDbLine
 62
7
  6
CONTINUOUS
 10
5.6425001996
 20
5.6798512279
 11
5.6419534644
 21
5.6788001975
  0
LINE
  5
22C
100
AcDbEntity
  8
0
100
AcDbLine
 62
7
  6
CONTINUOUS
 10
5.6419534644
 20
5.6788001975
 11
5.641351754
 21
5.6776582909
  0
LINE
  5
22D
100
AcDbEntity
  8
0
100
AcDbLine
 62
7
  6
CONTINUOUS
 10
5.641351754
 20
5.6776582909
 11
5.6408082127
 21
5.676639472
  0
LINE
  5
22E
100
AcDbEntity
  8
0
100
AcDbLine
 62
7
  6
CONTINUOUS
 10
5.6408082127
 20
5.676639472
 11
5.6404235886
 21
5.6759254901
  0
LINE
  5
22F
100
AcDbEntity
  8
0
100
AcDbLine
 62
7
  6
CONTINUOUS
 10
5.6401274674
 20
5.674755204
 11
5.6406907231
 21
5.6757818182
  0
LINE
  5
230
100
AcDbEntity
  8
0
100
AcDbLine
 62
7
  6
CONTINUOUS
 10
5.6401274674
 20
5.674755204
 11
5.6406798127
 21
5.6757618136
  0
LINE
  5
231
100
AcDbEntity
  8
0
100
AcDbLine
 62
7
  6
CONTINUOUS
 10
5.7375293734
 20
5.4080877421
 11
5.7418167938
 21
5.4142335008
  0
LINE
  5
232
100
AcDbEntity
  8
0
100
AcDbLine
 62
7
  6
CONTINUOUS
 10
5.7983464635
 20
5.6189579599
 11
5.7877839635
 21
5.5939579599
  0
LINE
  5
233
100
AcDbEntity
  8
0
100
AcDbLine
 62
7
  6
CONTINUOUS
 10
5.3932214635
 20
1.9469992985
 11
5.3932214635
 21
1.9407492985
  0
LINE
  5
234
100
AcDbEntity
  8
0
100
AcDbLine
 62
7
  6
CONTINUOUS
 10
5.5663085698
 20
5.80024733
 11
5.5663085698
 21
5.6796764638
  0
LINE
  5
235
100
AcDbEntity
  8
0
100
AcDbLine
 62
7
  6
CONTINUOUS
 10
5.621672743
 20
2.1076242985
 11
5.621672743
 21
2.1100849284
  0
LINE
  5
236
100
AcDbEntity
  8
0
100
AcDbLine
 62
7
  6
CONTINUOUS
 10
5.6401274674
 20
2.1150061882
 11
5.6401274674
 21
5.3137807945
  0
LINE
  5
237
100
AcDbEntity
  8
0
100
AcDbLine
 62
7
  6
CONTINUOUS
 10
5.6401274674
 20
5.3191941803
 11
5.6401274674
 21
5.4323388778
  0
LINE
  5
238
100
AcDbEntity
  8
0
100
AcDbLine
 62
7
  6
CONTINUOUS
 10
5.6401274674
 20
5.5948290105
 11
5.6401274674
 21
5.6747552038
  0
LINE
  5
239
100
AcDbEntity
  8
0
100
AcDbLine
 62
7
  6
CONTINUOUS
 10
5.6401274674
 20
5.8051685895
 11
5.6401274674
 21
5.9540367
  0
LINE
  5
23A
100
AcDbEntity
  8
0
100
AcDbLine
 62
7
  6
CONTINUOUS
 10
5.6942613257
 20
6.5749806289
 11
5.6942613257
 21
6.2124028418
  0
LINE
  5
23B
100
AcDbEntity
  8
0
100
AcDbLine
 62
7
  6
CONTINUOUS
 10
5.7165339635
 20
5.4687528311
 11
5.7165339635
 21
5.4700895718
  0
LINE
  5
23C
100
AcDbEntity
  8
0
100
AcDbLine
 62
7
  6
CONTINUOUS
 10
5.7237839635
 20
5.4643421015
 11
5.7237839635
 21
5.4535393611
  0
LINE
  5
23D
100
AcDbEntity
  8
0
100
AcDbLine
 62
7
  6
CONTINUOUS
 10
5.7279714635
 20
5.6320829599
 11
5.7279714635
 21
5.6189579599
  0
LINE
  5
23E
100
AcDbEntity
  8
0
100
AcDbLine
 62
7
  6
CONTINUOUS
 10
5.7381589635
 20
5.9614579599
 11
5.7381589635
 21
5.9539579599
  0
LINE
  5
23F
100
AcDbEntity
  8
0
100
AcDbLine
 62
7
  6
CONTINUOUS
 10
5.7385339635
 20
5.5939579599
 11
5.7385339635
 21
5.5864579599
  0
LINE
  5
240
100
AcDbEntity
  8
0
100
AcDbLine
 62
7
  6
CONTINUOUS
 10
5.7386589635
 20
5.4546842417
 11
5.7386589635
 21
5.4564579599
  0
LINE
  5
241
100
AcDbEntity
  8
0
100
AcDbLine
 62
7
  6
CONTINUOUS
 10
5.7876589635
 20
5.4546842417
 11
5.7876589635
 21
5.4564579599
  0
LINE
  5
242
100
AcDbEntity
  8
0
100
AcDbLine
 62
7
  6
CONTINUOUS
 10
5.7877839635
 20
5.5939579599
 11
5.7877839635
 21
5.5864579599
  0
LINE
  5
243
100
AcDbEntity
  8
0
100
AcDbLine
 62
7
  6
CONTINUOUS
 10
5.7881589635
 20
5.9614579599
 11
5.7881589635
 21
5.9539579599
  0
LINE
  5
244
100
AcDbEntity
  8
0
100
AcDbLine
 62
7
  6
CONTINUOUS
 10
5.7983464635
 20
5.6320829599
 11
5.7983464635
 21
5.6189579599
  0
LINE
  5
245
100
AcDbEntity
  8
0
100
AcDbLine
 62
7
  6
CONTINUOUS
 10
5.8025339635
 20
5.4535393611
 11
5.8025339635
 21
5.4643421015
  0
LINE
  5
246
100
AcDbEntity
  8
0
100
AcDbLine
 62
7
  6
CONTINUOUS
 10
5.8097839635
 20
5.4700895718
 11
5.8097839635
 21
5.4687528311
  0
LINE
  5
247
100
AcDbEntity
  8
0
100
AcDbLine
 62
7
  6
CONTINUOUS
 10
5.8320566013
 20
6.5749806289
 11
5.8320566013
 21
6.2124028418
  0
LINE
  5
248
100
AcDbEntity
  8
0
100
AcDbLine
 62
7
  6
CONTINUOUS
 10
5.8861904596
 20
2.1150061882
 11
5.8861904596
 21
5.3137807945
  0
LINE
  5
249
100
AcDbEntity
  8
0
100
AcDbLine
 62
7
  6
CONTINUOUS
 10
5.8861904596
 20
5.3191941803
 11
5.8861904596
 21
5.4323388778
  0
LINE
  5
24A
100
AcDbEntity
  8
0
100
AcDbLine
 62
7
  6
CONTINUOUS
 10
5.8861904596
 20
5.5948290105
 11
5.8861904596
 21
5.9158969363
  0
LINE
  5
24B
100
AcDbEntity
  8
0
100
AcDbLine
 62
7
  6
CONTINUOUS
 10
5.8861904596
 20
5.9429638654
 11
5.8861904596
 21
5.9540367
  0
LINE
  5
24C
100
AcDbEntity
  8
0
100
AcDbLine
 62
7
  6
CONTINUOUS
 10
5.904645184
 20
2.1076242985
 11
5.904645184
 21
2.1100849284
  0
LINE
  5
24D
100
AcDbEntity
  8
0
100
AcDbLine
 62
7
  6
CONTINUOUS
 10
5.7279714635
 20
5.6189579599
 11
5.7385339635
 21
5.5939579599
  0
LINE
  5
24E
100
AcDbEntity
  8
0
100
AcDbLine
 62
7
  6
CONTINUOUS
 10
5.565362738
 20
6.5787997666
 11
5.5629781391
 21
6.5895559974
  0
LINE
  5
24F
100
AcDbEntity
  8
0
100
AcDbLine
 62
7
  6
CONTINUOUS
 10
5.5621216299
 20
6.5934194607
 11
5.5598923094
 21
6.6034752755
  0
LINE
  5
250
100
AcDbEntity
  8
0
100
AcDbLine
 62
7
  6
CONTINUOUS
 10
5.5620256518
 20
6.6077130687
 11
5.5578990491
 21
6.6263269707
  0
LINE
  5
251
100
AcDbEntity
  8
0
100
AcDbLine
 62
7
  6
CONTINUOUS
 10
5.5600323915
 20
6.6305647642
 11
5.5553563426
 21
6.6516570575
  0
LINE
  5
252
100
AcDbEntity
  8
0
100
AcDbLine
 62
7
  6
CONTINUOUS
 10
5.5577904644
 20
6.6560194386
 11
5.5558683092
 21
6.6646897202
  0
LINE
  5
253
100
AcDbEntity
  8
0
100
AcDbLine
 62
7
  6
CONTINUOUS
 10
5.5550159303
 20
6.6685345529
 11
5.5531144158
 21
6.6771117309
  0
LINE
  5
254
100
AcDbEntity
  8
0
100
AcDbLine
 62
7
  6
CONTINUOUS
 10
5.5555485374
 20
6.6814741125
 11
5.5508724889
 21
6.7025664044
  0
LINE
  5
255
100
AcDbEntity
  8
0
100
AcDbLine
 62
7
  6
CONTINUOUS
 10
6.1330964635
 20
1.9469992985
 11
6.1330964635
 21
1.9407492985
  0
LINE
  5
256
100
AcDbEntity
  8
0
100
AcDbLine
 62
7
  6
CONTINUOUS
 10
5.6826993652
 20
5.5049132767
 11
5.6849485275
 21
5.505155656
  0
LINE
  5
257
100
AcDbEntity
  8
0
100
AcDbLine
 62
7
  6
CONTINUOUS
 10
5.6401274674
 20
5.3137807945
 11
5.8861904596
 21
5.3137807945
  0
LINE
  5
258
100
AcDbEntity
  8
0
100
AcDbLine
 62
7
  6
CONTINUOUS
 10
5.6425880977
 20
5.3167335504
 11
5.8837298292
 21
5.3167335504
  0
LINE
  5
259
100
AcDbEntity
  8
0
100
AcDbLine
 62
7
  6
CONTINUOUS
 10
5.6401274674
 20
5.3191941803
 11
5.8861904596
 21
5.3191941803
  0
LINE
  5
25A
100
AcDbEntity
  8
0
100
AcDbLine
 62
7
  6
CONTINUOUS
 10
5.7375293734
 20
5.4080877421
 11
5.7887885536
 21
5.4080877421
  0
LINE
  5
25B
100
AcDbEntity
  8
0
100
AcDbLine
 62
7
  6
CONTINUOUS
 10
5.7418167938
 20
5.4142335008
 11
5.7845011332
 21
5.4142335008
  0
LINE
  5
25C
100
AcDbEntity
  8
0
100
AcDbLine
 62
7
  6
CONTINUOUS
 10
5.7406589635
 20
5.417318742
 11
5.7856589635
 21
5.417318742
  0
LINE
  5
25D
100
AcDbEntity
  8
0
100
AcDbLine
 62
7
  6
CONTINUOUS
 10
5.7392035179
 20
5.4206904848
 11
5.787114409
 21
5.4206904848
  0
LINE
  5
25E
100
AcDbEntity
  8
0
100
AcDbLine
 62
7
  6
CONTINUOUS
 10
5.7866768206
 20
5.4521060635
 11
5.7649492417
 21
5.4521060635
  0
LINE
  5
25F
100
AcDbEntity
  8
0
100
AcDbLine
 62
7
  6
CONTINUOUS
 10
5.7613686853
 20
5.4521060635
 11
5.7396411063
 21
5.4521060635
  0
LINE
  5
260
100
AcDbEntity
  8
0
100
AcDbLine
 62
7
  6
CONTINUOUS
 10
5.7876589635
 20
5.4546842417
 11
5.781978134
 21
5.4546842417
  0
LINE
  5
261
100
AcDbEntity
  8
0
100
AcDbLine
 62
7
  6
CONTINUOUS
 10
5.7443397929
 20
5.4546842417
 11
5.7386589635
 21
5.4546842417
  0
LINE
  5
262
100
AcDbEntity
  8
0
100
AcDbLine
 62
7
  6
CONTINUOUS
 10
5.7876589621
 20
5.4564579599
 11
5.7874054194
 21
5.4564579599
  0
LINE
  5
263
100
AcDbEntity
  8
0
100
AcDbLine
 62
7
  6
CONTINUOUS
 10
5.7386589649
 20
5.4564579599
 11
5.7389125076
 21
5.4564579599
  0
LINE
  5
264
100
AcDbEntity
  8
0
100
AcDbLine
 62
7
  6
CONTINUOUS
 10
5.8337765007
 20
5.461770612
 11
5.8092996326
 21
5.461770612
  0
LINE
  5
265
100
AcDbEntity
  8
0
100
AcDbLine
 62
7
  6
CONTINUOUS
 10
5.7170182943
 20
5.461770612
 11
5.6925414263
 21
5.461770612
  0
LINE
  5
266
100
AcDbEntity
  8
0
100
AcDbLine
 62
7
  6
CONTINUOUS
 10
5.7887885536
 20
5.4080877421
 11
5.7845011332
 21
5.4142335008
  0
LINE
  5
267
100
AcDbEntity
  8
0
100
AcDbLine
 62
7
  6
CONTINUOUS
 10
5.6406913505
 20
5.8041408157
 11
5.6401274674
 21
5.8051685898
  0
LINE
  5
268
100
AcDbEntity
  8
0
100
AcDbLine
 62
7
  6
CONTINUOUS
 10
5.640690594
 20
5.804142404
 11
5.6401274674
 21
5.8051685898
  0
LINE
  5
269
100
AcDbEntity
  8
0
100
AcDbLine
 62
7
  6
CONTINUOUS
 10
5.64042369
 20
5.803998113
 11
5.6404665695
 21
5.803918794
  0
LINE
  5
26A
100
AcDbEntity
  8
0
100
AcDbLine
 62
7
  6
CONTINUOUS
 10
5.6404665695
 20
5.803918794
 11
5.6409974603
 21
5.8029309005
  0
LINE
  5
26B
100
AcDbEntity
  8
0
100
AcDbLine
 62
7
  6
CONTINUOUS
 10
5.6409974603
 20
5.8029309005
 11
5.6414881403
 21
5.8020079941
  0
LINE
  5
26C
100
AcDbEntity
  8
0
100
AcDbLine
 62
7
  6
CONTINUOUS
 10
5.6414881403
 20
5.8020079941
 11
5.6421263141
 21
5.8007927446
  0
LINE
  5
26D
100
AcDbEntity
  8
0
100
AcDbLine
 62
7
  6
CONTINUOUS
 10
5.6421263141
 20
5.8007927446
 11
5.6426998119
 21
5.7996854864
  0
LINE
  5
26E
100
AcDbEntity
  8
0
100
AcDbLine
 62
7
  6
CONTINUOUS
 10
5.6426998119
 20
5.7996854864
 11
5.6433525503
 21
5.7984067443
  0
LINE
  5
26F
100
AcDbEntity
  8
0
100
AcDbLine
 62
7
  6
CONTINUOUS
 10
5.6433525503
 20
5.7984067443
 11
5.6438300949
 21
5.7974579779
  0
LINE
  5
270
100
AcDbEntity
  8
0
100
AcDbLine
 62
7
  6
CONTINUOUS
 10
5.6438300949
 20
5.7974579779
 11
5.644340066
 21
5.7964317765
  0
LINE
  5
271
100
AcDbEntity
  8
0
100
AcDbLine
 62
7
  6
CONTINUOUS
 10
5.644340066
 20
5.7964317765
 11
5.6448809558
 21
5.795327806
  0
LINE
  5
272
100
AcDbEntity
  8
0
100
AcDbLine
 62
7
  6
CONTINUOUS
 10
5.6448809558
 20
5.795327806
 11
5.6454509966
 21
5.7941459906
  0
LINE
  5
273
100
AcDbEntity
  8
0
100
AcDbLine
 62
7
  6
CONTINUOUS
 10
5.6454509966
 20
5.7941459906
 11
5.646048189
 21
5.792886343
  0
LINE
  5
274
100
AcDbEntity
  8
0
100
AcDbLine
 62
7
  6
CONTINUOUS
 10
5.646048189
 20
5.792886343
 11
5.6466696394
 21
5.7915503613
  0
LWPOLYLINE
  5
275
100
AcDbEntity
  8
0
100
AcDbPolyline
 62
7
  6
CONTINUOUS
 90
106
 70
0
 10
5.6466696394
 20
5.7915503613
 10
5.6473124595
 20
5.7901393702
 10
5.6476407704
 20
5.7894065102
 10
5.6479732013
 20
5.7886555175
 10
5.6483091276
 20
5.7878870654
 10
5.6486482233
 20
5.7871011505
 10
5.6489900426
 20
5.7862980344
 10
5.6493337489
 20
5.7854788837
 10
5.6496789453
 20
5.7846438054
 10
5.650025177
 20
5.7837930378
 10
5.650371494
 20
5.782928066
 10
5.6507174646
 20
5.7820491338
 10
5.6510626559
 20
5.781156491
 10
5.6514061116
 20
5.7802517687
 10
5.6517473572
 20
5.7793353555
 10
5.6520859862
 20
5.7784074634
 10
5.6524211466
 20
5.7774695707
 10
5.6527523845
 20
5.7765221257
 10
5.6530793277
 20
5.7755653674
 10
5.6534012739
 20
5.7746005479
 10
5.6537178308
 20
5.7736280522
 10
5.6540286133
 20
5.772648256
 10
5.654332961
 20
5.7716624712
 10
5.6546305111
 20
5.7706711455
 10
5.6549209411
 20
5.7696746322
 10
5.6552036957
 20
5.7686741572
 10
5.6554784372
 20
5.7676703037
 10
5.6557449338
 20
5.7666633527
 10
5.6560028311
 20
5.7656541071
 10
5.6562518724
 20
5.7646430716
 10
5.6564918483
 20
5.7636306115
 10
5.6567225075
 20
5.7626173268
 10
5.6569436127
 20
5.7616038614
 10
5.6571550586
 20
5.760590437
 10
5.6573568042
 20
5.7595770053
 10
5.6575486876
 20
5.758564128
 10
5.6577306132
 20
5.7575520775
 10
5.6579026206
 20
5.7565403342
 10
5.6580645941
 20
5.7555293285
 10
5.6582164694
 20
5.7545194311
 10
5.6583583292
 20
5.7535099947
 10
5.6584900918
 20
5.7525014034
 10
5.658611684
 20
5.7514940218
 10
5.6587231612
 20
5.7504871409
 10
5.6588244847
 20
5.7494811404
 10
5.6589156351
 20
5.7484763935
 10
5.6589966794
 20
5.7474721744
 10
5.659067569
 20
5.7464688996
 10
5.6591282686
 20
5.7454668558
 10
5.6591788333
 20
5.7444651074
 10
5.6592192695
 20
5.7434640711
 10
5.6592495942
 20
5.7424640371
 10
5.6592698447
 20
5.741463877
 10
5.6592799923
 20
5.7404639365
 10
5.6592800127
 20
5.7394645538
 10
5.6592699106
 20
5.7384645839
 10
5.6592497086
 20
5.7374643651
 10
5.6592194315
 20
5.7364642438
 10
5.6591790383
 20
5.735463093
 10
5.6591285077
 20
5.7344611997
 10
5.659067834
 20
5.7334589838
 10
5.6589969706
 20
5.73245552
 10
5.6589159504
 20
5.7314510933
 10
5.6588248192
 20
5.7304461245
 10
5.658723509
 20
5.7294399092
 10
5.6586120369
 20
5.7284328218
 10
5.6584904471
 20
5.7274252386
 10
5.6583586895
 20
5.7264164696
 10
5.6582168364
 20
5.7254068814
 10
5.6580649681
 20
5.7243968587
 10
5.6579030036
 20
5.7233857725
 10
5.6577310111
 20
5.7223740029
 10
5.65754911
 20
5.7213619644
 10
5.6573572572
 20
5.7203491218
 10
5.657155549
 20
5.7193357537
 10
5.6569441454
 20
5.7183224179
 10
5.65672308
 20
5.7173090364
 10
5.6564924585
 20
5.716295818
 10
5.6562525207
 20
5.7152834138
 10
5.6560035163
 20
5.7142724202
 10
5.6557456531
 20
5.7132632026
 10
5.6554791875
 20
5.7122562694
 10
5.6552044734
 20
5.7112524262
 10
5.6549217414
 20
5.710251949
 10
5.6546313301
 20
5.7092554196
 10
5.6543337964
 20
5.7082640711
 10
5.6540294636
 20
5.7072782588
 10
5.6537186943
 20
5.7062984309
 10
5.6534021502
 20
5.7053259032
 10
5.6530802162
 20
5.7043610523
 10
5.6527532824
 20
5.7034042608
 10
5.6524220518
 20
5.7024567822
 10
5.6520868972
 20
5.7015188551
 10
5.6517482734
 20
5.7005909283
 10
5.6514070339
 20
5.6996744825
 10
5.6510635868
 20
5.6987697313
 10
5.6507184041
 20
5.6978770627
 10
5.6503724395
 20
5.6969981049
 10
5.6500261264
 20
5.696133107
 10
5.6496798972
 20
5.6952823122
 10
5.6493347017
 20
5.6944472028
 10
5.6489909957
 20
5.693628017
 10
5.6486491756
 20
5.692824862
 10
5.6483100745
 20
5.6920389046
 10
5.6479741379
 20
5.6912704039
 10
5.6476416934
 20
5.6905193578
  0
LINE
  5
276
100
AcDbEntity
  8
0
100
AcDbLine
 62
7
  6
CONTINUOUS
 10
5.6849485275
 20
5.505155656
 11
5.6957297971
 21
5.505155656
  0
LINE
  5
277
100
AcDbEntity
  8
0
100
AcDbLine
 62
7
  6
CONTINUOUS
 10
5.8305881299
 20
5.505155656
 11
5.8413693995
 21
5.505155656
  0
LINE
  5
278
100
AcDbEntity
  8
0
100
AcDbLine
 62
7
  6
CONTINUOUS
 10
5.7389125076
 20
5.5864579599
 11
5.7385339635
 21
5.5864579599
  0
LINE
  5
279
100
AcDbEntity
  8
0
100
AcDbLine
 62
7
  6
CONTINUOUS
 10
5.7874054194
 20
5.5864579599
 11
5.7877839635
 21
5.5864579599
  0
LINE
  5
27A
100
AcDbEntity
  8
0
100
AcDbLine
 62
7
  6
CONTINUOUS
 10
5.7385339635
 20
5.5939579599
 11
5.7877839635
 21
5.5939579599
  0
LINE
  5
27B
100
AcDbEntity
  8
0
100
AcDbLine
 62
7
  6
CONTINUOUS
 10
5.7279714635
 20
5.6189579599
 11
5.7983464635
 21
5.6189579599
  0
LINE
  5
27C
100
AcDbEntity
  8
0
100
AcDbLine
 62
7
  6
CONTINUOUS
 10
5.7279714635
 20
5.6320829599
 11
5.7983464635
 21
5.6320829599
  0
LINE
  5
27D
100
AcDbEntity
  8
0
100
AcDbLine
 62
7
  6
CONTINUOUS
 10
5.8413693995
 20
5.505155656
 11
5.8436185618
 21
5.5049132767
  0
LINE
  5
27E
100
AcDbEntity
  8
0
100
AcDbLine
 62
7
  6
CONTINUOUS
 10
5.565428259
 20
6.5785919621
 11
5.5889513187
 21
6.5218022723
  0
LINE
  5
27F
100
AcDbEntity
  8
0
100
AcDbLine
 62
7
  6
CONTINUOUS
 10
5.5890519284
 20
6.5216090021
 11
5.565362738
 21
6.5787997666
  0
LINE
  5
280
100
AcDbEntity
  8
0
100
AcDbLine
 62
7
  6
CONTINUOUS
 10
5.5598923094
 20
6.6034752755
 11
5.6026319708
 21
6.5002926052
  0
LINE
  5
281
100
AcDbEntity
  8
0
100
AcDbLine
 62
7
  6
CONTINUOUS
 10
5.5606036052
 20
6.6048874673
 11
5.6041335033
 21
6.4997969969
  0
LINE
  5
282
100
AcDbEntity
  8
0
100
AcDbLine
 62
7
  6
CONTINUOUS
 10
5.607137044
 20
6.4988045339
 11
5.5620256518
 21
6.6077130687
  0
LINE
  5
283
100
AcDbEntity
  8
0
100
AcDbLine
 62
7
  6
CONTINUOUS
 10
5.5578990491
 20
6.6263269707
 11
5.6173811116
 21
6.4827245687
  0
LINE
  5
284
100
AcDbEntity
  8
0
100
AcDbLine
 62
7
  6
CONTINUOUS
 10
5.5586103451
 20
6.6277391613
 11
5.6188826434
 21
6.4822289614
  0
LINE
  5
285
100
AcDbEntity
  8
0
100
AcDbLine
 62
7
  6
CONTINUOUS
 10
5.6218861849
 20
6.4812364971
 11
5.5600323915
 21
6.6305647642
  0
LINE
  5
286
100
AcDbEntity
  8
0
100
AcDbLine
 62
7
  6
CONTINUOUS
 10
5.5553563426
 20
6.6516570575
 11
5.6334942227
 21
6.4630155276
  0
LINE
  5
287
100
AcDbEntity
  8
0
100
AcDbLine
 62
7
  6
CONTINUOUS
 10
5.5560983583
 20
6.6530824563
 11
5.6350268163
 21
6.4625323027
  0
LINE
  5
288
100
AcDbEntity
  8
0
100
AcDbLine
 62
7
  6
CONTINUOUS
 10
5.6352348903
 20
6.4626184898
 11
5.5563064324
 21
6.6531686434
  0
LINE
  5
289
100
AcDbEntity
  8
0
100
AcDbLine
 62
7
  6
CONTINUOUS
 10
5.638300076
 20
6.4616520423
 11
5.5577904644
 21
6.6560194386
  0
LINE
  5
28A
100
AcDbEntity
  8
0
100
AcDbLine
 62
7
  6
CONTINUOUS
 10
5.5531144158
 20
6.6771117309
 11
5.6499081132
 21
6.4434310738
  0
LINE
  5
28B
100
AcDbEntity
  8
0
100
AcDbLine
 62
7
  6
CONTINUOUS
 10
5.5538564315
 20
6.6785371297
 11
5.6514407068
 21
6.4429478489
  0
LINE
  5
28C
100
AcDbEntity
  8
0
100
AcDbLine
 62
7
  6
CONTINUOUS
 10
5.6516487808
 20
6.443034036
 11
5.5540645055
 21
6.6786233168
  0
LINE
  5
28D
100
AcDbEntity
  8
0
100
AcDbLine
 62
7
  6
CONTINUOUS
 10
5.6547139668
 20
6.4420675881
 11
5.5555485374
 21
6.6814741125
  0
LINE
  5
28E
100
AcDbEntity
  8
0
100
AcDbLine
 62
7
  6
CONTINUOUS
 10
5.5508724889
 20
6.7025664044
 11
5.6663220038
 21
6.4238466198
  0
LINE
  5
28F
100
AcDbEntity
  8
0
100
AcDbLine
 62
7
  6
CONTINUOUS
 10
5.6678545972
 20
6.4233633951
 11
5.5516145047
 21
6.7039918031
  0
LINE
  5
290
100
AcDbEntity
  8
0
100
AcDbLine
 62
7
  6
CONTINUOUS
 10
5.5518225787
 20
6.7040779902
 11
5.6680626713
 21
6.4234495822
  0
LINE
  5
291
100
AcDbEntity
  8
0
100
AcDbLine
 62
7
  6
CONTINUOUS
 10
5.6780380107
 20
6.402889722
 11
5.5443381923
 21
6.7256696369
  0
LINE
  5
292
100
AcDbEntity
  8
0
100
AcDbLine
 62
7
  6
CONTINUOUS
 10
5.5470440699
 20
6.7322027001
 11
5.6845709284
 21
6.4001834931
  0
LINE
  5
293
100
AcDbEntity
  8
0
100
AcDbLine
 62
7
  6
CONTINUOUS
 10
5.6942613257
 20
6.4649818089
 11
5.5782250042
 21
6.745118266
  0
LINE
  5
294
100
AcDbEntity
  8
0
100
AcDbLine
 62
7
  6
CONTINUOUS
 10
5.6177533044
 20
6.719151948
 11
5.6942613257
 21
6.5344452495
  0
LINE
  5
295
100
AcDbEntity
  8
0
100
AcDbLine
 62
7
  6
CONTINUOUS
 10
5.5663085698
 20
5.6796764638
 11
5.6424096615
 21
5.6796764638
  0
LINE
  5
296
100
AcDbEntity
  8
0
100
AcDbLine
 62
7
  6
CONTINUOUS
 10
5.5663085698
 20
5.80024733
 11
5.642409661
 21
5.80024733
  0
LINE
  5
297
100
AcDbEntity
  8
0
100
AcDbLine
 62
7
  6
CONTINUOUS
 10
5.7856589635
 20
5.9639579599
 11
5.7881589635
 21
5.9614579599
  0
LINE
  5
298
100
AcDbEntity
  8
0
100
AcDbLine
 62
7
  6
CONTINUOUS
 10
5.5890519284
 20
6.5216090021
 11
5.594971566
 21
6.5123170322
  0
LINE
  5
299
100
AcDbEntity
  8
0
100
AcDbLine
 62
7
  6
CONTINUOUS
 10
5.5970978036
 20
6.5089795077
 11
5.6026319708
 21
6.5002926052
  0
LINE
  5
29A
100
AcDbEntity
  8
0
100
AcDbLine
 62
7
  6
CONTINUOUS
 10
5.607137044
 20
6.4988045339
 11
5.6173811116
 21
6.4827245687
  0
LINE
  5
29B
100
AcDbEntity
  8
0
100
AcDbLine
 62
7
  6
CONTINUOUS
 10
5.6218861849
 20
6.4812364971
 11
5.6334942227
 21
6.4630155276
  0
LINE
  5
29C
100
AcDbEntity
  8
0
100
AcDbLine
 62
7
  6
CONTINUOUS
 10
5.638300076
 20
6.4616520423
 11
5.6430717219
 21
6.4541620585
  0
LINE
  5
29D
100
AcDbEntity
  8
0
100
AcDbLine
 62
7
  6
CONTINUOUS
 10
5.6451877064
 20
6.4508406283
 11
5.6499081132
 21
6.4434310738
  0
LINE
  5
29E
100
AcDbEntity
  8
0
100
AcDbLine
 62
7
  6
CONTINUOUS
 10
5.6547139668
 20
6.4420675881
 11
5.6663220038
 21
6.4238466198
  0
LINE
  5
29F
100
AcDbEntity
  8
0
100
AcDbLine
 62
7
  6
CONTINUOUS
 10
5.7162839635
 20
5.8945829599
 11
5.8100339635
 21
5.8945829599
  0
LINE
  5
2A0
100
AcDbEntity
  8
0
100
AcDbLine
 62
7
  6
CONTINUOUS
 10
5.7381589635
 20
5.9539579599
 11
5.7881589635
 21
5.9539579599
  0
LINE
  5
2A1
100
AcDbEntity
  8
0
100
AcDbLine
 62
7
  6
CONTINUOUS
 10
5.8861904596
 20
5.9540367
 11
5.7881589635
 21
5.9540367
  0
LINE
  5
2A2
100
AcDbEntity
  8
0
100
AcDbLine
 62
7
  6
CONTINUOUS
 10
5.7381589635
 20
5.9540367
 11
5.6401274674
 21
5.9540367
  0
LINE
  5
2A3
100
AcDbEntity
  8
0
100
AcDbLine
 62
7
  6
CONTINUOUS
 10
5.6381091378
 20
5.95649733
 11
5.7381589635
 21
5.95649733
  0
LINE
  5
2A4
100
AcDbEntity
  8
0
100
AcDbLine
 62
7
  6
CONTINUOUS
 10
5.7881589635
 20
5.95649733
 11
5.8882087892
 21
5.95649733
  0
LINE
  5
2A5
100
AcDbEntity
  8
0
100
AcDbLine
 62
7
  6
CONTINUOUS
 10
5.6321739349
 20
5.9594899528
 11
5.7381589635
 21
5.9594899528
  0
LINE
  5
2A6
100
AcDbEntity
  8
0
100
AcDbLine
 62
7
  6
CONTINUOUS
 10
5.7881589635
 20
5.9594899528
 11
5.8941439921
 21
5.9594899528
  0
LINE
  5
2A7
100
AcDbEntity
  8
0
100
AcDbLine
 62
7
  6
CONTINUOUS
 10
5.7381589635
 20
5.9614579599
 11
5.7881589635
 21
5.9614579599
  0
LINE
  5
2A8
100
AcDbEntity
  8
0
100
AcDbLine
 62
7
  6
CONTINUOUS
 10
5.7406590012
 20
5.9639579599
 11
5.7856589258
 21
5.9639579599
  0
LINE
  5
2A9
100
AcDbEntity
  8
0
100
AcDbLine
 62
7
  6
CONTINUOUS
 10
5.8892953952
 20
5.9799737714
 11
5.6370225318
 21
5.9799737714
  0
LINE
  5
2AA
100
AcDbEntity
  8
0
100
AcDbLine
 62
7
  6
CONTINUOUS
 10
5.884572136
 20
5.9851861149
 11
5.6417457909
 21
5.9851861149
  0
LINE
  5
2AB
100
AcDbEntity
  8
0
100
AcDbLine
 62
7
  6
CONTINUOUS
 10
5.6584104817
 20
6.1381652948
 11
5.8679074453
 21
6.1381652948
  0
LINE
  5
2AC
100
AcDbEntity
  8
0
100
AcDbLine
 62
7
  6
CONTINUOUS
 10
5.660595917
 20
6.1476799027
 11
5.86572201
 21
6.1476799027
  0
LINE
  5
2AD
100
AcDbEntity
  8
0
100
AcDbLine
 62
7
  6
CONTINUOUS
 10
5.6796977803
 20
6.2074093063
 11
5.8466201467
 21
6.2074093063
  0
LINE
  5
2AE
100
AcDbEntity
  8
0
100
AcDbLine
 62
7
  6
CONTINUOUS
 10
5.6846185094
 20
6.2124028418
 11
5.8416994176
 21
6.2124028418
  0
LINE
  5
2AF
100
AcDbEntity
  8
0
100
AcDbLine
 62
7
  6
CONTINUOUS
 10
4.7346019683
 20
6.4287862619
 11
4.6109206499
 21
6.4396069751
  0
LINE
  5
2B0
100
AcDbEntity
  8
0
100
AcDbLine
 62
7
  6
CONTINUOUS
 10
4.7398460351
 20
6.4326723688
 11
4.6064310677
 21
6.444344666
  0
LINE
  5
2B1
100
AcDbEntity
  8
0
100
AcDbLine
 62
7
  6
CONTINUOUS
 10
5.8320566013
 20
6.5749806289
 11
5.6942613257
 21
6.5749806289
  0
LINE
  5
2B2
100
AcDbEntity
  8
0
100
AcDbLine
 62
7
  6
CONTINUOUS
 10
4.6039637704
 20
6.5179629929
 11
4.7550595369
 21
6.5047438262
  0
LINE
  5
2B3
100
AcDbEntity
  8
0
100
AcDbLine
 62
7
  6
CONTINUOUS
 10
4.6023810754
 20
6.5229944373
 11
4.7574918883
 21
6.5094239995
  0
LINE
  5
2B4
100
AcDbEntity
  8
0
100
AcDbLine
 62
7
  6
CONTINUOUS
 10
4.7564710591
 20
6.515794013
 11
4.6044925372
 21
6.5290904107
  0
LINE
  5
2B5
100
AcDbEntity
  8
0
100
AcDbLine
 62
7
  6
CONTINUOUS
 10
4.6205452749
 20
6.6278763557
 11
4.7578161979
 21
6.6158667062
  0
LINE
  5
2B6
100
AcDbEntity
  8
0
100
AcDbLine
 62
7
  6
CONTINUOUS
 10
5.6177533044
 20
6.719151948
 11
5.6729364053
 21
6.7147905976
  0
ARC
  5
2B7
100
AcDbEntity
  8
0
100
AcDbCircle
 62
7
  6
CONTINUOUS
 10
5.5439273941
 20
1.8826351928
 40
0.163875
100
AcDbArc
 50
119.2540695195
 51
156.8734428289
  0
ARC
  5
2B8
100
AcDbEntity
  8
0
100
AcDbCircle
 62
7
  6
CONTINUOUS
 10
5.5630293757
 20
2.0157420763
 40
0.09375
100
AcDbArc
 50
101.4561392647
 51
167.5928966499
  0
ARC
  5
2B9
100
AcDbEntity
  8
0
100
AcDbCircle
 62
7
  6
CONTINUOUS
 10
5.4562087578
 20
2.0392419962
 40
0.015625
100
AcDbArc
 50
299.2540695195
 51
347.5928966499
  0
ARC
  5
2BA
100
AcDbEntity
  8
0
100
AcDbCircle
 62
7
  6
CONTINUOUS
 10
5.6265940029
 20
2.1100849284
 40
0.0049212598
100
AcDbArc
 50
90.0
 51
180.0
  0
ARC
  5
2BB
100
AcDbEntity
  8
0
100
AcDbCircle
 62
7
  6
CONTINUOUS
 10
4.2293712262
 20
5.6968697544
 40
1.5
100
AcDbArc
 50
357.5245566829
 51
7.5741286837
  0
ARC
  5
2BC
100
AcDbEntity
  8
0
100
AcDbCircle
 62
7
  6
CONTINUOUS
 10
4.7646898383
 20
6.5027109742
 40
0.0098425197
100
AcDbArc
 50
136.9964731543
 51
168.0804667371
  0
ARC
  5
2BD
100
AcDbEntity
  8
0
100
AcDbCircle
 62
7
  6
CONTINUOUS
 10
4.5941267738
 20
6.5176333087
 40
0.0098425197
100
AcDbArc
 50
1.9195332629
 51
33.0035268457
  0
ARC
  5
2BE
100
AcDbEntity
  8
0
100
AcDbCircle
 62
7
  6
CONTINUOUS
 10
4.611349566
 20
6.4445095081
 40
0.0049212598
100
AcDbArc
 50
181.9195332634
 51
265.0
  0
ARC
  5
2BF
100
AcDbEntity
  8
0
100
AcDbCircle
 62
7
  6
CONTINUOUS
 10
4.7350308844
 20
6.4336887949
 40
0.0049212598
100
AcDbArc
 50
265.0
 51
348.0804667366
  0
ARC
  5
2C0
100
AcDbEntity
  8
0
100
AcDbCircle
 62
7
  6
CONTINUOUS
 10
4.7545027343
 20
6.5122117748
 40
0.004087387
100
AcDbArc
 50
316.9964731552
 51
61.2126198308
  0
ARC
  5
2C1
100
AcDbEntity
  8
0
100
AcDbCircle
 62
7
  6
CONTINUOUS
 10
4.6058089095
 20
6.5252207988
 40
0.004087387
100
AcDbArc
 50
108.7873801692
 51
213.0035268448
  0
ARC
  5
2C2
100
AcDbEntity
  8
0
100
AcDbCircle
 62
7
  6
CONTINUOUS
 10
5.7427866989
 20
5.9035247571
 40
0.0678391504
100
AcDbArc
 50
352.4258713163
 51
48.0238475461
  0
ARC
  5
2C3
100
AcDbEntity
  8
0
100
AcDbCircle
 62
7
  6
CONTINUOUS
 10
5.75921777
 20
5.4687525142
 40
0.0505661934
100
AcDbArc
 50
352.0635584318
 51
0.0003590767
  0
ARC
  5
2C4
100
AcDbEntity
  8
0
100
AcDbCircle
 62
7
  6
CONTINUOUS
 10
5.7222839635
 20
5.4366369946
 40
0.02325
100
AcDbArc
 50
316.6958241996
 51
41.7081302521
  0
ARC
  5
2C5
100
AcDbEntity
  8
0
100
AcDbCircle
 62
7
  6
CONTINUOUS
 10
5.6432529802
 20
5.967683251
 40
0.0137795276
100
AcDbArc
 50
116.8818730328
 51
216.4840762427
  0
ARC
  5
2C6
100
AcDbEntity
  8
0
100
AcDbCircle
 62
7
  6
CONTINUOUS
 10
5.7362839635
 20
5.4535393611
 40
0.0125
100
AcDbArc
 50
180.0
 51
211.8098192725
  0
ARC
  5
2C7
100
AcDbEntity
  8
0
100
AcDbCircle
 62
7
  6
CONTINUOUS
 10
5.6325722115
 20
5.9887527146
 40
0.0098425197
100
AcDbArc
 50
296.8818730328
 51
338.7543961369
  0
ARC
  5
2C8
100
AcDbEntity
  8
0
100
AcDbCircle
 62
7
  6
CONTINUOUS
 10
5.6381091378
 20
5.9638792197
 40
0.0073818898
100
AcDbArc
 50
216.4840762427
 51
270.0
  0
ARC
  5
2C9
100
AcDbEntity
  8
0
100
AcDbCircle
 62
7
  6
CONTINUOUS
 10
5.7425339635
 20
5.4546842417
 40
0.003875
100
AcDbArc
 50
180.0
 51
221.7081302521
  0
ARC
  5
2CA
100
AcDbEntity
  8
0
100
AcDbCircle
 62
7
  6
CONTINUOUS
 10
5.6430802233
 20
5.3137807945
 40
0.0029527559
100
AcDbArc
 50
90.0
 51
180.0
  0
ARC
  5
2CB
100
AcDbEntity
  8
0
100
AcDbCircle
 62
7
  6
CONTINUOUS
 10
5.6425880973
 20
5.3191941803
 40
0.0024606299
100
AcDbArc
 50
180.0
 51
270.0
  0
ARC
  5
2CC
100
AcDbEntity
  8
0
100
AcDbCircle
 62
7
  6
CONTINUOUS
 10
5.6425880973
 20
5.9540367
 40
0.0024606299
100
AcDbArc
 50
90.0
 51
180.0
  0
ARC
  5
2CD
100
AcDbEntity
  8
0
100
AcDbCircle
 62
7
  6
CONTINUOUS
 10
5.7401765001
 20
5.4153778069
 40
0.002
100
AcDbArc
 50
325.0995
 51
76.0407512246
  0
ARC
  5
2CE
100
AcDbEntity
  8
0
100
AcDbCircle
 62
7
  6
CONTINUOUS
 10
5.7406589635
 20
5.419318742
 40
0.002
100
AcDbArc
 50
136.6958241996
 51
270.0
  0
ARC
  5
2CF
100
AcDbEntity
  8
0
100
AcDbCircle
 62
7
  6
CONTINUOUS
 10
5.2251461994
 20
6.5749806289
 40
0.6069104018
100
AcDbArc
 50
0.0
 51
175.0
  0
ARC
  5
2D0
100
AcDbEntity
  8
0
100
AcDbCircle
 62
7
  6
CONTINUOUS
 10
5.2251461994
 20
6.5749806289
 40
0.4691151263
100
AcDbArc
 50
0.0
 51
175.0
  0
ARC
  5
2D1
100
AcDbEntity
  8
0
100
AcDbCircle
 62
7
  6
CONTINUOUS
 10
5.6255139695
 20
6.8173457466
 40
0.0985
100
AcDbArc
 50
246.1003055826
 51
265.4810692104
  0
ARC
  5
2D2
100
AcDbEntity
  8
0
100
AcDbCircle
 62
7
  6
CONTINUOUS
 10
5.5812831987
 20
6.2059637949
 40
0.0984251969
100
AcDbArc
 50
323.6892524626
 51
0.8414988072
  0
ARC
  5
2D3
100
AcDbEntity
  8
0
100
AcDbCircle
 62
7
  6
CONTINUOUS
 10
5.6705100068
 20
6.1403944162
 40
0.0123031496
100
AcDbArc
 50
143.6892524626
 51
190.4386730979
  0
ARC
  5
2D4
100
AcDbEntity
  8
0
100
AcDbCircle
 62
7
  6
CONTINUOUS
 10
5.6826575113
 20
6.4048028908
 40
0.005
100
AcDbArc
 50
202.5
 51
292.5
  0
ARC
  5
2D5
100
AcDbEntity
  8
0
100
AcDbCircle
 62
7
  6
CONTINUOUS
 10
5.5489574871
 20
6.7275833024
 40
0.005
100
AcDbArc
 50
112.5
 51
202.5
  0
ARC
  5
2D6
100
AcDbEntity
  8
0
100
AcDbCircle
 62
7
  6
CONTINUOUS
 10
5.6846185094
 20
6.2074815819
 40
0.0049212598
100
AcDbArc
 50
90.0
 51
180.8414988072
  0
ARC
  5
2D7
100
AcDbEntity
  8
0
100
AcDbCircle
 62
7
  6
CONTINUOUS
 10
5.5508658701
 20
6.706387689
 40
0.0025
100
AcDbArc
 50
292.5
 51
325.1317573789
  0
ARC
  5
2D8
100
AcDbEntity
  8
0
100
AcDbCircle
 62
7
  6
CONTINUOUS
 10
5.6690193798
 20
6.4211398833
 40
0.0025
100
AcDbArc
 50
79.8682426211
 51
112.5
  0
ARC
  5
2D9
100
AcDbEntity
  8
0
100
AcDbCircle
 62
7
  6
CONTINUOUS
 10
5.5531077969
 20
6.6809330156
 40
0.0025
100
AcDbArc
 50
292.5
 51
12.4999486749
  0
ARC
  5
2DA
100
AcDbEntity
  8
0
100
AcDbCircle
 62
7
  6
CONTINUOUS
 10
5.6526054893
 20
6.4407243372
 40
0.0025
100
AcDbArc
 50
32.5000513251
 51
112.5
  0
ARC
  5
2DB
100
AcDbEntity
  8
0
100
AcDbCircle
 62
7
  6
CONTINUOUS
 10
5.6361915989
 20
6.460308791
 40
0.0025
100
AcDbArc
 50
32.5000633043
 51
112.5
  0
ARC
  5
2DC
100
AcDbEntity
  8
0
100
AcDbCircle
 62
7
  6
CONTINUOUS
 10
5.6050285683
 20
6.4974612803
 40
0.0025
100
AcDbArc
 50
32.5001222301
 51
110.9672257125
  0
ARC
  5
2DD
100
AcDbEntity
  8
0
100
AcDbCircle
 62
7
  6
CONTINUOUS
 10
5.6197777084
 20
6.4798932448
 40
0.0025
100
AcDbArc
 50
32.5000874532
 51
110.9672257125
  0
ARC
  5
2DE
100
AcDbEntity
  8
0
100
AcDbCircle
 62
7
  6
CONTINUOUS
 10
5.5553497238
 20
6.6554783422
 40
0.0025
100
AcDbArc
 50
292.5
 51
12.4999366957
  0
ARC
  5
2DF
100
AcDbEntity
  8
0
100
AcDbCircle
 62
7
  6
CONTINUOUS
 10
5.5595849107
 20
6.6071719748
 40
0.0025
100
AcDbArc
 50
294.0327742875
 51
12.4998777699
  0
ARC
  5
2E0
100
AcDbEntity
  8
0
100
AcDbCircle
 62
7
  6
CONTINUOUS
 10
5.5575916506
 20
6.6300236689
 40
0.0025
100
AcDbArc
 50
294.0327742875
 51
12.4999125467
  0
ARC
  5
2E1
100
AcDbEntity
  8
0
100
AcDbCircle
 62
7
  6
CONTINUOUS
 10
5.634548462
 20
6.4636871522
 40
0.00125
100
AcDbArc
 50
212.5000032006
 51
292.5
  0
ARC
  5
2E2
100
AcDbEntity
  8
0
100
AcDbCircle
 62
7
  6
CONTINUOUS
 10
5.5901061689
 20
6.5222806246
 40
0.00125
100
AcDbArc
 50
202.4998990127
 51
212.4998928466
  0
ARC
  5
2E3
100
AcDbEntity
  8
0
100
AcDbCircle
 62
7
  6
CONTINUOUS
 10
5.5665831075
 20
6.5790703184
 40
0.00125
100
AcDbArc
 50
192.5001071534
 51
202.5001009872
  0
ARC
  5
2E4
100
AcDbEntity
  8
0
100
AcDbCircle
 62
7
  6
CONTINUOUS
 10
5.6509623525
 20
6.4441026983
 40
0.00125
100
AcDbArc
 50
212.5000037312
 51
292.5
  0
ARC
  5
2E5
100
AcDbEntity
  8
0
100
AcDbCircle
 62
7
  6
CONTINUOUS
 10
5.552092859
 20
6.7028369537
 40
0.00125
100
AcDbArc
 50
112.5
 51
192.4999875766
  0
ARC
  5
2E6
100
AcDbEntity
  8
0
100
AcDbCircle
 62
7
  6
CONTINUOUS
 10
5.5611126791
 20
6.6037458265
 40
0.00125
100
AcDbArc
 50
114.0327742878
 51
192.5000683522
  0
ARC
  5
2E7
100
AcDbEntity
  8
0
100
AcDbCircle
 62
7
  6
CONTINUOUS
 10
5.603686211
 20
6.5009642285
 40
0.00125
100
AcDbArc
 50
212.4999316478
 51
290.9672257122
  0
ARC
  5
2E8
100
AcDbEntity
  8
0
100
AcDbCircle
 62
7
  6
CONTINUOUS
 10
5.5591194191
 20
6.6265975205
 40
0.00125
100
AcDbArc
 50
114.0327742876
 51
192.5000143458
  0
ARC
  5
2E9
100
AcDbEntity
  8
0
100
AcDbCircle
 62
7
  6
CONTINUOUS
 10
5.6184353511
 20
6.483396193
 40
0.00125
100
AcDbArc
 50
212.4999856542
 51
290.9672257124
  0
ARC
  5
2EA
100
AcDbEntity
  8
0
100
AcDbCircle
 62
7
  6
CONTINUOUS
 10
5.5565767126
 20
6.6519276069
 40
0.00125
100
AcDbArc
 50
112.5
 51
192.4999967993
  0
ARC
  5
2EB
100
AcDbEntity
  8
0
100
AcDbCircle
 62
7
  6
CONTINUOUS
 10
5.667376243
 20
6.4245182445
 40
0.00125
100
AcDbArc
 50
212.5000124233
 51
292.5
  0
ARC
  5
2EC
100
AcDbEntity
  8
0
100
AcDbCircle
 62
7
  6
CONTINUOUS
 10
5.5543347858
 20
6.6773822803
 40
0.00125
100
AcDbArc
 50
112.5
 51
192.4999962688
  0
ARC
  5
2ED
100
AcDbEntity
  8
0
100
AcDbCircle
 62
7
  6
CONTINUOUS
 10
5.9823905328
 20
1.8826351928
 40
0.163875
100
AcDbArc
 50
23.1265571711
 51
60.7459304805
  0
ARC
  5
2EE
100
AcDbEntity
  8
0
100
AcDbCircle
 62
7
  6
CONTINUOUS
 10
5.9632885513
 20
2.0157420763
 40
0.09375
100
AcDbArc
 50
12.4071033501
 51
78.5438607353
  0
ARC
  5
2EF
100
AcDbEntity
  8
0
100
AcDbCircle
 62
7
  6
CONTINUOUS
 10
6.0701091691
 20
2.0392419962
 40
0.015625
100
AcDbArc
 50
192.4071033501
 51
240.7459304805
  0
ARC
  5
2F0
100
AcDbEntity
  8
0
100
AcDbCircle
 62
7
  6
CONTINUOUS
 10
5.8997239241
 20
2.1100849284
 40
0.0049212598
100
AcDbArc
 50
0.0
 51
90.0
  0
ARC
  5
2F1
100
AcDbEntity
  8
0
100
AcDbCircle
 62
7
  6
CONTINUOUS
 10
5.7631589635
 20
5.3902079599
 40
0.03125
100
AcDbArc
 50
145.0995
 51
34.9005
  0
ARC
  5
2F2
100
AcDbEntity
  8
0
100
AcDbCircle
 62
7
  6
CONTINUOUS
 10
5.7861414269
 20
5.4153778069
 40
0.002
100
AcDbArc
 50
103.9592487754
 51
214.9005
  0
ARC
  5
2F3
100
AcDbEntity
  8
0
100
AcDbCircle
 62
7
  6
CONTINUOUS
 10
5.7631589635
 20
5.5135839441
 40
0.1474375
100
AcDbArc
 50
278.4789049422
 51
76.5367308282
  0
ARC
  5
2F4
100
AcDbEntity
  8
0
100
AcDbCircle
 62
7
  6
CONTINUOUS
 10
5.7631589635
 20
5.5135839441
 40
0.1474375
100
AcDbArc
 50
103.4632691718
 51
261.5210950578
  0
ARC
  5
2F5
100
AcDbEntity
  8
0
100
AcDbCircle
 62
7
  6
CONTINUOUS
 10
5.7631589635
 20
5.5135839441
 40
0.1394017857
100
AcDbArc
 50
104.3603818158
 51
258.2582807096
  0
ARC
  5
2F6
100
AcDbEntity
  8
0
100
AcDbCircle
 62
7
  6
CONTINUOUS
 10
5.7631589635
 20
5.5135839441
 40
0.1394017857
100
AcDbArc
 50
281.7417191599
 51
75.6396181183
  0
ARC
  5
2F7
100
AcDbEntity
  8
0
100
AcDbCircle
 62
7
  6
CONTINUOUS
 10
5.7631589635
 20
5.5135839441
 40
0.1349375
100
AcDbArc
 50
282.9193336575
 51
75.0877346433
  0
ARC
  5
2F8
100
AcDbEntity
  8
0
100
AcDbCircle
 62
7
  6
CONTINUOUS
 10
5.7631589635
 20
5.5135839441
 40
0.1349375
100
AcDbArc
 50
104.9122653355
 51
257.0806661394
  0
ARC
  5
2F9
100
AcDbEntity
  8
0
100
AcDbCircle
 62
7
  6
CONTINUOUS
 10
5.7631589635
 20
5.5135839441
 40
0.1313702683
100
AcDbArc
 50
283.6285315084
 51
74.6093300132
  0
ARC
  5
2FA
100
AcDbEntity
  8
0
100
AcDbCircle
 62
7
  6
CONTINUOUS
 10
5.7631589635
 20
5.5135839441
 40
0.1313702683
100
AcDbArc
 50
105.3906700524
 51
256.3714685472
  0
ARC
  5
2FB
100
AcDbEntity
  8
0
100
AcDbCircle
 62
7
  6
CONTINUOUS
 10
5.7631589635
 20
5.5135839441
 40
0.0809254437
100
AcDbArc
 50
353.8493002181
 51
72.2839145494
  0
ARC
  5
2FC
100
AcDbEntity
  8
0
100
AcDbCircle
 62
7
  6
CONTINUOUS
 10
5.7631589635
 20
5.5135839441
 40
0.0809254437
100
AcDbArc
 50
107.7160854501
 51
186.150699782
  0
ARC
  5
2FD
100
AcDbEntity
  8
0
100
AcDbCircle
 62
7
  6
CONTINUOUS
 10
5.7631589635
 20
5.5135839441
 40
0.0786632591
100
AcDbArc
 50
108.2434090113
 51
186.1506997823
  0
ARC
  5
2FE
100
AcDbEntity
  8
0
100
AcDbCircle
 62
7
  6
CONTINUOUS
 10
5.7631589635
 20
5.5135839441
 40
0.0786632591
100
AcDbArc
 50
353.8493002178
 51
71.7565491276
  0
CIRCLE
  5
2FF
100
AcDbEntity
  8
0
100
AcDbCircle
 62
7
  6
CONTINUOUS
 10
5.7631589635
 20
5.5214579599
 40
0.069375
  0
CIRCLE
  5
300
100
AcDbEntity
  8
0
100
AcDbCircle
 62
7
  6
CONTINUOUS
 10
5.7631589635
 20
5.5214579599
 40
0.0655
  0
CIRCLE
  5
301
100
AcDbEntity
  8
0
100
AcDbCircle
 62
7
  6
CONTINUOUS
 10
5.7631589635
 20
5.5214579599
 40
0.063716769
  0
CIRCLE
  5
302
100
AcDbEntity
  8
0
100
AcDbCircle
 62
7
  6
CONTINUOUS
 10
5.7631589635
 20
5.5214579599
 40
0.05625
  0
CIRCLE
  5
303
100
AcDbEntity
  8
0
100
AcDbCircle
 62
7
  6
CONTINUOUS
 10
5.7631589635
 20
5.5214579599
 40
0.05375
  0
ARC
  5
304
100
AcDbEntity
  8
0
100
AcDbCircle
 62
7
  6
CONTINUOUS
 10
5.7670772744
 20
5.468750927
 40
0.0505433109
100
AcDbArc
 50
179.9978414261
 51
187.9382410654
  0
CIRCLE
  5
305
100
AcDbEntity
  8
0
100
AcDbCircle
 62
7
  6
CONTINUOUS
 10
5.7631589635
 20
5.5214579599
 40
0.0477984453
  0
ARC
  5
306
100
AcDbEntity
  8
0
100
AcDbCircle
 62
7
  6
CONTINUOUS
 10
5.7631589635
 20
5.4702089441
 40
0.044125
100
AcDbArc
 50
294.8502867097
 51
356.9697073395
  0
ARC
  5
307
100
AcDbEntity
  8
0
100
AcDbCircle
 62
7
  6
CONTINUOUS
 10
5.7631589635
 20
5.4702089441
 40
0.044125
100
AcDbArc
 50
183.0302732929
 51
245.1497178387
  0
ARC
  5
308
100
AcDbEntity
  8
0
100
AcDbCircle
 62
7
  6
CONTINUOUS
 10
5.8040339635
 20
5.4366369946
 40
0.02325
100
AcDbArc
 50
138.2918697479
 51
223.3041758004
  0
ARC
  5
309
100
AcDbEntity
  8
0
100
AcDbCircle
 62
7
  6
CONTINUOUS
 10
5.7900339635
 20
5.4535393611
 40
0.0125
100
AcDbArc
 50
328.1901807275
 51
360.0
  0
ARC
  5
30A
100
AcDbEntity
  8
0
100
AcDbCircle
 62
7
  6
CONTINUOUS
 10
5.7837839635
 20
5.4546842417
 40
0.003875
100
AcDbArc
 50
318.2918697479
 51
360.0
  0
ARC
  5
30B
100
AcDbEntity
  8
0
100
AcDbCircle
 62
7
  6
CONTINUOUS
 10
5.7856589635
 20
5.419318742
 40
0.002
100
AcDbArc
 50
270.0
 51
43.3041758004
  0
ARC
  5
30C
100
AcDbEntity
  8
0
100
AcDbCircle
 62
7
  6
CONTINUOUS
 10
5.8832377036
 20
5.3137807945
 40
0.0029527559
100
AcDbArc
 50
0.0
 51
90.0
  0
ARC
  5
30D
100
AcDbEntity
  8
0
100
AcDbCircle
 62
7
  6
CONTINUOUS
 10
5.8837298296
 20
5.3191941803
 40
0.0024606299
100
AcDbArc
 50
270.0
 51
360.0
  0
ARC
  5
30E
100
AcDbEntity
  8
0
100
AcDbCircle
 62
7
  6
CONTINUOUS
 10
6.0084758377
 20
5.9294304008
 40
0.1230314961
100
AcDbArc
 50
173.6847094298
 51
186.3152905702
  0
ARC
  5
30F
100
AcDbEntity
  8
0
100
AcDbCircle
 62
7
  6
CONTINUOUS
 10
5.9450347283
 20
6.2059637949
 40
0.0984251969
100
AcDbArc
 50
179.1585011928
 51
216.3107475374
  0
ARC
  5
310
100
AcDbEntity
  8
0
100
AcDbCircle
 62
7
  6
CONTINUOUS
 10
5.7835312281
 20
5.9035247571
 40
0.0678391504
100
AcDbArc
 50
131.9761524539
 51
187.5741286837
  0
ARC
  5
311
100
AcDbEntity
  8
0
100
AcDbCircle
 62
7
  6
CONTINUOUS
 10
5.7631589635
 20
5.9442704599
 40
0.0271875
100
AcDbArc
 50
46.3971810273
 51
133.6028189727
  0
ARC
  5
312
100
AcDbEntity
  8
0
100
AcDbCircle
 62
7
  6
CONTINUOUS
 10
5.8830649468
 20
5.967683251
 40
0.0137795276
100
AcDbArc
 50
323.5159237573
 51
63.1181269672
  0
ARC
  5
313
100
AcDbEntity
  8
0
100
AcDbCircle
 62
7
  6
CONTINUOUS
 10
5.8558079202
 20
6.1403944162
 40
0.0123031496
100
AcDbArc
 50
349.5613269021
 51
36.3107475374
  0
ARC
  5
314
100
AcDbEntity
  8
0
100
AcDbCircle
 62
7
  6
CONTINUOUS
 10
5.8937457155
 20
5.9887527146
 40
0.0098425197
100
AcDbArc
 50
201.2456038631
 51
243.1181269672
  0
ARC
  5
315
100
AcDbEntity
  8
0
100
AcDbCircle
 62
7
  6
CONTINUOUS
 10
5.8882087892
 20
5.9638792197
 40
0.0073818898
100
AcDbArc
 50
270.0
 51
323.5159237573
  0
ARC
  5
316
100
AcDbEntity
  8
0
100
AcDbCircle
 62
7
  6
CONTINUOUS
 10
5.8416994176
 20
6.2074815819
 40
0.0049212598
100
AcDbArc
 50
359.1585011928
 51
90.0
  0
ARC
  5
317
100
AcDbEntity
  8
0
100
AcDbCircle
 62
7
  6
CONTINUOUS
 10
5.8837298296
 20
5.9540367
 40
0.0024606299
100
AcDbArc
 50
0.0
 51
90.0
  0
ARC
  5
318
100
AcDbEntity
  8
0
100
AcDbCircle
 62
7
  6
CONTINUOUS
 10
7.2969467008
 20
5.6968697544
 40
1.5
100
AcDbArc
 50
172.4258713163
 51
182.4754433171
  0
LINE
  5
319
100
AcDbEntity
  8
0
100
AcDbLine
 62
7
  6
CONTINUOUS
 10
5.5669324021
 20
6.5815528495
 11
5.5672437723
 21
6.581053516
  0
SPLINE
  5
31A
100
AcDbEntity
  8
0
100
AcDbSpline
 62
7
  6
CONTINUOUS
 70
0
 71
3
 72
19
 73
15
 74
0
 42
0.0000001
 43
0.0000001
 44
0.0000000001
 40
0.0
 40
0.0
 40
0.0
 40
0.0
 40
0.0170052985
 40
0.0382360293
 40
0.0659923194
 40
0.1011565193
 40
0.1439564934
 40
0.1942972805
 40
0.2518925621
 40
0.3163225987
 40
0.4634936355
 40
0.630690707
 40
0.8117845724
 40
1.0
 40
1.0
 40
1.0
 40
1.0
 10
5.5785460903
 20
6.5528896079
 30
0.0
 10
5.5785568019
 20
6.5528940457
 30
0.0
 10
5.5785841729
 20
6.5528962641
 30
0.0
 10
5.5786269025
 20
6.5528799419
 30
0.0
 10
5.5786745847
 20
6.5528475741
 30
0.0
 10
5.5787278247
 20
6.55279872
 30
0.0
 10
5.5787864571
 20
6.5527336876
 30
0.0
 10
5.5788500071
 20
6.5526528405
 30
0.0
 10
5.578917906
 20
6.5525568712
 30
0.0
 10
5.5790178839
 20
6.5524029026
 30
0.0
 10
5.5791476767
 20
6.5521794398
 30
0.0
 10
5.5793038133
 20
6.5518797789
 30
0.0
 10
5.5794604744
 20
6.5515491381
 30
0.0
 10
5.5795606079
 20
6.5513180448
 30
0.0
 10
5.5796097173
 20
6.5511994844
 30
0.0
  0
SPLINE
  5
31B
100
AcDbEntity
  8
0
100
AcDbSpline
 62
7
  6
CONTINUOUS
 70
0
 71
3
 72
22
 73
18
 74
0
 42
0.0000001
 43
0.0000001
 44
0.0000000001
 40
0.0
 40
0.0
 40
0.0
 40
0.0
 40
0.0127911384
 40
0.0224826068
 40
0.0347881537
 40
0.0497957083
 40
0.0675078803
 40
0.1108280832
 40
0.1362660939
 40
0.1640672332
 40
0.2262020059
 40
0.2959899207
 40
0.371997584
 40
0.5362277734
 40
0.7051071337
 40
0.8642453633
 40
1.0
 40
1.0
 40
1.0
 40
1.0
 10
5.590160283
 20
6.5242049841
 30
0.0
 10
5.590173481
 20
6.52421127
 30
0.0
 10
5.5902023014
 20
6.5242050418
 30
0.0
 10
5.5902362659
 20
6.5241860066
 30
0.0
 10
5.5902707725
 20
6.5241609123
 30
0.0
 10
5.5903094332
 20
6.5241270434
 30
0.0
 10
5.590371342
 20
6.5240659402
 30
0.0
 10
5.5904366695
 20
6.5239916756
 30
0.0
 10
5.590506367
 20
6.5239061147
 30
0.0
 10
5.5905871736
 20
6.5238019039
 30
0.0
 10
5.590694601
 20
6.5236542706
 30
0.0
 10
5.5908286192
 20
6.5234579988
 30
0.0
 10
5.5910211208
 20
6.5231605026
 30
0.0
 10
5.5912623874
 20
6.5227598449
 30
0.0
 10
5.5915354853
 20
6.5222678725
 30
0.0
 10
5.5917759949
 20
6.5217954491
 30
0.0
 10
5.5919162891
 20
6.5214887914
 30
0.0
 10
5.5919756619
 20
6.5213454527
 30
0.0
  0
SPLINE
  5
31C
100
AcDbEntity
  8
0
100
AcDbSpline
 62
7
  6
CONTINUOUS
 70
0
 71
3
 72
11
 73
7
 74
0
 42
0.0000001
 43
0.0000001
 44
0.0000000001
 40
0.0
 40
0.0
 40
0.0
 40
0.0
 40
0.0987464154
 40
0.2899201048
 40
0.5895254042
 40
1.0
 40
1.0
 40
1.0
 40
1.0
 10
5.554230085
 20
6.6901926116
 30
0.0
 10
5.5542317518
 20
6.6901929884
 30
0.0
 10
5.5542366142
 20
6.6901895919
 30
0.0
 10
5.5542418476
 20
6.6901813034
 30
0.0
 10
5.554249292
 20
6.6901673378
 30
0.0
 10
5.5542540978
 20
6.69015609
 30
0.0
 10
5.5542568161
 20
6.6901495274
 30
0.0
  0
LINE
  5
31D
100
AcDbEntity
  8
0
100
AcDbLine
 62
7
  6
CONTINUOUS
 10
5.5644894453
 20
6.665257369
 11
5.5647222496
 21
6.6648837378
  0
LINE
  5
31E
100
AcDbEntity
  8
0
100
AcDbLine
 62
7
  6
CONTINUOUS
 10
5.5829758132
 20
6.6203198652
 11
5.5835803083
 21
6.6193563578
  0
SPLINE
  5
31F
100
AcDbEntity
  8
0
100
AcDbSpline
 62
7
  6
CONTINUOUS
 70
0
 71
3
 72
19
 73
15
 74
0
 42
0.0000001
 43
0.0000001
 44
0.0000000001
 40
0.0
 40
0.0
 40
0.0
 40
0.0
 40
0.0170060477
 40
0.0383096815
 40
0.0661932968
 40
0.1015170587
 40
0.1444899546
 40
0.1949984873
 40
0.2527387504
 40
0.3172767586
 40
0.4645137826
 40
0.6315468762
 40
0.8122716428
 40
1.0
 40
1.0
 40
1.0
 40
1.0
 10
5.6060289929
 20
6.5642734
 30
0.0
 10
5.6060397086
 20
6.564277838
 30
0.0
 10
5.6060671521
 20
6.5642799958
 30
0.0
 10
5.6061099882
 20
6.5642635589
 30
0.0
 10
5.6061578994
 20
6.5642310683
 30
0.0
 10
5.606211454
 20
6.5641820651
 30
0.0
 10
5.6062704627
 20
6.5641168805
 30
0.0
 10
5.606334423
 20
6.5640358984
 30
0.0
 10
5.6064027416
 20
6.5639398344
 30
0.0
 10
5.6065032407
 20
6.5637858837
 30
0.0
 10
5.6066335775
 20
6.5635626435
 30
0.0
 10
5.6067901364
 20
6.5632634521
 30
0.0
 10
5.6069469091
 20
6.5629335173
 30
0.0
 10
5.6070469265
 20
6.5627029303
 30
0.0
 10
5.6070959226
 20
6.5625846434
 30
0.0
  0
SPLINE
  5
320
100
AcDbEntity
  8
0
100
AcDbSpline
 62
7
  6
CONTINUOUS
 70
0
 71
3
 72
21
 73
17
 74
0
 42
0.0000001
 43
0.0000001
 44
0.0000000001
 40
0.0
 40
0.0
 40
0.0
 40
0.0
 40
0.0068914114
 40
0.0147533018
 40
0.0242534675
 40
0.0357604412
 40
0.0653930251
 40
0.1041606299
 40
0.1518358641
 40
0.2078624047
 40
0.2714690272
 40
0.3417236062
 40
0.4978159398
 40
0.6665708352
 40
0.8375089849
 40
1.0
 40
1.0
 40
1.0
 40
1.0
 10
5.6290857171
 20
6.5082159851
 30
0.0
 10
5.6290916594
 20
6.5082189968
 30
0.0
 10
5.6291058743
 20
6.5082227077
 30
0.0
 10
5.6291295178
 20
6.5082202428
 30
0.0
 10
5.6291559593
 20
6.5082107898
 30
0.0
 10
5.6291988865
 20
6.5081869629
 30
0.0
 10
5.6292592524
 20
6.5081380769
 30
0.0
 10
5.6293380047
 20
6.5080580513
 30
0.0
 10
5.6294270503
 20
6.5079528315
 30
0.0
 10
5.629524957
 20
6.5078240407
 30
0.0
 10
5.6296301555
 20
6.5076735592
 30
0.0
 10
5.6297833144
 20
6.5074387629
 30
0.0
 10
5.6299787499
 20
6.5071104161
 30
0.0
 10
5.6302065706
 20
6.5066886179
 30
0.0
 10
5.6304207365
 20
6.5062528265
 30
0.0
 10
5.6305514246
 20
6.5059580518
 30
0.0
 10
5.6306115365
 20
6.5058129289
 30
0.0
  0
SPLINE
  5
321
100
AcDbEntity
  8
0
100
AcDbSpline
 62
7
  6
CONTINUOUS
 70
0
 71
3
 72
21
 73
17
 74
0
 42
0.0000001
 43
0.0000001
 44
0.0000000001
 40
0.0
 40
0.0
 40
0.0
 40
0.0
 40
0.0114503647
 40
0.0208832512
 40
0.0332006846
 40
0.0484644535
 40
0.0666549641
 40
0.0877037248
 40
0.1115116306
 40
0.1668849888
 40
0.2315514575
 40
0.3826061016
 40
0.5506393252
 40
0.7198950201
 40
0.8744914858
 40
1.0
 40
1.0
 40
1.0
 40
1.0
 10
5.6475799436
 20
6.4632542318
 30
0.0
 10
5.6475916523
 20
6.4632610855
 30
0.0
 10
5.6476202843
 20
6.4632529106
 30
0.0
 10
5.6476522797
 20
6.4632324953
 30
0.0
 10
5.6476870455
 20
6.4632048448
 30
0.0
 10
5.6477263937
 20
6.463167729
 30
0.0
 10
5.6477710976
 20
6.4631210118
 30
0.0
 10
5.6478205387
 20
6.4630650184
 30
0.0
 10
5.6478964269
 20
6.4629736417
 30
0.0
 10
5.6480003574
 20
6.462838493
 30
0.0
 10
5.6481876591
 20
6.4625775
 30
0.0
 10
5.6484380629
 20
6.462197765
 30
0.0
 10
5.6487392117
 20
6.4617035918
 30
0.0
 10
5.6490262413
 20
6.461196207
 30
0.0
 10
5.6492721333
 20
6.4607238837
 30
0.0
 10
5.6494126855
 20
6.4604229386
 30
0.0
 10
5.6494695944
 20
6.4602855486
 30
0.0
  0
LINE
  5
322
100
AcDbEntity
  8
0
100
AcDbLine
 62
7
  6
CONTINUOUS
 10
5.6578455066
 20
6.4382998779
 11
5.6599350266
 21
6.4350197585
  0
LINE
  5
323
100
AcDbEntity
  8
0
100
AcDbLine
 62
7
  6
CONTINUOUS
 10
5.5609132229
 20
6.6541815141
 11
5.5610562946
 21
6.6539518254
  0
LINE
  5
324
100
AcDbEntity
  8
0
100
AcDbLine
 62
7
  6
CONTINUOUS
 10
5.5770248597
 20
6.6149628912
 11
5.5775588755
 21
6.6141110722
  0
SPLINE
  5
325
100
AcDbEntity
  8
0
100
AcDbSpline
 62
7
  6
CONTINUOUS
 70
0
 71
3
 72
19
 73
15
 74
0
 42
0.0000001
 43
0.0000001
 44
0.0000000001
 40
0.0
 40
0.0
 40
0.0
 40
0.0
 40
0.0170055259
 40
0.0383033899
 40
0.0661777226
 40
0.1014903934
 40
0.1444518312
 40
0.1949497074
 40
0.252681058
 40
0.3172127174
 40
0.4644470456
 40
0.6314917816
 40
0.8122405608
 40
1.0
 40
1.0
 40
1.0
 40
1.0
 10
5.5990352574
 20
6.5613764998
 30
0.0
 10
5.5990459723
 20
6.5613809374
 30
0.0
 10
5.5990734098
 20
6.5613830991
 30
0.0
 10
5.5991162353
 20
6.5613666661
 30
0.0
 10
5.5991641251
 20
6.5613341792
 30
0.0
 10
5.5992176506
 20
6.5612851801
 30
0.0
 10
5.5992766242
 20
6.5612199986
 30
0.0
 10
5.5993405457
 20
6.5611390177
 30
0.0
 10
5.5994088237
 20
6.5610429519
 30
0.0
 10
5.5995092694
 20
6.560888989
 30
0.0
 10
5.5996395458
 20
6.5606657228
 30
0.0
 10
5.5997960516
 20
6.5603664926
 30
0.0
 10
5.5999527982
 20
6.5600365102
 30
0.0
 10
5.6000528173
 20
6.5598058933
 30
0.0
 10
5.6001018197
 20
6.5596875911
 30
0.0
  0
SPLINE
  5
326
100
AcDbEntity
  8
0
100
AcDbSpline
 62
7
  6
CONTINUOUS
 70
0
 71
3
 72
21
 73
17
 74
0
 42
0.0000001
 43
0.0000001
 44
0.0000000001
 40
0.0
 40
0.0
 40
0.0
 40
0.0
 40
0.006630428
 40
0.0143486994
 40
0.0238437329
 40
0.0354691007
 40
0.065651049
 40
0.105285305
 40
0.1540481387
 40
0.2112902571
 40
0.2761427051
 40
0.3475703385
 40
0.5053612222
 40
0.6742232458
 40
0.8428641707
 40
1.0
 40
1.0
 40
1.0
 40
1.0
 10
5.6210499822
 20
6.5077758459
 30
0.0
 10
5.6210559527
 20
6.507778865
 30
0.0
 10
5.6210705067
 20
6.507782363
 30
0.0
 10
5.6210946769
 20
6.5077790092
 30
0.0
 10
5.621121909
 20
6.5077682822
 30
0.0
 10
5.6211666084
 20
6.5077418965
 30
0.0
 10
5.6212298064
 20
6.5076887211
 30
0.0
 10
5.6213127554
 20
6.5076024086
 30
0.0
 10
5.6214069154
 20
6.5074894352
 30
0.0
 10
5.6215106634
 20
6.5073516931
 30
0.0
 10
5.6216222036
 20
6.5071913625
 30
0.0
 10
5.6217841737
 20
6.5069426965
 30
0.0
 10
5.6219901223
 20
6.5065976462
 30
0.0
 10
5.6222287605
 20
6.506158394
 30
0.0
 10
5.6224501948
 20
6.5057109653
 30
0.0
 10
5.6225840864
 20
6.5054105973
 30
0.0
 10
5.6226447635
 20
6.5052641099
 30
0.0
  0
SPLINE
  5
327
100
AcDbEntity
  8
0
100
AcDbSpline
 62
7
  6
CONTINUOUS
 70
0
 71
3
 72
31
 73
27
 74
0
 42
0.0000001
 43
0.0000001
 44
0.0000000001
 40
0.0
 40
0.0
 40
0.0
 40
0.0
 40
0.0078169659
 40
0.0155259556
 40
0.0235162934
 40
0.0314092642
 40
0.0391867131
 40
0.0469347623
 40
0.0625308995
 40
0.0781975531
 40
0.0938352062
 40
0.1250630924
 40
0.1563149553
 40
0.1875661796
 40
0.218812402
 40
0.2500603629
 40
0.3125567169
 40
0.3750523905
 40
0.4375483075
 40
0.5000441564
 40
0.5625400326
 40
0.6250358963
 40
0.7500254566
 40
0.8750126326
 40
0.9375085428
 40
1.0
 40
1.0
 40
1.0
 40
1.0
 10
5.6371701878
 20
6.4685290306
 30
0.0
 10
5.6371797704
 20
6.4685302674
 30
0.0
 10
5.6371997431
 20
6.4685277216
 30
0.0
 10
5.6372246145
 20
6.4685118567
 30
0.0
 10
5.6372460945
 20
6.4684921557
 30
0.0
 10
5.6372674459
 20
6.4684721618
 30
0.0
 10
5.6372881294
 20
6.4684519088
 30
0.0
 10
5.6373149534
 20
6.4684243296
 30
0.0
 10
5.6373471692
 20
6.4683884276
 30
0.0
 10
5.6373844778
 20
6.4683440531
 30
0.0
 10
5.6374333366
 20
6.4682841585
 30
0.0
 10
5.6374927876
 20
6.4682080594
 30
0.0
 10
5.6375621271
 20
6.4681152372
 30
0.0
 10
5.6376301023
 20
6.468021386
 30
0.0
 10
5.6376969388
 20
6.4679267276
 30
0.0
 10
5.6377847588
 20
6.4677996179
 30
0.0
 10
5.6378924457
 20
6.4676392981
 30
0.0
 10
5.6380189744
 20
6.4674451364
 30
0.0
 10
5.6381431443
 20
6.4672494595
 30
0.0
 10
5.6382651563
 20
6.4670524306
 30
0.0
 10
5.6383851014
 20
6.4668541367
 30
0.0
 10
5.6385422725
 20
6.4665881012
 30
0.0
 10
5.6387334168
 20
6.4662524524
 30
0.0
 10
5.6389159602
 20
6.4659119884
 30
0.0
 10
5.6390536132
 20
6.4656353429
 30
0.0
 10
5.6391176021
 20
6.4654946436
 30
0.0
 10
5.6391473434
 20
6.4654233564
 30
0.0
  0
SPLINE
  5
328
100
AcDbEntity
  8
0
100
AcDbSpline
 62
7
  6
CONTINUOUS
 70
0
 71
3
 72
12
 73
8
 74
0
 42
0.0000001
 43
0.0000001
 44
0.0000000001
 40
0.0
 40
0.0
 40
0.0
 40
0.0
 40
0.096933845
 40
0.1790450368
 40
0.2877154924
 40
0.5880385434
 40
1.0
 40
1.0
 40
1.0
 40
1.0
 10
5.5590683969
 20
6.6384083052
 30
0.0
 10
5.5590715508
 20
6.6384091945
 30
0.0
 10
5.5590777448
 20
6.6384051222
 30
0.0
 10
5.5590837084
 20
6.638397938
 30
0.0
 10
5.5590931219
 20
6.6383840025
 30
0.0
 10
5.5591056733
 20
6.6383593297
 30
0.0
 10
5.5591153446
 20
6.6383372307
 30
0.0
 10
5.559120674
 20
6.6383243646
 30
0.0
  0
LINE
  5
329
100
AcDbEntity
  8
0
100
AcDbLine
 62
7
  6
CONTINUOUS
 10
5.571592388
 20
6.6078551301
 11
5.5720325954
 21
6.6071522303
  0
SPLINE
  5
32A
100
AcDbEntity
  8
0
100
AcDbSpline
 62
7
  6
CONTINUOUS
 70
0
 71
3
 72
19
 73
15
 74
0
 42
0.0000001
 43
0.0000001
 44
0.0000000001
 40
0.0
 40
0.0
 40
0.0
 40
0.0
 40
0.017007174
 40
0.0382932788
 40
0.066145986
 40
0.1014307419
 40
0.1443604584
 40
0.194826637
 40
0.2525306239
 40
0.3170418292
 40
0.4642615946
 40
0.6313349295
 40
0.8121516141
 40
1.0
 40
1.0
 40
1.0
 40
1.0
 10
5.5918583927
 20
6.558403744
 30
0.0
 10
5.5918691081
 20
6.5584081828
 30
0.0
 10
5.5918965349
 20
6.5584103566
 30
0.0
 10
5.591939348
 20
6.558393952
 30
0.0
 10
5.591987205
 20
6.5583614924
 30
0.0
 10
5.5920406837
 20
6.5583125272
 30
0.0
 10
5.5920996013
 20
6.5582473821
 30
0.0
 10
5.5921634618
 20
6.5581664354
 30
0.0
 10
5.5922316775
 20
6.5580703959
 30
0.0
 10
5.5923320484
 20
6.5579164412
 30
0.0
 10
5.5924622519
 20
6.5576931461
 30
0.0
 10
5.5926187064
 20
6.557393837
 30
0.0
 10
5.5927754517
 20
6.5570637257
 30
0.0
 10
5.5928754982
 20
6.5568330121
 30
0.0
 10
5.5929245224
 20
6.5567146573
 30
0.0
  0
SPLINE
  5
32B
100
AcDbEntity
  8
0
100
AcDbSpline
 62
7
  6
CONTINUOUS
 70
0
 71
3
 72
22
 73
18
 74
0
 42
0.0000001
 43
0.0000001
 44
0.0000000001
 40
0.0
 40
0.0
 40
0.0
 40
0.0
 40
0.0062479074
 40
0.0137734036
 40
0.023285072
 40
0.0351141222
 40
0.049398552
 40
0.0661800135
 40
0.1071412322
 40
0.1575512447
 40
0.2166215767
 40
0.2833379807
 40
0.3565112125
 40
0.5167990958
 40
0.6857541472
 40
0.8508915532
 40
1.0
 40
1.0
 40
1.0
 40
1.0
 10
5.6121293235
 20
6.5089337629
 30
0.0
 10
5.6121352702
 20
6.5089367522
 30
0.0
 10
5.6121502209
 20
6.5089398234
 30
0.0
 10
5.6121749184
 20
6.5089350074
 30
0.0
 10
5.6122031034
 20
6.5089223279
 30
0.0
 10
5.6122351032
 20
6.5089017543
 30
0.0
 10
5.6122709499
 20
6.5088733359
 30
0.0
 10
5.6123275627
 20
6.508821475
 30
0.0
 10
5.6124059684
 20
6.5087368396
 30
0.0
 10
5.6125073399
 20
6.5086126451
 30
0.0
 10
5.6126193357
 20
6.5084619518
 30
0.0
 10
5.6127398436
 20
6.5082875579
 30
0.0
 10
5.6129141574
 20
6.5080194322
 30
0.0
 10
5.6131346394
 20
6.5076516198
 30
0.0
 10
5.6133878624
 20
6.5071897012
 30
0.0
 10
5.6136182642
 20
6.5067292757
 30
0.0
 10
5.6137556627
 20
6.5064238353
 30
0.0
 10
5.613816449
 20
6.5062770841
 30
0.0
  0
LINE
  5
32C
100
AcDbEntity
  8
0
100
AcDbLine
 62
7
  6
CONTINUOUS
 10
5.6246612355
 20
6.4783507639
 11
5.6267283694
 21
6.4751049494
  0
SPLINE
  5
32D
100
AcDbEntity
  8
0
100
AcDbSpline
 62
7
  6
CONTINUOUS
 70
0
 71
3
 72
12
 73
8
 74
0
 42
0.0000001
 43
0.0000001
 44
0.0000000001
 40
0.0
 40
0.0
 40
0.0
 40
0.0
 40
0.0959166827
 40
0.1776398393
 40
0.2861311499
 40
0.5867835927
 40
1.0
 40
1.0
 40
1.0
 40
1.0
 10
5.5609026421
 20
6.6153660726
 30
0.0
 10
5.5609057372
 20
6.6153670291
 30
0.0
 10
5.5609119605
 20
6.6153630297
 30
0.0
 10
5.5609178724
 20
6.6153558953
 30
0.0
 10
5.5609272896
 20
6.6153419835
 30
0.0
 10
5.5609398377
 20
6.6153172859
 30
0.0
 10
5.5609495241
 20
6.6152951574
 30
0.0
 10
5.560954865
 20
6.6152822634
 30
0.0
  0
LINE
  5
32E
100
AcDbEntity
  8
0
100
AcDbLine
 62
7
  6
CONTINUOUS
 10
5.5702127227
 20
6.5925724734
 11
5.5706524567
 21
6.5918702071
  0
SPLINE
  5
32F
100
AcDbEntity
  8
0
100
AcDbSpline
 62
7
  6
CONTINUOUS
 70
0
 71
3
 72
19
 73
15
 74
0
 42
0.0000001
 43
0.0000001
 44
0.0000000001
 40
0.0
 40
0.0
 40
0.0
 40
0.0
 40
0.0170099394
 40
0.0382774939
 40
0.0660938404
 40
0.1013308897
 40
0.1442077198
 40
0.1946216333
 40
0.2522793655
 40
0.3167551107
 40
0.4639503196
 40
0.631071233
 40
0.812000597
 40
1.0
 40
1.0
 40
1.0
 40
1.0
 10
5.5852780094
 20
6.55567806
 30
0.0
 10
5.585288726
 20
6.5556824995
 30
0.0
 10
5.5853161355
 20
6.5556846948
 30
0.0
 10
5.5853589281
 20
6.5556683345
 30
0.0
 10
5.5854067331
 20
6.5556359251
 30
0.0
 10
5.5854601378
 20
6.555587021
 30
0.0
 10
5.585518966
 20
6.5555219397
 30
0.0
 10
5.5855827294
 20
6.555441053
 30
0.0
 10
5.5856508475
 20
6.5553450617
 30
0.0
 10
5.585751104
 20
6.5551911273
 30
0.0
 10
5.5858811966
 20
6.5549677892
 30
0.0
 10
5.5860375788
 20
6.5546683532
 30
0.0
 10
5.5861943319
 20
6.5543380268
 30
0.0
 10
5.5862944274
 20
6.5541071495
 30
0.0
 10
5.5863434891
 20
6.553988704
 30
0.0
  0
SPLINE
  5
330
100
AcDbEntity
  8
0
100
AcDbSpline
 62
7
  6
CONTINUOUS
 70
0
 71
3
 72
22
 73
18
 74
0
 42
0.0000001
 43
0.0000001
 44
0.0000000001
 40
0.0
 40
0.0
 40
0.0
 40
0.0
 40
0.0062929117
 40
0.0138844872
 40
0.0234657601
 40
0.0353594499
 40
0.0497003016
 40
0.0665281669
 40
0.107550902
 40
0.1579820341
 40
0.2170389233
 40
0.2837159987
 40
0.3568340558
 40
0.5170016097
 40
0.6858644779
 40
0.8509453198
 40
1.0
 40
1.0
 40
1.0
 40
1.0
 10
5.6003465317
 20
6.5187668445
 30
0.0
 10
5.6003525724
 20
6.5187697647
 30
0.0
 10
5.6003676833
 20
6.5187726536
 30
0.0
 10
5.6003925466
 20
6.5187676346
 30
0.0
 10
5.6004209079
 20
6.5187547645
 30
0.0
 10
5.6004530707
 20
6.5187340105
 30
0.0
 10
5.6004890618
 20
6.5187054233
 30
0.0
 10
5.6005458242
 20
6.5186533681
 30
0.0
 10
5.6006243668
 20
6.5185685361
 30
0.0
 10
5.6007258367
 20
6.5184441465
 30
0.0
 10
5.6008378572
 20
6.5182933103
 30
0.0
 10
5.6009583316
 20
6.5181188092
 30
0.0
 10
5.6011325452
 20
6.5178505603
 30
0.0
 10
5.6013528779
 20
6.5174825569
 30
0.0
 10
5.6016059514
 20
6.5170203627
 30
0.0
 10
5.6018362836
 20
6.516559645
 30
0.0
 10
5.6019737041
 20
6.5162540266
 30
0.0
 10
5.6020345213
 20
6.5161072009
 30
0.0
  0
LINE
  5
331
100
AcDbEntity
  8
0
100
AcDbLine
 62
7
  6
CONTINUOUS
 10
5.6096618391
 20
6.4959461905
 11
5.6117321123
 21
6.4926951443
  0
SPLINE
  5
332
100
AcDbEntity
  8
0
100
AcDbSpline
 62
7
  6
CONTINUOUS
 70
0
 71
3
 72
20
 73
16
 74
0
 42
0.0000001
 43
0.0000001
 44
0.0000000001
 40
0.0
 40
0.0
 40
0.0
 40
0.0
 40
0.1294311228
 40
0.2564189856
 40
0.3815435272
 40
0.4436017783
 40
0.5054187373
 40
0.5670701919
 40
0.6286319346
 40
0.6901794848
 40
0.7517878134
 40
0.8135310676
 40
0.8754660143
 40
0.9376093501
 40
1.0
 40
1.0
 40
1.0
 40
1.0
 10
5.884572136
 20
5.9851861149
 30
0.0
 10
5.8821364897
 20
5.9914507921
 30
0.0
 10
5.8776879344
 20
6.0040128902
 30
0.0
 10
5.8722787427
 20
6.0230877131
 30
0.0
 10
5.8688690624
 20
6.0390563524
 30
0.0
 10
5.8668114044
 20
6.0518244612
 30
0.0
 10
5.8656007011
 20
6.0613846369
 30
0.0
 10
5.8647176692
 20
6.0709546298
 30
0.0
 10
5.8641613312
 20
6.0805351722
 30
0.0
 10
5.863930712
 20
6.0901268224
 30
0.0
 10
5.8640250275
 20
6.099730211
 30
0.0
 10
5.8644426544
 20
6.1093450093
 30
0.0
 10
5.865184635
 20
6.1189684358
 30
0.0
 10
5.8662996826
 20
6.1285900876
 30
0.0
 10
5.8673204098
 20
6.1349789045
 30
0.0
 10
5.8679074453
 20
6.1381652948
 30
0.0
  0
SPLINE
  5
333
100
AcDbEntity
  8
0
100
AcDbSpline
 62
7
  6
CONTINUOUS
 70
0
 71
3
 72
20
 73
16
 74
0
 42
0.0000001
 43
0.0000001
 44
0.0000000001
 40
0.0
 40
0.0
 40
0.0
 40
0.0
 40
0.1294311228
 40
0.2564189856
 40
0.3815435272
 40
0.4436017783
 40
0.5054187373
 40
0.5670701919
 40
0.6286319346
 40
0.6901794848
 40
0.7517878134
 40
0.8135310676
 40
0.8754660143
 40
0.9376093501
 40
1.0
 40
1.0
 40
1.0
 40
1.0
 10
5.6417457909
 20
5.9851861149
 30
0.0
 10
5.6441814373
 20
5.9914507921
 30
0.0
 10
5.6486299926
 20
6.0040128902
 30
0.0
 10
5.6540391843
 20
6.0230877131
 30
0.0
 10
5.6574488646
 20
6.0390563524
 30
0.0
 10
5.6595065225
 20
6.0518244612
 30
0.0
 10
5.6607172258
 20
6.0613846369
 30
0.0
 10
5.6616002578
 20
6.0709546298
 30
0.0
 10
5.6621565958
 20
6.0805351722
 30
0.0
 10
5.662387215
 20
6.0901268224
 30
0.0
 10
5.6622928995
 20
6.099730211
 30
0.0
 10
5.6618752726
 20
6.1093450093
 30
0.0
 10
5.6611332919
 20
6.1189684358
 30
0.0
 10
5.6600182444
 20
6.1285900876
 30
0.0
 10
5.6589975172
 20
6.1349789045
 30
0.0
 10
5.6584104817
 20
6.1381652948
 30
0.0
  0
SPLINE
  5
334
100
AcDbEntity
  8
0
100
AcDbSpline
 62
7
  6
CONTINUOUS
 70
0
 71
3
 72
11
 73
7
 74
0
 42
0.0000001
 43
0.0000001
 44
0.0000000001
 40
0.0
 40
0.0
 40
0.0
 40
0.0
 40
0.4104746161
 40
0.7100799192
 40
0.9012535915
 40
1.0
 40
1.0
 40
1.0
 40
1.0
 10
5.6599350266
 20
6.4350197585
 30
0.0
 10
5.6599377449
 20
6.4350131959
 30
0.0
 10
5.6599423001
 20
6.4350018442
 30
0.0
 10
5.6599469113
 20
6.4349867051
 30
0.0
 10
5.6599490716
 20
6.4349771436
 30
0.0
 10
5.659948035
 20
6.4349713037
 30
0.0
 10
5.65994659
 20
6.4349703916
 30
0.0
  0
LINE
  5
335
100
AcDbEntity
  8
0
100
AcDbLine
 62
7
  6
CONTINUOUS
 10
5.6494695944
 20
6.4602855486
 11
5.6495691741
 21
6.459856734
  0
LINE
  5
336
100
AcDbEntity
  8
0
100
AcDbLine
 62
7
  6
CONTINUOUS
 10
5.6306115365
 20
6.5058129289
 11
5.6308653965
 21
6.5047041837
  0
SPLINE
  5
337
100
AcDbEntity
  8
0
100
AcDbSpline
 62
7
  6
CONTINUOUS
 70
0
 71
3
 72
19
 73
15
 74
0
 42
0.0000001
 43
0.0000001
 44
0.0000000001
 40
0.0
 40
0.0
 40
0.0
 40
0.0
 40
0.18772835
 40
0.3684532032
 40
0.5354861944
 40
0.6827233781
 40
0.7472612931
 40
0.8050014784
 40
0.8555100427
 40
0.8984829838
 40
0.9338066936
 40
0.9616902739
 40
0.9829939295
 40
1.0
 40
1.0
 40
1.0
 40
1.0
 10
5.6070959226
 20
6.5625846434
 30
0.0
 10
5.6071449186
 20
6.5624663565
 30
0.0
 10
5.6072372453
 20
6.5622325839
 30
0.0
 10
5.6073596894
 20
6.5618884297
 30
0.0
 10
5.6074605458
 20
6.5615661655
 30
0.0
 10
5.6075262384
 20
6.5613161488
 30
0.0
 10
5.6075640343
 20
6.5611362256
 30
0.0
 10
5.6075836533
 20
6.5610199897
 30
0.0
 10
5.6075956895
 20
6.5609174999
 30
0.0
 10
5.6076000565
 20
6.560829682
 30
0.0
 10
5.6075968383
 20
6.5607571627
 30
0.0
 10
5.6075859342
 20
6.5607003101
 30
0.0
 10
5.6075672672
 20
6.5606583977
 30
0.0
 10
5.6075463358
 20
6.560640518
 30
0.0
 10
5.6075356206
 20
6.5606360791
 30
0.0
  0
SPLINE
  5
338
100
AcDbEntity
  8
0
100
AcDbSpline
 62
7
  6
CONTINUOUS
 70
0
 71
3
 72
21
 73
17
 74
0
 42
0.0000001
 43
0.0000001
 44
0.0000000001
 40
0.0
 40
0.0
 40
0.0
 40
0.0
 40
0.1624910075
 40
0.3334291552
 40
0.5021840514
 40
0.6582763956
 40
0.7285309702
 40
0.7921375949
 40
0.8481641379
 40
0.8958393656
 40
0.9346069704
 40
0.9642395596
 40
0.9757465331
 40
0.9852466984
 40
0.9931085885
 40
1.0
 40
1.0
 40
1.0
 40
1.0
 10
5.5835803083
 20
6.6193563578
 30
0.0
 10
5.5836404202
 20
6.6192112349
 30
0.0
 10
5.5837564469
 20
6.6189103873
 30
0.0
 10
5.5839131598
 20
6.6184507981
 30
0.0
 10
5.5840503226
 20
6.6179914482
 30
0.0
 10
5.5841443051
 20
6.6176210781
 30
0.0
 10
5.5842020314
 20
6.6173467524
 30
0.0
 10
5.5842340514
 20
6.6171659593
 30
0.0
 10
5.5842558897
 20
6.6170056599
 30
0.0
 10
5.5842673266
 20
6.6168682936
 30
0.0
 10
5.584268227
 20
6.6167560207
 30
0.0
 10
5.5842601095
 20
6.6166787679
 30
0.0
 10
5.5842466035
 20
6.6166315656
 30
0.0
 10
5.5842345909
 20
6.6166061844
 30
0.0
 10
5.5842196153
 20
6.6165877229
 30
0.0
 10
5.5842069398
 20
6.6165802954
 30
0.0
 10
5.5842006084
 20
6.6165782232
 30
0.0
  0
SPLINE
  5
339
100
AcDbEntity
  8
0
100
AcDbSpline
 62
7
  6
CONTINUOUS
 70
0
 71
3
 72
21
 73
17
 74
0
 42
0.0000001
 43
0.0000001
 44
0.0000000001
 40
0.0
 40
0.0
 40
0.0
 40
0.0
 40
0.1255085042
 40
0.2801049765
 40
0.449360673
 40
0.6173938943
 40
0.7684485317
 40
0.8331150076
 40
0.8884883684
 40
0.9122962732
 40
0.9333450337
 40
0.9515355459
 40
0.9667993152
 40
0.9791167484
 40
0.9885496349
 40
1.0
 40
1.0
 40
1.0
 40
1.0
 10
5.5647222496
 20
6.6648837378
 30
0.0
 10
5.5647791584
 20
6.6647463477
 30
0.0
 10
5.5648925733
 20
6.664434162
 30
0.0
 10
5.5650526844
 20
6.6639263071
 30
0.0
 10
5.565208499
 20
6.6633645713
 30
0.0
 10
5.5653449878
 20
6.6628021937
 30
0.0
 10
5.5654364388
 20
6.6623566183
 30
0.0
 10
5.5654885464
 20
6.662039626
 30
0.0
 10
5.5655106211
 20
6.6618705715
 30
0.0
 10
5.5655215731
 20
6.6617522973
 30
0.0
 10
5.5655262062
 20
6.6616777439
 30
0.0
 10
5.5655276299
 20
6.6616130995
 30
0.0
 10
5.5655260513
 20
6.6615590312
 30
0.0
 10
5.56552102
 20
6.6615148963
 30
0.0
 10
5.5655128317
 20
6.6614778363
 30
0.0
 10
5.5654983663
 20
6.6614518098
 30
0.0
 10
5.5654852408
 20
6.6614483769
 30
0.0
  0
LINE
  5
33A
100
AcDbEntity
  8
0
100
AcDbLine
 62
7
  6
CONTINUOUS
 10
5.5542568161
 20
6.6901495274
 11
5.5550986971
 21
6.6863526189
  0
SPLINE
  5
33B
100
AcDbEntity
  8
0
100
AcDbSpline
 62
7
  6
CONTINUOUS
 70
0
 71
3
 72
12
 73
8
 74
0
 42
0.0000001
 43
0.0000001
 44
0.0000000001
 40
0.0
 40
0.0
 40
0.0
 40
0.0
 40
0.4119614774
 40
0.7122845218
 40
0.82095497
 40
0.9030661548
 40
1.0
 40
1.0
 40
1.0
 40
1.0
 10
5.6267283694
 20
6.4751049494
 30
0.0
 10
5.6267336987
 20
6.4750920832
 30
0.0
 10
5.6267424864
 20
6.4750696182
 30
0.0
 10
5.6267510575
 20
6.4750432967
 30
0.0
 10
5.6267542551
 20
6.4750267865
 30
0.0
 10
5.6267551182
 20
6.4750174896
 30
0.0
 10
5.6267536178
 20
6.4750102302
 30
0.0
 10
5.6267507589
 20
6.4750086289
 30
0.0
  0
LINE
  5
33C
100
AcDbEntity
  8
0
100
AcDbLine
 62
7
  6
CONTINUOUS
 10
5.613816449
 20
6.5062770841
 11
5.6140022007
 21
6.5054687852
  0
SPLINE
  5
33D
100
AcDbEntity
  8
0
100
AcDbSpline
 62
7
  6
CONTINUOUS
 70
0
 71
3
 72
19
 73
15
 74
0
 42
0.0000001
 43
0.0000001
 44
0.0000000001
 40
0.0
 40
0.0
 40
0.0
 40
0.0
 40
0.1878483828
 40
0.3686650509
 40
0.5357384052
 40
0.6829581665
 40
0.7474693778
 40
0.8051733683
 40
0.8556395454
 40
0.8985692601
 40
0.9338540179
 40
0.9617067252
 40
0.9829928277
 40
1.0
 40
1.0
 40
1.0
 40
1.0
 10
5.5929245224
 20
6.5567146573
 30
0.0
 10
5.5929735466
 20
6.5565963024
 30
0.0
 10
5.5930659422
 20
6.5563624197
 30
0.0
 10
5.5931885304
 20
6.5560181601
 30
0.0
 10
5.5932895439
 20
6.5556958866
 30
0.0
 10
5.5933553696
 20
6.5554459253
 30
0.0
 10
5.5933932591
 20
6.55526609
 30
0.0
 10
5.5934129334
 20
6.5551499439
 30
0.0
 10
5.5934250152
 20
6.5550475499
 30
0.0
 10
5.5934294187
 20
6.5549598243
 30
0.0
 10
5.5934262272
 20
6.5548873855
 30
0.0
 10
5.5934153396
 20
6.5548305931
 30
0.0
 10
5.5933966659
 20
6.5547887199
 30
0.0
 10
5.5933757352
 20
6.5547708632
 30
0.0
 10
5.5933650195
 20
6.5547664251
 30
0.0
  0
SPLINE
  5
33E
100
AcDbEntity
  8
0
100
AcDbSpline
 62
7
  6
CONTINUOUS
 70
0
 71
3
 72
22
 73
18
 74
0
 42
0.0000001
 43
0.0000001
 44
0.0000000001
 40
0.0
 40
0.0
 40
0.0
 40
0.0
 40
0.1491084389
 40
0.3142458482
 40
0.4832008977
 40
0.6434887853
 40
0.7166620184
 40
0.783378425
 40
0.8424487509
 40
0.8928587631
 40
0.933819986
 40
0.9506014478
 40
0.964885877
 40
0.9767149272
 40
0.9862265956
 40
0.9937520924
 40
1.0
 40
1.0
 40
1.0
 40
1.0
 10
5.5720325954
 20
6.6071522303
 30
0.0
 10
5.5720933817
 20
6.6070054791
 30
0.0
 10
5.5722122053
 20
6.6066923447
 30
0.0
 10
5.5723748566
 20
6.6062038561
 30
0.0
 10
5.5725224266
 20
6.6056981746
 30
0.0
 10
5.572626605
 20
6.6052821876
 30
0.0
 10
5.57269294
 20
6.6049693356
 30
0.0
 10
5.5727310432
 20
6.6047608086
 30
0.0
 10
5.5727584064
 20
6.6045750593
 30
0.0
 10
5.5727745447
 20
6.60441556
 30
0.0
 10
5.5727789498
 20
6.6043002726
 30
0.0
 10
5.5727755897
 20
6.6042235701
 30
0.0
 10
5.5727703371
 20
6.6041781278
 30
0.0
 10
5.5727622575
 20
6.6041409529
 30
0.0
 10
5.5727512935
 20
6.6041120572
 30
0.0
 10
5.5727372352
 20
6.604091188
 30
0.0
 10
5.5727244918
 20
6.604082788
 30
0.0
 10
5.5727181731
 20
6.6040806968
 30
0.0
  0
LINE
  5
33F
100
AcDbEntity
  8
0
100
AcDbLine
 62
7
  6
CONTINUOUS
 10
5.559120674
 20
6.6383243646
 11
5.559954127
 21
6.6345675427
  0
LINE
  5
340
100
AcDbEntity
  8
0
100
AcDbLine
 62
7
  6
CONTINUOUS
 10
5.5621216299
 20
6.5934194607
 11
5.5629781391
 21
6.5895559974
  0
LINE
  5
341
100
AcDbEntity
  8
0
100
AcDbLine
 62
7
  6
CONTINUOUS
 10
5.594971566
 20
6.5123170322
 11
5.5970978036
 21
6.5089795077
  0
LINE
  5
342
100
AcDbEntity
  8
0
100
AcDbLine
 62
7
  6
CONTINUOUS
 10
5.5919756619
 20
6.5213454527
 11
5.592108572
 21
6.5207721986
  0
SPLINE
  5
343
100
AcDbEntity
  8
0
100
AcDbSpline
 62
7
  6
CONTINUOUS
 70
0
 71
3
 72
19
 73
15
 74
0
 42
0.0000001
 43
0.0000001
 44
0.0000000001
 40
0.0
 40
0.0
 40
0.0
 40
0.0
 40
0.1882154293
 40
0.3693093132
 40
0.5365063641
 40
0.6836774135
 40
0.7481074395
 40
0.8057027142
 40
0.8560435036
 40
0.8988434805
 40
0.9340076757
 40
0.9617639645
 40
0.9829946981
 40
1.0
 40
1.0
 40
1.0
 40
1.0
 10
5.5796097173
 20
6.5511994844
 30
0.0
 10
5.5796588266
 20
6.551080924
 30
0.0
 10
5.5797514291
 20
6.5508467112
 30
0.0
 10
5.5798744514
 20
6.5505021368
 30
0.0
 10
5.5799759384
 20
6.5501798392
 30
0.0
 10
5.580042173
 20
6.5499300498
 30
0.0
 10
5.5800803503
 20
6.5497504825
 30
0.0
 10
5.580100199
 20
6.5496346102
 30
0.0
 10
5.5801124299
 20
6.5495325061
 30
0.0
 10
5.5801169554
 20
6.5494450618
 30
0.0
 10
5.5801138541
 20
6.5493728705
 30
0.0
 10
5.5801030252
 20
6.5493162665
 30
0.0
 10
5.5800843523
 20
6.5492745106
 30
0.0
 10
5.5800634295
 20
6.5492567251
 30
0.0
 10
5.5800527172
 20
6.5492522887
 30
0.0
  0
SPLINE
  5
344
100
AcDbEntity
  8
0
100
AcDbSpline
 62
7
  6
CONTINUOUS
 70
0
 71
3
 72
22
 73
18
 74
0
 42
0.0000001
 43
0.0000001
 44
0.0000000001
 40
0.0
 40
0.0
 40
0.0
 40
0.0
 40
0.1357546447
 40
0.2948928684
 40
0.4637722317
 40
0.6280024195
 40
0.7040100727
 40
0.7737979916
 40
0.8359327729
 40
0.8637339115
 40
0.8891719193
 40
0.9324921228
 40
0.9502042952
 40
0.9652118499
 40
0.9775173951
 40
0.9872088627
 40
1.0
 40
1.0
 40
1.0
 40
1.0
 10
5.5672437723
 20
6.581053516
 30
0.0
 10
5.5673031452
 20
6.5809101773
 30
0.0
 10
5.567420782
 20
6.5805941346
 30
0.0
 10
5.5675847697
 20
6.5800900148
 30
0.0
 10
5.5677395374
 20
6.5795490284
 30
0.0
 10
5.5678522439
 20
6.5790951194
 30
0.0
 10
5.5679264863
 20
6.5787486387
 30
0.0
 10
5.5679705062
 20
6.5785150883
 30
0.0
 10
5.5679989361
 20
6.5783347332
 30
0.0
 10
5.5680154854
 20
6.5782039062
 30
0.0
 10
5.5680267025
 20
6.5780941219
 30
0.0
 10
5.568033022
 20
6.5779954154
 30
0.0
 10
5.5680324523
 20
6.5779084328
 30
0.0
 10
5.5680290641
 20
6.5778571465
 30
0.0
 10
5.5680224086
 20
6.5778150023
 30
0.0
 10
5.5680118519
 20
6.5777775259
 30
0.0
 10
5.5679958768
 20
6.5777527428
 30
0.0
 10
5.5679820996
 20
6.5777478552
 30
0.0
  0
SPLINE
  5
345
100
AcDbEntity
  8
0
100
AcDbSpline
 62
7
  6
CONTINUOUS
 70
0
 71
3
 72
12
 73
8
 74
0
 42
0.0000001
 43
0.0000001
 44
0.0000000001
 40
0.0
 40
0.0
 40
0.0
 40
0.0
 40
0.4132164284
 40
0.713868865
 40
0.8223601679
 40
0.9040833173
 40
1.0
 40
1.0
 40
1.0
 40
1.0
 10
5.6117321123
 20
6.4926951443
 30
0.0
 10
5.6117374531
 20
6.4926822503
 30
0.0
 10
5.6117462511
 20
6.4926597537
 30
0.0
 10
5.6117548421
 20
6.4926334171
 30
0.0
 10
5.6117580202
 20
6.492616921
 30
0.0
 10
5.6117588847
 20
6.4926076958
 30
0.0
 10
5.6117573122
 20
6.4926004673
 30
0.0
 10
5.6117544472
 20
6.4925989551
 30
0.0
  0
LINE
  5
346
100
AcDbEntity
  8
0
100
AcDbLine
 62
7
  6
CONTINUOUS
 10
5.6020345213
 20
6.5161072009
 11
5.6022201598
 21
6.5152996848
  0
SPLINE
  5
347
100
AcDbEntity
  8
0
100
AcDbSpline
 62
7
  6
CONTINUOUS
 70
0
 71
3
 72
19
 73
15
 74
0
 42
0.0000001
 43
0.0000001
 44
0.0000000001
 40
0.0
 40
0.0
 40
0.0
 40
0.0
 40
0.1879994004
 40
0.3689287476
 40
0.5360496806
 40
0.6832448831
 40
0.7477206355
 40
0.8053783721
 40
0.8557922838
 40
0.8986691119
 40
0.9339061638
 40
0.9617225108
 40
0.9829900627
 40
1.0
 40
1.0
 40
1.0
 40
1.0
 10
5.5863434891
 20
6.553988704
 30
0.0
 10
5.5863925509
 20
6.5538702586
 30
0.0
 10
5.5864850276
 20
6.5536362255
 30
0.0
 10
5.5866077624
 20
6.5532918082
 30
0.0
 10
5.5867089167
 20
6.5529694961
 30
0.0
 10
5.5867748512
 20
6.5527195828
 30
0.0
 10
5.5868128072
 20
6.5525398428
 30
0.0
 10
5.5868325165
 20
6.5524237999
 30
0.0
 10
5.5868446246
 20
6.5523215168
 30
0.0
 10
5.5868490462
 20
6.5522338996
 30
0.0
 10
5.5868458638
 20
6.5521615563
 30
0.0
 10
5.5868349775
 20
6.5521048362
 30
0.0
 10
5.5868162869
 20
6.5520630088
 30
0.0
 10
5.5867953532
 20
6.5520451796
 30
0.0
 10
5.5867846363
 20
6.5520407411
 30
0.0
  0
SPLINE
  5
348
100
AcDbEntity
  8
0
100
AcDbSpline
 62
7
  6
CONTINUOUS
 70
0
 71
3
 72
22
 73
18
 74
0
 42
0.0000001
 43
0.0000001
 44
0.0000000001
 40
0.0
 40
0.0
 40
0.0
 40
0.0
 40
0.1490546728
 40
0.3141355185
 40
0.4829983832
 40
0.6431659426
 40
0.7162840014
 40
0.7829610807
 40
0.842017963
 40
0.8924490937
 40
0.9334718328
 40
0.9502996983
 40
0.9646405492
 40
0.9765342391
 40
0.9861155119
 40
0.993707088
 40
1.0
 40
1.0
 40
1.0
 40
1.0
 10
5.5706524567
 20
6.5918702071
 30
0.0
 10
5.5707132738
 20
6.5917233814
 30
0.0
 10
5.5708322077
 20
6.5914101055
 30
0.0
 10
5.5709951148
 20
6.5909214595
 30
0.0
 10
5.5711429855
 20
6.5904156889
 30
0.0
 10
5.5712474045
 20
6.5899996724
 30
0.0
 10
5.5713138975
 20
6.5896868041
 30
0.0
 10
5.5713521001
 20
6.589478225
 30
0.0
 10
5.5713795469
 20
6.5892923572
 30
0.0
 10
5.5713957536
 20
6.5891326505
 30
0.0
 10
5.5714002009
 20
6.5890171271
 30
0.0
 10
5.5713968724
 20
6.5889401815
 30
0.0
 10
5.5713916371
 20
6.5888945177
 30
0.0
 10
5.5713835698
 20
6.5888570999
 30
0.0
 10
5.5713726159
 20
6.5888279449
 30
0.0
 10
5.5713585838
 20
6.5888068149
 30
0.0
 10
5.571345856
 20
6.5887981726
 30
0.0
 10
5.5713395197
 20
6.5887959661
 30
0.0
  0
LINE
  5
349
100
AcDbEntity
  8
0
100
AcDbLine
 62
7
  6
CONTINUOUS
 10
5.560954865
 20
6.6152822634
 11
5.5617897976
 21
6.6115195223
  0
LINE
  5
34A
100
AcDbEntity
  8
0
100
AcDbLine
 62
7
  6
CONTINUOUS
 10
5.5550159303
 20
6.6685345529
 11
5.5558683092
 21
6.6646897202
  0
LINE
  5
34B
100
AcDbEntity
  8
0
100
AcDbLine
 62
7
  6
CONTINUOUS
 10
5.6430717219
 20
6.4541620585
 11
5.6451877064
 21
6.4508406283
  0
LINE
  5
34C
100
AcDbEntity
  8
0
100
AcDbLine
 62
7
  6
CONTINUOUS
 10
5.6391473434
 20
6.4654233564
 11
5.6392085908
 21
6.4651597749
  0
LINE
  5
34D
100
AcDbEntity
  8
0
100
AcDbLine
 62
7
  6
CONTINUOUS
 10
5.6226447635
 20
6.5052641099
 11
5.6228694843
 21
6.5042841768
  0
SPLINE
  5
34E
100
AcDbEntity
  8
0
100
AcDbSpline
 62
7
  6
CONTINUOUS
 70
0
 71
3
 72
19
 73
15
 74
0
 42
0.0000001
 43
0.0000001
 44
0.0000000001
 40
0.0
 40
0.0
 40
0.0
 40
0.0
 40
0.1877594366
 40
0.3685081972
 40
0.5355529573
 40
0.6827872796
 40
0.747318946
 40
0.8050503018
 40
0.8555481757
 40
0.89850961
 40
0.9338222829
 40
0.9616966163
 40
0.982994477
 40
1.0
 40
1.0
 40
1.0
 40
1.0
 10
5.6001018197
 20
6.5596875911
 30
0.0
 10
5.600150822
 20
6.559569289
 30
0.0
 10
5.6002431686
 20
6.5593354941
 30
0.0
 10
5.6003656648
 20
6.5589913247
 30
0.0
 10
5.6004665862
 20
6.5586690707
 30
0.0
 10
5.6005323399
 20
6.5584190782
 30
0.0
 10
5.6005701823
 20
6.5582391842
 30
0.0
 10
5.6005898313
 20
6.5581229756
 30
0.0
 10
5.6006018941
 20
6.5580205141
 30
0.0
 10
5.6006062837
 20
6.5579327232
 30
0.0
 10
5.6006030831
 20
6.5578602274
 30
0.0
 10
5.6005921916
 20
6.5578033925
 30
0.0
 10
5.6005735292
 20
6.5577614903
 30
0.0
 10
5.6005525995
 20
6.5577436177
 30
0.0
 10
5.600541885
 20
6.5577391789
 30
0.0
  0
SPLINE
  5
34F
100
AcDbEntity
  8
0
100
AcDbSpline
 62
7
  6
CONTINUOUS
 70
0
 71
3
 72
21
 73
17
 74
0
 42
0.0000001
 43
0.0000001
 44
0.0000000001
 40
0.0
 40
0.0
 40
0.0
 40
0.0
 40
0.1571358213
 40
0.3257767467
 40
0.4946387674
 40
0.6524296617
 40
0.7238572899
 40
0.7887097442
 40
0.8459518607
 40
0.8947146868
 40
0.9343489494
 40
0.9645308995
 40
0.9761562668
 40
0.9856512999
 40
0.9933695715
 40
1.0
 40
1.0
 40
1.0
 40
1.0
 10
5.5775588755
 20
6.6141110722
 30
0.0
 10
5.5776195525
 20
6.6139645849
 30
0.0
 10
5.5777372691
 20
6.6136575169
 30
0.0
 10
5.5778970713
 20
6.6131845594
 30
0.0
 10
5.5780389268
 20
6.6127052184
 30
0.0
 10
5.5781372866
 20
6.6123156034
 30
0.0
 10
5.5781985898
 20
6.6120252398
 30
0.0
 10
5.5782330899
 20
6.6118329981
 30
0.0
 10
5.5782571273
 20
6.6116622388
 30
0.0
 10
5.5782704303
 20
6.6115157734
 30
0.0
 10
5.5782728087
 20
6.6113960875
 30
0.0
 10
5.5782657217
 20
6.611313799
 30
0.0
 10
5.578252772
 20
6.6112635343
 30
0.0
 10
5.5782411011
 20
6.6112366931
 30
0.0
 10
5.5782263817
 20
6.6112172308
 30
0.0
 10
5.5782136169
 20
6.611209413
 30
0.0
 10
5.5782072604
 20
6.611207326
 30
0.0
  0
SPLINE
  5
350
100
AcDbEntity
  8
0
100
AcDbSpline
 62
7
  6
CONTINUOUS
 70
0
 71
3
 72
31
 73
27
 74
0
 42
0.0000001
 43
0.0000001
 44
0.0000000001
 40
0.0
 40
0.0
 40
0.0
 40
0.0
 40
0.062491456
 40
0.1249873646
 40
0.2499745385
 40
0.3749640965
 40
0.4374599592
 40
0.4999558341
 40
0.562451682
 40
0.6249475978
 40
0.6874432701
 40
0.7499396232
 40
0.7811875832
 40
0.8124338052
 40
0.8436850299
 40
0.8749368891
 40
0.9061647767
 40
0.9218024371
 40
0.9374690854
 40
0.9530652036
 40
0.9608132554
 40
0.9685907283
 40
0.9764837313
 40
0.9844740362
 40
0.9921829865
 40
1.0
 40
1.0
 40
1.0
 40
1.0
 10
5.5610562946
 20
6.6539518254
 30
0.0
 10
5.561085672
 20
6.6538803874
 30
0.0
 10
5.5611399144
 20
6.653735651
 30
0.0
 10
5.561238197
 20
6.6534426977
 30
0.0
 10
5.5613498638
 20
6.6530728757
 30
0.0
 10
5.5614520438
 20
6.6527003768
 30
0.0
 10
5.5615290226
 20
6.6524011245
 30
0.0
 10
5.5615844236
 20
6.6521760956
 30
0.0
 10
5.5616374685
 20
6.6519504996
 30
0.0
 10
5.5616880316
 20
6.6517243337
 30
0.0
 10
5.5617358553
 20
6.6514975714
 30
0.0
 10
5.5617730725
 20
6.651308062
 30
0.0
 10
5.5618008544
 20
6.6511560838
 30
0.0
 10
5.5618205275
 20
6.6510418896
 30
0.0
 10
5.5618388246
 20
6.6509274612
 30
0.0
 10
5.5618554294
 20
6.6508127955
 30
0.0
 10
5.5618672014
 20
6.6507169471
 30
0.0
 10
5.5618750049
 20
6.6506400469
 30
0.0
 10
5.5618800012
 20
6.6505822882
 30
0.0
 10
5.5618826077
 20
6.6505341217
 30
0.0
 10
5.5618831417
 20
6.6504956528
 30
0.0
 10
5.5618828373
 20
6.6504667062
 30
0.0
 10
5.5618818778
 20
6.6504374707
 30
0.0
 10
5.5618806198
 20
6.6504083513
 30
0.0
 10
5.5618742505
 20
6.6503795466
 30
0.0
 10
5.5618619282
 20
6.6503636237
 30
0.0
 10
5.5618542778
 20
6.6503577219
 30
0.0
  0
LINE
  5
351
100
AcDbEntity
  8
0
100
AcDbLine
 62
7
  6
CONTINUOUS
 10
5.6404239173
 20
5.6759253111
 11
5.6401274669
 21
5.674755204
  0
LINE
  5
352
100
AcDbEntity
  8
0
100
AcDbLine
 62
7
  6
CONTINUOUS
 10
5.6404240252
 20
5.8039982954
 11
5.6401274773
 21
5.8051685898
  0
LINE
  5
353
100
AcDbEntity
  8
0
100
AcDbLine
 62
7
  6
CONTINUOUS
 10
5.6495691741
 20
6.459856734
 11
5.6491533986
 21
6.4602730155
  0
LINE
  5
354
100
AcDbEntity
  8
0
100
AcDbLine
 62
7
  6
CONTINUOUS
 10
5.6491533986
 20
6.4602730155
 11
5.6476779466
 21
6.4628244942
  0
LINE
  5
355
100
AcDbEntity
  8
0
100
AcDbLine
 62
7
  6
CONTINUOUS
 10
5.65994659
 20
6.4349703916
 11
5.6596602767
 21
6.4353350431
  0
LINE
  5
356
100
AcDbEntity
  8
0
100
AcDbLine
 62
7
  6
CONTINUOUS
 10
5.6596602767
 20
6.4353350431
 11
5.6579769467
 21
6.4380150113
  0
LINE
  5
357
100
AcDbEntity
  8
0
100
AcDbLine
 62
7
  6
CONTINUOUS
 10
5.6579769467
 20
6.4380150113
 11
5.6578568742
 21
6.4382503874
  0
SPLINE
  5
358
100
AcDbEntity
  8
0
100
AcDbSpline
 62
7
  6
CONTINUOUS
 70
0
 71
3
 72
12
 73
8
 74
0
 42
0.0000001
 43
0.0000001
 44
0.0000000001
 40
0.0
 40
0.0
 40
0.0
 40
0.0
 40
0.0986203926
 40
0.1806448646
 40
0.2890279027
 40
0.5886249135
 40
1.0
 40
1.0
 40
1.0
 40
1.0
 10
5.5617897976
 20
6.6115195223
 30
0.0
 10
5.5617866003
 20
6.6115185344
 30
0.0
 10
5.561780156
 20
6.6115223358
 30
0.0
 10
5.5617740111
 20
6.6115295205
 30
0.0
 10
5.5617644201
 20
6.6115433465
 30
0.0
 10
5.5617517299
 20
6.6115680317
 30
0.0
 10
5.5617420162
 20
6.6115901568
 30
0.0
 10
5.5617366743
 20
6.6116030534
 30
0.0
  0
LINE
  5
359
100
AcDbEntity
  8
0
100
AcDbLine
 62
7
  6
CONTINUOUS
 10
5.5713395197
 20
6.5887959661
 11
5.5708936731
 21
6.5894961037
  0
LINE
  5
35A
100
AcDbEntity
  8
0
100
AcDbLine
 62
7
  6
CONTINUOUS
 10
5.5679820996
 20
6.5777478552
 11
5.5676634683
 21
6.578244613
  0
SPLINE
  5
35B
100
AcDbEntity
  8
0
100
AcDbSpline
 62
7
  6
CONTINUOUS
 70
0
 71
3
 72
19
 73
15
 74
0
 42
0.0000001
 43
0.0000001
 44
0.0000000001
 40
0.0
 40
0.0
 40
0.0
 40
0.0
 40
0.0170386387
 40
0.0383901381
 40
0.0663053104
 40
0.101634458
 40
0.1445869884
 40
0.1950557819
 40
0.2527457838
 40
0.3172305855
 40
0.4643803739
 40
0.6313910749
 40
0.8121696337
 40
1.0
 40
1.0
 40
1.0
 40
1.0
 10
5.5867846363
 20
6.5520407411
 30
0.0
 10
5.5867738896
 20
6.5520362902
 30
0.0
 10
5.5867463845
 20
6.5520340863
 30
0.0
 10
5.5867033547
 20
6.5520503138
 30
0.0
 10
5.5866551217
 20
6.5520825334
 30
0.0
 10
5.586601147
 20
6.5521311942
 30
0.0
 10
5.5865416285
 20
6.5521959807
 30
0.0
 10
5.5864770817
 20
6.5522765293
 30
0.0
 10
5.5864081153
 20
6.5523721517
 30
0.0
 10
5.586306643
 20
6.552525523
 30
0.0
 10
5.5861750567
 20
6.5527482008
 30
0.0
 10
5.5860171896
 20
6.5530470414
 30
0.0
 10
5.5858594259
 20
6.5533770075
 30
0.0
 10
5.5857590784
 20
6.5536078408
 30
0.0
 10
5.5857100079
 20
6.5537263075
 30
0.0
  0
SPLINE
  5
35C
100
AcDbEntity
  8
0
100
AcDbSpline
 62
7
  6
CONTINUOUS
 70
0
 71
3
 72
22
 73
18
 74
0
 42
0.0000001
 43
0.0000001
 44
0.0000000001
 40
0.0
 40
0.0
 40
0.0
 40
0.0
 40
0.0061058733
 40
0.0135539823
 40
0.0230351441
 40
0.0348630641
 40
0.0491629653
 40
0.0659700611
 40
0.1069930142
 40
0.1574603243
 40
0.2165727229
 40
0.2833132377
 40
0.3564945665
 40
0.5167736844
 40
0.6857245581
 40
0.8508783083
 40
1.0
 40
1.0
 40
1.0
 40
1.0
 10
5.6022201598
 20
6.5152996848
 30
0.0
 10
5.602214301
 20
6.5152968531
 30
0.0
 10
5.6021994978
 20
6.5152941812
 30
0.0
 10
5.6021751885
 20
6.5152995127
 30
0.0
 10
5.6021473258
 20
6.5153126207
 30
0.0
 10
5.6021155931
 20
6.515333591
 30
0.0
 10
5.6020799562
 20
6.5153623639
 30
0.0
 10
5.6020235681
 20
6.5154146723
 30
0.0
 10
5.6019452858
 20
6.5154996795
 30
0.0
 10
5.6018438132
 20
6.5156240936
 30
0.0
 10
5.6017314721
 20
6.5157747856
 30
0.0
 10
5.6016103839
 20
6.515948978
 30
0.0
 10
5.6014349917
 20
6.5162165854
 30
0.0
 10
5.6012127407
 20
6.5165835279
 30
0.0
 10
5.6009572991
 20
6.5170444824
 30
0.0
 10
5.6007251376
 20
6.517504301
 30
0.0
 10
5.6005871594
 20
6.5178096862
 30
0.0
 10
5.6005263425
 20
6.5179565113
 30
0.0
  0
LINE
  5
35D
100
AcDbEntity
  8
0
100
AcDbLine
 62
7
  6
CONTINUOUS
 10
5.6117544472
 20
6.4925989551
 11
5.6114185461
 21
6.4930075913
  0
LINE
  5
35E
100
AcDbEntity
  8
0
100
AcDbLine
 62
7
  6
CONTINUOUS
 10
5.6114185461
 20
6.4930075913
 11
5.6097734216
 21
6.4956609255
  0
LINE
  5
35F
100
AcDbEntity
  8
0
100
AcDbLine
 62
7
  6
CONTINUOUS
 10
5.6097734216
 20
6.4956609255
 11
5.6096833406
 21
6.4958495613
  0
SPLINE
  5
360
100
AcDbEntity
  8
0
100
AcDbSpline
 62
7
  6
CONTINUOUS
 70
0
 71
3
 72
19
 73
15
 74
0
 42
0.0000001
 43
0.0000001
 44
0.0000000001
 40
0.0
 40
0.0
 40
0.0
 40
0.0
 40
0.0170508369
 40
0.0384128318
 40
0.0663230818
 40
0.1016300126
 40
0.144546039
 40
0.1949692494
 40
0.2526107408
 40
0.3170504149
 40
0.4641433193
 40
0.6311676369
 40
0.8120341793
 40
1.0
 40
1.0
 40
1.0
 40
1.0
 10
5.5800527172
 20
6.5492522887
 30
0.0
 10
5.5800419582
 20
6.549247833
 30
0.0
 10
5.580014437
 20
6.5492456018
 30
0.0
 10
5.5799713384
 20
6.5492617201
 30
0.0
 10
5.5799229923
 20
6.5492937945
 30
0.0
 10
5.5798688692
 20
6.5493422704
 30
0.0
 10
5.5798091675
 20
6.5494068423
 30
0.0
 10
5.5797444043
 20
6.549487159
 30
0.0
 10
5.5796751911
 20
6.5495825475
 30
0.0
 10
5.5795733272
 20
6.5497356297
 30
0.0
 10
5.5794412116
 20
6.5499580544
 30
0.0
 10
5.5792827584
 20
6.5502567847
 30
0.0
 10
5.5791245129
 20
6.5505868747
 30
0.0
 10
5.5790239797
 20
6.5508179126
 30
0.0
 10
5.578974853
 20
6.550936515
 30
0.0
  0
LINE
  5
361
100
AcDbEntity
  8
0
100
AcDbLine
 62
7
  6
CONTINUOUS
 10
5.592108572
 20
6.5207721986
 11
5.5916712908
 21
6.5212033169
  0
LINE
  5
362
100
AcDbEntity
  8
0
100
AcDbLine
 62
7
  6
CONTINUOUS
 10
5.5916712908
 20
6.5212033169
 11
5.5902862374
 21
6.5236284169
  0
SPLINE
  5
363
100
AcDbEntity
  8
0
100
AcDbSpline
 62
7
  6
CONTINUOUS
 70
0
 71
3
 72
11
 73
7
 74
0
 42
0.0000001
 43
0.0000001
 44
0.0000000001
 40
0.0
 40
0.0
 40
0.0
 40
0.0
 40
0.4095312532
 40
0.7086320049
 40
0.8999257703
 40
1.0
 40
1.0
 40
1.0
 40
1.0
 10
5.6578568742
 20
6.4382503874
 30
0.0
 10
5.6578541555
 20
6.4382569509
 30
0.0
 10
5.6578496011
 20
6.4382683152
 30
0.0
 10
5.6578450286
 20
6.4382834637
 30
0.0
 10
5.6578428988
 20
6.4382931095
 30
0.0
 10
5.6578440386
 20
6.4382989513
 30
0.0
 10
5.6578455066
 20
6.4382998779
 30
0.0
  0
LINE
  5
364
100
AcDbEntity
  8
0
100
AcDbLine
 62
7
  6
CONTINUOUS
 10
5.6476779466
 20
6.4628244942
 11
5.6475799436
 21
6.4632542318
  0
LINE
  5
365
100
AcDbEntity
  8
0
100
AcDbLine
 62
7
  6
CONTINUOUS
 10
5.6293361522
 20
6.5071055041
 11
5.6290857171
 21
6.5082159851
  0
SPLINE
  5
366
100
AcDbEntity
  8
0
100
AcDbSpline
 62
7
  6
CONTINUOUS
 70
0
 71
3
 72
19
 73
15
 74
0
 42
0.0000001
 43
0.0000001
 44
0.0000000001
 40
0.0
 40
0.0
 40
0.0
 40
0.0
 40
0.1876340154
 40
0.3682792046
 40
0.5352605325
 40
0.6824835901
 40
0.7470305241
 40
0.8047901505
 40
0.8553280393
 40
0.8983393634
 40
0.9337080278
 40
0.961638261
 40
0.9829810695
 40
1.0
 40
1.0
 40
1.0
 40
1.0
 10
5.6064643084
 20
6.5623230202
 30
0.0
 10
5.6064153117
 20
6.5624413087
 30
0.0
 10
5.6063230899
 20
6.562675138
 30
0.0
 10
5.6062011122
 20
6.5630194983
 30
0.0
 10
5.6061009571
 20
6.5633420636
 30
0.0
 10
5.6060359894
 20
6.5635923711
 30
0.0
 10
5.6059987926
 20
6.5637725265
 30
0.0
 10
5.6059795847
 20
6.563888933
 30
0.0
 10
5.6059679282
 20
6.5639915803
 30
0.0
 10
5.6059638953
 20
6.5640795368
 30
0.0
 10
5.6059673899
 20
6.5641521685
 30
0.0
 10
5.6059785048
 20
6.5642091019
 30
0.0
 10
5.6059972996
 20
6.5642510454
 30
0.0
 10
5.6060182636
 20
6.5642689563
 30
0.0
 10
5.6060289929
 20
6.5642734
 30
0.0
  0
SPLINE
  5
367
100
AcDbEntity
  8
0
100
AcDbSpline
 62
7
  6
CONTINUOUS
 70
0
 71
3
 72
21
 73
17
 74
0
 42
0.0000001
 43
0.0000001
 44
0.0000000001
 40
0.0
 40
0.0
 40
0.0
 40
0.0
 40
0.1625064306
 40
0.3334625732
 40
0.5022489499
 40
0.6583890775
 40
0.7286715941
 40
0.7923064036
 40
0.8483582035
 40
0.8960513037
 40
0.934823126
 40
0.9644358924
 40
0.9759180065
 40
0.985379043
 40
0.9931837301
 40
1.0
 40
1.0
 40
1.0
 40
1.0
 10
5.5835924642
 20
6.6175405362
 30
0.0
 10
5.5835323543
 20
6.6176856543
 30
0.0
 10
5.5834165395
 20
6.6179865812
 30
0.0
 10
5.5832606145
 20
6.6184464436
 30
0.0
 10
5.5831245381
 20
6.6189061541
 30
0.0
 10
5.5830315267
 20
6.6192768253
 30
0.0
 10
5.5829744671
 20
6.6195513557
 30
0.0
 10
5.5829428353
 20
6.6197322722
 30
0.0
 10
5.5829212696
 20
6.6198926559
 30
0.0
 10
5.5829099728
 20
6.6200300592
 30
0.0
 10
5.5829090742
 20
6.6201423171
 30
0.0
 10
5.5829170654
 20
6.6202195236
 30
0.0
 10
5.5829303894
 20
6.6202666841
 30
0.0
 10
5.582942235
 20
6.6202920069
 30
0.0
 10
5.5829570063
 20
6.6203104144
 30
0.0
 10
5.5829695517
 20
6.6203178156
 30
0.0
 10
5.5829758132
 20
6.6203198652
 30
0.0
  0
SPLINE
  5
368
100
AcDbEntity
  8
0
100
AcDbSpline
 62
7
  6
CONTINUOUS
 70
0
 71
3
 72
22
 73
18
 74
0
 42
0.0000001
 43
0.0000001
 44
0.0000000001
 40
0.0
 40
0.0
 40
0.0
 40
0.0
 40
0.0583419347
 40
0.1255540406
 40
0.2801851282
 40
0.449490646
 40
0.6175863542
 40
0.7687014859
 40
0.8333890401
 40
0.8887718729
 40
0.9125785592
 40
0.9336205994
 40
0.9517982802
 40
0.9670411027
 40
0.9793270082
 40
0.9887137015
 40
1.0
 40
1.0
 40
1.0
 40
1.0
 10
5.5652506689
 20
6.6618215458
 30
0.0
 10
5.5652242243
 20
6.661885389
 30
0.0
 10
5.56517046
 20
6.6620240867
 30
0.0
 10
5.5650599744
 20
6.6623370542
 30
0.0
 10
5.5649218645
 20
6.662779446
 30
0.0
 10
5.5647674078
 20
6.6633414924
 30
0.0
 10
5.5646321385
 20
6.663904178
 30
0.0
 10
5.564541175
 20
6.6643498543
 30
0.0
 10
5.564488979
 20
6.6646668274
 30
0.0
 10
5.564466669
 20
6.6648358233
 30
0.0
 10
5.5644554157
 20
6.6649540298
 30
0.0
 10
5.5644505287
 20
6.6650285147
 30
0.0
 10
5.5644488161
 20
6.6650930842
 30
0.0
 10
5.5644500797
 20
6.6651470538
 30
0.0
 10
5.5644547704
 20
6.6651911148
 30
0.0
 10
5.5644625406
 20
6.6652278926
 30
0.0
 10
5.5644765122
 20
6.6652539867
 30
0.0
 10
5.5644894453
 20
6.665257369
 30
0.0
  0
LINE
  5
369
100
AcDbEntity
  8
0
100
AcDbLine
 62
7
  6
CONTINUOUS
 10
5.5550717401
 20
6.6863956521
 11
5.5549902142
 21
6.686646971
  0
LINE
  5
36A
100
AcDbEntity
  8
0
100
AcDbLine
 62
7
  6
CONTINUOUS
 10
5.5549902142
 20
6.686646971
 11
5.5542672907
 21
6.6898356921
  0
LINE
  5
36B
100
AcDbEntity
  8
0
100
AcDbLine
 62
7
  6
CONTINUOUS
 10
5.5542672907
 20
6.6898356921
 11
5.554230085
 21
6.6901926116
  0
LINE
  5
36C
100
AcDbEntity
  8
0
100
AcDbLine
 62
7
  6
CONTINUOUS
 10
5.5618542778
 20
6.6503577219
 11
5.5617098309
 21
6.6505870412
  0
LINE
  5
36D
100
AcDbEntity
  8
0
100
AcDbLine
 62
7
  6
CONTINUOUS
 10
5.5782072604
 20
6.611207326
 11
5.5776691635
 21
6.6120578052
  0
SPLINE
  5
36E
100
AcDbEntity
  8
0
100
AcDbSpline
 62
7
  6
CONTINUOUS
 70
0
 71
3
 72
19
 73
15
 74
0
 42
0.0000001
 43
0.0000001
 44
0.0000000001
 40
0.0
 40
0.0
 40
0.0
 40
0.0
 40
0.0170215156
 40
0.0383671456
 40
0.0662981201
 40
0.10166499
 40
0.1446721425
 40
0.1952042419
 40
0.2529574466
 40
0.3174981961
 40
0.4647124388
 40
0.6316941617
 40
0.812349481
 40
1.0
 40
1.0
 40
1.0
 40
1.0
 10
5.600541885
 20
6.5577391789
 30
0.0
 10
5.6005311537
 20
6.5577347333
 30
0.0
 10
5.600503661
 20
6.5577325703
 30
0.0
 10
5.600460699
 20
6.5577489214
 30
0.0
 10
5.6004125597
 20
6.5577812974
 30
0.0
 10
5.6003587021
 20
6.557830156
 30
0.0
 10
5.6002993249
 20
6.557895169
 30
0.0
 10
5.6002349451
 20
6.5579759576
 30
0.0
 10
5.6001661709
 20
6.5580718148
 30
0.0
 10
5.6000650158
 20
6.5582254596
 30
0.0
 10
5.599933871
 20
6.5584483506
 30
0.0
 10
5.5997765064
 20
6.5587472375
 30
0.0
 10
5.5996191812
 20
6.5590770018
 30
0.0
 10
5.5995190214
 20
6.5593075825
 30
0.0
 10
5.5994700169
 20
6.5594258899
 30
0.0
  0
SPLINE
  5
36F
100
AcDbEntity
  8
0
100
AcDbSpline
 62
7
  6
CONTINUOUS
 70
0
 71
3
 72
21
 73
17
 74
0
 42
0.0000001
 43
0.0000001
 44
0.0000000001
 40
0.0
 40
0.0
 40
0.0
 40
0.0
 40
0.0065305408
 40
0.0141721872
 40
0.0236142111
 40
0.0352051828
 40
0.0653572205
 40
0.10499349
 40
0.1537768965
 40
0.2110497942
 40
0.2759374179
 40
0.3474004492
 40
0.5052538009
 40
0.6741614416
 40
0.8428345644
 40
1.0
 40
1.0
 40
1.0
 40
1.0
 10
5.6228694843
 20
6.5042841768
 30
0.0
 10
5.6228636053
 20
6.5042812034
 30
0.0
 10
5.6228492046
 20
6.5042778122
 30
0.0
 10
5.6228252986
 20
6.5042813196
 30
0.0
 10
5.6227983018
 20
6.5042921613
 30
0.0
 10
5.6227538515
 20
6.5043187059
 30
0.0
 10
5.6226908707
 20
6.5043719921
 30
0.0
 10
5.6226080056
 20
6.504458334
 30
0.0
 10
5.6225137554
 20
6.5045712553
 30
0.0
 10
5.6224097487
 20
6.5047088624
 30
0.0
 10
5.6222978012
 20
6.5048689801
 30
0.0
 10
5.6221351056
 20
6.5051172539
 30
0.0
 10
5.6219280526
 20
6.5054617076
 30
0.0
 10
5.621688118
 20
6.5059002943
 30
0.0
 10
5.6214657137
 20
6.5063472471
 30
0.0
 10
5.6213315451
 20
6.5066474914
 30
0.0
 10
5.6212708699
 20
6.5067939744
 30
0.0
  0
LINE
  5
370
100
AcDbEntity
  8
0
100
AcDbLine
 62
7
  6
CONTINUOUS
 10
5.6392085908
 20
6.4651597749
 11
5.6388337656
 21
6.4655573398
  0
LINE
  5
371
100
AcDbEntity
  8
0
100
AcDbLine
 62
7
  6
CONTINUOUS
 10
5.6388337656
 20
6.4655573398
 11
5.6372302016
 21
6.468264738
  0
SPLINE
  5
372
100
AcDbEntity
  8
0
100
AcDbSpline
 62
7
  6
CONTINUOUS
 70
0
 71
3
 72
12
 73
8
 74
0
 42
0.0000001
 43
0.0000001
 44
0.0000000001
 40
0.0
 40
0.0
 40
0.0
 40
0.0
 40
0.4105694722
 40
0.7101125476
 40
0.8187127343
 40
0.9010596625
 40
1.0
 40
1.0
 40
1.0
 40
1.0
 10
5.6246830166
 20
6.4782541025
 30
0.0
 10
5.6246776863
 20
6.4782669708
 30
0.0
 10
5.6246689143
 20
6.4782894499
 30
0.0
 10
5.6246604231
 20
6.4783158405
 30
0.0
 10
5.6246573599
 20
6.4783323999
 30
0.0
 10
5.6246565904
 20
6.478341846
 30
0.0
 10
5.6246583071
 20
6.4783491235
 30
0.0
 10
5.6246612355
 20
6.4783507639
 30
0.0
  0
LINE
  5
373
100
AcDbEntity
  8
0
100
AcDbLine
 62
7
  6
CONTINUOUS
 10
5.6123107869
 20
6.5081233084
 11
5.6121293235
 21
6.5089337629
  0
SPLINE
  5
374
100
AcDbEntity
  8
0
100
AcDbSpline
 62
7
  6
CONTINUOUS
 70
0
 71
3
 72
21
 73
17
 74
0
 42
0.0000001
 43
0.0000001
 44
0.0000000001
 40
0.0
 40
0.0
 40
0.0
 40
0.0
 40
0.1021485225
 40
0.1567568841
 40
0.2135809916
 40
0.2724394003
 40
0.3331735548
 40
0.3956012869
 40
0.4594851484
 40
0.5246122993
 40
0.5907791683
 40
0.6577798239
 40
0.7254300731
 40
0.7935938227
 40
0.8621517794
 40
1.0
 40
1.0
 40
1.0
 40
1.0
 10
5.7170182935
 20
5.4617706119
 30
0.0
 10
5.7172486223
 20
5.4602460979
 30
0.0
 10
5.7177279089
 20
5.4579230518
 30
0.0
 10
5.7186356408
 20
5.4548284487
 30
0.0
 10
5.7195015726
 20
5.4524066652
 30
0.0
 10
5.7205460625
 20
5.4499555242
 30
0.0
 10
5.7217780507
 20
5.4474978091
 30
0.0
 10
5.7232012927
 20
5.4450573715
 30
0.0
 10
5.7248138223
 20
5.4426571922
 30
0.0
 10
5.726614818
 20
5.4403231129
 30
0.0
 10
5.7285968313
 20
5.4380775127
 30
0.0
 10
5.7307491126
 20
5.435940008
 30
0.0
 10
5.7330623257
 20
5.4339315158
 30
0.0
 10
5.7355227879
 20
5.4320668532
 30
0.0
 10
5.7389857483
 20
5.4297863943
 30
0.0
 10
5.7417565141
 20
5.4283358304
 30
0.0
 10
5.7436590029
 20
5.4274934003
 30
0.0
  0
SPLINE
  5
375
100
AcDbEntity
  8
0
100
AcDbSpline
 62
7
  6
CONTINUOUS
 70
0
 71
3
 72
21
 73
17
 74
0
 42
0.0000001
 43
0.0000001
 44
0.0000000001
 40
0.0
 40
0.0
 40
0.0
 40
0.0
 40
0.1378488409
 40
0.2064120964
 40
0.2745828526
 40
0.3422386947
 40
0.4092415072
 40
0.4754075407
 40
0.5405315898
 40
0.6044108201
 40
0.6668332071
 40
0.7275621016
 40
0.786416237
 40
0.8432381222
 40
0.8978471553
 40
1.0
 40
1.0
 40
1.0
 40
1.0
 10
5.7826589304
 20
5.4274933861
 30
0.0
 10
5.7845614325
 20
5.4283358088
 30
0.0
 10
5.7873322754
 20
5.429786425
 30
0.0
 10
5.7907953609
 20
5.4320670486
 30
0.0
 10
5.7932560138
 20
5.4339319061
 30
0.0
 10
5.7955693768
 20
5.4359405653
 30
0.0
 10
5.7977217051
 20
5.4380781709
 30
0.0
 10
5.7997036644
 20
5.4403237828
 30
0.0
 10
5.8015045435
 20
5.4426577882
 30
0.0
 10
5.8031169303
 20
5.445057825
 30
0.0
 10
5.8045400284
 20
5.4474980796
 30
0.0
 10
5.8057719056
 20
5.4499555982
 30
0.0
 10
5.8068163287
 20
5.4524065743
 30
0.0
 10
5.8076822336
 20
5.4548282739
 30
0.0
 10
5.8085899759
 20
5.457922917
 30
0.0
 10
5.8090692937
 20
5.4602460337
 30
0.0
 10
5.8092996334
 20
5.4617706119
 30
0.0
  0
SPLINE
  5
376
100
AcDbEntity
  8
0
100
AcDbSpline
 62
7
  6
CONTINUOUS
 70
0
 71
3
 72
19
 73
15
 74
0
 42
0.0000001
 43
0.0000001
 44
0.0000000001
 40
0.0
 40
0.0
 40
0.0
 40
0.0
 40
0.1877159181
 40
0.3684168037
 40
0.5354089639
 40
0.682598958
 40
0.7471192586
 40
0.8048493351
 40
0.8553578607
 40
0.8983447141
 40
0.9336981285
 40
0.9616240171
 40
0.9829720179
 40
1.0
 40
1.0
 40
1.0
 40
1.0
 10
5.5922920983
 20
6.5564526986
 30
0.0
 10
5.5922430694
 20
6.5565710647
 30
0.0
 10
5.5921508315
 20
6.5568050492
 30
0.0
 10
5.5920289635
 20
6.5571496425
 30
0.0
 10
5.5919290396
 20
6.5574723827
 30
0.0
 10
5.5918643419
 20
6.5577227858
 30
0.0
 10
5.5918273845
 20
6.5579029698
 30
0.0
 10
5.5918083485
 20
6.5580193719
 30
0.0
 10
5.5917968555
 20
6.5581220033
 30
0.0
 10
5.5917929697
 20
6.5582099389
 30
0.0
 10
5.5917965892
 20
6.5582825502
 30
0.0
 10
5.5918078019
 20
6.5583394676
 30
0.0
 10
5.5918266706
 20
6.5583813947
 30
0.0
 10
5.5918476557
 20
6.5583992961
 30
0.0
 10
5.5918583927
 20
6.558403744
 30
0.0
  0
SPLINE
  5
377
100
AcDbEntity
  8
0
100
AcDbSpline
 62
7
  6
CONTINUOUS
 70
0
 71
3
 72
20
 73
16
 74
0
 42
0.0000001
 43
0.0000001
 44
0.0000000001
 40
0.0
 40
0.0
 40
0.0
 40
0.0
 40
0.1018151243
 40
0.1575840139
 40
0.2160592561
 40
0.2767740783
 40
0.3392583603
 40
0.4030919717
 40
0.4679108892
 40
0.5334202398
 40
0.59945097
 40
0.7323845331
 40
0.7991610359
 40
0.8660480599
 40
1.0
 40
1.0
 40
1.0
 40
1.0
 10
5.8337764993
 20
5.4617706121
 30
0.0
 10
5.8334273065
 20
5.4595759733
 30
0.0
 10
5.832468947
 20
5.4562364176
 30
0.0
 10
5.8305180049
 20
5.4519391883
 30
0.0
 10
5.8286140667
 20
5.4486217445
 30
0.0
 10
5.8263395429
 20
5.4453679909
 30
0.0
 10
5.823728142
 20
5.4422244806
 30
0.0
 10
5.8208183421
 20
5.4392295163
 30
0.0
 10
5.817649422
 20
5.4364105169
 30
0.0
 10
5.8142573682
 20
5.4337856409
 30
0.0
 10
5.8094724625
 20
5.4305512307
 30
0.0
 10
5.8043781383
 20
5.4277460815
 30
0.0
 10
5.7990653789
 20
5.4253676431
 30
0.0
 10
5.7936142609
 20
5.4232634448
 30
0.0
 10
5.7894078247
 20
5.421997425
 30
0.0
 10
5.7865713537
 20
5.4212886976
 30
0.0
  0
SPLINE
  5
378
100
AcDbEntity
  8
0
100
AcDbSpline
 62
7
  6
CONTINUOUS
 70
0
 71
3
 72
22
 73
18
 74
0
 42
0.0000001
 43
0.0000001
 44
0.0000000001
 40
0.0
 40
0.0
 40
0.0
 40
0.0
 40
0.1491585212
 40
0.3143502884
 40
0.4833738976
 40
0.6437487683
 40
0.7169700311
 40
0.7837334263
 40
0.8428437478
 40
0.8932787381
 40
0.9342382075
 40
0.951003476
 40
0.9652568921
 40
0.9770366502
 40
0.986473553
 40
0.9938918547
 40
1.0
 40
1.0
 40
1.0
 40
1.0
 10
5.5722734092
 20
6.6047820887
 30
0.0
 10
5.5722126249
 20
6.6049288351
 30
0.0
 10
5.5720942193
 20
6.6052421301
 30
0.0
 10
5.5719330045
 20
6.6057310957
 30
0.0
 10
5.5717873346
 20
6.6062373626
 30
0.0
 10
5.5716847275
 20
6.6066537968
 30
0.0
 10
5.5716193545
 20
6.6069669272
 30
0.0
 10
5.5715817404
 20
6.6071756081
 30
0.0
 10
5.5715546251
 20
6.607361441
 30
0.0
 10
5.5715384776
 20
6.6075209443
 30
0.0
 10
5.5715338438
 20
6.6076361785
 30
0.0
 10
5.5715368724
 20
6.6077128122
 30
0.0
 10
5.5715418393
 20
6.6077581633
 30
0.0
 10
5.5715495765
 20
6.607795225
 30
0.0
 10
5.5715601495
 20
6.6078239841
 30
0.0
 10
5.5715737474
 20
6.6078447304
 30
0.0
 10
5.571586213
 20
6.6078530862
 30
0.0
 10
5.571592388
 20
6.6078551301
 30
0.0
  0
SPLINE
  5
379
100
AcDbEntity
  8
0
100
AcDbSpline
 62
7
  6
CONTINUOUS
 70
0
 71
3
 72
20
 73
16
 74
0
 42
0.0000001
 43
0.0000001
 44
0.0000000001
 40
0.0
 40
0.0
 40
0.0
 40
0.0
 40
0.1339797035
 40
0.2008731012
 40
0.2676497781
 40
0.4005747729
 40
0.4666003473
 40
0.5321046613
 40
0.5969189731
 40
0.6607482766
 40
0.7232284797
 40
0.7839398481
 40
0.8424126723
 40
0.8981791344
 40
1.0
 40
1.0
 40
1.0
 40
1.0
 10
5.7397465584
 20
5.421288706
 30
0.0
 10
5.7369095072
 20
5.4219976084
 30
0.0
 10
5.7327023653
 20
5.4232638742
 30
0.0
 10
5.7272505822
 20
5.425368429
 30
0.0
 10
5.7219379326
 20
5.427747005
 30
0.0
 10
5.7168439661
 20
5.4305521806
 30
0.0
 10
5.7120594583
 20
5.4337864434
 30
0.0
 10
5.7086677005
 20
5.4364111723
 30
0.0
 10
5.7054990533
 20
5.4392300185
 30
0.0
 10
5.702589492
 20
5.4422248169
 30
0.0
 10
5.6999782792
 20
5.4453681449
 30
0.0
 10
5.6977038824
 20
5.4486217205
 30
0.0
 10
5.6958000265
 20
5.451939
 30
0.0
 10
5.6938490177
 20
5.4562362193
 30
0.0
 10
5.6928906436
 20
5.4595758505
 30
0.0
 10
5.6925414286
 20
5.4617706122
 30
0.0
  0
LINE
  5
37A
100
AcDbEntity
  8
0
100
AcDbLine
 62
7
  6
CONTINUOUS
 10
5.5599011786
 20
6.6346512942
 11
5.5598313336
 21
6.6348485622
  0
LINE
  5
37B
100
AcDbEntity
  8
0
100
AcDbLine
 62
7
  6
CONTINUOUS
 10
5.5598313336
 20
6.6348485622
 11
5.5590926878
 21
6.6380406836
  0
LINE
  5
37C
100
AcDbEntity
  8
0
100
AcDbLine
 62
7
  6
CONTINUOUS
 10
5.5590926878
 20
6.6380406836
 11
5.5590683969
 21
6.6384083052
  0
SPLINE
  5
37D
100
AcDbEntity
  8
0
100
AcDbSpline
 62
7
  6
CONTINUOUS
 70
0
 71
3
 72
16
 73
12
 74
0
 42
0.0000001
 43
0.0000001
 44
0.0000000001
 40
0.0
 40
0.0
 40
0.0
 40
0.0
 40
0.1308639337
 40
0.2698126614
 40
0.4121017547
 40
0.5510123151
 40
0.6809587779
 40
0.7417167194
 40
0.7992243608
 40
0.904547107
 40
1.0
 40
1.0
 40
1.0
 40
1.0
 10
5.7170182934
 20
5.4617706119
 30
0.0
 10
5.7171744838
 20
5.4617823685
 30
0.0
 10
5.7174952464
 20
5.4618278081
 30
0.0
 10
5.7179717738
 20
5.4619613721
 30
0.0
 10
5.718431648
 20
5.4621698359
 30
0.0
 10
5.7188437056
 20
5.4624436412
 30
0.0
 10
5.7191235576
 20
5.4627265885
 30
0.0
 10
5.7192938296
 20
5.4629707906
 30
0.0
 10
5.7194194634
 20
5.4632077867
 30
0.0
 10
5.7195079543
 20
5.4635083259
 30
0.0
 10
5.7195087495
 20
5.4637523586
 30
0.0
 10
5.7194923249
 20
5.4638654202
 30
0.0
  0
SPLINE
  5
37E
100
AcDbEntity
  8
0
100
AcDbSpline
 62
7
  6
CONTINUOUS
 70
0
 71
3
 72
16
 73
12
 74
0
 42
0.0000001
 43
0.0000001
 44
0.0000000001
 40
0.0
 40
0.0
 40
0.0
 40
0.0
 40
0.1374794244
 40
0.2737561728
 40
0.5379121301
 40
0.663515916
 40
0.7832426825
 40
0.8405255609
 40
0.8958605901
 40
0.9490728293
 40
1.0
 40
1.0
 40
1.0
 40
1.0
 10
5.682699365
 20
5.5049132767
 30
0.0
 10
5.6829128637
 20
5.5029321262
 30
0.0
 10
5.6833990024
 20
5.4989934936
 30
0.0
 10
5.6845783974
 20
5.4912857517
 30
0.0
 10
5.686043954
 20
5.4838003097
 30
0.0
 10
5.6876476482
 20
5.4765921816
 30
0.0
 10
5.6886248348
 20
5.4723163183
 30
0.0
 10
5.6893574884
 20
5.4690293754
 30
0.0
 10
5.6898603642
 20
5.4666789809
 30
0.0
 10
5.6903121984
 20
5.4644120624
 30
0.0
 10
5.6905770239
 20
5.4629259003
 30
0.0
 10
5.690696133
 20
5.4621974374
 30
0.0
  0
SPLINE
  5
37F
100
AcDbEntity
  8
0
100
AcDbSpline
 62
7
  6
CONTINUOUS
 70
0
 71
3
 72
18
 73
14
 74
0
 42
0.0000001
 43
0.0000001
 44
0.0000000001
 40
0.0
 40
0.0
 40
0.0
 40
0.0
 40
0.1035707704
 40
0.1600437821
 40
0.2190692699
 40
0.2801760391
 40
0.3428998204
 40
0.4068254208
 40
0.4716090115
 40
0.6026802969
 40
0.7348128379
 40
0.8673438056
 40
1.0
 40
1.0
 40
1.0
 40
1.0
 10
5.6906961332
 20
5.4621974372
 30
0.0
 10
5.6910729131
 20
5.459893088
 30
0.0
 10
5.6920673176
 20
5.4563905864
 30
0.0
 10
5.6940660972
 20
5.4518704773
 30
0.0
 10
5.6960026802
 20
5.448384863
 30
0.0
 10
5.6983086476
 20
5.4449622641
 30
0.0
 10
5.700952057
 20
5.4416506765
 30
0.0
 10
5.7038961132
 20
5.4384894741
 30
0.0
 10
5.7081880327
 20
5.4344984614
 30
0.0
 10
5.7141060581
 20
5.4300275657
 30
0.0
 10
5.7218437137
 20
5.4255471433
 30
0.0
 10
5.7300626782
 20
5.4219439264
 30
0.0
 10
5.7357689092
 20
5.4201209007
 30
0.0
 10
5.7386589807
 20
5.4193517684
 30
0.0
  0
SPLINE
  5
380
100
AcDbEntity
  8
0
100
AcDbSpline
 62
7
  6
CONTINUOUS
 70
0
 71
3
 72
17
 73
13
 74
0
 42
0.0000001
 43
0.0000001
 44
0.0000000001
 40
0.0
 40
0.0
 40
0.0
 40
0.0
 40
0.1327290454
 40
0.1990808154
 40
0.2653809539
 40
0.528233644
 40
0.5930527664
 40
0.6570134502
 40
0.7808104842
 40
0.8398685059
 40
0.8963725876
 40
1.0
 40
1.0
 40
1.0
 40
1.0
 10
5.7876589166
 20
5.419351782
 30
0.0
 10
5.7905489801
 20
5.4201209488
 30
0.0
 10
5.794831257
 20
5.4214889699
 30
0.0
 10
5.8003707685
 20
5.4237483475
 30
0.0
 10
5.8084285892
 20
5.4275521001
 30
0.0
 10
5.8159565027
 20
5.4324771304
 30
0.0
 10
5.8224218203
 20
5.4384895521
 30
0.0
 10
5.8263030927
 20
5.4426569558
 30
0.0
 10
5.8296290113
 20
5.4471497783
 30
0.0
 10
5.8322517568
 20
5.4518703317
 30
0.0
 10
5.834250648
 20
5.4563906759
 30
0.0
 10
5.8352450154
 20
5.4598930922
 30
0.0
 10
5.8356217937
 20
5.4621974372
 30
0.0
  0
SPLINE
  5
381
100
AcDbEntity
  8
0
100
AcDbSpline
 62
7
  6
CONTINUOUS
 70
0
 71
3
 72
18
 73
14
 74
0
 42
0.0000001
 43
0.0000001
 44
0.0000000001
 40
0.0
 40
0.0
 40
0.0
 40
0.0
 40
0.0513037265
 40
0.1048491884
 40
0.1604598183
 40
0.217960333
 40
0.277181657
 40
0.3379638401
 40
0.4636059552
 40
0.593733573
 40
0.7272447952
 40
0.8630421548
 40
1.0
 40
1.0
 40
1.0
 40
1.0
 10
5.8356217937
 20
5.4621974372
 30
0.0
 10
5.8357417876
 20
5.4629312987
 30
0.0
 10
5.8360087945
 20
5.464427553
 30
0.0
 10
5.8364639626
 20
5.4667084089
 30
0.0
 10
5.836969562
 20
5.4690705115
 30
0.0
 10
5.8375129948
 20
5.4715085145
 30
0.0
 10
5.8380824567
 20
5.4740174829
 30
0.0
 10
5.8388709706
 20
5.4774895033
 30
0.0
 10
5.8398654081
 20
5.4819687071
 30
0.0
 10
5.8409986821
 20
5.4874964215
 30
0.0
 10
5.8420312227
 20
5.4931937576
 30
0.0
 10
5.842923125
 20
5.4990151098
 30
0.0
 10
5.8434058741
 20
5.502939608
 30
0.0
 10
5.8436185618
 20
5.5049132767
 30
0.0
  0
SPLINE
  5
382
100
AcDbEntity
  8
0
100
AcDbSpline
 62
7
  6
CONTINUOUS
 70
0
 71
3
 72
13
 73
9
 74
0
 42
0.0000001
 43
0.0000001
 44
0.0000000001
 40
0.0
 40
0.0
 40
0.0
 40
0.0
 40
0.1286129177
 40
0.2589298434
 40
0.4542077275
 40
0.6452644148
 40
0.8283312228
 40
1.0
 40
1.0
 40
1.0
 40
1.0
 10
5.8337764893
 20
5.4617706129
 30
0.0
 10
5.8338589211
 20
5.4617640782
 30
0.0
 10
5.8340254125
 20
5.4617568698
 30
0.0
 10
5.8343175296
 20
5.4617648693
 30
0.0
 10
5.8346481919
 20
5.4618039514
 30
0.0
 10
5.8350046253
 20
5.4618919674
 30
0.0
 10
5.8353320801
 20
5.4620208694
 30
0.0
 10
5.8355311613
 20
5.462134446
 30
0.0
 10
5.8356217937
 20
5.4621974372
 30
0.0
  0
SPLINE
  5
383
100
AcDbEntity
  8
0
100
AcDbSpline
 62
7
  6
CONTINUOUS
 70
0
 71
3
 72
17
 73
13
 74
0
 42
0.0000001
 43
0.0000001
 44
0.0000000001
 40
0.0
 40
0.0
 40
0.0
 40
0.0
 40
0.1375529608
 40
0.2738584734
 40
0.4077158746
 40
0.5379724474
 40
0.6635003085
 40
0.7831561691
 40
0.8404104373
 40
0.8957419255
 40
0.9489913187
 40
1.0
 40
1.0
 40
1.0
 40
1.0
 10
5.6849485275
 20
5.505155656
 30
0.0
 10
5.6851564389
 20
5.5031459673
 30
0.0
 10
5.6856261826
 20
5.4991503616
 30
0.0
 10
5.6864883363
 20
5.4932234293
 30
0.0
 10
5.6874811027
 20
5.4874258034
 30
0.0
 10
5.6885646705
 20
5.4818058435
 30
0.0
 10
5.6896859621
 20
5.4764064024
 30
0.0
 10
5.6906106184
 20
5.4720614062
 30
0.0
 10
5.6912985645
 20
5.4687202454
 30
0.0
 10
5.6917686121
 20
5.4663301421
 30
0.0
 10
5.6921886176
 20
5.4640238874
 30
0.0
 10
5.692432554
 20
5.4625118887
 30
0.0
 10
5.6925414263
 20
5.461770612
 30
0.0
  0
SPLINE
  5
384
100
AcDbEntity
  8
0
100
AcDbSpline
 62
7
  6
CONTINUOUS
 70
0
 71
3
 72
10
 73
6
 74
0
 42
0.0000001
 43
0.0000001
 44
0.0000000001
 40
0.0
 40
0.0
 40
0.0
 40
0.0
 40
0.1368637027
 40
0.2733609669
 40
1.0
 40
1.0
 40
1.0
 40
1.0
 10
5.6925414263
 20
5.461770612
 30
0.0
 10
5.6924544033
 20
5.4617637136
 30
0.0
 10
5.6922798005
 20
5.4617566166
 30
0.0
 10
5.6916439233
 20
5.4617772939
 30
0.0
 10
5.6910766883
 20
5.4619329368
 30
0.0
 10
5.6906961115
 20
5.4621974523
 30
0.0
  0
SPLINE
  5
385
100
AcDbEntity
  8
0
100
AcDbSpline
 62
7
  6
CONTINUOUS
 70
0
 71
3
 72
18
 73
14
 74
0
 42
0.0000001
 43
0.0000001
 44
0.0000000001
 40
0.0
 40
0.0
 40
0.0
 40
0.0
 40
0.0510086707
 40
0.1042580842
 40
0.1595895342
 40
0.2168438202
 40
0.2758645025
 40
0.3364996981
 40
0.4620275672
 40
0.5922841251
 40
0.7261415129
 40
0.8624470014
 40
1.0
 40
1.0
 40
1.0
 40
1.0
 10
5.8337765007
 20
5.461770612
 30
0.0
 10
5.8338853739
 20
5.4625118884
 30
0.0
 10
5.8341292958
 20
5.4640238895
 30
0.0
 10
5.8345493349
 20
5.4663301376
 30
0.0
 10
5.8350193487
 20
5.4687202474
 30
0.0
 10
5.8355276313
 20
5.471189084
 30
0.0
 10
5.8360630559
 20
5.4737318302
 30
0.0
 10
5.8368080676
 20
5.477255245
 30
0.0
 10
5.8377533375
 20
5.4818058266
 30
0.0
 10
5.8388367947
 20
5.4874258062
 30
0.0
 10
5.8398295749
 20
5.4932234294
 30
0.0
 10
5.8406915914
 20
5.4991503797
 30
0.0
 10
5.8411614847
 20
5.5031459673
 30
0.0
 10
5.8413693995
 20
5.505155656
 30
0.0
  0
LINE
  5
386
100
AcDbEntity
  8
0
100
AcDbLine
 62
7
  6
CONTINUOUS
 10
5.8085071961
 20
5.4689575411
 11
5.8097839635
 21
5.4687528311
  0
SPLINE
  5
387
100
AcDbEntity
  8
0
100
AcDbSpline
 62
7
  6
CONTINUOUS
 70
0
 71
3
 72
16
 73
12
 74
0
 42
0.0000001
 43
0.0000001
 44
0.0000000001
 40
0.0
 40
0.0
 40
0.0
 40
0.0
 40
0.1341526642
 40
0.2756623003
 40
0.419340229
 40
0.5583877168
 40
0.6872586858
 40
0.7471820833
 40
0.8037356204
 40
0.9069078556
 40
1.0
 40
1.0
 40
1.0
 40
1.0
 10
5.8092996326
 20
5.461770612
 30
0.0
 10
5.8091395138
 20
5.4617826644
 30
0.0
 10
5.8088118308
 20
5.4618297272
 30
0.0
 10
5.8083274453
 20
5.4619677396
 30
0.0
 10
5.8078646325
 20
5.4621817783
 30
0.0
 10
5.8074546527
 20
5.4624597587
 30
0.0
 10
5.8071794057
 20
5.4627442892
 30
0.0
 10
5.807014031
 20
5.4629876997
 30
0.0
 10
5.8068933046
 20
5.4632219204
 30
0.0
 10
5.8068093364
 20
5.4635167709
 30
0.0
 10
5.8068095834
 20
5.4637551526
 30
0.0
 10
5.8068256021
 20
5.4638654202
 30
0.0
  0
SPLINE
  5
388
100
AcDbEntity
  8
0
100
AcDbSpline
 62
7
  6
CONTINUOUS
 70
0
 71
3
 72
11
 73
7
 74
0
 42
0.0000001
 43
0.0000001
 44
0.0000000001
 40
0.0
 40
0.0
 40
0.0
 40
0.0
 40
0.100074234
 40
0.2913680209
 40
0.5904687711
 40
1.0
 40
1.0
 40
1.0
 40
1.0
 10
5.5550986971
 20
6.6863526189
 30
0.0
 10
5.5550970038
 20
6.6863522361
 30
0.0
 10
5.5550920671
 20
6.6863555609
 30
0.0
 10
5.5550867525
 20
6.6863638875
 30
0.0
 10
5.5550792741
 20
6.6863778324
 30
0.0
 10
5.5550744588
 20
6.6863890886
 30
0.0
 10
5.5550717401
 20
6.6863956521
 30
0.0
  0
LINE
  5
389
100
AcDbEntity
  8
0
100
AcDbLine
 62
7
  6
CONTINUOUS
 10
5.5654852408
 20
6.6614483769
 11
5.5652506689
 21
6.6618215458
  0
LINE
  5
38A
100
AcDbEntity
  8
0
100
AcDbLine
 62
7
  6
CONTINUOUS
 10
5.7165339635
 20
5.4687528312
 11
5.7178107308
 21
5.4689575411
  0
LINE
  5
38B
100
AcDbEntity
  8
0
100
AcDbLine
 62
7
  6
CONTINUOUS
 10
5.5902862374
 20
6.5236284169
 11
5.590160283
 21
6.5242049841
  0
SPLINE
  5
38C
100
AcDbEntity
  8
0
100
AcDbSpline
 62
7
  6
CONTINUOUS
 70
0
 71
3
 72
12
 73
8
 74
0
 42
0.0000001
 43
0.0000001
 44
0.0000000001
 40
0.0
 40
0.0
 40
0.0
 40
0.0
 40
0.098940335
 40
0.181287266
 40
0.2898874569
 40
0.5894305477
 40
1.0
 40
1.0
 40
1.0
 40
1.0
 10
5.559954127
 20
6.6345675427
 30
0.0
 10
5.5599508964
 20
6.634566632
 30
0.0
 10
5.5599445366
 20
6.6345705641
 30
0.0
 10
5.5599384013
 20
6.6345777876
 30
0.0
 10
5.559928858
 20
6.6345916628
 30
0.0
 10
5.5599162012
 20
6.6346163281
 30
0.0
 10
5.5599065089
 20
6.6346384259
 30
0.0
 10
5.5599011786
 20
6.6346512942
 30
0.0
  0
SPLINE
  5
38D
100
AcDbEntity
  8
0
100
AcDbSpline
 62
7
  6
CONTINUOUS
 70
0
 71
3
 72
19
 73
15
 74
0
 42
0.0000001
 43
0.0000001
 44
0.0000000001
 40
0.0
 40
0.0
 40
0.0
 40
0.0
 40
0.1879658351
 40
0.3688323846
 40
0.5358566977
 40
0.682949595
 40
0.7473892701
 40
0.8050307617
 40
0.8554539711
 40
0.8983699942
 40
0.9336769206
 40
0.9615871691
 40
0.9829491643
 40
1.0
 40
1.0
 40
1.0
 40
1.0
 10
5.578974853
 20
6.550936515
 30
0.0
 10
5.5789257263
 20
6.5510551174
 30
0.0
 10
5.5788334455
 20
6.5512895736
 30
0.0
 10
5.5787119331
 20
6.551634879
 30
0.0
 10
5.5786127422
 20
6.5519581565
 30
0.0
 10
5.578548884
 20
6.5522088544
 30
0.0
 10
5.5785126673
 20
6.5523891285
 30
0.0
 10
5.5784941585
 20
6.5525055195
 30
0.0
 10
5.5784831605
 20
6.5526081064
 30
0.0
 10
5.5784797167
 20
6.5526959812
 30
0.0
 10
5.5784837099
 20
6.5527685296
 30
0.0
 10
5.5784952157
 20
6.5528253954
 30
0.0
 10
5.5785142937
 20
6.5528672681
 30
0.0
 10
5.5785353319
 20
6.5528851508
 30
0.0
 10
5.5785460903
 20
6.5528896079
 30
0.0
  0
SPLINE
  5
38E
100
AcDbEntity
  8
0
100
AcDbSpline
 62
7
  6
CONTINUOUS
 70
0
 71
3
 72
20
 73
16
 74
0
 42
0.0000001
 43
0.0000001
 44
0.0000000001
 40
0.0
 40
0.0
 40
0.0
 40
0.0
 40
0.1358727205
 40
0.2951470307
 40
0.4641818299
 40
0.628599619
 40
0.7745950386
 40
0.8368188632
 40
0.8901077353
 40
0.9334187032
 40
0.9510917677
 40
0.9660285612
 40
0.9782242876
 40
0.9877533007
 40
1.0
 40
1.0
 40
1.0
 40
1.0
 10
5.5676634683
 20
6.578244613
 30
0.0
 10
5.5676040971
 20
6.5783879478
 30
0.0
 10
5.5674875455
 20
6.5787044222
 30
0.0
 10
5.5673269863
 20
6.5792096417
 30
0.0
 10
5.5671765161
 20
6.5797519007
 30
0.0
 10
5.5670485497
 20
6.5802842845
 30
0.0
 10
5.5669648607
 20
6.5807016397
 30
0.0
 10
5.5669184824
 20
6.5809966633
 30
0.0
 10
5.5668967771
 20
6.5811767585
 30
0.0
 10
5.5668874963
 20
6.5813069902
 30
0.0
 10
5.5668870087
 20
6.5813937632
 30
0.0
 10
5.566889559
 20
6.5814447778
 30
0.0
 10
5.5668952847
 20
6.5814866627
 30
0.0
 10
5.5669045913
 20
6.581523332
 30
0.0
 10
5.5669192233
 20
6.5815481736
 30
0.0
 10
5.5669324021
 20
6.5815528495
 30
0.0
  0
SPLINE
  5
38F
100
AcDbEntity
  8
0
100
AcDbSpline
 62
7
  6
CONTINUOUS
 70
0
 71
3
 72
12
 73
8
 74
0
 42
0.0000001
 43
0.0000001
 44
0.0000000001
 40
0.0
 40
0.0
 40
0.0
 40
0.0
 40
0.411375106
 40
0.7109720979
 40
0.8193551331
 40
0.9013796038
 40
1.0
 40
1.0
 40
1.0
 40
1.0
 10
5.6096833406
 20
6.4958495613
 30
0.0
 10
5.6096779986
 20
6.4958624579
 30
0.0
 10
5.6096692225
 20
6.4958849713
 30
0.0
 10
5.6096607407
 20
6.4959113997
 30
0.0
 10
5.6096577461
 20
6.495927958
 30
0.0
 10
5.6096570108
 20
6.4959373835
 30
0.0
 10
5.6096588796
 20
6.4959446283
 30
0.0
 10
5.6096618391
 20
6.4959461905
 30
0.0
  0
LINE
  5
390
100
AcDbEntity
  8
0
100
AcDbLine
 62
7
  6
CONTINUOUS
 10
5.6005263425
 20
6.5179565113
 11
5.6003465317
 21
6.5187668445
  0
SPLINE
  5
391
100
AcDbEntity
  8
0
100
AcDbSpline
 62
7
  6
CONTINUOUS
 70
0
 71
3
 72
19
 73
15
 74
0
 42
0.0000001
 43
0.0000001
 44
0.0000000001
 40
0.0
 40
0.0
 40
0.0
 40
0.0
 40
0.1878303569
 40
0.3686089055
 40
0.5356196174
 40
0.6827694096
 40
0.7472542122
 40
0.8049442147
 40
0.8554130081
 40
0.8983655399
 40
0.9336946901
 40
0.9616098629
 40
0.9829613611
 40
1.0
 40
1.0
 40
1.0
 40
1.0
 10
5.5857100079
 20
6.5537263075
 30
0.0
 10
5.5856609374
 20
6.5538447743
 30
0.0
 10
5.58556867
 20
6.5540789544
 30
0.0
 10
5.5854469045
 20
6.5544238314
 30
0.0
 10
5.5853472212
 20
6.5547467725
 30
0.0
 10
5.5852828097
 20
6.5549972751
 30
0.0
 10
5.5852461116
 20
6.5551774768
 30
0.0
 10
5.585227263
 20
6.5552938587
 30
0.0
 10
5.585215948
 20
6.5553964566
 30
0.0
 10
5.585212223
 20
6.5554843535
 30
0.0
 10
5.5852159805
 20
6.5555569277
 30
0.0
 10
5.5852273036
 20
6.5556138163
 30
0.0
 10
5.5852462557
 20
6.5556557176
 30
0.0
 10
5.5852672632
 20
6.5556736082
 30
0.0
 10
5.5852780094
 20
6.55567806
 30
0.0
  0
SPLINE
  5
392
100
AcDbEntity
  8
0
100
AcDbSpline
 62
7
  6
CONTINUOUS
 70
0
 71
3
 72
22
 73
18
 74
0
 42
0.0000001
 43
0.0000001
 44
0.0000000001
 40
0.0
 40
0.0
 40
0.0
 40
0.0
 40
0.1491216806
 40
0.3142754294
 40
0.4832263046
 40
0.6435054206
 40
0.7166867534
 40
0.7834272704
 40
0.8425396658
 40
0.8930069813
 40
0.9340299396
 40
0.9508370345
 40
0.9651369348
 40
0.9769648548
 40
0.986446017
 40
0.9938941268
 40
1.0
 40
1.0
 40
1.0
 40
1.0
 10
5.5708936731
 20
6.5894961037
 30
0.0
 10
5.5708328561
 20
6.5896429288
 30
0.0
 10
5.5707144815
 20
6.589956434
 30
0.0
 10
5.5705535036
 20
6.5904457378
 30
0.0
 10
5.5704081841
 20
6.5909523064
 30
0.0
 10
5.5703058718
 20
6.5913689291
 30
0.0
 10
5.5702406657
 20
6.5916821771
 30
0.0
 10
5.5702031154
 20
6.5918909719
 30
0.0
 10
5.5701759972
 20
6.5920769645
 30
0.0
 10
5.5701597751
 20
6.5922366905
 30
0.0
 10
5.5701550199
 20
6.5923521536
 30
0.0
 10
5.5701579047
 20
6.5924290137
 30
0.0
 10
5.5701627583
 20
6.5924745582
 30
0.0
 10
5.5701703685
 20
6.5925118249
 30
0.0
 10
5.5701808015
 20
6.5925407956
 30
0.0
 10
5.5701942209
 20
6.5925617548
 30
0.0
 10
5.5702065777
 20
6.5925703329
 30
0.0
 10
5.5702127227
 20
6.5925724734
 30
0.0
  0
LINE
  5
393
100
AcDbEntity
  8
0
100
AcDbLine
 62
7
  6
CONTINUOUS
 10
5.5617366743
 20
6.6116030534
 11
5.5616669897
 21
6.6118001227
  0
LINE
  5
394
100
AcDbEntity
  8
0
100
AcDbLine
 62
7
  6
CONTINUOUS
 10
5.5616669897
 20
6.6118001227
 11
5.5609281483
 21
6.6149959138
  0
LINE
  5
395
100
AcDbEntity
  8
0
100
AcDbLine
 62
7
  6
CONTINUOUS
 10
5.5609281483
 20
6.6149959138
 11
5.5609026421
 21
6.6153660726
  0
LINE
  5
396
100
AcDbEntity
  8
0
100
AcDbLine
 62
7
  6
CONTINUOUS
 10
5.5727181731
 20
6.6040806968
 11
5.5722734092
 21
6.6047820887
  0
LINE
  5
397
100
AcDbEntity
  8
0
100
AcDbLine
 62
7
  6
CONTINUOUS
 10
5.6372302016
 20
6.468264738
 11
5.6371701878
 21
6.4685290306
  0
LINE
  5
398
100
AcDbEntity
  8
0
100
AcDbLine
 62
7
  6
CONTINUOUS
 10
5.6212708699
 20
6.5067939744
 11
5.6210499822
 21
6.5077758459
  0
SPLINE
  5
399
100
AcDbEntity
  8
0
100
AcDbSpline
 62
7
  6
CONTINUOUS
 70
0
 71
3
 72
19
 73
15
 74
0
 42
0.0000001
 43
0.0000001
 44
0.0000000001
 40
0.0
 40
0.0
 40
0.0
 40
0.0
 40
0.1876505127
 40
0.3683058177
 40
0.5352875593
 40
0.6825018029
 40
0.7470425557
 40
0.8047957623
 40
0.8553278604
 40
0.898335012
 40
0.9337018844
 40
0.9616328589
 40
0.9829784862
 40
1.0
 40
1.0
 40
1.0
 40
1.0
 10
5.5994700169
 20
6.5594258899
 30
0.0
 10
5.5994210123
 20
6.5595441972
 30
0.0
 10
5.5993287909
 20
6.559778066
 30
0.0
 10
5.5992068581
 20
6.5601224903
 30
0.0
 10
5.5991067866
 20
6.5604451089
 30
0.0
 10
5.5990419123
 20
6.56069545
 30
0.0
 10
5.5990047965
 20
6.5608756208
 30
0.0
 10
5.5989856459
 20
6.5609920327
 30
0.0
 10
5.5989740431
 20
6.5610946823
 30
0.0
 10
5.598970058
 20
6.5611826394
 30
0.0
 10
5.5989735928
 20
6.5612552707
 30
0.0
 10
5.5989847391
 20
6.5613122037
 30
0.0
 10
5.5990035559
 20
6.5613541443
 30
0.0
 10
5.5990245256
 20
6.5613720552
 30
0.0
 10
5.5990352574
 20
6.5613764998
 30
0.0
  0
SPLINE
  5
39A
100
AcDbEntity
  8
0
100
AcDbSpline
 62
7
  6
CONTINUOUS
 70
0
 71
3
 72
21
 73
17
 74
0
 42
0.0000001
 43
0.0000001
 44
0.0000000001
 40
0.0
 40
0.0
 40
0.0
 40
0.0
 40
0.1571654248
 40
0.3258385463
 40
0.4947461882
 40
0.6525995428
 40
0.7240625726
 40
0.7889502013
 40
0.846223097
 40
0.8950064991
 40
0.9346427779
 40
0.964794817
 40
0.976385788
 40
0.9858278113
 40
0.9934694584
 40
1.0
 40
1.0
 40
1.0
 40
1.0
 10
5.5776691635
 20
6.6120578052
 30
0.0
 10
5.5776084883
 20
6.6122042882
 30
0.0
 10
5.577491055
 20
6.6125114645
 30
0.0
 10
5.5773322752
 20
6.6129847714
 30
0.0
 10
5.577191807
 20
6.6134645584
 30
0.0
 10
5.57709465
 20
6.6138545325
 30
0.0
 10
5.5770341371
 20
6.6141451318
 30
0.0
 10
5.5770000757
 20
6.614337511
 30
0.0
 10
5.5769763166
 20
6.6145083576
 30
0.0
 10
5.5769631141
 20
6.6146548501
 30
0.0
 10
5.5769606556
 20
6.6147744974
 30
0.0
 10
5.5769675108
 20
6.6148567107
 30
0.0
 10
5.576980172
 20
6.6149069117
 30
0.0
 10
5.5769915954
 20
6.6149336675
 30
0.0
 10
5.5770060194
 20
6.6149530517
 30
0.0
 10
5.5770186001
 20
6.6149608366
 30
0.0
 10
5.5770248597
 20
6.6149628912
 30
0.0
  0
LINE
  5
39B
100
AcDbEntity
  8
0
100
AcDbLine
 62
7
  6
CONTINUOUS
 10
5.5617098309
 20
6.6505870412
 11
5.5609293039
 21
6.6536353409
  0
LINE
  5
39C
100
AcDbEntity
  8
0
100
AcDbLine
 62
7
  6
CONTINUOUS
 10
5.5609293039
 20
6.6536353409
 11
5.5609132229
 21
6.6541815141
  0
LINE
  5
39D
100
AcDbEntity
  8
0
100
AcDbLine
 62
7
  6
CONTINUOUS
 10
5.5842006084
 20
6.6165782232
 11
5.5835924642
 21
6.6175405362
  0
SPLINE
  5
39E
100
AcDbEntity
  8
0
100
AcDbSpline
 62
7
  6
CONTINUOUS
 70
0
 71
3
 72
19
 73
15
 74
0
 42
0.0000001
 43
0.0000001
 44
0.0000000001
 40
0.0
 40
0.0
 40
0.0
 40
0.0
 40
0.0170279823
 40
0.0383759845
 40
0.0663018729
 40
0.1016552853
 40
0.1446421382
 40
0.1951506643
 40
0.2528807397
 40
0.3174010384
 40
0.4645910301
 40
0.6315831767
 40
0.8122840742
 40
1.0
 40
1.0
 40
1.0
 40
1.0
 10
5.5933650195
 20
6.5547664251
 30
0.0
 10
5.5933542822
 20
6.554761978
 30
0.0
 10
5.5933267852
 20
6.5547597975
 30
0.0
 10
5.5932837962
 20
6.5547761023
 30
0.0
 10
5.5932356209
 20
6.5548084204
 30
0.0
 10
5.5931817176
 20
6.5548572049
 30
0.0
 10
5.5931222854
 20
6.5549221324
 30
0.0
 10
5.5930578408
 20
6.5550028305
 30
0.0
 10
5.5929889926
 20
6.5550985998
 30
0.0
 10
5.5928877161
 20
6.5552521419
 30
0.0
 10
5.5927564025
 20
6.5554749519
 30
0.0
 10
5.5925988476
 20
6.5557738204
 30
0.0
 10
5.5924413571
 20
6.5561036585
 30
0.0
 10
5.5923411271
 20
6.5563343325
 30
0.0
 10
5.5922920983
 20
6.5564526986
 30
0.0
  0
SPLINE
  5
39F
100
AcDbEntity
  8
0
100
AcDbSpline
 62
7
  6
CONTINUOUS
 70
0
 71
3
 72
19
 73
15
 74
0
 42
0.0000001
 43
0.0000001
 44
0.0000000001
 40
0.0
 40
0.0
 40
0.0
 40
0.0
 40
0.0170189165
 40
0.0383617101
 40
0.0662919787
 40
0.1016607194
 40
0.1446720194
 40
0.1952098801
 40
0.2529695663
 40
0.3175165873
 40
0.4647395032
 40
0.6317208915
 40
0.8123660152
 40
1.0
 40
1.0
 40
1.0
 40
1.0
 10
5.6075356206
 20
6.5606360791
 30
0.0
 10
5.6075248917
 20
6.5606316344
 30
0.0
 10
5.607497403
 20
6.5606294755
 30
0.0
 10
5.6074544545
 20
6.5606458441
 30
0.0
 10
5.607406337
 20
6.5606782428
 30
0.0
 10
5.6073525076
 20
6.5607271301
 30
0.0
 10
5.6072931646
 20
6.5607921765
 30
0.0
 10
5.6072288244
 20
6.5608730014
 30
0.0
 10
5.6071600945
 20
6.5609688954
 30
0.0
 10
5.6070590076
 20
6.5611225866
 30
0.0
 10
5.6069279526
 20
6.5613455198
 30
0.0
 10
5.6067706849
 20
6.5616444282
 30
0.0
 10
5.6066134366
 20
6.561974179
 30
0.0
 10
5.606513305
 20
6.5622047318
 30
0.0
 10
5.6064643084
 20
6.5623230202
 30
0.0
  0
SPLINE
  5
3A0
100
AcDbEntity
  8
0
100
AcDbSpline
 62
7
  6
CONTINUOUS
 70
0
 71
3
 72
22
 73
18
 74
0
 42
0.0000001
 43
0.0000001
 44
0.0000000001
 40
0.0
 40
0.0
 40
0.0
 40
0.0
 40
0.0061081453
 40
0.0135264465
 40
0.0229633488
 40
0.034743107
 40
0.0489965237
 40
0.0657617927
 40
0.1067212571
 40
0.1571562431
 40
0.2162665683
 40
0.2830299619
 40
0.3562512219
 40
0.5166260932
 40
0.6856497012
 40
0.8508414684
 40
1.0
 40
1.0
 40
1.0
 40
1.0
 10
5.6140022007
 20
6.5054687852
 30
0.0
 10
5.613996389
 20
6.5054658642
 30
0.0
 10
5.613981666
 20
6.5054629581
 30
0.0
 10
5.613957381
 20
6.5054680127
 30
0.0
 10
5.6139295691
 20
6.5054808723
 30
0.0
 10
5.6138978914
 20
6.5055016078
 30
0.0
 10
5.6138623112
 20
6.5055301638
 30
0.0
 10
5.6138059815
 20
6.5055822104
 30
0.0
 10
5.6137277752
 20
6.5056669698
 30
0.0
 10
5.6136264074
 20
6.5057911737
 30
0.0
 10
5.613514177
 20
6.5059417509
 30
0.0
 10
5.6133932146
 20
6.5061159077
 30
0.0
 10
5.6132180237
 20
6.50638355
 30
0.0
 10
5.6129961144
 20
6.5067505677
 30
0.0
 10
5.6127411337
 20
6.5072115566
 30
0.0
 10
5.6125093789
 20
6.5076713036
 30
0.0
 10
5.6123715713
 20
6.507976562
 30
0.0
 10
5.6123107869
 20
6.5081233084
 30
0.0
  0
SPLINE
  5
3A1
100
AcDbEntity
  8
0
100
AcDbSpline
 62
7
  6
CONTINUOUS
 70
0
 71
3
 72
25
 73
21
 74
0
 42
0.0000001
 43
0.0000001
 44
0.0000000001
 40
0.0
 40
0.0
 40
0.0
 40
0.0
 40
0.0648107901
 40
0.1172407293
 40
0.180198365
 40
0.2517742162
 40
0.3302225005
 40
0.3714736952
 40
0.4137253977
 40
0.4566746443
 40
0.4999835753
 40
0.5432926728
 40
0.5862424192
 40
0.6284949342
 40
0.6697472197
 40
0.7481983735
 40
0.8197778975
 40
0.8827400175
 40
0.9351753805
 40
1.0
 40
1.0
 40
1.0
 40
1.0
 10
5.6406900742
 20
5.6757804372
 30
0.0
 10
5.6420899992
 20
5.6783458487
 30
0.0
 10
5.6445393461
 20
5.6830328598
 30
0.0
 10
5.6480255524
 20
5.6903744541
 30
0.0
 10
5.6513136702
 20
5.698141531
 30
0.0
 10
5.6545399145
 20
5.7071945397
 30
0.0
 10
5.6568117815
 20
5.7155275731
 30
0.0
 10
5.6582325603
 20
5.7226936759
 30
0.0
 10
5.6590488274
 20
5.7283399627
 30
0.0
 10
5.6595570549
 20
5.7341157073
 30
0.0
 10
5.6597298764
 20
5.739959137
 30
0.0
 10
5.6595573747
 20
5.7458025987
 30
0.0
 10
5.6590494584
 20
5.7515784379
 30
0.0
 10
5.6582334639
 20
5.7572248741
 30
0.0
 10
5.6568129808
 20
5.7643912554
 30
0.0
 10
5.6545413594
 20
5.7727247157
 30
0.0
 10
5.6513152316
 20
5.781778296
 30
0.0
 10
5.6480270553
 20
5.7895460145
 30
0.0
 10
5.6445405171
 20
5.796888637
 30
0.0
 10
5.6420908023
 20
5.8015764366
 30
0.0
 10
5.640690594
 20
5.804142404
 30
0.0
  0
LINE
  5
3A2
100
AcDbEntity
  8
0
100
AcDbLine
 62
7
  6
CONTINUOUS
 10
5.6267507589
 20
6.4750086289
 11
5.6264162189
 21
6.4754136826
  0
LINE
  5
3A3
100
AcDbEntity
  8
0
100
AcDbLine
 62
7
  6
CONTINUOUS
 10
5.6264162189
 20
6.4754136826
 11
5.624773124
 21
6.4780652138
  0
LINE
  5
3A4
100
AcDbEntity
  8
0
100
AcDbLine
 62
7
  6
CONTINUOUS
 10
5.624773124
 20
6.4780652138
 11
5.6246830166
 21
6.4782541025
  0
SPLINE
  5
3A5
100
AcDbEntity
  8
0
100
AcDbSpline
 62
7
  6
CONTINUOUS
 70
0
 71
3
 72
21
 73
17
 74
0
 42
0.0000001
 43
0.0000001
 44
0.0000000001
 40
0.0
 40
0.0
 40
0.0
 40
0.0
 40
0.0068162695
 40
0.0146209572
 40
0.0240819942
 40
0.0355641087
 40
0.06517687
 40
0.1039486892
 40
0.1516417946
 40
0.2076935931
 40
0.2713283995
 40
0.3416109183
 40
0.4977510413
 40
0.6665374144
 40
0.8374935595
 40
1.0
 40
1.0
 40
1.0
 40
1.0
 10
5.6308653965
 20
6.5047041837
 30
0.0
 10
5.6308595196
 20
6.5047012055
 30
0.0
 10
5.6308454153
 20
6.504697568
 30
0.0
 10
5.6308219543
 20
6.5047001391
 30
0.0
 10
5.6307956723
 20
6.5047096689
 30
0.0
 10
5.6307529033
 20
6.504733595
 30
0.0
 10
5.6306926594
 20
6.5047825375
 30
0.0
 10
5.6306139165
 20
6.5048625513
 30
0.0
 10
5.6305247458
 20
6.5049676981
 30
0.0
 10
5.6304265866
 20
6.5050963558
 30
0.0
 10
5.6303210264
 20
6.5052466501
 30
0.0
 10
5.6301672513
 20
6.5054811197
 30
0.0
 10
5.6299709162
 20
6.5058089928
 30
0.0
 10
5.6297420723
 20
6.5062302777
 30
0.0
 10
5.6295271561
 20
6.5066657052
 30
0.0
 10
5.6293962621
 20
6.5069603861
 30
0.0
 10
5.6293361522
 20
6.5071055041
 30
0.0
  0
ENDSEC
  0
SECTION
  2
OBJECTS
  0
DICTIONARY
  5
C
100
AcDbDictionary
280
0
281
1
  3
ACAD_GROUP
350
D
  3
ACAD_MLINESTYLE
350
17
  3
ACAD_LAYOUT
350
1A
  3
ACAD_PLOTSETTINGS
350
19
  3
ACAD_PLOTSTYLENAME
350
E
  0
DICTIONARY
  5
D
102
{ACAD_REACTORS
330
C
102
}
100
AcDbDictionary
280
0
281
1
  0
ACDBDICTIONARYWDFLT
  5
E
102
{ACAD_REACTORS
330
C
102
}
100
AcDbDictionary
281
1
  3
Normal
350
F
100
AcDbDictionaryWithDefault
340
F
  0
DICTIONARY
  5
17
102
{ACAD_REACTORS
330
C
102
}
100
AcDbDictionary
280
0
281
1
  3
Standard
350
18
  0
DICTIONARY
  5
19
102
{ACAD_REACTORS
330
C
102
}
100
AcDbDictionary
281
1
  0
DICTIONARY
  5
1A
102
{ACAD_REACTORS
330
C
102
}
100
AcDbDictionary
281
1
  3
Model
350
3A6
  3
Layout1
350
3A7
  0
ACDBPLACEHOLDER
  5
F
102
{ACAD_REACTORS
330
E
102
}
  0
MLINESTYLE
  5
18
102
{ACAD_REACTORS
330
17
102
}
100
AcDbMlineStyle
  2
STANDARD
 70
0
  3

 62
256
 51
90.0
 52
90.0
 71
2
 49
0.5
 62
256
  6
BYLAYER
 49
-0.5
 62
256
  6
BYLAYER
  0
LAYOUT
  5
3A6
102
{ACAD_REACTORS
330
1A
102
}
100
AcDbPlotSettings
  1

  2
none_device
  4
ANSI_A_(11.00_x_8.50_Inches)
  6

 40
0.0
 41
0.0
 42
0.0
 43
0.0
 44
279.4
 45
215.9
 46
0.0
 47
0.0
 48
0.0
 49
0.0
140
0.0
141
0.0
142
1.0
143
1.0
 70
1024
 72
0
 73
0
 74
0
  7

 75
0
147
1.0
148
0.0
149
0.0
100
AcDbLayout
  1
Model
 70
0
 71
0
 10
0.0
 20
0.0
 11
11.0
 21
8.5
 12
0.0
 22
0.0
 32
0.0
 14
0.0
 24
0.0
 34
0.0
 15
0.0
 25
0.0
 35
0.0
146
0.0
 13
0.0
 23
0.0
 33
0.0
 16
1.0
 26
0.0
 36
0.0
 17
0.0
 27
1.0
 37
0.0
 76
0
330
202
345
0
346
0
  0
LAYOUT
  5
3A7
102
{ACAD_REACTORS
330
1A
102
}
100
AcDbPlotSettings
  1

  2
none_device
  4
ANSI_A_(11.00_x_8.50_Inches)
  6

 40
0.0
 41
0.0
 42
0.0
 43
0.0
 44
279.4
 45
215.9
 46
0.0
 47
0.0
 48
0.0
 49
0.0
140
0.0
141
0.0
142
1.0
143
1.0
 70
0
 72
0
 73
0
 74
0
  7

 75
0
147
1.0
148
0.0
149
0.0
100
AcDbLayout
  1
Layout1
 70
0
 71
1
 10
0.0
 20
0.0
 11
11.0
 21
8.5
 12
0.0
 22
0.0
 32
0.0
 14
0.0
 24
0.0
 34
0.0
 15
0.0
 25
0.0
 35
0.0
146
0.0
 13
0.0
 23
0.0
 33
0.0
 16
1.0
 26
0.0
 36
0.0
 17
0.0
 27
1.0
 37
0.0
 76
0
330
203
345
0
346
0
  0
ENDSEC
  0
EOF
