999
DXF file: E:\BT Custom\CADOUTPUT\_FRONT.dxf
999
Pro/ENGINEER 2018400 by Parametric Technology Corporation
  0
SECTION
  2
HEADER
  9
$ACADVER
  1
AC1018
  9
$DWGCODEPAGE
  3
ANSI_1252
  9
$EXTMAX
 10
22.0
 20
17.0
 30
0.0
  9
$EXTMIN
 10
0.0
 20
0.0
 30
0.0
  9
$LIMMIN
 10
0.0
 20
0.0
  9
$LIMMAX
 10
22.0
 20
17.0
  9
$VIEWCTR
 10
11.0
 20
8.5
  9
$VIEWSIZE
 40
17.0
  9
$CLAYER
  8
0
  9
$LTSCALE
 40
1.21
  9
$CELTYPE
  6
BYLAYER
  9
$DIMSCALE
 40
1.0
  9
$DIMASZ
 40
0.1
  9
$DIMEXO
 40
0.0625
  9
$DIMDLI
 40
0.836
  9
$DIMEXE
 40
0.125
  9
$DIMCEN
 40
0.198
  9
$DIMLFAC
 40
1.0
  9
$DIMBLK
  1
_FILLED
  9
$DIMALT
 70
1
  9
$DIMALTD
 70
2
  9
$DIMALTTD
 70
2
  9
$DIMALTF
 40
25.4
  9
$DIMTXT
 40
0.08
  9
$DIMTOL
 70
1
  9
$DIMLIM
 70
0
  9
$DIMTFAC
 40
1.0
  9
$DIMTP
 40
0.001
  9
$DIMTM
 40
0.001
  9
$DIMGAP
 40
0.09
  9
$DIMDSEP
 70
46
  9
$AUNITS
 70
0
  9
$PDMODE
 70
3
  9
$PDSIZE
 40
0.06
  9
$HANDSEED
  5
53E
  9
$TILEMODE
 70
1
  9
$MEASUREMENT
 70
0
  9
$INSUNITS
 70
1
  0
ENDSEC
  0
SECTION
  2
CLASSES
  0
CLASS
  1
ACDBDICTIONARYWDFLT
  2
AcDbDictionaryWithDefault
  3
AutoCAD 2000
 90
0
 91
1
280
0
281
0
  0
CLASS
  1
ACDBPLACEHOLDER
  2
AcDbPlaceHolder
  3
AutoCAD 2000
 90
0
 91
1
280
0
281
0
  0
CLASS
  1
LAYOUT
  2
AcDbLayout
  3
AutoCAD 2000
 90
0
 91
0
280
0
281
0
  0
ENDSEC
  0
SECTION
  2
TABLES
  0
TABLE
  2
VPORT
  5
8
100
AcDbSymbolTable
 70
2
  0
VPORT
  5
1F4
100
AcDbSymbolTableRecord
100
AcDbViewportTableRecord
  2
*ACTIVE
 70
0
 10
0.0
 20
0.0
 11
1.0
 21
1.0
 12
11.0
 22
8.5
 13
0.0
 23
0.0
 14
1.0
 24
1.0
 15
0.0
 25
0.0
 16
0.0
 26
0.0
 36
1.0
 17
0.0
 27
0.0
 37
0.0
 40
17.0
 41
1.2941176471
 42
50.0
 43
0.0
 44
0.0
 50
0.0
 51
0.0
 71
0
 72
100
 73
1
 74
1
 75
0
 76
0
 77
0
 78
0
  0
ENDTAB
  0
TABLE
  2
LTYPE
  5
5
100
AcDbSymbolTable
 70
6
  0
LTYPE
  5
14
100
AcDbSymbolTableRecord
100
AcDbLinetypeTableRecord
  2
BYBLOCK
 70
0
  3

 72
65
 73
0
 40
0.0
  0
LTYPE
  5
15
100
AcDbSymbolTableRecord
100
AcDbLinetypeTableRecord
  2
BYLAYER
 70
0
  3

 72
65
 73
0
 40
0.0
  0
LTYPE
  5
16
100
AcDbSymbolTableRecord
100
AcDbLinetypeTableRecord
  2
CONTINUOUS
 70
64
  3
Solid line
 72
65
 73
0
 40
0.0
  0
LTYPE
  5
1F5
100
AcDbSymbolTableRecord
100
AcDbLinetypeTableRecord
  2
CENTER
 70
64
  3
____ _ ____ _ ____ _ ____ _ ____ _ ____ _ ____
 72
65
 73
4
 40
0.6
 49
0.375
 74
0
 49
-0.075
 74
0
 49
0.075
 74
0
 49
-0.075
 74
0
  0
LTYPE
  5
1F6
100
AcDbSymbolTableRecord
100
AcDbLinetypeTableRecord
  2
HIDDEN
 70
64
  3
- - - - - - - - - - - - - - - - - - - -
 72
65
 73
2
 40
0.2
 49
0.1
 74
0
 49
-0.1
 74
0
  0
LTYPE
  5
1F7
100
AcDbSymbolTableRecord
100
AcDbLinetypeTableRecord
  2
PHANTOM
 70
64
  3
_____ _ _ _____ _ _ _____ _ _ _____
 72
65
 73
6
 40
0.8
 49
0.45
 74
0
 49
-0.05
 74
0
 49
0.1
 74
0
 49
-0.05
 74
0
 49
0.1
 74
0
 49
-0.05
 74
0
  0
LTYPE
  5
1F8
100
AcDbSymbolTableRecord
100
AcDbLinetypeTableRecord
  2
DOT
 70
64
  3
. . . . . . . . . . . . . . . . . . . .
 72
65
 73
2
 40
0.2
 49
0.1
 74
0
 49
-0.1
 74
0
  0
LTYPE
  5
1F9
100
AcDbSymbolTableRecord
100
AcDbLinetypeTableRecord
  2
DASHED
 70
64
  3
- - - - - - - - - - - - - - - - - - - -
 72
65
 73
2
 40
0.2
 49
0.1
 74
0
 49
-0.1
 74
0
  0
ENDTAB
  0
TABLE
  2
LAYER
  5
2
100
AcDbSymbolTable
 70
36
  0
LAYER
  5
10
100
AcDbSymbolTableRecord
100
AcDbLayerTableRecord
  2
0
 70
0
 62
7
  6
CONTINUOUS
370
-3
390
F
  0
LAYER
  5
1FA
100
AcDbSymbolTableRecord
100
AcDbLayerTableRecord
  2
DEFAULT_1
 70
0
 62
7
  6
CENTER
370
-3
390
F
  0
LAYER
  5
1FB
100
AcDbSymbolTableRecord
100
AcDbLayerTableRecord
  2
DEFAULT_2
 70
0
 62
8
  6
HIDDEN
370
-3
390
F
  0
LAYER
  5
1FC
100
AcDbSymbolTableRecord
100
AcDbLayerTableRecord
  2
DEFAULT_3
 70
0
 62
7
  6
PHANTOM
370
-3
390
F
  0
LAYER
  5
1FD
100
AcDbSymbolTableRecord
100
AcDbLayerTableRecord
  2
ALL_FEATURES
 70
0
 62
7
  6
CONTINUOUS
370
-3
390
F
  0
LAYER
  5
1FE
100
AcDbSymbolTableRecord
100
AcDbLayerTableRecord
  2
AXES_FEATURES
 70
0
 62
7
  6
CONTINUOUS
370
-3
390
F
  0
LAYER
  5
1FF
100
AcDbSymbolTableRecord
100
AcDbLayerTableRecord
  2
DIMENSIONS
 70
0
 62
7
  6
CONTINUOUS
370
-3
390
F
  0
ENDTAB
  0
TABLE
  2
STYLE
  5
3
100
AcDbSymbolTable
 70
1
  0
STYLE
  5
11
100
AcDbSymbolTableRecord
100
AcDbTextStyleTableRecord
  2
STANDARD
 70
0
 40
0.0
 41
0.8
 50
0.0
 71
0
 42
0.2
  3
txt
  4

  0
STYLE
  5
200
100
AcDbSymbolTableRecord
100
AcDbTextStyleTableRecord
  2
TEXTSTYLE_1
 70
0
 40
0.0
 41
0.8
 50
0.0
 71
0
 42
0.2
  3
gdt
  4

  0
ENDTAB
  0
TABLE
  2
VIEW
  5
6
100
AcDbSymbolTable
 70
0
  0
ENDTAB
  0
TABLE
  2
UCS
  5
7
100
AcDbSymbolTable
 70
0
  0
ENDTAB
  0
TABLE
  2
APPID
  5
9
100
AcDbSymbolTable
 70
1
  0
APPID
  5
201
100
AcDbSymbolTableRecord
100
AcDbRegAppTableRecord
  2
ACAD
 70
0
  0
ENDTAB
  0
TABLE
  2
BLOCK_RECORD
  5
1
100
AcDbSymbolTable
 70
0
  0
BLOCK_RECORD
  5
202
100
AcDbSymbolTableRecord
100
AcDbBlockTableRecord
  2
*Model_Space
  0
BLOCK_RECORD
  5
203
100
AcDbSymbolTableRecord
100
AcDbBlockTableRecord
  2
*Paper_Space
  0
BLOCK_RECORD
  5
204
100
AcDbSymbolTableRecord
100
AcDbBlockTableRecord
  2
_FILLED
  0
ENDTAB
  0
TABLE
  2
DIMSTYLE
  5
A
100
AcDbSymbolTable
 70
1
100
AcDbDimStyleTable
 71
0
  0
DIMSTYLE
105
205
100
AcDbSymbolTableRecord
100
AcDbDimStyleTableRecord
  2
STANDARD
 70
0
  3

  4

 40
1.0
 41
0.1
 42
0.0625
 43
0.38
 44
0.125
 45
0.0
 46
0.0
 47
0.001
 48
0.001
140
0.08
141
0.09
142
0.0
143
25.4
144
1.0
145
0.0
146
1.0
147
0.09
 71
1.0
 72
0.0
 73
1
 74
1
 75
0
 76
0
 77
0
 78
4
 79
1
170
1
171
2
172
0
173
0
174
0
175
0
176
0
177
0
178
0
270
2
179
3
271
3
272
3
273
2
274
2
275
0
280
0
281
0
282
0
283
1
284
4
285
0
286
0
287
3
288
0
340
11
278
46
341
204
342
204
343
204
344
204
  0
ENDTAB
  0
ENDSEC
  0
SECTION
  2
BLOCKS
  0
BLOCK
  5
20
100
AcDbEntity
  8
0
100
AcDbBlockBegin
  2
*Model_Space
 70
0
 10
0.0
 20
0.0
 30
0.0
  3
*Model_Space
  1

  0
ENDBLK
  5
21
100
AcDbEntity
  8
0
100
AcDbBlockEnd
  0
BLOCK
  5
1C
100
AcDbEntity
  8
0
100
AcDbBlockBegin
  2
*Paper_Space
 70
0
 10
0.0
 20
0.0
 30
0.0
  3
*Paper_Space
  1

  0
ENDBLK
  5
1D
100
AcDbEntity
  8
0
100
AcDbBlockEnd
  0
BLOCK
  5
206
100
AcDbEntity
  8
0
100
AcDbBlockBegin
  2
_FILLED
 70
64
 10
0.0
 20
0.0
  3
_FILLED
  1

  0
SOLID
  5
207
100
AcDbEntity
  8
0
  6
BYBLOCK
 62
0
100
AcDbTrace
 10
0.0
 20
0.0
 11
-1.0
 21
0.2
 12
-1.0
 22
-0.2
 13
-1.0
 23
-0.2
  0
ENDBLK
  5
208
100
AcDbEntity
  8
0
  6
BYBLOCK
 62
0
100
AcDbBlockEnd
  0
ENDSEC
  0
SECTION
  2
ENTITIES
  0
LINE
  5
209
100
AcDbEntity
  8
0
100
AcDbLine
 62
7
  6
CONTINUOUS
 10
6.0408820909
 20
6.9398624887
 11
6.0408814393
 21
6.6899189453
  0
LINE
  5
20A
100
AcDbEntity
  8
0
100
AcDbLine
 62
7
  6
CONTINUOUS
 10
6.0579423427
 20
6.6899189453
 11
6.0579423427
 21
6.6279189453
  0
LINE
  5
20B
100
AcDbEntity
  8
0
100
AcDbLine
 62
7
  6
CONTINUOUS
 10
6.2714423427
 20
9.0262030424
 11
6.2714423427
 21
8.9549189453
  0
LINE
  5
20C
100
AcDbEntity
  8
0
100
AcDbLine
 62
7
  6
CONTINUOUS
 10
6.4199111396
 20
6.939864164
 11
6.419911891
 21
6.6899189453
  0
LINE
  5
20D
100
AcDbEntity
  8
0
100
AcDbLine
 62
7
  6
CONTINUOUS
 10
6.4554423427
 20
8.3039189453
 11
6.4554423427
 21
7.9449189453
  0
LINE
  5
20E
100
AcDbEntity
  8
0
100
AcDbLine
 62
7
  6
CONTINUOUS
 10
6.2414423427
 20
8.4339189453
 11
6.2714423427
 21
8.3549189453
  0
LINE
  5
20F
100
AcDbEntity
  8
0
100
AcDbLine
 62
7
  6
CONTINUOUS
 10
6.6037808711
 20
9.1256920928
 11
6.6037808711
 21
9.1246828271
  0
LINE
  5
210
100
AcDbEntity
  8
0
100
AcDbLine
 62
7
  6
CONTINUOUS
 10
6.6143897711
 20
9.1247050142
 11
6.6143897711
 21
9.1257142653
  0
LINE
  5
211
100
AcDbEntity
  8
0
100
AcDbLine
 62
7
  6
CONTINUOUS
 10
6.6151932158
 20
7.9399189453
 11
6.6151932158
 21
7.9449189453
  0
LINE
  5
212
100
AcDbEntity
  8
0
100
AcDbLine
 62
7
  6
CONTINUOUS
 10
6.6209614215
 20
7.9449189453
 11
6.6209614215
 21
7.9399189453
  0
LINE
  5
213
100
AcDbEntity
  8
0
100
AcDbLine
 62
9
  6
CONTINUOUS
 10
6.6214192083
 20
9.1253557793
 11
6.6214192083
 21
9.1243462925
  0
LINE
  5
214
100
AcDbEntity
  8
0
100
AcDbLine
 62
7
  6
CONTINUOUS
 10
6.637399149
 20
7.9399189453
 11
6.637399149
 21
7.9449189453
  0
LINE
  5
215
100
AcDbEntity
  8
0
100
AcDbLine
 62
9
  6
CONTINUOUS
 10
6.6383897711
 20
9.1248395587
 11
6.6383897711
 21
9.1258487214
  0
LINE
  5
216
100
AcDbEntity
  8
0
100
AcDbLine
 62
9
  6
CONTINUOUS
 10
6.6468750525
 20
9.1267116387
 11
6.6468750525
 21
9.1257030428
  0
LINE
  5
217
100
AcDbEntity
  8
0
100
AcDbLine
 62
7
  6
CONTINUOUS
 10
6.6538256091
 20
7.9449189453
 11
6.6538256091
 21
7.9399189453
  0
LINE
  5
218
100
AcDbEntity
  8
0
100
AcDbLine
 62
7
  6
CONTINUOUS
 10
6.6568242874
 20
9.1250554228
 11
6.6568242874
 21
9.1260644438
  0
LINE
  5
219
100
AcDbEntity
  8
0
100
AcDbLine
 62
7
  6
CONTINUOUS
 10
6.6572686196
 20
9.1167102239
 11
6.6572686196
 21
9.1177247539
  0
LINE
  5
21A
100
AcDbEntity
  8
0
100
AcDbLine
 62
9
  6
CONTINUOUS
 10
6.6585816467
 20
9.1258052556
 11
6.6585816467
 21
9.1247960643
  0
LINE
  5
21B
100
AcDbEntity
  8
0
100
AcDbLine
 62
7
  6
CONTINUOUS
 10
6.6674204814
 20
9.1342788761
 11
6.6674204814
 21
9.1332752233
  0
LINE
  5
21C
100
AcDbEntity
  8
0
100
AcDbLine
 62
9
  6
CONTINUOUS
 10
6.6723308966
 20
9.1299965445
 11
6.6723308966
 21
9.1310023317
  0
LINE
  5
21D
100
AcDbEntity
  8
0
100
AcDbLine
 62
7
  6
CONTINUOUS
 10
6.6740882559
 20
9.1304299026
 11
6.6740882559
 21
9.1314354071
  0
LINE
  5
21E
100
AcDbEntity
  8
0
100
AcDbLine
 62
7
  6
CONTINUOUS
 10
6.6767266683
 20
7.9399189453
 11
6.6767266683
 21
7.9449189453
  0
LINE
  5
21F
100
AcDbEntity
  8
0
100
AcDbLine
 62
7
  6
CONTINUOUS
 10
6.6775723433
 20
9.1337329121
 11
6.6775723433
 21
9.1347362677
  0
LINE
  5
220
100
AcDbEntity
  8
0
100
AcDbLine
 62
9
  6
CONTINUOUS
 10
6.6785234536
 20
9.124353361
 11
6.6785234536
 21
9.1253628431
  0
LINE
  5
221
100
AcDbEntity
  8
0
100
AcDbLine
 62
7
  6
CONTINUOUS
 10
6.684198569
 20
7.9399189453
 11
6.684198569
 21
7.9449189453
  0
LINE
  5
222
100
AcDbEntity
  8
0
100
AcDbLine
 62
9
  6
CONTINUOUS
 10
6.6846017806
 20
9.1347808354
 11
6.6846017806
 21
9.1337775087
  0
LINE
  5
223
100
AcDbEntity
  8
0
100
AcDbLine
 62
7
  6
CONTINUOUS
 10
6.7063113544
 20
9.1267770062
 11
6.7063113544
 21
9.1257684532
  0
LINE
  5
224
100
AcDbEntity
  8
0
100
AcDbLine
 62
7
  6
CONTINUOUS
 10
6.7087825038
 20
7.9449189453
 11
6.7087825038
 21
7.9399189453
  0
LINE
  5
225
100
AcDbEntity
  8
0
100
AcDbLine
 62
7
  6
CONTINUOUS
 10
6.7209082299
 20
9.1290648994
 11
6.7209082299
 21
9.1300712947
  0
LINE
  5
226
100
AcDbEntity
  8
0
100
AcDbLine
 62
7
  6
CONTINUOUS
 10
6.7275920556
 20
7.9399189453
 11
6.7275920556
 21
7.9449189453
  0
LINE
  5
227
100
AcDbEntity
  8
0
100
AcDbLine
 62
9
  6
CONTINUOUS
 10
6.7421630639
 20
9.1339092646
 11
6.7421630639
 21
9.1349125058
  0
LINE
  5
228
100
AcDbEntity
  8
0
100
AcDbLine
 62
7
  6
CONTINUOUS
 10
6.7438267688
 20
9.1388833776
 11
6.7438267688
 21
9.1378827089
  0
LINE
  5
229
100
AcDbEntity
  8
0
100
AcDbLine
 62
7
  6
CONTINUOUS
 10
6.7453720533
 20
7.9449189453
 11
6.7453720533
 21
7.9399189453
  0
LINE
  5
22A
100
AcDbEntity
  8
0
100
AcDbLine
 62
7
  6
CONTINUOUS
 10
6.7484666885
 20
7.9399189453
 11
6.7484666885
 21
7.9449189453
  0
LINE
  5
22B
100
AcDbEntity
  8
0
100
AcDbLine
 62
7
  6
CONTINUOUS
 10
6.7589423427
 20
8.0768249346
 11
6.7589423427
 21
8.1230129561
  0
LINE
  5
22C
100
AcDbEntity
  8
0
100
AcDbLine
 62
9
  6
CONTINUOUS
 10
6.7680417764
 20
9.1393030615
 11
6.7680417764
 21
9.1383026639
  0
LINE
  5
22D
100
AcDbEntity
  8
0
100
AcDbLine
 62
7
  6
CONTINUOUS
 10
6.7699509647
 20
9.1353577642
 11
6.7699509647
 21
9.1343548122
  0
LINE
  5
22E
100
AcDbEntity
  8
0
100
AcDbLine
 62
7
  6
CONTINUOUS
 10
6.7774654168
 20
7.9449189453
 11
6.7774654168
 21
7.9399189453
  0
LINE
  5
22F
100
AcDbEntity
  8
0
100
AcDbLine
 62
7
  6
CONTINUOUS
 10
6.7893198774
 20
7.9399189453
 11
6.7893198774
 21
7.9449189453
  0
LINE
  5
230
100
AcDbEntity
  8
0
100
AcDbLine
 62
7
  6
CONTINUOUS
 10
6.8085648081
 20
7.9449189453
 11
6.8085648081
 21
7.9399189453
  0
LINE
  5
231
100
AcDbEntity
  8
0
100
AcDbLine
 62
7
  6
CONTINUOUS
 10
6.8204192687
 20
7.9399189453
 11
6.8204192687
 21
7.9449189453
  0
LINE
  5
232
100
AcDbEntity
  8
0
100
AcDbLine
 62
7
  6
CONTINUOUS
 10
6.8389423427
 20
8.1230129561
 11
6.8389423427
 21
8.0768249346
  0
LINE
  5
233
100
AcDbEntity
  8
0
100
AcDbLine
 62
7
  6
CONTINUOUS
 10
6.849417997
 20
7.9449189453
 11
6.849417997
 21
7.9399189453
  0
LINE
  5
234
100
AcDbEntity
  8
0
100
AcDbLine
 62
7
  6
CONTINUOUS
 10
6.8516215846
 20
9.1379479055
 11
6.8516215846
 21
9.1389485321
  0
LINE
  5
235
100
AcDbEntity
  8
0
100
AcDbLine
 62
7
  6
CONTINUOUS
 10
6.8525126322
 20
7.9399189453
 11
6.8525126322
 21
7.9449189453
  0
LINE
  5
236
100
AcDbEntity
  8
0
100
AcDbLine
 62
7
  6
CONTINUOUS
 10
6.8702926298
 20
7.9449189453
 11
6.8702926298
 21
7.9399189453
  0
LINE
  5
237
100
AcDbEntity
  8
0
100
AcDbLine
 62
7
  6
CONTINUOUS
 10
6.8891021816
 20
7.9399189453
 11
6.8891021816
 21
7.9449189453
  0
LINE
  5
238
100
AcDbEntity
  8
0
100
AcDbLine
 62
7
  6
CONTINUOUS
 10
6.9136861165
 20
7.9449189453
 11
6.9136861165
 21
7.9399189453
  0
LINE
  5
239
100
AcDbEntity
  8
0
100
AcDbLine
 62
7
  6
CONTINUOUS
 10
6.2714423427
 20
8.9239189453
 11
6.2414423427
 21
8.8439189453
  0
LINE
  5
23A
100
AcDbEntity
  8
0
100
AcDbLine
 62
7
  6
CONTINUOUS
 10
7.4401057824
 20
7.0564189453
 11
7.5569988268
 21
6.939862624
  0
LINE
  5
23B
100
AcDbEntity
  8
0
100
AcDbLine
 62
7
  6
CONTINUOUS
 10
6.2154439831
 20
8.758708899
 11
6.1858574572
 21
8.799745788
  0
LINE
  5
23C
100
AcDbEntity
  8
0
100
AcDbLine
 62
7
  6
CONTINUOUS
 10
6.9211580171
 20
7.9449189453
 11
6.9211580171
 21
7.9399189453
  0
LINE
  5
23D
100
AcDbEntity
  8
0
100
AcDbLine
 62
7
  6
CONTINUOUS
 10
6.9440590764
 20
7.9399189453
 11
6.9440590764
 21
7.9449189453
  0
LINE
  5
23E
100
AcDbEntity
  8
0
100
AcDbLine
 62
7
  6
CONTINUOUS
 10
6.9604855365
 20
7.9449189453
 11
6.9604855365
 21
7.9399189453
  0
LINE
  5
23F
100
AcDbEntity
  8
0
100
AcDbLine
 62
7
  6
CONTINUOUS
 10
6.976923264
 20
7.9399189453
 11
6.976923264
 21
7.9449189453
  0
LINE
  5
240
100
AcDbEntity
  8
0
100
AcDbLine
 62
7
  6
CONTINUOUS
 10
6.9826914697
 20
7.9449189453
 11
6.9826914697
 21
7.9399189453
  0
LINE
  5
241
100
AcDbEntity
  8
0
100
AcDbLine
 62
7
  6
CONTINUOUS
 10
7.1424423427
 20
8.3039189453
 11
7.1424423427
 21
8.1950189453
  0
LINE
  5
242
100
AcDbEntity
  8
0
100
AcDbLine
 62
7
  6
CONTINUOUS
 10
7.1424423427
 20
8.0048189453
 11
7.1424423427
 21
7.9449189453
  0
LINE
  5
243
100
AcDbEntity
  8
0
100
AcDbLine
 62
7
  6
CONTINUOUS
 10
7.1779716946
 20
6.9398641641
 11
7.1779727945
 21
6.6899189453
  0
LINE
  5
244
100
AcDbEntity
  8
0
100
AcDbLine
 62
7
  6
CONTINUOUS
 10
6.2857081905
 20
9.0458382973
 11
6.2714423427
 21
9.0262030424
  0
LINE
  5
245
100
AcDbEntity
  8
0
100
AcDbLine
 62
7
  6
CONTINUOUS
 10
7.3394423427
 20
7.6055353841
 11
7.4135763369
 21
7.4996177569
  0
LINE
  5
246
100
AcDbEntity
  8
0
100
AcDbLine
 62
7
  6
CONTINUOUS
 10
7.3264423427
 20
9.0262030424
 11
7.3264423427
 21
8.9549189453
  0
LINE
  5
247
100
AcDbEntity
  8
0
100
AcDbLine
 62
7
  6
CONTINUOUS
 10
7.5399423427
 20
6.6899189453
 11
7.5399423427
 21
6.6279189453
  0
LINE
  5
248
100
AcDbEntity
  8
0
100
AcDbLine
 62
7
  6
CONTINUOUS
 10
7.5570024105
 20
6.939863704
 11
7.5570032462
 21
6.6899189453
  0
LINE
  5
249
100
AcDbEntity
  8
0
100
AcDbLine
 62
7
  6
CONTINUOUS
 10
6.2154439831
 20
8.5191289916
 11
6.1858574572
 21
8.4780921026
  0
LINE
  5
24A
100
AcDbEntity
  8
0
100
AcDbLine
 62
7
  6
CONTINUOUS
 10
7.3824407023
 20
8.5191289916
 11
7.4120272283
 21
8.4780921026
  0
LINE
  5
24B
100
AcDbEntity
  8
0
100
AcDbLine
 62
7
  6
CONTINUOUS
 10
7.3264423427
 20
8.9239189453
 11
7.3564423427
 21
8.8439189453
  0
LINE
  5
24C
100
AcDbEntity
  8
0
100
AcDbLine
 62
7
  6
CONTINUOUS
 10
7.3564423427
 20
8.4339189453
 11
7.3264423427
 21
8.3549189453
  0
LINE
  5
24D
100
AcDbEntity
  8
0
100
AcDbLine
 62
7
  6
CONTINUOUS
 10
6.2584423427
 20
7.6055353841
 11
6.1843083485
 21
7.4996177569
  0
LINE
  5
24E
100
AcDbEntity
  8
0
100
AcDbLine
 62
7
  6
CONTINUOUS
 10
5.6189423427
 20
6.2529189453
 11
7.9789423427
 21
6.2529189453
  0
LINE
  5
24F
100
AcDbEntity
  8
0
100
AcDbLine
 62
7
  6
CONTINUOUS
 10
9.6439423427
 20
6.2529189453
 11
11.9539423427
 21
6.2529189453
  0
LINE
  5
250
100
AcDbEntity
  8
0
100
AcDbLine
 62
7
  6
CONTINUOUS
 10
13.6189423427
 20
6.2529189453
 11
15.9789423427
 21
6.2529189453
  0
LINE
  5
251
100
AcDbEntity
  8
0
100
AcDbLine
 62
7
  6
CONTINUOUS
 10
9.6239423427
 20
6.2729189453
 11
11.9739423427
 21
6.2729189453
  0
LINE
  5
252
100
AcDbEntity
  8
0
100
AcDbLine
 62
9
  6
CONTINUOUS
 10
11.9739423427
 20
6.3579189453
 11
9.6239423427
 21
6.3579189453
  0
LINE
  5
253
100
AcDbEntity
  8
0
100
AcDbLine
 62
7
  6
CONTINUOUS
 10
11.9439423427
 20
6.3879189453
 11
9.6539423427
 21
6.3879189453
  0
LINE
  5
254
100
AcDbEntity
  8
0
100
AcDbLine
 62
7
  6
CONTINUOUS
 10
5.7989423427
 20
6.4399189453
 11
7.7989423427
 21
6.4399189453
  0
LINE
  5
255
100
AcDbEntity
  8
0
100
AcDbLine
 62
7
  6
CONTINUOUS
 10
13.7989423427
 20
6.4399189453
 11
15.7989423427
 21
6.4399189453
  0
LINE
  5
256
100
AcDbEntity
  8
0
100
AcDbLine
 62
7
  6
CONTINUOUS
 10
6.7589423427
 20
8.0768249346
 11
6.7989423427
 21
8.0537309238
  0
LINE
  5
257
100
AcDbEntity
  8
0
100
AcDbLine
 62
7
  6
CONTINUOUS
 10
6.8389423427
 20
8.1230129561
 11
6.7989423427
 21
8.1461069669
  0
LINE
  5
258
100
AcDbEntity
  8
0
100
AcDbLine
 62
7
  6
CONTINUOUS
 10
9.6439423427
 20
6.2529189453
 11
9.6239423427
 21
6.2729189453
  0
LINE
  5
259
100
AcDbEntity
  8
0
100
AcDbLine
 62
7
  6
CONTINUOUS
 10
7.312176495
 20
9.0458382973
 11
7.3264423427
 21
9.0262030424
  0
LINE
  5
25A
100
AcDbEntity
  8
0
100
AcDbLine
 62
7
  6
CONTINUOUS
 10
7.3824407023
 20
8.758708899
 11
7.4120272283
 21
8.799745788
  0
LINE
  5
25B
100
AcDbEntity
  8
0
100
AcDbLine
 62
7
  6
CONTINUOUS
 10
15.6119450166
 20
6.6279189453
 11
13.9859396689
 21
6.6279189453
  0
LINE
  5
25C
100
AcDbEntity
  8
0
100
AcDbLine
 62
7
  6
CONTINUOUS
 10
11.6689423427
 20
6.6279189453
 11
9.9289423427
 21
6.6279189453
  0
LINE
  5
25D
100
AcDbEntity
  8
0
100
AcDbLine
 62
7
  6
CONTINUOUS
 10
7.6119450166
 20
6.6279189453
 11
5.9859396689
 21
6.6279189453
  0
LINE
  5
25E
100
AcDbEntity
  8
0
100
AcDbLine
 62
7
  6
CONTINUOUS
 10
6.0408814393
 20
6.6899189453
 11
6.0579423427
 21
6.6899189453
  0
LINE
  5
25F
100
AcDbEntity
  8
0
100
AcDbLine
 62
7
  6
CONTINUOUS
 10
6.0604951276
 20
6.6899189453
 11
7.5373958868
 21
6.6899189453
  0
LINE
  5
260
100
AcDbEntity
  8
0
100
AcDbLine
 62
7
  6
CONTINUOUS
 10
7.5399423427
 20
6.6899189453
 11
7.5570032462
 21
6.6899189453
  0
LINE
  5
261
100
AcDbEntity
  8
0
100
AcDbLine
 62
7
  6
CONTINUOUS
 10
14.0408814393
 20
6.6899189453
 11
14.0579423427
 21
6.6899189453
  0
LINE
  5
262
100
AcDbEntity
  8
0
100
AcDbLine
 62
7
  6
CONTINUOUS
 10
14.0604951276
 20
6.6899189453
 11
15.5373958868
 21
6.6899189453
  0
LINE
  5
263
100
AcDbEntity
  8
0
100
AcDbLine
 62
7
  6
CONTINUOUS
 10
15.5399423427
 20
6.6899189453
 11
15.5570032462
 21
6.6899189453
  0
LINE
  5
264
100
AcDbEntity
  8
0
100
AcDbLine
 62
7
  6
CONTINUOUS
 10
6.2982891303
 20
8.9394189453
 11
6.2714423427
 21
8.9549189453
  0
LINE
  5
265
100
AcDbEntity
  8
0
100
AcDbLine
 62
7
  6
CONTINUOUS
 10
6.2982891303
 20
8.9394189453
 11
6.2714423427
 21
8.9239189453
  0
LINE
  5
266
100
AcDbEntity
  8
0
100
AcDbLine
 62
7
  6
CONTINUOUS
 10
11.3299423427
 20
6.9629189453
 11
10.2679423427
 21
6.9629189453
  0
LINE
  5
267
100
AcDbEntity
  8
0
100
AcDbLine
 62
9
  6
CONTINUOUS
 10
15.4401057824
 20
7.0564189453
 11
14.1577789031
 21
7.0564189453
  0
LINE
  5
268
100
AcDbEntity
  8
0
100
AcDbLine
 62
9
  6
CONTINUOUS
 10
7.4401057824
 20
7.0564189453
 11
6.1577789031
 21
7.0564189453
  0
LINE
  5
269
100
AcDbEntity
  8
0
100
AcDbLine
 62
7
  6
CONTINUOUS
 10
10.3459423427
 20
7.0903769312
 11
11.2519423427
 21
7.0903769312
  0
LINE
  5
26A
100
AcDbEntity
  8
0
100
AcDbLine
 62
9
  6
CONTINUOUS
 10
6.1804423427
 20
7.2714189453
 11
7.4174423427
 21
7.2714189453
  0
LINE
  5
26B
100
AcDbEntity
  8
0
100
AcDbLine
 62
9
  6
CONTINUOUS
 10
14.1804423427
 20
7.2714189453
 11
15.4174423427
 21
7.2714189453
  0
LINE
  5
26C
100
AcDbEntity
  8
0
100
AcDbLine
 62
7
  6
CONTINUOUS
 10
6.4284423427
 20
8.3039189453
 11
6.2714423427
 21
8.3549189453
  0
LINE
  5
26D
100
AcDbEntity
  8
0
100
AcDbLine
 62
7
  6
CONTINUOUS
 10
7.2995955552
 20
8.9394189453
 11
7.3264423427
 21
8.9239189453
  0
LINE
  5
26E
100
AcDbEntity
  8
0
100
AcDbLine
 62
7
  6
CONTINUOUS
 10
6.1577789031
 20
7.0564189453
 11
6.040884882
 21
6.9398616501
  0
LINE
  5
26F
100
AcDbEntity
  8
0
100
AcDbLine
 62
9
  6
CONTINUOUS
 10
6.1843083485
 20
7.4996177569
 11
7.4135763369
 21
7.4996177569
  0
LINE
  5
270
100
AcDbEntity
  8
0
100
AcDbLine
 62
9
  6
CONTINUOUS
 10
14.1843083485
 20
7.4996177569
 11
15.4135763369
 21
7.4996177569
  0
LINE
  5
271
100
AcDbEntity
  8
0
100
AcDbLine
 62
9
  6
CONTINUOUS
 10
15.3394423427
 20
7.6055353841
 11
14.2584423427
 21
7.6055353841
  0
LINE
  5
272
100
AcDbEntity
  8
0
100
AcDbLine
 62
9
  6
CONTINUOUS
 10
7.3394423427
 20
7.6055353841
 11
6.2584423427
 21
7.6055353841
  0
LINE
  5
273
100
AcDbEntity
  8
0
100
AcDbLine
 62
7
  6
CONTINUOUS
 10
9.6239423427
 20
6.3579189453
 11
9.6239423427
 21
6.2729189453
  0
LINE
  5
274
100
AcDbEntity
  8
0
100
AcDbLine
 62
7
  6
CONTINUOUS
 10
7.2995955552
 20
8.9394189453
 11
7.3264423427
 21
8.9549189453
  0
LINE
  5
275
100
AcDbEntity
  8
0
100
AcDbLine
 62
7
  6
CONTINUOUS
 10
6.3444323866
 20
9.0649189453
 11
6.2857081905
 21
9.0458382973
  0
LINE
  5
276
100
AcDbEntity
  8
0
100
AcDbLine
 62
9
  6
CONTINUOUS
 10
15.2286820701
 20
7.9115181899
 11
14.3692026153
 21
7.9115181899
  0
LINE
  5
277
100
AcDbEntity
  8
0
100
AcDbLine
 62
9
  6
CONTINUOUS
 10
7.2286820701
 20
7.9115181899
 11
6.3692026153
 21
7.9115181899
  0
LINE
  5
278
100
AcDbEntity
  8
0
100
AcDbLine
 62
7
  6
CONTINUOUS
 10
15.1977912107
 20
7.9399189453
 11
14.4000934747
 21
7.9399189453
  0
LINE
  5
279
100
AcDbEntity
  8
0
100
AcDbLine
 62
7
  6
CONTINUOUS
 10
7.1977912107
 20
7.9399189453
 11
6.4000934747
 21
7.9399189453
  0
LINE
  5
27A
100
AcDbEntity
  8
0
100
AcDbLine
 62
7
  6
CONTINUOUS
 10
6.4554425025
 20
7.9449189453
 11
7.142442183
 21
7.9449189453
  0
LINE
  5
27B
100
AcDbEntity
  8
0
100
AcDbLine
 62
7
  6
CONTINUOUS
 10
14.4554427028
 20
7.9449189453
 11
15.1424419826
 21
7.9449189453
  0
LINE
  5
27C
100
AcDbEntity
  8
0
100
AcDbLine
 62
7
  6
CONTINUOUS
 10
14.6150945796
 20
8.0768249346
 11
14.562061571
 21
8.0768249346
  0
LINE
  5
27D
100
AcDbEntity
  8
0
100
AcDbLine
 62
7
  6
CONTINUOUS
 10
14.9827901058
 20
8.0768249346
 11
15.0358231144
 21
8.0768249346
  0
LINE
  5
27E
100
AcDbEntity
  8
0
100
AcDbLine
 62
7
  6
CONTINUOUS
 10
7.2534522989
 20
9.0649189453
 11
7.312176495
 21
9.0458382973
  0
LINE
  5
27F
100
AcDbEntity
  8
0
100
AcDbLine
 62
7
  6
CONTINUOUS
 10
6.7989423427
 20
8.1461069669
 11
6.7589423427
 21
8.1230129561
  0
LINE
  5
280
100
AcDbEntity
  8
0
100
AcDbLine
 62
7
  6
CONTINUOUS
 10
6.7989423427
 20
8.0537309238
 11
6.8389423427
 21
8.0768249346
  0
LINE
  5
281
100
AcDbEntity
  8
0
100
AcDbLine
 62
7
  6
CONTINUOUS
 10
14.6150945796
 20
8.1230129561
 11
14.562061571
 21
8.1230129561
  0
LINE
  5
282
100
AcDbEntity
  8
0
100
AcDbLine
 62
7
  6
CONTINUOUS
 10
14.9827901058
 20
8.1230129561
 11
15.0358231144
 21
8.1230129561
  0
LINE
  5
283
100
AcDbEntity
  8
0
100
AcDbLine
 62
7
  6
CONTINUOUS
 10
10.3459423427
 20
8.2637498472
 11
11.2519423427
 21
8.2637498472
  0
LINE
  5
284
100
AcDbEntity
  8
0
100
AcDbLine
 62
7
  6
CONTINUOUS
 10
11.2519423427
 20
8.2942103312
 11
10.3459423427
 21
8.2942103312
  0
LINE
  5
285
100
AcDbEntity
  8
0
100
AcDbLine
 62
7
  6
CONTINUOUS
 10
6.4284425125
 20
8.3039189453
 11
7.169442173
 21
8.3039189453
  0
LINE
  5
286
100
AcDbEntity
  8
0
100
AcDbLine
 62
7
  6
CONTINUOUS
 10
14.4284427406
 20
8.3039189453
 11
15.1694419449
 21
8.3039189453
  0
LINE
  5
287
100
AcDbEntity
  8
0
100
AcDbLine
 62
7
  6
CONTINUOUS
 10
15.3264423427
 20
8.3549189453
 11
14.2714423427
 21
8.3549189453
  0
LINE
  5
288
100
AcDbEntity
  8
0
100
AcDbLine
 62
7
  6
CONTINUOUS
 10
7.3264423427
 20
8.3549189453
 11
6.2714423427
 21
8.3549189453
  0
LINE
  5
289
100
AcDbEntity
  8
0
100
AcDbLine
 62
7
  6
CONTINUOUS
 10
6.2414423427
 20
8.4339189453
 11
7.3564423427
 21
8.4339189453
  0
LINE
  5
28A
100
AcDbEntity
  8
0
100
AcDbLine
 62
7
  6
CONTINUOUS
 10
14.2414423427
 20
8.4339189453
 11
14.6168353303
 21
8.4339189453
  0
LINE
  5
28B
100
AcDbEntity
  8
0
100
AcDbLine
 62
7
  6
CONTINUOUS
 10
14.9810493552
 20
8.4339189453
 11
15.3564423427
 21
8.4339189453
  0
LINE
  5
28C
100
AcDbEntity
  8
0
100
AcDbLine
 62
7
  6
CONTINUOUS
 10
6.4494531685
 20
8.4429189453
 11
6.4390207653
 21
8.4429189453
  0
LINE
  5
28D
100
AcDbEntity
  8
0
100
AcDbLine
 62
7
  6
CONTINUOUS
 10
7.1489000191
 20
8.4429189453
 11
7.1588639219
 21
8.4429189453
  0
LINE
  5
28E
100
AcDbEntity
  8
0
100
AcDbLine
 62
7
  6
CONTINUOUS
 10
10.4509552797
 20
9.5622382139
 11
10.3819578448
 21
10.2596283736
  0
LINE
  5
28F
100
AcDbEntity
  8
0
100
AcDbLine
 62
7
  6
CONTINUOUS
 10
10.3459423427
 20
8.9120880434
 11
10.3459423427
 21
8.8816275594
  0
LINE
  5
290
100
AcDbEntity
  8
0
100
AcDbLine
 62
7
  6
CONTINUOUS
 10
10.3459423427
 20
8.2942103312
 11
10.3459423427
 21
8.2637498472
  0
LINE
  5
291
100
AcDbEntity
  8
0
100
AcDbLine
 62
7
  6
CONTINUOUS
 10
10.4864423427
 20
11.459761923
 11
10.4864423427
 21
10.4058507185
  0
LINE
  5
292
100
AcDbEntity
  8
0
100
AcDbLine
 62
7
  6
CONTINUOUS
 10
10.5489423427
 20
11.895420059
 11
10.5489423427
 21
11.832420059
  0
LINE
  5
293
100
AcDbEntity
  8
0
100
AcDbLine
 62
7
  6
CONTINUOUS
 10
6.4489493578
 20
8.8349189453
 11
6.4390207653
 21
8.8349189453
  0
LINE
  5
294
100
AcDbEntity
  8
0
100
AcDbLine
 62
7
  6
CONTINUOUS
 10
7.1484541719
 20
8.8349189453
 11
7.1588639219
 21
8.8349189453
  0
LINE
  5
295
100
AcDbEntity
  8
0
100
AcDbLine
 62
7
  6
CONTINUOUS
 10
15.3564423427
 20
8.8439189453
 11
14.9810493552
 21
8.8439189453
  0
LINE
  5
296
100
AcDbEntity
  8
0
100
AcDbLine
 62
7
  6
CONTINUOUS
 10
14.6168353303
 20
8.8439189453
 11
14.2414423427
 21
8.8439189453
  0
LINE
  5
297
100
AcDbEntity
  8
0
100
AcDbLine
 62
7
  6
CONTINUOUS
 10
7.3564423427
 20
8.8439189453
 11
6.2414423427
 21
8.8439189453
  0
LINE
  5
298
100
AcDbEntity
  8
0
100
AcDbLine
 62
7
  6
CONTINUOUS
 10
10.3459423427
 20
8.8816275594
 11
11.2519423427
 21
8.8816275594
  0
LINE
  5
299
100
AcDbEntity
  8
0
100
AcDbLine
 62
7
  6
CONTINUOUS
 10
11.2519423427
 20
8.9120880434
 11
10.3459423427
 21
8.9120880434
  0
LINE
  5
29A
100
AcDbEntity
  8
0
100
AcDbLine
 62
7
  6
CONTINUOUS
 10
7.1694423427
 20
8.3039189453
 11
7.3264423427
 21
8.3549189453
  0
LINE
  5
29B
100
AcDbEntity
  8
0
100
AcDbLine
 62
7
  6
CONTINUOUS
 10
14.7602423427
 20
9.139435953
 11
14.6752423427
 21
9.1349771747
  0
LINE
  5
29C
100
AcDbEntity
  8
0
100
AcDbLine
 62
7
  6
CONTINUOUS
 10
6.2714423427
 20
8.9239189453
 11
7.3264423427
 21
8.9239189453
  0
LINE
  5
29D
100
AcDbEntity
  8
0
100
AcDbLine
 62
7
  6
CONTINUOUS
 10
14.2714423427
 20
8.9239189453
 11
15.3264423427
 21
8.9239189453
  0
LINE
  5
29E
100
AcDbEntity
  8
0
100
AcDbLine
 62
7
  6
CONTINUOUS
 10
6.2982891303
 20
8.9394189453
 11
7.2995955552
 21
8.9394189453
  0
LINE
  5
29F
100
AcDbEntity
  8
0
100
AcDbLine
 62
7
  6
CONTINUOUS
 10
14.2982891303
 20
8.9394189453
 11
15.2995955552
 21
8.9394189453
  0
LINE
  5
2A0
100
AcDbEntity
  8
0
100
AcDbLine
 62
7
  6
CONTINUOUS
 10
6.2714423427
 20
8.9549189453
 11
7.3264423427
 21
8.9549189453
  0
LINE
  5
2A1
100
AcDbEntity
  8
0
100
AcDbLine
 62
7
  6
CONTINUOUS
 10
14.2714423427
 20
8.9549189453
 11
15.3264423427
 21
8.9549189453
  0
LINE
  5
2A2
100
AcDbEntity
  8
0
100
AcDbLine
 62
7
  6
CONTINUOUS
 10
15.3264423427
 20
9.0262030424
 11
14.2714423427
 21
9.0262030424
  0
LINE
  5
2A3
100
AcDbEntity
  8
0
100
AcDbLine
 62
7
  6
CONTINUOUS
 10
7.3264423427
 20
9.0262030424
 11
6.2714423427
 21
9.0262030424
  0
LINE
  5
2A4
100
AcDbEntity
  8
0
100
AcDbLine
 62
7
  6
CONTINUOUS
 10
6.2857081905
 20
9.0458382973
 11
7.312176495
 21
9.0458382973
  0
LINE
  5
2A5
100
AcDbEntity
  8
0
100
AcDbLine
 62
7
  6
CONTINUOUS
 10
14.2857081905
 20
9.0458382973
 11
15.312176495
 21
9.0458382973
  0
LINE
  5
2A6
100
AcDbEntity
  8
0
100
AcDbLine
 62
7
  6
CONTINUOUS
 10
15.2534464176
 20
9.0649189453
 11
14.3444382679
 21
9.0649189453
  0
LINE
  5
2A7
100
AcDbEntity
  8
0
100
AcDbLine
 62
7
  6
CONTINUOUS
 10
7.253449659
 20
9.0649189453
 11
6.3444350265
 21
9.0649189453
  0
LINE
  5
2A8
100
AcDbEntity
  8
0
100
AcDbLine
 62
9
  6
CONTINUOUS
 10
15.1940870245
 20
9.0887282319
 11
14.4037976851
 21
9.0887282383
  0
LINE
  5
2A9
100
AcDbEntity
  8
0
100
AcDbLine
 62
9
  6
CONTINUOUS
 10
6.5195328885
 20
9.0887283583
 11
7.1940869823
 21
9.0887283583
  0
LINE
  5
2AA
100
AcDbEntity
  8
0
100
AcDbLine
 62
9
  6
CONTINUOUS
 10
6.5195328885
 20
9.0887283583
 11
6.4037917507
 21
9.0887267897
  0
LINE
  5
2AB
100
AcDbEntity
  8
0
100
AcDbLine
 62
7
  6
CONTINUOUS
 10
6.7989423427
 20
9.1399189453
 11
6.8488013028
 21
9.1391171779
  0
LINE
  5
2AC
100
AcDbEntity
  8
0
100
AcDbLine
 62
7
  6
CONTINUOUS
 10
14.8304423427
 20
9.1385987634
 11
14.8664423427
 21
9.1374481763
  0
LINE
  5
2AD
100
AcDbEntity
  8
0
100
AcDbLine
 62
7
  6
CONTINUOUS
 10
11.0489423427
 20
11.895420059
 11
11.0489423427
 21
11.832420059
  0
LINE
  5
2AE
100
AcDbEntity
  8
0
100
AcDbLine
 62
7
  6
CONTINUOUS
 10
11.1114423427
 20
11.4597594372
 11
11.1114423427
 21
10.4058532129
  0
LINE
  5
2AF
100
AcDbEntity
  8
0
100
AcDbLine
 62
7
  6
CONTINUOUS
 10
11.2519423427
 20
8.9120880434
 11
11.2519423427
 21
8.8816275594
  0
LINE
  5
2B0
100
AcDbEntity
  8
0
100
AcDbLine
 62
7
  6
CONTINUOUS
 10
11.2519423427
 20
8.2942103312
 11
11.2519423427
 21
8.2637498472
  0
LINE
  5
2B1
100
AcDbEntity
  8
0
100
AcDbLine
 62
7
  6
CONTINUOUS
 10
11.1469294058
 20
9.5622382139
 11
11.2159268407
 21
10.2596283736
  0
LINE
  5
2B2
100
AcDbEntity
  8
0
100
AcDbLine
 62
7
  6
CONTINUOUS
 10
14.9989423427
 20
9.1259587778
 11
15.0352242231
 21
9.1207997876
  0
LINE
  5
2B3
100
AcDbEntity
  8
0
100
AcDbLine
 62
7
  6
CONTINUOUS
 10
14.4284423427
 20
8.3039189453
 11
14.2714423427
 21
8.3549189453
  0
LINE
  5
2B4
100
AcDbEntity
  8
0
100
AcDbLine
 62
7
  6
CONTINUOUS
 10
10.3459423427
 20
10.0854609594
 11
10.3991893824
 21
10.0854609594
  0
LINE
  5
2B5
100
AcDbEntity
  8
0
100
AcDbLine
 62
7
  6
CONTINUOUS
 10
11.198695303
 20
10.0854609594
 11
11.2519423427
 21
10.0854609594
  0
LINE
  5
2B6
100
AcDbEntity
  8
0
100
AcDbLine
 62
7
  6
CONTINUOUS
 10
11.9739423427
 20
6.3579189453
 11
11.9739423427
 21
6.2729189453
  0
LINE
  5
2B7
100
AcDbEntity
  8
0
100
AcDbLine
 62
7
  6
CONTINUOUS
 10
14.3444323866
 20
9.0649189453
 11
14.2857081905
 21
9.0458382973
  0
LINE
  5
2B8
100
AcDbEntity
  8
0
100
AcDbLine
 62
7
  6
CONTINUOUS
 10
11.235442924
 20
10.2129189453
 11
11.2113055671
 21
10.2129189453
  0
LINE
  5
2B9
100
AcDbEntity
  8
0
100
AcDbLine
 62
7
  6
CONTINUOUS
 10
10.3865791184
 20
10.2129189453
 11
10.3624386572
 21
10.2129189453
  0
LINE
  5
2BA
100
AcDbEntity
  8
0
100
AcDbLine
 62
7
  6
CONTINUOUS
 10
15.2534522989
 20
9.0649189453
 11
15.312176495
 21
9.0458382973
  0
LINE
  5
2BB
100
AcDbEntity
  8
0
100
AcDbLine
 62
7
  6
CONTINUOUS
 10
14.2982891303
 20
8.9394189453
 11
14.2714423427
 21
8.9549189453
  0
LINE
  5
2BC
100
AcDbEntity
  8
0
100
AcDbLine
 62
7
  6
CONTINUOUS
 10
13.8562651198
 20
8.8067062409
 11
13.7741758627
 21
8.8641857575
  0
LINE
  5
2BD
100
AcDbEntity
  8
0
100
AcDbLine
 62
7
  6
CONTINUOUS
 10
14.562061571
 20
8.0768249346
 11
14.5903458423
 21
8.0537309238
  0
LINE
  5
2BE
100
AcDbEntity
  8
0
100
AcDbLine
 62
7
  6
CONTINUOUS
 10
14.6168623466
 20
8.0753815589
 11
14.6150945796
 21
8.0768249346
  0
LINE
  5
2BF
100
AcDbEntity
  8
0
100
AcDbLine
 62
7
  6
CONTINUOUS
 10
14.6186301135
 20
8.1230129561
 11
14.5903458423
 21
8.1461069669
  0
LINE
  5
2C0
100
AcDbEntity
  8
0
100
AcDbLine
 62
7
  6
CONTINUOUS
 10
14.9792545719
 20
8.0768249346
 11
15.0075388432
 21
8.0537309238
  0
LINE
  5
2C1
100
AcDbEntity
  8
0
100
AcDbLine
 62
7
  6
CONTINUOUS
 10
14.9810223389
 20
8.1244563318
 11
14.9827901058
 21
8.1230129561
  0
LINE
  5
2C2
100
AcDbEntity
  8
0
100
AcDbLine
 62
7
  6
CONTINUOUS
 10
15.4401057824
 20
7.0564189453
 11
15.5569988268
 21
6.939862624
  0
LINE
  5
2C3
100
AcDbEntity
  8
0
100
AcDbLine
 62
7
  6
CONTINUOUS
 10
14.2982891303
 20
8.9394189453
 11
14.2714423427
 21
8.9239189453
  0
LINE
  5
2C4
100
AcDbEntity
  8
0
100
AcDbLine
 62
7
  6
CONTINUOUS
 10
15.2995955552
 20
8.9394189453
 11
15.3264423427
 21
8.9239189453
  0
LINE
  5
2C5
100
AcDbEntity
  8
0
100
AcDbLine
 62
7
  6
CONTINUOUS
 10
15.0358231144
 20
8.1230129561
 11
15.0075388432
 21
8.1461069669
  0
LINE
  5
2C6
100
AcDbEntity
  8
0
100
AcDbLine
 62
7
  6
CONTINUOUS
 10
13.8562651198
 20
8.4711316497
 11
13.7741758627
 21
8.4136521331
  0
LINE
  5
2C7
100
AcDbEntity
  8
0
100
AcDbLine
 62
7
  6
CONTINUOUS
 10
15.2995955552
 20
8.9394189453
 11
15.3264423427
 21
8.9549189453
  0
LINE
  5
2C8
100
AcDbEntity
  8
0
100
AcDbLine
 62
7
  6
CONTINUOUS
 10
15.1694423427
 20
8.3039189453
 11
15.3264423427
 21
8.3549189453
  0
LINE
  5
2C9
100
AcDbEntity
  8
0
100
AcDbLine
 62
7
  6
CONTINUOUS
 10
15.7416195657
 20
8.4711316497
 11
15.8237088227
 21
8.4136521331
  0
LINE
  5
2CA
100
AcDbEntity
  8
0
100
AcDbLine
 62
9
  6
CONTINUOUS
 10
13.7741758627
 20
8.8641857575
 11
13.7741758627
 21
8.4136521331
  0
LINE
  5
2CB
100
AcDbEntity
  8
0
100
AcDbLine
 62
7
  6
CONTINUOUS
 10
14.2857081905
 20
9.0458382973
 11
14.2714423427
 21
9.0262030424
  0
LINE
  5
2CC
100
AcDbEntity
  8
0
100
AcDbLine
 62
7
  6
CONTINUOUS
 10
11.9539423427
 20
6.2529189453
 11
11.9739423427
 21
6.2729189453
  0
LINE
  5
2CD
100
AcDbEntity
  8
0
100
AcDbLine
 62
7
  6
CONTINUOUS
 10
10.5489423427
 20
11.832420059
 11
11.0489423427
 21
11.832420059
  0
LINE
  5
2CE
100
AcDbEntity
  8
0
100
AcDbLine
 62
7
  6
CONTINUOUS
 10
10.4529423427
 20
11.895420059
 11
11.1449423427
 21
11.895420059
  0
LINE
  5
2CF
100
AcDbEntity
  8
0
100
AcDbLine
 62
7
  6
CONTINUOUS
 10
11.1449423427
 20
12.130420059
 11
10.4529423427
 21
12.130420059
  0
LINE
  5
2D0
100
AcDbEntity
  8
0
100
AcDbLine
 62
7
  6
CONTINUOUS
 10
15.3394423427
 20
7.6055353841
 11
15.4135763369
 21
7.4996177569
  0
LINE
  5
2D1
100
AcDbEntity
  8
0
100
AcDbLine
 62
7
  6
CONTINUOUS
 10
14.2414423427
 20
8.4339189453
 11
14.2714423427
 21
8.3549189453
  0
LINE
  5
2D2
100
AcDbEntity
  8
0
100
AcDbLine
 62
9
  6
CONTINUOUS
 10
13.8562651198
 20
8.4711316497
 11
13.8562651198
 21
8.8067062409
  0
LINE
  5
2D3
100
AcDbEntity
  8
0
100
AcDbLine
 62
7
  6
CONTINUOUS
 10
13.8814423427
 20
8.8280067964
 11
13.8814423427
 21
8.4498310943
  0
LINE
  5
2D4
100
AcDbEntity
  8
0
100
AcDbLine
 62
9
  6
CONTINUOUS
 10
13.9063055013
 20
8.4480016521
 11
13.9063055013
 21
8.8298362386
  0
LINE
  5
2D5
100
AcDbEntity
  8
0
100
AcDbLine
 62
7
  6
CONTINUOUS
 10
14.0408820909
 20
6.9398624887
 11
14.0408814393
 21
6.6899189453
  0
LINE
  5
2D6
100
AcDbEntity
  8
0
100
AcDbLine
 62
7
  6
CONTINUOUS
 10
14.0579423427
 20
6.6899189453
 11
14.0579423427
 21
6.6279189453
  0
LINE
  5
2D7
100
AcDbEntity
  8
0
100
AcDbLine
 62
7
  6
CONTINUOUS
 10
14.2714423427
 20
8.9239189453
 11
14.2414423427
 21
8.8439189453
  0
LINE
  5
2D8
100
AcDbEntity
  8
0
100
AcDbLine
 62
7
  6
CONTINUOUS
 10
14.5903458423
 20
8.1461069669
 11
14.562061571
 21
8.1230129561
  0
LINE
  5
2D9
100
AcDbEntity
  8
0
100
AcDbLine
 62
7
  6
CONTINUOUS
 10
14.6150945796
 20
8.1230129561
 11
14.6168623466
 21
8.1244563318
  0
LINE
  5
2DA
100
AcDbEntity
  8
0
100
AcDbLine
 62
7
  6
CONTINUOUS
 10
14.5903458423
 20
8.0537309238
 11
14.6186301135
 21
8.0768249346
  0
LINE
  5
2DB
100
AcDbEntity
  8
0
100
AcDbLine
 62
7
  6
CONTINUOUS
 10
15.7416195657
 20
8.8067062409
 11
15.8237088227
 21
8.8641857575
  0
LINE
  5
2DC
100
AcDbEntity
  8
0
100
AcDbLine
 62
7
  6
CONTINUOUS
 10
10.9269213412
 20
12.282420059
 11
10.6709633443
 21
12.282420059
  0
LINE
  5
2DD
100
AcDbEntity
  8
0
100
AcDbLine
 62
9
  6
CONTINUOUS
 10
14.2677763271
 20
8.4840429191
 11
14.2677763271
 21
8.7940099501
  0
LINE
  5
2DE
100
AcDbEntity
  8
0
100
AcDbLine
 62
7
  6
CONTINUOUS
 10
14.2714423427
 20
9.0262030424
 11
14.2714423427
 21
8.9549189453
  0
LINE
  5
2DF
100
AcDbEntity
  8
0
100
AcDbLine
 62
9
  6
CONTINUOUS
 10
14.2899363641
 20
8.7358313279
 11
14.2899363641
 21
8.5425283002
  0
LINE
  5
2E0
100
AcDbEntity
  8
0
100
AcDbLine
 62
7
  6
CONTINUOUS
 10
14.4199111396
 20
6.939864164
 11
14.419911891
 21
6.6899189453
  0
LINE
  5
2E1
100
AcDbEntity
  8
0
100
AcDbLine
 62
7
  6
CONTINUOUS
 10
14.4554423427
 20
8.3039189453
 11
14.4554423427
 21
7.9449189453
  0
LINE
  5
2E2
100
AcDbEntity
  8
0
100
AcDbLine
 62
7
  6
CONTINUOUS
 10
14.4909423427
 20
9.1080032867
 11
14.4909423427
 21
9.109022963
  0
LINE
  5
2E3
100
AcDbEntity
  8
0
100
AcDbLine
 62
9
  6
CONTINUOUS
 10
14.4969113602
 20
9.109911331
 11
14.4969113602
 21
9.1088916344
  0
LINE
  5
2E4
100
AcDbEntity
  8
0
100
AcDbLine
 62
9
  6
CONTINUOUS
 10
14.530230108
 20
9.1152939165
 11
14.530230108
 21
9.1142777694
  0
LINE
  5
2E5
100
AcDbEntity
  8
0
100
AcDbLine
 62
7
  6
CONTINUOUS
 10
14.562061571
 20
8.0768249346
 11
14.562061571
 21
8.1230129561
  0
LINE
  5
2E6
100
AcDbEntity
  8
0
100
AcDbLine
 62
7
  6
CONTINUOUS
 10
14.6013922312
 20
9.127096598
 11
14.6013922312
 21
9.1260882547
  0
LINE
  5
2E7
100
AcDbEntity
  8
0
100
AcDbLine
 62
7
  6
CONTINUOUS
 10
14.6150945796
 20
8.0768249346
 11
14.6150945796
 21
8.1230129561
  0
LINE
  5
2E8
100
AcDbEntity
  8
0
100
AcDbLine
 62
7
  6
CONTINUOUS
 10
14.6151932158
 20
7.9399189453
 11
14.6151932158
 21
7.9449189453
  0
LINE
  5
2E9
100
AcDbEntity
  8
0
100
AcDbLine
 62
7
  6
CONTINUOUS
 10
14.6186301135
 20
8.1230129561
 11
14.6186301135
 21
8.0768249346
  0
LINE
  5
2EA
100
AcDbEntity
  8
0
100
AcDbLine
 62
7
  6
CONTINUOUS
 10
14.6209614215
 20
7.9449189453
 11
14.6209614215
 21
7.9399189453
  0
LINE
  5
2EB
100
AcDbEntity
  8
0
100
AcDbLine
 62
7
  6
CONTINUOUS
 10
14.637399149
 20
7.9399189453
 11
14.637399149
 21
7.9449189453
  0
LINE
  5
2EC
100
AcDbEntity
  8
0
100
AcDbLine
 62
7
  6
CONTINUOUS
 10
14.6538256091
 20
7.9449189453
 11
14.6538256091
 21
7.9399189453
  0
LINE
  5
2ED
100
AcDbEntity
  8
0
100
AcDbLine
 62
7
  6
CONTINUOUS
 10
14.2584423427
 20
7.6055353841
 11
14.1843083485
 21
7.4996177569
  0
LINE
  5
2EE
100
AcDbEntity
  8
0
100
AcDbLine
 62
7
  6
CONTINUOUS
 10
15.0075388432
 20
8.1461069669
 11
14.9792545719
 21
8.1230129561
  0
LINE
  5
2EF
100
AcDbEntity
  8
0
100
AcDbLine
 62
7
  6
CONTINUOUS
 10
14.9827901058
 20
8.0768249346
 11
14.9810223389
 21
8.0753815589
  0
LINE
  5
2F0
100
AcDbEntity
  8
0
100
AcDbLine
 62
7
  6
CONTINUOUS
 10
15.0075388432
 20
8.0537309238
 11
15.0358231144
 21
8.0768249346
  0
LINE
  5
2F1
100
AcDbEntity
  8
0
100
AcDbLine
 62
7
  6
CONTINUOUS
 10
15.312176495
 20
9.0458382973
 11
15.3264423427
 21
9.0262030424
  0
LINE
  5
2F2
100
AcDbEntity
  8
0
100
AcDbLine
 62
7
  6
CONTINUOUS
 10
14.6752423427
 20
9.1349771747
 11
14.6752423427
 21
9.1339739756
  0
LINE
  5
2F3
100
AcDbEntity
  8
0
100
AcDbLine
 62
7
  6
CONTINUOUS
 10
14.6767266683
 20
7.9399189453
 11
14.6767266683
 21
7.9449189453
  0
LINE
  5
2F4
100
AcDbEntity
  8
0
100
AcDbLine
 62
7
  6
CONTINUOUS
 10
14.684198569
 20
7.9399189453
 11
14.684198569
 21
7.9449189453
  0
LINE
  5
2F5
100
AcDbEntity
  8
0
100
AcDbLine
 62
7
  6
CONTINUOUS
 10
14.7087825038
 20
7.9449189453
 11
14.7087825038
 21
7.9399189453
  0
LINE
  5
2F6
100
AcDbEntity
  8
0
100
AcDbLine
 62
7
  6
CONTINUOUS
 10
14.7275920556
 20
7.9399189453
 11
14.7275920556
 21
7.9449189453
  0
LINE
  5
2F7
100
AcDbEntity
  8
0
100
AcDbLine
 62
7
  6
CONTINUOUS
 10
14.7453720533
 20
7.9449189453
 11
14.7453720533
 21
7.9399189453
  0
LINE
  5
2F8
100
AcDbEntity
  8
0
100
AcDbLine
 62
7
  6
CONTINUOUS
 10
14.7484666885
 20
7.9399189453
 11
14.7484666885
 21
7.9449189453
  0
LINE
  5
2F9
100
AcDbEntity
  8
0
100
AcDbLine
 62
7
  6
CONTINUOUS
 10
14.7602423427
 20
9.139435953
 11
14.7602423427
 21
9.1384356413
  0
LINE
  5
2FA
100
AcDbEntity
  8
0
100
AcDbLine
 62
7
  6
CONTINUOUS
 10
14.7774654168
 20
7.9449189453
 11
14.7774654168
 21
7.9399189453
  0
LINE
  5
2FB
100
AcDbEntity
  8
0
100
AcDbLine
 62
7
  6
CONTINUOUS
 10
14.7893198774
 20
7.9399189453
 11
14.7893198774
 21
7.9449189453
  0
LINE
  5
2FC
100
AcDbEntity
  8
0
100
AcDbLine
 62
7
  6
CONTINUOUS
 10
14.8085648081
 20
7.9449189453
 11
14.8085648081
 21
7.9399189453
  0
LINE
  5
2FD
100
AcDbEntity
  8
0
100
AcDbLine
 62
7
  6
CONTINUOUS
 10
14.8089423427
 20
9.1386864074
 11
14.8089423427
 21
9.1375552616
  0
LINE
  5
2FE
100
AcDbEntity
  8
0
100
AcDbLine
 62
7
  6
CONTINUOUS
 10
14.8204192687
 20
7.9399189453
 11
14.8204192687
 21
7.9449189453
  0
LINE
  5
2FF
100
AcDbEntity
  8
0
100
AcDbLine
 62
7
  6
CONTINUOUS
 10
14.8304423427
 20
9.1395989705
 11
14.8304423427
 21
9.1382635119
  0
LINE
  5
300
100
AcDbEntity
  8
0
100
AcDbLine
 62
7
  6
CONTINUOUS
 10
14.849417997
 20
7.9449189453
 11
14.849417997
 21
7.9399189453
  0
LINE
  5
301
100
AcDbEntity
  8
0
100
AcDbLine
 62
7
  6
CONTINUOUS
 10
14.8525126322
 20
7.9399189453
 11
14.8525126322
 21
7.9449189453
  0
LINE
  5
302
100
AcDbEntity
  8
0
100
AcDbLine
 62
7
  6
CONTINUOUS
 10
14.8664423427
 20
9.1384118256
 11
14.8664423427
 21
9.1384491257
  0
LINE
  5
303
100
AcDbEntity
  8
0
100
AcDbLine
 62
7
  6
CONTINUOUS
 10
14.8664423427
 20
9.1371126756
 11
14.8664423427
 21
9.1381138418
  0
LINE
  5
304
100
AcDbEntity
  8
0
100
AcDbLine
 62
7
  6
CONTINUOUS
 10
14.8702926298
 20
7.9449189453
 11
14.8702926298
 21
7.9399189453
  0
LINE
  5
305
100
AcDbEntity
  8
0
100
AcDbLine
 62
7
  6
CONTINUOUS
 10
14.8891021816
 20
7.9399189453
 11
14.8891021816
 21
7.9449189453
  0
LINE
  5
306
100
AcDbEntity
  8
0
100
AcDbLine
 62
9
  6
CONTINUOUS
 10
14.8964423427
 20
9.1355990694
 11
14.8964423427
 21
9.134596274
  0
LINE
  5
307
100
AcDbEntity
  8
0
100
AcDbLine
 62
7
  6
CONTINUOUS
 10
14.9136861165
 20
7.9449189453
 11
14.9136861165
 21
7.9399189453
  0
LINE
  5
308
100
AcDbEntity
  8
0
100
AcDbLine
 62
9
  6
CONTINUOUS
 10
14.9204423427
 20
9.1328947487
 11
14.9204423427
 21
9.1338986488
  0
LINE
  5
309
100
AcDbEntity
  8
0
100
AcDbLine
 62
7
  6
CONTINUOUS
 10
14.9211580171
 20
7.9449189453
 11
14.9211580171
 21
7.9399189453
  0
LINE
  5
30A
100
AcDbEntity
  8
0
100
AcDbLine
 62
7
  6
CONTINUOUS
 10
14.9440590764
 20
7.9399189453
 11
14.9440590764
 21
7.9449189453
  0
LINE
  5
30B
100
AcDbEntity
  8
0
100
AcDbLine
 62
9
  6
CONTINUOUS
 10
14.9461075327
 20
9.1321807454
 11
14.9461075327
 21
9.1311757269
  0
LINE
  5
30C
100
AcDbEntity
  8
0
100
AcDbLine
 62
7
  6
CONTINUOUS
 10
14.9593872794
 20
9.1313799682
 11
14.9593872794
 21
9.1303744275
  0
LINE
  5
30D
100
AcDbEntity
  8
0
100
AcDbLine
 62
7
  6
CONTINUOUS
 10
14.9604855365
 20
7.9449189453
 11
14.9604855365
 21
7.9399189453
  0
LINE
  5
30E
100
AcDbEntity
  8
0
100
AcDbLine
 62
7
  6
CONTINUOUS
 10
14.976923264
 20
7.9399189453
 11
14.976923264
 21
7.9449189453
  0
LINE
  5
30F
100
AcDbEntity
  8
0
100
AcDbLine
 62
7
  6
CONTINUOUS
 10
14.9792545719
 20
8.0768249346
 11
14.9792545719
 21
8.1230129561
  0
LINE
  5
310
100
AcDbEntity
  8
0
100
AcDbLine
 62
7
  6
CONTINUOUS
 10
14.9826914697
 20
7.9449189453
 11
14.9826914697
 21
7.9399189453
  0
LINE
  5
311
100
AcDbEntity
  8
0
100
AcDbLine
 62
7
  6
CONTINUOUS
 10
14.9827901058
 20
8.1230129561
 11
14.9827901058
 21
8.0768249346
  0
LINE
  5
312
100
AcDbEntity
  8
0
100
AcDbLine
 62
7
  6
CONTINUOUS
 10
14.9889423427
 20
9.127025408
 11
14.9889423427
 21
9.1258856784
  0
LINE
  5
313
100
AcDbEntity
  8
0
100
AcDbLine
 62
7
  6
CONTINUOUS
 10
14.9989423427
 20
9.126967208
 11
14.9989423427
 21
9.1253034041
  0
LINE
  5
314
100
AcDbEntity
  8
0
100
AcDbLine
 62
7
  6
CONTINUOUS
 10
15.0352242231
 20
9.1198119079
 11
15.0352242231
 21
9.1218116104
  0
LINE
  5
315
100
AcDbEntity
  8
0
100
AcDbLine
 62
7
  6
CONTINUOUS
 10
15.0358231144
 20
8.1230129561
 11
15.0358231144
 21
8.0768249346
  0
LINE
  5
316
100
AcDbEntity
  8
0
100
AcDbLine
 62
9
  6
CONTINUOUS
 10
15.0412242231
 20
9.1196593282
 11
15.0412242231
 21
9.1186460814
  0
LINE
  5
317
100
AcDbEntity
  8
0
100
AcDbLine
 62
7
  6
CONTINUOUS
 10
14.1577789031
 20
7.0564189453
 11
14.040884882
 21
6.9398616501
  0
LINE
  5
318
100
AcDbEntity
  8
0
100
AcDbLine
 62
7
  6
CONTINUOUS
 10
15.3264423427
 20
8.9239189453
 11
15.3564423427
 21
8.8439189453
  0
LINE
  5
319
100
AcDbEntity
  8
0
100
AcDbLine
 62
9
  6
CONTINUOUS
 10
15.0690871309
 20
9.1139711833
 11
15.0690871309
 21
9.1149875347
  0
LINE
  5
31A
100
AcDbEntity
  8
0
100
AcDbLine
 62
9
  6
CONTINUOUS
 10
15.1146223487
 20
9.1071848018
 11
15.1146223487
 21
9.1061632225
  0
LINE
  5
31B
100
AcDbEntity
  8
0
100
AcDbLine
 62
7
  6
CONTINUOUS
 10
15.1196032627
 20
9.1053780409
 11
15.1196032627
 21
9.1064001488
  0
LINE
  5
31C
100
AcDbEntity
  8
0
100
AcDbLine
 62
7
  6
CONTINUOUS
 10
15.1424423427
 20
8.3039189453
 11
15.1424423427
 21
7.9449189453
  0
LINE
  5
31D
100
AcDbEntity
  8
0
100
AcDbLine
 62
7
  6
CONTINUOUS
 10
15.1779716946
 20
6.9398641641
 11
15.1779727945
 21
6.6899189453
  0
LINE
  5
31E
100
AcDbEntity
  8
0
100
AcDbLine
 62
9
  6
CONTINUOUS
 10
15.3079483213
 20
8.5419173393
 11
15.3079483213
 21
8.7353598785
  0
LINE
  5
31F
100
AcDbEntity
  8
0
100
AcDbLine
 62
7
  6
CONTINUOUS
 10
15.3264423427
 20
9.0262030424
 11
15.3264423427
 21
8.9549189453
  0
LINE
  5
320
100
AcDbEntity
  8
0
100
AcDbLine
 62
9
  6
CONTINUOUS
 10
15.3301083584
 20
8.7938117413
 11
15.3301083584
 21
8.4838216615
  0
LINE
  5
321
100
AcDbEntity
  8
0
100
AcDbLine
 62
7
  6
CONTINUOUS
 10
15.3564423427
 20
8.4339189453
 11
15.3264423427
 21
8.3549189453
  0
LINE
  5
322
100
AcDbEntity
  8
0
100
AcDbLine
 62
7
  6
CONTINUOUS
 10
15.5399423427
 20
6.6899189453
 11
15.5399423427
 21
6.6279189453
  0
LINE
  5
323
100
AcDbEntity
  8
0
100
AcDbLine
 62
7
  6
CONTINUOUS
 10
15.5570024105
 20
6.939863704
 11
15.5570032462
 21
6.6899189453
  0
LINE
  5
324
100
AcDbEntity
  8
0
100
AcDbLine
 62
9
  6
CONTINUOUS
 10
15.6915791842
 20
8.4480016521
 11
15.6915791842
 21
8.8298362386
  0
LINE
  5
325
100
AcDbEntity
  8
0
100
AcDbLine
 62
7
  6
CONTINUOUS
 10
15.7164423427
 20
8.4498310943
 11
15.7164423427
 21
8.8280067964
  0
LINE
  5
326
100
AcDbEntity
  8
0
100
AcDbLine
 62
9
  6
CONTINUOUS
 10
15.7416195657
 20
8.8067062409
 11
15.7416195657
 21
8.4711316497
  0
LINE
  5
327
100
AcDbEntity
  8
0
100
AcDbLine
 62
9
  6
CONTINUOUS
 10
15.8237088227
 20
8.4136521331
 11
15.8237088227
 21
8.8641857575
  0
ARC
  5
328
100
AcDbEntity
  8
0
100
AcDbCircle
 62
7
  6
CONTINUOUS
 10
6.7386209694
 20
4.6152214128
 40
4.5226359439
100
AcDbArc
 50
89.6495344099
 51
89.9069476617
  0
ARC
  5
329
100
AcDbEntity
  8
0
100
AcDbCircle
 62
7
  6
CONTINUOUS
 10
5.8060784538
 20
6.2529189453
 40
0.1871361111
100
AcDbArc
 50
92.1854050713
 51
180.0
  0
ARC
  5
32A
100
AcDbEntity
  8
0
100
AcDbCircle
 62
7
  6
CONTINUOUS
 10
5.9859396689
 20
6.4409189453
 40
0.187
100
AcDbArc
 50
90.0
 51
180.3063960032
  0
ARC
  5
32B
100
AcDbEntity
  8
0
100
AcDbCircle
 62
7
  6
CONTINUOUS
 10
6.744466209
 20
8.332023758
 40
0.8060488203
100
AcDbArc
 50
102.9067076793
 51
103.8025267693
  0
ARC
  5
32C
100
AcDbEntity
  8
0
100
AcDbCircle
 62
7
  6
CONTINUOUS
 10
6.7442181099
 20
8.3325934593
 40
0.8044491825
100
AcDbArc
 50
102.8984695403
 51
103.3501122362
  0
ARC
  5
32D
100
AcDbEntity
  8
0
100
AcDbCircle
 62
7
  6
CONTINUOUS
 10
6.7424203088
 20
8.3413001375
 40
0.796549831
100
AcDbArc
 50
100.0233743123
 51
102.9123038761
  0
ARC
  5
32E
100
AcDbEntity
  8
0
100
AcDbCircle
 62
7
  6
CONTINUOUS
 10
6.7424709835
 20
8.3405573098
 40
0.7962962854
100
AcDbArc
 50
100.0303015593
 51
102.9038431072
  0
ARC
  5
32F
100
AcDbEntity
  8
0
100
AcDbCircle
 62
7
  6
CONTINUOUS
 10
6.7914587374
 20
8.3466674228
 40
0.7933305873
100
AcDbArc
 50
99.6677923872
 51
100.5007836196
  0
ARC
  5
330
100
AcDbEntity
  8
0
100
AcDbCircle
 62
7
  6
CONTINUOUS
 10
6.7914941349
 20
8.3459732976
 40
0.7930278397
100
AcDbArc
 50
99.80633513
 51
100.5074389922
  0
ARC
  5
331
100
AcDbEntity
  8
0
100
AcDbCircle
 62
7
  6
CONTINUOUS
 10
6.7908894986
 20
8.3500409952
 40
0.789909331
100
AcDbArc
 50
98.6322236975
 51
99.6681831497
  0
ARC
  5
332
100
AcDbEntity
  8
0
100
AcDbCircle
 62
7
  6
CONTINUOUS
 10
6.7908995693
 20
8.3494833038
 40
0.7894678265
100
AcDbArc
 50
98.6378273699
 51
99.6623390611
  0
ARC
  5
333
100
AcDbEntity
  8
0
100
AcDbCircle
 62
7
  6
CONTINUOUS
 10
6.7410627302
 20
8.3489858141
 40
0.7887451836
100
AcDbArc
 50
98.2132826439
 51
99.0998054622
  0
ARC
  5
334
100
AcDbEntity
  8
0
100
AcDbCircle
 62
7
  6
CONTINUOUS
 10
6.7402570794
 20
8.35467836
 40
0.7829959316
100
AcDbArc
 50
96.2408573881
 51
98.2144417723
  0
ARC
  5
335
100
AcDbEntity
  8
0
100
AcDbCircle
 62
7
  6
CONTINUOUS
 10
6.7402666399
 20
8.3541058381
 40
0.7825676713
100
AcDbArc
 50
96.2359680857
 51
98.2093056488
  0
ARC
  5
336
100
AcDbEntity
  8
0
100
AcDbCircle
 62
7
  6
CONTINUOUS
 10
6.6116970457
 20
8.3502569685
 40
0.7668544504
100
AcDbArc
 50
93.4993789549
 51
94.4526551389
  0
ARC
  5
337
100
AcDbEntity
  8
0
100
AcDbCircle
 62
7
  6
CONTINUOUS
 10
6.6114417654
 20
8.3505517662
 40
0.7665589369
100
AcDbArc
 50
85.4941642219
 51
86.5770438695
  0
ARC
  5
338
100
AcDbEntity
  8
0
100
AcDbCircle
 62
7
  6
CONTINUOUS
 10
6.6232316444
 20
8.3541419845
 40
0.7657360259
100
AcDbArc
 50
90.0003993196
 51
92.2867743633
  0
ARC
  5
339
100
AcDbEntity
  8
0
100
AcDbCircle
 62
7
  6
CONTINUOUS
 10
6.6232256313
 20
8.3544042677
 40
0.7654737427
100
AcDbArc
 50
87.9776133212
 51
89.9999493811
  0
ARC
  5
33A
100
AcDbEntity
  8
0
100
AcDbCircle
 62
7
  6
CONTINUOUS
 10
5.7464034407
 20
7.9639222739
 40
0.625
100
AcDbArc
 50
325.0110095298
 51
355.1903006332
  0
ARC
  5
33B
100
AcDbEntity
  8
0
100
AcDbCircle
 62
7
  6
CONTINUOUS
 10
6.3514174638
 20
7.3826545421
 40
0.2039751211
100
AcDbArc
 50
145.0110095298
 51
213.0478355064
  0
ARC
  5
33C
100
AcDbEntity
  8
0
100
AcDbCircle
 62
7
  6
CONTINUOUS
 10
6.0366678091
 20
7.1778799208
 40
0.1715245336
100
AcDbArc
 50
314.9173576842
 51
33.0478355064
  0
ARC
  5
33D
100
AcDbEntity
  8
0
100
AcDbCircle
 62
7
  6
CONTINUOUS
 10
6.7957970838
 20
8.0996153566
 40
0.0820023067
100
AcDbArc
 50
89.0275336861
 51
92.0834243133
  0
ARC
  5
33E
100
AcDbEntity
  8
0
100
AcDbCircle
 62
7
  6
CONTINUOUS
 10
6.7957920775
 20
8.0998217129
 40
0.0817959049
100
AcDbArc
 50
92.0851747784
 51
94.5622218214
  0
ARC
  5
33F
100
AcDbEntity
  8
0
100
AcDbCircle
 62
7
  6
CONTINUOUS
 10
6.7957570579
 20
8.1000199796
 40
0.0815990257
100
AcDbArc
 50
86.9446213239
 51
87.2526942678
  0
ARC
  5
340
100
AcDbEntity
  8
0
100
AcDbCircle
 62
7
  6
CONTINUOUS
 10
6.7957601975
 20
8.1000862736
 40
0.0815326575
100
AcDbArc
 50
87.2526650877
 51
87.7632299142
  0
ARC
  5
341
100
AcDbEntity
  8
0
100
AcDbCircle
 62
7
  6
CONTINUOUS
 10
6.7958445393
 20
8.1005519701
 40
0.0810632585
100
AcDbArc
 50
67.9012521502
 51
86.9863237002
  0
ARC
  5
342
100
AcDbEntity
  8
0
100
AcDbCircle
 62
7
  6
CONTINUOUS
 10
6.7960487983
 20
8.1011737455
 40
0.0804095642
100
AcDbArc
 50
64.3054071298
 51
67.8694290591
  0
ARC
  5
343
100
AcDbEntity
  8
0
100
AcDbCircle
 62
7
  6
CONTINUOUS
 10
6.7961876413
 20
8.1014656811
 40
0.0800862971
100
AcDbArc
 50
62.2857103121
 51
64.304361344
  0
ARC
  5
344
100
AcDbEntity
  8
0
100
AcDbCircle
 62
7
  6
CONTINUOUS
 10
6.7958411754
 20
8.1020481472
 40
0.0795691183
100
AcDbArc
 50
87.7663593784
 51
89.0295470833
  0
ARC
  5
345
100
AcDbEntity
  8
0
100
AcDbCircle
 62
7
  6
CONTINUOUS
 10
6.4000934542
 20
7.9089189453
 40
0.031
100
AcDbArc
 50
89.9999620817
 51
175.1902968487
  0
ARC
  5
346
100
AcDbEntity
  8
0
100
AcDbCircle
 62
7
  6
CONTINUOUS
 10
7.7918062316
 20
6.2529189453
 40
0.1871361111
100
AcDbArc
 50
0.0
 51
87.8145949287
  0
ARC
  5
347
100
AcDbEntity
  8
0
100
AcDbCircle
 62
7
  6
CONTINUOUS
 10
7.6119450166
 20
6.4409189453
 40
0.187
100
AcDbArc
 50
359.6936039968
 51
90.0
  0
ARC
  5
348
100
AcDbEntity
  8
0
100
AcDbCircle
 62
7
  6
CONTINUOUS
 10
6.7989454533
 20
7.5891982144
 40
1.5507208301
100
AcDbArc
 50
93.1257087574
 51
94.394191573
  0
ARC
  5
349
100
AcDbEntity
  8
0
100
AcDbCircle
 62
7
  6
CONTINUOUS
 10
6.7989448001
 20
7.5892216346
 40
1.5506974357
100
AcDbArc
 50
95.3780058376
 51
96.3173603695
  0
ARC
  5
34A
100
AcDbEntity
  8
0
100
AcDbCircle
 62
7
  6
CONTINUOUS
 10
6.7989439961
 20
7.589231063
 40
1.5506879761
100
AcDbArc
 50
96.3173691766
 51
96.7883064321
  0
ARC
  5
34B
100
AcDbEntity
  8
0
100
AcDbCircle
 62
7
  6
CONTINUOUS
 10
6.7989423471
 20
7.5892455319
 40
1.5506734137
100
AcDbArc
 50
96.7883091204
 51
104.7629976958
  0
ARC
  5
34C
100
AcDbEntity
  8
0
100
AcDbCircle
 62
7
  6
CONTINUOUS
 10
6.7989423427
 20
7.5892455533
 40
1.550673392
100
AcDbArc
 50
90.0
 51
91.9546939332
  0
ARC
  5
34D
100
AcDbEntity
  8
0
100
AcDbCircle
 62
7
  6
CONTINUOUS
 10
6.7989423427
 20
7.5892455533
 40
1.550673392
100
AcDbArc
 50
75.2370022574
 51
86.9591880566
  0
ARC
  5
34E
100
AcDbEntity
  8
0
100
AcDbCircle
 62
7
  6
CONTINUOUS
 10
6.7989434127
 20
7.589272403
 40
1.5496465215
100
AcDbArc
 50
87.6735599164
 51
87.9865880469
  0
ARC
  5
34F
100
AcDbEntity
  8
0
100
AcDbCircle
 62
7
  6
CONTINUOUS
 10
6.8633381751
 20
8.3346182363
 40
0.8033253862
100
AcDbArc
 50
101.2084348242
 51
103.8040446319
  0
ARC
  5
350
100
AcDbEntity
  8
0
100
AcDbCircle
 62
7
  6
CONTINUOUS
 10
6.8615920921
 20
8.3430935282
 40
0.7946723486
100
AcDbArc
 50
100.0365826919
 51
101.2037222026
  0
ARC
  5
351
100
AcDbEntity
  8
0
100
AcDbCircle
 62
7
  6
CONTINUOUS
 10
6.8039270596
 20
8.3463795224
 40
0.7936772636
100
AcDbArc
 50
99.5328568444
 51
100.5520750885
  0
ARC
  5
352
100
AcDbEntity
  8
0
100
AcDbCircle
 62
7
  6
CONTINUOUS
 10
6.803347332
 20
8.3497970298
 40
0.7902109383
100
AcDbArc
 50
98.5802863474
 51
99.5203206944
  0
ARC
  5
353
100
AcDbEntity
  8
0
100
AcDbCircle
 62
7
  6
CONTINUOUS
 10
6.8601407962
 20
8.3517416932
 40
0.7859028714
100
AcDbArc
 50
96.5724881888
 51
99.139959892
  0
ARC
  5
354
100
AcDbEntity
  8
0
100
AcDbCircle
 62
7
  6
CONTINUOUS
 10
7.8514812448
 20
7.9639222739
 40
0.625
100
AcDbArc
 50
184.8096993668
 51
214.9889904702
  0
ARC
  5
355
100
AcDbEntity
  8
0
100
AcDbCircle
 62
7
  6
CONTINUOUS
 10
7.2464672217
 20
7.3826545421
 40
0.2039751211
100
AcDbArc
 50
326.9521644936
 51
34.9889904702
  0
ARC
  5
356
100
AcDbEntity
  8
0
100
AcDbCircle
 62
7
  6
CONTINUOUS
 10
7.5612168764
 20
7.1778799208
 40
0.1715245336
100
AcDbArc
 50
146.9521644936
 51
225.0826423158
  0
ARC
  5
357
100
AcDbEntity
  8
0
100
AcDbCircle
 62
7
  6
CONTINUOUS
 10
6.7991017277
 20
8.0996633605
 40
0.0822668931
100
AcDbArc
 50
95.1476302794
 51
96.8513501767
  0
ARC
  5
358
100
AcDbEntity
  8
0
100
AcDbCircle
 62
7
  6
CONTINUOUS
 10
6.7990346392
 20
8.1004558495
 40
0.0814715811
100
AcDbArc
 50
90.0648215681
 51
95.1506444753
  0
ARC
  5
359
100
AcDbEntity
  8
0
100
AcDbCircle
 62
7
  6
CONTINUOUS
 10
6.7989423427
 20
8.0999189453
 40
0.0651
100
AcDbArc
 50
193.0006005798
 51
149.4894447652
  0
CIRCLE
  5
35A
100
AcDbEntity
  8
0
100
AcDbCircle
 62
7
  6
CONTINUOUS
 10
6.7989423427
 20
8.0999189453
 40
0.062
  0
ARC
  5
35B
100
AcDbEntity
  8
0
100
AcDbCircle
 62
7
  6
CONTINUOUS
 10
7.1977912312
 20
7.9089189453
 40
0.031
100
AcDbArc
 50
4.8097031513
 51
90.0000379183
  0
ARC
  5
35C
100
AcDbEntity
  8
0
100
AcDbCircle
 62
7
  6
CONTINUOUS
 10
5.3188034538
 20
8.6389189453
 40
0.9451388889
100
AcDbArc
 50
347.4730187713
 51
350.7427414485
  0
ARC
  5
35D
100
AcDbEntity
  8
0
100
AcDbCircle
 62
7
  6
CONTINUOUS
 10
5.3188034538
 20
8.6389189453
 40
0.9451388889
100
AcDbArc
 50
9.2511037988
 51
12.5269812287
  0
ARC
  5
35E
100
AcDbEntity
  8
0
100
AcDbCircle
 62
7
  6
CONTINUOUS
 10
5.962788449
 20
8.6389188358
 40
0.2749996762
100
AcDbArc
 50
35.7907643342
 51
324.2094139936
  0
ARC
  5
35F
100
AcDbEntity
  8
0
100
AcDbCircle
 62
7
  6
CONTINUOUS
 10
5.962909574
 20
8.6390755759
 40
0.2748021592
100
AcDbArc
 50
53.777981563
 51
55.7791596237
  0
ARC
  5
360
100
AcDbEntity
  8
0
100
AcDbCircle
 62
7
  6
CONTINUOUS
 10
5.9628304414
 20
8.6391220634
 40
0.27479277
100
AcDbArc
 50
79.5846703081
 51
83.5525330301
  0
ARC
  5
361
100
AcDbEntity
  8
0
100
AcDbCircle
 62
7
  6
CONTINUOUS
 10
5.9628929935
 20
8.6391213405
 40
0.2747722023
100
AcDbArc
 50
62.2415093284
 51
65.6928714954
  0
ARC
  5
362
100
AcDbEntity
  8
0
100
AcDbCircle
 62
7
  6
CONTINUOUS
 10
5.9628662742
 20
8.6391798409
 40
0.2747278451
100
AcDbArc
 50
70.8679857171
 51
74.7612194848
  0
ARC
  5
363
100
AcDbEntity
  8
0
100
AcDbCircle
 62
7
  6
CONTINUOUS
 10
6.7398947871
 20
8.3580542386
 40
0.7796006753
100
AcDbArc
 50
95.3341106877
 51
96.2413601371
  0
ARC
  5
364
100
AcDbEntity
  8
0
100
AcDbCircle
 62
7
  6
CONTINUOUS
 10
6.7399291681
 20
8.357165491
 40
0.7794894651
100
AcDbArc
 50
95.3374120612
 51
96.2357383822
  0
ARC
  5
365
100
AcDbEntity
  8
0
100
AcDbCircle
 62
7
  6
CONTINUOUS
 10
6.7269530465
 20
8.3600089568
 40
0.7765552359
100
AcDbArc
 50
93.6517080908
 51
94.3967441587
  0
ARC
  5
366
100
AcDbEntity
  8
0
100
AcDbCircle
 62
7
  6
CONTINUOUS
 10
6.7266903814
 20
8.3601159342
 40
0.7764479204
100
AcDbArc
 50
85.550943152
 51
86.8060536028
  0
ARC
  5
367
100
AcDbEntity
  8
0
100
AcDbCircle
 62
7
  6
CONTINUOUS
 10
6.7269456677
 20
8.3596164364
 40
0.7759453373
100
AcDbArc
 50
93.6447065922
 51
94.3996603805
  0
ARC
  5
368
100
AcDbEntity
  8
0
100
AcDbCircle
 62
7
  6
CONTINUOUS
 10
6.7267144237
 20
8.359990529
 40
0.7755703976
100
AcDbArc
 50
85.965926757
 51
86.8042149488
  0
ARC
  5
369
100
AcDbEntity
  8
0
100
AcDbCircle
 62
7
  6
CONTINUOUS
 10
6.7151578801
 20
8.3617749311
 40
0.7736095935
100
AcDbArc
 50
90.0005696162
 51
92.2636625754
  0
ARC
  5
36A
100
AcDbEntity
  8
0
100
AcDbCircle
 62
7
  6
CONTINUOUS
 10
6.7151468878
 20
8.3620081011
 40
0.7733764236
100
AcDbArc
 50
87.9980927607
 51
89.9997554157
  0
ARC
  5
36B
100
AcDbEntity
  8
0
100
AcDbCircle
 62
7
  6
CONTINUOUS
 10
6.6753376577
 20
8.3566860962
 40
0.7733301294
100
AcDbArc
 50
93.4701143235
 51
94.3694423518
  0
ARC
  5
36C
100
AcDbEntity
  8
0
100
AcDbCircle
 62
7
  6
CONTINUOUS
 10
6.6750836931
 20
8.357031616
 40
0.7729837876
100
AcDbArc
 50
85.5318643482
 51
86.6031812969
  0
ARC
  5
36D
100
AcDbEntity
  8
0
100
AcDbCircle
 62
7
  6
CONTINUOUS
 10
6.7151474737
 20
8.3615401899
 40
0.7728414001
100
AcDbArc
 50
87.9967497789
 51
89.9997986854
  0
ARC
  5
36E
100
AcDbEntity
  8
0
100
AcDbCircle
 62
7
  6
CONTINUOUS
 10
6.7151511309
 20
8.3616149303
 40
0.7727666597
100
AcDbArc
 50
90.0000698199
 51
92.2656322571
  0
ARC
  5
36F
100
AcDbEntity
  8
0
100
AcDbCircle
 62
7
  6
CONTINUOUS
 10
6.6630514293
 20
8.3558443363
 40
0.7721454544
100
AcDbArc
 50
85.5261512153
 51
86.7882869392
  0
ARC
  5
370
100
AcDbEntity
  8
0
100
AcDbCircle
 62
7
  6
CONTINUOUS
 10
6.6861796344
 20
8.3595655395
 40
0.7721288582
100
AcDbArc
 50
91.0276999381
 51
92.287552199
  0
ARC
  5
371
100
AcDbEntity
  8
0
100
AcDbCircle
 62
7
  6
CONTINUOUS
 10
6.6632963008
 20
8.3559758187
 40
0.7720137492
100
AcDbArc
 50
93.6402179954
 51
94.4213844861
  0
ARC
  5
372
100
AcDbEntity
  8
0
100
AcDbCircle
 62
7
  6
CONTINUOUS
 10
6.6633048226
 20
8.3553483463
 40
0.77163375
100
AcDbArc
 50
93.6331604128
 51
94.4242008383
  0
ARC
  5
373
100
AcDbEntity
  8
0
100
AcDbCircle
 62
7
  6
CONTINUOUS
 10
6.6868632888
 20
8.3602760499
 40
0.7715212083
100
AcDbArc
 50
87.9933269261
 51
89.4746759367
  0
ARC
  5
374
100
AcDbEntity
  8
0
100
AcDbCircle
 62
7
  6
CONTINUOUS
 10
6.6630675547
 20
8.355590242
 40
0.7713912777
100
AcDbArc
 50
85.8099259082
 51
86.7863432207
  0
ARC
  5
375
100
AcDbEntity
  8
0
100
AcDbCircle
 62
7
  6
CONTINUOUS
 10
6.652223747
 20
8.3572152258
 40
0.7687579785
100
AcDbArc
 50
91.0311063347
 51
92.2964870197
  0
ARC
  5
376
100
AcDbEntity
  8
0
100
AcDbCircle
 62
7
  6
CONTINUOUS
 10
6.6515052552
 20
8.357174836
 40
0.7686629933
100
AcDbArc
 50
87.9856612174
 51
89.472521642
  0
ARC
  5
377
100
AcDbEntity
  8
0
100
AcDbCircle
 62
7
  6
CONTINUOUS
 10
6.6522250642
 20
8.3566653828
 40
0.7682987569
100
AcDbArc
 50
91.0318209524
 51
92.2979587037
  0
ARC
  5
378
100
AcDbEntity
  8
0
100
AcDbCircle
 62
7
  6
CONTINUOUS
 10
6.6515054176
 20
8.356677641
 40
0.7681510172
100
AcDbArc
 50
87.984330219
 51
89.4721821797
  0
ARC
  5
379
100
AcDbEntity
  8
0
100
AcDbCircle
 62
9
  6
CONTINUOUS
 10
6.3004348928
 20
8.6389189569
 40
0.2771787999
100
AcDbArc
 50
359.9999976147
 51
0.4371261493
  0
ARC
  5
37A
100
AcDbEntity
  8
0
100
AcDbCircle
 62
9
  6
CONTINUOUS
 10
6.2913567435
 20
8.6389189563
 40
0.2639957378
100
AcDbArc
 50
359.9999976148
 51
0.4371261493
  0
ARC
  5
37B
100
AcDbEntity
  8
0
100
AcDbCircle
 62
7
  6
CONTINUOUS
 10
6.4943560959
 20
8.6186900006
 40
0.1992510927
100
AcDbArc
 50
208.8499687284
 51
210.6527004418
  0
ARC
  5
37C
100
AcDbEntity
  8
0
100
AcDbCircle
 62
7
  6
CONTINUOUS
 10
6.4938281538
 20
8.6594502758
 40
0.1986427818
100
AcDbArc
 50
149.4971235781
 51
151.1939494302
  0
ARC
  5
37D
100
AcDbEntity
  8
0
100
AcDbCircle
 62
9
  6
CONTINUOUS
 10
6.4862210666
 20
8.6161682249
 40
0.1906533316
100
AcDbArc
 50
209.3656533964
 51
209.5882382621
  0
ARC
  5
37E
100
AcDbEntity
  8
0
100
AcDbCircle
 62
9
  6
CONTINUOUS
 10
6.483547613
 20
8.6146411486
 40
0.187574492
100
AcDbArc
 50
209.5858293092
 51
211.3411390354
  0
ARC
  5
37F
100
AcDbEntity
  8
0
100
AcDbCircle
 62
9
  6
CONTINUOUS
 10
6.4835302852
 20
8.6632038822
 40
0.1875560305
100
AcDbArc
 50
148.9895459827
 51
150.7228943836
  0
ARC
  5
380
100
AcDbEntity
  8
0
100
AcDbCircle
 62
9
  6
CONTINUOUS
 10
6.4811050018
 20
8.664653462
 40
0.1847305695
100
AcDbArc
 50
148.7283138888
 51
148.9873449685
  0
ARC
  5
381
100
AcDbEntity
  8
0
100
AcDbCircle
 62
9
  6
CONTINUOUS
 10
6.4390066694
 20
8.5414255237
 40
0.0985062038
100
AcDbArc
 50
270.0081978545
 51
279.0351451529
  0
ARC
  5
382
100
AcDbEntity
  8
0
100
AcDbCircle
 62
7
  6
CONTINUOUS
 10
6.7550596737
 20
8.8679898676
 40
0.2701765608
100
AcDbArc
 50
91.3812470167
 51
91.8631144212
  0
ARC
  5
383
100
AcDbEntity
  8
0
100
AcDbCircle
 62
7
  6
CONTINUOUS
 10
6.7532268086
 20
8.9272568242
 40
0.2118813789
100
AcDbArc
 50
91.7042503574
 51
91.9410260672
  0
ARC
  5
384
100
AcDbEntity
  8
0
100
AcDbCircle
 62
7
  6
CONTINUOUS
 10
6.7503782449
 20
9.011617312
 40
0.1274728128
100
AcDbArc
 50
91.9457137778
 51
92.3133116192
  0
ARC
  5
385
100
AcDbEntity
  8
0
100
AcDbCircle
 62
9
  6
CONTINUOUS
 10
6.4390126985
 20
8.7365271101
 40
0.0983914601
100
AcDbArc
 50
81.7846543004
 51
89.9953034934
  0
ARC
  5
386
100
AcDbEntity
  8
0
100
AcDbCircle
 62
7
  6
CONTINUOUS
 10
6.4114423427
 20
9.0597187136
 40
0.03
100
AcDbArc
 50
104.7629977426
 51
169.9378645292
  0
ARC
  5
387
100
AcDbEntity
  8
0
100
AcDbCircle
 62
7
  6
CONTINUOUS
 10
6.6222812744
 20
9.103176187
 40
0.0240959555
100
AcDbArc
 50
103.8607052032
 51
104.7766691678
  0
ARC
  5
388
100
AcDbEntity
  8
0
100
AcDbCircle
 62
7
  6
CONTINUOUS
 10
6.6618712447
 20
9.1088544152
 40
0.0180821405
100
AcDbArc
 50
100.4819207503
 51
102.065748457
  0
ARC
  5
389
100
AcDbEntity
  8
0
100
AcDbCircle
 62
7
  6
CONTINUOUS
 10
8.2790812316
 20
8.6389189453
 40
0.9451388889
100
AcDbArc
 50
189.257080733
 51
192.5269812287
  0
ARC
  5
38A
100
AcDbEntity
  8
0
100
AcDbCircle
 62
7
  6
CONTINUOUS
 10
8.2790812316
 20
8.6389189453
 40
0.9451388889
100
AcDbArc
 50
167.4730187713
 51
170.7491086685
  0
ARC
  5
38B
100
AcDbEntity
  8
0
100
AcDbCircle
 62
7
  6
CONTINUOUS
 10
6.8594872678
 20
8.3570326041
 40
0.7805719302
100
AcDbArc
 50
95.334194991
 51
96.493911316
  0
ARC
  5
38C
100
AcDbEntity
  8
0
100
AcDbCircle
 62
7
  6
CONTINUOUS
 10
7.6351205501
 20
8.638878449
 40
0.2750471315
100
AcDbArc
 50
117.7586756638
 51
124.222800926
  0
ARC
  5
38D
100
AcDbEntity
  8
0
100
AcDbCircle
 62
7
  6
CONTINUOUS
 10
7.6350960765
 20
8.6389190112
 40
0.2749997835
100
AcDbArc
 50
215.7907479328
 51
144.2093625802
  0
ARC
  5
38E
100
AcDbEntity
  8
0
100
AcDbCircle
 62
7
  6
CONTINUOUS
 10
7.6350765615
 20
8.6389749522
 40
0.2749405691
100
AcDbArc
 50
109.1294635779
 51
114.3106959901
  0
ARC
  5
38F
100
AcDbEntity
  8
0
100
AcDbCircle
 62
7
  6
CONTINUOUS
 10
7.635070126
 20
8.6390428981
 40
0.2748732678
100
AcDbArc
 50
100.4156013205
 51
105.2416808071
  0
ARC
  5
390
100
AcDbEntity
  8
0
100
AcDbCircle
 62
7
  6
CONTINUOUS
 10
7.6350832121
 20
8.6391046141
 40
0.2748138266
100
AcDbArc
 50
91.8310023006
 51
96.4530577263
  0
ARC
  5
391
100
AcDbEntity
  8
0
100
AcDbCircle
 62
7
  6
CONTINUOUS
 10
7.6349685391
 20
8.6387349896
 40
0.2747760985
100
AcDbArc
 50
233.3380187777
 51
236.5010208514
  0
ARC
  5
392
100
AcDbEntity
  8
0
100
AcDbCircle
 62
7
  6
CONTINUOUS
 10
7.1025159701
 20
8.6585833934
 40
0.2004103353
100
AcDbArc
 50
28.8214258746
 51
29.822902918
  0
ARC
  5
393
100
AcDbEntity
  8
0
100
AcDbCircle
 62
7
  6
CONTINUOUS
 10
7.1040810114
 20
8.6183714513
 40
0.198613467
100
AcDbArc
 50
329.509974703
 51
331.160862607
  0
ARC
  5
394
100
AcDbEntity
  8
0
100
AcDbCircle
 62
9
  6
CONTINUOUS
 10
7.1125500862
 20
8.6621703919
 40
0.1896352359
100
AcDbArc
 50
29.3131722672
 51
30.3282334261
  0
ARC
  5
395
100
AcDbEntity
  8
0
100
AcDbCircle
 62
9
  6
CONTINUOUS
 10
7.1139847137
 20
8.6148479421
 40
0.1879831239
100
AcDbArc
 50
329.2406195639
 51
330.6989413956
  0
ARC
  5
396
100
AcDbEntity
  8
0
100
AcDbCircle
 62
9
  6
CONTINUOUS
 10
7.1151132476
 20
8.6636611511
 40
0.1866700881
100
AcDbArc
 50
30.3305452462
 51
30.834673248
  0
ARC
  5
397
100
AcDbEntity
  8
0
100
AcDbCircle
 62
9
  6
CONTINUOUS
 10
7.1165019734
 20
8.6133537074
 40
0.1850557835
100
AcDbArc
 50
328.7322396174
 51
329.2395724996
  0
ARC
  5
398
100
AcDbEntity
  8
0
100
AcDbCircle
 62
9
  6
CONTINUOUS
 10
7.1165765049
 20
8.6645328497
 40
0.1849668624
100
AcDbArc
 50
30.8351462813
 51
31.3141969661
  0
ARC
  5
399
100
AcDbEntity
  8
0
100
AcDbCircle
 62
7
  6
CONTINUOUS
 10
7.4384012798
 20
8.5487429443
 40
0.105823999
100
AcDbArc
 50
270.0007796722
 51
272.1551337608
  0
ARC
  5
39A
100
AcDbEntity
  8
0
100
AcDbCircle
 62
7
  6
CONTINUOUS
 10
7.4384015289
 20
8.7291180474
 40
0.1058008979
100
AcDbArc
 50
88.0315318778
 51
89.9993550634
  0
ARC
  5
39B
100
AcDbEntity
  8
0
100
AcDbCircle
 62
9
  6
CONTINUOUS
 10
7.158894477
 20
8.541556274
 40
0.0986373334
100
AcDbArc
 50
260.8782031312
 51
269.9822513327
  0
ARC
  5
39C
100
AcDbEntity
  8
0
100
AcDbCircle
 62
9
  6
CONTINUOUS
 10
7.1745334032
 20
8.5455867711
 40
0.0933457558
100
AcDbArc
 50
270.0000190798
 51
270.8742157272
  0
ARC
  5
39D
100
AcDbEntity
  8
0
100
AcDbCircle
 62
9
  6
CONTINUOUS
 10
7.158912147
 20
8.7360820008
 40
0.0988375896
100
AcDbArc
 50
90.8948100574
 51
100.0133735761
  0
ARC
  5
39E
100
AcDbEntity
  8
0
100
AcDbCircle
 62
9
  6
CONTINUOUS
 10
7.1588639545
 20
8.7369118155
 40
0.0980071298
100
AcDbArc
 50
90.0000190796
 51
90.8742157274
  0
ARC
  5
39F
100
AcDbEntity
  8
0
100
AcDbCircle
 62
9
  6
CONTINUOUS
 10
7.1745334654
 20
8.7322511196
 40
0.0933457558
100
AcDbArc
 50
90.0000190798
 51
90.8742157272
  0
ARC
  5
3A0
100
AcDbEntity
  8
0
100
AcDbCircle
 62
7
  6
CONTINUOUS
 10
7.1864423427
 20
9.0597187136
 40
0.03
100
AcDbArc
 50
10.0621354708
 51
75.2370022574
  0
ARC
  5
3A1
100
AcDbEntity
  8
0
100
AcDbCircle
 62
7
  6
CONTINUOUS
 10
8.3139423427
 20
7.6770633892
 40
2.115
100
AcDbArc
 50
343.8953203472
 51
16.1046796528
  0
ARC
  5
3A2
100
AcDbEntity
  8
0
100
AcDbCircle
 62
7
  6
CONTINUOUS
 10
11.2498734438
 20
6.6016863728
 40
0.37
100
AcDbArc
 50
4.0656154981
 51
77.5021822312
  0
ARC
  5
3A3
100
AcDbEntity
  8
0
100
AcDbCircle
 62
7
  6
CONTINUOUS
 10
10.3480112416
 20
6.6016863728
 40
0.37
100
AcDbArc
 50
102.4978177688
 51
175.9343845019
  0
ARC
  5
3A4
100
AcDbEntity
  8
0
100
AcDbCircle
 62
7
  6
CONTINUOUS
 10
9.6789816628
 20
6.632352734
 40
0.25
100
AcDbArc
 50
282.1131353839
 51
358.9837972034
  0
ARC
  5
3A5
100
AcDbEntity
  8
0
100
AcDbCircle
 62
7
  6
CONTINUOUS
 10
11.2339423427
 20
7.0279189453
 40
0.065
100
AcDbArc
 50
270.0
 51
73.9233501684
  0
ARC
  5
3A6
100
AcDbEntity
  8
0
100
AcDbCircle
 62
7
  6
CONTINUOUS
 10
10.3639423427
 20
7.0279189453
 40
0.065
100
AcDbArc
 50
106.0766498316
 51
270.0
  0
ARC
  5
3A7
100
AcDbEntity
  8
0
100
AcDbCircle
 62
7
  6
CONTINUOUS
 10
9.6539423427
 20
6.3579189453
 40
0.03
100
AcDbArc
 50
90.0
 51
180.0
  0
ARC
  5
3A8
100
AcDbEntity
  8
0
100
AcDbCircle
 62
7
  6
CONTINUOUS
 10
8.3139423427
 20
9.4987745014
 40
2.115
100
AcDbArc
 50
343.8953203472
 51
16.1046796528
  0
ARC
  5
3A9
100
AcDbEntity
  8
0
100
AcDbCircle
 62
7
  6
CONTINUOUS
 10
10.6582127253
 20
8.5164925292
 40
1.7758498676
100
AcDbArc
 50
94.792199995
 51
94.9513970385
  0
ARC
  5
3AA
100
AcDbEntity
  8
0
100
AcDbCircle
 62
7
  6
CONTINUOUS
 10
10.6454368877
 20
8.6633517081
 40
1.6284360371
100
AcDbArc
 50
94.9495445938
 51
95.4266803878
  0
ARC
  5
3AB
100
AcDbEntity
  8
0
100
AcDbCircle
 62
7
  6
CONTINUOUS
 10
10.9567560091
 20
8.7118186103
 40
1.5797788468
100
AcDbArc
 50
84.4524087661
 51
85.1700800184
  0
ARC
  5
3AC
100
AcDbEntity
  8
0
100
AcDbCircle
 62
7
  6
CONTINUOUS
 10
10.6308472496
 20
8.8192864684
 40
1.4718204182
100
AcDbArc
 50
95.4353535929
 51
95.5561035748
  0
ARC
  5
3AD
100
AcDbEntity
  8
0
100
AcDbCircle
 62
7
  6
CONTINUOUS
 10
10.6233479818
 20
8.8961332128
 40
1.3946086096
100
AcDbArc
 50
95.6085091774
 51
95.7429837169
  0
ARC
  5
3AE
100
AcDbEntity
  8
0
100
AcDbCircle
 62
7
  6
CONTINUOUS
 10
10.7064423427
 20
8.5879189453
 40
0.465
100
AcDbArc
 50
140.8294108274
 51
219.1705891726
  0
ARC
  5
3AF
100
AcDbEntity
  8
0
100
AcDbCircle
 62
7
  6
CONTINUOUS
 10
10.8914423427
 20
8.5879189453
 40
0.465
100
AcDbArc
 50
320.8294108274
 51
39.1705891726
  0
ARC
  5
3B0
100
AcDbEntity
  8
0
100
AcDbCircle
 62
7
  6
CONTINUOUS
 10
11.2339423427
 20
10.1479189453
 40
0.065
100
AcDbArc
 50
286.0766498315
 51
88.6848408374
  0
ARC
  5
3B1
100
AcDbEntity
  8
0
100
AcDbCircle
 62
7
  6
CONTINUOUS
 10
10.3639423427
 20
10.1479189453
 40
0.065
100
AcDbArc
 50
91.3178798785
 51
253.9233501685
  0
ARC
  5
3B2
100
AcDbEntity
  8
0
100
AcDbCircle
 62
7
  6
CONTINUOUS
 10
10.798941945
 20
10.7728900128
 40
0.7099998256
100
AcDbArc
 50
307.936602714
 51
63.877735201
  0
ARC
  5
3B3
100
AcDbEntity
  8
0
100
AcDbCircle
 62
7
  6
CONTINUOUS
 10
10.798942512
 20
10.7728901054
 40
0.7099996978
100
AcDbArc
 50
116.12021164
 51
232.0634162102
  0
ARC
  5
3B4
100
AcDbEntity
  8
0
100
AcDbCircle
 62
7
  6
CONTINUOUS
 10
10.7989423427
 20
10.7728901499
 40
0.4695
100
AcDbArc
 50
311.9013064677
 51
48.0986935323
  0
ARC
  5
3B5
100
AcDbEntity
  8
0
100
AcDbCircle
 62
7
  6
CONTINUOUS
 10
10.7989423427
 20
10.7728901499
 40
0.4695
100
AcDbArc
 50
131.9013064677
 51
228.0986935323
  0
ARC
  5
3B6
100
AcDbEntity
  8
0
100
AcDbCircle
 62
9
  6
CONTINUOUS
 10
10.7989423427
 20
10.7728901499
 40
0.407
100
AcDbArc
 50
140.3631082105
 51
219.6360890738
  0
ARC
  5
3B7
100
AcDbEntity
  8
0
100
AcDbCircle
 62
9
  6
CONTINUOUS
 10
10.7989423427
 20
10.7728901499
 40
0.407
100
AcDbArc
 50
320.3631082105
 51
39.6360890738
  0
ARC
  5
3B8
100
AcDbEntity
  8
0
100
AcDbCircle
 62
7
  6
CONTINUOUS
 10
10.7989423427
 20
10.7728901499
 40
0.34
100
AcDbArc
 50
337.2247497853
 51
22.7898993662
  0
ARC
  5
3B9
100
AcDbEntity
  8
0
100
AcDbCircle
 62
7
  6
CONTINUOUS
 10
10.7989423427
 20
10.7728901499
 40
0.34
100
AcDbArc
 50
157.2247497853
 51
202.7898993662
  0
ARC
  5
3BA
100
AcDbEntity
  8
0
100
AcDbCircle
 62
7
  6
CONTINUOUS
 10
10.7989423427
 20
10.7728901499
 40
0.325
100
AcDbArc
 50
164.8422424305
 51
195.1577575695
  0
ARC
  5
3BB
100
AcDbEntity
  8
0
100
AcDbCircle
 62
7
  6
CONTINUOUS
 10
10.7989423427
 20
10.7728901499
 40
0.325
100
AcDbArc
 50
344.8422424305
 51
15.1577575695
  0
ARC
  5
3BC
100
AcDbEntity
  8
0
100
AcDbCircle
 62
7
  6
CONTINUOUS
 10
10.7989423427
 20
10.7728901499
 40
0.317
100
AcDbArc
 50
170.5669688473
 51
189.3152186646
  0
ARC
  5
3BD
100
AcDbEntity
  8
0
100
AcDbCircle
 62
7
  6
CONTINUOUS
 10
10.7989423427
 20
10.7728901499
 40
0.317
100
AcDbArc
 50
350.5669688473
 51
9.3152186646
  0
ARC
  5
3BE
100
AcDbEntity
  8
0
100
AcDbCircle
 62
7
  6
CONTINUOUS
 10
10.7989423427
 20
11.4608901499
 40
0.3125
100
AcDbArc
 50
0.0
 51
180.0
  0
ARC
  5
3BF
100
AcDbEntity
  8
0
100
AcDbCircle
 62
7
  6
CONTINUOUS
 10
10.3388444406
 20
11.644920059
 40
0.2815979021
100
AcDbArc
 50
13.4373356529
 51
41.7470327955
  0
ARC
  5
3C0
100
AcDbEntity
  8
0
100
AcDbCircle
 62
7
  6
CONTINUOUS
 10
11.2590402448
 20
11.644920059
 40
0.2815979021
100
AcDbArc
 50
138.2529672045
 51
166.5626643471
  0
ARC
  5
3C1
100
AcDbEntity
  8
0
100
AcDbCircle
 62
7
  6
CONTINUOUS
 10
10.9269213412
 20
12.094420059
 40
0.188
100
AcDbArc
 50
11.039714414
 51
90.0
  0
ARC
  5
3C2
100
AcDbEntity
  8
0
100
AcDbCircle
 62
7
  6
CONTINUOUS
 10
10.6709633443
 20
12.094420059
 40
0.188
100
AcDbArc
 50
90.0
 51
168.960285586
  0
ARC
  5
3C3
100
AcDbEntity
  8
0
100
AcDbCircle
 62
7
  6
CONTINUOUS
 10
11.1449423427
 20
12.012920059
 40
0.1175
100
AcDbArc
 50
270.0
 51
90.0
  0
ARC
  5
3C4
100
AcDbEntity
  8
0
100
AcDbCircle
 62
7
  6
CONTINUOUS
 10
10.4529423427
 20
12.012920059
 40
0.1175
100
AcDbArc
 50
90.0
 51
270.0
  0
ARC
  5
3C5
100
AcDbEntity
  8
0
100
AcDbCircle
 62
7
  6
CONTINUOUS
 10
11.1707475773
 20
10.3632208528
 40
0.1168681221
100
AcDbArc
 50
292.5085867458
 51
293.5890509559
  0
ARC
  5
3C6
100
AcDbEntity
  8
0
100
AcDbCircle
 62
7
  6
CONTINUOUS
 10
10.4266702208
 20
10.3618250751
 40
0.1154008696
100
AcDbArc
 50
246.4855553092
 51
247.4618724754
  0
ARC
  5
3C7
100
AcDbEntity
  8
0
100
AcDbCircle
 62
7
  6
CONTINUOUS
 10
17.7665082187
 20
-9.6391502326
 40
19.0304495949
100
AcDbArc
 50
99.5861041306
 51
99.7905965331
  0
ARC
  5
3C8
100
AcDbEntity
  8
0
100
AcDbCircle
 62
7
  6
CONTINUOUS
 10
13.2839423427
 20
7.6770633892
 40
2.115
100
AcDbArc
 50
163.8953203472
 51
196.1046796528
  0
ARC
  5
3C9
100
AcDbEntity
  8
0
100
AcDbCircle
 62
7
  6
CONTINUOUS
 10
11.9189030227
 20
6.632352734
 40
0.25
100
AcDbArc
 50
181.0162027966
 51
257.8868646161
  0
ARC
  5
3CA
100
AcDbEntity
  8
0
100
AcDbCircle
 62
7
  6
CONTINUOUS
 10
13.8060784538
 20
6.2529189453
 40
0.1871361111
100
AcDbArc
 50
92.1854050713
 51
180.0
  0
ARC
  5
3CB
100
AcDbEntity
  8
0
100
AcDbCircle
 62
7
  6
CONTINUOUS
 10
11.9439423427
 20
6.3579189453
 40
0.03
100
AcDbArc
 50
0.0
 51
90.0
  0
ARC
  5
3CC
100
AcDbEntity
  8
0
100
AcDbCircle
 62
7
  6
CONTINUOUS
 10
13.2839423427
 20
9.4987745014
 40
2.115
100
AcDbArc
 50
163.8953203472
 51
196.1046796528
  0
ARC
  5
3CD
100
AcDbEntity
  8
0
100
AcDbCircle
 62
7
  6
CONTINUOUS
 10
13.7464034407
 20
7.9639222739
 40
0.625
100
AcDbArc
 50
325.0110095298
 51
355.1903006332
  0
ARC
  5
3CE
100
AcDbEntity
  8
0
100
AcDbCircle
 62
7
  6
CONTINUOUS
 10
13.6164423427
 20
8.6389189453
 40
0.275
100
AcDbArc
 50
55.0
 51
305.0
  0
ARC
  5
3CF
100
AcDbEntity
  8
0
100
AcDbCircle
 62
7
  6
CONTINUOUS
 10
13.8654423427
 20
8.8198126736
 40
0.016
100
AcDbArc
 50
235.0000000002
 51
360.0
  0
ARC
  5
3D0
100
AcDbEntity
  8
0
100
AcDbCircle
 62
7
  6
CONTINUOUS
 10
13.8654423427
 20
8.458025217
 40
0.016
100
AcDbArc
 50
0.0
 51
124.9999999998
  0
ARC
  5
3D1
100
AcDbEntity
  8
0
100
AcDbCircle
 62
7
  6
CONTINUOUS
 10
13.8946088048
 20
8.4589189453
 40
0.016
100
AcDbArc
 50
214.6234510999
 51
316.9739483152
  0
ARC
  5
3D2
100
AcDbEntity
  8
0
100
AcDbCircle
 62
7
  6
CONTINUOUS
 10
13.8946088048
 20
8.8189189453
 40
0.016
100
AcDbArc
 50
43.0260516848
 51
145.3765489001
  0
ARC
  5
3D3
100
AcDbEntity
  8
0
100
AcDbCircle
 62
7
  6
CONTINUOUS
 10
13.9859396689
 20
6.4409189453
 40
0.187
100
AcDbArc
 50
90.0
 51
180.3063960032
  0
ARC
  5
3D4
100
AcDbEntity
  8
0
100
AcDbCircle
 62
7
  6
CONTINUOUS
 10
14.7989423427
 20
7.5892489299
 40
1.5506700155
100
AcDbArc
 50
82.589547494
 51
87.505151011
  0
ARC
  5
3D5
100
AcDbEntity
  8
0
100
AcDbCircle
 62
7
  6
CONTINUOUS
 10
14.7989423427
 20
7.5892489299
 40
1.5506700155
100
AcDbArc
 50
75.2369677689
 51
76.6138583876
  0
ARC
  5
3D6
100
AcDbEntity
  8
0
100
AcDbCircle
 62
7
  6
CONTINUOUS
 10
14.7989423427
 20
7.5892489299
 40
1.5506700155
100
AcDbArc
 50
78.2452597908
 51
81.2354682492
  0
ARC
  5
3D7
100
AcDbEntity
  8
0
100
AcDbCircle
 62
7
  6
CONTINUOUS
 10
14.7989423427
 20
7.5892489299
 40
1.5506700155
100
AcDbArc
 50
103.0445666344
 51
104.7630312681
  0
ARC
  5
3D8
100
AcDbEntity
  8
0
100
AcDbCircle
 62
7
  6
CONTINUOUS
 10
14.7989423427
 20
7.5892489299
 40
1.5506700155
100
AcDbArc
 50
88.836024953
 51
90.1108469994
  0
ARC
  5
3D9
100
AcDbEntity
  8
0
100
AcDbCircle
 62
7
  6
CONTINUOUS
 10
14.7989423427
 20
7.5892489299
 40
1.5506700155
100
AcDbArc
 50
95.9223899948
 51
101.2405406729
  0
ARC
  5
3DA
100
AcDbEntity
  8
0
100
AcDbCircle
 62
7
  6
CONTINUOUS
 10
14.7989423427
 20
7.5892489299
 40
1.5496700155
100
AcDbArc
 50
94.5784174525
 51
95.2142832761
  0
ARC
  5
3DB
100
AcDbEntity
  8
0
100
AcDbCircle
 62
7
  6
CONTINUOUS
 10
14.7989423427
 20
7.5892489299
 40
1.5496700155
100
AcDbArc
 50
90.8291524331
 51
91.430999623
  0
ARC
  5
3DC
100
AcDbEntity
  8
0
100
AcDbCircle
 62
7
  6
CONTINUOUS
 10
14.7989423427
 20
7.5892489299
 40
1.5496700155
100
AcDbArc
 50
77.4924797184
 51
78.0591795779
  0
ARC
  5
3DD
100
AcDbEntity
  8
0
100
AcDbCircle
 62
7
  6
CONTINUOUS
 10
14.7989423427
 20
7.5892489299
 40
1.5496700155
100
AcDbArc
 50
101.4639028364
 51
102.1588703004
  0
ARC
  5
3DE
100
AcDbEntity
  8
0
100
AcDbCircle
 62
7
  6
CONTINUOUS
 10
14.7989423427
 20
7.5892489299
 40
1.549469747
100
AcDbArc
 50
79.9593632588
 51
81.0040654587
  0
ARC
  5
3DF
100
AcDbEntity
  8
0
100
AcDbCircle
 62
7
  6
CONTINUOUS
 10
14.7989423427
 20
7.5892489299
 40
1.5494208609
100
AcDbArc
 50
85.5024540677
 51
86.3921798126
  0
ARC
  5
3E0
100
AcDbEntity
  8
0
100
AcDbCircle
 62
7
  6
CONTINUOUS
 10
14.7989423427
 20
7.5892489299
 40
1.5484689719
100
AcDbArc
 50
79.9528066769
 51
80.9982030894
  0
ARC
  5
3E1
100
AcDbEntity
  8
0
100
AcDbCircle
 62
7
  6
CONTINUOUS
 10
14.7989423427
 20
7.5892489299
 40
1.5484200542
100
AcDbArc
 50
85.49954113
 51
86.3898448421
  0
ARC
  5
3E2
100
AcDbEntity
  8
0
100
AcDbCircle
 62
7
  6
CONTINUOUS
 10
14.7989423427
 20
7.5892489299
 40
1.5483386247
100
AcDbArc
 50
84.0880697177
 51
89.6299506004
  0
ARC
  5
3E3
100
AcDbEntity
  8
0
100
AcDbCircle
 62
7
  6
CONTINUOUS
 10
14.7989423427
 20
7.5892489299
 40
1.5483386247
100
AcDbArc
 50
79.7882367111
 51
82.9513441199
  0
ARC
  5
3E4
100
AcDbEntity
  8
0
100
AcDbCircle
 62
7
  6
CONTINUOUS
 10
14.7600289876
 20
7.8245044905
 40
1.3122163765
100
AcDbArc
 50
96.2161682461
 51
96.9435981609
  0
ARC
  5
3E5
100
AcDbEntity
  8
0
100
AcDbCircle
 62
7
  6
CONTINUOUS
 10
14.3514174638
 20
7.3826545421
 40
0.2039751211
100
AcDbArc
 50
145.0110095298
 51
213.0478355064
  0
ARC
  5
3E6
100
AcDbEntity
  8
0
100
AcDbCircle
 62
7
  6
CONTINUOUS
 10
14.0366678091
 20
7.1778799208
 40
0.1715245336
100
AcDbArc
 50
314.9173576842
 51
33.0478355064
  0
ARC
  5
3E7
100
AcDbEntity
  8
0
100
AcDbCircle
 62
7
  6
CONTINUOUS
 10
15.7918062316
 20
6.2529189453
 40
0.1871361111
100
AcDbArc
 50
0.0
 51
87.8145949287
  0
ARC
  5
3E8
100
AcDbEntity
  8
0
100
AcDbCircle
 62
7
  6
CONTINUOUS
 10
15.6119450166
 20
6.4409189453
 40
0.187
100
AcDbArc
 50
359.6936039968
 51
90.0
  0
ARC
  5
3E9
100
AcDbEntity
  8
0
100
AcDbCircle
 62
7
  6
CONTINUOUS
 10
15.2464672217
 20
7.3826545421
 40
0.2039751211
100
AcDbArc
 50
326.9521644936
 51
34.9889904702
  0
ARC
  5
3EA
100
AcDbEntity
  8
0
100
AcDbCircle
 62
7
  6
CONTINUOUS
 10
15.5612168764
 20
7.1778799208
 40
0.1715245336
100
AcDbArc
 50
146.9521644936
 51
225.0826423158
  0
ARC
  5
3EB
100
AcDbEntity
  8
0
100
AcDbCircle
 62
7
  6
CONTINUOUS
 10
14.8300279947
 20
7.9983987441
 40
1.1403421761
100
AcDbArc
 50
83.0535751546
 51
83.4864024216
  0
ARC
  5
3EC
100
AcDbEntity
  8
0
100
AcDbCircle
 62
7
  6
CONTINUOUS
 10
15.0139955803
 20
8.4412112235
 40
0.6725228302
100
AcDbArc
 50
81.073365185
 51
81.3947580835
  0
CIRCLE
  5
3ED
100
AcDbEntity
  8
0
100
AcDbCircle
 62
7
  6
CONTINUOUS
 10
14.7989423427
 20
8.6389189453
 40
0.275
  0
ARC
  5
3EE
100
AcDbEntity
  8
0
100
AcDbCircle
 62
7
  6
CONTINUOUS
 10
14.0890663838
 20
8.2774189453
 40
0.25
100
AcDbArc
 50
47.6865981126
 51
136.9739483152
  0
ARC
  5
3EF
100
AcDbEntity
  8
0
100
AcDbCircle
 62
7
  6
CONTINUOUS
 10
14.5037946504
 20
8.0999182637
 40
0.1195023701
100
AcDbArc
 50
0.3792025702
 51
1.1663357285
  0
ARC
  5
3F0
100
AcDbEntity
  8
0
100
AcDbCircle
 62
7
  6
CONTINUOUS
 10
14.5039823332
 20
8.0999106955
 40
0.1193147419
100
AcDbArc
 50
352.4880657592
 51
0.3834332813
  0
ARC
  5
3F1
100
AcDbEntity
  8
0
100
AcDbCircle
 62
7
  6
CONTINUOUS
 10
14.9636595399
 20
8.0999189666
 40
0.0877198425
100
AcDbArc
 50
358.2429578635
 51
1.4191037063
  0
ARC
  5
3F2
100
AcDbEntity
  8
0
100
AcDbCircle
 62
7
  6
CONTINUOUS
 10
14.9641359606
 20
8.0999036089
 40
0.0872431749
100
AcDbArc
 50
355.5278273498
 51
358.2434457073
  0
ARC
  5
3F3
100
AcDbEntity
  8
0
100
AcDbCircle
 62
7
  6
CONTINUOUS
 10
14.9641760885
 20
8.099936257
 40
0.0872030243
100
AcDbArc
 50
1.4161519597
 51
4.2182998512
  0
ARC
  5
3F4
100
AcDbEntity
  8
0
100
AcDbCircle
 62
7
  6
CONTINUOUS
 10
14.965260573
 20
8.0998125217
 40
0.0861148842
100
AcDbArc
 50
351.0105310793
 51
355.5299020683
  0
ARC
  5
3F5
100
AcDbEntity
  8
0
100
AcDbCircle
 62
7
  6
CONTINUOUS
 10
14.9654609199
 20
8.1000492937
 40
0.0859133607
100
AcDbArc
 50
4.2061472864
 51
8.5595876045
  0
ARC
  5
3F6
100
AcDbEntity
  8
0
100
AcDbCircle
 62
7
  6
CONTINUOUS
 10
14.9670285324
 20
8.1002785299
 40
0.0843290902
100
AcDbArc
 50
8.5640971722
 51
9.5545579755
  0
ARC
  5
3F7
100
AcDbEntity
  8
0
100
AcDbCircle
 62
7
  6
CONTINUOUS
 10
14.9670398351
 20
8.0995571216
 40
0.0843175735
100
AcDbArc
 50
350.7302933988
 51
350.9930321053
  0
ARC
  5
3F8
100
AcDbEntity
  8
0
100
AcDbCircle
 62
7
  6
CONTINUOUS
 10
14.5503126789
 20
8.1175010624
 40
0.068356467
100
AcDbArc
 50
41.1132475499
 51
43.6015767932
  0
ARC
  5
3F9
100
AcDbEntity
  8
0
100
AcDbCircle
 62
7
  6
CONTINUOUS
 10
14.5715310404
 20
8.1342620838
 40
0.0476787784
100
AcDbArc
 50
97.130914254
 51
105.4829579435
  0
ARC
  5
3FA
100
AcDbEntity
  8
0
100
AcDbCircle
 62
7
  6
CONTINUOUS
 10
14.5631830657
 20
8.1369597825
 40
0.0446608759
100
AcDbArc
 50
79.864382639
 51
86.9358986202
  0
ARC
  5
3FB
100
AcDbEntity
  8
0
100
AcDbCircle
 62
7
  6
CONTINUOUS
 10
14.5632560016
 20
8.1374384886
 40
0.0441789808
100
AcDbArc
 50
86.9971684704
 51
96.2073695434
  0
ARC
  5
3FC
100
AcDbEntity
  8
0
100
AcDbCircle
 62
7
  6
CONTINUOUS
 10
15.0087161588
 20
8.0727748532
 40
0.0379567081
100
AcDbArc
 50
264.4280455115
 51
265.8511421009
  0
ARC
  5
3FD
100
AcDbEntity
  8
0
100
AcDbCircle
 62
7
  6
CONTINUOUS
 10
15.0301667819
 20
8.1437223444
 40
0.0378877647
100
AcDbArc
 50
86.7584321057
 51
96.6304815233
  0
ARC
  5
3FE
100
AcDbEntity
  8
0
100
AcDbCircle
 62
7
  6
CONTINUOUS
 10
14.578139211
 20
8.1272916918
 40
0.0377274029
100
AcDbArc
 50
85.8635172995
 51
88.037505429
  0
ARC
  5
3FF
100
AcDbEntity
  8
0
100
AcDbCircle
 62
7
  6
CONTINUOUS
 10
15.0086990212
 20
8.0725341012
 40
0.0377153471
100
AcDbArc
 50
265.8506480807
 51
267.8775930411
  0
ARC
  5
400
100
AcDbEntity
  8
0
100
AcDbCircle
 62
7
  6
CONTINUOUS
 10
14.5781475963
 20
8.1275265844
 40
0.0374923609
100
AcDbArc
 50
88.0380195619
 51
89.9990189671
  0
ARC
  5
401
100
AcDbEntity
  8
0
100
AcDbCircle
 62
7
  6
CONTINUOUS
 10
15.0086887895
 20
8.0722605179
 40
0.0374415726
100
AcDbArc
 50
267.8777348894
 51
269.9986360775
  0
ARC
  5
402
100
AcDbEntity
  8
0
100
AcDbCircle
 62
7
  6
CONTINUOUS
 10
15.0263798166
 20
8.1445052669
 40
0.0374359833
100
AcDbArc
 50
74.9577471566
 51
80.9304785934
  0
ARC
  5
403
100
AcDbEntity
  8
0
100
AcDbCircle
 62
7
  6
CONTINUOUS
 10
15.00452751
 20
8.1291596102
 40
0.0359630379
100
AcDbArc
 50
67.4632455472
 51
70.7922180077
  0
ARC
  5
404
100
AcDbEntity
  8
0
100
AcDbCircle
 62
7
  6
CONTINUOUS
 10
14.5933156846
 20
8.1292828675
 40
0.0358333014
100
AcDbArc
 50
109.218783294
 51
112.6024484293
  0
ARC
  5
405
100
AcDbEntity
  8
0
100
AcDbCircle
 62
7
  6
CONTINUOUS
 10
15.0049376234
 20
8.1303374496
 40
0.0347158416
100
AcDbArc
 50
70.791854766
 51
77.1207620926
  0
ARC
  5
406
100
AcDbEntity
  8
0
100
AcDbCircle
 62
7
  6
CONTINUOUS
 10
14.5928691905
 20
8.1306136761
 40
0.0344296895
100
AcDbArc
 50
103.6610731391
 51
109.2461753238
  0
ARC
  5
407
100
AcDbEntity
  8
0
100
AcDbCircle
 62
7
  6
CONTINUOUS
 10
15.0075617126
 20
8.0693310458
 40
0.0314121089
100
AcDbArc
 50
256.4018944877
 51
269.9582860914
  0
ARC
  5
408
100
AcDbEntity
  8
0
100
AcDbCircle
 62
7
  6
CONTINUOUS
 10
14.5903447173
 20
8.1309081687
 40
0.0310107767
100
AcDbArc
 50
85.0353375057
 51
89.9979213764
  0
ARC
  5
409
100
AcDbEntity
  8
0
100
AcDbCircle
 62
7
  6
CONTINUOUS
 10
14.4000934542
 20
7.9089189453
 40
0.031
100
AcDbArc
 50
89.9999620817
 51
175.1902968487
  0
ARC
  5
40A
100
AcDbEntity
  8
0
100
AcDbCircle
 62
7
  6
CONTINUOUS
 10
15.0075389224
 20
8.1310081297
 40
0.0309108156
100
AcDbArc
 50
90.0001468016
 51
90.9571749896
  0
ARC
  5
40B
100
AcDbEntity
  8
0
100
AcDbCircle
 62
7
  6
CONTINUOUS
 10
15.0202483797
 20
8.1348951695
 40
0.0301841018
100
AcDbArc
 50
104.5796380029
 51
111.5270093812
  0
ARC
  5
40C
100
AcDbEntity
  8
0
100
AcDbCircle
 62
7
  6
CONTINUOUS
 10
14.5890670446
 20
8.0635838027
 40
0.0287722943
100
AcDbArc
 50
275.6304926476
 51
285.410644731
  0
ARC
  5
40D
100
AcDbEntity
  8
0
100
AcDbCircle
 62
7
  6
CONTINUOUS
 10
15.0198171261
 20
8.1365161009
 40
0.0285068106
100
AcDbArc
 50
94.3193486822
 51
104.5608714323
  0
ARC
  5
40E
100
AcDbEntity
  8
0
100
AcDbCircle
 62
7
  6
CONTINUOUS
 10
14.5891836861
 20
8.0626913139
 40
0.027872682
100
AcDbArc
 50
272.8919139512
 51
275.5718776543
  0
ARC
  5
40F
100
AcDbEntity
  8
0
100
AcDbCircle
 62
7
  6
CONTINUOUS
 10
15.0197384562
 20
8.1372012526
 40
0.0278176928
100
AcDbArc
 50
90.004137878
 51
94.2640585692
  0
ARC
  5
410
100
AcDbEntity
  8
0
100
AcDbCircle
 62
7
  6
CONTINUOUS
 10
14.589195793
 20
8.0624577817
 40
0.0276388364
100
AcDbArc
 50
270.0020612555
 51
272.8912727744
  0
ARC
  5
411
100
AcDbEntity
  8
0
100
AcDbCircle
 62
7
  6
CONTINUOUS
 10
14.9277053795
 20
8.7158427184
 40
0.4157406395
100
AcDbArc
 50
85.7524073639
 51
86.2409717648
  0
ARC
  5
412
100
AcDbEntity
  8
0
100
AcDbCircle
 62
7
  6
CONTINUOUS
 10
14.9277349772
 20
8.7169849365
 40
0.415602106
100
AcDbArc
 50
85.6321176027
 51
87.4662951876
  0
ARC
  5
413
100
AcDbEntity
  8
0
100
AcDbCircle
 62
7
  6
CONTINUOUS
 10
14.9277543179
 20
8.7165971192
 40
0.4149846533
100
AcDbArc
 50
86.240885371
 51
87.4651957744
  0
ARC
  5
414
100
AcDbEntity
  8
0
100
AcDbCircle
 62
7
  6
CONTINUOUS
 10
15.0240972675
 20
9.4632117183
 40
0.338019384
100
AcDbArc
 50
264.0302897639
 51
264.7280278045
  0
ARC
  5
415
100
AcDbEntity
  8
0
100
AcDbCircle
 62
7
  6
CONTINUOUS
 10
14.0890663838
 20
9.0004189453
 40
0.25
100
AcDbArc
 50
223.0260516848
 51
312.316709225
  0
ARC
  5
416
100
AcDbEntity
  8
0
100
AcDbCircle
 62
7
  6
CONTINUOUS
 10
14.968504175
 20
9.0812138247
 40
0.0491834672
100
AcDbArc
 50
100.5107895849
 51
101.8305445966
  0
ARC
  5
417
100
AcDbEntity
  8
0
100
AcDbCircle
 62
7
  6
CONTINUOUS
 10
14.9683485365
 20
9.0820598614
 40
0.0483232265
100
AcDbArc
 50
98.0353845906
 51
100.3062299902
  0
ARC
  5
418
100
AcDbEntity
  8
0
100
AcDbCircle
 62
7
  6
CONTINUOUS
 10
14.9682104774
 20
9.0830292182
 40
0.0473440884
100
AcDbArc
 50
94.1700500485
 51
98.0339293868
  0
ARC
  5
419
100
AcDbEntity
  8
0
100
AcDbCircle
 62
7
  6
CONTINUOUS
 10
14.9681510555
 20
9.083753396
 40
0.0466175073
100
AcDbArc
 50
90.2565216127
 51
94.1619325294
  0
ARC
  5
41A
100
AcDbEntity
  8
0
100
AcDbCircle
 62
7
  6
CONTINUOUS
 10
14.4114423427
 20
9.0597185983
 40
0.03
100
AcDbArc
 50
104.7630312681
 51
169.9529713788
  0
ARC
  5
41B
100
AcDbEntity
  8
0
100
AcDbCircle
 62
7
  6
CONTINUOUS
 10
15.8514812448
 20
7.9639222739
 40
0.625
100
AcDbArc
 50
184.8096993668
 51
214.9889904702
  0
ARC
  5
41C
100
AcDbEntity
  8
0
100
AcDbCircle
 62
7
  6
CONTINUOUS
 10
15.9814423427
 20
8.6389189453
 40
0.275
100
AcDbArc
 50
235.0
 51
125.0
  0
ARC
  5
41D
100
AcDbEntity
  8
0
100
AcDbCircle
 62
7
  6
CONTINUOUS
 10
15.5088183017
 20
8.2774189453
 40
0.25
100
AcDbArc
 50
43.0260516848
 51
132.3168916863
  0
ARC
  5
41E
100
AcDbEntity
  8
0
100
AcDbCircle
 62
7
  6
CONTINUOUS
 10
15.0941075999
 20
8.0999189391
 40
0.1195199138
100
AcDbArc
 50
176.6584712349
 51
183.9808191462
  0
ARC
  5
41F
100
AcDbEntity
  8
0
100
AcDbCircle
 62
7
  6
CONTINUOUS
 10
15.094005805
 20
8.0999255813
 40
0.1194179048
100
AcDbArc
 50
175.4961953455
 51
176.658805937
  0
ARC
  5
420
100
AcDbEntity
  8
0
100
AcDbCircle
 62
7
  6
CONTINUOUS
 10
15.0939424229
 20
8.0999076053
 40
0.1193543484
100
AcDbArc
 50
183.9808962235
 51
184.5837785317
  0
ARC
  5
421
100
AcDbEntity
  8
0
100
AcDbCircle
 62
7
  6
CONTINUOUS
 10
15.0937838607
 20
8.0998947759
 40
0.1191952681
100
AcDbArc
 50
184.5837224989
 51
185.3746796382
  0
ARC
  5
422
100
AcDbEntity
  8
0
100
AcDbCircle
 62
7
  6
CONTINUOUS
 10
15.0928448501
 20
8.1000575359
 40
0.1182501799
100
AcDbArc
 50
163.8816018198
 51
175.5157620095
  0
ARC
  5
423
100
AcDbEntity
  8
0
100
AcDbCircle
 62
7
  6
CONTINUOUS
 10
15.0907456466
 20
8.1006016986
 40
0.1160824393
100
AcDbArc
 50
163.6075795817
 51
163.8519793447
  0
ARC
  5
424
100
AcDbEntity
  8
0
100
AcDbCircle
 62
7
  6
CONTINUOUS
 10
15.1977912312
 20
7.9089189453
 40
0.031
100
AcDbArc
 50
4.8097031513
 51
90.0000379183
  0
ARC
  5
425
100
AcDbEntity
  8
0
100
AcDbCircle
 62
7
  6
CONTINUOUS
 10
15.7324423427
 20
8.458025217
 40
0.016
100
AcDbArc
 50
55.0000000002
 51
180.0
  0
ARC
  5
426
100
AcDbEntity
  8
0
100
AcDbCircle
 62
7
  6
CONTINUOUS
 10
15.7032758806
 20
8.4589189453
 40
0.016
100
AcDbArc
 50
223.0260516848
 51
325.3765489001
  0
ARC
  5
427
100
AcDbEntity
  8
0
100
AcDbCircle
 62
7
  6
CONTINUOUS
 10
15.5088183017
 20
9.0004189453
 40
0.25
100
AcDbArc
 50
227.6856520344
 51
316.9739483152
  0
ARC
  5
428
100
AcDbEntity
  8
0
100
AcDbCircle
 62
7
  6
CONTINUOUS
 10
15.1864423427
 20
9.0597185983
 40
0.03
100
AcDbArc
 50
10.0470286212
 51
75.2369687319
  0
ARC
  5
429
100
AcDbEntity
  8
0
100
AcDbCircle
 62
7
  6
CONTINUOUS
 10
15.7324423427
 20
8.8198126736
 40
0.016
100
AcDbArc
 50
180.0
 51
304.9999999998
  0
ARC
  5
42A
100
AcDbEntity
  8
0
100
AcDbCircle
 62
7
  6
CONTINUOUS
 10
15.7032758806
 20
8.8189189453
 40
0.016
100
AcDbArc
 50
34.6234510999
 51
136.9739483152
  0
SPLINE
  5
42B
100
AcDbEntity
  8
0
100
AcDbSpline
 62
7
  6
CONTINUOUS
 70
0
 71
3
 72
14
 73
10
 74
0
 42
0.0000001
 43
0.0000001
 44
0.0000000001
 40
0.0
 40
0.0
 40
0.0
 40
0.0
 40
0.1150620559
 40
0.2325311393
 40
0.3527233133
 40
0.4758656381
 40
0.7314216839
 40
0.8641555392
 40
1.0
 40
1.0
 40
1.0
 40
1.0
 10
14.5795437008
 20
8.162363949
 30
0.0
 10
14.5784873759
 20
8.1619244772
 30
0.0
 10
14.5763932676
 20
8.1609353463
 30
0.0
 10
14.5733650472
 20
8.1591576604
 30
0.0
 10
14.5704348979
 20
8.1570799635
 30
0.0
 10
14.5666326028
 20
8.153887247
 30
0.0
 10
14.5631352376
 20
8.1501645987
 30
0.0
 10
14.5599800975
 20
8.1460135599
 30
0.0
 10
14.5585083587
 20
8.1437821403
 30
0.0
 10
14.5578008225
 20
8.1426315326
 30
0.0
  0
SPLINE
  5
42C
100
AcDbEntity
  8
0
100
AcDbSpline
 62
7
  6
CONTINUOUS
 70
0
 71
3
 72
15
 73
11
 74
0
 42
0.0000001
 43
0.0000001
 44
0.0000000001
 40
0.0
 40
0.0
 40
0.0
 40
0.0
 40
0.1199877252
 40
0.2405658515
 40
0.3621478732
 40
0.4851903706
 40
0.610145498
 40
0.7374009548
 40
0.8672673527
 40
1.0
 40
1.0
 40
1.0
 40
1.0
 10
14.5903458423
 20
8.0379189453
 30
0.0
 10
14.5893848083
 20
8.0379189453
 30
0.0
 10
14.587456836
 20
8.0380090635
 30
0.0
 10
14.5845804436
 20
8.0384122014
 30
0.0
 10
14.5817290439
 20
8.0390825773
 30
0.0
 10
14.5789161123
 20
8.0400166936
 30
0.0
 10
14.5761536815
 20
8.0412102448
 30
0.0
 10
14.573453522
 20
8.0426578719
 30
0.0
 10
14.5708272521
 20
8.0443526994
 30
0.0
 10
14.5691521342
 20
8.0456285328
 30
0.0
 10
14.5683305563
 20
8.0463032329
 30
0.0
  0
SPLINE
  5
42D
100
AcDbEntity
  8
0
100
AcDbSpline
 62
7
  6
CONTINUOUS
 70
0
 71
3
 72
31
 73
27
 74
0
 42
0.0000001
 43
0.0000001
 44
0.0000000001
 40
0.0
 40
0.0
 40
0.0
 40
0.0
 40
0.0266780019
 40
0.0538898816
 40
0.081646921
 40
0.1099527989
 40
0.138805325
 40
0.1681944685
 40
0.2284981384
 40
0.2906949255
 40
0.3224313801
 40
0.3545369972
 40
0.3869702272
 40
0.4196858666
 40
0.4857602775
 40
0.5523757398
 40
0.585763358
 40
0.6191295502
 40
0.6524218661
 40
0.6855885558
 40
0.751328471
 40
0.7838186845
 40
0.8159895725
 40
0.8477989354
 40
0.8792072543
 40
1.0
 40
1.0
 40
1.0
 40
1.0
 10
14.5683305563
 20
8.0463032329
 30
0.0
 10
14.56761367
 20
8.0468919578
 30
0.0
 10
14.5662032375
 20
8.0481278351
 30
0.0
 10
14.5641850137
 20
8.0501268021
 30
0.0
 10
14.5622494669
 20
8.0522826405
 30
0.0
 10
14.5604026675
 20
8.0545883628
 30
0.0
 10
14.5586506727
 20
8.0570370226
 30
0.0
 10
14.5564291448
 20
8.060511072
 30
0.0
 10
14.5539260922
 20
8.065172037
 30
0.0
 10
14.5518403373
 20
8.0701213755
 30
0.0
 10
14.5504090531
 20
8.0742648756
 30
0.0
 10
14.549453952
 20
8.0774745323
 30
0.0
 10
14.5486279711
 20
8.0807548816
 30
0.0
 10
14.5476987386
 20
8.0852232709
 30
0.0
 10
14.5468763777
 20
8.0909224476
 30
0.0
 10
14.5465109977
 20
8.096692189
 30
0.0
 10
14.5464936389
 20
8.1013306723
 30
0.0
 10
14.5466186199
 20
8.1048081571
 30
0.0
 10
14.5468816216
 20
8.1082702719
 30
0.0
 10
14.5474129491
 20
8.1128371662
 30
0.0
 10
14.5482152645
 20
8.117341302
 30
0.0
 10
14.5492877568
 20
8.1217480171
 30
0.0
 10
14.5502186145
 20
8.1249717473
 30
0.0
 10
14.5512760787
 20
8.1281170203
 30
0.0
 10
14.5535809503
 20
8.1340850738
 30
0.0
 10
14.5560418708
 20
8.1388224867
 30
0.0
 10
14.5583625952
 20
8.1423233183
 30
0.0
  0
SPLINE
  5
42E
100
AcDbEntity
  8
0
100
AcDbSpline
 62
7
  6
CONTINUOUS
 70
0
 71
3
 72
22
 73
18
 74
0
 42
0.0000001
 43
0.0000001
 44
0.0000000001
 40
0.0
 40
0.0
 40
0.0
 40
0.0
 40
0.0703524949
 40
0.1395022931
 40
0.2074402039
 40
0.2741690188
 40
0.4040196195
 40
0.467267576
 40
0.52945146
 40
0.5906434242
 40
0.6509277249
 40
0.7104019583
 40
0.7691842881
 40
0.827405397
 40
0.8852010559
 40
0.942693064
 40
1.0
 40
1.0
 40
1.0
 40
1.0
 10
14.5583625952
 20
8.1423233183
 30
0.0
 10
14.5588690263
 20
8.1430872738
 30
0.0
 10
14.5599087827
 20
8.1445789555
 30
0.0
 10
14.561561202
 20
8.1467188262
 30
0.0
 10
14.5632890493
 20
8.148736847
 30
0.0
 10
14.5656647978
 20
8.1512347654
 30
0.0
 10
14.5681943841
 20
8.1534971316
 30
0.0
 10
14.5708602062
 20
8.1554884695
 30
0.0
 10
14.5728938248
 20
8.1568240634
 30
0.0
 10
14.5749732269
 20
8.1580110773
 30
0.0
 10
14.5770929787
 20
8.1590465711
 30
0.0
 10
14.5792477219
 20
8.1599273946
 30
0.0
 10
14.5814318492
 20
8.1606514198
 30
0.0
 10
14.5836398164
 20
8.1612167462
 30
0.0
 10
14.5858657977
 20
8.1616213526
 30
0.0
 10
14.5881030471
 20
8.161864648
 30
0.0
 10
14.5895992331
 20
8.1619189453
 30
0.0
 10
14.5903458423
 20
8.1619189453
 30
0.0
  0
SPLINE
  5
42F
100
AcDbEntity
  8
0
100
AcDbSpline
 62
7
  6
CONTINUOUS
 70
0
 71
3
 72
11
 73
7
 74
0
 42
0.0000001
 43
0.0000001
 44
0.0000000001
 40
0.0
 40
0.0
 40
0.0
 40
0.0
 40
0.253084845
 40
0.5036003926
 40
0.7523317581
 40
1.0
 40
1.0
 40
1.0
 40
1.0
 10
14.6008746494
 20
8.0397335005
 30
0.0
 10
14.6000201006
 20
8.0394345142
 30
0.0
 10
14.5982948373
 20
8.0389077924
 30
0.0
 10
14.5956614191
 20
8.0383380893
 30
0.0
 10
14.5930084618
 20
8.0379954861
 30
0.0
 10
14.5912318091
 20
8.0379189453
 30
0.0
 10
14.5903458423
 20
8.0379189453
 30
0.0
  0
SPLINE
  5
430
100
AcDbEntity
  8
0
100
AcDbSpline
 62
7
  6
CONTINUOUS
 70
0
 71
3
 72
12
 73
8
 74
0
 42
0.0000001
 43
0.0000001
 44
0.0000000001
 40
0.0
 40
0.0
 40
0.0
 40
0.0
 40
0.1301683358
 40
0.259098864
 40
0.5124674862
 40
0.7594745031
 40
1.0
 40
1.0
 40
1.0
 40
1.0
 10
14.5578008225
 20
8.1426315326
 30
0.0
 10
14.5584193309
 20
8.1437217823
 30
0.0
 10
14.559700567
 20
8.1458640316
 30
0.0
 10
14.5624294349
 20
8.1499773545
 30
0.0
 10
14.5661373415
 20
8.1547840413
 30
0.0
 10
14.5710449306
 20
8.159978471
 30
0.0
 10
14.5746162196
 20
8.1630424349
 30
0.0
 10
14.5764551774
 20
8.1644505876
 30
0.0
  0
SPLINE
  5
431
100
AcDbEntity
  8
0
100
AcDbSpline
 62
7
  6
CONTINUOUS
 70
0
 71
3
 72
26
 73
22
 74
0
 42
0.0000001
 43
0.0000001
 44
0.0000000001
 40
0.0
 40
0.0
 40
0.0
 40
0.0
 40
0.0270635144
 40
0.0547295194
 40
0.1117637289
 40
0.1709689232
 40
0.2013359802
 40
0.2321645945
 40
0.2634187617
 40
0.2950598116
 40
0.3593243492
 40
0.424621795
 40
0.4905828704
 40
0.5568307878
 40
0.6229896666
 40
0.6886988484
 40
0.7536208885
 40
0.8174490265
 40
0.8799193781
 40
0.9408204111
 40
1.0
 40
1.0
 40
1.0
 40
1.0
 10
15.0355387749
 20
8.1490560263
 30
0.0
 10
15.0361723018
 20
8.1483044791
 30
0.0
 10
15.03740939
 20
8.14674693
 30
0.0
 10
15.0397566167
 20
8.1434331448
 30
0.0
 10
15.0424329627
 20
8.1389323165
 30
0.0
 10
15.0447011172
 20
8.1341059198
 30
0.0
 10
15.0462911635
 20
8.1300310584
 30
0.0
 10
15.0473738278
 20
8.1268514614
 30
0.0
 10
15.0483327487
 20
8.1235842053
 30
0.0
 10
15.0494487186
 20
8.119101498
 30
0.0
 10
15.0505145227
 20
8.1133375396
 30
0.0
 10
15.0512586094
 20
8.1062684262
 30
0.0
 10
15.0514659178
 20
8.099091151
 30
0.0
 10
15.0511338627
 20
8.0918874026
 30
0.0
 10
15.0502661383
 20
8.0847375698
 30
0.0
 10
15.048872161
 20
8.0777204192
 30
0.0
 10
15.0469668894
 20
8.0709120986
 30
0.0
 10
15.0445704656
 20
8.0643855817
 30
0.0
 10
15.0417080408
 20
8.0582094679
 30
0.0
 10
15.0384097662
 20
8.0524484817
 30
0.0
 10
15.0359042751
 20
8.0488694118
 30
0.0
 10
15.0345871675
 20
8.0471708432
 30
0.0
  0
SPLINE
  5
432
100
AcDbEntity
  8
0
100
AcDbSpline
 62
7
  6
CONTINUOUS
 70
0
 71
3
 72
11
 73
7
 74
0
 42
0.0000001
 43
0.0000001
 44
0.0000000001
 40
0.0
 40
0.0
 40
0.0
 40
0.0
 40
0.2639178691
 40
0.5180450849
 40
0.7630030472
 40
1.0
 40
1.0
 40
1.0
 40
1.0
 10
15.0355387749
 20
8.1490560263
 30
0.0
 10
15.0343181095
 20
8.1505562985
 30
0.0
 10
15.0317653387
 20
8.1533785507
 30
0.0
 10
15.027555628
 20
8.1570784704
 30
0.0
 10
15.0230845761
 20
8.1601216064
 30
0.0
 10
15.0199155254
 20
8.1617107134
 30
0.0
 10
15.0183112796
 20
8.1623762895
 30
0.0
  0
SPLINE
  5
433
100
AcDbEntity
  8
0
100
AcDbSpline
 62
7
  6
CONTINUOUS
 70
0
 71
3
 72
24
 73
20
 74
0
 42
0.0000001
 43
0.0000001
 44
0.0000000001
 40
0.0
 40
0.0
 40
0.0
 40
0.0
 40
0.0528887707
 40
0.1061704708
 40
0.1601514114
 40
0.1875173101
 40
0.2151773419
 40
0.271485154
 40
0.3293084301
 40
0.3888062321
 40
0.4500826326
 40
0.5131826991
 40
0.5781009455
 40
0.6447815065
 40
0.7131280023
 40
0.7830041097
 40
0.8542423477
 40
0.9266470073
 40
1.0
 40
1.0
 40
1.0
 40
1.0
 10
15.0075388432
 20
8.1619189453
 30
0.0
 10
15.0087605017
 20
8.1619189453
 30
0.0
 10
15.0112153363
 20
8.1617730159
 30
0.0
 10
15.0148646256
 20
8.1611209184
 30
0.0
 10
15.0178494556
 20
8.1602226888
 30
0.0
 10
15.0201929329
 20
8.1592989842
 30
0.0
 10
15.0225314278
 20
8.1582262768
 30
0.0
 10
15.0253946339
 20
8.1566227005
 30
0.0
 10
15.0286821554
 20
8.154314477
 30
0.0
 10
15.0318204067
 20
8.1516275212
 30
0.0
 10
15.0347873321
 20
8.1485807596
 30
0.0
 10
15.0375633136
 20
8.1451960876
 30
0.0
 10
15.0401288124
 20
8.1414967579
 30
0.0
 10
15.0424668867
 20
8.1375089406
 30
0.0
 10
15.0445611064
 20
8.1332600994
 30
0.0
 10
15.0463974084
 20
8.1287798975
 30
0.0
 10
15.0479631186
 20
8.1240993199
 30
0.0
 10
15.0492473055
 20
8.1192510492
 30
0.0
 10
15.0499065597
 20
8.1159468849
 30
0.0
 10
15.0501878089
 20
8.1142760363
 30
0.0
  0
SPLINE
  5
434
100
AcDbEntity
  8
0
100
AcDbSpline
 62
7
  6
CONTINUOUS
 70
0
 71
3
 72
25
 73
21
 74
0
 42
0.0000001
 43
0.0000001
 44
0.0000000001
 40
0.0
 40
0.0
 40
0.0
 40
0.0
 40
0.0733498266
 40
0.1457650709
 40
0.2170239282
 40
0.2869272871
 40
0.3553039639
 40
0.4220144458
 40
0.4869592086
 40
0.5187558079
 40
0.5500934252
 40
0.6113821344
 40
0.6708823152
 40
0.728697086
 40
0.7849853129
 40
0.8126316782
 40
0.8399814385
 40
0.8939234712
 40
0.9471598936
 40
1.0
 40
1.0
 40
1.0
 40
1.0
 10
15.0502563073
 20
8.0859750758
 30
0.0
 10
15.0499817353
 20
8.0842927968
 30
0.0
 10
15.0493345881
 20
8.0809652637
 30
0.0
 10
15.0480652648
 20
8.076081008
 30
0.0
 10
15.0465107645
 20
8.0713637688
 30
0.0
 10
15.0446821854
 20
8.0668467988
 30
0.0
 10
15.0425921284
 20
8.0625616533
 30
0.0
 10
15.0402549991
 20
8.0585386733
 30
0.0
 10
15.0380998638
 20
8.055405688
 30
0.0
 10
15.0362661734
 20
8.0530602986
 30
0.0
 10
15.0343917438
 20
8.0508578684
 30
0.0
 10
15.0319305784
 20
8.0483132756
 30
0.0
 10
15.0287816927
 20
8.0456001971
 30
0.0
 10
15.0254812111
 20
8.0432690531
 30
0.0
 10
15.0226053765
 20
8.0416492804
 30
0.0
 10
15.0202560044
 20
8.0405656681
 30
0.0
 10
15.0179015289
 20
8.0396326221
 30
0.0
 10
15.0149021254
 20
8.0387252135
 30
0.0
 10
15.0112343035
 20
8.0380663858
 30
0.0
 10
15.0087667671
 20
8.0379189453
 30
0.0
 10
15.0075388432
 20
8.0379189453
 30
0.0
  0
LINE
  5
435
100
AcDbEntity
  8
0
100
AcDbLine
 62
7
  6
CONTINUOUS
 10
6.6775723026
 20
9.1347362464
 11
6.6781684259
 21
9.1348985209
  0
LINE
  5
436
100
AcDbEntity
  8
0
100
AcDbLine
 62
7
  6
CONTINUOUS
 10
6.6781684259
 20
9.1348985209
 11
6.6799835414
 21
9.1351342312
  0
LINE
  5
437
100
AcDbEntity
  8
0
100
AcDbLine
 62
7
  6
CONTINUOUS
 10
6.6799835414
 20
9.1351342312
 11
6.6801484035
 21
9.1351524285
  0
SPLINE
  5
438
100
AcDbEntity
  8
0
100
AcDbSpline
 62
7
  6
CONTINUOUS
 70
0
 71
3
 72
19
 73
15
 74
0
 42
0.0000001
 43
0.0000001
 44
0.0000000001
 40
0.0
 40
0.0
 40
0.0
 40
0.0
 40
0.2115126749
 40
0.3997529238
 40
0.562759372
 40
0.6993194381
 40
0.7575860781
 40
0.8091835293
 40
0.8542118453
 40
0.8929304754
 40
0.9257990517
 40
0.9536004891
 40
0.9776551344
 40
1.0
 40
1.0
 40
1.0
 40
1.0
 10
6.6502391823
 20
9.1194012081
 30
0.0
 10
6.6507680572
 20
9.1193825349
 30
0.0
 10
6.6517672269
 20
9.1193338472
 30
0.0
 10
6.653170792
 20
9.1192173632
 30
0.0
 10
6.6543818805
 20
9.1190627968
 30
0.0
 10
6.6552626085
 20
9.1188966518
 30
0.0
 10
6.6558593023
 20
9.1187404375
 30
0.0
 10
6.6562282924
 20
9.1186211162
 30
0.0
 10
6.6565424075
 20
9.1184935866
 30
0.0
 10
6.6568014642
 20
9.1183580539
 30
0.0
 10
6.6570056261
 20
9.1182144202
 30
0.0
 10
6.6571549837
 20
9.118061663
 30
0.0
 10
6.6572479036
 20
9.1178978296
 30
0.0
 10
6.6572686761
 20
9.1177807866
 30
0.0
 10
6.6572686792
 20
9.1177248798
 30
0.0
  0
LINE
  5
439
100
AcDbEntity
  8
0
100
AcDbLine
 62
7
  6
CONTINUOUS
 10
6.6546925594
 20
9.1158895749
 11
6.6572101813
 21
9.1157431513
  0
LINE
  5
43A
100
AcDbEntity
  8
0
100
AcDbLine
 62
7
  6
CONTINUOUS
 10
6.7230990344
 20
9.1256047515
 11
6.7232819172
 21
9.1256370948
  0
LINE
  5
43B
100
AcDbEntity
  8
0
100
AcDbLine
 62
7
  6
CONTINUOUS
 10
6.6724836487
 20
9.129096731
 11
6.6726485017
 21
9.1291243955
  0
SPLINE
  5
43C
100
AcDbEntity
  8
0
100
AcDbSpline
 62
7
  6
CONTINUOUS
 70
0
 71
3
 72
13
 73
9
 74
0
 42
0.0000001
 43
0.0000001
 44
0.0000000001
 40
0.0
 40
0.0
 40
0.0
 40
0.0
 40
0.107395859
 40
0.2298039948
 40
0.5001823628
 40
0.770637677
 40
0.892961315
 40
1.0
 40
1.0
 40
1.0
 40
1.0
 10
6.6854517044
 20
9.1311637479
 30
0.0
 10
6.6857530436
 20
9.1312092127
 30
0.0
 10
6.6863994133
 20
9.131296126
 30
0.0
 10
6.6878098822
 20
9.1314551234
 30
0.0
 10
6.6896854309
 20
9.1316153106
 30
0.0
 10
6.691564576
 20
9.1317214992
 30
0.0
 10
6.6929823424
 20
9.1317628205
 30
0.0
 10
6.6936332623
 20
9.1317676145
 30
0.0
 10
6.6939369857
 20
9.1317648299
 30
0.0
  0
SPLINE
  5
43D
100
AcDbEntity
  8
0
100
AcDbSpline
 62
7
  6
CONTINUOUS
 70
0
 71
3
 72
19
 73
15
 74
0
 42
0.0000001
 43
0.0000001
 44
0.0000000001
 40
0.0
 40
0.0
 40
0.0
 40
0.0
 40
0.216670254
 40
0.4094120211
 40
0.576082903
 40
0.7152093318
 40
0.7742083209
 40
0.8260729207
 40
0.8707967015
 40
0.9084916252
 40
0.9394077321
 40
0.9640551869
 40
0.9835126972
 40
1.0
 40
1.0
 40
1.0
 40
1.0
 10
6.7138787926
 20
9.1313241271
 30
0.0
 10
6.7144065872
 20
9.1313056362
 30
0.0
 10
6.7154036002
 20
9.1312613061
 30
0.0
 10
6.7168046576
 20
9.1311652751
 30
0.0
 10
6.718013993
 20
9.1310444246
 30
0.0
 10
6.7188947298
 20
9.1309187789
 30
0.0
 10
6.7194930228
 20
9.130802629
 30
0.0
 10
6.7198621391
 20
9.1307150287
 30
0.0
 10
6.7201762667
 20
9.1306223292
 30
0.0
 10
6.7204350769
 20
9.1305248339
 30
0.0
 10
6.7206388633
 20
9.1304227134
 30
0.0
 10
6.720788191
 20
9.1303153996
 30
0.0
 10
6.7208845413
 20
9.1301999121
 30
0.0
 10
6.7209082883
 20
9.1301115567
 30
0.0
 10
6.7209082894
 20
9.1300713701
 30
0.0
  0
LINE
  5
43E
100
AcDbEntity
  8
0
100
AcDbLine
 62
7
  6
CONTINUOUS
 10
6.7183321697
 20
9.1288045709
 11
6.7208837146
 21
9.1286573633
  0
LINE
  5
43F
100
AcDbEntity
  8
0
100
AcDbLine
 62
7
  6
CONTINUOUS
 10
6.7701862374
 20
9.1324794856
 11
6.7712064335
 21
9.1325962911
  0
LINE
  5
440
100
AcDbEntity
  8
0
100
AcDbLine
 62
7
  6
CONTINUOUS
 10
6.7423738002
 20
9.1378539508
 11
6.7459660421
 21
9.1378513922
  0
LINE
  5
441
100
AcDbEntity
  8
0
100
AcDbLine
 62
7
  6
CONTINUOUS
 10
6.766284759
 20
9.1377727498
 11
6.7680042231
 21
9.1377633481
  0
LINE
  5
442
100
AcDbEntity
  8
0
100
AcDbLine
 62
7
  6
CONTINUOUS
 10
6.7680042231
 20
9.1377633481
 11
6.8480889817
 21
9.1376024165
  0
LINE
  5
443
100
AcDbEntity
  8
0
100
AcDbLine
 62
7
  6
CONTINUOUS
 10
6.8480889817
 20
9.1376024165
 11
6.8488287704
 21
9.1376031696
  0
LINE
  5
444
100
AcDbEntity
  8
0
100
AcDbLine
 62
7
  6
CONTINUOUS
 10
6.8488287704
 20
9.1376031696
 11
6.8516887398
 21
9.1376062615
  0
LINE
  5
445
100
AcDbEntity
  8
0
100
AcDbLine
 62
7
  6
CONTINUOUS
 10
6.8516887398
 20
9.1376062615
 11
6.8811906382
 21
9.1377202693
  0
SPLINE
  5
446
100
AcDbEntity
  8
0
100
AcDbSpline
 62
7
  6
CONTINUOUS
 70
0
 71
3
 72
9
 73
5
 74
0
 42
0.0000001
 43
0.0000001
 44
0.0000000001
 40
0.0
 40
0.0
 40
0.0
 40
0.0
 40
0.7024392414
 40
1.0
 40
1.0
 40
1.0
 40
1.0
 10
6.8811906382
 20
9.1377202693
 30
0.0
 10
6.8811931752
 20
9.1377207963
 30
0.0
 10
6.8811962298
 20
9.1377214582
 30
0.0
 10
6.8812006137
 20
9.1377234246
 30
0.0
 10
6.8812006146
 20
9.1377245222
 30
0.0
  0
LINE
  5
447
100
AcDbEntity
  8
0
100
AcDbLine
 62
7
  6
CONTINUOUS
 10
6.6143897589
 20
9.1257142824
 11
6.614793828
 21
9.1260388985
  0
LINE
  5
448
100
AcDbEntity
  8
0
100
AcDbLine
 62
7
  6
CONTINUOUS
 10
6.614793828
 20
9.1260388985
 11
6.6161355516
 21
9.1264752248
  0
LINE
  5
449
100
AcDbEntity
  8
0
100
AcDbLine
 62
7
  6
CONTINUOUS
 10
6.6568242871
 20
9.126064471
 11
6.6572691976
 21
9.1263255263
  0
LINE
  5
44A
100
AcDbEntity
  8
0
100
AcDbLine
 62
7
  6
CONTINUOUS
 10
6.6572691976
 20
9.1263255263
 11
6.6580914625
 21
9.1265370917
  0
LINE
  5
44B
100
AcDbEntity
  8
0
100
AcDbLine
 62
7
  6
CONTINUOUS
 10
6.8488013109
 20
9.1391171776
 11
6.8513673127
 21
9.1389960059
  0
LINE
  5
44C
100
AcDbEntity
  8
0
100
AcDbLine
 62
7
  6
CONTINUOUS
 10
6.8513673127
 20
9.1389960059
 11
6.8516215276
 21
9.1389485339
  0
LINE
  5
44D
100
AcDbEntity
  8
0
100
AcDbLine
 62
7
  6
CONTINUOUS
 10
6.7452329405
 20
9.1389862401
 11
6.7438353297
 21
9.1388905751
  0
SPLINE
  5
44E
100
AcDbEntity
  8
0
100
AcDbSpline
 62
7
  6
CONTINUOUS
 70
0
 71
3
 72
9
 73
5
 74
0
 42
0.0000001
 43
0.0000001
 44
0.0000000001
 40
0.0
 40
0.0
 40
0.0
 40
0.0
 40
0.3657902936
 40
1.0
 40
1.0
 40
1.0
 40
1.0
 10
6.7438353297
 20
9.1388905751
 30
0.0
 10
6.7438340307
 20
9.138890032
 30
0.0
 10
6.743830751
 20
9.1388885057
 30
0.0
 10
6.7438266107
 20
9.1388858105
 30
0.0
 10
6.7438265574
 20
9.13888337
 30
0.0
  0
LINE
  5
44F
100
AcDbEntity
  8
0
100
AcDbLine
 62
7
  6
CONTINUOUS
 10
6.8533895649
 20
9.1380060153
 11
6.8520663791
 21
9.1380056567
  0
LINE
  5
450
100
AcDbEntity
  8
0
100
AcDbLine
 62
7
  6
CONTINUOUS
 10
6.6158016864
 20
9.1277210873
 11
6.616419756
 21
9.1277685625
  0
SPLINE
  5
451
100
AcDbEntity
  8
0
100
AcDbSpline
 62
7
  6
CONTINUOUS
 70
0
 71
3
 72
12
 73
8
 74
0
 42
0.0000001
 43
0.0000001
 44
0.0000000001
 40
0.0
 40
0.0
 40
0.0
 40
0.0
 40
0.2594897523
 40
0.5285650606
 40
0.7831394795
 40
0.8976635596
 40
1.0
 40
1.0
 40
1.0
 40
1.0
 10
6.6285296085
 20
9.1285983292
 30
0.0
 10
6.6308404956
 20
9.1289062938
 30
0.0
 10
6.6355550519
 20
9.1294785874
 30
0.0
 10
6.6425546559
 20
9.1301956601
 30
0.0
 10
6.6482689191
 20
9.1306712758
 30
0.0
 10
6.6524956527
 20
9.1309448822
 30
0.0
 10
6.6544416518
 20
9.131042379
 30
0.0
 10
6.6553603338
 20
9.1310790807
 30
0.0
  0
LINE
  5
452
100
AcDbEntity
  8
0
100
AcDbLine
 62
7
  6
CONTINUOUS
 10
6.6723308966
 20
9.1315701937
 11
6.6740879784
 21
9.1314353695
  0
SPLINE
  5
453
100
AcDbEntity
  8
0
100
AcDbSpline
 62
7
  6
CONTINUOUS
 70
0
 71
3
 72
14
 73
10
 74
0
 42
0.0000001
 43
0.0000001
 44
0.0000000001
 40
0.0
 40
0.0
 40
0.0
 40
0.0
 40
0.1251454316
 40
0.2566883726
 40
0.5258517008
 40
0.6571902064
 40
0.7820313085
 40
0.8973217219
 40
1.0
 40
1.0
 40
1.0
 40
1.0
 10
6.5648899982
 20
9.1156815882
 30
0.0
 10
6.5660370619
 20
9.1159108614
 30
0.0
 10
6.5683947204
 20
9.1163569054
 30
0.0
 10
6.5732396101
 20
9.1171862722
 30
0.0
 10
6.5781615032
 20
9.1179056132
 30
0.0
 10
6.5830365584
 20
9.1184956617
 30
0.0
 10
6.5864907913
 20
9.1188505815
 30
0.0
 10
6.5896845471
 20
9.1191129276
 30
0.0
 10
6.5917189144
 20
9.1192299087
 30
0.0
 10
6.592677899
 20
9.1192682029
 30
0.0
  0
LINE
  5
454
100
AcDbEntity
  8
0
100
AcDbLine
 62
7
  6
CONTINUOUS
 10
6.8533878194
 20
9.1379622196
 11
6.8515855503
 21
9.1380245287
  0
LINE
  5
455
100
AcDbEntity
  8
0
100
AcDbLine
 62
7
  6
CONTINUOUS
 10
6.714389478
 20
9.1376120414
 11
6.717224519
 21
9.1376808874
  0
LINE
  5
456
100
AcDbEntity
  8
0
100
AcDbLine
 62
7
  6
CONTINUOUS
 10
6.717224519
 20
9.1376808874
 11
6.7423737818
 21
9.1378539494
  0
LINE
  5
457
100
AcDbEntity
  8
0
100
AcDbLine
 62
7
  6
CONTINUOUS
 10
6.6801324018
 20
9.1353607387
 11
6.6775397989
 21
9.1351593254
  0
LINE
  5
458
100
AcDbEntity
  8
0
100
AcDbLine
 62
7
  6
CONTINUOUS
 10
6.8779301305
 20
9.137831378
 11
6.8533895649
 21
9.1380060153
  0
SPLINE
  5
459
100
AcDbEntity
  8
0
100
AcDbSpline
 62
7
  6
CONTINUOUS
 70
0
 71
3
 72
12
 73
8
 74
0
 42
0.0000001
 43
0.0000001
 44
0.0000000001
 40
0.0
 40
0.0
 40
0.0
 40
0.0
 40
0.0231518232
 40
0.0726188624
 40
0.2607029514
 40
0.5698173614
 40
1.0
 40
1.0
 40
1.0
 40
1.0
 10
6.8812006146
 20
9.1377245222
 30
0.0
 10
6.8812006152
 20
9.1377252988
 30
0.0
 10
6.8811981341
 20
9.1377269686
 30
0.0
 10
6.8811902672
 20
9.1377292985
 30
0.0
 10
6.8811716297
 20
9.1377325334
 30
0.0
 10
6.8811410353
 20
9.137735948
 30
0.0
 10
6.8811162239
 20
9.1377381252
 30
0.0
 10
6.88110184
 20
9.1377392711
 30
0.0
  0
SPLINE
  5
45A
100
AcDbEntity
  8
0
100
AcDbSpline
 62
7
  6
CONTINUOUS
 70
0
 71
3
 72
23
 73
19
 74
0
 42
0.0000001
 43
0.0000001
 44
0.0000000001
 40
0.0
 40
0.0
 40
0.0
 40
0.0
 40
0.2242369853
 40
0.4236084296
 40
0.5957226301
 40
0.6709028838
 40
0.7386240767
 40
0.798752599
 40
0.8511562971
 40
0.8957062479
 40
0.9323099929
 40
0.9609292665
 40
0.9722410881
 40
0.9815581295
 40
0.9888940323
 40
0.9942855221
 40
0.9978424671
 40
1.0
 40
1.0
 40
1.0
 40
1.0
 10
6.6846017806
 20
9.1347808019
 30
0.0
 10
6.6840754004
 20
9.1347599266
 30
0.0
 10
6.6830809188
 20
9.13472272
 30
0.0
 10
6.6816820996
 20
9.1346783499
 30
0.0
 10
6.6806330597
 20
9.1346526181
 30
0.0
 10
6.6798931002
 20
9.1346403238
 30
0.0
 10
6.6794161494
 20
9.1346353701
 30
0.0
 10
6.6789926809
 20
9.1346342321
 30
0.0
 10
6.6786236549
 20
9.134636895
 30
0.0
 10
6.6783099421
 20
9.1346433033
 30
0.0
 10
6.678052241
 20
9.1346534246
 30
0.0
 10
6.6778727896
 20
9.134665445
 30
0.0
 10
6.6777577244
 20
9.1346777035
 30
0.0
 10
6.6776926881
 20
9.1346871277
 30
0.0
 10
6.6776418287
 20
9.1346970556
 30
0.0
 10
6.6776051271
 20
9.1347083571
 30
0.0
 10
6.6775813317
 20
9.134718925
 30
0.0
 10
6.6775723153
 20
9.1347311778
 30
0.0
 10
6.6775723026
 20
9.1347362464
 30
0.0
  0
LINE
  5
45B
100
AcDbEntity
  8
0
100
AcDbLine
 62
7
  6
CONTINUOUS
 10
6.6163189608
 20
9.127804122
 11
6.6158016864
 21
9.1277210873
  0
SPLINE
  5
45C
100
AcDbEntity
  8
0
100
AcDbSpline
 62
7
  6
CONTINUOUS
 70
0
 71
3
 72
15
 73
11
 74
0
 42
0.0000001
 43
0.0000001
 44
0.0000000001
 40
0.0
 40
0.0
 40
0.0
 40
0.0
 40
0.0495421336
 40
0.1115011067
 40
0.1945810338
 40
0.3023396627
 40
0.4362620684
 40
0.5970124027
 40
0.7848875241
 40
1.0
 40
1.0
 40
1.0
 40
1.0
 10
6.6143897528
 20
9.1247049907
 30
0.0
 10
6.6143897435
 20
9.1246851562
 30
0.0
 10
6.6144051296
 20
9.1246402313
 30
0.0
 10
6.6144641047
 20
9.1245867829
 30
0.0
 10
6.6145536061
 20
9.1245387307
 30
0.0
 10
6.6146762401
 20
9.1244945141
 30
0.0
 10
6.6148322627
 20
9.124453861
 30
0.0
 10
6.6150219904
 20
9.124416925
 30
0.0
 10
6.6152452978
 20
9.1243838232
 30
0.0
 10
6.6154056362
 20
9.1243656241
 30
0.0
 10
6.6154913235
 20
9.1243569844
 30
0.0
  0
LINE
  5
45D
100
AcDbEntity
  8
0
100
AcDbLine
 62
7
  6
CONTINUOUS
 10
6.6154913235
 20
9.1243569844
 11
6.6214192083
 21
9.1243462925
  0
SPLINE
  5
45E
100
AcDbEntity
  8
0
100
AcDbSpline
 62
7
  6
CONTINUOUS
 70
0
 71
3
 72
13
 73
9
 74
0
 42
0.0000001
 43
0.0000001
 44
0.0000000001
 40
0.0
 40
0.0
 40
0.0
 40
0.0
 40
0.1074518794
 40
0.2299839001
 40
0.5002963694
 40
0.7706900606
 40
0.8930831663
 40
1.0
 40
1.0
 40
1.0
 40
1.0
 10
6.6468750525
 20
9.1267116387
 30
0.0
 10
6.6465744386
 20
9.126655921
 30
0.0
 10
6.6459290253
 20
9.1265474221
 30
0.0
 10
6.6445203126
 20
9.1263422737
 30
0.0
 10
6.6426456117
 20
9.1261229428
 30
0.0
 10
6.6407655799
 20
9.1259597258
 30
0.0
 10
6.6393460821
 20
9.1258773199
 30
0.0
 10
6.6386939332
 20
9.1258541957
 30
0.0
 10
6.6383897711
 20
9.1258487214
 30
0.0
  0
SPLINE
  5
45F
100
AcDbEntity
  8
0
100
AcDbSpline
 62
7
  6
CONTINUOUS
 70
0
 71
3
 72
22
 73
18
 74
0
 42
0.0000001
 43
0.0000001
 44
0.0000000001
 40
0.0
 40
0.0
 40
0.0
 40
0.0
 40
0.2216608408
 40
0.4186274891
 40
0.5885727244
 40
0.6628574141
 40
0.7298298976
 40
0.7893629645
 40
0.8413402857
 40
0.8856848315
 40
0.9224065205
 40
0.9515912145
 40
0.9734849721
 40
0.9819048067
 40
0.9888600001
 40
0.994699207
 40
1.0
 40
1.0
 40
1.0
 40
1.0
 10
6.6214192083
 20
9.1253557793
 30
0.0
 10
6.6208925861
 20
9.1253346621
 30
0.0
 10
6.6198977512
 20
9.125300697
 30
0.0
 10
6.6184984863
 20
9.125274386
 30
0.0
 10
6.6174493322
 20
9.1252753825
 30
0.0
 10
6.6167095458
 20
9.1252921983
 30
0.0
 10
6.6162324738
 20
9.1253112075
 30
0.0
 10
6.6158088453
 20
9.1253370674
 30
0.0
 10
6.6154396356
 20
9.1253696698
 30
0.0
 10
6.6151256743
 20
9.1254089103
 30
0.0
 10
6.6148672805
 20
9.1254544295
 30
0.0
 10
6.6146648938
 20
9.125506033
 30
0.0
 10
6.6145319892
 20
9.1255571178
 30
0.0
 10
6.6144564719
 20
9.1256040638
 30
0.0
 10
6.6144187797
 20
9.1256381603
 30
0.0
 10
6.6143951283
 20
9.125674942
 30
0.0
 10
6.614389752
 20
9.1257016787
 30
0.0
 10
6.6143897589
 20
9.1257142824
 30
0.0
  0
LINE
  5
460
100
AcDbEntity
  8
0
100
AcDbLine
 62
7
  6
CONTINUOUS
 10
6.6158771554
 20
9.1265318832
 11
6.6142803331
 21
9.1264319588
  0
SPLINE
  5
461
100
AcDbEntity
  8
0
100
AcDbSpline
 62
7
  6
CONTINUOUS
 70
0
 71
3
 72
17
 73
13
 74
0
 42
0.0000001
 43
0.0000001
 44
0.0000000001
 40
0.0
 40
0.0
 40
0.0
 40
0.0
 40
0.0244653035
 40
0.0512176707
 40
0.0816715114
 40
0.1167878187
 40
0.2031889078
 40
0.3133367985
 40
0.4481844251
 40
0.6077819499
 40
0.7918617747
 40
1.0
 40
1.0
 40
1.0
 40
1.0
 10
6.7209082894
 20
9.1300713701
 30
0.0
 10
6.72090829
 20
9.1300472019
 30
0.0
 10
6.7209005967
 20
9.1299963994
 30
0.0
 10
6.7208679515
 20
9.1299218749
 30
0.0
 10
6.7208149812
 20
9.129847047
 30
0.0
 10
6.7207101966
 20
9.1297389461
 30
0.0
 10
6.7205231847
 20
9.1296045643
 30
0.0
 10
6.7202347037
 20
9.1294490619
 30
0.0
 10
6.7198677073
 20
9.1292897785
 30
0.0
 10
6.7194236222
 20
9.1291272854
 30
0.0
 10
6.7189039155
 20
9.128962357
 30
0.0
 10
6.7185308195
 20
9.128857617
 30
0.0
 10
6.7183321697
 20
9.1288045709
 30
0.0
  0
LINE
  5
462
100
AcDbEntity
  8
0
100
AcDbLine
 62
7
  6
CONTINUOUS
 10
6.7460501595
 20
9.1380160458
 11
6.7462757607
 21
9.1380236005
  0
LINE
  5
463
100
AcDbEntity
  8
0
100
AcDbLine
 62
7
  6
CONTINUOUS
 10
6.7485470749
 20
9.1380879241
 11
6.7680417764
 21
9.1383026639
  0
LINE
  5
464
100
AcDbEntity
  8
0
100
AcDbLine
 62
7
  6
CONTINUOUS
 10
6.6568242871
 20
9.1250554444
 11
6.6572834953
 21
9.1248708927
  0
LINE
  5
465
100
AcDbEntity
  8
0
100
AcDbLine
 62
7
  6
CONTINUOUS
 10
6.6572834953
 20
9.1248708927
 11
6.6585816467
 21
9.1247960643
  0
SPLINE
  5
466
100
AcDbEntity
  8
0
100
AcDbSpline
 62
7
  6
CONTINUOUS
 70
0
 71
3
 72
14
 73
10
 74
0
 42
0.0000001
 43
0.0000001
 44
0.0000000001
 40
0.0
 40
0.0
 40
0.0
 40
0.0
 40
0.1250281133
 40
0.2565863617
 40
0.5259461923
 40
0.6572984707
 40
0.7820891949
 40
0.8973192449
 40
1.0
 40
1.0
 40
1.0
 40
1.0
 10
6.7063113544
 20
9.1267770062
 30
0.0
 10
6.7051589864
 20
9.1266398792
 30
0.0
 10
6.7027911626
 20
9.1263824294
 30
0.0
 10
6.6979294848
 20
9.1259382597
 30
0.0
 10
6.692999092
 20
9.1256069564
 30
0.0
 10
6.6881257717
 20
9.1253973091
 30
0.0
 10
6.6846796199
 20
9.1253096209
 30
0.0
 10
6.6814985377
 20
9.1252922169
 30
0.0
 10
6.6794759369
 20
9.1253293439
 30
0.0
 10
6.6785234536
 20
9.1253628431
 30
0.0
  0
SPLINE
  5
467
100
AcDbEntity
  8
0
100
AcDbSpline
 62
7
  6
CONTINUOUS
 70
0
 71
3
 72
15
 73
11
 74
0
 42
0.0000001
 43
0.0000001
 44
0.0000000001
 40
0.0
 40
0.0
 40
0.0
 40
0.0
 40
0.0642003166
 40
0.1396474964
 40
0.231723244
 40
0.3433118033
 40
0.4757423171
 40
0.6293903289
 40
0.8042252832
 40
1.0
 40
1.0
 40
1.0
 40
1.0
 10
6.6572686792
 20
9.1177248798
 30
0.0
 10
6.657268683
 20
9.1176546926
 30
0.0
 10
6.6572345838
 20
9.1175014762
 30
0.0
 10
6.6571008823
 20
9.1172830912
 30
0.0
 10
6.6568890889
 20
9.1170613327
 30
0.0
 10
6.6565989435
 20
9.1168344997
 30
0.0
 10
6.6562309451
 20
9.1166020661
 30
0.0
 10
6.6557861934
 20
9.1163644983
 30
0.0
 10
6.6552663094
 20
9.1161226969
 30
0.0
 10
6.6548917232
 20
9.1159679535
 30
0.0
 10
6.6546925594
 20
9.1158895749
 30
0.0
  0
SPLINE
  5
468
100
AcDbEntity
  8
0
100
AcDbSpline
 62
7
  6
CONTINUOUS
 70
0
 71
3
 72
18
 73
14
 74
0
 42
0.0000001
 43
0.0000001
 44
0.0000000001
 40
0.0
 40
0.0
 40
0.0
 40
0.0
 40
0.2169053819
 40
0.4101518162
 40
0.5777167962
 40
0.7176580156
 40
0.8285214449
 40
0.87305664
 40
0.9104662409
 40
0.9410006579
 40
0.9651708424
 40
0.984071601
 40
1.0
 40
1.0
 40
1.0
 40
1.0
 10
6.6585816467
 20
9.1258052556
 30
0.0
 10
6.6584501954
 20
9.1258064654
 30
0.0
 10
6.6582016399
 20
9.1258110375
 30
0.0
 10
6.6578517828
 20
9.1258256578
 30
0.0
 10
6.6575490024
 20
9.1258473358
 30
0.0
 10
6.6572969834
 20
9.1258757746
 30
0.0
 10
6.6571204085
 20
9.125906528
 30
0.0
 10
6.6570072548
 20
9.1259359911
 30
0.0
 10
6.6569426355
 20
9.1259579384
 30
0.0
 10
6.6568917648
 20
9.1259813094
 30
0.0
 10
6.6568544792
 20
9.1260062461
 30
0.0
 10
6.65683029
 20
9.1260335213
 30
0.0
 10
6.656824286
 20
9.1260548175
 30
0.0
 10
6.6568242871
 20
9.126064471
 30
0.0
  0
LINE
  5
469
100
AcDbEntity
  8
0
100
AcDbLine
 62
7
  6
CONTINUOUS
 10
6.6775722944
 20
9.1337328943
 11
6.6785376256
 21
9.1336355766
  0
LINE
  5
46A
100
AcDbEntity
  8
0
100
AcDbLine
 62
7
  6
CONTINUOUS
 10
6.6785376256
 20
9.1336355766
 11
6.6809231461
 21
9.1336569275
  0
LINE
  5
46B
100
AcDbEntity
  8
0
100
AcDbLine
 62
7
  6
CONTINUOUS
 10
6.6809231461
 20
9.1336569275
 11
6.6846017806
 21
9.1337774712
  0
LINE
  5
46C
100
AcDbEntity
  8
0
100
AcDbLine
 62
7
  6
CONTINUOUS
 10
6.6740879784
 20
9.1314353695
 11
6.6723308966
 21
9.1310023317
  0
SPLINE
  5
46D
100
AcDbEntity
  8
0
100
AcDbSpline
 62
7
  6
CONTINUOUS
 70
0
 71
3
 72
12
 73
8
 74
0
 42
0.0000001
 43
0.0000001
 44
0.0000000001
 40
0.0
 40
0.0
 40
0.0
 40
0.0
 40
0.2565476185
 40
0.5259476351
 40
0.7820631464
 40
0.8972972409
 40
1.0
 40
1.0
 40
1.0
 40
1.0
 10
6.7699509647
 20
9.1353578114
 30
0.0
 10
6.7675774829
 20
9.135223967
 30
0.0
 10
6.7627082225
 20
9.1350082927
 30
0.0
 10
6.7554634225
 20
9.1348229531
 30
0.0
 10
6.7495256699
 20
9.134781026
 30
0.0
 10
6.745133114
 20
9.1348287673
 30
0.0
 10
6.7431141598
 20
9.1348792316
 30
0.0
 10
6.7421630639
 20
9.1349124753
 30
0.0
  0
SPLINE
  5
46E
100
AcDbEntity
  8
0
100
AcDbSpline
 62
7
  6
CONTINUOUS
 70
0
 71
3
 72
39
 73
35
 74
0
 42
0.0000001
 43
0.0000001
 44
0.0000000001
 40
0.0
 40
0.0
 40
0.0
 40
0.0
 40
0.0001510179
 40
0.0004945783
 40
0.0010490628
 40
0.0018165635
 40
0.002796794
 40
0.0039887908
 40
0.0053913852
 40
0.007004036
 40
0.0108591071
 40
0.0155530272
 40
0.0210851815
 40
0.0274586388
 40
0.0346777922
 40
0.0427475102
 40
0.0516746827
 40
0.0614666897
 40
0.0836657107
 40
0.1093668274
 40
0.1385504226
 40
0.1709436113
 40
0.2060463776
 40
0.2433308019
 40
0.2823568256
 40
0.3227472417
 40
0.406337842
 40
0.4917600173
 40
0.5765507271
 40
0.6581544668
 40
0.7350551244
 40
0.8070008203
 40
0.874536736
 40
1.0
 40
1.0
 40
1.0
 40
1.0
 10
6.8516215276
 20
9.1389485339
 30
0.0
 10
6.8516215839
 20
9.1389443263
 30
0.0
 10
6.8516061147
 20
9.1389360437
 30
0.0
 10
6.8515803894
 20
9.1389297288
 30
0.0
 10
6.851533278
 20
9.1389210049
 30
0.0
 10
6.8514702303
 20
9.138913184
 30
0.0
 10
6.8513884866
 20
9.1389049292
 30
0.0
 10
6.8512892861
 20
9.1388968837
 30
0.0
 10
6.8511723005
 20
9.1388888476
 30
0.0
 10
6.8509812082
 20
9.1388775953
 30
0.0
 10
6.8506983671
 20
9.1388642026
 30
0.0
 10
6.8503062948
 20
9.1388493123
 30
0.0
 10
6.8498439887
 20
9.1388348964
 30
0.0
 10
6.8493112777
 20
9.1388210437
 30
0.0
 10
6.8487078246
 20
9.1388078456
 30
0.0
 10
6.8480331865
 20
9.1387953817
 30
0.0
 10
6.8472868341
 20
9.1387837672
 30
0.0
 10
6.8461467909
 20
9.1387689359
 30
0.0
 10
6.8445393329
 20
9.1387536734
 30
0.0
 10
6.842391515
 20
9.1387412495
 30
0.0
 10
6.8399596193
 20
9.1387354845
 30
0.0
 10
6.8372657525
 20
9.1387365779
 30
0.0
 10
6.8343461749
 20
9.1387437016
 30
0.0
 10
6.8312417963
 20
9.1387557323
 30
0.0
 10
6.8279901004
 20
9.1387718776
 30
0.0
 10
6.8234481728
 20
9.1387982539
 30
0.0
 10
6.8176135286
 20
9.1388381727
 30
0.0
 10
6.8105418098
 20
9.1388947094
 30
0.0
 10
6.8035255577
 20
9.1389630898
 30
0.0
 10
6.7967468722
 20
9.1390416914
 30
0.0
 10
6.7903261479
 20
9.1391219471
 30
0.0
 10
6.784297347
 20
9.1391952934
 30
0.0
 10
6.7769153688
 20
9.1392721583
 30
0.0
 10
6.7715376661
 20
9.1393030615
 30
0.0
 10
6.7680417764
 20
9.1393030615
 30
0.0
  0
LINE
  5
46F
100
AcDbEntity
  8
0
100
AcDbLine
 62
7
  6
CONTINUOUS
 10
6.6285240482
 20
9.1286545799
 11
6.6282973503
 21
9.1286218475
  0
LINE
  5
470
100
AcDbEntity
  8
0
100
AcDbLine
 62
7
  6
CONTINUOUS
 10
6.6583941579
 20
9.127751744
 11
6.6565922751
 21
9.1274428378
  0
LINE
  5
471
100
AcDbEntity
  8
0
100
AcDbLine
 62
7
  6
CONTINUOUS
 10
6.6565922751
 20
9.1274428378
 11
6.6564268596
 21
9.1274142651
  0
SPLINE
  5
472
100
AcDbEntity
  8
0
100
AcDbSpline
 62
7
  6
CONTINUOUS
 70
0
 71
3
 72
19
 73
15
 74
0
 42
0.0000001
 43
0.0000001
 44
0.0000000001
 40
0.0
 40
0.0
 40
0.0
 40
0.0
 40
0.1129146797
 40
0.2363318178
 40
0.3746820004
 40
0.4493921299
 40
0.526333531
 40
0.679581664
 40
0.7525299752
 40
0.8205977289
 40
0.8813513779
 40
0.9320183208
 40
0.9715290035
 40
1.0
 40
1.0
 40
1.0
 40
1.0
 10
6.7680417764
 20
9.1383026639
 30
0.0
 10
6.7711121321
 20
9.1383026639
 30
0.0
 10
6.7775384291
 20
9.1382702093
 30
0.0
 10
6.787726085
 20
9.1381557866
 30
0.0
 10
6.7968747638
 20
9.1380382154
 30
0.0
 10
6.8047599468
 20
9.1379498569
 30
0.0
 10
6.8130503532
 20
9.1378711446
 30
0.0
 10
6.8212930061
 20
9.1378100774
 30
0.0
 10
6.8292944494
 20
9.1377632205
 30
0.0
 10
6.8347808901
 20
9.1377401138
 30
0.0
 10
6.8396615067
 20
9.1377319737
 30
0.0
 10
6.8437656105
 20
9.1377449039
 30
0.0
 10
6.8469917476
 20
9.1377756058
 30
0.0
 10
6.8488400641
 20
9.1378079392
 30
0.0
 10
6.8496139739
 20
9.1378283231
 30
0.0
  0
LINE
  5
473
100
AcDbEntity
  8
0
100
AcDbLine
 62
7
  6
CONTINUOUS
 10
6.8496139739
 20
9.1378283231
 11
6.8515374904
 21
9.1379216239
  0
SPLINE
  5
474
100
AcDbEntity
  8
0
100
AcDbSpline
 62
7
  6
CONTINUOUS
 70
0
 71
3
 72
11
 73
7
 74
0
 42
0.0000001
 43
0.0000001
 44
0.0000000001
 40
0.0
 40
0.0
 40
0.0
 40
0.0
 40
0.4134369459
 40
0.7145331233
 40
0.9053767758
 40
1.0
 40
1.0
 40
1.0
 40
1.0
 10
6.8515374904
 20
9.1379216239
 30
0.0
 10
6.8515497963
 20
9.1379235146
 30
0.0
 10
6.8515708951
 20
9.137926957
 30
0.0
 10
6.8515978697
 20
9.137933589
 30
0.0
 10
6.8516138382
 20
9.1379386381
 30
0.0
 10
6.8516219506
 20
9.1379450423
 30
0.0
 10
6.8516219675
 20
9.1379478918
 30
0.0
  0
LINE
  5
475
100
AcDbEntity
  8
0
100
AcDbLine
 62
7
  6
CONTINUOUS
 10
6.7680417764
 20
9.1393030615
 11
6.7469253729
 21
9.1390444789
  0
SPLINE
  5
476
100
AcDbEntity
  8
0
100
AcDbSpline
 62
7
  6
CONTINUOUS
 70
0
 71
3
 72
13
 73
9
 74
0
 42
0.0000001
 43
0.0000001
 44
0.0000000001
 40
0.0
 40
0.0
 40
0.0
 40
0.0
 40
0.106926714
 40
0.2293378009
 40
0.4997426799
 40
0.7700318354
 40
0.8925523094
 40
1.0
 40
1.0
 40
1.0
 40
1.0
 10
6.6383897711
 20
9.1248395587
 30
0.0
 10
6.6386939636
 20
9.1248450372
 30
0.0
 10
6.6393461957
 20
9.1248682017
 30
0.0
 10
6.6407658107
 20
9.1249506868
 30
0.0
 10
6.6426458694
 20
9.12511396
 30
0.0
 10
6.6445204974
 20
9.1253334665
 30
0.0
 10
6.645929092
 20
9.1255387298
 30
0.0
 10
6.6465744546
 20
9.1256472914
 30
0.0
 10
6.6468750525
 20
9.1257030428
 30
0.0
  0
LINE
  5
477
100
AcDbEntity
  8
0
100
AcDbLine
 62
7
  6
CONTINUOUS
 10
6.6723308966
 20
9.1299965445
 11
6.6740190839
 21
9.1303631888
  0
SPLINE
  5
478
100
AcDbEntity
  8
0
100
AcDbSpline
 62
7
  6
CONTINUOUS
 70
0
 71
3
 72
10
 73
6
 74
0
 42
0.0000001
 43
0.0000001
 44
0.0000000001
 40
0.0
 40
0.0
 40
0.0
 40
0.0
 40
0.353992729
 40
0.6320584333
 40
1.0
 40
1.0
 40
1.0
 40
1.0
 10
6.6740190839
 20
9.1303631888
 30
0.0
 10
6.6740294055
 20
9.1303685849
 30
0.0
 10
6.6740476156
 20
9.1303790923
 30
0.0
 10
6.6740734882
 20
9.1303983215
 30
0.0
 10
6.6740879785
 20
9.1304177614
 30
0.0
 10
6.6740879747
 20
9.1304298674
 30
0.0
  0
SPLINE
  5
479
100
AcDbEntity
  8
0
100
AcDbSpline
 62
7
  6
CONTINUOUS
 70
0
 71
3
 72
12
 73
8
 74
0
 42
0.0000001
 43
0.0000001
 44
0.0000000001
 40
0.0
 40
0.0
 40
0.0
 40
0.0
 40
0.1027027885
 40
0.2179369186
 40
0.47405245
 40
0.7434524344
 40
1.0
 40
1.0
 40
1.0
 40
1.0
 10
6.7421630639
 20
9.1339092253
 30
0.0
 10
6.7431141598
 20
9.13387596
 30
0.0
 10
6.7451331151
 20
9.1338254714
 30
0.0
 10
6.7495256737
 20
9.1337777098
 30
0.0
 10
6.7554634298
 20
9.1338196505
 30
0.0
 10
6.7627082296
 20
9.1340051215
 30
0.0
 10
6.7675774871
 20
9.1342209081
 30
0.0
 10
6.7699509647
 20
9.1343548391
 30
0.0
  0
LINE
  5
47A
100
AcDbEntity
  8
0
100
AcDbLine
 62
7
  6
CONTINUOUS
 10
6.7206307884
 20
9.1286775906
 11
6.7209082844
 21
9.1290649654
  0
SPLINE
  5
47B
100
AcDbEntity
  8
0
100
AcDbSpline
 62
7
  6
CONTINUOUS
 70
0
 71
3
 72
14
 73
10
 74
0
 42
0.0000001
 43
0.0000001
 44
0.0000000001
 40
0.0
 40
0.0
 40
0.0
 40
0.0
 40
0.102683938
 40
0.2179185214
 40
0.3427108561
 40
0.4740637179
 40
0.7434180488
 40
0.8749723796
 40
1.0
 40
1.0
 40
1.0
 40
1.0
 10
6.6785234536
 20
9.124353361
 30
0.0
 10
6.6794759682
 20
9.1243198387
 30
0.0
 10
6.6814986463
 20
9.1242826936
 30
0.0
 10
6.6846798239
 20
9.1243001055
 30
0.0
 10
6.688126046
 20
9.1243878644
 30
0.0
 10
6.6929993428
 20
9.1245976552
 30
0.0
 10
6.6979296544
 20
9.124929165
 30
0.0
 10
6.702791227
 20
9.125373623
 30
0.0
 10
6.7051589983
 20
9.1256312376
 30
0.0
 10
6.7063113544
 20
9.1257684532
 30
0.0
  0
LINE
  5
47C
100
AcDbEntity
  8
0
100
AcDbLine
 62
7
  6
CONTINUOUS
 10
6.6565454119
 20
9.1157905283
 11
6.6567471894
 21
9.115937737
  0
SPLINE
  5
47D
100
AcDbEntity
  8
0
100
AcDbSpline
 62
7
  6
CONTINUOUS
 70
0
 71
3
 72
11
 73
7
 74
0
 42
0.0000001
 43
0.0000001
 44
0.0000000001
 40
0.0
 40
0.0
 40
0.0
 40
0.0
 40
0.316777482
 40
0.582525567
 40
0.8055158454
 40
1.0
 40
1.0
 40
1.0
 40
1.0
 10
6.6567471894
 20
9.115937737
 30
0.0
 10
6.6568268877
 20
9.1160004587
 30
0.0
 10
6.6569681438
 20
9.1161230582
 30
0.0
 10
6.6571367999
 20
9.1163198468
 30
0.0
 10
6.6572424261
 20
9.1165138774
 30
0.0
 10
6.6572686762
 20
9.1166480677
 30
0.0
 10
6.6572686755
 20
9.1167103335
 30
0.0
  0
LINE
  5
47E
100
AcDbEntity
  8
0
100
AcDbLine
 62
7
  6
CONTINUOUS
 10
14.4489423427
 20
9.0999035882
 11
14.450454337
 21
9.1001705234
  0
LINE
  5
47F
100
AcDbEntity
  8
0
100
AcDbLine
 62
7
  6
CONTINUOUS
 10
14.450454337
 20
9.1001705234
 11
14.4725650172
 21
9.1040679481
  0
LINE
  5
480
100
AcDbEntity
  8
0
100
AcDbLine
 62
7
  6
CONTINUOUS
 10
14.6389443061
 20
9.1316424155
 11
14.6433061145
 21
9.1317821036
  0
LINE
  5
481
100
AcDbEntity
  8
0
100
AcDbLine
 62
7
  6
CONTINUOUS
 10
14.6433061145
 20
9.1317821036
 11
14.6739232703
 21
9.1331853751
  0
LINE
  5
482
100
AcDbEntity
  8
0
100
AcDbLine
 62
7
  6
CONTINUOUS
 10
14.6739232703
 20
9.1331853751
 11
14.6752976186
 21
9.1332564561
  0
LINE
  5
483
100
AcDbEntity
  8
0
100
AcDbLine
 62
7
  6
CONTINUOUS
 10
14.6752976186
 20
9.1332564561
 11
14.7603327947
 21
9.1377521905
  0
LINE
  5
484
100
AcDbEntity
  8
0
100
AcDbLine
 62
7
  6
CONTINUOUS
 10
14.7603327947
 20
9.1377521905
 11
14.7918572076
 21
9.1396235857
  0
LINE
  5
485
100
AcDbEntity
  8
0
100
AcDbLine
 62
7
  6
CONTINUOUS
 10
14.7918572076
 20
9.1396235857
 11
14.7956087289
 21
9.1398911189
  0
LINE
  5
486
100
AcDbEntity
  8
0
100
AcDbLine
 62
7
  6
CONTINUOUS
 10
14.7956087289
 20
9.1398911189
 11
14.7959423428
 21
9.1399160433
  0
LINE
  5
487
100
AcDbEntity
  8
0
100
AcDbLine
 62
7
  6
CONTINUOUS
 10
14.9595320933
 20
9.1295720215
 11
14.9597030669
 21
9.1296034212
  0
LINE
  5
488
100
AcDbEntity
  8
0
100
AcDbLine
 62
7
  6
CONTINUOUS
 10
15.0734423427
 20
9.113060679
 11
15.1147270103
 21
9.1056089844
  0
LINE
  5
489
100
AcDbEntity
  8
0
100
AcDbLine
 62
7
  6
CONTINUOUS
 10
15.1147270103
 20
9.1056089844
 11
15.1193824544
 21
9.1047668551
  0
LINE
  5
48A
100
AcDbEntity
  8
0
100
AcDbLine
 62
7
  6
CONTINUOUS
 10
15.1193824544
 20
9.1047668551
 11
15.1195851374
 21
9.1047301841
  0
LINE
  5
48B
100
AcDbEntity
  8
0
100
AcDbLine
 62
7
  6
CONTINUOUS
 10
15.1195851374
 20
9.1047301841
 11
15.1212908445
 21
9.1044215504
  0
LINE
  5
48C
100
AcDbEntity
  8
0
100
AcDbLine
 62
7
  6
CONTINUOUS
 10
15.1212908445
 20
9.1044215504
 11
15.1564357628
 21
9.0980589418
  0
LINE
  5
48D
100
AcDbEntity
  8
0
100
AcDbLine
 62
7
  6
CONTINUOUS
 10
15.1564357628
 20
9.0980589418
 11
15.1579423426
 21
9.0977901052
  0
LINE
  5
48E
100
AcDbEntity
  8
0
100
AcDbLine
 62
7
  6
CONTINUOUS
 10
14.6179423427
 20
9.1290056228
 11
14.6135635134
 21
9.1282805545
  0
LINE
  5
48F
100
AcDbEntity
  8
0
100
AcDbLine
 62
7
  6
CONTINUOUS
 10
14.6135635134
 20
9.1282805545
 11
14.6057561359
 21
9.1269763514
  0
LINE
  5
490
100
AcDbEntity
  8
0
100
AcDbLine
 62
7
  6
CONTINUOUS
 10
14.6057561359
 20
9.1269763514
 11
14.597374879
 21
9.1255668092
  0
LINE
  5
491
100
AcDbEntity
  8
0
100
AcDbLine
 62
7
  6
CONTINUOUS
 10
14.5304226974
 20
9.1141364736
 11
14.5266745741
 21
9.1134897885
  0
LINE
  5
492
100
AcDbEntity
  8
0
100
AcDbLine
 62
7
  6
CONTINUOUS
 10
14.5266745741
 20
9.1134897885
 11
14.501247642
 21
9.1090841452
  0
LINE
  5
493
100
AcDbEntity
  8
0
100
AcDbLine
 62
7
  6
CONTINUOUS
 10
14.501247642
 20
9.1090841452
 11
14.497132362
 21
9.1083678421
  0
LINE
  5
494
100
AcDbEntity
  8
0
100
AcDbLine
 62
7
  6
CONTINUOUS
 10
14.497132362
 20
9.1083678421
 11
14.4933667497
 21
9.1077115198
  0
LINE
  5
495
100
AcDbEntity
  8
0
100
AcDbLine
 62
7
  6
CONTINUOUS
 10
14.4933667497
 20
9.1077115198
 11
14.4910198381
 21
9.1073020213
  0
LINE
  5
496
100
AcDbEntity
  8
0
100
AcDbLine
 62
7
  6
CONTINUOUS
 10
14.4910198381
 20
9.1073020213
 11
14.4725650172
 21
9.1040679481
  0
SPLINE
  5
497
100
AcDbEntity
  8
0
100
AcDbSpline
 62
7
  6
CONTINUOUS
 70
0
 71
3
 72
9
 73
5
 74
0
 42
0.0000001
 43
0.0000001
 44
0.0000000001
 40
0.0
 40
0.0
 40
0.0
 40
0.0
 40
0.1226493936
 40
1.0
 40
1.0
 40
1.0
 40
1.0
 10
15.1196032627
 20
9.1064002036
 30
0.0
 10
15.1196032627
 20
9.1064008343
 30
0.0
 10
15.1195997944
 20
9.1064055137
 30
0.0
 10
15.1195933806
 20
9.1064027752
 30
0.0
 10
15.1195889413
 20
9.1064035792
 30
0.0
  0
SPLINE
  5
498
100
AcDbEntity
  8
0
100
AcDbSpline
 62
7
  6
CONTINUOUS
 70
0
 71
3
 72
9
 73
5
 74
0
 42
0.0000001
 43
0.0000001
 44
0.0000000001
 40
0.0
 40
0.0
 40
0.0
 40
0.0
 40
0.2101672472
 40
1.0
 40
1.0
 40
1.0
 40
1.0
 10
15.1195889413
 20
9.1064035792
 30
0.0
 10
15.1195876505
 20
9.1064038129
 30
0.0
 10
15.1195816487
 20
9.1064055848
 30
0.0
 10
15.1195758642
 20
9.1064080445
 30
0.0
 10
15.1195710408
 20
9.1064090639
 30
0.0
  0
LINE
  5
499
100
AcDbEntity
  8
0
100
AcDbLine
 62
7
  6
CONTINUOUS
 10
14.6752423427
 20
9.1339739756
 11
14.6761115621
 21
9.1339444718
  0
LINE
  5
49A
100
AcDbEntity
  8
0
100
AcDbLine
 62
7
  6
CONTINUOUS
 10
14.6761115621
 20
9.1339444718
 11
14.6789426125
 21
9.1339561837
  0
LINE
  5
49B
100
AcDbEntity
  8
0
100
AcDbLine
 62
7
  6
CONTINUOUS
 10
14.7558488699
 20
9.1380053426
 11
14.7602423427
 21
9.1384356413
  0
LINE
  5
49C
100
AcDbEntity
  8
0
100
AcDbLine
 62
7
  6
CONTINUOUS
 10
14.9461075327
 20
9.1321806115
 11
14.9204423427
 21
9.1338986747
  0
LINE
  5
49D
100
AcDbEntity
  8
0
100
AcDbLine
 62
7
  6
CONTINUOUS
 10
14.4969113602
 20
9.1088916344
 11
14.4936633201
 21
9.1084106517
  0
LINE
  5
49E
100
AcDbEntity
  8
0
100
AcDbLine
 62
7
  6
CONTINUOUS
 10
14.4936633201
 20
9.1084106517
 11
14.4909883983
 21
9.1080106004
  0
SPLINE
  5
49F
100
AcDbEntity
  8
0
100
AcDbSpline
 62
7
  6
CONTINUOUS
 70
0
 71
3
 72
8
 73
4
 74
0
 42
0.0000001
 43
0.0000001
 44
0.0000000001
 40
0.0
 40
0.0
 40
0.0
 40
0.0
 40
1.0
 40
1.0
 40
1.0
 40
1.0
 10
14.4909883983
 20
9.1080106004
 30
0.0
 10
14.4909738017
 20
9.1080081625
 30
0.0
 10
14.4909592051
 20
9.1080057246
 30
0.0
 10
14.4909446086
 20
9.1080032867
 30
0.0
  0
SPLINE
  5
4A0
100
AcDbEntity
  8
0
100
AcDbSpline
 62
7
  6
CONTINUOUS
 70
0
 71
3
 72
28
 73
24
 74
0
 42
0.0000001
 43
0.0000001
 44
0.0000000001
 40
0.0
 40
0.0
 40
0.0
 40
0.0
 40
0.1945726672
 40
0.2895842603
 40
0.3817636325
 40
0.470273989
 40
0.5542916212
 40
0.6330121239
 40
0.7056550846
 40
0.7715382781
 40
0.8300160197
 40
0.8805350355
 40
0.9026547731
 40
0.9226016183
 40
0.9403321003
 40
0.9558083674
 40
0.9689931448
 40
0.9798505882
 40
0.9883580508
 40
0.994511328
 40
0.9983262932
 40
0.9993923893
 40
1.0
 40
1.0
 40
1.0
 40
1.0
 10
14.8964423427
 20
9.1355991782
 30
0.0
 10
14.8944921951
 20
9.1357221701
 30
0.0
 10
14.8915901218
 20
9.1359108361
 30
0.0
 10
14.8877650913
 20
9.1361716892
 30
0.0
 10
14.8850031656
 20
9.1363662516
 30
0.0
 10
14.8823518238
 20
9.1365593185
 30
0.0
 10
14.8798357693
 20
9.1367490739
 30
0.0
 10
14.8774791357
 20
9.1369336422
 30
0.0
 10
14.8753046465
 20
9.1371112861
 30
0.0
 10
14.8733334249
 20
9.1372801925
 30
0.0
 10
14.8715843351
 20
9.1374387654
 30
0.0
 10
14.8702737203
 20
9.1375659271
 30
0.0
 10
14.869348899
 20
9.137662092
 30
0.0
 10
14.8687519454
 20
9.1377274619
 30
0.0
 10
14.8682217101
 20
9.1377891548
 30
0.0
 10
14.86775943
 20
9.1378470016
 30
0.0
 10
14.8673661728
 20
9.1379008476
 30
0.0
 10
14.8670431753
 20
9.1379504204
 30
0.0
 10
14.8667905572
 20
9.1379956519
 30
0.0
 10
14.8666100256
 20
9.1380354617
 30
0.0
 10
14.8665025601
 20
9.1380683085
 30
0.0
 10
14.8664543718
 20
9.1380931601
 30
0.0
 10
14.8664423427
 20
9.1381079541
 30
0.0
 10
14.8664423427
 20
9.1381140561
 30
0.0
  0
LINE
  5
4A1
100
AcDbEntity
  8
0
100
AcDbLine
 62
7
  6
CONTINUOUS
 10
14.4969113602
 20
9.108891583
 11
14.530230108
 21
9.1142777694
  0
LINE
  5
4A2
100
AcDbEntity
  8
0
100
AcDbLine
 62
7
  6
CONTINUOUS
 10
14.530230108
 20
9.1142777694
 11
14.5633801159
 21
9.1197931878
  0
LINE
  5
4A3
100
AcDbEntity
  8
0
100
AcDbLine
 62
7
  6
CONTINUOUS
 10
14.7602423427
 20
9.139435953
 11
14.7585400138
 21
9.1392480363
  0
SPLINE
  5
4A4
100
AcDbEntity
  8
0
100
AcDbSpline
 62
7
  6
CONTINUOUS
 70
0
 71
3
 72
23
 73
19
 74
0
 42
0.0000001
 43
0.0000001
 44
0.0000000001
 40
0.0
 40
0.0
 40
0.0
 40
0.0
 40
0.0264339966
 40
0.068233742
 40
0.1277578305
 40
0.204223106
 40
0.2938856315
 40
0.3934270352
 40
0.4989496838
 40
0.6043176192
 40
0.7035295179
 40
0.7926272311
 40
0.8677677766
 40
0.924497356
 40
0.9624284947
 40
0.9849097871
 40
0.9961791963
 40
1.0
 40
1.0
 40
1.0
 40
1.0
 10
14.7585400138
 20
9.1392480363
 30
0.0
 10
14.7578086141
 20
9.1391760973
 30
0.0
 10
14.7559190729
 20
9.1390066572
 30
0.0
 10
14.752378061
 20
9.1387272059
 30
0.0
 10
14.7474472529
 20
9.1383800442
 30
0.0
 10
14.7411866528
 20
9.1379750826
 30
0.0
 10
14.7338144101
 20
9.1375203211
 30
0.0
 10
14.7256344164
 20
9.137039301
 30
0.0
 10
14.717016735
 20
9.136563788
 30
0.0
 10
14.7084059686
 20
9.1361311444
 30
0.0
 10
14.7002499299
 20
9.135749635
 30
0.0
 10
14.6929323968
 20
9.135428727
 30
0.0
 10
14.6867939714
 20
9.135180375
 30
0.0
 10
14.6820756023
 20
9.1350229988
 30
0.0
 10
14.6788195479
 20
9.1349513643
 30
0.0
 10
14.6768264458
 20
9.1349363673
 30
0.0
 10
14.6757820397
 20
9.1349519729
 30
0.0
 10
14.6753626048
 20
9.1349675243
 30
0.0
 10
14.6752567111
 20
9.1349759393
 30
0.0
  0
SPLINE
  5
4A5
100
AcDbEntity
  8
0
100
AcDbSpline
 62
7
  6
CONTINUOUS
 70
0
 71
3
 72
8
 73
4
 74
0
 42
0.0000001
 43
0.0000001
 44
0.0000000001
 40
0.0
 40
0.0
 40
0.0
 40
0.0
 40
1.0
 40
1.0
 40
1.0
 40
1.0
 10
14.6752567111
 20
9.1349759393
 30
0.0
 10
14.6752519216
 20
9.1349763511
 30
0.0
 10
14.6752471322
 20
9.1349767629
 30
0.0
 10
14.6752423427
 20
9.1349771747
 30
0.0
  0
SPLINE
  5
4A6
100
AcDbEntity
  8
0
100
AcDbSpline
 62
7
  6
CONTINUOUS
 70
0
 71
3
 72
24
 73
20
 74
0
 42
0.0000001
 43
0.0000001
 44
0.0000000001
 40
0.0
 40
0.0
 40
0.0
 40
0.0
 40
0.2146644773
 40
0.4104663772
 40
0.5829082722
 40
0.6593264986
 40
0.728717713
 40
0.7907306459
 40
0.8450911188
 40
0.8915486826
 40
0.92985659
 40
0.9598016612
 40
0.9716127175
 40
0.9813143264
 40
0.9889142796
 40
0.9944403711
 40
0.9964525917
 40
0.9979980179
 40
1.0
 40
1.0
 40
1.0
 40
1.0
 10
14.9889423427
 20
9.126017018
 30
0.0
 10
14.9896574995
 20
9.1259426828
 30
0.0
 10
14.9910253263
 20
9.125803912
 30
0.0
 10
14.9929688836
 20
9.1256179138
 30
0.0
 10
14.994452445
 20
9.1254862065
 30
0.0
 10
14.995514915
 20
9.1253998422
 30
0.0
 10
14.9962090446
 20
9.1253475405
 30
0.0
 10
14.9968298321
 20
9.125305368
 30
0.0
 10
14.9973742998
 20
9.1252734292
 30
0.0
 10
14.9978398089
 20
9.1252517021
 30
0.0
 10
14.9982238692
 20
9.125240244
 30
0.0
 10
14.9984921022
 20
9.1252387748
 30
0.0
 10
14.9986643987
 20
9.1252439749
 30
0.0
 10
14.9987617474
 20
9.1252500011
 30
0.0
 10
14.9988377736
 20
9.1252586264
 30
0.0
 10
14.998887654
 20
9.1252679955
 30
0.0
 10
14.9989166232
 20
9.125278132
 30
0.0
 10
14.9989329945
 20
9.1252861078
 30
0.0
 10
14.9989423427
 20
9.1252966985
 30
0.0
 10
14.9989423427
 20
9.1253034041
 30
0.0
  0
SPLINE
  5
4A7
100
AcDbEntity
  8
0
100
AcDbSpline
 62
7
  6
CONTINUOUS
 70
0
 71
3
 72
20
 73
16
 74
0
 42
0.0000001
 43
0.0000001
 44
0.0000000001
 40
0.0
 40
0.0
 40
0.0
 40
0.0
 40
0.0058352607
 40
0.0112678375
 40
0.0186274516
 40
0.0279675453
 40
0.0393098335
 40
0.0680279126
 40
0.1047959581
 40
0.1495808598
 40
0.262657651
 40
0.4059006016
 40
0.5778295957
 40
0.7765701845
 40
1.0
 40
1.0
 40
1.0
 40
1.0
 10
14.9989423427
 20
9.1263122622
 30
0.0
 10
14.9989423427
 20
9.1263007261
 30
0.0
 10
14.9989173665
 20
9.1262859419
 30
0.0
 10
14.9988841963
 20
9.1262766462
 30
0.0
 10
14.9988403381
 20
9.1262680581
 30
0.0
 10
14.9987856025
 20
9.1262614563
 30
0.0
 10
14.9986880862
 20
9.1262535633
 30
0.0
 10
14.9985363149
 20
9.1262485493
 30
0.0
 10
14.9983182579
 20
9.1262482536
 30
0.0
 10
14.9979335589
 20
9.1262563422
 30
0.0
 10
14.9973388097
 20
9.1262830741
 30
0.0
 10
14.9964937814
 20
9.1263354119
 30
0.0
 10
14.9954805487
 20
9.1264105106
 30
0.0
 10
14.9943100305
 20
9.126507439
 30
0.0
 10
14.9934787247
 20
9.1265817873
 30
0.0
 10
14.9930388667
 20
9.1266222359
 30
0.0
  0
LINE
  5
4A8
100
AcDbEntity
  8
0
100
AcDbLine
 62
7
  6
CONTINUOUS
 10
15.1195710069
 20
9.105386954
 11
15.1183507042
 21
9.1055883493
  0
LINE
  5
4A9
100
AcDbEntity
  8
0
100
AcDbLine
 62
7
  6
CONTINUOUS
 10
15.0352242231
 20
9.1198119079
 11
15.0363504554
 21
9.119507834
  0
LINE
  5
4AA
100
AcDbEntity
  8
0
100
AcDbLine
 62
7
  6
CONTINUOUS
 10
15.0363504554
 20
9.119507834
 11
15.0412242231
 21
9.1186460814
  0
LINE
  5
4AB
100
AcDbEntity
  8
0
100
AcDbLine
 62
7
  6
CONTINUOUS
 10
15.0690871309
 20
9.1139711833
 11
15.0734900045
 21
9.113192629
  0
LINE
  5
4AC
100
AcDbEntity
  8
0
100
AcDbLine
 62
7
  6
CONTINUOUS
 10
15.0734900045
 20
9.113192629
 11
15.1146223487
 21
9.1061632225
  0
SPLINE
  5
4AD
100
AcDbEntity
  8
0
100
AcDbSpline
 62
7
  6
CONTINUOUS
 70
0
 71
3
 72
25
 73
21
 74
0
 42
0.0000001
 43
0.0000001
 44
0.0000000001
 40
0.0
 40
0.0
 40
0.0
 40
0.0
 40
0.0016147455
 40
0.0051750149
 40
0.010890335
 40
0.0187909605
 40
0.0288798529
 40
0.0411521202
 40
0.0555989709
 40
0.072198355
 40
0.1117269943
 40
0.1594785327
 40
0.2151827196
 40
0.2784734446
 40
0.3489147333
 40
0.4260673626
 40
0.5094530447
 40
0.5985468388
 40
0.791667675
 40
1.0
 40
1.0
 40
1.0
 40
1.0
 10
14.8304423427
 20
9.1392639393
 30
0.0
 10
14.8304423427
 20
9.1392523517
 30
0.0
 10
14.8304024499
 20
9.1392286311
 30
0.0
 10
14.8303330724
 20
9.1392101552
 30
0.0
 10
14.8302088712
 20
9.1391849315
 30
0.0
 10
14.8300417228
 20
9.1391620245
 30
0.0
 10
14.8298253409
 20
9.1391378328
 30
0.0
 10
14.8295624484
 20
9.139114157
 30
0.0
 10
14.8292524157
 20
9.139090519
 30
0.0
 10
14.8287470611
 20
9.1390574759
 30
0.0
 10
14.8280025983
 20
9.1390182447
 30
0.0
 10
14.8269774399
 20
9.1389748251
 30
0.0
 10
14.8257815558
 20
9.1389332624
 30
0.0
 10
14.8244227043
 20
9.1388938295
 30
0.0
 10
14.8229098166
 20
9.1388568208
 30
0.0
 10
14.8212526282
 20
9.13882254
 30
0.0
 10
14.8194615066
 20
9.1387912272
 30
0.0
 10
14.8168381921
 20
9.1387526389
 30
0.0
 10
14.8133181609
 20
9.1387141353
 30
0.0
 10
14.8104373426
 20
9.1386941438
 30
0.0
 10
14.8089423427
 20
9.1386864037
 30
0.0
  0
LINE
  5
4AE
100
AcDbEntity
  8
0
100
AcDbLine
 62
7
  6
CONTINUOUS
 10
14.6013922312
 20
9.127096598
 11
14.530230108
 21
9.1152939165
  0
LINE
  5
4AF
100
AcDbEntity
  8
0
100
AcDbLine
 62
7
  6
CONTINUOUS
 10
14.530230108
 20
9.1152939165
 11
14.4969113602
 21
9.1099113294
  0
LINE
  5
4B0
100
AcDbEntity
  8
0
100
AcDbLine
 62
7
  6
CONTINUOUS
 10
14.9593872794
 20
9.1303744275
 11
14.9584978707
 21
9.1304414423
  0
LINE
  5
4B1
100
AcDbEntity
  8
0
100
AcDbLine
 62
7
  6
CONTINUOUS
 10
14.9622395882
 20
9.1300449094
 11
14.9593872794
 21
9.1303744275
  0
SPLINE
  5
4B2
100
AcDbEntity
  8
0
100
AcDbSpline
 62
7
  6
CONTINUOUS
 70
0
 71
3
 72
25
 73
21
 74
0
 42
0.0000001
 43
0.0000001
 44
0.0000000001
 40
0.0
 40
0.0
 40
0.0
 40
0.0
 40
0.2083285417
 40
0.401443547
 40
0.4905378644
 40
0.5739254837
 40
0.6510800636
 40
0.7215232374
 40
0.7848155987
 40
0.8405209053
 40
0.8882729179
 40
0.9278017238
 40
0.9444012013
 40
0.9588481895
 40
0.9711204069
 40
0.9812090784
 40
0.9891094146
 40
0.9948244919
 40
0.9983847234
 40
1.0
 40
1.0
 40
1.0
 40
1.0
 10
14.8089423427
 20
9.1376856033
 30
0.0
 10
14.810437318
 20
9.1376933482
 30
0.0
 10
14.8133180721
 20
9.1377133542
 30
0.0
 10
14.8168380437
 20
9.1377518858
 30
0.0
 10
14.8194613382
 20
9.1377904964
 30
0.0
 10
14.8212524941
 20
9.1378218278
 30
0.0
 10
14.8229097263
 20
9.1378561307
 30
0.0
 10
14.8244226553
 20
9.137893164
 30
0.0
 10
14.8257815416
 20
9.137932624
 30
0.0
 10
14.8269774499
 20
9.137974216
 30
0.0
 10
14.8280026214
 20
9.1380176667
 30
0.0
 10
14.8287470892
 20
9.1380569248
 30
0.0
 10
14.8292524464
 20
9.1380899886
 30
0.0
 10
14.8295624797
 20
9.1381136399
 30
0.0
 10
14.829825371
 20
9.1381373283
 30
0.0
 10
14.8300417468
 20
9.1381615329
 30
0.0
 10
14.830208891
 20
9.138184452
 30
0.0
 10
14.8303330792
 20
9.1382096914
 30
0.0
 10
14.8304024665
 20
9.1382281787
 30
0.0
 10
14.8304423427
 20
9.1382519206
 30
0.0
 10
14.8304423427
 20
9.1382635121
 30
0.0
  0
LINE
  5
4B3
100
AcDbEntity
  8
0
100
AcDbLine
 62
7
  6
CONTINUOUS
 10
14.9204423427
 20
9.1328948116
 11
14.9461075327
 21
9.1311756292
  0
LINE
  5
4B4
100
AcDbEntity
  8
0
100
AcDbLine
 62
7
  6
CONTINUOUS
 10
15.1146223487
 20
9.1071848464
 11
15.1195710408
 21
9.1064090639
  0
LINE
  5
4B5
100
AcDbEntity
  8
0
100
AcDbLine
 62
7
  6
CONTINUOUS
 10
14.8664423427
 20
9.1371128158
 11
14.8669977575
 21
9.1369579446
  0
SPLINE
  5
4B6
100
AcDbEntity
  8
0
100
AcDbSpline
 62
7
  6
CONTINUOUS
 70
0
 71
3
 72
17
 73
13
 74
0
 42
0.0000001
 43
0.0000001
 44
0.0000000001
 40
0.0
 40
0.0
 40
0.0
 40
0.0
 40
0.0206696597
 40
0.048562667
 40
0.0834916171
 40
0.1251937882
 40
0.2276318639
 40
0.352853259
 40
0.4971535473
 40
0.6562537128
 40
0.8256391044
 40
1.0
 40
1.0
 40
1.0
 40
1.0
 10
14.8669977575
 20
9.1369579446
 30
0.0
 10
14.8671984327
 20
9.1369238488
 30
0.0
 10
14.867671891
 20
9.1368556471
 30
0.0
 10
14.86848791
 20
9.136754908
 30
0.0
 10
14.8695111038
 20
9.1366423482
 30
0.0
 10
14.8712656293
 20
9.136465134
 30
0.0
 10
14.8739074687
 20
9.1362254913
 30
0.0
 10
14.8775579539
 20
9.1359228273
 30
0.0
 10
14.8817664834
 20
9.1355984254
 30
0.0
 10
14.8864102237
 20
9.1352618121
 30
0.0
 10
14.8913506111
 20
9.1349235374
 30
0.0
 10
14.8947286773
 20
9.1347044866
 30
0.0
 10
14.8964423427
 20
9.1345963267
 30
0.0
  0
LINE
  5
4B7
100
AcDbEntity
  8
0
100
AcDbLine
 62
7
  6
CONTINUOUS
 10
15.0412242231
 20
9.1196593282
 11
15.0352242231
 21
9.1208243834
  0
LINE
  5
4B8
100
AcDbEntity
  8
0
100
AcDbLine
 62
7
  6
CONTINUOUS
 10
15.1146223487
 20
9.1071848018
 11
15.0736647896
 21
9.1141786753
  0
LINE
  5
4B9
100
AcDbEntity
  8
0
100
AcDbLine
 62
7
  6
CONTINUOUS
 10
15.0736647896
 20
9.1141786753
 11
15.0690871309
 21
9.1149875347
  0
LINE
  5
4BA
100
AcDbEntity
  8
0
100
AcDbLine
 62
7
  6
CONTINUOUS
 10
14.4969113602
 20
9.109911331
 11
14.4909446085
 21
9.1090235297
  0
SPLINE
  5
4BB
100
AcDbEntity
  8
0
100
AcDbSpline
 62
7
  6
CONTINUOUS
 70
0
 71
3
 72
39
 73
35
 74
0
 42
0.0000001
 43
0.0000001
 44
0.0000000001
 40
0.0
 40
0.0
 40
0.0
 40
0.0
 40
0.0272158203
 40
0.0493199179
 40
0.0584941219
 40
0.0664357537
 40
0.0731586129
 40
0.0786758414
 40
0.0830015796
 40
0.0861591851
 40
0.088175158
 40
0.089075582
 40
0.0905199106
 40
0.0928146702
 40
0.0961255957
 40
0.1004291645
 40
0.1057024325
 40
0.1119230626
 40
0.1190693531
 40
0.1360476528
 40
0.1564374293
 40
0.1800357056
 40
0.2066450014
 40
0.2360741305
 40
0.2681390042
 40
0.3026618792
 40
0.3394586154
 40
0.4191166034
 40
0.5056427699
 40
0.5976213572
 40
0.6938811703
 40
0.7935693946
 40
0.8958719658
 40
1.0
 40
1.0
 40
1.0
 40
1.0
 10
7.2727946547
 20
8.7561629541
 30
0.0
 10
7.272581413
 20
8.75639655
 30
0.0
 10
7.27219012
 20
8.7568154576
 30
0.0
 10
7.271713577
 20
8.7573004135
 30
0.0
 10
7.271387655
 20
8.7576189719
 30
0.0
 10
7.2711869826
 20
8.7578101929
 30
0.0
 10
7.2710155296
 20
8.757969637
 30
0.0
 10
7.2708720797
 20
8.7580997651
 30
0.0
 10
7.270761466
 20
8.7581982305
 30
0.0
 10
7.2706727075
 20
8.7582750936
 30
0.0
 10
7.2706295173
 20
8.758312436
 30
0.0
 10
7.2705711551
 20
8.7583607568
 30
0.0
 10
7.2706486044
 20
8.7583003275
 30
0.0
 10
7.2706964681
 20
8.7582648996
 30
0.0
 10
7.2707971277
 20
8.7581903644
 30
0.0
 10
7.2709157235
 20
8.7581055908
 30
0.0
 10
7.2710674821
 20
8.7579997025
 30
0.0
 10
7.2712464894
 20
8.7578785713
 30
0.0
 10
7.2715414685
 20
8.757684893
 30
0.0
 10
7.2719801922
 20
8.7574108661
 30
0.0
 10
7.27259064
 20
8.757050964
 30
0.0
 10
7.2733076834
 20
8.7566520885
 30
0.0
 10
7.2741275868
 20
8.756222551
 30
0.0
 10
7.2750465483
 20
8.7557707717
 30
0.0
 10
7.2760607363
 20
8.7553050655
 30
0.0
 10
7.2771662536
 20
8.754834134
 30
0.0
 10
7.2787984133
 20
8.7541897364
 30
0.0
 10
7.2810258425
 20
8.7534097599
 30
0.0
 10
7.2839044959
 20
8.7525598823
 30
0.0
 10
7.2870114561
 20
8.7518161448
 30
0.0
 10
7.2903044105
 20
8.7512132279
 30
0.0
 10
7.2937428269
 20
8.7507640127
 30
0.0
 10
7.2972908137
 20
8.7504835811
 30
0.0
 10
7.2996903197
 20
8.7504189453
 30
0.0
 10
7.3009004471
 20
8.7504189453
 30
0.0
  0
SPLINE
  5
4BC
100
AcDbEntity
  8
0
100
AcDbSpline
 62
7
  6
CONTINUOUS
 70
0
 71
3
 72
18
 73
14
 74
0
 42
0.0000001
 43
0.0000001
 44
0.0000000001
 40
0.0
 40
0.0
 40
0.0
 40
0.0
 40
0.166233447
 40
0.3273598429
 40
0.405205696
 40
0.4807835972
 40
0.553747681
 40
0.6236337455
 40
0.7518368753
 40
0.8605776877
 40
0.9449369224
 40
0.9764575608
 40
1.0
 40
1.0
 40
1.0
 40
1.0
 10
7.3009004471
 20
8.5274189453
 30
0.0
 10
7.2991761827
 20
8.5274189453
 30
0.0
 10
7.2957794195
 20
8.5272883755
 30
0.0
 10
7.2915987182
 20
8.5268200618
 30
0.0
 10
7.2883806419
 20
8.5262785239
 30
0.0
 10
7.2860804423
 20
8.5258032219
 30
0.0
 10
7.2838804825
 20
8.5252591019
 30
0.0
 10
7.2811784285
 20
8.5244803614
 30
0.0
 10
7.2781679502
 20
8.5234392392
 30
0.0
 10
7.2750995293
 20
8.522130724
 30
0.0
 10
7.2730319657
 20
8.5210512135
 30
0.0
 10
7.2717898893
 20
8.5203100929
 30
0.0
 10
7.2713094426
 20
8.5200009904
 30
0.0
 10
7.2711069731
 20
8.5198644718
 30
0.0
  0
SPLINE
  5
4BD
100
AcDbEntity
  8
0
100
AcDbSpline
 62
7
  6
CONTINUOUS
 70
0
 71
3
 72
18
 73
14
 74
0
 42
0.0000001
 43
0.0000001
 44
0.0000000001
 40
0.0
 40
0.0
 40
0.0
 40
0.0
 40
0.0596656473
 40
0.1193468755
 40
0.1791550327
 40
0.2391914432
 40
0.3601573046
 40
0.4828234927
 40
0.5450055834
 40
0.6078078748
 40
0.7354419388
 40
0.8661155865
 40
1.0
 40
1.0
 40
1.0
 40
1.0
 10
7.1588639201
 20
8.4429189453
 30
0.0
 10
7.1617423162
 20
8.4429189453
 30
0.0
 10
7.1675022606
 20
8.4431387763
 30
0.0
 10
7.1760966907
 20
8.4441223986
 30
0.0
 10
7.1846112342
 20
8.4457528942
 30
0.0
 10
7.195835162
 20
8.4487845272
 30
0.0
 10
7.2095258583
 20
8.4541479432
 30
0.0
 10
7.2224164978
 20
8.46142051
 30
0.0
 10
7.2322027341
 20
8.4682856327
 30
0.0
 10
7.2417192546
 20
8.4759100362
 30
0.0
 10
7.2528896409
 20
8.4867011396
 30
0.0
 10
7.2649275196
 20
8.5013440532
 30
0.0
 10
7.2719523851
 20
8.5120316771
 30
0.0
 10
7.2752297127
 20
8.5175972914
 30
0.0
  0
SPLINE
  5
4BE
100
AcDbEntity
  8
0
100
AcDbSpline
 62
7
  6
CONTINUOUS
 70
0
 71
3
 72
20
 73
16
 74
0
 42
0.0000001
 43
0.0000001
 44
0.0000000001
 40
0.0
 40
0.0
 40
0.0
 40
0.0
 40
0.1340552639
 40
0.2648480406
 40
0.3290939383
 40
0.3925978976
 40
0.4554049312
 40
0.5175754326
 40
0.6401748266
 40
0.7008244807
 40
0.7611053038
 40
0.8210757938
 40
0.8808126976
 40
0.9404170071
 40
1.0
 40
1.0
 40
1.0
 40
1.0
 10
7.2763853089
 20
8.7582516206
 30
0.0
 10
7.2731173803
 20
8.7639520116
 30
0.0
 10
7.2660964953
 20
8.7749023841
 30
0.0
 10
7.2559617559
 20
8.7874971007
 30
0.0
 10
7.2471835096
 20
8.7966457165
 30
0.0
 10
7.2403211372
 20
8.8029902627
 30
0.0
 10
7.2331567538
 20
8.8088333893
 30
0.0
 10
7.2232742533
 20
8.815885831
 30
0.0
 10
7.2127992183
 20
8.821891478
 30
0.0
 10
7.20186271
 20
8.8266945454
 30
0.0
 10
7.1935000607
 20
8.829666654
 30
0.0
 10
7.1849842036
 20
8.8320016309
 30
0.0
 10
7.1763482342
 20
8.8336799608
 30
0.0
 10
7.1676287808
 20
8.8346925879
 30
0.0
 10
7.1617843626
 20
8.8349189453
 30
0.0
 10
7.1588639201
 20
8.8349189453
 30
0.0
  0
SPLINE
  5
4BF
100
AcDbEntity
  8
0
100
AcDbSpline
 62
7
  6
CONTINUOUS
 70
0
 71
3
 72
14
 73
10
 74
0
 42
0.0000001
 43
0.0000001
 44
0.0000000001
 40
0.0
 40
0.0
 40
0.0
 40
0.0
 40
0.1049148686
 40
0.2180004209
 40
0.3378049315
 40
0.4630071626
 40
0.5926604647
 40
0.725931178
 40
1.0
 40
1.0
 40
1.0
 40
1.0
 10
7.3234637136
 20
8.5234603544
 30
0.0
 10
7.3227110344
 20
8.5237467756
 30
0.0
 10
7.3211329953
 20
8.5243055026
 30
0.0
 10
7.3186524404
 20
8.5250635492
 30
0.0
 10
7.3159894514
 20
8.5257488393
 30
0.0
 10
7.3131724173
 20
8.5263329364
 30
0.0
 10
7.3102295097
 20
8.52680409
 30
0.0
 10
7.3061334195
 20
8.5272731892
 30
0.0
 10
7.3030042191
 20
8.5274189453
 30
0.0
 10
7.3009004471
 20
8.5274189453
 30
0.0
  0
SPLINE
  5
4C0
100
AcDbEntity
  8
0
100
AcDbSpline
 62
7
  6
CONTINUOUS
 70
0
 71
3
 72
14
 73
10
 74
0
 42
0.0000001
 43
0.0000001
 44
0.0000000001
 40
0.0
 40
0.0
 40
0.0
 40
0.0
 40
0.2749001436
 40
0.4083928728
 40
0.5381173107
 40
0.6632196873
 40
0.7827894497
 40
0.8955468057
 40
1.0
 40
1.0
 40
1.0
 40
1.0
 10
7.3009004471
 20
8.7504189453
 30
0.0
 10
7.3030271346
 20
8.7504189453
 30
0.0
 10
7.3061890522
 20
8.7505683595
 30
0.0
 10
7.3103252661
 20
8.7510475734
 30
0.0
 10
7.3132919285
 20
8.7515275496
 30
0.0
 10
7.3161280826
 20
8.752120453
 30
0.0
 10
7.3188053692
 20
8.7528162341
 30
0.0
 10
7.3212950297
 20
8.7535869545
 30
0.0
 10
7.3228774579
 20
8.7541542172
 30
0.0
 10
7.323631614
 20
8.7544444412
 30
0.0
  0
SPLINE
  5
4C1
100
AcDbEntity
  8
0
100
AcDbSpline
 62
7
  6
CONTINUOUS
 70
0
 71
3
 72
34
 73
30
 74
0
 42
0.0000001
 43
0.0000001
 44
0.0000000001
 40
0.0
 40
0.0
 40
0.0
 40
0.0
 40
0.0262527916
 40
0.0525784214
 40
0.0790626051
 40
0.1057863924
 40
0.1328196685
 40
0.1602254638
 40
0.1880660158
 40
0.2163904692
 40
0.2452393708
 40
0.2746421478
 40
0.3046156275
 40
0.3351650459
 40
0.3979266591
 40
0.4627761855
 40
0.5293753325
 40
0.5632028084
 40
0.5972868127
 40
0.6315573413
 40
0.6659406121
 40
0.7347215481
 40
0.7689897441
 40
0.8030702232
 40
0.8368930771
 40
0.8703913406
 40
0.9035041338
 40
0.9361778095
 40
1.0
 40
1.0
 40
1.0
 40
1.0
 10
7.4384027198
 20
8.8349189453
 30
0.0
 10
7.4349663802
 20
8.8349189453
 30
0.0
 10
7.428079573
 20
8.8345823412
 30
0.0
 10
7.4178250847
 20
8.8330793398
 30
0.0
 10
7.4077008659
 20
8.8305875932
 30
0.0
 10
7.3977674495
 20
8.8271301318
 30
0.0
 10
7.388078826
 20
8.8227373553
 30
0.0
 10
7.3786874644
 20
8.8174382047
 30
0.0
 10
7.3696360077
 20
8.8112735696
 30
0.0
 10
7.3609653045
 20
8.8042803413
 30
0.0
 10
7.352710748
 20
8.7965004741
 30
0.0
 10
7.3449042257
 20
8.7879772029
 30
0.0
 10
7.3375769068
 20
8.7787530576
 30
0.0
 10
7.3284004567
 20
8.7654667685
 30
0.0
 10
7.3183092659
 20
8.7473240555
 30
0.0
 10
7.3086277741
 20
8.7237630774
 30
0.0
 10
7.3026382596
 20
8.7029279578
 30
0.0
 10
7.2991078124
 20
8.6856726147
 30
0.0
 10
7.2971015733
 20
8.6724427621
 30
0.0
 10
7.2957622756
 20
8.6590558144
 30
0.0
 10
7.2948698298
 20
8.6410829378
 30
0.0
 10
7.2953255078
 20
8.6230635667
 30
0.0
 10
7.2971263768
 20
8.6051989079
 30
0.0
 10
7.2991421979
 20
8.5919717924
 30
0.0
 10
7.3018140818
 20
8.5789646002
 30
0.0
 10
7.3051315948
 20
8.5662376656
 30
0.0
 10
7.3090824451
 20
8.5538494647
 30
0.0
 10
7.315120709
 20
8.5379898435
 30
0.0
 10
7.3206154119
 20
8.5265738833
 30
0.0
 10
7.3246996171
 20
8.5192863676
 30
0.0
  0
SPLINE
  5
4C2
100
AcDbEntity
  8
0
100
AcDbSpline
 62
7
  6
CONTINUOUS
 70
0
 71
3
 72
22
 73
18
 74
0
 42
0.0000001
 43
0.0000001
 44
0.0000000001
 40
0.0
 40
0.0
 40
0.0
 40
0.0
 40
0.0691400781
 40
0.1372568596
 40
0.2043378559
 40
0.2703831641
 40
0.3993779084
 40
0.4624548114
 40
0.5246372355
 40
0.5859902705
 40
0.6465936883
 40
0.7065423391
 40
0.7659272837
 40
0.8248477521
 40
0.8834182059
 40
0.9417602288
 40
1.0
 40
1.0
 40
1.0
 40
1.0
 10
7.3246996171
 20
8.5192863676
 30
0.0
 10
7.3263182725
 20
8.5163981738
 30
0.0
 10
7.3296742066
 20
8.5107429035
 30
0.0
 10
7.3350979388
 20
8.5025936784
 30
0.0
 10
7.3408611478
 20
8.4948636328
 30
0.0
 10
7.3489125597
 20
8.4852283789
 30
0.0
 10
7.3576472854
 20
8.4764330081
 30
0.0
 10
7.3670039787
 20
8.4686323642
 30
0.0
 10
7.3742288292
 20
8.4633619857
 30
0.0
 10
7.3816898628
 20
8.4586499501
 30
0.0
 10
7.3893655169
 20
8.454516244
 30
0.0
 10
7.3972322498
 20
8.4509822553
 30
0.0
 10
7.4052618198
 20
8.4480630421
 30
0.0
 10
7.4134250279
 20
8.4457739125
 30
0.0
 10
7.4216918711
 20
8.4441308932
 30
0.0
 10
7.4300287209
 20
8.4431403608
 30
0.0
 10
7.4356138457
 20
8.4429189453
 30
0.0
 10
7.4384027198
 20
8.4429189453
 30
0.0
  0
SPLINE
  5
4C3
100
AcDbEntity
  8
0
100
AcDbSpline
 62
9
  6
CONTINUOUS
 70
0
 71
3
 72
19
 73
15
 74
0
 42
0.0000001
 43
0.0000001
 44
0.0000000001
 40
0.0
 40
0.0
 40
0.0
 40
0.0
 40
0.118030699
 40
0.179312123
 40
0.2418410902
 40
0.305405142
 40
0.3697676333
 40
0.4997916832
 40
0.6298449235
 40
0.6942432092
 40
0.7578564157
 40
0.8204465904
 40
0.881800071
 40
1.0
 40
1.0
 40
1.0
 40
1.0
 10
7.0559695689
 20
8.5076120791
 30
0.0
 10
7.0501555218
 20
8.5167244561
 30
0.0
 10
7.042490761
 20
8.5313481972
 30
0.0
 10
7.0344329907
 20
8.5519896026
 30
0.0
 10
7.0293470654
 20
8.5683948285
 30
0.0
 10
7.0253405086
 20
8.5853840434
 30
0.0
 10
7.021469561
 20
8.6087028265
 30
0.0
 10
7.0195048265
 20
8.6384387037
 30
0.0
 10
7.0213667867
 20
8.6681843937
 30
0.0
 10
7.0251565235
 20
8.6915270617
 30
0.0
 10
7.0291039513
 20
8.7085438267
 30
0.0
 10
7.0341330232
 20
8.7249839882
 30
0.0
 10
7.0421195887
 20
8.7456827144
 30
0.0
 10
7.0497329298
 20
8.7603577728
 30
0.0
 10
7.0555145084
 20
8.7695091218
 30
0.0
  0
SPLINE
  5
4C4
100
AcDbEntity
  8
0
100
AcDbSpline
 62
9
  6
CONTINUOUS
 70
0
 71
3
 72
20
 73
16
 74
0
 42
0.0000001
 43
0.0000001
 44
0.0000000001
 40
0.0
 40
0.0
 40
0.0
 40
0.0
 40
0.0530485696
 40
0.1065314989
 40
0.1607215044
 40
0.215911709
 40
0.2723719871
 40
0.3303094072
 40
0.3898733099
 40
0.451162748
 40
0.5789646581
 40
0.6455304062
 40
0.7137401112
 40
0.8544963971
 40
1.0
 40
1.0
 40
1.0
 40
1.0
 10
7.1731092565
 20
8.8255860099
 30
0.0
 10
7.1695361397
 20
8.8255314876
 30
0.0
 10
7.1623604302
 20
8.8250065674
 30
0.0
 10
7.1517004285
 20
8.8229922097
 30
0.0
 10
7.1411936868
 20
8.8197570175
 30
0.0
 10
7.1309146456
 20
8.8153285459
 30
0.0
 10
7.1209306048
 20
8.8097361748
 30
0.0
 10
7.1113048333
 20
8.8030212943
 30
0.0
 10
7.1021006307
 20
8.7952267998
 30
0.0
 10
7.0903098077
 20
8.7833050402
 30
0.0
 10
7.0797897685
 20
8.7695615316
 30
0.0
 10
7.0706421697
 20
8.7544107598
 30
0.0
 10
7.0621921432
 20
8.7378684453
 30
0.0
 10
7.0535314591
 20
8.7155402439
 30
0.0
 10
7.04883582
 20
8.696781886
 30
0.0
 10
7.0470145029
 20
8.6871509698
 30
0.0
  0
SPLINE
  5
4C5
100
AcDbEntity
  8
0
100
AcDbSpline
 62
9
  6
CONTINUOUS
 70
0
 71
3
 72
10
 73
6
 74
0
 42
0.0000001
 43
0.0000001
 44
0.0000000001
 40
0.0
 40
0.0
 40
0.0
 40
0.0
 40
0.2481575918
 40
0.6231908196
 40
1.0
 40
1.0
 40
1.0
 40
1.0
 10
7.0470145029
 20
8.6871509698
 30
0.0
 10
7.0462535266
 20
8.683127014
 30
0.0
 10
7.0445890791
 20
8.672973795
 30
0.0
 10
7.0429018433
 20
8.6565435896
 30
0.0
 10
7.0425104042
 20
8.6441302208
 30
0.0
 10
7.0425341249
 20
8.6379118848
 30
0.0
  0
SPLINE
  5
4C6
100
AcDbEntity
  8
0
100
AcDbSpline
 62
9
  6
CONTINUOUS
 70
0
 71
3
 72
24
 73
20
 74
0
 42
0.0000001
 43
0.0000001
 44
0.0000000001
 40
0.0
 40
0.0
 40
0.0
 40
0.0
 40
0.0726727886
 40
0.1449803008
 40
0.2165853242
 40
0.2871675928
 40
0.3564335841
 40
0.4241228804
 40
0.4900215649
 40
0.5539656773
 40
0.6158577858
 40
0.675669141
 40
0.7334557937
 40
0.7893573078
 40
0.8166812044
 40
0.8436262427
 40
0.8965384419
 40
0.9485297125
 40
1.0
 40
1.0
 40
1.0
 40
1.0
 10
7.0425341249
 20
8.6379118848
 30
0.0
 10
7.042557322
 20
8.6318308099
 30
0.0
 10
7.0430231875
 20
8.6196966279
 30
0.0
 10
7.0449729862
 20
8.6016642616
 30
0.0
 10
7.0481574959
 20
8.5839848801
 30
0.0
 10
7.0525449678
 20
8.5668271834
 30
0.0
 10
7.0580947795
 20
8.5503537639
 30
0.0
 10
7.0647556063
 20
8.5347212948
 30
0.0
 10
7.0724633812
 20
8.5200773028
 30
0.0
 10
7.0811491214
 20
8.5065623831
 30
0.0
 10
7.0907288786
 20
8.4943033849
 30
0.0
 10
7.1011174305
 20
8.4834197926
 30
0.0
 10
7.1122150516
 20
8.4740157238
 30
0.0
 10
7.1220477637
 20
8.4674393113
 30
0.0
 10
7.1301500722
 20
8.4630304769
 30
0.0
 10
7.1382838089
 20
8.4592402539
 30
0.0
 10
7.148714399
 20
8.4555403894
 30
0.0
 10
7.1615573491
 20
8.4528456112
 30
0.0
 10
7.1702264996
 20
8.4522410153
 30
0.0
 10
7.1745334343
 20
8.4522410153
 30
0.0
  0
SPLINE
  5
4C7
100
AcDbEntity
  8
0
100
AcDbSpline
 62
9
  6
CONTINUOUS
 70
0
 71
3
 72
18
 73
14
 74
0
 42
0.0000001
 43
0.0000001
 44
0.0000000001
 40
0.0
 40
0.0
 40
0.0
 40
0.0
 40
0.0568527043
 40
0.1139440172
 40
0.1713994214
 40
0.2293422991
 40
0.3471611096
 40
0.4684917731
 40
0.5940797777
 40
0.7244036854
 40
0.7914466753
 40
0.8597423875
 40
1.0
 40
1.0
 40
1.0
 40
1.0
 10
7.1759576122
 20
8.4522518808
 30
0.0
 10
7.1782959459
 20
8.4522875614
 30
0.0
 10
7.1829816146
 20
8.4525363094
 30
0.0
 10
7.1899805494
 20
8.4534361326
 30
0.0
 10
7.1969383095
 20
8.4548603313
 30
0.0
 10
7.2061775477
 20
8.4574689033
 30
0.0
 10
7.2175515393
 20
8.4620578881
 30
0.0
 10
7.2306083186
 20
8.4695341286
 30
0.0
 10
7.2430167297
 20
8.4789170607
 30
0.0
 10
7.2526102834
 20
8.4881509348
 30
0.0
 10
7.2598426635
 20
8.4963489102
 30
0.0
 10
7.2668828338
 20
8.5052396689
 30
0.0
 10
7.2716840268
 20
8.5123712694
 30
0.0
 10
7.2746785934
 20
8.5173026799
 30
0.0
  0
SPLINE
  5
4C8
100
AcDbEntity
  8
0
100
AcDbSpline
 62
9
  6
CONTINUOUS
 70
0
 71
3
 72
18
 73
14
 74
0
 42
0.0000001
 43
0.0000001
 44
0.0000000001
 40
0.0
 40
0.0
 40
0.0
 40
0.0
 40
0.140367696
 40
0.2086944823
 40
0.2757522241
 40
0.4060598593
 40
0.5315869612
 40
0.6528373732
 40
0.7705881349
 40
0.8285151203
 40
0.8859737217
 40
0.9430921639
 40
1.0
 40
1.0
 40
1.0
 40
1.0
 10
7.2745992583
 20
8.7606658282
 30
0.0
 10
7.2715674536
 20
8.7656493949
 30
0.0
 10
7.266703157
 20
8.7728527528
 30
0.0
 10
7.2595649847
 20
8.7818230465
 30
0.0
 10
7.2522315529
 20
8.7900835334
 30
0.0
 10
7.2425008387
 20
8.799369757
 30
0.0
 10
7.229912226
 20
8.8087702929
 30
0.0
 10
7.2166675086
 20
8.8162139506
 30
0.0
 10
7.2051351366
 20
8.8207311688
 30
0.0
 10
7.1957735363
 20
8.8232556827
 30
0.0
 10
7.1887255352
 20
8.8246042763
 30
0.0
 10
7.1816389965
 20
8.8254156374
 30
0.0
 10
7.1768983828
 20
8.8255968753
 30
0.0
 10
7.1745334343
 20
8.8255968753
 30
0.0
  0
SPLINE
  5
4C9
100
AcDbEntity
  8
0
100
AcDbSpline
 62
9
  6
CONTINUOUS
 70
0
 71
3
 72
23
 73
19
 74
0
 42
0.0000001
 43
0.0000001
 44
0.0000000001
 40
0.0
 40
0.0
 40
0.0
 40
0.0
 40
0.0576257003
 40
0.1170509291
 40
0.178125555
 40
0.2406518166
 40
0.3043875025
 40
0.3690592698
 40
0.4343682748
 40
0.5
 40
0.5656317252
 40
0.6309407302
 40
0.6956124975
 40
0.7593481834
 40
0.821874445
 40
0.8829490709
 40
0.9423742997
 40
1.0
 40
1.0
 40
1.0
 40
1.0
 10
7.3824409107
 20
8.7587085986
 30
0.0
 10
7.3795895772
 20
8.7547536684
 30
0.0
 10
7.3741790636
 20
8.7464392085
 30
0.0
 10
7.3670984791
 20
8.7331155472
 30
0.0
 10
7.3609854022
 20
8.718868925
 30
0.0
 10
7.355901994
 20
8.7038393458
 30
0.0
 10
7.3518959138
 20
8.6881739674
 30
0.0
 10
7.3490059757
 20
8.6720262113
 30
0.0
 10
7.3472615013
 20
8.655554023
 30
0.0
 10
7.3466771673
 20
8.6389189453
 30
0.0
 10
7.3472615013
 20
8.6222838676
 30
0.0
 10
7.3490059757
 20
8.6058116793
 30
0.0
 10
7.3518959138
 20
8.5896639233
 30
0.0
 10
7.355901994
 20
8.5739985448
 30
0.0
 10
7.3609854022
 20
8.5589689656
 30
0.0
 10
7.3670984791
 20
8.5447223434
 30
0.0
 10
7.3741790636
 20
8.5313986821
 30
0.0
 10
7.3795895772
 20
8.5230842223
 30
0.0
 10
7.3824409107
 20
8.519129292
 30
0.0
  0
SPLINE
  5
4CA
100
AcDbEntity
  8
0
100
AcDbSpline
 62
7
  6
CONTINUOUS
 70
0
 71
3
 72
44
 73
40
 74
0
 42
0.0000001
 43
0.0000001
 44
0.0000000001
 40
0.0
 40
0.0
 40
0.0
 40
0.0
 40
0.0128035591
 40
0.0256896295
 40
0.0517900883
 40
0.0650627633
 40
0.0785071884
 40
0.0921398398
 40
0.1059747368
 40
0.1342882632
 40
0.1635284849
 40
0.1785128387
 40
0.1937391595
 40
0.2249035003
 40
0.2569991989
 40
0.2899670227
 40
0.3237255093
 40
0.3581718053
 40
0.3931873608
 40
0.4286400528
 40
0.5002459524
 40
0.5718376282
 40
0.6072728425
 40
0.6422644838
 40
0.6766809633
 40
0.7104044964
 40
0.7433330851
 40
0.7753863534
 40
0.8065062915
 40
0.8366639212
 40
0.8658600916
 40
0.8941321022
 40
0.9079477651
 40
0.9215624067
 40
0.9349902096
 40
0.9482480209
 40
0.9743250279
 40
0.987202795
 40
1.0
 40
1.0
 40
1.0
 40
1.0
 10
7.4341219556
 20
8.4508082332
 30
0.0
 10
7.4320778575
 20
8.4511035116
 30
0.0
 10
7.4279941981
 20
8.4518283363
 30
0.0
 10
7.4198743267
 20
8.4538103707
 30
0.0
 10
7.4118864795
 20
8.4565833342
 30
0.0
 10
7.4041180749
 20
8.4600905826
 30
0.0
 10
7.3983502065
 20
8.4631149118
 30
0.0
 10
7.3926872573
 20
8.4665104716
 30
0.0
 10
7.3852355779
 20
8.4715608516
 30
0.0
 10
7.3762442366
 20
8.4787920755
 30
0.0
 10
7.3678997361
 20
8.4870223416
 30
0.0
 10
7.3615625074
 20
8.4942238105
 30
0.0
 10
7.3553684197
 20
8.5019510021
 30
0.0
 10
7.3481206874
 20
8.5123527321
 30
0.0
 10
7.3403350416
 20
8.5258004228
 30
0.0
 10
7.3334542723
 20
8.5401972826
 30
0.0
 10
7.3275375334
 20
8.5554226616
 30
0.0
 10
7.3226327435
 20
8.571348417
 30
0.0
 10
7.3187805786
 20
8.5878417334
 30
0.0
 10
7.3150806089
 20
8.6104733907
 30
0.0
 10
7.3132584416
 20
8.6393204983
 30
0.0
 10
7.3151669107
 20
8.6681592891
 30
0.0
 10
7.3189352515
 20
8.6907705943
 30
0.0
 10
7.3228368628
 20
8.7072405098
 30
0.0
 10
7.3277894723
 20
8.7231365004
 30
0.0
 10
7.333751813
 20
8.73832615
 30
0.0
 10
7.3406756927
 20
8.7526813371
 30
0.0
 10
7.3485019668
 20
8.766082595
 30
0.0
 10
7.3571686348
 20
8.77841567
 30
0.0
 10
7.3666019237
 20
8.7895785404
 30
0.0
 10
7.3767259611
 20
8.7994738587
 30
0.0
 10
7.3857394027
 20
8.8066511665
 30
0.0
 10
7.393206001
 20
8.8116566238
 30
0.0
 10
7.3988791084
 20
8.8150182191
 30
0.0
 10
7.4046560765
 20
8.8180078283
 30
0.0
 10
7.4124356262
 20
8.8214685692
 30
0.0
 10
7.4204320956
 20
8.8241935872
 30
0.0
 10
7.4285575034
 20
8.8261264387
 30
0.0
 10
7.4326430542
 20
8.8268266747
 30
0.0
 10
7.4346878554
 20
8.8271096619
 30
0.0
  0
SPLINE
  5
4CB
100
AcDbEntity
  8
0
100
AcDbSpline
 62
9
  6
CONTINUOUS
 70
0
 71
3
 72
37
 73
33
 74
0
 42
0.0000001
 43
0.0000001
 44
0.0000000001
 40
0.0
 40
0.0
 40
0.0
 40
0.0
 40
0.025719912
 40
0.0519500963
 40
0.0788398836
 40
0.1065000686
 40
0.1643520127
 40
0.1946746617
 40
0.2259012659
 40
0.2579956126
 40
0.290897207
 40
0.324527707
 40
0.3587903568
 40
0.3935759847
 40
0.4287634563
 40
0.4642243625
 40
0.4998243882
 40
0.5354267378
 40
0.5708946569
 40
0.6060936063
 40
0.6408950427
 40
0.6751774475
 40
0.7088313331
 40
0.7417593909
 40
0.7738827303
 40
0.8051401177
 40
0.835494553
 40
0.8934092935
 40
0.9210981383
 40
0.9480133738
 40
0.9742645423
 40
1.0
 40
1.0
 40
1.0
 40
1.0
 10
7.4268627698
 20
8.8173931417
 30
0.0
 10
7.4231393811
 20
8.8165236286
 30
0.0
 10
7.415719414
 20
8.8143040698
 30
0.0
 10
7.4049379637
 20
8.8096461539
 30
0.0
 10
7.3944942855
 20
8.8036674804
 30
0.0
 10
7.3809302174
 20
8.7938658353
 30
0.0
 10
7.3685748901
 20
8.7816957963
 30
0.0
 10
7.3576467167
 20
8.7676917706
 30
0.0
 10
7.350010534
 20
8.7560315412
 30
0.0
 10
7.3431315828
 20
8.7434742268
 30
0.0
 10
7.3370560404
 20
8.7301159306
 30
0.0
 10
7.3318340348
 20
8.7160581146
 30
0.0
 10
7.3275013031
 20
8.7014096008
 30
0.0
 10
7.3240944701
 20
8.6862816698
 30
0.0
 10
7.3216357522
 20
8.670791022
 30
0.0
 10
7.3201475205
 20
8.6550558513
 30
0.0
 10
7.3196374459
 20
8.6391971049
 30
0.0
 10
7.3201130729
 20
8.6233362472
 30
0.0
 10
7.3215671054
 20
8.6075947783
 30
0.0
 10
7.3239921355
 20
8.5920936709
 30
0.0
 10
7.3273660237
 20
8.5769512096
 30
0.0
 10
7.3316668138
 20
8.5622841747
 30
0.0
 10
7.3368581103
 20
8.5482039885
 30
0.0
 10
7.3429044121
 20
8.5348196056
 30
0.0
 10
7.3497558187
 20
8.5222326856
 30
0.0
 10
7.357366354
 20
8.5105395171
 30
0.0
 10
7.3682638348
 20
8.4964880572
 30
0.0
 10
7.3805917748
 20
8.4842648096
 30
0.0
 10
7.3941342809
 20
8.4744039773
 30
0.0
 10
7.4045645759
 20
8.4683797783
 30
0.0
 10
7.4153355527
 20
8.4636747841
 30
0.0
 10
7.4227512904
 20
8.4614225049
 30
0.0
 10
7.4264731941
 20
8.4605366225
 30
0.0
  0
SPLINE
  5
4CC
100
AcDbEntity
  8
0
100
AcDbSpline
 62
9
  6
CONTINUOUS
 70
0
 71
3
 72
23
 73
19
 74
0
 42
0.0000001
 43
0.0000001
 44
0.0000000001
 40
0.0
 40
0.0
 40
0.0
 40
0.0
 40
0.0576259591
 40
0.1170506367
 40
0.178125862
 40
0.2406515622
 40
0.3043876588
 40
0.3690592032
 40
0.4343682992
 40
0.5
 40
0.5656317008
 40
0.6309407968
 40
0.6956123412
 40
0.7593484378
 40
0.821874138
 40
0.8829493633
 40
0.9423740409
 40
1.0
 40
1.0
 40
1.0
 40
1.0
 10
7.4120273955
 20
8.4780923437
 30
0.0
 10
7.408199028
 20
8.4834019949
 30
0.0
 10
7.4009361289
 20
8.4945654509
 30
0.0
 10
7.3914283587
 20
8.5124526485
 30
0.0
 10
7.3832225669
 20
8.5315804008
 30
0.0
 10
7.3763965838
 20
8.5517583514
 30
0.0
 10
7.3710185677
 20
8.572790416
 30
0.0
 10
7.3671390512
 20
8.5944700358
 30
0.0
 10
7.3647957387
 20
8.6165850655
 30
0.0
 10
7.3640129256
 20
8.6389189453
 30
0.0
 10
7.3647957387
 20
8.6612528252
 30
0.0
 10
7.3671390512
 20
8.6833678549
 30
0.0
 10
7.3710185677
 20
8.7050474746
 30
0.0
 10
7.3763965838
 20
8.7260795392
 30
0.0
 10
7.3832225669
 20
8.7462574899
 30
0.0
 10
7.3914283587
 20
8.7653852421
 30
0.0
 10
7.4009361289
 20
8.7832724398
 30
0.0
 10
7.408199028
 20
8.7944358957
 30
0.0
 10
7.4120273955
 20
8.7997455469
 30
0.0
  0
SPLINE
  5
4CD
100
AcDbEntity
  8
0
100
AcDbSpline
 62
7
  6
CONTINUOUS
 70
0
 71
3
 72
38
 73
34
 74
0
 42
0.0000001
 43
0.0000001
 44
0.0000000001
 40
0.0
 40
0.0
 40
0.0
 40
0.0
 40
0.0008241159
 40
0.0011064047
 40
0.0024701194
 40
0.004890863
 40
0.0083379423
 40
0.0127764941
 40
0.0181721311
 40
0.0244910781
 40
0.0317002185
 40
0.039767142
 40
0.0486601938
 40
0.0583485278
 40
0.0799911829
 40
0.1044602404
 40
0.1315150923
 40
0.1609184464
 40
0.1924395262
 40
0.2258556039
 40
0.2609541162
 40
0.2975361705
 40
0.3743662935
 40
0.4548272574
 40
0.4959640839
 40
0.537468254
 40
0.6208801629
 40
0.7036779866
 40
0.7444128477
 40
0.7844694526
 40
0.8618140812
 40
0.9341955288
 40
1.0
 40
1.0
 40
1.0
 40
1.0
 10
6.3272624802
 20
8.5195206453
 30
0.0
 10
6.3272740225
 20
8.5195111321
 30
0.0
 10
6.327311462
 20
8.5194809966
 30
0.0
 10
6.3272646158
 20
8.5195191668
 30
0.0
 10
6.3272152408
 20
8.5195553571
 30
0.0
 10
6.327103321
 20
8.5196380243
 30
0.0
 10
6.3269531282
 20
8.5197434322
 30
0.0
 10
6.326753015
 20
8.5198803255
 30
0.0
 10
6.3265088582
 20
8.520041729
 30
0.0
 10
6.3262194638
 20
8.5202270406
 30
0.0
 10
6.3258862424
 20
8.5204333184
 30
0.0
 10
6.3255097078
 20
8.5206584318
 30
0.0
 10
6.3250906669
 20
8.5208999789
 30
0.0
 10
6.3244522675
 20
8.5212541921
 30
0.0
 10
6.3235538089
 20
8.5217220528
 30
0.0
 10
6.3223551182
 20
8.5222940988
 30
0.0
 10
6.3210095941
 20
8.5228837325
 30
0.0
 10
6.3195271938
 20
8.5234779541
 30
0.0
 10
6.3179180589
 20
8.5240640306
 30
0.0
 10
6.316192342
 20
8.5246293514
 30
0.0
 10
6.3143599347
 20
8.5251605693
 30
0.0
 10
6.3117469434
 20
8.5258237578
 30
0.0
 10
6.3082955313
 20
8.5265216694
 30
0.0
 10
6.3047247628
 20
8.5270106811
 30
0.0
 10
6.3017749841
 20
8.5272654105
 30
0.0
 10
6.2987647435
 20
8.5274219181
 30
0.0
 10
6.2949920799
 20
8.5274330168
 30
0.0
 10
6.2912402455
 20
8.5272057157
 30
0.0
 10
6.2882885181
 20
8.5268804331
 30
0.0
 10
6.2854476714
 20
8.5264682346
 30
0.0
 10
6.2820650899
 20
8.5258039505
 30
0.0
 10
6.2782796155
 20
8.5248087053
 30
0.0
 10
6.2758974259
 20
8.524017119
 30
0.0
 10
6.2747787373
 20
8.5235988435
 30
0.0
  0
SPLINE
  5
4CE
100
AcDbEntity
  8
0
100
AcDbSpline
 62
7
  6
CONTINUOUS
 70
0
 71
3
 72
18
 73
14
 74
0
 42
0.0000001
 43
0.0000001
 44
0.0000000001
 40
0.0
 40
0.0
 40
0.0
 40
0.0
 40
0.133837699
 40
0.2644785378
 40
0.3920941291
 40
0.454892195
 40
0.5170736119
 40
0.6397495287
 40
0.7607366192
 40
0.8207889419
 40
0.8806167296
 40
0.940318067
 40
1.0
 40
1.0
 40
1.0
 40
1.0
 10
6.3229456712
 20
8.5171052367
 30
0.0
 10
6.3262250972
 20
8.5115730605
 30
0.0
 10
6.3332501996
 20
8.5009507288
 30
0.0
 10
6.3452757315
 20
8.4864008228
 30
0.0
 10
6.3564257661
 20
8.4756809954
 30
0.0
 10
6.3659202961
 20
8.4681079776
 30
0.0
 10
6.3756818203
 20
8.4612894251
 30
0.0
 10
6.388535291
 20
8.4540674361
 30
0.0
 10
6.4021806847
 20
8.4487421789
 30
0.0
 10
6.4133657847
 20
8.4457324317
 30
0.0
 10
6.4218504335
 20
8.4441137464
 30
0.0
 10
6.4304139846
 20
8.443137222
 30
0.0
 10
6.4361529404
 20
8.4429189453
 30
0.0
 10
6.4390207653
 20
8.4429189453
 30
0.0
  0
SPLINE
  5
4CF
100
AcDbEntity
  8
0
100
AcDbSpline
 62
7
  6
CONTINUOUS
 70
0
 71
3
 72
18
 73
14
 74
0
 42
0.0000001
 43
0.0000001
 44
0.0000000001
 40
0.0
 40
0.0
 40
0.0
 40
0.0
 40
0.0596651029
 40
0.119348412
 40
0.1791593065
 40
0.2391974333
 40
0.3601626221
 40
0.4828276864
 40
0.5450089691
 40
0.6078105984
 40
0.7354447352
 40
0.8661182351
 40
1.0
 40
1.0
 40
1.0
 40
1.0
 10
6.4390207653
 20
8.8349189453
 30
0.0
 10
6.4361432506
 20
8.8349189453
 30
0.0
 10
6.4303849454
 20
8.83469922
 30
0.0
 10
6.4217928355
 20
8.8337161496
 30
0.0
 10
6.4132804312
 20
8.83208653
 30
0.0
 10
6.4020594224
 20
8.8290566482
 30
0.0
 10
6.3883723194
 20
8.8236961071
 30
0.0
 10
6.3754846632
 20
8.816427515
 30
0.0
 10
6.3657003664
 20
8.8095660301
 30
0.0
 10
6.3561854886
 20
8.8019454855
 30
0.0
 10
6.3450163887
 20
8.7911597598
 30
0.0
 10
6.3329793616
 20
8.7765236116
 30
0.0
 10
6.3259543476
 20
8.7658408114
 30
0.0
 10
6.3226768021
 20
8.7602777005
 30
0.0
  0
SPLINE
  5
4D0
100
AcDbEntity
  8
0
100
AcDbSpline
 62
7
  6
CONTINUOUS
 70
0
 71
3
 72
26
 73
22
 74
0
 42
0.0000001
 43
0.0000001
 44
0.0000000001
 40
0.0
 40
0.0
 40
0.0
 40
0.0
 40
0.0270671112
 40
0.0541562926
 40
0.0813094288
 40
0.1085664425
 40
0.163525761
 40
0.1913375707
 40
0.2194068403
 40
0.2764280721
 40
0.3348458633
 40
0.394828784
 40
0.4564776127
 40
0.5198212942
 40
0.5848205311
 40
0.6513690194
 40
0.7193011561
 40
0.7883943062
 40
0.8584061054
 40
0.9290691561
 40
1.0
 40
1.0
 40
1.0
 40
1.0
 10
6.1558050149
 20
8.4429828827
 30
0.0
 10
6.1582561362
 20
8.4428976113
 30
0.0
 10
6.1631680587
 20
8.4428979446
 30
0.0
 10
6.1705233321
 20
8.4434105976
 30
0.0
 10
6.1778435646
 20
8.4444310452
 30
0.0
 10
6.1875482203
 20
8.4464684332
 30
0.0
 10
6.1970792561
 20
8.4495110343
 30
0.0
 10
6.2063106693
 20
8.4534803581
 30
0.0
 10
6.2154387806
 20
8.4581133433
 30
0.0
 10
6.2264652475
 20
8.4650705067
 30
0.0
 10
6.2388565704
 20
8.4750783008
 30
0.0
 10
6.2503807051
 20
8.4866695001
 30
0.0
 10
6.2609445107
 20
8.4997171952
 30
0.0
 10
6.2704703872
 20
8.5140863691
 30
0.0
 10
6.2788838701
 20
8.5296380817
 30
0.0
 10
6.2861218392
 20
8.5462231329
 30
0.0
 10
6.2921258706
 20
8.5636849587
 30
0.0
 10
6.2968489636
 20
8.5818590897
 30
0.0
 10
6.3002519537
 20
8.6005771179
 30
0.0
 10
6.3023027582
 20
8.6196569923
 30
0.0
 10
6.3027611863
 20
8.6324917622
 30
0.0
 10
6.3027611863
 20
8.6389189453
 30
0.0
  0
SPLINE
  5
4D1
100
AcDbEntity
  8
0
100
AcDbSpline
 62
7
  6
CONTINUOUS
 70
0
 71
3
 72
26
 73
22
 74
0
 42
0.0000001
 43
0.0000001
 44
0.0000000001
 40
0.0
 40
0.0
 40
0.0
 40
0.0
 40
0.0709354879
 40
0.1416026198
 40
0.211617729
 40
0.280713509
 40
0.3486473348
 40
0.41519638
 40
0.4801952302
 40
0.5435376514
 40
0.6051845102
 40
0.6651648948
 40
0.6945701115
 40
0.7236035955
 40
0.78062239
 40
0.8086911137
 40
0.8365023355
 40
0.8914609972
 40
0.9458408825
 40
0.9729310891
 40
1.0
 40
1.0
 40
1.0
 40
1.0
 10
6.3027611863
 20
8.6389189453
 30
0.0
 10
6.3027611863
 20
8.6453482804
 30
0.0
 10
6.3023024564
 20
8.6581873014
 30
0.0
 10
6.300250293
 20
8.6772733362
 30
0.0
 10
6.2968450955
 20
8.6959971074
 30
0.0
 10
6.2921189532
 20
8.7141763996
 30
0.0
 10
6.2861111825
 20
8.7316426783
 30
0.0
 10
6.2788686959
 20
8.7482312938
 30
0.0
 10
6.2704502066
 20
8.7637855582
 30
0.0
 10
6.2609185555
 20
8.7781563511
 30
0.0
 10
6.2503492959
 20
8.7912038518
 30
0.0
 10
6.2406748054
 20
8.8009278942
 30
0.0
 10
6.2325015027
 20
8.8078926095
 30
0.0
 10
6.2241629081
 20
8.8142221959
 30
0.0
 10
6.2153880022
 20
8.8197541407
 30
0.0
 10
6.2062557299
 20
8.8243831849
 30
0.0
 10
6.1970192116
 20
8.8283489641
 30
0.0
 10
6.1851386289
 20
8.8321352059
 30
0.0
 10
6.1729154549
 20
8.8342649751
 30
0.0
 10
6.1630949977
 20
8.8349427306
 30
0.0
 10
6.1581813055
 20
8.8349393055
 30
0.0
 10
6.1557294239
 20
8.8348522138
 30
0.0
  0
SPLINE
  5
4D2
100
AcDbEntity
  8
0
100
AcDbSpline
 62
7
  6
CONTINUOUS
 70
0
 71
3
 72
24
 73
20
 74
0
 42
0.0000001
 43
0.0000001
 44
0.0000000001
 40
0.0
 40
0.0
 40
0.0
 40
0.0
 40
0.0593456867
 40
0.1245707568
 40
0.1944292298
 40
0.2677202433
 40
0.3432811667
 40
0.4200143415
 40
0.4968398994
 40
0.5726610951
 40
0.6098580042
 40
0.6463945382
 40
0.7168979953
 40
0.7829696577
 40
0.8433438409
 40
0.8967102261
 40
0.9416407778
 40
0.9765904019
 40
1.0
 40
1.0
 40
1.0
 40
1.0
 10
6.2742991839
 20
8.7544239618
 30
0.0
 10
6.2753019939
 20
8.7540372025
 30
0.0
 10
6.2774324938
 20
8.7532899582
 30
0.0
 10
6.2808239037
 20
8.7523342865
 30
0.0
 10
6.2845134458
 20
8.7515306489
 30
0.0
 10
6.2884283892
 20
8.7509132089
 30
0.0
 10
6.2924978296
 20
8.7505218012
 30
0.0
 10
6.2966476802
 20
8.7503832342
 30
0.0
 10
6.3008028975
 20
8.7504882931
 30
0.0
 10
6.3042312954
 20
8.7507769209
 30
0.0
 10
6.3069172324
 20
8.7511295064
 30
0.0
 10
6.3094955566
 20
8.7515515198
 30
0.0
 10
6.3125657352
 20
8.7521965835
 30
0.0
 10
6.3160098875
 20
8.753131814
 30
0.0
 10
6.319098722
 20
8.754170198
 30
0.0
 10
6.3217607207
 20
8.7552575816
 30
0.0
 10
6.3239392172
 20
8.7562986437
 30
0.0
 10
6.3255799762
 20
8.7571995364
 30
0.0
 10
6.3264727945
 20
8.7577667451
 30
0.0
 10
6.3268220141
 20
8.7580071539
 30
0.0
  0
SPLINE
  5
4D3
100
AcDbEntity
  8
0
100
AcDbSpline
 62
9
  6
CONTINUOUS
 70
0
 71
3
 72
15
 73
11
 74
0
 42
0.0000001
 43
0.0000001
 44
0.0000000001
 40
0.0
 40
0.0
 40
0.0
 40
0.0
 40
0.1312218409
 40
0.2618897
 40
0.3912326684
 40
0.518693316
 40
0.6437480768
 40
0.765899204
 40
0.8847488654
 40
1.0
 40
1.0
 40
1.0
 40
1.0
 10
6.2510124204
 20
8.6389189453
 30
0.0
 10
6.2510124204
 20
8.6444701709
 30
0.0
 10
6.2506225628
 20
8.6555530968
 30
0.0
 10
6.2488792643
 20
8.6720250573
 30
0.0
 10
6.2459889244
 20
8.6881746122
 30
0.0
 10
6.2419823978
 20
8.7038394192
 30
0.0
 10
6.2368993027
 20
8.718868808
 30
0.0
 10
6.2307862717
 20
8.7331156092
 30
0.0
 10
6.2237055735
 20
8.746439249
 30
0.0
 10
6.2182950975
 20
8.7547536757
 30
0.0
 10
6.215443776
 20
8.7587086003
 30
0.0
  0
SPLINE
  5
4D4
100
AcDbEntity
  8
0
100
AcDbSpline
 62
7
  6
CONTINUOUS
 70
0
 71
3
 72
23
 73
19
 74
0
 42
0.0000001
 43
0.0000001
 44
0.0000000001
 40
0.0
 40
0.0
 40
0.0
 40
0.0
 40
0.0718194167
 40
0.1433801241
 40
0.2143137931
 40
0.2843528695
 40
0.3532450345
 40
0.4207442582
 40
0.486645599
 40
0.5507868193
 40
0.6130544876
 40
0.6733869789
 40
0.7317900046
 40
0.7883362929
 40
0.843173511
 40
0.8965239517
 40
0.9486805897
 40
1.0
 40
1.0
 40
1.0
 40
1.0
 10
6.2838793214
 20
8.6389189453
 30
0.0
 10
6.2838793214
 20
8.6331079957
 30
0.0
 10
6.2835001982
 20
8.6215034968
 30
0.0
 10
6.2818039032
 20
8.6042344634
 30
0.0
 10
6.2789891839
 20
8.5872569732
 30
0.0
 10
6.2750824462
 20
8.5707185898
 30
0.0
 10
6.2701165418
 20
8.5547567983
 30
0.0
 10
6.2641320027
 20
8.5395065064
 30
0.0
 10
6.2571798314
 20
8.5250966827
 30
0.0
 10
6.2493161472
 20
8.5116499806
 30
0.0
 10
6.2406087212
 20
8.4992787431
 30
0.0
 10
6.2311268089
 20
8.4880901849
 30
0.0
 10
6.220951417
 20
8.4781781331
 30
0.0
 10
6.2101647305
 20
8.4696301338
 30
0.0
 10
6.1988578762
 20
8.4625201383
 30
0.0
 10
6.1871245172
 20
8.4569125978
 30
0.0
 10
6.1750673631
 20
8.4528603669
 30
0.0
 10
6.166831418
 20
8.451210842
 30
0.0
 10
6.1627155386
 20
8.4506622189
 30
0.0
  0
SPLINE
  5
4D5
100
AcDbEntity
  8
0
100
AcDbSpline
 62
7
  6
CONTINUOUS
 70
0
 71
3
 72
23
 73
19
 74
0
 42
0.0000001
 43
0.0000001
 44
0.0000000001
 40
0.0
 40
0.0
 40
0.0
 40
0.0
 40
0.0513199782
 40
0.1034817187
 40
0.1568402433
 40
0.211686977
 40
0.2682428768
 40
0.3266544679
 40
0.3869936466
 40
0.449265551
 40
0.5134082425
 40
0.5793082157
 40
0.646803422
 40
0.7156888998
 40
0.7857191308
 40
0.8566428562
 40
0.9281928084
 40
1.0
 40
1.0
 40
1.0
 40
1.0
 10
6.162911229
 20
8.8271493985
 30
0.0
 10
6.1670226745
 20
8.8265927555
 30
0.0
 10
6.175249019
 20
8.8249281554
 30
0.0
 10
6.1872900856
 20
8.8208573663
 30
0.0
 10
6.1990065376
 20
8.8152349543
 30
0.0
 10
6.2102961142
 20
8.8081139284
 30
0.0
 10
6.221065451
 20
8.799558579
 30
0.0
 10
6.2312238133
 20
8.7896428164
 30
0.0
 10
6.2406892839
 20
8.7784539651
 30
0.0
 10
6.2493812098
 20
8.766085691
 30
0.0
 10
6.2572305191
 20
8.7526448927
 30
0.0
 10
6.2641698122
 20
8.7382436833
 30
0.0
 10
6.2701429949
 20
8.7230043186
 30
0.0
 10
6.2750994746
 20
8.7070555057
 30
0.0
 10
6.2789986531
 20
8.6905316652
 30
0.0
 10
6.2818079526
 20
8.6735698947
 30
0.0
 10
6.2835009033
 20
8.6563173938
 30
0.0
 10
6.2838793214
 20
8.6447241871
 30
0.0
 10
6.2838793214
 20
8.6389189453
 30
0.0
  0
SPLINE
  5
4D6
100
AcDbEntity
  8
0
100
AcDbSpline
 62
9
  6
CONTINUOUS
 70
0
 71
3
 72
22
 73
18
 74
0
 42
0.0000001
 43
0.0000001
 44
0.0000000001
 40
0.0
 40
0.0
 40
0.0
 40
0.0
 40
0.0711817347
 40
0.1421462086
 40
0.2125464684
 40
0.2821319595
 40
0.3506797439
 40
0.4179685761
 40
0.4837988143
 40
0.5480145815
 40
0.6104963308
 40
0.6711709923
 40
0.7869299753
 40
0.842272469
 40
0.8960736744
 40
0.9485550047
 40
1.0
 40
1.0
 40
1.0
 40
1.0
 10
6.278083053
 20
8.6389189453
 30
0.0
 10
6.278083053
 20
8.6442123119
 30
0.0
 10
6.2777537663
 20
8.6547857883
 30
0.0
 10
6.2762819166
 20
8.6705327989
 30
0.0
 10
6.2738373525
 20
8.6860391389
 30
0.0
 10
6.2704427439
 20
8.7011816207
 30
0.0
 10
6.2661213467
 20
8.715845601
 30
0.0
 10
6.2609094292
 20
8.7299204409
 30
0.0
 10
6.2548422503
 20
8.7432964419
 30
0.0
 10
6.2479700467
 20
8.7558717477
 30
0.0
 10
6.2403391563
 20
8.7675504287
 30
0.0
 10
6.2294157386
 20
8.781578888
 30
0.0
 10
6.2170623587
 20
8.7937732186
 30
0.0
 10
6.2034972864
 20
8.8035987826
 30
0.0
 10
6.193051224
 20
8.8095938704
 30
0.0
 10
6.1822665175
 20
8.8142664205
 30
0.0
 10
6.1748439203
 20
8.816495911
 30
0.0
 10
6.1711195005
 20
8.8173702006
 30
0.0
  0
SPLINE
  5
4D7
100
AcDbEntity
  8
0
100
AcDbSpline
 62
9
  6
CONTINUOUS
 70
0
 71
3
 72
22
 73
18
 74
0
 42
0.0000001
 43
0.0000001
 44
0.0000000001
 40
0.0
 40
0.0
 40
0.0
 40
0.0
 40
0.0514424912
 40
0.1039193076
 40
0.157714646
 40
0.2130508382
 40
0.3287980556
 40
0.3894685571
 40
0.4519477174
 40
0.5161626666
 40
0.5819939507
 40
0.649285634
 40
0.7178377644
 40
0.7874291748
 40
0.8578370733
 40
0.9288101365
 40
1.0
 40
1.0
 40
1.0
 40
1.0
 10
6.1710207616
 20
8.4604445734
 30
0.0
 10
6.1747476375
 20
8.4613151698
 30
0.0
 10
6.1821754348
 20
8.4635378793
 30
0.0
 10
6.1929684942
 20
8.4682022405
 30
0.0
 10
6.2034231958
 20
8.4741908406
 30
0.0
 10
6.2170000386
 20
8.4840101503
 30
0.0
 10
6.2293649705
 20
8.4962019282
 30
0.0
 10
6.2402989119
 20
8.5102306956
 30
0.0
 10
6.2479374637
 20
8.5219112899
 30
0.0
 10
6.2548167785
 20
8.5344899404
 30
0.0
 10
6.2608903803
 20
8.5478706174
 30
0.0
 10
6.2661079323
 20
8.561951303
 30
0.0
 10
6.2704341063
 20
8.5766221393
 30
0.0
 10
6.2738325164
 20
8.5917723639
 30
0.0
 10
6.2762798543
 20
8.6072871589
 30
0.0
 10
6.2777533624
 20
8.6230430528
 30
0.0
 10
6.278083053
 20
8.6336225725
 30
0.0
 10
6.278083053
 20
8.6389189453
 30
0.0
  0
SPLINE
  5
4D8
100
AcDbEntity
  8
0
100
AcDbSpline
 62
9
  6
CONTINUOUS
 70
0
 71
3
 72
13
 73
9
 74
0
 42
0.0000001
 43
0.0000001
 44
0.0000000001
 40
0.0
 40
0.0
 40
0.0
 40
0.0
 40
0.128396394
 40
0.2565283624
 40
0.4472719375
 40
0.6353533356
 40
0.8198831793
 40
1.0
 40
1.0
 40
1.0
 40
1.0
 10
6.5553447983
 20
8.640933037
 30
0.0
 10
6.5553109899
 20
8.6453643129
 30
0.0
 10
6.5550195105
 20
8.6542177545
 30
0.0
 10
6.5537350283
 20
8.669606792
 30
0.0
 10
6.5511713702
 20
8.6869334224
 30
0.0
 10
6.546829914
 20
8.7059067565
 30
0.0
 10
6.5410840926
 20
8.724118783
 30
0.0
 10
6.5362950331
 20
8.7357774253
 30
0.0
 10
6.5336759528
 20
8.7414152216
 30
0.0
  0
SPLINE
  5
4D9
100
AcDbEntity
  8
0
100
AcDbSpline
 62
9
  6
CONTINUOUS
 70
0
 71
3
 72
31
 73
27
 74
0
 42
0.0000001
 43
0.0000001
 44
0.0000000001
 40
0.0
 40
0.0
 40
0.0
 40
0.0
 40
0.0721235037
 40
0.141710148
 40
0.2086264628
 40
0.2410924916
 40
0.2729036507
 40
0.3346289474
 40
0.3646579872
 40
0.3941875755
 40
0.4232825114
 40
0.4520154979
 40
0.4804664579
 40
0.5087226723
 40
0.5368750208
 40
0.5650169501
 40
0.593242489
 40
0.6216430404
 40
0.65030686
 40
0.679315893
 40
0.708744128
 40
0.7386583746
 40
0.800123312
 40
0.8640819688
 40
0.9307019924
 40
1.0
 40
1.0
 40
1.0
 40
1.0
 10
6.5336759528
 20
8.7414152216
 30
0.0
 10
6.5309278552
 20
8.7473307388
 30
0.0
 10
6.5249747124
 20
8.7587083363
 30
0.0
 10
6.5145393365
 20
8.774467228
 30
0.0
 10
6.5047220353
 20
8.7862268558
 30
0.0
 10
6.496315609
 20
8.7946098865
 30
0.0
 10
6.4877557877
 20
8.8021403034
 30
0.0
 10
6.478655509
 20
8.8086967364
 30
0.0
 10
6.4691175628
 20
8.814128838
 30
0.0
 10
6.4618721438
 20
8.8175799528
 30
0.0
 10
6.4544966685
 20
8.820432845
 30
0.0
 10
6.447015616
 20
8.8226787491
 30
0.0
 10
6.4394537415
 20
8.8243074889
 30
0.0
 10
6.4318371458
 20
8.8253146856
 30
0.0
 10
6.4241916429
 20
8.8256976094
 30
0.0
 10
6.4165432222
 20
8.8254525883
 30
0.0
 10
6.4089181102
 20
8.8245819685
 30
0.0
 10
6.4013419574
 20
8.8230896593
 30
0.0
 10
6.3938409329
 20
8.8209787175
 30
0.0
 10
6.3864402583
 20
8.8182580822
 30
0.0
 10
6.3791640425
 20
8.8149377219
 30
0.0
 10
6.3695784176
 20
8.8096779838
 30
0.0
 10
6.3580187386
 20
8.8016095239
 30
0.0
 10
6.3451744405
 20
8.789852041
 30
0.0
 10
6.3333875732
 20
8.7760949102
 30
0.0
 10
6.3264661955
 20
8.765903135
 30
0.0
 10
6.3232129287
 20
8.7605465095
 30
0.0
  0
SPLINE
  5
4DA
100
AcDbEntity
  8
0
100
AcDbSpline
 62
9
  6
CONTINUOUS
 70
0
 71
3
 72
14
 73
10
 74
0
 42
0.0000001
 43
0.0000001
 44
0.0000000001
 40
0.0
 40
0.0
 40
0.0
 40
0.0
 40
0.1306449893
 40
0.2607926302
 40
0.3897523996
 40
0.5170210798
 40
0.6421200423
 40
0.7645885481
 40
1.0
 40
1.0
 40
1.0
 40
1.0
 10
6.5776136927
 20
8.6389189453
 30
0.0
 10
6.5776136927
 20
8.6327689948
 30
0.0
 10
6.5772041255
 20
8.6204885954
 30
0.0
 10
6.5753714512
 20
8.6022200937
 30
0.0
 10
6.5723313136
 20
8.5842730316
 30
0.0
 10
6.5681133158
 20
8.5668106192
 30
0.0
 10
6.5627534418
 20
8.5499808993
 30
0.0
 10
6.5542639803
 20
8.528877161
 30
0.0
 10
6.5461819656
 20
8.5139825233
 30
0.0
 10
6.540052165
 20
8.5047505326
 30
0.0
  0
SPLINE
  5
4DB
100
AcDbEntity
  8
0
100
AcDbSpline
 62
9
  6
CONTINUOUS
 70
0
 71
3
 72
15
 73
11
 74
0
 42
0.0000001
 43
0.0000001
 44
0.0000000001
 40
0.0
 40
0.0
 40
0.0
 40
0.0
 40
0.1312569008
 40
0.2619436122
 40
0.3913088794
 40
0.5187989649
 40
0.6438798178
 40
0.7053697125
 40
0.7660799987
 40
1.0
 40
1.0
 40
1.0
 40
1.0
 10
6.2336107061
 20
8.6389189453
 30
0.0
 10
6.2336107061
 20
8.6314655379
 30
0.0
 10
6.2330876194
 20
8.6165858226
 30
0.0
 10
6.2307465738
 20
8.5944712749
 30
0.0
 10
6.2268663964
 20
8.5727896025
 30
0.0
 10
6.2214872224
 20
8.5517589051
 30
0.0
 10
6.2157679032
 20
8.5348468665
 30
0.0
 10
6.2104805719
 20
8.5218336914
 30
0.0
 10
6.2021159899
 20
8.5034242112
 30
0.0
 10
6.193625282
 20
8.4888672376
 30
0.0
 10
6.1858573687
 20
8.4780922302
 30
0.0
  0
SPLINE
  5
4DC
100
AcDbEntity
  8
0
100
AcDbSpline
 62
9
  6
CONTINUOUS
 70
0
 71
3
 72
35
 73
31
 74
0
 42
0.0000001
 43
0.0000001
 44
0.0000000001
 40
0.0
 40
0.0
 40
0.0
 40
0.0
 40
0.032989359
 40
0.0651544907
 40
0.0964825119
 40
0.1118377262
 40
0.1269886243
 40
0.1566875989
 40
0.1856358683
 40
0.2139052128
 40
0.2415882397
 40
0.2687985993
 40
0.2956657331
 40
0.3223333111
 40
0.3489519067
 40
0.3756747842
 40
0.4026503365
 40
0.4300180678
 40
0.4579015085
 40
0.4864076451
 40
0.515620924
 40
0.545605849
 40
0.5764038538
 40
0.6404581301
 40
0.7077669321
 40
0.7779957034
 40
0.8505893997
 40
0.9248578161
 40
0.9623907905
 40
1.0
 40
1.0
 40
1.0
 40
1.0
 10
6.3233429425
 20
8.5170775611
 30
0.0
 10
6.3254973571
 20
8.5135409463
 30
0.0
 10
6.3299898389
 20
8.5066969689
 30
0.0
 10
6.3373481838
 20
8.4970643902
 30
0.0
 10
6.3439404955
 20
8.4896666429
 30
0.0
 10
6.3494444946
 20
8.4841908166
 30
0.0
 10
6.3550164937
 20
8.4790824084
 30
0.0
 10
6.3622330487
 20
8.4732539881
 30
0.0
 10
6.3713064916
 20
8.4671683187
 30
0.0
 10
6.3806846568
 20
8.4620712531
 30
0.0
 10
6.390314802
 20
8.4579969082
 30
0.0
 10
6.4001395836
 20
8.4549664548
 30
0.0
 10
6.4101027961
 20
8.4530032047
 30
0.0
 10
6.4201445648
 20
8.452115752
 30
0.0
 10
6.4302056197
 20
8.4523126815
 30
0.0
 10
6.4402256869
 20
8.4535913629
 30
0.0
 10
6.4501455926
 20
8.4559432323
 30
0.0
 10
6.4599060894
 20
8.4593553204
 30
0.0
 10
6.4694515442
 20
8.4638031936
 30
0.0
 10
6.4787249375
 20
8.4692633773
 30
0.0
 10
6.4876753024
 20
8.4756991716
 30
0.0
 10
6.4962499932
 20
8.4830758451
 30
0.0
 10
6.5072601085
 20
8.4942479993
 30
0.0
 10
6.519785846
 20
8.5103991201
 30
0.0
 10
6.5323833565
 20
8.5324295415
 30
0.0
 10
6.5424808404
 20
8.5568709538
 30
0.0
 10
6.5498570459
 20
8.5831656328
 30
0.0
 10
6.5535889883
 20
8.6060615435
 30
0.0
 10
6.5550983863
 20
8.6247630224
 30
0.0
 10
6.5553524814
 20
8.6341978628
 30
0.0
 10
6.5553524814
 20
8.6389189453
 30
0.0
  0
SPLINE
  5
4DD
100
AcDbEntity
  8
0
100
AcDbSpline
 62
9
  6
CONTINUOUS
 70
0
 71
3
 72
15
 73
11
 74
0
 42
0.0000001
 43
0.0000001
 44
0.0000000001
 40
0.0
 40
0.0
 40
0.0
 40
0.0
 40
0.2339200013
 40
0.2946302875
 40
0.3561201822
 40
0.4812010351
 40
0.6086911206
 40
0.7380563878
 40
0.8687430992
 40
1.0
 40
1.0
 40
1.0
 40
1.0
 10
6.1858573687
 20
8.7997456605
 30
0.0
 10
6.193625282
 20
8.7889706531
 30
0.0
 10
6.2021159899
 20
8.7744136794
 30
0.0
 10
6.2104805719
 20
8.7560041993
 30
0.0
 10
6.2157679032
 20
8.7429910241
 30
0.0
 10
6.2214872224
 20
8.7260789856
 30
0.0
 10
6.2268663964
 20
8.7050482882
 30
0.0
 10
6.2307465738
 20
8.6833666157
 30
0.0
 10
6.2330876194
 20
8.661252068
 30
0.0
 10
6.2336107061
 20
8.6463723528
 30
0.0
 10
6.2336107061
 20
8.6389189453
 30
0.0
  0
SPLINE
  5
4DE
100
AcDbEntity
  8
0
100
AcDbSpline
 62
9
  6
CONTINUOUS
 70
0
 71
3
 72
15
 73
11
 74
0
 42
0.0000001
 43
0.0000001
 44
0.0000000001
 40
0.0
 40
0.0
 40
0.0
 40
0.0
 40
0.1152511346
 40
0.234100796
 40
0.3562519232
 40
0.481306684
 40
0.6087673316
 40
0.7381103
 40
0.8687781591
 40
1.0
 40
1.0
 40
1.0
 40
1.0
 10
6.215443776
 20
8.5191292903
 30
0.0
 10
6.2182950975
 20
8.523084215
 30
0.0
 10
6.2237055735
 20
8.5313986417
 30
0.0
 10
6.2307862717
 20
8.5447222815
 30
0.0
 10
6.2368993027
 20
8.5589690826
 30
0.0
 10
6.2419823978
 20
8.5739984714
 30
0.0
 10
6.2459889244
 20
8.5896632784
 30
0.0
 10
6.2488792643
 20
8.6058128334
 30
0.0
 10
6.2506225628
 20
8.6222847939
 30
0.0
 10
6.2510124204
 20
8.6333677198
 30
0.0
 10
6.2510124204
 20
8.6389189453
 30
0.0
  0
SPLINE
  5
4DF
100
AcDbEntity
  8
0
100
AcDbSpline
 62
9
  6
CONTINUOUS
 70
0
 71
3
 72
14
 73
10
 74
0
 42
0.0000001
 43
0.0000001
 44
0.0000000001
 40
0.0
 40
0.0
 40
0.0
 40
0.0
 40
0.2357868309
 40
0.3582951127
 40
0.4833580042
 40
0.6105389993
 40
0.7393891677
 40
0.86943017
 40
1.0
 40
1.0
 40
1.0
 40
1.0
 10
6.5408694729
 20
8.7718457157
 30
0.0
 10
6.5467808668
 20
8.7627872133
 30
0.0
 10
6.5545887477
 20
8.7482196137
 30
0.0
 10
6.5628263374
 20
8.7276208407
 30
0.0
 10
6.568047255
 20
8.7112239352
 30
0.0
 10
6.5721843658
 20
8.6942243842
 30
0.0
 10
6.5752047899
 20
8.6767591226
 30
0.0
 10
6.5770801127
 20
8.6589791297
 30
0.0
 10
6.5775599275
 20
8.6470233201
 30
0.0
 10
6.577605626
 20
8.6410336139
 30
0.0
  0
SPLINE
  5
4E0
100
AcDbEntity
  8
0
100
AcDbSpline
 62
7
  6
CONTINUOUS
 70
0
 71
3
 72
22
 73
18
 74
0
 42
0.0000001
 43
0.0000001
 44
0.0000000001
 40
0.0
 40
0.0
 40
0.0
 40
0.0
 40
0.1564025136
 40
0.3096154195
 40
0.3840444997
 40
0.4565179136
 40
0.5266607859
 40
0.594119297
 40
0.658550284
 40
0.7196302291
 40
0.777048109
 40
0.8305195445
 40
0.8797759521
 40
0.9245799791
 40
0.9647140892
 40
0.9829735912
 40
1.0
 40
1.0
 40
1.0
 40
1.0
 10
10.7989423427
 20
9.5336845533
 30
0.0
 10
10.7864308324
 20
9.5336845533
 30
0.0
 10
10.7616627076
 20
9.5338381769
 30
0.0
 10
10.7309453714
 20
9.5344169964
 30
0.0
 10
10.7069474348
 20
9.5351147019
 30
0.0
 10
10.6895959575
 20
9.5357424601
 30
0.0
 10
10.6728067799
 20
9.5364766912
 30
0.0
 10
10.6566665548
 20
9.5373132153
 30
0.0
 10
10.6412579593
 20
9.5382479495
 30
0.0
 10
10.6266603323
 20
9.5392755657
 30
0.0
 10
10.6129485359
 20
9.5403909787
 30
0.0
 10
10.600193234
 20
9.5415877516
 30
0.0
 10
10.5884595826
 20
9.5428597509
 30
0.0
 10
10.5778079713
 20
9.544199557
 30
0.0
 10
10.5696396251
 20
9.5454011704
 30
0.0
 10
10.5636897619
 20
9.5464019735
 30
0.0
 10
10.5609135251
 20
9.546912984
 30
0.0
 10
10.559576322
 20
9.5471718937
 30
0.0
  0
SPLINE
  5
4E1
100
AcDbEntity
  8
0
100
AcDbSpline
 62
7
  6
CONTINUOUS
 70
0
 71
3
 72
22
 73
18
 74
0
 42
0.0000001
 43
0.0000001
 44
0.0000000001
 40
0.0
 40
0.0
 40
0.0
 40
0.0
 40
0.0170250017
 40
0.0352831689
 40
0.0754149289
 40
0.1202170077
 40
0.1694718273
 40
0.2229420377
 40
0.2803590678
 40
0.3414385784
 40
0.405869539
 40
0.4733284905
 40
0.5434722107
 40
0.6159468155
 40
0.6903772841
 40
0.8435938112
 40
1.0
 40
1.0
 40
1.0
 40
1.0
 10
11.038313999
 20
9.5471729853
 30
0.0
 10
11.0369768811
 20
9.5469140565
 30
0.0
 10
11.0342008055
 20
9.546403009
 30
0.0
 10
11.0282512217
 20
9.5454021295
 30
0.0
 10
11.0200831441
 20
9.5442004281
 30
0.0
 10
11.0094317606
 20
9.5428605256
 30
0.0
 10
10.9976982184
 20
9.5415884319
 30
0.0
 10
10.9849429116
 20
9.5403915677
 30
0.0
 10
10.9712309936
 20
9.5392760669
 30
0.0
 10
10.9566331267
 20
9.5382483669
 30
0.0
 10
10.9412241678
 20
9.5373135526
 30
0.0
 10
10.9250834583
 20
9.5364769551
 30
0.0
 10
10.9082936828
 20
9.5357426562
 30
0.0
 10
10.8909415177
 20
9.5351148402
 30
0.0
 10
10.8669425124
 20
9.5344170653
 30
0.0
 10
10.8362237473
 20
9.5338381923
 30
0.0
 10
10.8114544463
 20
9.5336845533
 30
0.0
 10
10.7989423427
 20
9.5336845533
 30
0.0
  0
SPLINE
  5
4E2
100
AcDbEntity
  8
0
100
AcDbSpline
 62
7
  6
CONTINUOUS
 70
0
 71
3
 72
39
 73
35
 74
0
 42
0.0000001
 43
0.0000001
 44
0.0000000001
 40
0.0
 40
0.0
 40
0.0
 40
0.0
 40
0.007721827
 40
0.0161196311
 40
0.0251853939
 40
0.0349081493
 40
0.056274039
 40
0.0801107559
 40
0.0929159925
 40
0.1062897095
 40
0.1346704656
 40
0.165095487
 40
0.1973981451
 40
0.2313972127
 40
0.2669043784
 40
0.3416377059
 40
0.4199252096
 40
0.5000104719
 40
0.580095357
 40
0.658381766
 40
0.7331133207
 40
0.7686193294
 40
0.8026170578
 40
0.834918179
 40
0.865341511
 40
0.893720427
 40
0.9070931917
 40
0.9198974795
 40
0.9437322036
 40
0.9650960771
 40
0.9748178122
 40
0.9838825049
 40
0.9922792371
 40
1.0
 40
1.0
 40
1.0
 40
1.0
 10
10.571812469
 20
9.5489689364
 30
0.0
 10
10.5729561297
 20
9.5487091097
 30
0.0
 10
10.5753504389
 20
9.548196733
 30
0.0
 10
10.5791065413
 20
9.5474719029
 30
0.0
 10
10.5831739298
 20
9.5467595963
 30
0.0
 10
10.5891964543
 20
9.5457974008
 30
0.0
 10
10.5974596398
 20
9.5446461211
 30
0.0
 10
10.6062090691
 20
9.5436079709
 30
0.0
 10
10.6137630844
 20
9.5428054236
 30
0.0
 10
10.622009923
 20
9.5419936399
 30
0.0
 10
10.6329312619
 20
9.5410376975
 30
0.0
 10
10.6467301424
 20
9.5399980992
 30
0.0
 10
10.6613908732
 20
9.5390512335
 30
0.0
 10
10.6768306696
 20
9.5382021411
 30
0.0
 10
10.6987148753
 20
9.5371904143
 30
0.0
 10
10.7273335137
 20
9.5362175101
 30
0.0
 10
10.7627321825
 20
9.5355168756
 30
0.0
 10
10.7989498181
 20
9.53528158
 30
0.0
 10
10.8351672861
 20
9.5355170689
 30
0.0
 10
10.8705654583
 20
9.5362178924
 30
0.0
 10
10.89918348
 20
9.5371909513
 30
0.0
 10
10.921067031
 20
9.5382027994
 30
0.0
 10
10.9365062094
 20
9.5390519733
 30
0.0
 10
10.9511662404
 20
9.5399989171
 30
0.0
 10
10.964964344
 20
9.5410385846
 30
0.0
 10
10.9758849947
 20
9.5419945847
 30
0.0
 10
10.9841312578
 20
9.5428064138
 30
0.0
 10
10.9916846748
 20
9.5436089944
 30
0.0
 10
11.0004333408
 20
9.5446471888
 30
0.0
 10
11.0086957487
 20
9.5457985156
 30
0.0
 10
11.014717636
 20
9.5467607457
 30
0.0
 10
11.0187845324
 20
9.5474730795
 30
0.0
 10
11.0225401343
 20
9.5481979329
 30
0.0
 10
11.0249341083
 20
9.5487103262
 30
0.0
 10
11.0260776013
 20
9.5489701618
 30
0.0
  0
SPLINE
  5
4E3
100
AcDbEntity
  8
0
100
AcDbSpline
 62
7
  6
CONTINUOUS
 70
0
 71
3
 72
17
 73
13
 74
0
 42
0.0000001
 43
0.0000001
 44
0.0000000001
 40
0.0
 40
0.0
 40
0.0
 40
0.0
 40
0.0559507872
 40
0.1144799228
 40
0.2379011753
 40
0.3674068674
 40
0.4999922419
 40
0.6325786049
 40
0.7620872866
 40
0.8855134738
 40
0.9440457113
 40
1.0
 40
1.0
 40
1.0
 40
1.0
 10
10.9299107911
 20
9.5561617132
 30
0.0
 10
10.9250325409
 20
9.5558629553
 30
0.0
 10
10.915048093
 20
9.5553021625
 30
0.0
 10
10.8942899099
 20
9.554323145
 30
0.0
 10
10.8670988021
 20
9.5533817227
 30
0.0
 10
10.8334294858
 20
9.5527036199
 30
0.0
 10
10.798953511
 20
9.5524756698
 30
0.0
 10
10.764477273
 20
9.5527033264
 30
0.0
 10
10.7308071724
 20
9.5533811436
 30
0.0
 10
10.7036150929
 20
9.5543223317
 30
0.0
 10
10.6828558923
 20
9.5553011685
 30
0.0
 10
10.6728708617
 20
9.5558618725
 30
0.0
 10
10.6679923024
 20
9.5561605861
 30
0.0
  0
SPLINE
  5
4E4
100
AcDbEntity
  8
0
100
AcDbSpline
 62
7
  6
CONTINUOUS
 70
0
 71
3
 72
27
 73
23
 74
0
 42
0.0000001
 43
0.0000001
 44
0.0000000001
 40
0.0
 40
0.0
 40
0.0
 40
0.0
 40
0.0492374055
 40
0.1014901259
 40
0.1287214877
 40
0.1566468175
 40
0.2144146423
 40
0.2744599219
 40
0.3363766469
 40
0.3998065187
 40
0.4644252324
 40
0.5299546489
 40
0.5961627672
 40
0.6628790934
 40
0.6963937961
 40
0.729979357
 40
0.7636229614
 40
0.7973186975
 40
0.8647971875
 40
0.8985950299
 40
0.9324178724
 40
1.0
 40
1.0
 40
1.0
 40
1.0
 10
6.4047301236
 20
8.4339189453
 30
0.0
 10
6.4097278776
 20
8.4339189357
 30
0.0
 10
6.4200380187
 20
8.434674945
 30
0.0
 10
6.4328776066
 20
8.437249392
 30
0.0
 10
6.4433602476
 20
8.4402609591
 30
0.0
 10
6.4542016355
 20
8.4439961503
 30
0.0
 10
6.4678107672
 20
8.4498557265
 30
0.0
 10
6.4838745878
 20
8.4585480775
 30
0.0
 10
6.4996379058
 20
8.468864316
 30
0.0
 10
6.5148898403
 20
8.480694538
 30
0.0
 10
6.5294337059
 20
8.4939367206
 30
0.0
 10
6.5430685665
 20
8.5085038093
 30
0.0
 10
6.5555924267
 20
8.5243106285
 30
0.0
 10
6.5649087553
 20
8.5384336031
 30
0.0
 10
6.5715892297
 20
8.5502648866
 30
0.0
 10
6.5761884907
 20
8.5594025901
 30
0.0
 10
6.5803381523
 20
8.568773797
 30
0.0
 10
6.5852309093
 20
8.5815583666
 30
0.0
 10
6.589111145
 20
8.5947308479
 30
0.0
 10
6.591872235
 20
8.6081696129
 30
0.0
 10
6.5938604932
 20
8.6217536749
 30
0.0
 10
6.5944711289
 20
8.6320591434
 30
0.0
 10
6.5944711289
 20
8.6389189453
 30
0.0
  0
SPLINE
  5
4E5
100
AcDbEntity
  8
0
100
AcDbSpline
 62
7
  6
CONTINUOUS
 70
0
 71
3
 72
26
 73
22
 74
0
 42
0.0000001
 43
0.0000001
 44
0.0000000001
 40
0.0
 40
0.0
 40
0.0
 40
0.0
 40
0.0675780751
 40
0.1013946844
 40
0.1351858889
 40
0.2026570146
 40
0.2363489695
 40
0.2699913407
 40
0.3370709327
 40
0.4037806656
 40
0.4699892396
 40
0.5355186964
 40
0.6001393555
 40
0.6635716841
 40
0.7254964823
 40
0.7855463748
 40
0.8433193591
 40
0.8712493755
 40
0.8984866199
 40
0.9507540486
 40
1.0
 40
1.0
 40
1.0
 40
1.0
 10
6.5944711289
 20
8.6389189453
 30
0.0
 10
6.5944711289
 20
8.645778203
 30
0.0
 10
6.5938616924
 20
8.656082477
 30
0.0
 10
6.5918737783
 20
8.669664624
 30
0.0
 10
6.5891121686
 20
8.6831008983
 30
0.0
 10
6.5852342085
 20
8.6962717761
 30
0.0
 10
6.5803414093
 20
8.7090549534
 30
0.0
 10
6.5748156842
 20
8.7215348563
 30
0.0
 10
6.5667931432
 20
8.736548665
 30
0.0
 10
6.5556006141
 20
8.7535159274
 30
0.0
 10
6.5430777805
 20
8.7693234454
 30
0.0
 10
6.5294440206
 20
8.7838910466
 30
0.0
 10
6.5149008518
 20
8.7971341813
 30
0.0
 10
6.4996489791
 20
8.8089659436
 30
0.0
 10
6.4838849777
 20
8.8192832587
 30
0.0
 10
6.4678206202
 20
8.8279777147
 30
0.0
 10
6.454210439
 20
8.8338378344
 30
0.0
 10
6.4433681439
 20
8.8375745648
 30
0.0
 10
6.4328834379
 20
8.8405875845
 30
0.0
 10
6.4200410375
 20
8.8431616655
 30
0.0
 10
6.4097288368
 20
8.8439189453
 30
0.0
 10
6.4047303122
 20
8.8439189453
 30
0.0
  0
SPLINE
  5
4E6
100
AcDbEntity
  8
0
100
AcDbSpline
 62
7
  6
CONTINUOUS
 70
0
 71
3
 72
27
 73
23
 74
0
 42
0.0000001
 43
0.0000001
 44
0.0000000001
 40
0.0
 40
0.0
 40
0.0
 40
0.0
 40
0.0492371414
 40
0.1014899385
 40
0.1287217166
 40
0.1566475602
 40
0.2144162715
 40
0.2744626656
 40
0.3363809669
 40
0.3998114637
 40
0.4644289349
 40
0.5299561397
 40
0.5961627205
 40
0.6628777539
 40
0.6963913728
 40
0.7299757134
 40
0.7636182907
 40
0.7973131739
 40
0.864791151
 40
0.8985908734
 40
0.9324158994
 40
1.0
 40
1.0
 40
1.0
 40
1.0
 10
7.1931543807
 20
8.8439189453
 30
0.0
 10
7.1881566549
 20
8.8439189453
 30
0.0
 10
7.1778465282
 20
8.8431630292
 30
0.0
 10
7.1650069369
 20
8.8405884691
 30
0.0
 10
7.1545242102
 20
8.8375768475
 30
0.0
 10
7.1436826502
 20
8.8338415999
 30
0.0
 10
7.1300732835
 20
8.827981927
 30
0.0
 10
7.1140092135
 20
8.8192892784
 30
0.0
 10
7.0982457009
 20
8.8089727301
 30
0.0
 10
7.082993771
 20
8.7971423641
 30
0.0
 10
7.0684499304
 20
8.7839005962
 30
0.0
 10
7.0548154656
 20
8.7693338058
 30
0.0
 10
7.0422926155
 20
8.7535268456
 30
0.0
 10
7.0329764859
 20
8.7394042662
 30
0.0
 10
7.0262956193
 20
8.7275736307
 30
0.0
 10
7.0216960705
 20
8.7184364519
 30
0.0
 10
7.0175462917
 20
8.7090656379
 30
0.0
 10
7.0126536072
 20
8.6962813058
 30
0.0
 10
7.0087734117
 20
8.6831087337
 30
0.0
 10
7.0060130383
 20
8.6696694576
 30
0.0
 10
7.0040246953
 20
8.6560848129
 30
0.0
 10
7.0034135569
 20
8.6457789456
 30
0.0
 10
7.0034135569
 20
8.6389189453
 30
0.0
  0
SPLINE
  5
4E7
100
AcDbEntity
  8
0
100
AcDbSpline
 62
7
  6
CONTINUOUS
 70
0
 71
3
 72
26
 73
22
 74
0
 42
0.0000001
 43
0.0000001
 44
0.0000000001
 40
0.0
 40
0.0
 40
0.0
 40
0.0
 40
0.0675788424
 40
0.1013961939
 40
0.1351878561
 40
0.2026585007
 40
0.2363500834
 40
0.2699920059
 40
0.3370708418
 40
0.4037804919
 40
0.4699887696
 40
0.5355170754
 40
0.6001373867
 40
0.6635711295
 40
0.7254979543
 40
0.785550031
 40
0.8433247348
 40
0.8712551726
 40
0.8984921998
 40
0.9507564989
 40
1.0
 40
1.0
 40
1.0
 40
1.0
 10
7.0034135569
 20
8.6389189453
 30
0.0
 10
7.0034135569
 20
8.6320596109
 30
0.0
 10
7.0040231021
 20
8.6217551928
 30
0.0
 10
7.0060109342
 20
8.6081728389
 30
0.0
 10
7.0087723642
 20
8.5947364518
 30
0.0
 10
7.0126504744
 20
8.5815656544
 30
0.0
 10
7.0175432688
 20
8.5687826218
 30
0.0
 10
7.0230690136
 20
8.5563029033
 30
0.0
 10
7.0310916525
 20
8.5412892977
 30
0.0
 10
7.042284244
 20
8.5243222238
 30
0.0
 10
7.0548069313
 20
8.5085148007
 30
0.0
 10
7.0684403874
 20
8.4939471725
 30
0.0
 10
7.0829834297
 20
8.4807039096
 30
0.0
 10
7.0982355547
 20
8.4688719594
 30
0.0
 10
7.1140000482
 20
8.458554359
 30
0.0
 10
7.1300649393
 20
8.4498596293
 30
0.0
 10
7.1436755735
 20
8.4439994328
 30
0.0
 10
7.1545181507
 20
8.4402629217
 30
0.0
 10
7.1650025921
 20
8.4372500986
 30
0.0
 10
7.1778443573
 20
8.4346757768
 30
0.0
 10
7.1881560254
 20
8.433918949
 30
0.0
 10
7.1931543005
 20
8.4339189453
 30
0.0
  0
SPLINE
  5
4E8
100
AcDbEntity
  8
0
100
AcDbSpline
 62
7
  6
CONTINUOUS
 70
0
 71
3
 72
17
 73
13
 74
0
 42
0.0000001
 43
0.0000001
 44
0.0000000001
 40
0.0
 40
0.0
 40
0.0
 40
0.0
 40
0.043336795
 40
0.1586624929
 40
0.3187974262
 40
0.408106875
 40
0.4999999332
 40
0.5918930157
 40
0.681202512
 40
0.8413374217
 40
0.95666317
 40
1.0
 40
1.0
 40
1.0
 40
1.0
 10
7.1424423427
 20
8.1950189453
 30
0.0
 10
7.1418554711
 20
8.1923124087
 30
0.0
 10
7.1397862851
 20
8.1823858247
 30
0.0
 10
7.1362341824
 20
8.1623181384
 30
0.0
 10
7.1334841551
 20
8.1391488205
 30
0.0
 10
7.1321226719
 20
8.1173727829
 30
0.0
 10
7.1317535968
 20
8.0999189566
 30
0.0
 10
7.1321226698
 20
8.0824651271
 30
0.0
 10
7.1334841537
 20
8.0606890865
 30
0.0
 10
7.136234181
 20
8.0375197638
 30
0.0
 10
7.1397862835
 20
8.0174520735
 30
0.0
 10
7.1418554706
 20
8.0075254841
 30
0.0
 10
7.1424423427
 20
8.0048189453
 30
0.0
  0
SPLINE
  5
4E9
100
AcDbEntity
  8
0
100
AcDbSpline
 62
7
  6
CONTINUOUS
 70
0
 71
3
 72
35
 73
31
 74
0
 42
0.0000001
 43
0.0000001
 44
0.0000000001
 40
0.0
 40
0.0
 40
0.0
 40
0.0
 40
0.0624357704
 40
0.0937124084
 40
0.1249724707
 40
0.1562255551
 40
0.187480221
 40
0.2499380433
 40
0.2811935926
 40
0.3124482885
 40
0.3437021525
 40
0.3749571323
 40
0.4062134007
 40
0.4374701419
 40
0.4687279553
 40
0.4999847548
 40
0.5312403455
 40
0.5624960643
 40
0.5937515274
 40
0.6250083335
 40
0.656266049
 40
0.6875235581
 40
0.7499864842
 40
0.7812436009
 40
0.8125011511
 40
0.843758059
 40
0.8750155244
 40
0.9062740105
 40
0.9375328231
 40
1.0
 40
1.0
 40
1.0
 40
1.0
 10
6.7989423427
 20
8.0281869404
 30
0.0
 10
6.8032049611
 20
8.0279976126
 30
0.0
 10
6.8096473501
 20
8.0282937538
 30
0.0
 10
6.8180592753
 20
8.0298125694
 30
0.0
 10
6.8242500167
 20
8.0315071163
 30
0.0
 10
6.8302664157
 20
8.0337378125
 30
0.0
 10
6.8379896615
 20
8.0374020127
 30
0.0
 10
6.8452055656
 20
8.0420660219
 30
0.0
 10
6.851719698
 20
8.0476012149
 30
0.0
 10
6.8562337395
 20
8.0521609894
 30
0.0
 10
6.8603374482
 20
8.0570924094
 30
0.0
 10
6.8640029155
 20
8.0623579024
 30
0.0
 10
6.867206876
 20
8.0679164495
 30
0.0
 10
6.8699246645
 20
8.0737283844
 30
0.0
 10
6.8721410952
 20
8.0797492735
 30
0.0
 10
6.8738414829
 20
8.0859356991
 30
0.0
 10
6.8750132458
 20
8.0922434028
 30
0.0
 10
6.8756532593
 20
8.09862685
 30
0.0
 10
6.8757558177
 20
8.1050416242
 30
0.0
 10
6.8753230538
 20
8.1114424419
 30
0.0
 10
6.8743615294
 20
8.1177861529
 30
0.0
 10
6.8723838901
 20
8.1261025143
 30
0.0
 10
6.8693826299
 20
8.134148131
 30
0.0
 10
6.8654313978
 20
8.1417281597
 30
0.0
 10
6.8620127454
 20
8.1471573311
 30
0.0
 10
6.858162933
 20
8.1522891641
 30
0.0
 10
6.8539088907
 20
8.157091104
 30
0.0
 10
6.8492807507
 20
8.1615348008
 30
0.0
 10
6.8426567977
 20
8.1669371384
 30
0.0
 10
6.8372120008
 20
8.1703789087
 30
0.0
 10
6.8334328029
 20
8.1723642912
 30
0.0
  0
SPLINE
  5
4EA
100
AcDbEntity
  8
0
100
AcDbSpline
 62
7
  6
CONTINUOUS
 70
0
 71
3
 72
22
 73
18
 74
0
 42
0.0000001
 43
0.0000001
 44
0.0000000001
 40
0.0
 40
0.0
 40
0.0
 40
0.0
 40
0.1248529452
 40
0.1873823034
 40
0.2498840721
 40
0.3123835936
 40
0.3748930247
 40
0.4374040881
 40
0.4999140363
 40
0.5624236657
 40
0.6249347534
 40
0.6874458813
 40
0.7499505053
 40
0.8124582957
 40
0.8749906969
 40
0.9375373029
 40
1.0
 40
1.0
 40
1.0
 40
1.0
 10
6.7174979917
 20
8.0903034501
 30
0.0
 10
6.7168699515
 20
8.0956230225
 30
0.0
 10
6.7167137854
 20
8.1037288851
 30
0.0
 10
6.7180824058
 20
8.1143735246
 30
0.0
 10
6.719888
 20
8.1222282735
 30
0.0
 10
6.7224546202
 20
8.1298659095
 30
0.0
 10
6.725757405
 20
8.1372159814
 30
0.0
 10
6.7297629948
 20
8.1442084388
 30
0.0
 10
6.7344366036
 20
8.1507732275
 30
0.0
 10
6.7397291177
 20
8.1568501226
 30
0.0
 10
6.7455939562
 20
8.1623768
 30
0.0
 10
6.7519701468
 20
8.167304196
 30
0.0
 10
6.7587981329
 20
8.1715835506
 30
0.0
 10
6.7660133355
 20
8.1751737944
 30
0.0
 10
6.7735492789
 20
8.1780363363
 30
0.0
 10
6.7813276819
 20
8.1801414213
 30
0.0
 10
6.786625214
 20
8.1810387942
 30
0.0
 10
6.789285894
 20
8.1813584508
 30
0.0
  0
SPLINE
  5
4EB
100
AcDbEntity
  8
0
100
AcDbSpline
 62
7
  6
CONTINUOUS
 70
0
 71
3
 72
27
 73
23
 74
0
 42
0.0000001
 43
0.0000001
 44
0.0000000001
 40
0.0
 40
0.0
 40
0.0
 40
0.0
 40
0.0624482968
 40
0.1249771272
 40
0.1874614157
 40
0.2499384344
 40
0.2811995667
 40
0.3124617041
 40
0.343722732
 40
0.3749840249
 40
0.4374753738
 40
0.4999695426
 40
0.562463661
 40
0.6249567505
 40
0.656220412
 40
0.6874842477
 40
0.7187488589
 40
0.7500127083
 40
0.8124989916
 40
0.8749992362
 40
0.9375380856
 40
1.0
 40
1.0
 40
1.0
 40
1.0
 10
6.7428563722
 20
8.1329700257
 30
0.0
 10
6.741210622
 20
8.1304655269
 30
0.0
 10
6.7382643778
 20
8.1252156009
 30
0.0
 10
6.7349656357
 20
8.1168172065
 30
0.0
 10
6.7328431951
 20
8.1080451946
 30
0.0
 10
6.7320793106
 20
8.1005623268
 30
0.0
 10
6.7320754484
 20
8.0945599816
 30
0.0
 10
6.7323740104
 20
8.0900657665
 30
0.0
 10
6.7329743589
 20
8.0856018166
 30
0.0
 10
6.7341707328
 20
8.0797193024
 30
0.0
 10
6.7363956672
 20
8.0725336934
 30
0.0
 10
6.740180823
 20
8.064343475
 30
0.0
 10
6.7450043667
 20
8.0567186491
 30
0.0
 10
6.7498223886
 20
8.0509428749
 30
0.0
 10
6.7540972192
 20
8.0467283005
 30
0.0
 10
6.7575037825
 20
8.0437814593
 30
0.0
 10
6.7610934092
 20
8.0410607224
 30
0.0
 10
6.7660999112
 20
8.037748916
 30
0.0
 10
6.7727427056
 20
8.0342229289
 30
0.0
 10
6.7811867719
 20
8.0310416932
 30
0.0
 10
6.7899651539
 20
8.0289630227
 30
0.0
 10
6.7959478085
 20
8.0283199453
 30
0.0
 10
6.7989423427
 20
8.0281869404
 30
0.0
  0
SPLINE
  5
4EC
100
AcDbEntity
  8
0
100
AcDbSpline
 62
7
  6
CONTINUOUS
 70
0
 71
3
 72
35
 73
31
 74
0
 42
0.0000001
 43
0.0000001
 44
0.0000000001
 40
0.0
 40
0.0
 40
0.0
 40
0.0
 40
0.0313575914
 40
0.0626955974
 40
0.0939990885
 40
0.125259705
 40
0.1564774898
 40
0.1876597029
 40
0.2188189816
 40
0.2499707305
 40
0.2811306689
 40
0.3123125974
 40
0.3435267649
 40
0.3747790046
 40
0.4373388662
 40
0.4999999542
 40
0.5626610574
 40
0.6252209502
 40
0.6564731446
 40
0.6876873531
 40
0.7188692579
 40
0.750029197
 40
0.7811809611
 40
0.8123402197
 40
0.8435224642
 40
0.8747402435
 40
0.9060008899
 40
0.9373044013
 40
0.9686424139
 40
1.0
 40
1.0
 40
1.0
 40
1.0
 10
6.7989423427
 20
8.0048189453
 30
0.0
 10
6.8018907716
 20
8.0048189453
 30
0.0
 10
6.8077917563
 20
8.0051701186
 30
0.0
 10
6.8165098952
 20
8.0067364987
 30
0.0
 10
6.82497882
 20
8.0093021536
 30
0.0
 10
6.8330906798
 20
8.0128061135
 30
0.0
 10
6.8407576812
 20
8.0171736555
 30
0.0
 10
6.8479096406
 20
8.0223231754
 30
0.0
 10
6.8544925736
 20
8.0281715419
 30
0.0
 10
6.8604654096
 20
8.0346374824
 30
0.0
 10
6.8657967901
 20
8.041643353
 30
0.0
 10
6.870462255
 20
8.0491151002
 30
0.0
 10
6.8744424383
 20
8.0569830731
 30
0.0
 10
6.8788141206
 20
8.0679090116
 30
0.0
 10
6.8824937095
 20
8.0822340141
 30
0.0
 10
6.8839702196
 20
8.0999189338
 30
0.0
 10
6.8824937149
 20
8.1176038571
 30
0.0
 10
6.878814127
 20
8.13192886
 30
0.0
 10
6.8744424459
 20
8.1428548018
 30
0.0
 10
6.8704622635
 20
8.1507227721
 30
0.0
 10
6.8657968025
 20
8.1581945238
 30
0.0
 10
6.8604654202
 20
8.165200392
 30
0.0
 10
6.8544925888
 20
8.1716663363
 30
0.0
 10
6.847909653
 20
8.1775147034
 30
0.0
 10
6.8407576954
 20
8.1826642267
 30
0.0
 10
6.8330906898
 20
8.187031772
 30
0.0
 10
6.8249788267
 20
8.1905357349
 30
0.0
 10
6.8165098969
 20
8.1931013917
 30
0.0
 10
6.8077917559
 20
8.1946677721
 30
0.0
 10
6.8018907711
 20
8.1950189453
 30
0.0
 10
6.7989423427
 20
8.1950189453
 30
0.0
  0
SPLINE
  5
4ED
100
AcDbEntity
  8
0
100
AcDbSpline
 62
7
  6
CONTINUOUS
 70
0
 71
3
 72
23
 73
19
 74
0
 42
0.0000001
 43
0.0000001
 44
0.0000000001
 40
0.0
 40
0.0
 40
0.0
 40
0.0
 40
0.0640147921
 40
0.1259105801
 40
0.1859388281
 40
0.244489879
 40
0.3020695001
 40
0.3591873126
 40
0.4163810237
 40
0.4741625022
 40
0.5329740934
 40
0.5932262083
 40
0.6552701438
 40
0.7193763642
 40
0.7857652594
 40
0.8546010142
 40
0.9259909516
 40
1.0
 40
1.0
 40
1.0
 40
1.0
 10
7.1931542932
 20
8.4339189453
 30
0.0
 10
7.1961278022
 20
8.4339189431
 30
0.0
 10
7.2019804267
 20
8.4341755371
 30
0.0
 10
7.2105476353
 20
8.4353706259
 30
0.0
 10
7.2187059008
 20
8.4373646351
 30
0.0
 10
7.2264184935
 20
8.4401447326
 30
0.0
 10
7.2336644904
 20
8.4436821903
 30
0.0
 10
7.2404282221
 20
8.4479546024
 30
0.0
 10
7.2467035562
 20
8.4529299911
 30
0.0
 10
7.2524944348
 20
8.4585730857
 30
0.0
 10
7.2578071727
 20
8.464853716
 30
0.0
 10
7.2626551519
 20
8.4717411206
 30
0.0
 10
7.2670575423
 20
8.4792065993
 30
0.0
 10
7.2710343218
 20
8.4872250848
 30
0.0
 10
7.2746067247
 20
8.4957732965
 30
0.0
 10
7.277796893
 20
8.5048297976
 30
0.0
 10
7.2806269153
 20
8.5143739101
 30
0.0
 10
7.2822579521
 20
8.5209301812
 30
0.0
 10
7.2830237012
 20
8.5242815575
 30
0.0
  0
SPLINE
  5
4EE
100
AcDbEntity
  8
0
100
AcDbSpline
 62
7
  6
CONTINUOUS
 70
0
 71
3
 72
23
 73
19
 74
0
 42
0.0000001
 43
0.0000001
 44
0.0000000001
 40
0.0
 40
0.0
 40
0.0
 40
0.0
 40
0.0739911451
 40
0.145367169
 40
0.2141910354
 40
0.2805717863
 40
0.3446748885
 40
0.4067139979
 40
0.4669637143
 40
0.5257799352
 40
0.5835603934
 40
0.6407532953
 40
0.6978800333
 40
0.7554683228
 40
0.8140306536
 40
0.8740769881
 40
0.9359825765
 40
1.0
 40
1.0
 40
1.0
 40
1.0
 10
7.2830095703
 20
8.7536164882
 30
0.0
 10
7.2822436868
 20
8.7569654147
 30
0.0
 10
7.2806124788
 20
8.7635170266
 30
0.0
 10
7.2777823921
 20
8.773054397
 30
0.0
 10
7.2745917989
 20
8.7821045654
 30
0.0
 10
7.271018824
 20
8.790646916
 30
0.0
 10
7.267041747
 20
8.7986599756
 30
0.0
 10
7.2626395936
 20
8.8061205596
 30
0.0
 10
7.2577918998
 20
8.8130034613
 30
0.0
 10
7.2524795533
 20
8.8192796783
 30
0.0
 10
7.2466904957
 20
8.8249196254
 30
0.0
 10
7.2404168944
 20
8.8298920962
 30
0.0
 10
7.233654109
 20
8.8341607846
 30
0.0
 10
7.2264099365
 20
8.8376967323
 30
0.0
 10
7.2186988428
 20
8.8404756092
 30
0.0
 10
7.2105420454
 20
8.8424675181
 30
0.0
 10
7.2019772925
 20
8.843662323
 30
0.0
 10
7.1961266836
 20
8.8439189453
 30
0.0
 10
7.1931543732
 20
8.8439189453
 30
0.0
  0
SPLINE
  5
4EF
100
AcDbEntity
  8
0
100
AcDbSpline
 62
7
  6
CONTINUOUS
 70
0
 71
3
 72
35
 73
31
 74
0
 42
0.0000001
 43
0.0000001
 44
0.0000000001
 40
0.0
 40
0.0
 40
0.0
 40
0.0
 40
0.0313575886
 40
0.0626955903
 40
0.0939990828
 40
0.1252596974
 40
0.1564774845
 40
0.1876596978
 40
0.2188189768
 40
0.2499707255
 40
0.2811306639
 40
0.3123125927
 40
0.343526759
 40
0.3747789985
 40
0.4373388606
 40
0.4999999494
 40
0.5626610525
 40
0.6252209439
 40
0.6564731393
 40
0.6876873475
 40
0.7188692517
 40
0.7500291919
 40
0.7811809554
 40
0.812340213
 40
0.8435224602
 40
0.8747402387
 40
0.9060008883
 40
0.9373044025
 40
0.9686424152
 40
1.0
 40
1.0
 40
1.0
 40
1.0
 10
6.7989423427
 20
8.1950189453
 30
0.0
 10
6.7959939141
 20
8.1950189453
 30
0.0
 10
6.7900929301
 20
8.1946677721
 30
0.0
 10
6.7813747917
 20
8.1931013922
 30
0.0
 10
6.7729058673
 20
8.1905357377
 30
0.0
 10
6.7647940072
 20
8.187031778
 30
0.0
 10
6.7571270057
 20
8.1826642361
 30
0.0
 10
6.749975046
 20
8.1775147161
 30
0.0
 10
6.743392113
 20
8.1716663497
 30
0.0
 10
6.7374192767
 20
8.1652004093
 30
0.0
 10
6.7320878962
 20
8.1581945388
 30
0.0
 10
6.7274224312
 20
8.1507227918
 30
0.0
 10
6.7234422479
 20
8.1428548189
 30
0.0
 10
6.7190705654
 20
8.1319288806
 30
0.0
 10
6.7153909762
 20
8.1176038781
 30
0.0
 10
6.7139144658
 20
8.0999189583
 30
0.0
 10
6.7153909704
 20
8.082234035
 30
0.0
 10
6.719070558
 20
8.0679090321
 30
0.0
 10
6.7234422389
 20
8.0569830903
 30
0.0
 10
6.7274224212
 20
8.04911512
 30
0.0
 10
6.732087882
 20
8.0416433681
 30
0.0
 10
6.7374192643
 20
8.0346374999
 30
0.0
 10
6.7433920954
 20
8.0281715554
 30
0.0
 10
6.7499750313
 20
8.0223231883
 30
0.0
 10
6.7571269888
 20
8.0171736647
 30
0.0
 10
6.7647939948
 20
8.0128061191
 30
0.0
 10
6.7729058583
 20
8.0093021559
 30
0.0
 10
6.7813747887
 20
8.0067364989
 30
0.0
 10
6.7900929298
 20
8.0051701185
 30
0.0
 10
6.7959939145
 20
8.0048189453
 30
0.0
 10
6.7989423427
 20
8.0048189453
 30
0.0
  0
SPLINE
  5
4F0
100
AcDbEntity
  8
0
100
AcDbSpline
 62
7
  6
CONTINUOUS
 70
0
 71
3
 72
9
 73
5
 74
0
 42
0.0000001
 43
0.0000001
 44
0.0000000001
 40
0.0
 40
0.0
 40
0.0
 40
0.0
 40
0.4936314424
 40
1.0
 40
1.0
 40
1.0
 40
1.0
 10
6.4315225364
 20
8.4373058987
 30
0.0
 10
6.426576322
 20
8.4385928805
 30
0.0
 10
6.4167324553
 20
8.4419220309
 30
0.0
 10
6.4074324633
 20
8.4465474928
 30
0.0
 10
6.4028942506
 20
8.4491726383
 30
0.0
  0
SPLINE
  5
4F1
100
AcDbEntity
  8
0
100
AcDbSpline
 62
7
  6
CONTINUOUS
 70
0
 71
3
 72
9
 73
5
 74
0
 42
0.0000001
 43
0.0000001
 44
0.0000000001
 40
0.0
 40
0.0
 40
0.0
 40
0.0
 40
0.5064462871
 40
1.0
 40
1.0
 40
1.0
 40
1.0
 10
6.4028121812
 20
8.8286177443
 30
0.0
 10
6.4074190364
 20
8.8312872468
 30
0.0
 10
6.4168641986
 20
8.8359827253
 30
0.0
 10
6.4268690677
 20
8.8393397293
 30
0.0
 10
6.4318954003
 20
8.8406282689
 30
0.0
  0
SPLINE
  5
4F2
100
AcDbEntity
  8
0
100
AcDbSpline
 62
7
  6
CONTINUOUS
 70
0
 71
3
 72
9
 73
5
 74
0
 42
0.0000001
 43
0.0000001
 44
0.0000000001
 40
0.0
 40
0.0
 40
0.0
 40
0.0
 40
0.4936355143
 40
1.0
 40
1.0
 40
1.0
 40
1.0
 10
7.1663856916
 20
8.8405258637
 30
0.0
 10
7.1713275044
 20
8.8392388275
 30
0.0
 10
7.1811625123
 20
8.835910916
 30
0.0
 10
7.1904544749
 20
8.8312890078
 30
0.0
 10
7.1949888813
 20
8.8286661513
 30
0.0
  0
SPLINE
  5
4F3
100
AcDbEntity
  8
0
100
AcDbSpline
 62
7
  6
CONTINUOUS
 70
0
 71
3
 72
9
 73
5
 74
0
 42
0.0000001
 43
0.0000001
 44
0.0000000001
 40
0.0
 40
0.0
 40
0.0
 40
0.0
 40
0.5064402571
 40
1.0
 40
1.0
 40
1.0
 40
1.0
 10
7.1951096581
 20
8.449241684
 30
0.0
 10
7.1905145327
 20
8.4465768742
 30
0.0
 10
7.1810939847
 20
8.4418876562
 30
0.0
 10
7.1711156746
 20
8.4385297036
 30
0.0
 10
7.1661024271
 20
8.4372386921
 30
0.0
  0
SPLINE
  5
4F4
100
AcDbEntity
  8
0
100
AcDbSpline
 62
7
  6
CONTINUOUS
 70
0
 71
3
 72
20
 73
16
 74
0
 42
0.0000001
 43
0.0000001
 44
0.0000000001
 40
0.0
 40
0.0
 40
0.0
 40
0.0
 40
0.1245563282
 40
0.2492603117
 40
0.3117124422
 40
0.3741925198
 40
0.436695889
 40
0.4992230473
 40
0.5617757628
 40
0.6243458442
 40
0.6869312886
 40
0.7495225108
 40
0.8121389905
 40
0.8748001304
 40
1.0
 40
1.0
 40
1.0
 40
1.0
 10
6.7827528688
 20
8.1629737701
 30
0.0
 10
6.7783234784
 20
8.1626517323
 30
0.0
 10
6.7695027852
 20
8.1610807876
 30
0.0
 10
6.7591017732
 20
8.1569567268
 30
0.0
 10
6.7513808801
 20
8.1525049789
 30
0.0
 10
6.7459272877
 20
8.1486240536
 30
0.0
 10
6.7408621066
 20
8.1442453843
 30
0.0
 10
6.7362242285
 20
8.1394131243
 30
0.0
 10
6.7320444837
 20
8.1341768982
 30
0.0
 10
6.7283525717
 20
8.1285838345
 30
0.0
 10
6.7251695639
 20
8.1226849105
 30
0.0
 10
6.7225171087
 20
8.1165277703
 30
0.0
 10
6.7204071423
 20
8.1101607984
 30
0.0
 10
6.7183328352
 20
8.1014665211
 30
0.0
 10
6.7176095781
 20
8.0947660827
 30
0.0
 10
6.7174979917
 20
8.0903034501
 30
0.0
  0
SPLINE
  5
4F5
100
AcDbEntity
  8
0
100
AcDbSpline
 62
7
  6
CONTINUOUS
 70
0
 71
3
 72
23
 73
19
 74
0
 42
0.0000001
 43
0.0000001
 44
0.0000000001
 40
0.0
 40
0.0
 40
0.0
 40
0.0
 40
0.0640252548
 40
0.1259332764
 40
0.1859739043
 40
0.2445350449
 40
0.3021229906
 40
0.3592481334
 40
0.4164475101
 40
0.4742315831
 40
0.5330421147
 40
0.5932906732
 40
0.6553292201
 40
0.7194291259
 40
0.7858102853
 40
0.8546349493
 40
0.9260092573
 40
1.0
 40
1.0
 40
1.0
 40
1.0
 10
6.4047303024
 20
8.8439189453
 30
0.0
 10
6.4017587609
 20
8.8439189453
 30
0.0
 10
6.3959099161
 20
8.8436626465
 30
0.0
 10
6.3873480761
 20
8.8424691057
 30
0.0
 10
6.3791946164
 20
8.8404779242
 30
0.0
 10
6.3714863452
 20
8.8377016109
 30
0.0
 10
6.3642441346
 20
8.8341688809
 30
0.0
 10
6.3574834622
 20
8.8299021714
 30
0.0
 10
6.3512104003
 20
8.8249334141
 30
0.0
 10
6.3454211287
 20
8.8192977614
 30
0.0
 10
6.3401094489
 20
8.8130252552
 30
0.0
 10
6.3352619004
 20
8.8061466181
 30
0.0
 10
6.330859308
 20
8.7986903842
 30
0.0
 10
6.3268816927
 20
8.7906815637
 30
0.0
 10
6.3233079958
 20
8.782143438
 30
0.0
 10
6.320116384
 20
8.7730975304
 30
0.0
 10
6.3172851004
 20
8.7635645289
 30
0.0
 10
6.315653189
 20
8.7570158407
 30
0.0
 10
6.314886941
 20
8.7536683593
 30
0.0
  0
SPLINE
  5
4F6
100
AcDbEntity
  8
0
100
AcDbSpline
 62
7
  6
CONTINUOUS
 70
0
 71
3
 72
23
 73
19
 74
0
 42
0.0000001
 43
0.0000001
 44
0.0000000001
 40
0.0
 40
0.0
 40
0.0
 40
0.0
 40
0.0740193256
 40
0.1454206933
 40
0.2142664616
 40
0.2806646441
 40
0.3447799444
 40
0.4068262077
 40
0.4670777879
 40
0.5258902617
 40
0.5836617383
 40
0.6408419459
 40
0.6979535709
 40
0.7555242081
 40
0.814070449
 40
0.8741047784
 40
0.9359969923
 40
1.0
 40
1.0
 40
1.0
 40
1.0
 10
6.3148348981
 20
8.5243988085
 30
0.0
 10
6.3155998141
 20
8.5210437224
 30
0.0
 10
6.3172291675
 20
8.5144800187
 30
0.0
 10
6.3200567603
 20
8.5049247294
 30
0.0
 10
6.3232452341
 20
8.4958573683
 30
0.0
 10
6.3268165872
 20
8.4872986631
 30
0.0
 10
6.3307926936
 20
8.4792701952
 30
0.0
 10
6.3351945953
 20
8.471795206
 30
0.0
 10
6.340042742
 20
8.4648989004
 30
0.0
 10
6.3453562447
 20
8.4586102766
 30
0.0
 10
6.3511473103
 20
8.4529589681
 30
0.0
 10
6.3574240124
 20
8.4479763221
 30
0.0
 10
6.3641910421
 20
8.4436987496
 30
0.0
 10
6.3714405861
 20
8.4401549606
 30
0.0
 10
6.3791586431
 20
8.4373699918
 30
0.0
 10
6.3873237581
 20
8.4353740089
 30
0.0
 10
6.3958976306
 20
8.4341762614
 30
0.0
 10
6.4017545885
 20
8.4339189511
 30
0.0
 10
6.4047301045
 20
8.4339189453
 30
0.0
  0
SPLINE
  5
4F7
100
AcDbEntity
  8
0
100
AcDbSpline
 62
7
  6
CONTINUOUS
 70
0
 71
3
 72
19
 73
15
 74
0
 42
0.0000001
 43
0.0000001
 44
0.0000000001
 40
0.0
 40
0.0
 40
0.0
 40
0.0
 40
0.0057110083
 40
0.0222600895
 40
0.049191218
 40
0.0858069071
 40
0.1312852466
 40
0.1847470003
 40
0.3123333802
 40
0.3849862906
 40
0.4626663704
 40
0.6307726082
 40
0.8118277896
 40
1.0
 40
1.0
 40
1.0
 40
1.0
 10
15.3564421502
 20
8.843918605
 30
0.0
 10
15.3562312754
 20
8.8435631292
 30
0.0
 10
15.3554151887
 20
8.8421741115
 30
0.0
 10
15.353619666
 20
8.839099985
 30
0.0
 10
15.3507355676
 20
8.8340715813
 30
0.0
 10
15.3468844179
 20
8.8271846528
 30
0.0
 10
15.3422251339
 20
8.8185506098
 30
0.0
 10
15.3347099957
 20
8.8039796494
 30
0.0
 10
15.3268870583
 20
8.7873567309
 30
0.0
 10
15.3191591466
 20
8.7687829592
 30
0.0
 10
15.3110894282
 20
8.7471913115
 30
0.0
 10
15.3021487342
 20
8.7175702114
 30
0.0
 10
15.2948554643
 20
8.6792905669
 30
0.0
 10
15.2931083065
 20
8.6525373518
 30
0.0
 10
15.2931083065
 20
8.6389189453
 30
0.0
  0
SPLINE
  5
4F8
100
AcDbEntity
  8
0
100
AcDbSpline
 62
7
  6
CONTINUOUS
 70
0
 71
3
 72
45
 73
41
 74
0
 42
0.0000001
 43
0.0000001
 44
0.0000000001
 40
0.0
 40
0.0
 40
0.0
 40
0.0
 40
0.04736223
 40
0.0946496269
 40
0.1417154017
 40
0.1884199741
 40
0.2346633433
 40
0.2803524795
 40
0.3253895336
 40
0.3696888563
 40
0.4557605695
 40
0.537935056
 40
0.6156499842
 40
0.6883228484
 40
0.7553119483
 40
0.8159100845
 40
0.8435705803
 40
0.8693370119
 40
0.8931016268
 40
0.9147533719
 40
0.934180163
 40
0.9512730642
 40
0.9659376895
 40
0.9723309069
 40
0.9780828127
 40
0.9831819477
 40
0.9876173769
 40
0.9913825498
 40
0.9944730451
 40
0.9957639106
 40
0.9968844526
 40
0.9978341194
 40
0.9986123589
 40
0.9992186192
 40
0.9994570845
 40
0.9996523478
 40
0.9998043401
 40
0.9999129923
 40
0.9999782353
 40
1.0
 40
1.0
 40
1.0
 40
1.0
 10
15.2931083065
 20
8.6389189453
 30
0.0
 10
15.2931083065
 20
8.6354902996
 30
0.0
 10
15.2932213376
 20
8.628637914
 30
0.0
 10
15.2937217865
 20
8.6183894051
 30
0.0
 10
15.2945453919
 20
8.6082094425
 30
0.0
 10
15.2956857285
 20
8.5981362375
 30
0.0
 10
15.297121556
 20
8.588201721
 30
0.0
 10
15.2988305373
 20
8.5784331885
 30
0.0
 10
15.3007919389
 20
8.568855849
 30
0.0
 10
15.3036832285
 20
8.5564899166
 30
0.0
 10
15.307768196
 20
8.5416481527
 30
0.0
 10
15.3133023886
 20
8.5247183936
 30
0.0
 10
15.3192022306
 20
8.5089457061
 30
0.0
 10
15.3252521113
 20
8.4944154697
 30
0.0
 10
15.3312488264
 20
8.4812143796
 30
0.0
 10
15.3361728859
 20
8.4711104221
 30
0.0
 10
15.3399207053
 20
8.4637556467
 30
0.0
 10
15.3425090298
 20
8.4588030779
 30
0.0
 10
15.3449387053
 20
8.4542586926
 30
0.0
 10
15.3471871792
 20
8.4501380558
 30
0.0
 10
15.3492319137
 20
8.4464566051
 30
0.0
 10
15.351051004
 20
8.4432285152
 30
0.0
 10
15.3524203631
 20
8.4408300749
 30
0.0
 10
15.3533891037
 20
8.4391483218
 30
0.0
 10
15.3540145584
 20
8.4380679623
 30
0.0
 10
15.3545707897
 20
8.4371112957
 30
0.0
 10
15.3550558381
 20
8.4362796099
 30
0.0
 10
15.3554684657
 20
8.4355740201
 30
0.0
 10
15.3557667894
 20
8.4350652955
 30
0.0
 10
15.3559685917
 20
8.4347219098
 30
0.0
 10
15.3560919979
 20
8.4345122126
 30
0.0
 10
15.3561966837
 20
8.4343345569
 30
0.0
 10
15.356282566
 20
8.4341890361
 30
0.0
 10
15.3563423132
 20
8.4340878689
 30
0.0
 10
15.3563806736
 20
8.4340230931
 30
0.0
 10
15.3564022062
 20
8.4339865548
 30
0.0
 10
15.3564191942
 20
8.4339582862
 30
0.0
 10
15.3564308407
 20
8.4339377011
 30
0.0
 10
15.3564387364
 20
8.4339260278
 30
0.0
 10
15.3564412562
 20
8.4339200833
 30
0.0
 10
15.3564423459
 20
8.4339189453
 30
0.0
  0
SPLINE
  5
4F9
100
AcDbEntity
  8
0
100
AcDbSpline
 62
7
  6
CONTINUOUS
 70
0
 71
3
 72
46
 73
42
 74
0
 42
0.0000001
 43
0.0000001
 44
0.0000000001
 40
0.0
 40
0.0
 40
0.0
 40
0.0
 40
0.0000217209
 40
0.0000868628
 40
0.0001953616
 40
0.0003471534
 40
0.0005421742
 40
0.0007803602
 40
0.0013859716
 40
0.0021634761
 40
0.0031123625
 40
0.0042321196
 40
0.0055222366
 40
0.0086115064
 40
0.0123760872
 40
0.0168116069
 40
0.0219098331
 40
0.0276597964
 40
0.0340504862
 40
0.0410709114
 40
0.0487101024
 40
0.0658008207
 40
0.0852255306
 40
0.1068732534
 40
0.1306326783
 40
0.1563937177
 40
0.18405054
 40
0.2135009038
 40
0.2446443674
 40
0.3116286261
 40
0.3842986683
 40
0.4620109921
 40
0.5441936879
 40
0.6302661332
 40
0.6745674701
 40
0.7196110165
 40
0.7653054486
 40
0.8115559447
 40
0.8582733857
 40
0.9053519476
 40
1.0
 40
1.0
 40
1.0
 40
1.0
 10
14.2414423558
 20
8.4339189453
 30
0.0
 10
14.2414412683
 20
8.4339178097
 30
0.0
 10
14.2414490725
 20
8.433929278
 30
0.0
 10
14.2414518376
 20
8.433935596
 30
0.0
 10
14.2414663677
 20
8.4339592032
 30
0.0
 10
14.2414820313
 20
8.4339860995
 30
0.0
 10
14.2415040157
 20
8.4340231238
 30
0.0
 10
14.2415420637
 20
8.4340875969
 30
0.0
 10
14.2416018599
 20
8.4341888474
 30
0.0
 10
14.2416875394
 20
8.434334193
 30
0.0
 10
14.2417921086
 20
8.4345117611
 30
0.0
 10
14.2419153682
 20
8.4347213332
 30
0.0
 10
14.2421170072
 20
8.4350645835
 30
0.0
 10
14.2424151896
 20
8.4355731638
 30
0.0
 10
14.2428277788
 20
8.4362786211
 30
0.0
 10
14.2433129279
 20
8.4371101161
 30
0.0
 10
14.2438691251
 20
8.4380665561
 30
0.0
 10
14.2444944137
 20
8.4391465443
 30
0.0
 10
14.2451867866
 20
8.4403484788
 30
0.0
 10
14.2459442186
 20
8.4416707632
 30
0.0
 10
14.2470814232
 20
8.4436681644
 30
0.0
 10
14.2486511075
 20
8.4464526213
 30
0.0
 10
14.2506955877
 20
8.4501334702
 30
0.0
 10
14.2529433265
 20
8.4542535128
 30
0.0
 10
14.2553722206
 20
8.4587970461
 30
0.0
 10
14.2579603344
 20
8.4637484776
 30
0.0
 10
14.2606840307
 20
8.469093565
 30
0.0
 10
14.2635189338
 20
8.4748188744
 30
0.0
 10
14.2675132316
 20
8.4831461824
 30
0.0
 10
14.2726280201
 20
8.4944049939
 30
0.0
 10
14.278677756
 20
8.5089342157
 30
0.0
 10
14.2845780029
 20
8.5247067798
 30
0.0
 10
14.2901120722
 20
8.5416368047
 30
0.0
 10
14.2941993532
 20
8.5564785552
 30
0.0
 10
14.2970909552
 20
8.5688449658
 30
0.0
 10
14.2990516825
 20
8.5784233378
 30
0.0
 10
14.3007611484
 20
8.5881930559
 30
0.0
 10
14.3021974839
 20
8.5981291921
 30
0.0
 10
14.3033371888
 20
8.6082049099
 30
0.0
 10
14.3044375701
 20
8.6218036177
 30
0.0
 10
14.304776379
 20
8.6320672678
 30
0.0
 10
14.304776379
 20
8.6389189453
 30
0.0
  0
SPLINE
  5
4FA
100
AcDbEntity
  8
0
100
AcDbSpline
 62
7
  6
CONTINUOUS
 70
0
 71
3
 72
25
 73
21
 74
0
 42
0.0000001
 43
0.0000001
 44
0.0000000001
 40
0.0
 40
0.0
 40
0.0
 40
0.0
 40
0.0472911333
 40
0.094509013
 40
0.1415073122
 40
0.1881455254
 40
0.279937894
 40
0.3249139511
 40
0.3691546291
 40
0.4551195522
 40
0.5372044619
 40
0.6148472812
 40
0.6874704924
 40
0.815028199
 40
0.8684953753
 40
0.9139919065
 40
0.9506353762
 40
0.977614052
 40
0.9942181897
 40
1.0
 40
1.0
 40
1.0
 40
1.0
 10
14.304776379
 20
8.6389189453
 30
0.0
 10
14.304776379
 20
8.642342352
 30
0.0
 10
14.3046635277
 20
8.6491843784
 30
0.0
 10
14.3041641671
 20
8.6594175464
 30
0.0
 10
14.3033429038
 20
8.6695827404
 30
0.0
 10
14.3018351495
 20
8.6829227398
 30
0.0
 10
14.2997397401
 20
8.6960426283
 30
0.0
 10
14.2971146777
 20
8.7088815598
 30
0.0
 10
14.2942310309
 20
8.7212322193
 30
0.0
 10
14.2901560325
 20
8.7360570767
 30
0.0
 10
14.2846345427
 20
8.7529699951
 30
0.0
 10
14.278746348
 20
8.7687303628
 30
0.0
 10
14.271021568
 20
8.7873029296
 30
0.0
 10
14.2632001207
 20
8.8039275064
 30
0.0
 10
14.255685312
 20
8.8185028072
 30
0.0
 10
14.2510227013
 20
8.8271420519
 30
0.0
 10
14.2471687195
 20
8.8340374016
 30
0.0
 10
14.2442790567
 20
8.839075154
 30
0.0
 10
14.2424776811
 20
8.842161425
 30
0.0
 10
14.241656339
 20
8.8435583869
 30
0.0
 10
14.2414427182
 20
8.8439183125
 30
0.0
  0
SPLINE
  5
4FB
100
AcDbEntity
  8
0
100
AcDbSpline
 62
7
  6
CONTINUOUS
 70
0
 71
3
 72
9
 73
5
 74
0
 42
0.0000001
 43
0.0000001
 44
0.0000000001
 40
0.0
 40
0.0
 40
0.0
 40
0.0
 40
0.4958983142
 40
1.0
 40
1.0
 40
1.0
 40
1.0
 10
14.5781879338
 20
8.1649198786
 30
0.0
 10
14.5761595173
 20
8.1647726188
 30
0.0
 10
14.5720867452
 20
8.1641446926
 30
0.0
 10
14.5681649071
 20
8.1628845631
 30
0.0
 10
14.5662489262
 20
8.1621079343
 30
0.0
  0
SPLINE
  5
4FC
100
AcDbEntity
  8
0
100
AcDbSpline
 62
7
  6
CONTINUOUS
 70
0
 71
3
 72
14
 73
10
 74
0
 42
0.0000001
 43
0.0000001
 44
0.0000000001
 40
0.0
 40
0.0
 40
0.0
 40
0.0
 40
0.1143130889
 40
0.2313025625
 40
0.3513217676
 40
0.4745786973
 40
0.7309058302
 40
0.8640678193
 40
1.0
 40
1.0
 40
1.0
 40
1.0
 10
14.5662489262
 20
8.1621079343
 30
0.0
 10
14.5647739952
 20
8.1615100819
 30
0.0
 10
14.5618562262
 20
8.1601290551
 30
0.0
 10
14.5576804385
 20
8.1575659491
 30
0.0
 10
14.5536892481
 20
8.1545138589
 30
0.0
 10
14.5485922731
 20
8.1497682823
 30
0.0
 10
14.5440640167
 20
8.1441940037
 30
0.0
 10
14.5401702638
 20
8.1379961849
 30
0.0
 10
14.5384245184
 20
8.1346761448
 30
0.0
 10
14.5376055968
 20
8.1329700257
 30
0.0
  0
SPLINE
  5
4FD
100
AcDbEntity
  8
0
100
AcDbSpline
 62
7
  6
CONTINUOUS
 70
0
 71
3
 72
14
 73
10
 74
0
 42
0.0000001
 43
0.0000001
 44
0.0000000001
 40
0.0
 40
0.0
 40
0.0
 40
0.0
 40
0.1178828635
 40
0.2369026449
 40
0.3575497113
 40
0.4803333042
 40
0.605705136
 40
0.7340250157
 40
1.0
 40
1.0
 40
1.0
 40
1.0
 10
14.5808605845
 20
8.1649208169
 30
0.0
 10
14.5822510575
 20
8.1648202848
 30
0.0
 10
14.5850365335
 20
8.1644633223
 30
0.0
 10
14.5891554096
 20
8.1634731839
 30
0.0
 10
14.5932001126
 20
8.1620300756
 30
0.0
 10
14.597142261
 20
8.1601471671
 30
0.0
 10
14.6009580298
 20
8.1578390026
 30
0.0
 10
14.6058987956
 20
8.1541731006
 30
0.0
 10
14.6092567264
 20
8.1508948006
 30
0.0
 10
14.6113279828
 20
8.1485275562
 30
0.0
  0
SPLINE
  5
4FE
100
AcDbEntity
  8
0
100
AcDbSpline
 62
7
  6
CONTINUOUS
 70
0
 71
3
 72
12
 73
8
 74
0
 42
0.0000001
 43
0.0000001
 44
0.0000000001
 40
0.0
 40
0.0
 40
0.0
 40
0.0
 40
0.2398037788
 40
0.3615206726
 40
0.4848393728
 40
0.7374368285
 40
1.0
 40
1.0
 40
1.0
 40
1.0
 10
15.00863256
 20
8.0349176574
 30
0.0
 10
15.0109627999
 20
8.0350866333
 30
0.0
 10
15.0144622473
 20
8.0356698979
 30
0.0
 10
15.0189798889
 20
8.0370640511
 30
0.0
 10
15.0234750987
 20
8.0388961461
 30
0.0
 10
15.0289144382
 20
8.0419744375
 30
0.0
 10
15.0328566878
 20
8.0451155366
 30
0.0
 10
15.0347408087
 20
8.0468458419
 30
0.0
  0
SPLINE
  5
4FF
100
AcDbEntity
  8
0
100
AcDbSpline
 62
7
  6
CONTINUOUS
 70
0
 71
3
 72
28
 73
24
 74
0
 42
0.0000001
 43
0.0000001
 44
0.0000000001
 40
0.0
 40
0.0
 40
0.0
 40
0.0
 40
0.0619699583
 40
0.0939995733
 40
0.1266808672
 40
0.1937968828
 40
0.262877961
 40
0.3332841229
 40
0.4042573903
 40
0.4749816416
 40
0.5446224169
 40
0.6123818674
 40
0.677550334
 40
0.7395527042
 40
0.7980267208
 40
0.8259187604
 40
0.8529158659
 40
0.8790520443
 40
0.904393537
 40
0.9290372328
 40
0.9531010363
 40
0.9767140579
 40
1.0
 40
1.0
 40
1.0
 40
1.0
 10
15.0347408087
 20
8.0468458419
 30
0.0
 10
15.0368903237
 20
8.0488198751
 30
0.0
 10
15.039915145
 20
8.0520819712
 30
0.0
 10
15.0434857075
 20
8.0568650227
 30
0.0
 10
15.046855322
 20
8.062084717
 30
0.0
 10
15.0504965842
 20
8.0691812621
 30
0.0
 10
15.0538715007
 20
8.0783299502
 30
0.0
 10
15.0562253127
 20
8.087979331
 30
0.0
 10
15.0575183673
 20
8.0979038477
 30
0.0
 10
15.0577351065
 20
8.1078737151
 30
0.0
 10
15.0568807321
 20
8.1176578128
 30
0.0
 10
15.0549896525
 20
8.1270295956
 30
0.0
 10
15.0521166736
 20
8.1357732279
 30
0.0
 10
15.0483376347
 20
8.1436848803
 30
0.0
 10
15.0444518339
 20
8.1495274298
 30
0.0
 10
15.0409747119
 20
8.1535856589
 30
0.0
 10
15.0382530222
 20
8.1562672108
 30
0.0
 10
15.035393202
 20
8.1586164919
 30
0.0
 10
15.0324127397
 20
8.160619
 30
0.0
 10
15.0293306309
 20
8.1622638849
 30
0.0
 10
15.0261649758
 20
8.163539103
 30
0.0
 10
15.0229383599
 20
8.1644352194
 30
0.0
 10
15.020750849
 20
8.1647799981
 30
0.0
 10
15.0196594273
 20
8.1648867882
 30
0.0
  0
SPLINE
  5
500
100
AcDbEntity
  8
0
100
AcDbSpline
 62
7
  6
CONTINUOUS
 70
0
 71
3
 72
14
 73
10
 74
0
 42
0.0000001
 43
0.0000001
 44
0.0000000001
 40
0.0
 40
0.0
 40
0.0
 40
0.0
 40
0.1114220669
 40
0.2261601835
 40
0.344637088
 40
0.4672225172
 40
0.7251539358
 40
0.8607032474
 40
1.0
 40
1.0
 40
1.0
 40
1.0
 10
15.0091726318
 20
8.1629737701
 30
0.0
 10
15.0076899234
 20
8.1624353948
 30
0.0
 10
15.004750505
 20
8.1611398707
 30
0.0
 10
15.0005551979
 20
8.158627047
 30
0.0
 10
14.9965592034
 20
8.1555415995
 30
0.0
 10
14.9914652187
 20
8.1506309132
 30
0.0
 10
14.9870220433
 20
8.1447633355
 30
0.0
 10
14.9832959872
 20
8.1381994292
 30
0.0
 10
14.9816624903
 20
8.1346614896
 30
0.0
 10
14.9809073968
 20
8.1328397241
 30
0.0
  0
SPLINE
  5
501
100
AcDbEntity
  8
0
100
AcDbSpline
 62
7
  6
CONTINUOUS
 70
0
 71
3
 72
9
 73
5
 74
0
 42
0.0000001
 43
0.0000001
 44
0.0000000001
 40
0.0
 40
0.0
 40
0.0
 40
0.0
 40
0.2455633541
 40
1.0
 40
1.0
 40
1.0
 40
1.0
 10
14.9809073968
 20
8.1328397241
 30
0.0
 10
14.9805959968
 20
8.1321001434
 30
0.0
 10
14.9793796122
 20
8.1290667617
 30
0.0
 10
14.978365709
 20
8.1259529495
 30
0.0
 10
14.977709422
 20
8.123576519
 30
0.0
  0
SPLINE
  5
502
100
AcDbEntity
  8
0
100
AcDbSpline
 62
7
  6
CONTINUOUS
 70
0
 71
3
 72
9
 73
5
 74
0
 42
0.0000001
 43
0.0000001
 44
0.0000000001
 40
0.0
 40
0.0
 40
0.0
 40
0.0
 40
0.245753081
 40
1.0
 40
1.0
 40
1.0
 40
1.0
 10
14.977709422
 20
8.123576519
 30
0.0
 10
14.9773174057
 20
8.1221570188
 30
0.0
 10
14.9758795277
 20
8.1163381886
 30
0.0
 10
14.975062314
 20
8.1103693833
 30
0.0
 10
14.9747756117
 20
8.1058587811
 30
0.0
  0
SPLINE
  5
503
100
AcDbEntity
  8
0
100
AcDbSpline
 62
7
  6
CONTINUOUS
 70
0
 71
3
 72
15
 73
11
 74
0
 42
0.0000001
 43
0.0000001
 44
0.0000000001
 40
0.0
 40
0.0
 40
0.0
 40
0.0
 40
0.1370061242
 40
0.2722743014
 40
0.4046637252
 40
0.5332216203
 40
0.6572445894
 40
0.7763399973
 40
0.8904794299
 40
1.0
 40
1.0
 40
1.0
 40
1.0
 10
14.9750704647
 20
8.0903635387
 30
0.0
 10
14.9753845788
 20
8.0872569746
 30
0.0
 10
14.9763151391
 20
8.0811097169
 30
0.0
 10
14.9786037179
 20
8.0721600945
 30
0.0
 10
14.9817430466
 20
8.0636751595
 30
0.0
 10
14.9856732334
 20
8.0558104299
 30
0.0
 10
14.9903266675
 20
8.0487078714
 30
0.0
 10
14.995624229
 20
8.0424938563
 30
0.0
 10
15.0014709909
 20
8.0372763266
 30
0.0
 10
15.0057553178
 20
8.0344702575
 30
0.0
 10
15.0079476662
 20
8.0332770969
 30
0.0
  0
SPLINE
  5
504
100
AcDbEntity
  8
0
100
AcDbSpline
 62
7
  6
CONTINUOUS
 70
0
 71
3
 72
11
 73
7
 74
0
 42
0.0000001
 43
0.0000001
 44
0.0000000001
 40
0.0
 40
0.0
 40
0.0
 40
0.0
 40
0.2561698686
 40
0.507469653
 40
0.7550343735
 40
1.0
 40
1.0
 40
1.0
 40
1.0
 10
15.0079476662
 20
8.0332770969
 30
0.0
 10
15.0093144584
 20
8.0325332359
 30
0.0
 10
15.0120992667
 20
8.0311958352
 30
0.0
 10
15.0164318052
 20
8.0296640538
 30
0.0
 10
15.0208405068
 20
8.0286343821
 30
0.0
 10
15.0238193214
 20
8.0282836013
 30
0.0
 10
15.0253046779
 20
8.0281942609
 30
0.0
  0
SPLINE
  5
505
100
AcDbEntity
  8
0
100
AcDbSpline
 62
7
  6
CONTINUOUS
 70
0
 71
3
 72
11
 73
7
 74
0
 42
0.0000001
 43
0.0000001
 44
0.0000000001
 40
0.0
 40
0.0
 40
0.0
 40
0.0
 40
0.2635390745
 40
0.5187255907
 40
0.7644283215
 40
1.0
 40
1.0
 40
1.0
 40
1.0
 10
14.9796292293
 20
8.1333604769
 30
0.0
 10
14.9806055483
 20
8.1364513432
 30
0.0
 10
14.9828177714
 20
8.1424486821
 30
0.0
 10
14.986965817
 20
8.1509054032
 30
0.0
 10
14.9918294528
 20
8.1585690754
 30
0.0
 10
14.9955857348
 20
8.1631676103
 30
0.0
 10
14.9975628369
 20
8.1652856434
 30
0.0
  0
SPLINE
  5
506
100
AcDbEntity
  8
0
100
AcDbSpline
 62
7
  6
CONTINUOUS
 70
0
 71
3
 72
13
 73
9
 74
0
 42
0.0000001
 43
0.0000001
 44
0.0000000001
 40
0.0
 40
0.0
 40
0.0
 40
0.0
 40
0.2655557258
 40
0.519266378
 40
0.6423234447
 40
0.7632051548
 40
0.8822967035
 40
1.0
 40
1.0
 40
1.0
 40
1.0
 10
14.9975628369
 20
8.1652856434
 30
0.0
 10
14.9995593111
 20
8.1674244295
 30
0.0
 10
15.0037503182
 20
8.1713513798
 30
0.0
 10
15.00961019
 20
8.1753757034
 30
0.0
 10
15.0144880938
 20
8.1778922578
 30
0.0
 10
15.0181922198
 20
8.1794152524
 30
0.0
 10
15.0219589499
 20
8.1805898525
 30
0.0
 10
15.0245132444
 20
8.181141315
 30
0.0
 10
15.025792048
 20
8.1813566959
 30
0.0
  0
SPLINE
  5
507
100
AcDbEntity
  8
0
100
AcDbSpline
 62
7
  6
CONTINUOUS
 70
0
 71
3
 72
35
 73
31
 74
0
 42
0.0000001
 43
0.0000001
 44
0.0000000001
 40
0.0
 40
0.0
 40
0.0
 40
0.0
 40
0.0267802722
 40
0.0537376563
 40
0.0810761506
 40
0.1090046914
 40
0.1377045254
 40
0.1673029428
 40
0.1978688219
 40
0.2294277717
 40
0.2953492064
 40
0.3645798621
 40
0.4361057658
 40
0.5086500844
 40
0.5448975888
 40
0.5808845633
 40
0.6164431818
 40
0.6514196885
 40
0.685669562
 40
0.7190725348
 40
0.7515261443
 40
0.7829565232
 40
0.8133204972
 40
0.8426048303
 40
0.8708386161
 40
0.8980841484
 40
0.9244581784
 40
0.9501185871
 40
0.9752419586
 40
1.0
 40
1.0
 40
1.0
 40
1.0
 10
15.0253046779
 20
8.0281942609
 30
0.0
 10
15.0271529517
 20
8.0280830921
 30
0.0
 10
15.0308831072
 20
8.0281278642
 30
0.0
 10
15.0364401019
 20
8.0289880361
 30
0.0
 10
15.041901262
 20
8.0306304779
 30
0.0
 10
15.0472062094
 20
8.0330279968
 30
0.0
 10
15.0523017022
 20
8.0361512165
 30
0.0
 10
15.0571388622
 20
8.0399607355
 30
0.0
 10
15.0616729189
 20
8.0444119989
 30
0.0
 10
15.0673353399
 20
8.0512342598
 30
0.0
 10
15.0733860256
 20
8.0611243811
 30
0.0
 10
15.0787462755
 20
8.0744319523
 30
0.0
 10
15.0821595351
 20
8.088832095
 30
0.0
 10
15.0833008236
 20
8.1012912625
 30
0.0
 10
15.0831751487
 20
8.1113071065
 30
0.0
 10
15.0825658977
 20
8.118741451
 30
0.0
 10
15.0814487134
 20
8.1260274136
 30
0.0
 10
15.0798411913
 20
8.1330983145
 30
0.0
 10
15.0777583631
 20
8.1398886647
 30
0.0
 10
15.075225084
 20
8.1463374864
 30
0.0
 10
15.0722668424
 20
8.1523871376
 30
0.0
 10
15.068912939
 20
8.1579838064
 30
0.0
 10
15.0651982493
 20
8.1630800562
 30
0.0
 10
15.061155655
 20
8.1676297901
 30
0.0
 10
15.0568268026
 20
8.1715968583
 30
0.0
 10
15.0522489722
 20
8.1749451801
 30
0.0
 10
15.047464493
 20
8.1776473928
 30
0.0
 10
15.0425151527
 20
8.1796776895
 30
0.0
 10
15.037452031
 20
8.1810177366
 30
0.0
 10
15.0340181515
 20
8.1814512445
 30
0.0
 10
15.032309178
 20
8.1815494888
 30
0.0
  0
SPLINE
  5
508
100
AcDbEntity
  8
0
100
AcDbSpline
 62
7
  6
CONTINUOUS
 70
0
 71
3
 72
11
 73
7
 74
0
 42
0.0000001
 43
0.0000001
 44
0.0000000001
 40
0.0
 40
0.0
 40
0.0
 40
0.0
 40
0.2454343894
 40
0.4926635579
 40
0.743543832
 40
1.0
 40
1.0
 40
1.0
 40
1.0
 10
14.5725748312
 20
8.0281869404
 30
0.0
 10
14.5740804737
 20
8.0280879699
 30
0.0
 10
14.5771207748
 20
8.0281016893
 30
0.0
 10
14.5816592563
 20
8.0287515035
 30
0.0
 10
14.5861343908
 20
8.0300225773
 30
0.0
 10
14.5890084704
 20
8.0312586604
 30
0.0
 10
14.5904168982
 20
8.0319672947
 30
0.0
  0
SPLINE
  5
509
100
AcDbEntity
  8
0
100
AcDbSpline
 62
7
  6
CONTINUOUS
 70
0
 71
3
 72
13
 73
9
 74
0
 42
0.0000001
 43
0.0000001
 44
0.0000000001
 40
0.0
 40
0.0
 40
0.0
 40
0.0
 40
0.1081368972
 40
0.2208133051
 40
0.3384911694
 40
0.4613616615
 40
0.7219203948
 40
1.0
 40
1.0
 40
1.0
 40
1.0
 10
14.5904168982
 20
8.0319672947
 30
0.0
 10
14.5921952086
 20
8.0328620313
 30
0.0
 10
14.5956917741
 20
8.0349679009
 30
0.0
 10
14.6005494996
 20
8.0388975264
 30
0.0
 10
14.6050646637
 20
8.0435994797
 30
0.0
 10
14.6106548234
 20
8.0509594437
 30
0.0
 10
14.6164169888
 20
8.0617831948
 30
0.0
 10
14.6194476165
 20
8.0712802041
 30
0.0
 10
14.6206155323
 20
8.0762644211
 30
0.0
  0
SPLINE
  5
50A
100
AcDbEntity
  8
0
100
AcDbSpline
 62
7
  6
CONTINUOUS
 70
0
 71
3
 72
11
 73
7
 74
0
 42
0.0000001
 43
0.0000001
 44
0.0000000001
 40
0.0
 40
0.0
 40
0.0
 40
0.0
 40
0.2459732496
 40
0.4337927231
 40
0.6229930031
 40
1.0
 40
1.0
 40
1.0
 40
1.0
 10
14.6206155323
 20
8.0762644211
 30
0.0
 10
14.6215073759
 20
8.080070468
 30
0.0
 10
14.6226753983
 20
8.0868843183
 30
0.0
 10
14.623375824
 20
8.0967712843
 30
0.0
 10
14.6232261727
 20
8.1087631635
 30
0.0
 10
14.6220000168
 20
8.117733327
 30
0.0
 10
14.6206861537
 20
8.1235790973
 30
0.0
  0
SPLINE
  5
50B
100
AcDbEntity
  8
0
100
AcDbSpline
 62
7
  6
CONTINUOUS
 70
0
 71
3
 72
12
 73
8
 74
0
 42
0.0000001
 43
0.0000001
 44
0.0000000001
 40
0.0
 40
0.0
 40
0.0
 40
0.0
 40
0.2622224394
 40
0.3909145099
 40
0.5175969435
 40
0.7639152121
 40
1.0
 40
1.0
 40
1.0
 40
1.0
 10
14.6206861537
 20
8.1235790973
 30
0.0
 10
14.6198499755
 20
8.1272995043
 30
0.0
 10
14.6183006177
 20
8.1327854024
 30
0.0
 10
14.6156328179
 20
8.1398271049
 30
0.0
 10
14.6126483092
 20
8.1464885035
 30
0.0
 10
14.6082976333
 20
8.1542308419
 30
0.0
 10
14.6040708395
 20
8.1598624141
 30
0.0
 10
14.6018132189
 20
8.1624488205
 30
0.0
  0
SPLINE
  5
50C
100
AcDbEntity
  8
0
100
AcDbSpline
 62
7
  6
CONTINUOUS
 70
0
 71
3
 72
11
 73
7
 74
0
 42
0.0000001
 43
0.0000001
 44
0.0000000001
 40
0.0
 40
0.0
 40
0.0
 40
0.0
 40
0.2643859097
 40
0.5179070272
 40
0.7622723376
 40
1.0
 40
1.0
 40
1.0
 40
1.0
 10
14.5998132115
 20
8.1646423803
 30
0.0
 10
14.5977715239
 20
8.1667853775
 30
0.0
 10
14.5934871081
 20
8.1707253665
 30
0.0
 10
14.5863973555
 20
8.1755339372
 30
0.0
 10
14.5789017963
 20
8.1790318049
 30
0.0
 10
14.5736623946
 20
8.1804556711
 30
0.0
 10
14.5710424285
 20
8.1809236796
 30
0.0
  0
SPLINE
  5
50D
100
AcDbEntity
  8
0
100
AcDbSpline
 62
7
  6
CONTINUOUS
 70
0
 71
3
 72
23
 73
19
 74
0
 42
0.0000001
 43
0.0000001
 44
0.0000000001
 40
0.0
 40
0.0
 40
0.0
 40
0.0
 40
0.0674353482
 40
0.1366835227
 40
0.2070670987
 40
0.2780167904
 40
0.4189586868
 40
0.4878688441
 40
0.5549383436
 40
0.6197086429
 40
0.6511280608
 40
0.6818551084
 40
0.7411220261
 40
0.7974956409
 40
0.8511124313
 40
0.9023445274
 40
0.9517659047
 40
1.0
 40
1.0
 40
1.0
 40
1.0
 10
14.5376055968
 20
8.1329700257
 30
0.0
 10
14.5363185452
 20
8.1304262987
 30
0.0
 10
14.534012843
 20
8.1251124794
 30
0.0
 10
14.5313960857
 20
8.1167440711
 30
0.0
 10
14.5296058956
 20
8.1080076446
 30
0.0
 10
14.5283506906
 20
8.0961274991
 30
0.0
 10
14.5287856982
 20
8.0841777393
 30
0.0
 10
14.5309036771
 20
8.0726493083
 30
0.0
 10
14.5332651449
 20
8.0644822168
 30
0.0
 10
14.5358699758
 20
8.0580750074
 30
0.0
 10
14.5383084294
 20
8.0532926834
 30
0.0
 10
14.5409033361
 20
8.0488615185
 30
0.0
 10
14.544508968
 20
8.043811113
 30
0.0
 10
14.5494156134
 20
8.0385720813
 30
0.0
 10
14.5547663487
 20
8.0343083304
 30
0.0
 10
14.5604735096
 20
8.0310892155
 30
0.0
 10
14.5664368936
 20
8.0289790318
 30
0.0
 10
14.5705401484
 20
8.0283206865
 30
0.0
 10
14.5725748312
 20
8.0281869404
 30
0.0
  0
SPLINE
  5
50E
100
AcDbEntity
  8
0
100
AcDbSpline
 62
7
  6
CONTINUOUS
 70
0
 71
3
 72
20
 73
16
 74
0
 42
0.0000001
 43
0.0000001
 44
0.0000000001
 40
0.0
 40
0.0
 40
0.0
 40
0.0
 40
0.0504813881
 40
0.1025587579
 40
0.1565276239
 40
0.2125340826
 40
0.2705863975
 40
0.3305974623
 40
0.3924170217
 40
0.4558620345
 40
0.5867618173
 40
0.6539332683
 40
0.7219907024
 40
0.8600771021
 40
1.0
 40
1.0
 40
1.0
 40
1.0
 10
14.5560511634
 20
8.0048189453
 30
0.0
 10
14.5579292897
 20
8.0048189453
 30
0.0
 10
14.561749999
 20
8.0051093786
 30
0.0
 10
14.5674532155
 20
8.0063676458
 30
0.0
 10
14.5731375639
 20
8.0084238296
 30
0.0
 10
14.5787357883
 20
8.0112352023
 30
0.0
 10
14.5841877422
 20
8.0147514572
 30
0.0
 10
14.5894380603
 20
8.0189170943
 30
0.0
 10
14.5944377369
 20
8.0236753447
 30
0.0
 10
14.6007747066
 20
8.0308052125
 30
0.0
 10
14.6063578833
 20
8.0388266033
 30
0.0
 10
14.6111226407
 20
8.047512296
 30
0.0
 10
14.6153842276
 20
8.0567531912
 30
0.0
 10
14.6195641341
 20
8.0689735812
 30
0.0
 10
14.6215923249
 20
8.0791513217
 30
0.0
 10
14.6222730745
 20
8.0843123572
 30
0.0
  0
SPLINE
  5
50F
100
AcDbEntity
  8
0
100
AcDbSpline
 62
7
  6
CONTINUOUS
 70
0
 71
3
 72
11
 73
7
 74
0
 42
0.0000001
 43
0.0000001
 44
0.0000000001
 40
0.0
 40
0.0
 40
0.0
 40
0.0
 40
0.2558324441
 40
0.5093607724
 40
0.7583170572
 40
1.0
 40
1.0
 40
1.0
 40
1.0
 10
14.6232722615
 20
8.1023507336
 30
0.0
 10
14.6231533721
 20
8.1081905458
 30
0.0
 10
14.6220623088
 20
8.1198182331
 30
0.0
 10
14.6179190517
 20
8.1366917587
 30
0.0
 10
14.6114410907
 20
8.1524652694
 30
0.0
 10
14.6056093348
 20
8.1620969706
 30
0.0
 10
14.6023592696
 20
8.166556237
 30
0.0
  0
SPLINE
  5
510
100
AcDbEntity
  8
0
100
AcDbSpline
 62
7
  6
CONTINUOUS
 70
0
 71
3
 72
15
 73
11
 74
0
 42
0.0000001
 43
0.0000001
 44
0.0000000001
 40
0.0
 40
0.0
 40
0.0
 40
0.0
 40
0.1398074156
 40
0.2760596737
 40
0.4082599345
 40
0.5359679204
 40
0.6588791435
 40
0.7769261496
 40
0.8903932974
 40
1.0
 40
1.0
 40
1.0
 40
1.0
 10
14.6023592696
 20
8.166556237
 30
0.0
 10
14.6008137725
 20
8.1686767433
 30
0.0
 10
14.5975892023
 20
8.1727415404
 30
0.0
 10
14.5923135065
 20
8.1783122587
 30
0.0
 10
14.5867067767
 20
8.1832139844
 30
0.0
 10
14.5808298022
 20
8.1873713128
 30
0.0
 10
14.574751064
 20
8.1907106383
 30
0.0
 10
14.5685463114
 20
8.1931630901
 30
0.0
 10
14.5623015339
 20
8.1946695551
 30
0.0
 10
14.558108296
 20
8.1950189453
 30
0.0
 10
14.5560511634
 20
8.1950189453
 30
0.0
  0
SPLINE
  5
511
100
AcDbEntity
  8
0
100
AcDbSpline
 62
7
  6
CONTINUOUS
 70
0
 71
3
 72
39
 73
35
 74
0
 42
0.0000001
 43
0.0000001
 44
0.0000000001
 40
0.0
 40
0.0
 40
0.0
 40
0.0
 40
0.025923047
 40
0.051565184
 40
0.0773526195
 40
0.1036831012
 40
0.1308772758
 40
0.1591565103
 40
0.1886452079
 40
0.2193856914
 40
0.251356285
 40
0.2844869325
 40
0.3186710749
 40
0.3537742264
 40
0.3896395472
 40
0.4260925591
 40
0.462945166
 40
0.4999999407
 40
0.5370547609
 40
0.5739073406
 40
0.6103603522
 40
0.6462257089
 40
0.6813288125
 40
0.7155130023
 40
0.7486436286
 40
0.780614224
 40
0.8113547277
 40
0.8408434064
 40
0.8691226752
 40
0.8963168442
 40
0.9226473565
 40
0.9484348102
 40
0.9740769562
 40
1.0
 40
1.0
 40
1.0
 40
1.0
 10
14.5560511634
 20
8.1950189453
 30
0.0
 10
14.553989301
 20
8.1950189453
 30
0.0
 10
14.5498783604
 20
8.1946751843
 30
0.0
 10
14.5439009803
 20
8.1930961565
 30
0.0
 10
14.5382536527
 20
8.1905027465
 30
0.0
 10
14.5330002236
 20
8.1869652923
 30
0.0
 10
14.5281769506
 20
8.1825676213
 30
0.0
 10
14.5238011128
 20
8.1773966291
 30
0.0
 10
14.5198767942
 20
8.1715368362
 30
0.0
 10
14.5164004615
 20
8.1650685604
 30
0.0
 10
14.513364442
 20
8.1580677195
 30
0.0
 10
14.510759161
 20
8.1506063544
 30
0.0
 10
14.5085746196
 20
8.1427534082
 30
0.0
 10
14.506801354
 20
8.1345756449
 30
0.0
 10
14.5054311164
 20
8.1261385022
 30
0.0
 10
14.5044572576
 20
8.1175068315
 30
0.0
 10
14.5038749166
 20
8.10874537
 30
0.0
 10
14.5036811386
 20
8.0999189559
 30
0.0
 10
14.5038749161
 20
8.091092544
 30
0.0
 10
14.504457255
 20
8.0823310809
 30
0.0
 10
14.5054311142
 20
8.0736994096
 30
0.0
 10
14.5068013494
 20
8.0652622675
 30
0.0
 10
14.5085746148
 20
8.0570845013
 30
0.0
 10
14.5107591556
 20
8.0492315567
 30
0.0
 10
14.5133644338
 20
8.0417701882
 30
0.0
 10
14.5164004547
 20
8.034769348
 30
0.0
 10
14.5198767834
 20
8.0283010697
 30
0.0
 10
14.5238011043
 20
8.0224412749
 30
0.0
 10
14.5281769399
 20
8.0172702798
 30
0.0
 10
14.5330002157
 20
8.0128726048
 30
0.0
 10
14.5382536466
 20
8.0093351472
 30
0.0
 10
14.5439009783
 20
8.0067417347
 30
0.0
 10
14.5498783602
 20
8.0051627063
 30
0.0
 10
14.5539893013
 20
8.0048189453
 30
0.0
 10
14.5560511634
 20
8.0048189453
 30
0.0
  0
SPLINE
  5
512
100
AcDbEntity
  8
0
100
AcDbSpline
 62
7
  6
CONTINUOUS
 70
0
 71
3
 72
39
 73
35
 74
0
 42
0.0000001
 43
0.0000001
 44
0.0000000001
 40
0.0
 40
0.0
 40
0.0
 40
0.0
 40
0.025923047
 40
0.051565184
 40
0.0773526195
 40
0.1036831012
 40
0.1308772758
 40
0.1591565103
 40
0.1886452079
 40
0.2193856914
 40
0.251356285
 40
0.2844869325
 40
0.3186710749
 40
0.3537742264
 40
0.3896395472
 40
0.4260925591
 40
0.462945166
 40
0.4999999407
 40
0.5370547609
 40
0.5739073406
 40
0.6103603522
 40
0.6462257089
 40
0.6813288125
 40
0.7155130023
 40
0.7486436286
 40
0.780614224
 40
0.8113547277
 40
0.8408434064
 40
0.8691226752
 40
0.8963168442
 40
0.9226473565
 40
0.9484348102
 40
0.9740769562
 40
1.0
 40
1.0
 40
1.0
 40
1.0
 10
15.0418335221
 20
8.0048189453
 30
0.0
 10
15.0438953845
 20
8.0048189453
 30
0.0
 10
15.0480063251
 20
8.0051627063
 30
0.0
 10
15.0539837051
 20
8.0067417342
 30
0.0
 10
15.0596310328
 20
8.0093351441
 30
0.0
 10
15.0648844618
 20
8.0128725983
 30
0.0
 10
15.0697077349
 20
8.0172702693
 30
0.0
 10
15.0740835727
 20
8.0224412615
 30
0.0
 10
15.0780078912
 20
8.0283010545
 30
0.0
 10
15.081484224
 20
8.0347693303
 30
0.0
 10
15.0845202435
 20
8.0417701712
 30
0.0
 10
15.0871255245
 20
8.0492315362
 30
0.0
 10
15.0893100659
 20
8.0570844825
 30
0.0
 10
15.0910833315
 20
8.0652622457
 30
0.0
 10
15.092453569
 20
8.0736993885
 30
0.0
 10
15.0934274278
 20
8.0823310592
 30
0.0
 10
15.0940097689
 20
8.0910925207
 30
0.0
 10
15.0942035469
 20
8.0999189347
 30
0.0
 10
15.0940097694
 20
8.1087453466
 30
0.0
 10
15.0934274304
 20
8.1175068097
 30
0.0
 10
15.0924535713
 20
8.126138481
 30
0.0
 10
15.0910833361
 20
8.1345756232
 30
0.0
 10
15.0893100706
 20
8.1427533894
 30
0.0
 10
15.0871255299
 20
8.1506063339
 30
0.0
 10
15.0845202517
 20
8.1580677024
 30
0.0
 10
15.0814842308
 20
8.1650685427
 30
0.0
 10
15.0780079021
 20
8.171536821
 30
0.0
 10
15.0740835812
 20
8.1773966157
 30
0.0
 10
15.0697077456
 20
8.1825676109
 30
0.0
 10
15.0648844697
 20
8.1869652858
 30
0.0
 10
15.0596310389
 20
8.1905027435
 30
0.0
 10
15.0539837072
 20
8.193096156
 30
0.0
 10
15.0480063253
 20
8.1946751843
 30
0.0
 10
15.0438953842
 20
8.1950189453
 30
0.0
 10
15.0418335221
 20
8.1950189453
 30
0.0
  0
SPLINE
  5
513
100
AcDbEntity
  8
0
100
AcDbSpline
 62
7
  6
CONTINUOUS
 70
0
 71
3
 72
15
 73
11
 74
0
 42
0.0000001
 43
0.0000001
 44
0.0000000001
 40
0.0
 40
0.0
 40
0.0
 40
0.0
 40
0.1271909149
 40
0.2550601291
 40
0.3829265847
 40
0.5101312474
 40
0.6360613011
 40
0.7600956423
 40
0.8816077243
 40
1.0
 40
1.0
 40
1.0
 40
1.0
 10
14.5329702027
 20
8.1221010307
 30
0.0
 10
14.5323093251
 20
8.1193776104
 30
0.0
 10
14.5311873042
 20
8.113864785
 30
0.0
 10
14.5301077596
 20
8.1054899342
 30
0.0
 10
14.5296366483
 20
8.0970578913
 30
0.0
 10
14.5297921957
 20
8.0886567707
 30
0.0
 10
14.5305622329
 20
8.080374598
 30
0.0
 10
14.531922029
 20
8.0722955755
 30
0.0
 10
14.5338497783
 20
8.0645041778
 30
0.0
 10
14.5355237983
 20
8.0594828907
 30
0.0
 10
14.5364544246
 20
8.0570459459
 30
0.0
  0
SPLINE
  5
514
100
AcDbEntity
  8
0
100
AcDbSpline
 62
7
  6
CONTINUOUS
 70
0
 71
3
 72
21
 73
17
 74
0
 42
0.0000001
 43
0.0000001
 44
0.0000000001
 40
0.0
 40
0.0
 40
0.0
 40
0.0
 40
0.0527586017
 40
0.1065640218
 40
0.1616543792
 40
0.2182422312
 40
0.276476606
 40
0.3363894651
 40
0.3979388794
 40
0.4610323057
 40
0.591236917
 40
0.6581282714
 40
0.7258933943
 40
0.7942629588
 40
0.8629474859
 40
1.0
 40
1.0
 40
1.0
 40
1.0
 10
14.5588031074
 20
8.1802105945
 30
0.0
 10
14.556923216
 20
8.1796918444
 30
0.0
 10
14.5531851257
 20
8.1784170615
 30
0.0
 10
14.5477748205
 20
8.1758531512
 30
0.0
 10
14.5425565506
 20
8.1726385397
 30
0.0
 10
14.5375797366
 20
8.168789034
 30
0.0
 10
14.5328857819
 20
8.1643378304
 30
0.0
 10
14.5285016041
 20
8.1593365152
 30
0.0
 10
14.5244578789
 20
8.1538320164
 30
0.0
 10
14.5195111401
 20
8.1458059686
 30
0.0
 10
14.5154422786
 20
8.1370428605
 30
0.0
 10
14.5123097919
 20
8.1277612796
 30
0.0
 10
14.5104060377
 20
8.1204958192
 30
0.0
 10
14.5089786829
 20
8.1130547577
 30
0.0
 10
14.5077220708
 20
8.1029964073
 30
0.0
 10
14.5075133385
 20
8.0953653061
 30
0.0
 10
14.5077173384
 20
8.0903034497
 30
0.0
  0
SPLINE
  5
515
100
AcDbEntity
  8
0
100
AcDbSpline
 62
7
  6
CONTINUOUS
 70
0
 71
3
 72
11
 73
7
 74
0
 42
0.0000001
 43
0.0000001
 44
0.0000000001
 40
0.0
 40
0.0
 40
0.0
 40
0.0
 40
0.2521802307
 40
0.5044620479
 40
0.7545045256
 40
1.0
 40
1.0
 40
1.0
 40
1.0
 10
15.0552217588
 20
8.0840910933
 30
0.0
 10
15.0558738485
 20
8.087674433
 30
0.0
 10
15.0568304493
 20
8.0949102251
 30
0.0
 10
15.0572504402
 20
8.1058141653
 30
0.0
 10
15.0566674566
 20
8.1166140694
 30
0.0
 10
15.0555997794
 20
8.1237049334
 30
0.0
 10
15.0548911722
 20
8.1271790461
 30
0.0
  0
SPLINE
  5
516
100
AcDbEntity
  8
0
100
AcDbSpline
 62
7
  6
CONTINUOUS
 70
0
 71
3
 72
15
 73
11
 74
0
 42
0.0000001
 43
0.0000001
 44
0.0000000001
 40
0.0
 40
0.0
 40
0.0
 40
0.0
 40
0.1096068442
 40
0.2230740646
 40
0.3411210574
 40
0.4640321796
 40
0.5917401854
 40
0.7239403107
 40
0.860192592
 40
1.0
 40
1.0
 40
1.0
 40
1.0
 10
15.0418335221
 20
8.1950189453
 30
0.0
 10
15.0397764038
 20
8.1950189453
 30
0.0
 10
15.0355831967
 20
8.1946695601
 30
0.0
 10
15.029338465
 20
8.1931631167
 30
0.0
 10
15.0231337587
 20
8.1907107005
 30
0.0
 10
15.0170550616
 20
8.1873714231
 30
0.0
 10
15.0111781249
 20
8.1832141516
 30
0.0
 10
15.0055714215
 20
8.178312492
 30
0.0
 10
15.0002957489
 20
8.1727418422
 30
0.0
 10
14.9970711847
 20
8.168677095
 30
0.0
 10
14.9955256898
 20
8.1665566141
 30
0.0
  0
SPLINE
  5
517
100
AcDbEntity
  8
0
100
AcDbSpline
 62
7
  6
CONTINUOUS
 70
0
 71
3
 72
10
 73
6
 74
0
 42
0.0000001
 43
0.0000001
 44
0.0000000001
 40
0.0
 40
0.0
 40
0.0
 40
0.0
 40
0.2438043771
 40
0.4924227166
 40
1.0
 40
1.0
 40
1.0
 40
1.0
 10
14.9955256898
 20
8.1665566141
 30
0.0
 10
14.9937514906
 20
8.1641223415
 30
0.0
 10
14.9903964986
 20
8.1590344486
 30
0.0
 10
14.9845232689
 20
8.1481532301
 30
0.0
 10
14.9811516175
 20
8.1393780887
 30
0.0
 10
14.9793818056
 20
8.1333618518
 30
0.0
  0
SPLINE
  5
518
100
AcDbEntity
  8
0
100
AcDbSpline
 62
7
  6
CONTINUOUS
 70
0
 71
3
 72
19
 73
15
 74
0
 42
0.0000001
 43
0.0000001
 44
0.0000000001
 40
0.0
 40
0.0
 40
0.0
 40
0.0
 40
0.1396545733
 40
0.2776698808
 40
0.4129104048
 40
0.5440243188
 40
0.6076022524
 40
0.6695530572
 40
0.7296770488
 40
0.7878052749
 40
0.8438318604
 40
0.8977513639
 40
0.9497045872
 40
1.0
 40
1.0
 40
1.0
 40
1.0
 10
14.9751126398
 20
8.0887299528
 30
0.0
 10
14.9756186433
 20
8.0833517454
 30
0.0
 10
14.9773541758
 20
8.0727124404
 30
0.0
 10
14.982070165
 20
8.0574015748
 30
0.0
 10
14.9887316494
 20
8.0431928962
 30
0.0
 10
14.9958034478
 20
8.0325036132
 30
0.0
 10
15.0022447501
 20
8.0249370198
 30
0.0
 10
15.007354335
 20
8.0198774544
 30
0.0
 10
15.0127431766
 20
8.0154397289
 30
0.0
 10
15.01835817
 20
8.0116870879
 30
0.0
 10
15.0241391094
 20
8.0086815533
 30
0.0
 10
15.0300201898
 20
8.0064799991
 30
0.0
 10
15.0359273912
 20
8.0051308935
 30
0.0
 10
15.0398880525
 20
8.0048189453
 30
0.0
 10
15.0418335221
 20
8.0048189453
 30
0.0
  0
SPLINE
  5
519
100
AcDbEntity
  8
0
100
AcDbSpline
 62
7
  6
CONTINUOUS
 70
0
 71
3
 72
15
 73
11
 74
0
 42
0.0000001
 43
0.0000001
 44
0.0000000001
 40
0.0
 40
0.0
 40
0.0
 40
0.0
 40
0.1034194246
 40
0.2111074583
 40
0.3245392975
 40
0.4447968751
 40
0.572466803
 40
0.7077161699
 40
0.8503769147
 40
1.0
 40
1.0
 40
1.0
 40
1.0
 10
15.0091726318
 20
8.1629737701
 30
0.0
 10
15.0076783514
 20
8.1627867604
 30
0.0
 10
15.0046609034
 20
8.1620869506
 30
0.0
 10
15.0003165889
 20
8.1601672692
 30
0.0
 10
14.9961569752
 20
8.1574065152
 30
0.0
 10
14.9922412574
 20
8.1538661675
 30
0.0
 10
14.9886200389
 20
8.1496027104
 30
0.0
 10
14.9853369529
 20
8.1446792281
 30
0.0
 10
14.9824343798
 20
8.1391608686
 30
0.0
 10
14.980810411
 20
8.1352196229
 30
0.0
 10
14.9800658416
 20
8.1331720686
 30
0.0
  0
SPLINE
  5
51A
100
AcDbEntity
  8
0
100
AcDbSpline
 62
7
  6
CONTINUOUS
 70
0
 71
3
 72
28
 73
24
 74
0
 42
0.0000001
 43
0.0000001
 44
0.0000000001
 40
0.0
 40
0.0
 40
0.0
 40
0.0
 40
0.0632107843
 40
0.1287013129
 40
0.1960657244
 40
0.2303067609
 40
0.2648241623
 40
0.2995510242
 40
0.3344190457
 40
0.4042503179
 40
0.4736824247
 40
0.5080458832
 40
0.5420563358
 40
0.5756348359
 40
0.608710543
 40
0.6412293539
 40
0.6731418496
 40
0.7349319393
 40
0.7937711857
 40
0.8494613552
 40
0.9020982821
 40
0.9520894817
 40
1.0
 40
1.0
 40
1.0
 40
1.0
 10
15.0590226811
 20
8.0415142616
 30
0.0
 10
15.0611052633
 20
8.0441860841
 30
0.0
 10
15.0649851618
 20
8.0499144398
 30
0.0
 10
15.0698298511
 20
8.0592608405
 30
0.0
 10
15.073081431
 20
8.0676239787
 30
0.0
 10
15.075199399
 20
8.074607396
 30
0.0
 10
15.0765390034
 20
8.0799917213
 30
0.0
 10
15.0776113813
 20
8.0854697611
 30
0.0
 10
15.0786769972
 20
8.0928681623
 30
0.0
 10
15.0793307107
 20
8.1021925797
 30
0.0
 10
15.0790988098
 20
8.111509744
 30
0.0
 10
15.0783806718
 20
8.1188625494
 30
0.0
 10
15.0775816288
 20
8.1242700211
 30
0.0
 10
15.076522351
 20
8.1295623014
 30
0.0
 10
15.0752035061
 20
8.1347135439
 30
0.0
 10
15.0736357651
 20
8.1397012971
 30
0.0
 10
15.0712556393
 20
8.1460360204
 30
0.0
 10
15.0677439616
 20
8.1534403393
 30
0.0
 10
15.0626769541
 20
8.1614462046
 30
0.0
 10
15.0568795635
 20
8.168318311
 30
0.0
 10
15.050440474
 20
8.1739012319
 30
0.0
 10
15.043515534
 20
8.178115183
 30
0.0
 10
15.0385754119
 20
8.1799926591
 30
0.0
 10
15.0360956259
 20
8.180658495
 30
0.0
  0
SPLINE
  5
51B
100
AcDbEntity
  8
0
100
AcDbSpline
 62
7
  6
CONTINUOUS
 70
0
 71
3
 72
30
 73
26
 74
0
 42
0.0000001
 43
0.0000001
 44
0.0000000001
 40
0.0
 40
0.0
 40
0.0
 40
0.0
 40
0.0233620252
 40
0.0469830802
 40
0.0710221642
 40
0.0956356875
 40
0.1209787795
 40
0.1471801776
 40
0.1743319139
 40
0.2024808812
 40
0.2617780333
 40
0.3249823424
 40
0.3579260749
 40
0.3916344359
 40
0.4608996353
 40
0.531886
 40
0.603581713
 40
0.6749615548
 40
0.7450629191
 40
0.8130637591
 40
0.8460971436
 40
0.8784015234
 40
0.9406664631
 40
0.9706906057
 40
1.0
 40
1.0
 40
1.0
 40
1.0
 10
15.0197364472
 20
8.1650189453
 30
0.0
 10
15.0209407163
 20
8.1650189453
 30
0.0
 10
15.0233654416
 20
8.164859008
 30
0.0
 10
15.0269665008
 20
8.1641487255
 30
0.0
 10
15.0305116611
 20
8.1629722106
 30
0.0
 10
15.0339669771
 20
8.1613357925
 30
0.0
 10
15.0373063815
 20
8.1592563744
 30
0.0
 10
15.0405045163
 20
8.1567487458
 30
0.0
 10
15.043536945
 20
8.1538312025
 30
0.0
 10
15.047396305
 20
8.1493491221
 30
0.0
 10
15.0516511024
 20
8.1428061078
 30
0.0
 10
15.0549479005
 20
8.1354710522
 30
0.0
 10
15.0570514924
 20
8.1291119154
 30
0.0
 10
15.0588056354
 20
8.1223240204
 30
0.0
 10
15.0601979157
 20
8.1134394241
 30
0.0
 10
15.0605673019
 20
8.1024947095
 30
0.0
 10
15.0596229447
 20
8.0914741935
 30
0.0
 10
15.057372101
 20
8.080690169
 30
0.0
 10
15.0538608267
 20
8.0704484793
 30
0.0
 10
15.0499113787
 20
8.0625257023
 30
0.0
 10
15.0461889165
 20
8.056740398
 30
0.0
 10
15.0422209634
 20
8.0514888772
 30
0.0
 10
15.0377455873
 20
8.0468315978
 30
0.0
 10
15.0328329471
 20
8.0429276925
 30
0.0
 10
15.0302663059
 20
8.0412536111
 30
0.0
 10
15.0289614515
 20
8.0404920289
 30
0.0
  0
SPLINE
  5
51C
100
AcDbEntity
  8
0
100
AcDbSpline
 62
7
  6
CONTINUOUS
 70
0
 71
3
 72
11
 73
7
 74
0
 42
0.0000001
 43
0.0000001
 44
0.0000000001
 40
0.0
 40
0.0
 40
0.0
 40
0.0
 40
0.2568877229
 40
0.5081438568
 40
0.7553704992
 40
1.0
 40
1.0
 40
1.0
 40
1.0
 10
15.0289614515
 20
8.0404920289
 30
0.0
 10
15.0273872494
 20
8.0395732412
 30
0.0
 10
15.0241607156
 20
8.0379399096
 30
0.0
 10
15.0190940499
 20
8.0361464643
 30
0.0
 10
15.0139180324
 20
8.0350634184
 30
0.0
 10
15.0104236346
 20
8.0348189453
 30
0.0
 10
15.0086878982
 20
8.0348189453
 30
0.0
  0
SPLINE
  5
51D
100
AcDbEntity
  8
0
100
AcDbSpline
 62
7
  6
CONTINUOUS
 70
0
 71
3
 72
31
 73
27
 74
0
 42
0.0000001
 43
0.0000001
 44
0.0000000001
 40
0.0
 40
0.0
 40
0.0
 40
0.0
 40
0.0234235793
 40
0.0470966484
 40
0.0712033105
 40
0.0959182147
 40
0.1213995141
 40
0.147775331
 40
0.1751342787
 40
0.2035211389
 40
0.2633694098
 40
0.327184564
 40
0.3944005913
 40
0.4290489683
 40
0.4642183461
 40
0.5355673734
 40
0.6074106543
 40
0.6431999705
 40
0.6787180564
 40
0.7484350545
 40
0.8157879075
 40
0.8802243174
 40
0.9112935177
 40
0.941584863
 40
0.9711310453
 40
1.0
 40
1.0
 40
1.0
 40
1.0
 10
14.5891967873
 20
8.0348189453
 30
0.0
 10
14.5879622558
 20
8.0348189453
 30
0.0
 10
14.5854769815
 20
8.0349866596
 30
0.0
 10
14.581788763
 20
8.0357323875
 30
0.0
 10
14.5781620892
 20
8.0369674514
 30
0.0
 10
14.5746316154
 20
8.0386837791
 30
0.0
 10
14.5712248151
 20
8.0408632883
 30
0.0
 10
14.5679697178
 20
8.0434902287
 30
0.0
 10
14.5648922384
 20
8.0465438282
 30
0.0
 10
14.560989388
 20
8.0512319771
 30
0.0
 10
14.5567209828
 20
8.0580637367
 30
0.0
 10
14.5527647096
 20
8.0673502555
 30
0.0
 10
14.5504890116
 20
8.0758104414
 30
0.0
 10
14.5492956308
 20
8.0829374477
 30
0.0
 10
14.548533057
 20
8.0903429181
 30
0.0
 10
14.5484499964
 20
8.0997682735
 30
0.0
 10
14.5495174373
 20
8.1091662482
 30
0.0
 10
14.5510649646
 20
8.1165551261
 30
0.0
 10
14.5530457261
 20
8.123723194
 30
0.0
 10
14.5563151473
 20
8.1322432146
 30
0.0
 10
14.5614684967
 20
8.1415691789
 30
0.0
 10
14.5667323694
 20
8.1484012015
 30
0.0
 10
14.5714238873
 20
8.1530964051
 30
0.0
 10
14.5751035644
 20
8.1561758013
 30
0.0
 10
14.578961569
 20
8.1588287683
 30
0.0
 10
14.5816647562
 20
8.1603155265
 30
0.0
 10
14.5830345221
 20
8.1609779382
 30
0.0
  0
SPLINE
  5
51E
100
AcDbEntity
  8
0
100
AcDbSpline
 62
7
  6
CONTINUOUS
 70
0
 71
3
 72
21
 73
17
 74
0
 42
0.0000001
 43
0.0000001
 44
0.0000000001
 40
0.0
 40
0.0
 40
0.0
 40
0.0
 40
0.070764177
 40
0.1416926325
 40
0.2822441074
 40
0.3513159236
 40
0.4191778094
 40
0.5501204224
 40
0.6129133327
 40
0.6737136995
 40
0.732481701
 40
0.7892411981
 40
0.8441224014
 40
0.8973598592
 40
0.9492355916
 40
1.0
 40
1.0
 40
1.0
 40
1.0
 10
14.5077173384
 20
8.0903034501
 30
0.0
 10
14.5074946713
 20
8.0929706798
 30
0.0
 10
14.5072367133
 20
8.0983291957
 30
0.0
 10
14.5074585074
 20
8.1090078686
 30
0.0
 10
14.5087816822
 20
8.1195788876
 30
0.0
 10
14.5112041325
 20
8.1297991669
 30
0.0
 10
14.514266541
 20
8.1394640484
 30
0.0
 10
14.5183303845
 20
8.1485424827
 30
0.0
 10
14.5233732755
 20
8.1567557331
 30
0.0
 10
14.5275107869
 20
8.1622876306
 30
0.0
 10
14.5320119414
 20
8.1672239175
 30
0.0
 10
14.5368363595
 20
8.1715169166
 30
0.0
 10
14.5419405912
 20
8.1751239824
 30
0.0
 10
14.5472808576
 20
8.1780040928
 30
0.0
 10
14.5527989229
 20
8.1801242481
 30
0.0
 10
14.5565862035
 20
8.1810363448
 30
0.0
 10
14.558479051
 20
8.1813584508
 30
0.0
  0
SPLINE
  5
51F
100
AcDbEntity
  8
0
100
AcDbSpline
 62
7
  6
CONTINUOUS
 70
0
 71
3
 72
9
 73
5
 74
0
 42
0.0000001
 43
0.0000001
 44
0.0000000001
 40
0.0
 40
0.0
 40
0.0
 40
0.0
 40
0.502975927
 40
1.0
 40
1.0
 40
1.0
 40
1.0
 10
14.56581668
 20
8.1629737701
 30
0.0
 10
14.5678095285
 20
8.1636445197
 30
0.0
 10
14.571882759
 20
8.1646714066
 30
0.0
 10
14.5760704195
 20
8.1650189453
 30
0.0
 10
14.5781482383
 20
8.1650189453
 30
0.0
  0
SPLINE
  5
520
100
AcDbEntity
  8
0
100
AcDbSpline
 62
7
  6
CONTINUOUS
 70
0
 71
3
 72
14
 73
10
 74
0
 42
0.0000001
 43
0.0000001
 44
0.0000000001
 40
0.0
 40
0.0
 40
0.0
 40
0.0
 40
0.1114603901
 40
0.2262261298
 40
0.3447184294
 40
0.4673064156
 40
0.7252095085
 40
0.8607318927
 40
1.0
 40
1.0
 40
1.0
 40
1.0
 10
14.56581668
 20
8.1629737701
 30
0.0
 10
14.5643383809
 20
8.1624369958
 30
0.0
 10
14.5614076525
 20
8.1611460049
 30
0.0
 10
14.5572239608
 20
8.1586432315
 30
0.0
 10
14.5532381472
 20
8.1555710353
 30
0.0
 10
14.5481558105
 20
8.1506823703
 30
0.0
 10
14.5437195783
 20
8.1448413696
 30
0.0
 10
14.5399955754
 20
8.1383064736
 30
0.0
 10
14.5383614489
 20
8.1347839553
 30
0.0
 10
14.5376055968
 20
8.1329700257
 30
0.0
  0
SPLINE
  5
521
100
AcDbEntity
  8
0
100
AcDbSpline
 62
7
  6
CONTINUOUS
 70
0
 71
3
 72
19
 73
15
 74
0
 42
0.0000001
 43
0.0000001
 44
0.0000000001
 40
0.0
 40
0.0
 40
0.0
 40
0.0
 40
0.0555708211
 40
0.111679152
 40
0.1685189552
 40
0.226315898
 40
0.2852484831
 40
0.3454179287
 40
0.4068526753
 40
0.4695332557
 40
0.5982194318
 40
0.7305210429
 40
0.8650306866
 40
1.0
 40
1.0
 40
1.0
 40
1.0
 10
14.56581668
 20
8.1629737701
 30
0.0
 10
14.563967427
 20
8.1628123971
 30
0.0
 10
14.5602676938
 20
8.1622539415
 30
0.0
 10
14.5548309665
 20
8.1607469485
 30
0.0
 10
14.5495378153
 20
8.1585892383
 30
0.0
 10
14.5444328867
 20
8.1558173643
 30
0.0
 10
14.5395525382
 20
8.1524679746
 30
0.0
 10
14.5349294307
 20
8.1485817104
 30
0.0
 10
14.5305941704
 20
8.144199647
 30
0.0
 10
14.5251881039
 20
8.1377011473
 30
0.0
 10
14.5193051303
 20
8.1285752898
 30
0.0
 10
14.5137858275
 20
8.1165284902
 30
0.0
 10
14.5098294166
 20
8.1036675668
 30
0.0
 10
14.5082463233
 20
8.0947808076
 30
0.0
 10
14.5077173384
 20
8.0903034501
 30
0.0
  0
SPLINE
  5
522
100
AcDbEntity
  8
0
100
AcDbSpline
 62
7
  6
CONTINUOUS
 70
0
 71
3
 72
35
 73
31
 74
0
 42
0.0000001
 43
0.0000001
 44
0.0000000001
 40
0.0
 40
0.0
 40
0.0
 40
0.0
 40
0.0967747775
 40
0.1926711662
 40
0.286695896
 40
0.3779826579
 40
0.4656660085
 40
0.5489018166
 40
0.626903442
 40
0.6989360206
 40
0.7643178283
 40
0.7943249599
 40
0.8224470035
 40
0.8486225989
 40
0.8727958093
 40
0.8949127497
 40
0.9149301075
 40
0.9328149059
 40
0.9485396952
 40
0.9620921184
 40
0.9680574728
 40
0.9734864437
 40
0.9783853864
 40
0.9827643151
 40
0.9866394606
 40
0.9900366583
 40
0.9929951181
 40
0.9955748959
 40
0.9978668781
 40
1.0
 40
1.0
 40
1.0
 40
1.0
 10
10.7989423427
 20
9.5590502604
 30
0.0
 10
10.7897959679
 20
9.5590502604
 30
0.0
 10
10.7715861397
 20
9.5589725247
 30
0.0
 10
10.7444918595
 20
9.5586241617
 30
0.0
 10
10.717920249
 20
9.5580469636
 30
0.0
 10
10.6921309826
 20
9.5572469049
 30
0.0
 10
10.6673697182
 20
9.5562322528
 30
0.0
 10
10.6438748403
 20
9.5550127388
 30
0.0
 10
10.6218726411
 20
9.5536008767
 30
0.0
 10
10.6015746818
 20
9.5520111426
 30
0.0
 10
10.5858214479
 20
9.5505121583
 30
0.0
 10
10.5742196026
 20
9.5492208269
 30
0.0
 10
10.5663114902
 20
9.548245546
 30
0.0
 10
10.5589635153
 20
9.5472382664
 30
0.0
 10
10.5521931992
 20
9.5462017024
 30
0.0
 10
10.5460167814
 20
9.5451383342
 30
0.0
 10
10.5404488854
 20
9.5440509845
 30
0.0
 10
10.5355021988
 20
9.5429431017
 30
0.0
 10
10.531188262
 20
9.541817491
 30
0.0
 10
10.5280050985
 20
9.5408302148
 30
0.0
 10
10.5257898929
 20
9.5400214519
 30
0.0
 10
10.5243642948
 20
9.5394380226
 30
0.0
 10
10.5231031922
 20
9.5388520717
 30
0.0
 10
10.5220071221
 20
9.5382637713
 30
0.0
 10
10.521076269
 20
9.537673169
 30
0.0
 10
10.5203103328
 20
9.5370800332
 30
0.0
 10
10.5197088963
 20
9.5364833211
 30
0.0
 10
10.5192723594
 20
9.5358803824
 30
0.0
 10
10.5190042124
 20
9.5352684316
 30
0.0
 10
10.5189425796
 20
9.534848258
 30
0.0
 10
10.5189425688
 20
9.5346466524
 30
0.0
  0
SPLINE
  5
523
100
AcDbEntity
  8
0
100
AcDbSpline
 62
7
  6
CONTINUOUS
 70
0
 71
3
 72
35
 73
31
 74
0
 42
0.0000001
 43
0.0000001
 44
0.0000000001
 40
0.0
 40
0.0
 40
0.0
 40
0.0
 40
0.0021331139
 40
0.0044251101
 40
0.0070049511
 40
0.0099634974
 40
0.0133607513
 40
0.0172358579
 40
0.0216146494
 40
0.0265135603
 40
0.0319425847
 40
0.0379080251
 40
0.051460493
 40
0.0671850093
 40
0.0850697659
 40
0.105087065
 40
0.1272036542
 40
0.1513766036
 40
0.1775519721
 40
0.2056736195
 40
0.235680333
 40
0.3010613602
 40
0.373093097
 40
0.4510940658
 40
0.5343294405
 40
0.6220127547
 40
0.7132996694
 40
0.8073253607
 40
0.9032238791
 40
1.0
 40
1.0
 40
1.0
 40
1.0
 10
11.0789421167
 20
9.5346466524
 30
0.0
 10
11.0789421274
 20
9.5348482572
 30
0.0
 10
11.0788805196
 20
9.5352684392
 30
0.0
 10
11.0786123596
 20
9.5358803942
 30
0.0
 10
11.0781757925
 20
9.5364833303
 30
0.0
 10
11.0775743256
 20
9.5370800388
 30
0.0
 10
11.0768083757
 20
9.537673172
 30
0.0
 10
11.0758775382
 20
9.5382637765
 30
0.0
 10
11.0747814998
 20
9.5388520948
 30
0.0
 10
11.0735204058
 20
9.5394380399
 30
0.0
 10
11.072094795
 20
9.5400214654
 30
0.0
 10
11.0698795671
 20
9.5408302184
 30
0.0
 10
11.0666964147
 20
9.5418174834
 30
0.0
 10
11.0623825102
 20
9.5429431181
 30
0.0
 10
11.0574358537
 20
9.5440509773
 30
0.0
 10
11.0518679981
 20
9.5451383116
 30
0.0
 10
11.0456916455
 20
9.5462016873
 30
0.0
 10
11.038921407
 20
9.547238238
 30
0.0
 10
11.031573514
 20
9.5482455029
 30
0.0
 10
11.0236655001
 20
9.5492207815
 30
0.0
 10
11.0120638046
 20
9.5505121042
 30
0.0
 10
10.9963107622
 20
9.5520110749
 30
0.0
 10
10.9760130176
 20
9.5536008096
 30
0.0
 10
10.9540109998
 20
9.5550126697
 30
0.0
 10
10.9305162276
 20
9.5562321951
 30
0.0
 10
10.9057549919
 20
9.5572468574
 30
0.0
 10
10.8799656224
 20
9.5580469318
 30
0.0
 10
10.8533937039
 20
9.5586241503
 30
0.0
 10
10.8262990028
 20
9.5589725161
 30
0.0
 10
10.8080888452
 20
9.5590502604
 30
0.0
 10
10.7989423427
 20
9.5590502604
 30
0.0
  0
SPLINE
  5
524
100
AcDbEntity
  8
0
100
AcDbSpline
 62
7
  6
CONTINUOUS
 70
0
 71
3
 72
45
 73
41
 74
0
 42
0.0000001
 43
0.0000001
 44
0.0000000001
 40
0.0
 40
0.0
 40
0.0
 40
0.0
 40
0.0085623629
 40
0.01684751
 40
0.0249041026
 40
0.0327668878
 40
0.0404184962
 40
0.0478012924
 40
0.0548438838
 40
0.0614878207
 40
0.0677537253
 40
0.0736725461
 40
0.0792643343
 40
0.0845431168
 40
0.0895442574
 40
0.0943120829
 40
0.1033104081
 40
0.1118247144
 40
0.1200596758
 40
0.128197026
 40
0.1363736845
 40
0.1446750475
 40
0.153180147
 40
0.1710095112
 40
0.1901544896
 40
0.2107848265
 40
0.2329941993
 40
0.2568224112
 40
0.282282746
 40
0.3093600731
 40
0.3380261197
 40
0.3682385232
 40
0.4330811795
 40
0.5033669297
 40
0.5784718428
 40
0.6576944252
 40
0.7402731081
 40
0.8254058593
 40
0.9122865563
 40
1.0
 40
1.0
 40
1.0
 40
1.0
 10
10.4509552797
 20
9.5622382139
 30
0.0
 10
10.4510582831
 20
9.5611971086
 30
0.0
 10
10.4513546036
 20
9.5591565046
 30
0.0
 10
10.4520690109
 20
9.5561945023
 30
0.0
 10
10.4530211148
 20
9.553390264
 30
0.0
 10
10.4541858325
 20
9.550752429
 30
0.0
 10
10.4555232929
 20
9.5482918557
 30
0.0
 10
10.456988564
 20
9.5460241824
 30
0.0
 10
10.4585382227
 20
9.5439657971
 30
0.0
 10
10.4601387446
 20
9.5421243332
 30
0.0
 10
10.4617613682
 20
9.5404912586
 30
0.0
 10
10.4633841409
 20
9.5390457401
 30
0.0
 10
10.464987883
 20
9.5377652828
 30
0.0
 10
10.4665558241
 20
9.5366231038
 30
0.0
 10
10.4680865258
 20
9.5356036136
 30
0.0
 10
10.4700450682
 20
9.5344099578
 30
0.0
 10
10.4724452897
 20
9.5331212504
 30
0.0
 10
10.4752927144
 20
9.5317808847
 30
0.0
 10
10.4781041944
 20
9.5306198212
 30
0.0
 10
10.4809198667
 20
9.5295842413
 30
0.0
 10
10.4837739392
 20
9.5286341623
 30
0.0
 10
10.486696777
 20
9.5277525518
 30
0.0
 10
10.490776464
 20
9.5266263891
 30
0.0
 10
10.4961774993
 20
9.5253137471
 30
0.0
 10
10.5030669431
 20
9.5238692622
 30
0.0
 10
10.5105167569
 20
9.5225020427
 30
0.0
 10
10.5185578923
 20
9.5211975357
 30
0.0
 10
10.5272043996
 20
9.5199481348
 30
0.0
 10
10.5364581887
 20
9.5187500988
 30
0.0
 10
10.5463136309
 20
9.5176021574
 30
0.0
 10
10.556758764
 20
9.5165043629
 30
0.0
 10
10.5718080162
 20
9.5150746572
 30
0.0
 10
10.5919448724
 20
9.5134398999
 30
0.0
 10
10.6175765636
 20
9.5117399283
 30
0.0
 10
10.6449822973
 20
9.5102735973
 30
0.0
 10
10.6739034154
 20
9.509054026
 30
0.0
 10
10.7040601065
 20
9.5080927871
 30
0.0
 10
10.7351600479
 20
9.5073992783
 30
0.0
 10
10.7668922959
 20
9.5069806507
 30
0.0
 10
10.7882251173
 20
9.5068872905
 30
0.0
 10
10.7989423427
 20
9.5068872905
 30
0.0
  0
SPLINE
  5
525
100
AcDbEntity
  8
0
100
AcDbSpline
 62
7
  6
CONTINUOUS
 70
0
 71
3
 72
44
 73
40
 74
0
 42
0.0000001
 43
0.0000001
 44
0.0000000001
 40
0.0
 40
0.0
 40
0.0
 40
0.0
 40
0.0877192247
 40
0.1746045078
 40
0.2597420461
 40
0.3423253278
 40
0.4215520501
 40
0.4966596069
 40
0.5669441303
 40
0.6317841841
 40
0.6619962606
 40
0.6906613747
 40
0.7177390956
 40
0.7431981328
 40
0.7670273686
 40
0.7892350972
 40
0.8098671564
 40
0.8290111857
 40
0.8380768386
 40
0.846839882
 40
0.8636506279
 40
0.8718214047
 40
0.8799642307
 40
0.8840635242
 40
0.8882031697
 40
0.8967073424
 40
0.9057163693
 40
0.9104915424
 40
0.9154930082
 40
0.9263342565
 40
0.9385317353
 40
0.9451695145
 40
0.9521855787
 40
0.9595620347
 40
0.9672279278
 40
0.975120164
 40
0.9832035298
 40
0.9914884176
 40
1.0
 40
1.0
 40
1.0
 40
1.0
 10
10.7989423427
 20
9.5068872905
 30
0.0
 10
10.8096601774
 20
9.5068872905
 30
0.0
 10
10.8309940724
 20
9.506980655
 30
0.0
 10
10.8627278841
 20
9.5073993331
 30
0.0
 10
10.8938292497
 20
9.5080929125
 30
0.0
 10
10.9239873184
 20
9.5090542321
 30
0.0
 10
10.9529095604
 20
9.5102739438
 30
0.0
 10
10.9803157191
 20
9.5117403831
 30
0.0
 10
11.005947029
 20
9.5134404047
 30
0.0
 10
11.0260831857
 20
9.5150752433
 30
0.0
 10
11.0411318257
 20
9.5165049517
 30
0.0
 10
11.0515767547
 20
9.517602773
 30
0.0
 10
11.0614318685
 20
9.5187508048
 30
0.0
 10
11.0706855988
 20
9.5199487771
 30
0.0
 10
11.0793317445
 20
9.5211984353
 30
0.0
 10
11.0873729955
 20
9.522502743
 30
0.0
 10
11.0948224856
 20
9.5238703967
 30
0.0
 10
11.1006640588
 20
9.5250949681
 30
0.0
 10
11.1050617131
 20
9.5261294548
 30
0.0
 10
11.1091638988
 20
9.5271715427
 30
0.0
 10
11.1131286539
 20
9.5283097472
 30
0.0
 10
11.1169705525
 20
9.5295841782
 30
0.0
 10
11.1193109364
 20
9.5304480562
 30
0.0
 10
11.1211679388
 20
9.5311952798
 30
0.0
 10
11.1230503308
 20
9.5319965717
 30
0.0
 10
11.1254472339
 20
9.5331195024
 30
0.0
 10
11.1278424718
 20
9.5344192536
 30
0.0
 10
11.1298054528
 20
9.5356096683
 30
0.0
 10
11.1319062149
 20
9.5370012557
 30
0.0
 10
11.1346277236
 20
9.5390908827
 30
0.0
 10
11.1372704137
 20
9.5415865036
 30
0.0
 10
11.1393507134
 20
9.543966294
 30
0.0
 10
11.1409013027
 20
9.5460182002
 30
0.0
 10
11.1423637396
 20
9.5482851042
 30
0.0
 10
11.1436998981
 20
9.550751557
 30
0.0
 10
11.144865094
 20
9.5533985523
 30
0.0
 10
11.145817167
 20
9.5562099578
 30
0.0
 10
11.1465306903
 20
9.5591690172
 30
0.0
 10
11.1468270142
 20
9.5612032924
 30
0.0
 10
11.1469294058
 20
9.5622382139
 30
0.0
  0
SPLINE
  5
526
100
AcDbEntity
  8
0
100
AcDbSpline
 62
7
  6
CONTINUOUS
 70
0
 71
3
 72
65
 73
61
 74
0
 42
0.0000001
 43
0.0000001
 44
0.0000000001
 40
0.0
 40
0.0
 40
0.0
 40
0.0
 40
0.0845908554
 40
0.1679618934
 40
0.2488869924
 40
0.3262261402
 40
0.3988980374
 40
0.4331776483
 40
0.4659404604
 40
0.4970888907
 40
0.5265468073
 40
0.5542510672
 40
0.580167634
 40
0.6042913369
 40
0.6266659496
 40
0.6474104083
 40
0.6667577513
 40
0.6760313355
 40
0.6851464897
 40
0.6896786757
 40
0.69421339
 40
0.7033846876
 40
0.7080751975
 40
0.7128724133
 40
0.7178113705
 40
0.7229342319
 40
0.7282853199
 40
0.7339093637
 40
0.7398418036
 40
0.7461173934
 40
0.7527755654
 40
0.759829606
 40
0.7672639378
 40
0.7750700227
 40
0.7832191597
 40
0.7916612989
 40
0.8092421066
 40
0.8183059675
 40
0.8274968353
 40
0.8367795511
 40
0.8461222799
 40
0.8554977343
 40
0.8648787506
 40
0.8742386097
 40
0.8835509975
 40
0.8927857402
 40
0.9019100677
 40
0.9108890539
 40
0.9196797576
 40
0.9282324984
 40
0.9365068679
 40
0.9444660986
 40
0.9520620719
 40
0.9592596979
 40
0.9660729022
 40
0.9725155069
 40
0.9785938744
 40
0.9843341247
 40
0.9897848942
 40
1.0
 40
1.0
 40
1.0
 40
1.0
 10
10.7989423427
 20
10.4185937221
 30
0.0
 10
10.7823343558
 20
10.4185937221
 30
0.0
 10
10.7493575928
 20
10.4184181504
 30
0.0
 10
10.7004982473
 20
10.4176304207
 30
0.0
 10
10.653073956
 20
10.4163298717
 30
0.0
 10
10.6077679106
 20
10.414535192
 30
0.0
 10
10.5716351822
 20
10.412613014
 30
0.0
 10
10.544262653
 20
10.4108255023
 30
0.0
 10
10.5250368644
 20
10.4094023625
 30
0.0
 10
10.5067689441
 20
10.4078736692
 30
0.0
 10
10.4895072147
 20
10.4062419969
 30
0.0
 10
10.4732880132
 20
10.404508529
 30
0.0
 10
10.4581344721
 20
10.4026720224
 30
0.0
 10
10.4440499743
 20
10.4007267122
 30
0.0
 10
10.4310097447
 20
10.3986593796
 30
0.0
 10
10.4189464942
 20
10.396440387
 30
0.0
 10
10.4094719038
 20
10.3943873556
 30
0.0
 10
10.4022832691
 20
10.3925921516
 30
0.0
 10
10.3979449174
 20
10.391394072
 30
0.0
 10
10.3945253802
 20
10.390369018
 30
0.0
 10
10.3911112762
 20
10.3892890263
 30
0.0
 10
10.3876964521
 20
10.3881090603
 30
0.0
 10
10.3842736348
 20
10.3868027318
 30
0.0
 10
10.3816500984
 20
10.3857344419
 30
0.0
 10
10.3789766338
 20
10.3845659052
 30
0.0
 10
10.3762406432
 20
10.383271893
 30
0.0
 10
10.3734286106
 20
10.3818278455
 30
0.0
 10
10.3705281028
 20
10.3802119798
 30
0.0
 10
10.3675385069
 20
10.3783879869
 30
0.0
 10
10.3644658679
 20
10.3763169716
 30
0.0
 10
10.3613209367
 20
10.3739670228
 30
0.0
 10
10.3581284771
 20
10.3713094216
 30
0.0
 10
10.3549310133
 20
10.3683161709
 30
0.0
 10
10.3517820426
 20
10.3649693471
 30
0.0
 10
10.3487375899
 20
10.3612661179
 30
0.0
 10
10.3448468029
 20
10.3557951394
 30
0.0
 10
10.3415008644
 20
10.3497364177
 30
0.0
 10
10.3388363189
 20
10.3432185449
 30
0.0
 10
10.3372027305
 20
10.3380580723
 30
0.0
 10
10.3359802436
 20
10.332729237
 30
0.0
 10
10.3351993846
 20
10.3272808946
 30
0.0
 10
10.334876934
 20
10.3217671471
 30
0.0
 10
10.3350117393
 20
10.3162422126
 30
0.0
 10
10.3356094805
 20
10.3107603996
 30
0.0
 10
10.3366554269
 20
10.3053758274
 30
0.0
 10
10.3381239555
 20
10.3001389069
 30
0.0
 10
10.339995695
 20
10.2951021009
 30
0.0
 10
10.342225826
 20
10.2903101129
 30
0.0
 10
10.3447602518
 20
10.2858005491
 30
0.0
 10
10.3475526569
 20
10.2816115792
 30
0.0
 10
10.3505435891
 20
10.2777677105
 30
0.0
 10
10.3536618267
 20
10.2742753822
 30
0.0
 10
10.3568445993
 20
10.2711367676
 30
0.0
 10
10.3600413763
 20
10.2683444831
 30
0.0
 10
10.3632112968
 20
10.26587607
 30
0.0
 10
10.3663230613
 20
10.2636995953
 30
0.0
 10
10.3693501133
 20
10.261776432
 30
0.0
 10
10.3722835526
 20
10.2600743919
 30
0.0
 10
10.3759980543
 20
10.2581065703
 30
0.0
 10
10.3787885317
 20
10.2568073293
 30
0.0
 10
10.3806275525
 20
10.2560071494
 30
0.0
  0
SPLINE
  5
527
100
AcDbEntity
  8
0
100
AcDbSpline
 62
7
  6
CONTINUOUS
 70
0
 71
3
 72
65
 73
61
 74
0
 42
0.0000001
 43
0.0000001
 44
0.0000000001
 40
0.0
 40
0.0
 40
0.0
 40
0.0
 40
0.0050221453
 40
0.0102495937
 40
0.0157274359
 40
0.0215013028
 40
0.0276025203
 40
0.0340581074
 40
0.0409013829
 40
0.0481455961
 40
0.055764181
 40
0.0637359456
 40
0.072031145
 40
0.0805992951
 40
0.0893971343
 40
0.0983817479
 40
0.1075098212
 40
0.116745199
 40
0.135398805
 40
0.144777819
 40
0.1541508806
 40
0.1634899422
 40
0.1727675855
 40
0.1819529323
 40
0.1910097214
 40
0.1999001219
 40
0.208584225
 40
0.2170123405
 40
0.2251308095
 40
0.2403260924
 40
0.2473528323
 40
0.2539740774
 40
0.2602254578
 40
0.2661410937
 40
0.2717490332
 40
0.2770838386
 40
0.2821912387
 40
0.287115952
 40
0.2919008114
 40
0.2965840807
 40
0.3011926693
 40
0.3057506501
 40
0.3148086927
 40
0.333203884
 40
0.3427272186
 40
0.3525630856
 40
0.3733203983
 40
0.3957137119
 40
0.4198522383
 40
0.4457837101
 40
0.473501264
 40
0.50297084
 40
0.5341284226
 40
0.5668981904
 40
0.6011803966
 40
0.6738496785
 40
0.751177618
 40
0.8320844035
 40
0.915434513
 40
1.0
 40
1.0
 40
1.0
 40
1.0
 10
11.2175151508
 20
10.2561183224
 30
0.0
 10
11.2184182073
 20
10.2565129941
 30
0.0
 10
11.2202503136
 20
10.2573438098
 30
0.0
 10
11.2230203837
 20
10.2587059603
 30
0.0
 10
11.2258718844
 20
10.2602326855
 30
0.0
 10
11.2288151751
 20
10.2619469267
 30
0.0
 10
11.2318471567
 20
10.2638847759
 30
0.0
 10
11.2349554281
 20
10.2660856915
 30
0.0
 10
11.2381227955
 20
10.2685826024
 30
0.0
 10
11.2413200583
 20
10.2714005889
 30
0.0
 10
11.2445002523
 20
10.2745616106
 30
0.0
 10
11.2476043717
 20
10.2780784617
 30
0.0
 10
11.2505715362
 20
10.2819497391
 30
0.0
 10
11.2533441643
 20
10.2861588787
 30
0.0
 10
11.2558539457
 20
10.2906859173
 30
0.0
 10
11.2580500652
 20
10.2954942319
 30
0.0
 10
11.2598902385
 20
10.300542272
 30
0.0
 10
11.2618108793
 20
10.3075541895
 30
0.0
 10
11.2628667402
 20
10.3148318409
 30
0.0
 10
11.2629989652
 20
10.3221775795
 30
0.0
 10
11.262641902
 20
10.3276852416
 30
0.0
 10
11.2618308618
 20
10.3331241096
 30
0.0
 10
11.2605759485
 20
10.3384400389
 30
0.0
 10
11.2589123275
 20
10.3435838918
 30
0.0
 10
11.2568708711
 20
10.3485076911
 30
0.0
 10
11.2544855999
 20
10.3531637177
 30
0.0
 10
11.2518196425
 20
10.3575199312
 30
0.0
 10
11.2489331313
 20
10.3615482415
 30
0.0
 10
11.2449495995
 20
10.3663423024
 30
0.0
 10
11.2406984489
 20
10.3705370032
 30
0.0
 10
11.2363371696
 20
10.3741476896
 30
0.0
 10
11.2332006399
 20
10.3764770543
 30
0.0
 10
11.2301339256
 20
10.3785261996
 30
0.0
 10
11.2271485057
 20
10.3803321019
 30
0.0
 10
11.2242541329
 20
10.3819357044
 30
0.0
 10
11.2214491344
 20
10.3833695117
 30
0.0
 10
11.2187202396
 20
10.3846539519
 30
0.0
 10
11.2160533839
 20
10.3858134829
 30
0.0
 10
11.2134344828
 20
10.3868718476
 30
0.0
 10
11.2108516946
 20
10.3878521613
 30
0.0
 10
11.2082913412
 20
10.3887644876
 30
0.0
 10
11.204899826
 20
10.3898999881
 30
0.0
 10
11.1988911908
 20
10.3917358629
 30
0.0
 10
11.1918656307
 20
10.3935641716
 30
0.0
 10
11.1846403992
 20
10.3952042496
 30
0.0
 10
11.1769334248
 20
10.3968114586
 30
0.0
 10
11.1667046166
 20
10.3986876577
 30
0.0
 10
11.153661445
 20
10.4007526988
 30
0.0
 10
11.1395738145
 20
10.4026945102
 30
0.0
 10
11.1244190021
 20
10.4045288143
 30
0.0
 10
11.1081996387
 20
10.406259729
 30
0.0
 10
11.0909394705
 20
10.4078893537
 30
0.0
 10
11.0726748513
 20
10.4094158843
 30
0.0
 10
11.0534546462
 20
10.4108370937
 30
0.0
 10
11.0260939581
 20
10.412622003
 30
0.0
 10
10.9899809175
 20
10.4145413218
 30
0.0
 10
10.9447031566
 20
10.4163332987
 30
0.0
 10
10.8973118091
 20
10.417631907
 30
0.0
 10
10.848488904
 20
10.4184184035
 30
0.0
 10
10.8155372711
 20
10.4185937221
 30
0.0
 10
10.7989423427
 20
10.4185937221
 30
0.0
  0
SPLINE
  5
528
100
AcDbEntity
  8
0
100
AcDbSpline
 62
9
  6
CONTINUOUS
 70
0
 71
3
 72
67
 73
63
 74
0
 42
0.0000001
 43
0.0000001
 44
0.0000000001
 40
0.0
 40
0.0
 40
0.0
 40
0.0
 40
0.0483874691
 40
0.0963357926
 40
0.1433482346
 40
0.1889916168
 40
0.2328332561
 40
0.2744511306
 40
0.3134520141
 40
0.349468402
 40
0.366249199
 40
0.3821595928
 40
0.3971630834
 40
0.4112240381
 40
0.4243117605
 40
0.4363982923
 40
0.4474566946
 40
0.4574652874
 40
0.4664075944
 40
0.4742699049
 40
0.477793893
 40
0.4810466569
 40
0.484029284
 40
0.48674372
 40
0.4891931445
 40
0.4913825658
 40
0.493320094
 40
0.4950186472
 40
0.4964978343
 40
0.4977876878
 40
0.4989336559
 40
0.5000002098
 40
0.50106677
 40
0.5022127872
 40
0.5035027389
 40
0.5049820503
 40
0.5066807178
 40
0.5086183097
 40
0.5108077404
 40
0.5132572337
 40
0.5159717856
 40
0.5189545451
 40
0.5222074254
 40
0.525731481
 40
0.5335937832
 40
0.5425362042
 40
0.5525448863
 40
0.5636031923
 40
0.5756896719
 40
0.5887773472
 40
0.6028381339
 40
0.6178414336
 40
0.6337516479
 40
0.6505322179
 40
0.6865480878
 40
0.7255484756
 40
0.7671659083
 40
0.8110072539
 40
0.8566504162
 40
0.9036630281
 40
0.9516121336
 40
1.0
 40
1.0
 40
1.0
 40
1.0
 10
10.7989423427
 20
9.5070052549
 30
0.0
 10
10.788582419
 20
9.5070052549
 30
0.0
 10
10.7679564848
 20
9.5070933056
 30
0.0
 10
10.7372673019
 20
9.5074878904
 30
0.0
 10
10.7071701537
 20
9.5081416758
 30
0.0
 10
10.6779591831
 20
9.5090478856
 30
0.0
 10
10.6499126402
 20
9.5101971783
 30
0.0
 10
10.6233004623
 20
9.5115784539
 30
0.0
 10
10.598379082
 20
9.5131778097
 30
0.0
 10
10.5787838869
 20
9.5147120504
 30
0.0
 10
10.5641341261
 20
9.5160497378
 30
0.0
 10
10.5539738146
 20
9.5170735474
 30
0.0
 10
10.5444034685
 20
9.5181389361
 30
0.0
 10
10.5354461611
 20
9.5192435776
 30
0.0
 10
10.5271233137
 20
9.520384517
 30
0.0
 10
10.5194547605
 20
9.5215586077
 30
0.0
 10
10.5124589312
 20
9.5227630804
 30
0.0
 10
10.5061522832
 20
9.5239946481
 30
0.0
 10
10.5005495342
 20
9.5252496971
 30
0.0
 10
10.4963366419
 20
9.5263483685
 30
0.0
 10
10.493333819
 20
9.5272476419
 30
0.0
 10
10.4913488961
 20
9.5279014194
 30
0.0
 10
10.4895486247
 20
9.5285588993
 30
0.0
 10
10.4879339021
 20
9.529219698
 30
0.0
 10
10.4865055141
 20
9.5298834038
 30
0.0
 10
10.4852640506
 20
9.5305497559
 30
0.0
 10
10.4842097273
 20
9.5312187246
 30
0.0
 10
10.4833422045
 20
9.5318905451
 30
0.0
 10
10.4826610094
 20
9.5325664724
 30
0.0
 10
10.482166593
 20
9.5332492835
 30
0.0
 10
10.4818629124
 20
9.5339428354
 30
0.0
 10
10.4817594846
 20
9.5346468008
 30
0.0
 10
10.4818629374
 20
9.5353507778
 30
0.0
 10
10.4821667197
 20
9.5360443251
 30
0.0
 10
10.4826612483
 20
9.5367271247
 30
0.0
 10
10.4833425548
 20
9.5374030409
 30
0.0
 10
10.4842101647
 20
9.5380748523
 30
0.0
 10
10.4852645357
 20
9.5387438189
 30
0.0
 10
10.4865060241
 20
9.5394101888
 30
0.0
 10
10.4879344644
 20
9.540073882
 30
0.0
 10
10.4895492645
 20
9.5407346706
 30
0.0
 10
10.491349623
 20
9.5413921394
 30
0.0
 10
10.4933346205
 20
9.5420459064
 30
0.0
 10
10.4963374873
 20
9.5429451635
 30
0.0
 10
10.5005504143
 20
9.5440438481
 30
0.0
 10
10.5061532159
 20
9.5452988562
 30
0.0
 10
10.5124598927
 20
9.5465303929
 30
0.0
 10
10.5194557092
 20
9.5477348655
 30
0.0
 10
10.5271242246
 20
9.5489089273
 30
0.0
 10
10.5354470183
 20
9.5500498357
 30
0.0
 10
10.5444042397
 20
9.5511544641
 30
0.0
 10
10.553974472
 20
9.552219833
 30
0.0
 10
10.5641346574
 20
9.5532436182
 30
0.0
 10
10.5787842216
 20
9.5545812826
 30
0.0
 10
10.598379152
 20
9.556115501
 30
0.0
 10
10.6233002213
 20
9.5577148346
 30
0.0
 10
10.6499121356
 20
9.5590961029
 30
0.0
 10
10.677958474
 20
9.5602453922
 30
0.0
 10
10.7071693708
 20
9.561151607
 30
0.0
 10
10.7372666754
 20
9.5618054075
 30
0.0
 10
10.7679561473
 20
9.5621999903
 30
0.0
 10
10.788582334
 20
9.56228805
 30
0.0
 10
10.7989423427
 20
9.56228805
 30
0.0
  0
SPLINE
  5
529
100
AcDbEntity
  8
0
100
AcDbSpline
 62
7
  6
CONTINUOUS
 70
0
 71
3
 72
35
 73
31
 74
0
 42
0.0000001
 43
0.0000001
 44
0.0000000001
 40
0.0
 40
0.0
 40
0.0
 40
0.0
 40
0.0967747775
 40
0.1926711662
 40
0.286695896
 40
0.3779826579
 40
0.4656660085
 40
0.5489018166
 40
0.626903442
 40
0.6989360206
 40
0.7643178283
 40
0.7943249599
 40
0.8224470035
 40
0.8486225989
 40
0.8727958093
 40
0.8949127497
 40
0.9149301075
 40
0.9328149059
 40
0.9485396952
 40
0.9620921184
 40
0.9680574728
 40
0.9734864437
 40
0.9783853864
 40
0.9827643151
 40
0.9866394606
 40
0.9900366583
 40
0.9929951181
 40
0.9955748959
 40
0.9978668781
 40
1.0
 40
1.0
 40
1.0
 40
1.0
 10
10.7989423427
 20
9.5102430445
 30
0.0
 10
10.8080887176
 20
9.5102430445
 30
0.0
 10
10.8262985458
 20
9.5103207802
 30
0.0
 10
10.853392826
 20
9.5106691432
 30
0.0
 10
10.8799644365
 20
9.5112463412
 30
0.0
 10
10.9057537029
 20
9.5120464
 30
0.0
 10
10.9305149673
 20
9.5130610521
 30
0.0
 10
10.9540098452
 20
9.5142805661
 30
0.0
 10
10.9760120444
 20
9.5156924281
 30
0.0
 10
10.9963100037
 20
9.5172821622
 30
0.0
 10
11.0120632375
 20
9.5187811465
 30
0.0
 10
11.0236650829
 20
9.520072478
 30
0.0
 10
11.0315731952
 20
9.5210477588
 30
0.0
 10
11.0389211701
 20
9.5220550385
 30
0.0
 10
11.0456914862
 20
9.5230916025
 30
0.0
 10
11.0518679041
 20
9.5241549706
 30
0.0
 10
11.0574358001
 20
9.5252423204
 30
0.0
 10
11.0623824867
 20
9.5263502032
 30
0.0
 10
11.0666964235
 20
9.5274758139
 30
0.0
 10
11.069879587
 20
9.5284630901
 30
0.0
 10
11.0720947925
 20
9.5292718529
 30
0.0
 10
11.0735203907
 20
9.5298552822
 30
0.0
 10
11.0747814933
 20
9.5304412331
 30
0.0
 10
11.0758775634
 20
9.5310295336
 30
0.0
 10
11.0768084165
 20
9.5316201358
 30
0.0
 10
11.0775743526
 20
9.5322132717
 30
0.0
 10
11.0781757892
 20
9.5328099838
 30
0.0
 10
11.078612326
 20
9.5334129225
 30
0.0
 10
11.0788804731
 20
9.5340248732
 30
0.0
 10
11.0789421059
 20
9.5344450469
 30
0.0
 10
11.0789421167
 20
9.5346466524
 30
0.0
  0
SPLINE
  5
52A
100
AcDbEntity
  8
0
100
AcDbSpline
 62
9
  6
CONTINUOUS
 70
0
 71
3
 72
67
 73
63
 74
0
 42
0.0000001
 43
0.0000001
 44
0.0000000001
 40
0.0
 40
0.0
 40
0.0
 40
0.0
 40
0.0483874691
 40
0.0963357926
 40
0.1433482346
 40
0.1889916168
 40
0.2328332561
 40
0.2744511306
 40
0.3134520141
 40
0.349468402
 40
0.366249199
 40
0.3821595928
 40
0.3971630834
 40
0.4112240381
 40
0.4243117605
 40
0.4363982923
 40
0.4474566946
 40
0.4574652874
 40
0.4664075944
 40
0.4742699049
 40
0.477793893
 40
0.4810466569
 40
0.484029284
 40
0.48674372
 40
0.4891931445
 40
0.4913825658
 40
0.493320094
 40
0.4950186472
 40
0.4964978343
 40
0.4977876878
 40
0.4989336559
 40
0.5000002098
 40
0.50106677
 40
0.5022127872
 40
0.5035027389
 40
0.5049820503
 40
0.5066807178
 40
0.5086183097
 40
0.5108077404
 40
0.5132572337
 40
0.5159717856
 40
0.5189545451
 40
0.5222074254
 40
0.525731481
 40
0.5335937832
 40
0.5425362042
 40
0.5525448863
 40
0.5636031923
 40
0.5756896719
 40
0.5887773472
 40
0.6028381339
 40
0.6178414336
 40
0.6337516479
 40
0.6505322179
 40
0.6865480878
 40
0.7255484756
 40
0.7671659083
 40
0.8110072539
 40
0.8566504162
 40
0.9036630281
 40
0.9516121336
 40
1.0
 40
1.0
 40
1.0
 40
1.0
 10
10.7989423427
 20
9.56228805
 30
0.0
 10
10.8093022664
 20
9.56228805
 30
0.0
 10
10.8299282007
 20
9.5621999993
 30
0.0
 10
10.8606173836
 20
9.5618054144
 30
0.0
 10
10.8907145318
 20
9.5611516291
 30
0.0
 10
10.9199255024
 20
9.5602454192
 30
0.0
 10
10.9479720453
 20
9.5590961266
 30
0.0
 10
10.9745842232
 20
9.5577148509
 30
0.0
 10
10.9995056035
 20
9.5561154951
 30
0.0
 10
11.0191007985
 20
9.5545812545
 30
0.0
 10
11.0337505594
 20
9.5532435671
 30
0.0
 10
11.0439108709
 20
9.5522197575
 30
0.0
 10
11.053481217
 20
9.5511543688
 30
0.0
 10
11.0624385244
 20
9.5500497272
 30
0.0
 10
11.0707613717
 20
9.5489087879
 30
0.0
 10
11.078429925
 20
9.5477346972
 30
0.0
 10
11.0854257543
 20
9.5465302245
 30
0.0
 10
11.0917324023
 20
9.5452986568
 30
0.0
 10
11.0973351513
 20
9.5440436077
 30
0.0
 10
11.1015480436
 20
9.5429449364
 30
0.0
 10
11.1045508664
 20
9.5420456629
 30
0.0
 10
11.1065357893
 20
9.5413918855
 30
0.0
 10
11.1083360607
 20
9.5407344056
 30
0.0
 10
11.1099507834
 20
9.5400736068
 30
0.0
 10
11.1113791714
 20
9.5394099011
 30
0.0
 10
11.1126206348
 20
9.538743549
 30
0.0
 10
11.1136749582
 20
9.5380745803
 30
0.0
 10
11.114542481
 20
9.5374027598
 30
0.0
 10
11.1152236761
 20
9.5367268325
 30
0.0
 10
11.1157180925
 20
9.5360440214
 30
0.0
 10
11.1160217731
 20
9.5353504695
 30
0.0
 10
11.1161252009
 20
9.5346465041
 30
0.0
 10
11.116021748
 20
9.5339425271
 30
0.0
 10
11.1157179658
 20
9.5332489797
 30
0.0
 10
11.1152234371
 20
9.5325661802
 30
0.0
 10
11.1145421307
 20
9.5318902639
 30
0.0
 10
11.1136745208
 20
9.5312184525
 30
0.0
 10
11.1126201498
 20
9.530549486
 30
0.0
 10
11.1113786613
 20
9.5298831161
 30
0.0
 10
11.109950221
 20
9.5292194229
 30
0.0
 10
11.108335421
 20
9.5285586342
 30
0.0
 10
11.1065350624
 20
9.5279011655
 30
0.0
 10
11.1045500649
 20
9.5272473985
 30
0.0
 10
11.1015471981
 20
9.5263481414
 30
0.0
 10
11.0973342711
 20
9.5252494567
 30
0.0
 10
11.0917314696
 20
9.5239944486
 30
0.0
 10
11.0854247927
 20
9.5227629119
 30
0.0
 10
11.0784289763
 20
9.5215584394
 30
0.0
 10
11.0707604608
 20
9.5203843776
 30
0.0
 10
11.0624376671
 20
9.5192434691
 30
0.0
 10
11.0534804458
 20
9.5181388407
 30
0.0
 10
11.0439102134
 20
9.5170734719
 30
0.0
 10
11.033750028
 20
9.5160496866
 30
0.0
 10
11.0191004639
 20
9.5147120222
 30
0.0
 10
10.9995055335
 20
9.5131778038
 30
0.0
 10
10.9745844641
 20
9.5115784702
 30
0.0
 10
10.9479725498
 20
9.510197202
 30
0.0
 10
10.9199262115
 20
9.5090479127
 30
0.0
 10
10.8907153147
 20
9.5081416978
 30
0.0
 10
10.86061801
 20
9.5074878973
 30
0.0
 10
10.8299285382
 20
9.5070933146
 30
0.0
 10
10.8093023515
 20
9.5070052549
 30
0.0
 10
10.7989423427
 20
9.5070052549
 30
0.0
  0
SPLINE
  5
52B
100
AcDbEntity
  8
0
100
AcDbSpline
 62
9
  6
CONTINUOUS
 70
0
 71
3
 72
37
 73
33
 74
0
 42
0.0000001
 43
0.0000001
 44
0.0000000001
 40
0.0
 40
0.0
 40
0.0
 40
0.0
 40
0.0972370601
 40
0.1935722888
 40
0.2880100489
 40
0.3796700953
 40
0.4676681016
 40
0.5511522871
 40
0.6293218838
 40
0.7014317019
 40
0.7349973485
 40
0.7667976842
 40
0.7967560862
 40
0.8248052506
 40
0.8508824475
 40
0.8749273477
 40
0.8968907011
 40
0.9167300298
 40
0.9344076149
 40
0.9499012175
 40
0.9568266355
 40
0.9632043396
 40
0.9690361407
 40
0.9743267152
 40
0.979084573
 40
0.9833224311
 40
0.9870593638
 40
0.9903244404
 40
0.993162674
 40
0.9956444707
 40
0.9978756751
 40
1.0
 40
1.0
 40
1.0
 40
1.0
 10
10.7989423427
 20
9.5928299368
 30
0.0
 10
10.8103727709
 20
9.5928299368
 30
0.0
 10
10.8331277373
 20
9.5927323079
 30
0.0
 10
10.8669815277
 20
9.5922945695
 30
0.0
 10
10.9001746908
 20
9.5915694483
 30
0.0
 10
10.9323800762
 20
9.590564542
 30
0.0
 10
10.9632873119
 20
9.5892900533
 30
0.0
 10
10.992595125
 20
9.5877588522
 30
0.0
 10
11.0200180572
 20
9.5859862367
 30
0.0
 10
11.0415634393
 20
9.5842857433
 30
0.0
 10
11.0576560803
 20
9.5828032702
 30
0.0
 10
11.0688043426
 20
9.581669359
 30
0.0
 10
11.0792955205
 20
9.5804892866
 30
0.0
 10
11.0891041753
 20
9.579266184
 30
0.0
 10
11.0982065328
 20
9.5780033718
 30
0.0
 10
11.106580524
 20
9.5767037836
 30
0.0
 10
11.114206004
 20
9.5753710326
 30
0.0
 10
11.121064922
 20
9.5740091051
 30
0.0
 10
11.1271408506
 20
9.5726211806
 30
0.0
 10
11.1316965395
 20
9.5714056518
 30
0.0
 10
11.1349325374
 20
9.570410731
 30
0.0
 10
11.1370630884
 20
9.5696882554
 30
0.0
 10
11.1389882129
 20
9.5689617694
 30
0.0
 10
11.1407069444
 20
9.5682316496
 30
0.0
 10
11.1422187467
 20
9.567498405
 30
0.0
 10
11.1435233724
 20
9.566762332
 30
0.0
 10
11.1446208206
 20
9.5660234469
 30
0.0
 10
11.1455113373
 20
9.5652810916
 30
0.0
 10
11.14619498
 20
9.5645333071
 30
0.0
 10
11.146670155
 20
9.563776041
 30
0.0
 10
11.1469304701
 20
9.563006465
 30
0.0
 10
11.1469535252
 20
9.5624867222
 30
0.0
 10
11.1469289614
 20
9.5622382142
 30
0.0
  0
SPLINE
  5
52C
100
AcDbEntity
  8
0
100
AcDbSpline
 62
9
  6
CONTINUOUS
 70
0
 71
3
 72
37
 73
33
 74
0
 42
0.0000001
 43
0.0000001
 44
0.0000000001
 40
0.0
 40
0.0
 40
0.0
 40
0.0
 40
0.0021243249
 40
0.0043555293
 40
0.006837326
 40
0.0096755596
 40
0.0129406362
 40
0.0166775689
 40
0.020915427
 40
0.0256732848
 40
0.0309638593
 40
0.0367956604
 40
0.0431733645
 40
0.0500987825
 40
0.0655923851
 40
0.0832699702
 40
0.1031092989
 40
0.1250726523
 40
0.1491175525
 40
0.1751947494
 40
0.2032439138
 40
0.2332023158
 40
0.2650026515
 40
0.2985682981
 40
0.3706781162
 40
0.4488477129
 40
0.5323318984
 40
0.6203299047
 40
0.7119899511
 40
0.8064277112
 40
0.9027629399
 40
1.0
 40
1.0
 40
1.0
 40
1.0
 10
10.4509557241
 20
9.5622382142
 30
0.0
 10
10.4509311603
 20
9.5624867222
 30
0.0
 10
10.4509542154
 20
9.563006465
 30
0.0
 10
10.4512145305
 20
9.563776041
 30
0.0
 10
10.4516897055
 20
9.5645333071
 30
0.0
 10
10.4523733482
 20
9.5652810916
 30
0.0
 10
10.4532638649
 20
9.5660234469
 30
0.0
 10
10.4543613131
 20
9.566762332
 30
0.0
 10
10.4556659388
 20
9.567498405
 30
0.0
 10
10.457177741
 20
9.5682316496
 30
0.0
 10
10.4588964725
 20
9.5689617694
 30
0.0
 10
10.4608215971
 20
9.5696882554
 30
0.0
 10
10.4629521481
 20
9.570410731
 30
0.0
 10
10.466188146
 20
9.5714056518
 30
0.0
 10
10.4707438348
 20
9.5726211806
 30
0.0
 10
10.4768197634
 20
9.5740091051
 30
0.0
 10
10.4836786815
 20
9.5753710326
 30
0.0
 10
10.4913041615
 20
9.5767037836
 30
0.0
 10
10.4996781527
 20
9.5780033718
 30
0.0
 10
10.5087805102
 20
9.579266184
 30
0.0
 10
10.518589165
 20
9.5804892866
 30
0.0
 10
10.5290803428
 20
9.581669359
 30
0.0
 10
10.5402286051
 20
9.5828032702
 30
0.0
 10
10.5563212461
 20
9.5842857433
 30
0.0
 10
10.5778666282
 20
9.5859862367
 30
0.0
 10
10.6052895605
 20
9.5877588522
 30
0.0
 10
10.6345973736
 20
9.5892900533
 30
0.0
 10
10.6655046093
 20
9.590564542
 30
0.0
 10
10.6977099947
 20
9.5915694483
 30
0.0
 10
10.7309031578
 20
9.5922945695
 30
0.0
 10
10.7647569482
 20
9.5927323079
 30
0.0
 10
10.7875119146
 20
9.5928299368
 30
0.0
 10
10.7989423427
 20
9.5928299368
 30
0.0
  0
SPLINE
  5
52D
100
AcDbEntity
  8
0
100
AcDbSpline
 62
7
  6
CONTINUOUS
 70
0
 71
3
 72
15
 73
11
 74
0
 42
0.0000001
 43
0.0000001
 44
0.0000000001
 40
0.0
 40
0.0
 40
0.0
 40
0.0
 40
0.1377658882
 40
0.2743260857
 40
0.408357846
 40
0.5386848331
 40
0.6641216343
 40
0.7835270872
 40
0.8958230648
 40
1.0
 40
1.0
 40
1.0
 40
1.0
 10
10.7989423427
 20
10.2962856968
 30
0.0
 10
10.7856552205
 20
10.2962856968
 30
0.0
 10
10.7591971276
 20
10.2961755829
 30
0.0
 10
10.719814839
 20
10.295681686
 30
0.0
 10
10.6811555212
 20
10.2948632596
 30
0.0
 10
10.6435774574
 20
10.2937283659
 30
0.0
 10
10.6074215564
 20
10.2922877503
 30
0.0
 10
10.5730194871
 20
10.2905550985
 30
0.0
 10
10.5406865393
 20
10.2885467727
 30
0.0
 10
10.5198667848
 20
10.2869739047
 30
0.0
 10
10.5098543485
 20
10.2861344547
 30
0.0
  0
LINE
  5
52E
100
AcDbEntity
  8
0
100
AcDbLine
 62
7
  6
CONTINUOUS
 10
10.4883450219
 20
10.2841920826
 11
10.4870519019
 21
10.2840656869
  0
SPLINE
  5
52F
100
AcDbEntity
  8
0
100
AcDbSpline
 62
7
  6
CONTINUOUS
 70
0
 71
3
 72
28
 73
24
 74
0
 42
0.0000001
 43
0.0000001
 44
0.0000000001
 40
0.0
 40
0.0
 40
0.0
 40
0.0
 40
0.2193808427
 40
0.3196515344
 40
0.4133756221
 40
0.5003859987
 40
0.5805310035
 40
0.6536677685
 40
0.7196890295
 40
0.7785177764
 40
0.8301001733
 40
0.853174711
 40
0.8744470542
 40
0.893931136
 40
0.911648216
 40
0.9276300728
 40
0.9419242733
 40
0.9546046214
 40
0.9657813693
 40
0.9756174114
 40
0.9843531424
 40
0.9923314459
 40
1.0
 40
1.0
 40
1.0
 40
1.0
 10
10.4837947702
 20
10.2837419744
 30
0.0
 10
10.4760043118
 20
10.2829583856
 30
0.0
 10
10.4646621027
 20
10.2817208341
 30
0.0
 10
10.4500252783
 20
10.2798666954
 30
0.0
 10
10.4400923858
 20
10.2784780972
 30
0.0
 10
10.4308908751
 20
10.2770527462
 30
0.0
 10
10.4224392563
 20
10.2755938924
 30
0.0
 10
10.4147546347
 20
10.2741044656
 30
0.0
 10
10.4078521072
 20
10.2725880659
 30
0.0
 10
10.4017451779
 20
10.2710484448
 30
0.0
 10
10.3971726732
 20
10.269704048
 30
0.0
 10
10.3939293128
 20
10.2686060333
 30
0.0
 10
10.3917945756
 20
10.2678093067
 30
0.0
 10
10.3898666253
 20
10.2670089486
 30
0.0
 10
10.388146236
 20
10.2662053053
 30
0.0
 10
10.3866340266
 20
10.2653987312
 30
0.0
 10
10.3853303935
 20
10.264589286
 30
0.0
 10
10.3842352838
 20
10.2637768449
 30
0.0
 10
10.3833483254
 20
10.2629606295
 30
0.0
 10
10.382669559
 20
10.2621387677
 30
0.0
 10
10.3822009782
 20
10.2613078822
 30
0.0
 10
10.381948823
 20
10.2604664525
 30
0.0
 10
10.3819308838
 20
10.2599007331
 30
0.0
 10
10.3819578681
 20
10.2596283737
 30
0.0
  0
SPLINE
  5
530
100
AcDbEntity
  8
0
100
AcDbSpline
 62
7
  6
CONTINUOUS
 70
0
 71
3
 72
28
 73
24
 74
0
 42
0.0000001
 43
0.0000001
 44
0.0000000001
 40
0.0
 40
0.0
 40
0.0
 40
0.0
 40
0.0076685541
 40
0.0156468576
 40
0.0243825886
 40
0.0342186307
 40
0.0453953786
 40
0.0580757267
 40
0.0723699272
 40
0.088351784
 40
0.106068864
 40
0.1255529458
 40
0.146825289
 40
0.1698998267
 40
0.2214822236
 40
0.2803109705
 40
0.3463322315
 40
0.4194689965
 40
0.4996140013
 40
0.5866243779
 40
0.6803484656
 40
0.7806191573
 40
1.0
 40
1.0
 40
1.0
 40
1.0
 10
11.2159268174
 20
10.2596283737
 30
0.0
 10
11.2159538017
 20
10.2599007331
 30
0.0
 10
11.2159358624
 20
10.2604664525
 30
0.0
 10
11.2156837073
 20
10.2613078822
 30
0.0
 10
11.2152151265
 20
10.2621387677
 30
0.0
 10
11.2145363601
 20
10.2629606295
 30
0.0
 10
11.2136494016
 20
10.2637768449
 30
0.0
 10
11.212554292
 20
10.264589286
 30
0.0
 10
11.2112506589
 20
10.2653987312
 30
0.0
 10
11.2097384495
 20
10.2662053053
 30
0.0
 10
11.2080180602
 20
10.2670089486
 30
0.0
 10
11.2060901099
 20
10.2678093067
 30
0.0
 10
11.2039553727
 20
10.2686060333
 30
0.0
 10
11.2007120123
 20
10.269704048
 30
0.0
 10
11.1961395075
 20
10.2710484448
 30
0.0
 10
11.1900325783
 20
10.2725880659
 30
0.0
 10
11.1831300508
 20
10.2741044656
 30
0.0
 10
11.1754454292
 20
10.2755938924
 30
0.0
 10
11.1669938104
 20
10.2770527462
 30
0.0
 10
11.1577922997
 20
10.2784780972
 30
0.0
 10
11.1478594072
 20
10.2798666954
 30
0.0
 10
11.1332225828
 20
10.2817208341
 30
0.0
 10
11.1218803737
 20
10.2829583856
 30
0.0
 10
11.1140899152
 20
10.2837419744
 30
0.0
  0
LINE
  5
531
100
AcDbEntity
  8
0
100
AcDbLine
 62
7
  6
CONTINUOUS
 10
11.1140899152
 20
10.2837419744
 11
11.1123221409
 21
10.2839186266
  0
LINE
  5
532
100
AcDbEntity
  8
0
100
AcDbLine
 62
7
  6
CONTINUOUS
 10
11.1123221409
 20
10.2839186266
 11
11.1118002364
 21
10.2839703423
  0
LINE
  5
533
100
AcDbEntity
  8
0
100
AcDbLine
 62
7
  6
CONTINUOUS
 10
11.1118002364
 20
10.2839703423
 11
11.1094772098
 21
10.2841981572
  0
SPLINE
  5
534
100
AcDbEntity
  8
0
100
AcDbSpline
 62
7
  6
CONTINUOUS
 70
0
 71
3
 72
15
 73
11
 74
0
 42
0.0000001
 43
0.0000001
 44
0.0000000001
 40
0.0
 40
0.0
 40
0.0
 40
0.0
 40
0.1038449652
 40
0.2159353412
 40
0.3352477646
 40
0.4606887718
 40
0.5911005639
 40
0.7252780511
 40
0.8620252674
 40
1.0
 40
1.0
 40
1.0
 40
1.0
 10
11.0897705486
 20
10.2859877044
 30
0.0
 10
11.0797306027
 20
10.2868392922
 30
0.0
 10
11.0588384657
 20
10.2884347649
 30
0.0
 10
11.0263726518
 20
10.2904711755
 30
0.0
 10
10.9917922588
 20
10.2922286413
 30
0.0
 10
10.9554190059
 20
10.2936902754
 30
0.0
 10
10.9175916392
 20
10.2948419406
 30
0.0
 10
10.8786586112
 20
10.2956725972
 30
0.0
 10
10.8389861208
 20
10.2961739272
 30
0.0
 10
10.8123299248
 20
10.2962856968
 30
0.0
 10
10.7989423427
 20
10.2962856968
 30
0.0
  0
SPLINE
  5
535
100
AcDbEntity
  8
0
100
AcDbSpline
 62
7
  6
CONTINUOUS
 70
0
 71
3
 72
35
 73
31
 74
0
 42
0.0000001
 43
0.0000001
 44
0.0000000001
 40
0.0
 40
0.0
 40
0.0
 40
0.0
 40
0.0021331139
 40
0.0044251101
 40
0.0070049511
 40
0.0099634974
 40
0.0133607513
 40
0.0172358579
 40
0.0216146494
 40
0.0265135603
 40
0.0319425847
 40
0.0379080251
 40
0.051460493
 40
0.0671850093
 40
0.0850697659
 40
0.105087065
 40
0.1272036542
 40
0.1513766036
 40
0.1775519721
 40
0.2056736195
 40
0.235680333
 40
0.3010613602
 40
0.373093097
 40
0.4510940658
 40
0.5343294405
 40
0.6220127547
 40
0.7132996694
 40
0.8073253607
 40
0.9032238791
 40
1.0
 40
1.0
 40
1.0
 40
1.0
 10
10.5189425688
 20
9.5346466524
 30
0.0
 10
10.518942558
 20
9.5344450476
 30
0.0
 10
10.5190041658
 20
9.5340248656
 30
0.0
 10
10.5192723259
 20
9.5334129107
 30
0.0
 10
10.519708893
 20
9.5328099745
 30
0.0
 10
10.5203103599
 20
9.5322132661
 30
0.0
 10
10.5210763097
 20
9.5316201329
 30
0.0
 10
10.5220071472
 20
9.5310295283
 30
0.0
 10
10.5231031857
 20
9.53044121
 30
0.0
 10
10.5243642797
 20
9.529855265
 30
0.0
 10
10.5257898905
 20
9.5292718395
 30
0.0
 10
10.5280051184
 20
9.5284630864
 30
0.0
 10
10.5311882708
 20
9.5274758215
 30
0.0
 10
10.5355021753
 20
9.5263501868
 30
0.0
 10
10.5404488318
 20
9.5252423275
 30
0.0
 10
10.5460166874
 20
9.5241549933
 30
0.0
 10
10.55219304
 20
9.5230916176
 30
0.0
 10
10.5589632784
 20
9.5220550668
 30
0.0
 10
10.5663111714
 20
9.5210478019
 30
0.0
 10
10.5742191854
 20
9.5200725234
 30
0.0
 10
10.5858208809
 20
9.5187812007
 30
0.0
 10
10.6015739233
 20
9.5172822299
 30
0.0
 10
10.6218716679
 20
9.5156924952
 30
0.0
 10
10.6438736857
 20
9.5142806352
 30
0.0
 10
10.6673684579
 20
9.5130611098
 30
0.0
 10
10.6921296936
 20
9.5120464475
 30
0.0
 10
10.7179190631
 20
9.511246373
 30
0.0
 10
10.7444909816
 20
9.5106691545
 30
0.0
 10
10.7715856827
 20
9.5103207887
 30
0.0
 10
10.7897958403
 20
9.5102430445
 30
0.0
 10
10.7989423427
 20
9.5102430445
 30
0.0
  0
SPLINE
  5
536
100
AcDbEntity
  8
0
100
AcDbSpline
 62
7
  6
CONTINUOUS
 70
0
 71
3
 72
21
 73
17
 74
0
 42
0.0000001
 43
0.0000001
 44
0.0000000001
 40
0.0
 40
0.0
 40
0.0
 40
0.0
 40
0.0625086279
 40
0.1250165307
 40
0.249986852
 40
0.3124916656
 40
0.3749953383
 40
0.4374979807
 40
0.5000000067
 40
0.5625020297
 40
0.6250046714
 40
0.6875083423
 40
0.7500131535
 40
0.874983471
 40
0.9374913715
 40
1.0
 40
1.0
 40
1.0
 40
1.0
 10
15.1779716946
 20
6.9398641641
 30
0.0
 10
15.1632088128
 20
6.9472243459
 30
0.0
 10
15.1334176019
 20
6.9614242021
 30
0.0
 10
15.0727734699
 20
6.9874173321
 30
0.0
 10
15.0103505399
 20
7.0092058948
 30
0.0
 10
14.9463558701
 20
7.0253774022
 30
0.0
 10
14.8976536224
 20
7.0343564132
 30
0.0
 10
14.8484364762
 20
7.0398820533
 30
0.0
 10
14.7989423383
 20
7.0417488159
 30
0.0
 10
14.7494482006
 20
7.0398820525
 30
0.0
 10
14.700231056
 20
7.034356412
 30
0.0
 10
14.6515288096
 20
7.025377401
 30
0.0
 10
14.5875341419
 20
7.0092058935
 30
0.0
 10
14.5251112143
 20
6.9874173311
 30
0.0
 10
14.4644670831
 20
6.9614242027
 30
0.0
 10
14.4346758731
 20
6.9472243459
 30
0.0
 10
14.4199129911
 20
6.939864164
 30
0.0
  0
SPLINE
  5
537
100
AcDbEntity
  8
0
100
AcDbSpline
 62
7
  6
CONTINUOUS
 70
0
 71
3
 72
29
 73
25
 74
0
 42
0.0000001
 43
0.0000001
 44
0.0000000001
 40
0.0
 40
0.0
 40
0.0
 40
0.0
 40
0.0699609748
 40
0.1378565438
 40
0.2034998419
 40
0.266778229
 40
0.3277080758
 40
0.3573640579
 40
0.3865362043
 40
0.4152931621
 40
0.443720459
 40
0.4719185631
 40
0.499999125
 40
0.5280796862
 40
0.5562777965
 40
0.5847051059
 40
0.6134620746
 40
0.6426342359
 40
0.6722902364
 40
0.7332201234
 40
0.7964985441
 40
0.8621419183
 40
0.930037439
 40
1.0
 40
1.0
 40
1.0
 40
1.0
 10
14.4199111396
 20
6.939864164
 30
0.0
 10
14.4126310449
 20
6.9471232837
 30
0.0
 10
14.3979712156
 20
6.9611176362
 30
0.0
 10
14.3752727545
 20
6.9806116868
 30
0.0
 10
14.3521376571
 20
6.9980106458
 30
0.0
 10
14.3285601241
 20
7.0129869447
 30
0.0
 10
14.3083586254
 20
7.0232465616
 30
0.0
 10
14.2920280181
 20
7.029830604
 30
0.0
 10
14.2798077021
 20
7.0338986845
 30
0.0
 10
14.2675190782
 20
7.0371043877
 30
0.0
 10
14.2551762252
 20
7.0394172294
 30
0.0
 10
14.2427959366
 20
7.0408146328
 30
0.0
 10
14.2303964365
 20
7.0412822118
 30
0.0
 10
14.2179969367
 20
7.0408145984
 30
0.0
 10
14.2056166493
 20
7.0394171607
 30
0.0
 10
14.1932737981
 20
7.0371042864
 30
0.0
 10
14.1809851768
 20
7.0338985503
 30
0.0
 10
14.1687648648
 20
7.0298304385
 30
0.0
 10
14.1524342599
 20
7.0232463592
 30
0.0
 10
14.1322327836
 20
7.0129866784
 30
0.0
 10
14.1086551995
 20
6.9980103995
 30
0.0
 10
14.0855202984
 20
6.9806111994
 30
0.0
 10
14.062821124
 20
6.9611175662
 30
0.0
 10
14.0481623487
 20
6.947121775
 30
0.0
 10
14.0408820909
 20
6.9398624887
 30
0.0
  0
SPLINE
  5
538
100
AcDbEntity
  8
0
100
AcDbSpline
 62
7
  6
CONTINUOUS
 70
0
 71
3
 72
29
 73
25
 74
0
 42
0.0000001
 43
0.0000001
 44
0.0000000001
 40
0.0
 40
0.0
 40
0.0
 40
0.0
 40
0.069961591
 40
0.137857213
 40
0.2035006061
 40
0.2667790725
 40
0.3277090014
 40
0.3573650235
 40
0.3865372093
 40
0.4152942052
 40
0.4437215386
 40
0.4719196775
 40
0.500000272
 40
0.5280808636
 40
0.556279002
 40
0.5847063372
 40
0.6134633296
 40
0.6426355128
 40
0.6722915338
 40
0.7332214578
 40
0.7964999242
 40
0.8621432988
 40
0.9300389443
 40
1.0
 40
1.0
 40
1.0
 40
1.0
 10
15.5570024105
 20
6.939863704
 30
0.0
 10
15.5497222697
 20
6.9471228736
 30
0.0
 10
15.5350628139
 20
6.9611176978
 30
0.0
 10
15.5123641314
 20
6.9806115785
 30
0.0
 10
15.4892291244
 20
6.9980105951
 30
0.0
 10
15.4656515985
 20
7.0129868671
 30
0.0
 10
15.4454501291
 20
7.0232464933
 30
0.0
 10
15.4291195403
 20
7.0298305419
 30
0.0
 10
15.4168992388
 20
7.0338986304
 30
0.0
 10
15.4046106291
 20
7.0371043435
 30
0.0
 10
15.3922677903
 20
7.0394171976
 30
0.0
 10
15.3798875156
 20
7.0408146156
 30
0.0
 10
15.3674880291
 20
7.0412822115
 30
0.0
 10
15.3550885426
 20
7.0408146169
 30
0.0
 10
15.3427082681
 20
7.0394172
 30
0.0
 10
15.3303654292
 20
7.037104348
 30
0.0
 10
15.31807682
 20
7.0338986353
 30
0.0
 10
15.3058565189
 20
7.0298305491
 30
0.0
 10
15.2895259313
 20
7.0232465015
 30
0.0
 10
15.269324457
 20
7.0129868836
 30
0.0
 10
15.245746952
 20
6.9980105918
 30
0.0
 10
15.2226118818
 20
6.9806116461
 30
0.0
 10
15.199913446
 20
6.9611176146
 30
0.0
 10
15.185253633
 20
6.9471232762
 30
0.0
 10
15.177973546
 20
6.9398641641
 30
0.0
  0
SPLINE
  5
539
100
AcDbEntity
  8
0
100
AcDbSpline
 62
7
  6
CONTINUOUS
 70
0
 71
3
 72
21
 73
17
 74
0
 42
0.0000001
 43
0.0000001
 44
0.0000000001
 40
0.0
 40
0.0
 40
0.0
 40
0.0
 40
0.0625086279
 40
0.1250165307
 40
0.249986852
 40
0.3124916656
 40
0.3749953383
 40
0.4374979807
 40
0.5000000067
 40
0.5625020297
 40
0.6250046714
 40
0.6875083423
 40
0.7500131535
 40
0.874983471
 40
0.9374913715
 40
1.0
 40
1.0
 40
1.0
 40
1.0
 10
7.1779716946
 20
6.9398641641
 30
0.0
 10
7.1632088128
 20
6.9472243459
 30
0.0
 10
7.1334176019
 20
6.9614242021
 30
0.0
 10
7.0727734699
 20
6.9874173321
 30
0.0
 10
7.0103505399
 20
7.0092058948
 30
0.0
 10
6.9463558701
 20
7.0253774022
 30
0.0
 10
6.8976536224
 20
7.0343564132
 30
0.0
 10
6.8484364762
 20
7.0398820533
 30
0.0
 10
6.7989423383
 20
7.0417488159
 30
0.0
 10
6.7494482006
 20
7.0398820525
 30
0.0
 10
6.700231056
 20
7.034356412
 30
0.0
 10
6.6515288096
 20
7.025377401
 30
0.0
 10
6.5875341419
 20
7.0092058935
 30
0.0
 10
6.5251112143
 20
6.9874173311
 30
0.0
 10
6.4644670831
 20
6.9614242027
 30
0.0
 10
6.4346758731
 20
6.9472243459
 30
0.0
 10
6.4199129911
 20
6.939864164
 30
0.0
  0
SPLINE
  5
53A
100
AcDbEntity
  8
0
100
AcDbSpline
 62
7
  6
CONTINUOUS
 70
0
 71
3
 72
29
 73
25
 74
0
 42
0.0000001
 43
0.0000001
 44
0.0000000001
 40
0.0
 40
0.0
 40
0.0
 40
0.0
 40
0.0699609748
 40
0.1378565438
 40
0.2034998419
 40
0.266778229
 40
0.3277080758
 40
0.3573640579
 40
0.3865362043
 40
0.4152931621
 40
0.443720459
 40
0.4719185631
 40
0.499999125
 40
0.5280796862
 40
0.5562777965
 40
0.5847051059
 40
0.6134620746
 40
0.6426342359
 40
0.6722902364
 40
0.7332201234
 40
0.7964985441
 40
0.8621419183
 40
0.930037439
 40
1.0
 40
1.0
 40
1.0
 40
1.0
 10
6.4199111396
 20
6.939864164
 30
0.0
 10
6.4126310449
 20
6.9471232837
 30
0.0
 10
6.3979712156
 20
6.9611176362
 30
0.0
 10
6.3752727545
 20
6.9806116868
 30
0.0
 10
6.3521376571
 20
6.9980106458
 30
0.0
 10
6.3285601241
 20
7.0129869447
 30
0.0
 10
6.3083586254
 20
7.0232465616
 30
0.0
 10
6.2920280181
 20
7.029830604
 30
0.0
 10
6.2798077021
 20
7.0338986845
 30
0.0
 10
6.2675190782
 20
7.0371043877
 30
0.0
 10
6.2551762252
 20
7.0394172294
 30
0.0
 10
6.2427959366
 20
7.0408146328
 30
0.0
 10
6.2303964365
 20
7.0412822118
 30
0.0
 10
6.2179969367
 20
7.0408145984
 30
0.0
 10
6.2056166493
 20
7.0394171607
 30
0.0
 10
6.1932737981
 20
7.0371042864
 30
0.0
 10
6.1809851768
 20
7.0338985503
 30
0.0
 10
6.1687648648
 20
7.0298304385
 30
0.0
 10
6.1524342599
 20
7.0232463592
 30
0.0
 10
6.1322327836
 20
7.0129866784
 30
0.0
 10
6.1086551995
 20
6.9980103995
 30
0.0
 10
6.0855202984
 20
6.9806111994
 30
0.0
 10
6.062821124
 20
6.9611175662
 30
0.0
 10
6.0481623487
 20
6.947121775
 30
0.0
 10
6.0408820909
 20
6.9398624887
 30
0.0
  0
SPLINE
  5
53B
100
AcDbEntity
  8
0
100
AcDbSpline
 62
7
  6
CONTINUOUS
 70
0
 71
3
 72
29
 73
25
 74
0
 42
0.0000001
 43
0.0000001
 44
0.0000000001
 40
0.0
 40
0.0
 40
0.0
 40
0.0
 40
0.069961591
 40
0.137857213
 40
0.2035006061
 40
0.2667790725
 40
0.3277090014
 40
0.3573650235
 40
0.3865372093
 40
0.4152942052
 40
0.4437215386
 40
0.4719196775
 40
0.500000272
 40
0.5280808636
 40
0.556279002
 40
0.5847063372
 40
0.6134633296
 40
0.6426355128
 40
0.6722915338
 40
0.7332214578
 40
0.7964999242
 40
0.8621432988
 40
0.9300389443
 40
1.0
 40
1.0
 40
1.0
 40
1.0
 10
7.5570024105
 20
6.939863704
 30
0.0
 10
7.5497222697
 20
6.9471228736
 30
0.0
 10
7.5350628139
 20
6.9611176978
 30
0.0
 10
7.5123641314
 20
6.9806115785
 30
0.0
 10
7.4892291244
 20
6.9980105951
 30
0.0
 10
7.4656515985
 20
7.0129868671
 30
0.0
 10
7.4454501291
 20
7.0232464933
 30
0.0
 10
7.4291195403
 20
7.0298305419
 30
0.0
 10
7.4168992388
 20
7.0338986304
 30
0.0
 10
7.4046106291
 20
7.0371043435
 30
0.0
 10
7.3922677903
 20
7.0394171976
 30
0.0
 10
7.3798875156
 20
7.0408146156
 30
0.0
 10
7.3674880291
 20
7.0412822115
 30
0.0
 10
7.3550885426
 20
7.0408146169
 30
0.0
 10
7.3427082681
 20
7.0394172
 30
0.0
 10
7.3303654292
 20
7.037104348
 30
0.0
 10
7.31807682
 20
7.0338986353
 30
0.0
 10
7.3058565189
 20
7.0298305491
 30
0.0
 10
7.2895259313
 20
7.0232465015
 30
0.0
 10
7.269324457
 20
7.0129868836
 30
0.0
 10
7.245746952
 20
6.9980105918
 30
0.0
 10
7.2226118818
 20
6.9806116461
 30
0.0
 10
7.199913446
 20
6.9611176146
 30
0.0
 10
7.185253633
 20
6.9471232762
 30
0.0
 10
7.177973546
 20
6.9398641641
 30
0.0
  0
ENDSEC
  0
SECTION
  2
OBJECTS
  0
DICTIONARY
  5
C
100
AcDbDictionary
280
0
281
1
  3
ACAD_GROUP
350
D
  3
ACAD_MLINESTYLE
350
17
  3
ACAD_LAYOUT
350
1A
  3
ACAD_PLOTSETTINGS
350
19
  3
ACAD_PLOTSTYLENAME
350
E
  0
DICTIONARY
  5
D
102
{ACAD_REACTORS
330
C
102
}
100
AcDbDictionary
280
0
281
1
  0
ACDBDICTIONARYWDFLT
  5
E
102
{ACAD_REACTORS
330
C
102
}
100
AcDbDictionary
281
1
  3
Normal
350
F
100
AcDbDictionaryWithDefault
340
F
  0
DICTIONARY
  5
17
102
{ACAD_REACTORS
330
C
102
}
100
AcDbDictionary
280
0
281
1
  3
Standard
350
18
  0
DICTIONARY
  5
19
102
{ACAD_REACTORS
330
C
102
}
100
AcDbDictionary
281
1
  0
DICTIONARY
  5
1A
102
{ACAD_REACTORS
330
C
102
}
100
AcDbDictionary
281
1
  3
Model
350
53C
  3
Layout1
350
53D
  0
ACDBPLACEHOLDER
  5
F
102
{ACAD_REACTORS
330
E
102
}
  0
MLINESTYLE
  5
18
102
{ACAD_REACTORS
330
17
102
}
100
AcDbMlineStyle
  2
STANDARD
 70
0
  3

 62
256
 51
90.0
 52
90.0
 71
2
 49
0.5
 62
256
  6
BYLAYER
 49
-0.5
 62
256
  6
BYLAYER
  0
LAYOUT
  5
53C
102
{ACAD_REACTORS
330
1A
102
}
100
AcDbPlotSettings
  1

  2
none_device
  4
ANSI_C_(22.00_x_17.00_Inches)
  6

 40
0.0
 41
0.0
 42
0.0
 43
0.0
 44
558.8
 45
431.8
 46
0.0
 47
0.0
 48
0.0
 49
0.0
140
0.0
141
0.0
142
1.0
143
1.0
 70
1024
 72
0
 73
0
 74
0
  7

 75
0
147
1.0
148
0.0
149
0.0
100
AcDbLayout
  1
Model
 70
0
 71
0
 10
0.0
 20
0.0
 11
22.0
 21
17.0
 12
0.0
 22
0.0
 32
0.0
 14
0.0
 24
0.0
 34
0.0
 15
0.0
 25
0.0
 35
0.0
146
0.0
 13
0.0
 23
0.0
 33
0.0
 16
1.0
 26
0.0
 36
0.0
 17
0.0
 27
1.0
 37
0.0
 76
0
330
202
345
0
346
0
  0
LAYOUT
  5
53D
102
{ACAD_REACTORS
330
1A
102
}
100
AcDbPlotSettings
  1

  2
none_device
  4
ANSI_C_(22.00_x_17.00_Inches)
  6

 40
0.0
 41
0.0
 42
0.0
 43
0.0
 44
558.8
 45
431.8
 46
0.0
 47
0.0
 48
0.0
 49
0.0
140
0.0
141
0.0
142
1.0
143
1.0
 70
0
 72
0
 73
0
 74
0
  7

 75
0
147
1.0
148
0.0
149
0.0
100
AcDbLayout
  1
Layout1
 70
0
 71
1
 10
0.0
 20
0.0
 11
22.0
 21
17.0
 12
0.0
 22
0.0
 32
0.0
 14
0.0
 24
0.0
 34
0.0
 15
0.0
 25
0.0
 35
0.0
146
0.0
 13
0.0
 23
0.0
 33
0.0
 16
1.0
 26
0.0
 36
0.0
 17
0.0
 27
1.0
 37
0.0
 76
0
330
203
345
0
346
0
  0
ENDSEC
  0
EOF
