999
DXF file: E:\BT Custom\CADOUTPUT\_TOP.dxf
999
Pro/ENGINEER 2018400 by Parametric Technology Corporation
  0
SECTION
  2
HEADER
  9
$ACADVER
  1
AC1018
  9
$DWGCODEPAGE
  3
ANSI_1252
  9
$EXTMAX
 10
22.0
 20
17.0
 30
0.0
  9
$EXTMIN
 10
0.0
 20
0.0
 30
0.0
  9
$LIMMIN
 10
0.0
 20
0.0
  9
$LIMMAX
 10
22.0
 20
17.0
  9
$VIEWCTR
 10
11.0
 20
8.5
  9
$VIEWSIZE
 40
17.0
  9
$CLAYER
  8
0
  9
$LTSCALE
 40
1.21
  9
$CELTYPE
  6
BYLAYER
  9
$DIMSCALE
 40
1.0
  9
$DIMASZ
 40
0.1
  9
$DIMEXO
 40
0.0625
  9
$DIMDLI
 40
0.836
  9
$DIMEXE
 40
0.125
  9
$DIMCEN
 40
0.198
  9
$DIMLFAC
 40
1.0
  9
$DIMBLK
  1
_FILLED
  9
$DIMALT
 70
1
  9
$DIMALTD
 70
2
  9
$DIMALTTD
 70
2
  9
$DIMALTF
 40
25.4
  9
$DIMTXT
 40
0.08
  9
$DIMTOL
 70
1
  9
$DIMLIM
 70
0
  9
$DIMTFAC
 40
1.0
  9
$DIMTP
 40
0.001
  9
$DIMTM
 40
0.001
  9
$DIMGAP
 40
0.09
  9
$DIMDSEP
 70
46
  9
$AUNITS
 70
0
  9
$PDMODE
 70
3
  9
$PDSIZE
 40
0.06
  9
$HANDSEED
  5
3DE
  9
$TILEMODE
 70
1
  9
$MEASUREMENT
 70
0
  9
$INSUNITS
 70
1
  0
ENDSEC
  0
SECTION
  2
CLASSES
  0
CLASS
  1
ACDBDICTIONARYWDFLT
  2
AcDbDictionaryWithDefault
  3
AutoCAD 2000
 90
0
 91
1
280
0
281
0
  0
CLASS
  1
ACDBPLACEHOLDER
  2
AcDbPlaceHolder
  3
AutoCAD 2000
 90
0
 91
1
280
0
281
0
  0
CLASS
  1
LAYOUT
  2
AcDbLayout
  3
AutoCAD 2000
 90
0
 91
0
280
0
281
0
  0
ENDSEC
  0
SECTION
  2
TABLES
  0
TABLE
  2
VPORT
  5
8
100
AcDbSymbolTable
 70
2
  0
VPORT
  5
1F4
100
AcDbSymbolTableRecord
100
AcDbViewportTableRecord
  2
*ACTIVE
 70
0
 10
0.0
 20
0.0
 11
1.0
 21
1.0
 12
11.0
 22
8.5
 13
0.0
 23
0.0
 14
1.0
 24
1.0
 15
0.0
 25
0.0
 16
0.0
 26
0.0
 36
1.0
 17
0.0
 27
0.0
 37
0.0
 40
17.0
 41
1.2941176471
 42
50.0
 43
0.0
 44
0.0
 50
0.0
 51
0.0
 71
0
 72
100
 73
1
 74
1
 75
0
 76
0
 77
0
 78
0
  0
ENDTAB
  0
TABLE
  2
LTYPE
  5
5
100
AcDbSymbolTable
 70
6
  0
LTYPE
  5
14
100
AcDbSymbolTableRecord
100
AcDbLinetypeTableRecord
  2
BYBLOCK
 70
0
  3

 72
65
 73
0
 40
0.0
  0
LTYPE
  5
15
100
AcDbSymbolTableRecord
100
AcDbLinetypeTableRecord
  2
BYLAYER
 70
0
  3

 72
65
 73
0
 40
0.0
  0
LTYPE
  5
16
100
AcDbSymbolTableRecord
100
AcDbLinetypeTableRecord
  2
CONTINUOUS
 70
64
  3
Solid line
 72
65
 73
0
 40
0.0
  0
LTYPE
  5
1F5
100
AcDbSymbolTableRecord
100
AcDbLinetypeTableRecord
  2
CENTER
 70
64
  3
____ _ ____ _ ____ _ ____ _ ____ _ ____ _ ____
 72
65
 73
4
 40
0.6
 49
0.375
 74
0
 49
-0.075
 74
0
 49
0.075
 74
0
 49
-0.075
 74
0
  0
LTYPE
  5
1F6
100
AcDbSymbolTableRecord
100
AcDbLinetypeTableRecord
  2
HIDDEN
 70
64
  3
- - - - - - - - - - - - - - - - - - - -
 72
65
 73
2
 40
0.2
 49
0.1
 74
0
 49
-0.1
 74
0
  0
LTYPE
  5
1F7
100
AcDbSymbolTableRecord
100
AcDbLinetypeTableRecord
  2
PHANTOM
 70
64
  3
_____ _ _ _____ _ _ _____ _ _ _____
 72
65
 73
6
 40
0.8
 49
0.45
 74
0
 49
-0.05
 74
0
 49
0.1
 74
0
 49
-0.05
 74
0
 49
0.1
 74
0
 49
-0.05
 74
0
  0
LTYPE
  5
1F8
100
AcDbSymbolTableRecord
100
AcDbLinetypeTableRecord
  2
DOT
 70
64
  3
. . . . . . . . . . . . . . . . . . . .
 72
65
 73
2
 40
0.2
 49
0.1
 74
0
 49
-0.1
 74
0
  0
LTYPE
  5
1F9
100
AcDbSymbolTableRecord
100
AcDbLinetypeTableRecord
  2
DASHED
 70
64
  3
- - - - - - - - - - - - - - - - - - - -
 72
65
 73
2
 40
0.2
 49
0.1
 74
0
 49
-0.1
 74
0
  0
ENDTAB
  0
TABLE
  2
LAYER
  5
2
100
AcDbSymbolTable
 70
36
  0
LAYER
  5
10
100
AcDbSymbolTableRecord
100
AcDbLayerTableRecord
  2
0
 70
0
 62
7
  6
CONTINUOUS
370
-3
390
F
  0
LAYER
  5
1FA
100
AcDbSymbolTableRecord
100
AcDbLayerTableRecord
  2
DEFAULT_1
 70
0
 62
7
  6
CENTER
370
-3
390
F
  0
LAYER
  5
1FB
100
AcDbSymbolTableRecord
100
AcDbLayerTableRecord
  2
DEFAULT_2
 70
0
 62
8
  6
HIDDEN
370
-3
390
F
  0
LAYER
  5
1FC
100
AcDbSymbolTableRecord
100
AcDbLayerTableRecord
  2
DEFAULT_3
 70
0
 62
7
  6
PHANTOM
370
-3
390
F
  0
LAYER
  5
1FD
100
AcDbSymbolTableRecord
100
AcDbLayerTableRecord
  2
ALL_FEATURES
 70
0
 62
7
  6
CONTINUOUS
370
-3
390
F
  0
LAYER
  5
1FE
100
AcDbSymbolTableRecord
100
AcDbLayerTableRecord
  2
AXES_FEATURES
 70
0
 62
7
  6
CONTINUOUS
370
-3
390
F
  0
LAYER
  5
1FF
100
AcDbSymbolTableRecord
100
AcDbLayerTableRecord
  2
DIMENSIONS
 70
0
 62
7
  6
CONTINUOUS
370
-3
390
F
  0
ENDTAB
  0
TABLE
  2
STYLE
  5
3
100
AcDbSymbolTable
 70
1
  0
STYLE
  5
11
100
AcDbSymbolTableRecord
100
AcDbTextStyleTableRecord
  2
STANDARD
 70
0
 40
0.0
 41
0.8
 50
0.0
 71
0
 42
0.2
  3
txt
  4

  0
STYLE
  5
200
100
AcDbSymbolTableRecord
100
AcDbTextStyleTableRecord
  2
TEXTSTYLE_1
 70
0
 40
0.0
 41
0.8
 50
0.0
 71
0
 42
0.2
  3
gdt
  4

  0
ENDTAB
  0
TABLE
  2
VIEW
  5
6
100
AcDbSymbolTable
 70
0
  0
ENDTAB
  0
TABLE
  2
UCS
  5
7
100
AcDbSymbolTable
 70
0
  0
ENDTAB
  0
TABLE
  2
APPID
  5
9
100
AcDbSymbolTable
 70
1
  0
APPID
  5
201
100
AcDbSymbolTableRecord
100
AcDbRegAppTableRecord
  2
ACAD
 70
0
  0
ENDTAB
  0
TABLE
  2
BLOCK_RECORD
  5
1
100
AcDbSymbolTable
 70
0
  0
BLOCK_RECORD
  5
202
100
AcDbSymbolTableRecord
100
AcDbBlockTableRecord
  2
*Model_Space
  0
BLOCK_RECORD
  5
203
100
AcDbSymbolTableRecord
100
AcDbBlockTableRecord
  2
*Paper_Space
  0
BLOCK_RECORD
  5
204
100
AcDbSymbolTableRecord
100
AcDbBlockTableRecord
  2
_FILLED
  0
ENDTAB
  0
TABLE
  2
DIMSTYLE
  5
A
100
AcDbSymbolTable
 70
1
100
AcDbDimStyleTable
 71
0
  0
DIMSTYLE
105
205
100
AcDbSymbolTableRecord
100
AcDbDimStyleTableRecord
  2
STANDARD
 70
0
  3

  4

 40
1.0
 41
0.1
 42
0.0625
 43
0.38
 44
0.125
 45
0.0
 46
0.0
 47
0.001
 48
0.001
140
0.08
141
0.09
142
0.0
143
25.4
144
1.0
145
0.0
146
1.0
147
0.09
 71
1.0
 72
0.0
 73
1
 74
1
 75
0
 76
0
 77
0
 78
4
 79
1
170
1
171
2
172
0
173
0
174
0
175
0
176
0
177
0
178
0
270
2
179
3
271
3
272
3
273
2
274
2
275
0
280
0
281
0
282
0
283
1
284
4
285
0
286
0
287
3
288
0
340
11
278
46
341
204
342
204
343
204
344
204
  0
ENDTAB
  0
ENDSEC
  0
SECTION
  2
BLOCKS
  0
BLOCK
  5
20
100
AcDbEntity
  8
0
100
AcDbBlockBegin
  2
*Model_Space
 70
0
 10
0.0
 20
0.0
 30
0.0
  3
*Model_Space
  1

  0
ENDBLK
  5
21
100
AcDbEntity
  8
0
100
AcDbBlockEnd
  0
BLOCK
  5
1C
100
AcDbEntity
  8
0
100
AcDbBlockBegin
  2
*Paper_Space
 70
0
 10
0.0
 20
0.0
 30
0.0
  3
*Paper_Space
  1

  0
ENDBLK
  5
1D
100
AcDbEntity
  8
0
100
AcDbBlockEnd
  0
BLOCK
  5
206
100
AcDbEntity
  8
0
100
AcDbBlockBegin
  2
_FILLED
 70
64
 10
0.0
 20
0.0
  3
_FILLED
  1

  0
SOLID
  5
207
100
AcDbEntity
  8
0
  6
BYBLOCK
 62
0
100
AcDbTrace
 10
0.0
 20
0.0
 11
-1.0
 21
0.2
 12
-1.0
 22
-0.2
 13
-1.0
 23
-0.2
  0
ENDBLK
  5
208
100
AcDbEntity
  8
0
  6
BYBLOCK
 62
0
100
AcDbBlockEnd
  0
ENDSEC
  0
SECTION
  2
ENTITIES
  0
LINE
  5
209
100
AcDbEntity
  8
0
100
AcDbLine
 62
9
  6
CONTINUOUS
 10
6.3432367016
 20
11.3121397853
 11
6.0246613207
 21
10.9935644043
  0
LINE
  5
20A
100
AcDbEntity
  8
0
100
AcDbLine
 62
9
  6
CONTINUOUS
 10
6.1233513469
 20
10.97616269
 11
6.360638416
 21
11.213449759
  0
LINE
  5
20B
100
AcDbEntity
  8
0
100
AcDbLine
 62
7
  6
CONTINUOUS
 10
6.3935031683
 20
11.2107085411
 11
6.1260925648
 21
10.9432979377
  0
LINE
  5
20C
100
AcDbEntity
  8
0
100
AcDbLine
 62
7
  6
CONTINUOUS
 10
6.1505080864
 20
10.4282338963
 11
6.3657585709
 21
10.8010586717
  0
LINE
  5
20D
100
AcDbEntity
  8
0
100
AcDbLine
 62
7
  6
CONTINUOUS
 10
6.4858174523
 20
11.0090067541
 11
6.5295371351
 21
11.084731466
  0
LINE
  5
20E
100
AcDbEntity
  8
0
100
AcDbLine
 62
9
  6
CONTINUOUS
 10
6.1423798619
 20
10.9244234187
 11
6.4123776873
 21
11.194421244
  0
LINE
  5
20F
100
AcDbEntity
  8
0
100
AcDbLine
 62
9
  6
CONTINUOUS
 10
6.4009760165
 20
10.671822629
 11
6.4143945676
 21
10.6852411802
  0
LINE
  5
210
100
AcDbEntity
  8
0
100
AcDbLine
 62
9
  6
CONTINUOUS
 10
6.6506646909
 20
10.9215113034
 11
6.6649784769
 21
10.9358250895
  0
LINE
  5
211
100
AcDbEntity
  8
0
100
AcDbLine
 62
7
  6
CONTINUOUS
 10
7.025948064
 20
10.6644064326
 11
6.91917494
 21
10.5576333086
  0
LINE
  5
212
100
AcDbEntity
  8
0
100
AcDbLine
 62
7
  6
CONTINUOUS
 10
6.777046477
 20
10.4155048456
 11
6.725427682
 21
10.3638860506
  0
LINE
  5
213
100
AcDbEntity
  8
0
100
AcDbLine
 62
7
  6
CONTINUOUS
 10
6.7134068667
 20
10.3518652353
 11
6.6617880716
 21
10.3002464403
  0
LINE
  5
214
100
AcDbEntity
  8
0
100
AcDbLine
 62
7
  6
CONTINUOUS
 10
6.9521241824
 20
10.5652681282
 11
6.970369471
 21
10.5835134168
  0
LINE
  5
215
100
AcDbEntity
  8
0
100
AcDbLine
 62
7
  6
CONTINUOUS
 10
7.0000679558
 20
10.6132119016
 11
7.0183132443
 21
10.6314571902
  0
LINE
  5
216
100
AcDbEntity
  8
0
100
AcDbLine
 62
7
  6
CONTINUOUS
 10
6.7819568921
 20
10.3207918692
 11
6.756501048
 21
10.2953360251
  0
LINE
  5
217
100
AcDbEntity
  8
0
100
AcDbLine
 62
7
  6
CONTINUOUS
 10
6.7682076422
 20
10.2822152173
 11
6.7950776999
 21
10.309085275
  0
LINE
  5
218
100
AcDbEntity
  8
0
100
AcDbLine
 62
7
  6
CONTINUOUS
 10
6.360638416
 20
9.6430157763
 11
6.3432367016
 21
9.54432575
  0
LINE
  5
219
100
AcDbEntity
  8
0
100
AcDbLine
 62
7
  6
CONTINUOUS
 10
6.7812891177
 20
10.1807453942
 11
6.8329079127
 21
10.2323641893
  0
LINE
  5
21A
100
AcDbEntity
  8
0
100
AcDbLine
 62
7
  6
CONTINUOUS
 10
6.844928728
 20
10.2443850045
 11
6.896547523
 21
10.2960037996
  0
LINE
  5
21B
100
AcDbEntity
  8
0
100
AcDbLine
 62
7
  6
CONTINUOUS
 10
7.0662531505
 20
10.465709427
 11
7.1178719455
 21
10.5173282221
  0
LINE
  5
21C
100
AcDbEntity
  8
0
100
AcDbLine
 62
7
  6
CONTINUOUS
 10
7.4564982606
 20
11.213449759
 11
7.473899975
 21
11.3121397853
  0
LINE
  5
21D
100
AcDbEntity
  8
0
100
AcDbLine
 62
7
  6
CONTINUOUS
 10
7.6666284061
 20
10.4282313203
 11
7.4513781057
 21
10.0554068636
  0
LINE
  5
21E
100
AcDbEntity
  8
0
100
AcDbLine
 62
7
  6
CONTINUOUS
 10
7.3313192243
 20
9.8474587812
 11
7.2875995415
 21
9.7717340693
  0
LINE
  5
21F
100
AcDbEntity
  8
0
100
AcDbLine
 62
9
  6
CONTINUOUS
 10
7.4161606601
 20
10.1846429063
 11
7.40274212
 21
10.1712243661
  0
LINE
  5
220
100
AcDbEntity
  8
0
100
AcDbLine
 62
9
  6
CONTINUOUS
 10
7.1664720052
 20
9.9349542514
 11
7.1521581997
 21
9.9206404458
  0
LINE
  5
221
100
AcDbEntity
  8
0
100
AcDbLine
 62
9
  6
CONTINUOUS
 10
7.4047589893
 20
9.6620442913
 11
7.6747568147
 21
9.9320421166
  0
LINE
  5
222
100
AcDbEntity
  8
0
100
AcDbLine
 62
7
  6
CONTINUOUS
 10
7.4236335083
 20
9.6457569942
 11
7.6910441117
 21
9.9131675976
  0
LINE
  5
223
100
AcDbEntity
  8
0
100
AcDbLine
 62
7
  6
CONTINUOUS
 10
7.0475252284
 20
10.6435571902
 11
7.0475252284
 21
10.6555571902
  0
LINE
  5
224
100
AcDbEntity
  8
0
100
AcDbLine
 62
9
  6
CONTINUOUS
 10
7.6937853296
 20
9.8803028453
 11
7.4564982606
 21
9.6430157763
  0
LINE
  5
225
100
AcDbEntity
  8
0
100
AcDbLine
 62
9
  6
CONTINUOUS
 10
7.473899975
 20
9.54432575
 11
7.7924753559
 21
9.862901131
  0
LINE
  5
226
100
AcDbEntity
  8
0
100
AcDbLine
 62
7
  6
CONTINUOUS
 10
6.360638416
 20
11.213449759
 11
6.3432367016
 21
11.3121397853
  0
LINE
  5
227
100
AcDbEntity
  8
0
100
AcDbLine
 62
7
  6
CONTINUOUS
 10
7.4564982606
 20
9.6430157763
 11
7.473899975
 21
9.54432575
  0
LINE
  5
228
100
AcDbEntity
  8
0
100
AcDbLine
 62
7
  6
CONTINUOUS
 10
6.5295371352
 20
9.7717340691
 11
6.4857377344
 21
9.8475968565
  0
LINE
  5
229
100
AcDbEntity
  8
0
100
AcDbLine
 62
7
  6
CONTINUOUS
 10
6.3657505862
 20
10.0554206936
 11
6.1505080864
 21
10.428231639
  0
LINE
  5
22A
100
AcDbEntity
  8
0
100
AcDbLine
 62
7
  6
CONTINUOUS
 10
6.91917494
 20
10.5576333086
 11
6.9280241824
 21
10.5360561441
  0
LINE
  5
22B
100
AcDbEntity
  8
0
100
AcDbLine
 62
7
  6
CONTINUOUS
 10
14.710259512
 20
10.4512327676
 11
14.7275683383
 21
10.456172862
  0
LINE
  5
22C
100
AcDbEntity
  8
0
100
AcDbLine
 62
9
  6
CONTINUOUS
 10
6.0246613207
 20
9.862901131
 11
6.3432367016
 21
9.54432575
  0
LINE
  5
22D
100
AcDbEntity
  8
0
100
AcDbLine
 62
9
  6
CONTINUOUS
 10
6.360638416
 20
9.6430157763
 11
6.1233513469
 21
9.8803028453
  0
LINE
  5
22E
100
AcDbEntity
  8
0
100
AcDbLine
 62
7
  6
CONTINUOUS
 10
6.1260904162
 20
9.9131697463
 11
6.3935053169
 21
9.6457548455
  0
LINE
  5
22F
100
AcDbEntity
  8
0
100
AcDbLine
 62
9
  6
CONTINUOUS
 10
6.1423798619
 20
9.9320421166
 11
6.4123776873
 21
9.6620442913
  0
LINE
  5
230
100
AcDbEntity
  8
0
100
AcDbLine
 62
9
  6
CONTINUOUS
 10
6.6649784769
 20
9.9206404458
 11
6.6506478748
 21
9.934971048
  0
LINE
  5
231
100
AcDbEntity
  8
0
100
AcDbLine
 62
9
  6
CONTINUOUS
 10
6.4154010736
 20
10.1702178492
 11
6.4009760165
 21
10.1846429063
  0
LINE
  5
232
100
AcDbEntity
  8
0
100
AcDbLine
 62
7
  6
CONTINUOUS
 10
7.2875994697
 20
11.0847315904
 11
7.3313989421
 21
11.0088686788
  0
LINE
  5
233
100
AcDbEntity
  8
0
100
AcDbLine
 62
7
  6
CONTINUOUS
 10
7.4513860904
 20
10.8010448417
 11
7.6666284061
 21
10.428234215
  0
LINE
  5
234
100
AcDbEntity
  8
0
100
AcDbLine
 62
7
  6
CONTINUOUS
 10
6.6617880716
 20
10.3002464403
 11
6.6745159937
 21
10.2875185182
  0
LINE
  5
235
100
AcDbEntity
  8
0
100
AcDbLine
 62
7
  6
CONTINUOUS
 10
6.7643185549
 20
10.197715957
 11
6.7812891177
 21
10.1807453942
  0
LINE
  5
236
100
AcDbEntity
  8
0
100
AcDbLine
 62
7
  6
CONTINUOUS
 10
6.7023038945
 20
10.2830651411
 11
6.7598651779
 21
10.2255038578
  0
LINE
  5
237
100
AcDbEntity
  8
0
100
AcDbLine
 62
7
  6
CONTINUOUS
 10
6.7881494491
 20
10.2537881291
 11
6.7682076422
 21
10.273729936
  0
LINE
  5
238
100
AcDbEntity
  8
0
100
AcDbLine
 62
7
  6
CONTINUOUS
 10
6.7480157666
 20
10.2953360251
 11
6.7310452039
 21
10.3123065879
  0
LINE
  5
239
100
AcDbEntity
  8
0
100
AcDbLine
 62
7
  6
CONTINUOUS
 10
6.8329079127
 20
10.2323641893
 11
6.8159373499
 21
10.249334752
  0
LINE
  5
23A
100
AcDbEntity
  8
0
100
AcDbLine
 62
7
  6
CONTINUOUS
 10
6.7261347887
 20
10.3391373132
 11
6.7134068667
 21
10.3518652353
  0
LINE
  5
23B
100
AcDbEntity
  8
0
100
AcDbLine
 62
7
  6
CONTINUOUS
 10
6.725427682
 20
10.3638860506
 11
6.738155604
 21
10.3511581285
  0
LINE
  5
23C
100
AcDbEntity
  8
0
100
AcDbLine
 62
7
  6
CONTINUOUS
 10
6.8279581652
 20
10.2613555673
 11
6.844928728
 21
10.2443850045
  0
LINE
  5
23D
100
AcDbEntity
  8
0
100
AcDbLine
 62
7
  6
CONTINUOUS
 10
6.7649863294
 20
10.3462477134
 11
6.7819568921
 21
10.3292771506
  0
LINE
  5
23E
100
AcDbEntity
  8
0
100
AcDbLine
 62
7
  6
CONTINUOUS
 10
6.8035629813
 20
10.309085275
 11
6.8235047882
 21
10.2891434681
  0
LINE
  5
23F
100
AcDbEntity
  8
0
100
AcDbLine
 62
7
  6
CONTINUOUS
 10
6.8517890594
 20
10.3174277394
 11
6.7942277761
 21
10.3749890227
  0
LINE
  5
240
100
AcDbEntity
  8
0
100
AcDbLine
 62
7
  6
CONTINUOUS
 10
6.896547523
 20
10.2960037996
 11
6.8795769603
 21
10.3129743623
  0
LINE
  5
241
100
AcDbEntity
  8
0
100
AcDbLine
 62
7
  6
CONTINUOUS
 10
6.789774399
 20
10.4027769235
 11
6.777046477
 21
10.4155048456
  0
LINE
  5
242
100
AcDbEntity
  8
0
100
AcDbLine
 62
7
  6
CONTINUOUS
 10
10.5015683383
 20
9.6693833046
 11
10.5015683383
 21
9.2737426868
  0
LINE
  5
243
100
AcDbEntity
  8
0
100
AcDbLine
 62
7
  6
CONTINUOUS
 10
10.5960683383
 20
9.1487426868
 11
10.5960683383
 21
3.5452769671
  0
LINE
  5
244
100
AcDbEntity
  8
0
100
AcDbLine
 62
7
  6
CONTINUOUS
 10
10.6275683383
 20
11.6117426868
 11
10.6275683383
 21
11.5757426868
  0
LINE
  5
245
100
AcDbEntity
  8
0
100
AcDbLine
 62
7
  6
CONTINUOUS
 10
13.9658911153
 20
10.260445472
 11
13.8838018583
 21
10.2029659555
  0
LINE
  5
246
100
AcDbEntity
  8
0
100
AcDbLine
 62
9
  6
CONTINUOUS
 10
10.5960683383
 20
7.0387426868
 11
11.2210683383
 21
7.0387426868
  0
LINE
  5
247
100
AcDbEntity
  8
0
100
AcDbLine
 62
7
  6
CONTINUOUS
 10
7.0492825877
 20
10.4826799898
 11
7.0662531505
 21
10.465709427
  0
LINE
  5
248
100
AcDbEntity
  8
0
100
AcDbLine
 62
7
  6
CONTINUOUS
 10
6.9746121116
 20
10.5835134168
 11
7.0401182771
 21
10.5180072514
  0
LINE
  5
249
100
AcDbEntity
  8
0
100
AcDbLine
 62
7
  6
CONTINUOUS
 10
7.0655741212
 20
10.5434630955
 11
7.0000679558
 21
10.6089692609
  0
LINE
  5
24A
100
AcDbEntity
  8
0
100
AcDbLine
 62
7
  6
CONTINUOUS
 10
7.1178719455
 20
10.5173282221
 11
7.1009013828
 21
10.5342987848
  0
LINE
  5
24B
100
AcDbEntity
  8
0
100
AcDbLine
 62
7
  6
CONTINUOUS
 10
10.7060683383
 20
11.2627426868
 11
10.7060683383
 21
11.1087426868
  0
LINE
  5
24C
100
AcDbEntity
  8
0
100
AcDbLine
 62
7
  6
CONTINUOUS
 10
10.7300683383
 20
11.5157426868
 11
10.7300683383
 21
11.4847426868
  0
LINE
  5
24D
100
AcDbEntity
  8
0
100
AcDbLine
 62
7
  6
CONTINUOUS
 10
10.8714096012
 20
3.2342839534
 11
10.8714096018
 21
3.2369062344
  0
LINE
  5
24E
100
AcDbEntity
  8
0
100
AcDbLine
 62
7
  6
CONTINUOUS
 10
11.0870683383
 20
11.5157426868
 11
11.0870683383
 21
11.4847426868
  0
LINE
  5
24F
100
AcDbEntity
  8
0
100
AcDbLine
 62
9
  6
CONTINUOUS
 10
7.1521581997
 20
10.9358250895
 11
7.1664888261
 21
10.921494463
  0
LINE
  5
250
100
AcDbEntity
  8
0
100
AcDbLine
 62
9
  6
CONTINUOUS
 10
7.4017355695
 20
10.6862477197
 11
7.4161606601
 21
10.671822629
  0
LINE
  5
251
100
AcDbEntity
  8
0
100
AcDbLine
 62
9
  6
CONTINUOUS
 10
7.6747568147
 20
10.9244234187
 11
7.4047589893
 21
11.194421244
  0
LINE
  5
252
100
AcDbEntity
  8
0
100
AcDbLine
 62
7
  6
CONTINUOUS
 10
11.1110683383
 20
11.2627426868
 11
11.1110683383
 21
11.1087426868
  0
LINE
  5
253
100
AcDbEntity
  8
0
100
AcDbLine
 62
7
  6
CONTINUOUS
 10
11.1895683383
 20
11.6117426868
 11
11.1895683383
 21
11.5757426868
  0
LINE
  5
254
100
AcDbEntity
  8
0
100
AcDbLine
 62
7
  6
CONTINUOUS
 10
11.2210683383
 20
9.1487426868
 11
11.2210683383
 21
3.5436656975
  0
LINE
  5
255
100
AcDbEntity
  8
0
100
AcDbLine
 62
7
  6
CONTINUOUS
 10
11.3155683383
 20
9.6693833046
 11
11.3155683383
 21
9.2737426868
  0
LINE
  5
256
100
AcDbEntity
  8
0
100
AcDbLine
 62
7
  6
CONTINUOUS
 10
15.8512455613
 20
10.5960200633
 11
15.9333348183
 21
10.6534995798
  0
LINE
  5
257
100
AcDbEntity
  8
0
100
AcDbLine
 62
7
  6
CONTINUOUS
 10
7.6910462604
 20
10.943295789
 11
7.4236313597
 21
11.2107106898
  0
LINE
  5
258
100
AcDbEntity
  8
0
100
AcDbLine
 62
9
  6
CONTINUOUS
 10
7.4564982606
 20
11.213449759
 11
7.6937853296
 21
10.97616269
  0
LINE
  5
259
100
AcDbEntity
  8
0
100
AcDbLine
 62
9
  6
CONTINUOUS
 10
7.7924753559
 20
10.9935644043
 11
7.473899975
 21
11.3121397853
  0
LINE
  5
25A
100
AcDbEntity
  8
0
100
AcDbLine
 62
7
  6
CONTINUOUS
 10
14.2156639968
 20
10.5410872435
 11
14.5295371351
 21
11.084731466
  0
LINE
  5
25B
100
AcDbEntity
  8
0
100
AcDbLine
 62
7
  6
CONTINUOUS
 10
15.0763556339
 20
11.3709099906
 11
15.1338351505
 21
11.4529992477
  0
LINE
  5
25C
100
AcDbEntity
  8
0
100
AcDbLine
 62
7
  6
CONTINUOUS
 10
7.0475252284
 20
10.6555571902
 11
7.025948064
 21
10.6644064326
  0
LINE
  5
25D
100
AcDbEntity
  8
0
100
AcDbLine
 62
7
  6
CONTINUOUS
 10
14.7407810427
 20
9.4855555447
 11
14.6833015261
 21
9.4034662876
  0
LINE
  5
25E
100
AcDbEntity
  8
0
100
AcDbLine
 62
7
  6
CONTINUOUS
 10
11.3155683383
 20
9.1487426868
 11
10.5015683383
 21
9.1487426868
  0
LINE
  5
25F
100
AcDbEntity
  8
0
100
AcDbLine
 62
7
  6
CONTINUOUS
 10
11.3155683383
 20
9.2737426868
 11
10.5015683383
 21
9.2737426868
  0
LINE
  5
260
100
AcDbEntity
  8
0
100
AcDbLine
 62
7
  6
CONTINUOUS
 10
7.6937853296
 20
9.8803028453
 11
7.7924753559
 21
9.862901131
  0
LINE
  5
261
100
AcDbEntity
  8
0
100
AcDbLine
 62
7
  6
CONTINUOUS
 10
15.069013275
 20
10.4024106911
 11
15.0557335282
 21
10.3804696419
  0
LINE
  5
262
100
AcDbEntity
  8
0
100
AcDbLine
 62
9
  6
CONTINUOUS
 10
14.6833015261
 20
9.4034662876
 11
15.1338351505
 21
9.4034662876
  0
LINE
  5
263
100
AcDbEntity
  8
0
100
AcDbLine
 62
9
  6
CONTINUOUS
 10
15.0763556339
 20
9.4855555447
 11
14.7407810427
 21
9.4855555447
  0
LINE
  5
264
100
AcDbEntity
  8
0
100
AcDbLine
 62
7
  6
CONTINUOUS
 10
14.7194804872
 20
9.5107327676
 11
15.0976561893
 21
9.5107327676
  0
LINE
  5
265
100
AcDbEntity
  8
0
100
AcDbLine
 62
9
  6
CONTINUOUS
 10
14.717651045
 20
9.5355959262
 11
15.0994856315
 21
9.5355959262
  0
LINE
  5
266
100
AcDbEntity
  8
0
100
AcDbLine
 62
9
  6
CONTINUOUS
 10
11.3155683383
 20
9.6693833046
 11
10.5015683383
 21
9.6693833046
  0
LINE
  5
267
100
AcDbEntity
  8
0
100
AcDbLine
 62
9
  6
CONTINUOUS
 10
10.5300683383
 20
9.7220971548
 11
11.2870683383
 21
9.7220971548
  0
LINE
  5
268
100
AcDbEntity
  8
0
100
AcDbLine
 62
7
  6
CONTINUOUS
 10
15.2875976902
 20
9.7717327676
 11
15.0266398271
 21
9.7717327676
  0
LINE
  5
269
100
AcDbEntity
  8
0
100
AcDbLine
 62
7
  6
CONTINUOUS
 10
14.7904968495
 20
9.7717327676
 11
14.5295389866
 21
9.7717327676
  0
LINE
  5
26A
100
AcDbEntity
  8
0
100
AcDbLine
 62
7
  6
CONTINUOUS
 10
7.2875976902
 20
9.7717327676
 11
6.5295389866
 21
9.7717327676
  0
LINE
  5
26B
100
AcDbEntity
  8
0
100
AcDbLine
 62
9
  6
CONTINUOUS
 10
11.2879084392
 20
9.8280652196
 11
10.5292281952
 21
9.8280652445
  0
LINE
  5
26C
100
AcDbEntity
  8
0
100
AcDbLine
 62
7
  6
CONTINUOUS
 10
15.6014726797
 20
10.3153782918
 11
15.2875995415
 21
9.7717340693
  0
LINE
  5
26D
100
AcDbEntity
  8
0
100
AcDbLine
 62
9
  6
CONTINUOUS
 10
15.0952462683
 20
9.897066752
 11
15.0762695869
 21
9.897066752
  0
LINE
  5
26E
100
AcDbEntity
  8
0
100
AcDbLine
 62
9
  6
CONTINUOUS
 10
14.7421331862
 20
9.897066752
 11
14.7218904083
 21
9.897066752
  0
LINE
  5
26F
100
AcDbEntity
  8
0
100
AcDbLine
 62
7
  6
CONTINUOUS
 10
6.1233513469
 20
10.97616269
 11
6.0246613207
 21
10.9935644043
  0
LINE
  5
270
100
AcDbEntity
  8
0
100
AcDbLine
 62
9
  6
CONTINUOUS
 10
13.8838018583
 20
10.6534995798
 11
13.8838018583
 21
10.2029659555
  0
LINE
  5
271
100
AcDbEntity
  8
0
100
AcDbLine
 62
9
  6
CONTINUOUS
 10
13.9658911153
 20
10.260445472
 11
13.9658911153
 21
10.5960200633
  0
LINE
  5
272
100
AcDbEntity
  8
0
100
AcDbLine
 62
7
  6
CONTINUOUS
 10
13.9910683383
 20
10.6173236573
 11
13.9910683383
 21
10.2391418779
  0
LINE
  5
273
100
AcDbEntity
  8
0
100
AcDbLine
 62
9
  6
CONTINUOUS
 10
14.0159314969
 20
10.6191500609
 11
14.0159314969
 21
10.2373154744
  0
LINE
  5
274
100
AcDbEntity
  8
0
100
AcDbLine
 62
7
  6
CONTINUOUS
 10
6.1233513469
 20
9.8803028453
 11
6.0246613207
 21
9.862901131
  0
LINE
  5
275
100
AcDbEntity
  8
0
100
AcDbLine
 62
7
  6
CONTINUOUS
 10
14.9185683383
 20
10.3432327676
 11
15.0680466813
 21
10.3432327676
  0
LINE
  5
276
100
AcDbEntity
  8
0
100
AcDbLine
 62
7
  6
CONTINUOUS
 10
15.0985683383
 20
10.3432327676
 11
15.1830683383
 21
10.3432327676
  0
LINE
  5
277
100
AcDbEntity
  8
0
100
AcDbLine
 62
7
  6
CONTINUOUS
 10
15.0300683383
 20
10.3660034124
 11
15.0060683383
 21
10.3660034124
  0
LINE
  5
278
100
AcDbEntity
  8
0
100
AcDbLine
 62
7
  6
CONTINUOUS
 10
15.1787131264
 20
10.3672327676
 11
15.1508502186
 21
10.3672327676
  0
LINE
  5
279
100
AcDbEntity
  8
0
100
AcDbLine
 62
7
  6
CONTINUOUS
 10
15.1508502186
 20
10.4942327676
 11
15.1787131264
 21
10.4942327676
  0
LINE
  5
27A
100
AcDbEntity
  8
0
100
AcDbLine
 62
7
  6
CONTINUOUS
 10
15.1830683383
 20
10.5122327676
 11
15.0985683383
 21
10.5122327676
  0
LINE
  5
27B
100
AcDbEntity
  8
0
100
AcDbLine
 62
7
  6
CONTINUOUS
 10
14.9975683383
 20
10.5122327676
 11
14.9185683383
 21
10.5122327676
  0
LINE
  5
27C
100
AcDbEntity
  8
0
100
AcDbLine
 62
7
  6
CONTINUOUS
 10
14.7115683383
 20
10.5122327676
 11
14.6935683383
 21
10.5122327676
  0
LINE
  5
27D
100
AcDbEntity
  8
0
100
AcDbLine
 62
7
  6
CONTINUOUS
 10
6.9280241824
 20
10.5360561441
 11
6.9400241824
 21
10.5360561441
  0
LINE
  5
27E
100
AcDbEntity
  8
0
100
AcDbLine
 62
9
  6
CONTINUOUS
 10
14.3774023227
 20
10.2415548376
 11
14.3774023227
 21
10.2618213695
  0
LINE
  5
27F
100
AcDbEntity
  8
0
100
AcDbLine
 62
9
  6
CONTINUOUS
 10
14.3774023227
 20
10.5945105863
 11
14.3774023227
 21
10.6149106977
  0
LINE
  5
280
100
AcDbEntity
  8
0
100
AcDbLine
 62
7
  6
CONTINUOUS
 10
15.0680466813
 20
10.3432327676
 11
15.0775683383
 21
10.3972327676
  0
LINE
  5
281
100
AcDbEntity
  8
0
100
AcDbLine
 62
9
  6
CONTINUOUS
 10
14.7218904083
 20
10.9593987833
 11
14.7408671053
 21
10.9593987833
  0
LINE
  5
282
100
AcDbEntity
  8
0
100
AcDbLine
 62
9
  6
CONTINUOUS
 10
15.075003518
 20
10.9593987833
 11
15.0952462683
 21
10.9593987833
  0
LINE
  5
283
100
AcDbEntity
  8
0
100
AcDbLine
 62
7
  6
CONTINUOUS
 10
6.5295389864
 20
11.0847327676
 11
7.2875974303
 21
11.0847327676
  0
LINE
  5
284
100
AcDbEntity
  8
0
100
AcDbLine
 62
7
  6
CONTINUOUS
 10
14.5295389864
 20
11.0847327676
 11
14.7904968495
 21
11.0847327676
  0
LINE
  5
285
100
AcDbEntity
  8
0
100
AcDbLine
 62
7
  6
CONTINUOUS
 10
15.0266398271
 20
11.0847327676
 11
15.2875974303
 21
11.0847327676
  0
LINE
  5
286
100
AcDbEntity
  8
0
100
AcDbLine
 62
7
  6
CONTINUOUS
 10
10.7060683383
 20
11.1087426868
 11
11.1110683383
 21
11.1087426868
  0
LINE
  5
287
100
AcDbEntity
  8
0
100
AcDbLine
 62
7
  6
CONTINUOUS
 10
14.9185683383
 20
10.5122327676
 11
14.9185683383
 21
10.4942327676
  0
LINE
  5
288
100
AcDbEntity
  8
0
100
AcDbLine
 62
7
  6
CONTINUOUS
 10
14.9185683383
 20
10.3672327676
 11
14.9185683383
 21
10.3432327676
  0
LINE
  5
289
100
AcDbEntity
  8
0
100
AcDbLine
 62
7
  6
CONTINUOUS
 10
14.9400683383
 20
10.4654621229
 11
14.9400683383
 21
10.3960034124
  0
LINE
  5
28A
100
AcDbEntity
  8
0
100
AcDbLine
 62
7
  6
CONTINUOUS
 10
14.9760683383
 20
10.3960034124
 11
14.9760683383
 21
10.4654621229
  0
LINE
  5
28B
100
AcDbEntity
  8
0
100
AcDbLine
 62
7
  6
CONTINUOUS
 10
14.9975683383
 20
10.4942327676
 11
14.9975683383
 21
10.5122327676
  0
LINE
  5
28C
100
AcDbEntity
  8
0
100
AcDbLine
 62
7
  6
CONTINUOUS
 10
15.0985683383
 20
10.5122327676
 11
15.0985683383
 21
10.4942327676
  0
LINE
  5
28D
100
AcDbEntity
  8
0
100
AcDbLine
 62
7
  6
CONTINUOUS
 10
15.0985683383
 20
10.3672327676
 11
15.0985683383
 21
10.3432327676
  0
LINE
  5
28E
100
AcDbEntity
  8
0
100
AcDbLine
 62
7
  6
CONTINUOUS
 10
15.1085683383
 20
10.4781082522
 11
15.1085683383
 21
10.3833572831
  0
LINE
  5
28F
100
AcDbEntity
  8
0
100
AcDbLine
 62
7
  6
CONTINUOUS
 10
15.1448502186
 20
10.4882327676
 11
15.1448502186
 21
10.3732327676
  0
LINE
  5
290
100
AcDbEntity
  8
0
100
AcDbLine
 62
7
  6
CONTINUOUS
 10
7.6937853296
 20
10.97616269
 11
7.7924753559
 21
10.9935644043
  0
LINE
  5
291
100
AcDbEntity
  8
0
100
AcDbLine
 62
9
  6
CONTINUOUS
 10
11.1110683383
 20
11.2627426868
 11
10.7060683383
 21
11.2627426868
  0
LINE
  5
292
100
AcDbEntity
  8
0
100
AcDbLine
 62
9
  6
CONTINUOUS
 10
10.7264464685
 20
11.3009463487
 11
11.0906902081
 21
11.3009463487
  0
LINE
  5
293
100
AcDbEntity
  8
0
100
AcDbLine
 62
9
  6
CONTINUOUS
 10
14.717651045
 20
11.3208696091
 11
15.0994856315
 21
11.3208696091
  0
LINE
  5
294
100
AcDbEntity
  8
0
100
AcDbLine
 62
7
  6
CONTINUOUS
 10
15.0976561893
 20
11.3457327676
 11
14.7194804872
 21
11.3457327676
  0
LINE
  5
295
100
AcDbEntity
  8
0
100
AcDbLine
 62
9
  6
CONTINUOUS
 10
14.7407810427
 20
11.3709099906
 11
15.0763556339
 21
11.3709099906
  0
LINE
  5
296
100
AcDbEntity
  8
0
100
AcDbLine
 62
9
  6
CONTINUOUS
 10
15.1338351505
 20
11.4529992477
 11
14.6833015261
 21
11.4529992477
  0
LINE
  5
297
100
AcDbEntity
  8
0
100
AcDbLine
 62
9
  6
CONTINUOUS
 10
10.7369534065
 20
11.4696430654
 11
11.08018327
 21
11.4696430654
  0
LINE
  5
298
100
AcDbEntity
  8
0
100
AcDbLine
 62
9
  6
CONTINUOUS
 10
10.7300683383
 20
11.4847426868
 11
11.0870683383
 21
11.4847426868
  0
LINE
  5
299
100
AcDbEntity
  8
0
100
AcDbLine
 62
7
  6
CONTINUOUS
 10
10.6875683383
 20
11.5157426868
 11
11.1295683383
 21
11.5157426868
  0
LINE
  5
29A
100
AcDbEntity
  8
0
100
AcDbLine
 62
9
  6
CONTINUOUS
 10
10.6275683383
 20
11.5757426868
 11
11.1895683383
 21
11.5757426868
  0
LINE
  5
29B
100
AcDbEntity
  8
0
100
AcDbLine
 62
9
  6
CONTINUOUS
 10
11.1895683383
 20
11.6117426868
 11
10.6275683383
 21
11.6117426868
  0
LINE
  5
29C
100
AcDbEntity
  8
0
100
AcDbLine
 62
7
  6
CONTINUOUS
 10
11.1295683383
 20
11.6717426868
 11
10.6875683383
 21
11.6717426868
  0
LINE
  5
29D
100
AcDbEntity
  8
0
100
AcDbLine
 62
7
  6
CONTINUOUS
 10
14.7275683383
 20
10.3971550698
 11
14.7110182267
 21
10.4042327676
  0
LINE
  5
29E
100
AcDbEntity
  8
0
100
AcDbLine
 62
7
  6
CONTINUOUS
 10
14.5295371352
 20
9.7717340691
 11
14.2156639968
 21
10.3153782918
  0
LINE
  5
29F
100
AcDbEntity
  8
0
100
AcDbLine
 62
7
  6
CONTINUOUS
 10
15.2675683383
 20
10.4277327676
 11
15.267566859
 21
10.4282327676
  0
LINE
  5
2A0
100
AcDbEntity
  8
0
100
AcDbLine
 62
9
  6
CONTINUOUS
 10
15.4397343539
 20
10.6149106977
 11
15.4397343539
 21
10.5946441314
  0
LINE
  5
2A1
100
AcDbEntity
  8
0
100
AcDbLine
 62
9
  6
CONTINUOUS
 10
15.4397343539
 20
10.2619549964
 11
15.4397343539
 21
10.2415548376
  0
LINE
  5
2A2
100
AcDbEntity
  8
0
100
AcDbLine
 62
7
  6
CONTINUOUS
 10
11.0216117755
 20
11.7587426868
 11
10.795524901
 21
11.7587426868
  0
LINE
  5
2A3
100
AcDbEntity
  8
0
100
AcDbLine
 62
7
  6
CONTINUOUS
 10
15.0775683383
 20
10.3972327676
 11
15.069013275
 21
10.4024106911
  0
LINE
  5
2A4
100
AcDbEntity
  8
0
100
AcDbLine
 62
7
  6
CONTINUOUS
 10
13.9658911153
 20
10.5960200633
 11
13.8838018583
 21
10.6534995798
  0
LINE
  5
2A5
100
AcDbEntity
  8
0
100
AcDbLine
 62
7
  6
CONTINUOUS
 10
15.0763556339
 20
9.4855555447
 11
15.1338351505
 21
9.4034662876
  0
LINE
  5
2A6
100
AcDbEntity
  8
0
100
AcDbLine
 62
7
  6
CONTINUOUS
 10
14.7275683383
 20
10.456172862
 11
14.7115683383
 21
10.5122327676
  0
LINE
  5
2A7
100
AcDbEntity
  8
0
100
AcDbLine
 62
9
  6
CONTINUOUS
 10
15.8012051797
 20
10.2373154744
 11
15.8012051797
 21
10.6191500609
  0
LINE
  5
2A8
100
AcDbEntity
  8
0
100
AcDbLine
 62
7
  6
CONTINUOUS
 10
15.8260683383
 20
10.2391418779
 11
15.8260683383
 21
10.6173236573
  0
LINE
  5
2A9
100
AcDbEntity
  8
0
100
AcDbLine
 62
9
  6
CONTINUOUS
 10
15.8512455613
 20
10.5960200633
 11
15.8512455613
 21
10.260445472
  0
LINE
  5
2AA
100
AcDbEntity
  8
0
100
AcDbLine
 62
9
  6
CONTINUOUS
 10
15.9333348183
 20
10.2029659555
 11
15.9333348183
 21
10.6534995798
  0
LINE
  5
2AB
100
AcDbEntity
  8
0
100
AcDbLine
 62
7
  6
CONTINUOUS
 10
15.8512455613
 20
10.260445472
 11
15.9333348183
 21
10.2029659555
  0
LINE
  5
2AC
100
AcDbEntity
  8
0
100
AcDbLine
 62
7
  6
CONTINUOUS
 10
14.7407810427
 20
11.3709099906
 11
14.6833015261
 21
11.4529992477
  0
LINE
  5
2AD
100
AcDbEntity
  8
0
100
AcDbLine
 62
7
  6
CONTINUOUS
 10
15.2875994697
 20
11.0847315904
 11
15.6014726797
 21
10.5410872435
  0
ARC
  5
2AE
100
AcDbEntity
  8
0
100
AcDbCircle
 62
7
  6
CONTINUOUS
 10
10.9063805614
 20
3.538359561
 40
0.3128122118
100
AcDbArc
 50
174.256299811
 51
178.4872328913
  0
ARC
  5
2AF
100
AcDbEntity
  8
0
100
AcDbCircle
 62
7
  6
CONTINUOUS
 10
10.9066347789
 20
3.5384117605
 40
0.3115666997
100
AcDbArc
 50
180.5311693643
 51
188.5726690052
  0
ARC
  5
2B0
100
AcDbEntity
  8
0
100
AcDbCircle
 62
7
  6
CONTINUOUS
 10
10.9064869461
 20
3.5383428563
 40
0.3114191023
100
AcDbArc
 50
176.7668659261
 51
177.665805635
  0
ARC
  5
2B1
100
AcDbEntity
  8
0
100
AcDbCircle
 62
7
  6
CONTINUOUS
 10
10.9068767273
 20
3.5435339274
 40
0.3110626149
100
AcDbArc
 50
214.1126492842
 51
225.4571276866
  0
ARC
  5
2B2
100
AcDbEntity
  8
0
100
AcDbCircle
 62
7
  6
CONTINUOUS
 10
10.9061236032
 20
3.5383576504
 40
0.3110554584
100
AcDbArc
 50
177.6658026059
 51
178.4999717063
  0
ARC
  5
2B3
100
AcDbEntity
  8
0
100
AcDbCircle
 62
7
  6
CONTINUOUS
 10
10.9056329283
 20
3.5383700073
 40
0.310564626
100
AcDbArc
 50
178.7173876136
 51
179.2063453031
  0
ARC
  5
2B4
100
AcDbEntity
  8
0
100
AcDbCircle
 62
7
  6
CONTINUOUS
 10
10.905232756
 20
3.5383751528
 40
0.31016442
100
AcDbArc
 50
179.3110093161
 51
179.7995767204
  0
ARC
  5
2B5
100
AcDbEntity
  8
0
100
AcDbCircle
 62
7
  6
CONTINUOUS
 10
10.9051190564
 20
3.5383767412
 40
0.3100507184
100
AcDbArc
 50
180.0516242031
 51
180.5272949039
  0
ARC
  5
2B6
100
AcDbEntity
  8
0
100
AcDbCircle
 62
7
  6
CONTINUOUS
 10
10.9058983299
 20
3.5395987159
 40
0.3098588612
100
AcDbArc
 50
193.2368763814
 51
203.5869016605
  0
ARC
  5
2B7
100
AcDbEntity
  8
0
100
AcDbCircle
 62
7
  6
CONTINUOUS
 10
10.9057022146
 20
3.5394501477
 40
0.309635437
100
AcDbArc
 50
182.5236820992
 51
188.3397764331
  0
ARC
  5
2B8
100
AcDbEntity
  8
0
100
AcDbCircle
 62
7
  6
CONTINUOUS
 10
10.9056262383
 20
3.5394382662
 40
0.3095585408
100
AcDbArc
 50
188.3396402077
 51
189.1967716448
  0
ARC
  5
2B9
100
AcDbEntity
  8
0
100
AcDbCircle
 62
7
  6
CONTINUOUS
 10
10.9054445558
 20
3.5426372616
 40
0.309375241
100
AcDbArc
 50
180.3407154155
 51
180.703558034
  0
ARC
  5
2BA
100
AcDbEntity
  8
0
100
AcDbCircle
 62
7
  6
CONTINUOUS
 10
10.9054448849
 20
3.5425151246
 40
0.3093057762
100
AcDbArc
 50
213.3019483604
 51
214.1051478733
  0
ARC
  5
2BB
100
AcDbEntity
  8
0
100
AcDbCircle
 62
7
  6
CONTINUOUS
 10
10.905363028
 20
3.5426367717
 40
0.3092937117
100
AcDbArc
 50
180.0039923336
 51
180.3407144907
  0
ARC
  5
2BC
100
AcDbEntity
  8
0
100
AcDbCircle
 62
7
  6
CONTINUOUS
 10
10.9053409117
 20
3.5393914056
 40
0.3092693924
100
AcDbArc
 50
189.1966501629
 51
190.7965258452
  0
ARC
  5
2BD
100
AcDbEntity
  8
0
100
AcDbCircle
 62
7
  6
CONTINUOUS
 10
10.9052524844
 20
3.5426368158
 40
0.3091831681
100
AcDbArc
 50
179.511326215
 51
180.0040019293
  0
ARC
  5
2BE
100
AcDbEntity
  8
0
100
AcDbCircle
 62
7
  6
CONTINUOUS
 10
10.904731568
 20
3.5393966749
 40
0.3086633774
100
AcDbArc
 50
181.3010861077
 51
182.5216994078
  0
ARC
  5
2BF
100
AcDbEntity
  8
0
100
AcDbCircle
 62
7
  6
CONTINUOUS
 10
10.9046854222
 20
3.5392654823
 40
0.3086019178
100
AcDbArc
 50
190.7963574859
 51
192.7933280405
  0
ARC
  5
2C0
100
AcDbEntity
  8
0
100
AcDbCircle
 62
7
  6
CONTINUOUS
 10
10.9042933419
 20
3.5393859403
 40
0.3082250206
100
AcDbArc
 50
180.698142253
 51
181.300940875
  0
ARC
  5
2C1
100
AcDbEntity
  8
0
100
AcDbCircle
 62
7
  6
CONTINUOUS
 10
10.9041734633
 20
3.5391525139
 40
0.3080776537
100
AcDbArc
 50
193.0185339854
 51
193.2295503844
  0
ARC
  5
2C2
100
AcDbEntity
  8
0
100
AcDbCircle
 62
7
  6
CONTINUOUS
 10
10.9041385263
 20
3.539144358
 40
0.3080417774
100
AcDbArc
 50
192.7938831405
 51
193.0185198262
  0
ARC
  5
2C3
100
AcDbEntity
  8
0
100
AcDbCircle
 62
7
  6
CONTINUOUS
 10
10.9040877985
 20
3.5393807883
 40
0.3080194536
100
AcDbArc
 50
179.5100803756
 51
179.7498755143
  0
ARC
  5
2C4
100
AcDbEntity
  8
0
100
AcDbCircle
 62
7
  6
CONTINUOUS
 10
10.9040034233
 20
3.5393822999
 40
0.3079350792
100
AcDbArc
 50
180.2262384371
 51
180.6981222351
  0
ARC
  5
2C5
100
AcDbEntity
  8
0
100
AcDbCircle
 62
7
  6
CONTINUOUS
 10
10.9039468326
 20
3.5393813996
 40
0.3078784864
100
AcDbArc
 50
179.7498747516
 51
179.9988847699
  0
ARC
  5
2C6
100
AcDbEntity
  8
0
100
AcDbCircle
 62
7
  6
CONTINUOUS
 10
10.9038372258
 20
3.539381454
 40
0.3077688796
100
AcDbArc
 50
179.9988945043
 51
180.2262031279
  0
ARC
  5
2C7
100
AcDbEntity
  8
0
100
AcDbCircle
 62
7
  6
CONTINUOUS
 10
10.906398654
 20
3.5466411273
 40
0.3128300617
100
AcDbArc
 50
174.074844027
 51
179.9972568289
  0
ARC
  5
2C8
100
AcDbEntity
  8
0
100
AcDbCircle
 62
7
  6
CONTINUOUS
 10
10.9078943199
 20
3.5470093371
 40
0.3122420093
100
AcDbArc
 50
263.0011444232
 51
263.2897995226
  0
ARC
  5
2C9
100
AcDbEntity
  8
0
100
AcDbCircle
 62
9
  6
CONTINUOUS
 10
10.9066096971
 20
3.5460692458
 40
0.310540172
100
AcDbArc
 50
180.0043070375
 51
180.7386330594
  0
ARC
  5
2CA
100
AcDbEntity
  8
0
100
AcDbCircle
 62
7
  6
CONTINUOUS
 10
10.9055120895
 20
3.5452999541
 40
0.3094426084
100
AcDbArc
 50
180.0044877852
 51
180.5992254165
  0
ARC
  5
2CB
100
AcDbEntity
  8
0
100
AcDbCircle
 62
7
  6
CONTINUOUS
 10
10.9106647503
 20
3.5383547702
 40
0.3129036199
100
AcDbArc
 50
1.5136925677
 51
5.9249660314
  0
ARC
  5
2CC
100
AcDbEntity
  8
0
100
AcDbCircle
 62
7
  6
CONTINUOUS
 10
10.9105509021
 20
3.5384069973
 40
0.3115175446
100
AcDbArc
 50
351.539398697
 51
356.2124047226
  0
ARC
  5
2CD
100
AcDbEntity
  8
0
100
AcDbCircle
 62
7
  6
CONTINUOUS
 10
10.9096119156
 20
3.5435158809
 40
0.3113555803
100
AcDbArc
 50
320.230854811
 51
322.0316986938
  0
ARC
  5
2CE
100
AcDbEntity
  8
0
100
AcDbCircle
 62
7
  6
CONTINUOUS
 10
10.9097986396
 20
3.5410182684
 40
0.3112696943
100
AcDbArc
 50
334.8706303374
 51
359.9969217044
  0
ARC
  5
2CF
100
AcDbEntity
  8
0
100
AcDbCircle
 62
7
  6
CONTINUOUS
 10
10.9108886387
 20
3.5383952177
 40
0.3111797653
100
AcDbArc
 50
356.2502699281
 51
359.767925509
  0
ARC
  5
2D0
100
AcDbEntity
  8
0
100
AcDbCircle
 62
7
  6
CONTINUOUS
 10
10.9110130734
 20
3.5383576504
 40
0.3110554584
100
AcDbArc
 50
1.5000283109
 51
2.3341973941
  0
ARC
  5
2D1
100
AcDbEntity
  8
0
100
AcDbCircle
 62
7
  6
CONTINUOUS
 10
10.9114008638
 20
3.5383679689
 40
0.3106675304
100
AcDbArc
 50
0.9865782749
 51
1.4242298205
  0
ARC
  5
2D2
100
AcDbEntity
  8
0
100
AcDbCircle
 62
7
  6
CONTINUOUS
 10
10.9116966995
 20
3.5383730063
 40
0.3103716518
100
AcDbArc
 50
0.4970769271
 51
0.9865888269
  0
ARC
  5
2D3
100
AcDbEntity
  8
0
100
AcDbCircle
 62
7
  6
CONTINUOUS
 10
10.9110707576
 20
3.5436606079
 40
0.3099975738
100
AcDbArc
 50
359.5143543739
 51
0.0007971284
  0
ARC
  5
2D4
100
AcDbEntity
  8
0
100
AcDbCircle
 62
7
  6
CONTINUOUS
 10
10.912087489
 20
3.5383761359
 40
0.3099808493
100
AcDbArc
 50
0.0000320471
 51
0.392830201
  0
ARC
  5
2D5
100
AcDbEntity
  8
0
100
AcDbCircle
 62
7
  6
CONTINUOUS
 10
10.9112547504
 20
3.5410060463
 40
0.3098135832
100
AcDbArc
 50
359.9991675522
 51
0.2455108921
  0
ARC
  5
2D6
100
AcDbEntity
  8
0
100
AcDbCircle
 62
7
  6
CONTINUOUS
 10
10.908599565
 20
3.5494618827
 40
0.3166071092
100
AcDbArc
 50
263.2597658455
 51
269.994348953
  0
ARC
  5
2D7
100
AcDbEntity
  8
0
100
AcDbCircle
 62
7
  6
CONTINUOUS
 10
10.9109454639
 20
3.546651284
 40
0.3126226201
100
AcDbArc
 50
0.0008835512
 51
5.7449981716
  0
ARC
  5
2D8
100
AcDbEntity
  8
0
100
AcDbCircle
 62
7
  6
CONTINUOUS
 10
10.9113973637
 20
3.5466581372
 40
0.3121707209
100
AcDbArc
 50
359.4182127275
 51
359.852883977
  0
ARC
  5
2D9
100
AcDbEntity
  8
0
100
AcDbCircle
 62
9
  6
CONTINUOUS
 10
10.9121220028
 20
3.5460461795
 40
0.3089463355
100
AcDbArc
 50
359.563595284
 51
359.9999694332
  0
ARC
  5
2DA
100
AcDbEntity
  8
0
100
AcDbCircle
 62
7
  6
CONTINUOUS
 10
6.0724145695
 20
9.5920789989
 40
0.275
100
AcDbArc
 50
100.0
 51
350.0
  0
ARC
  5
2DB
100
AcDbEntity
  8
0
100
AcDbCircle
 62
7
  6
CONTINUOUS
 10
6.6622293353
 20
9.6706555619
 40
0.25
100
AcDbArc
 50
89.3699304528
 51
181.9739483152
  0
ARC
  5
2DC
100
AcDbEntity
  8
0
100
AcDbCircle
 62
7
  6
CONTINUOUS
 10
6.6653193798
 20
9.9516385714
 40
0.031
100
AcDbArc
 50
269.369913247
 51
290.2869442006
  0
ARC
  5
2DD
100
AcDbEntity
  8
0
100
AcDbCircle
 62
7
  6
CONTINUOUS
 10
6.37639534
 20
9.6402374054
 40
0.016
100
AcDbArc
 50
45.0
 51
169.9999999998
  0
ARC
  5
2DE
100
AcDbEntity
  8
0
100
AcDbCircle
 62
7
  6
CONTINUOUS
 10
6.1205729761
 20
9.8960597694
 40
0.016
100
AcDbArc
 50
280.0000000002
 51
45.0
  0
ARC
  5
2DF
100
AcDbEntity
  8
0
100
AcDbCircle
 62
7
  6
CONTINUOUS
 10
6.1418287406
 20
9.9160516112
 40
0.016
100
AcDbArc
 50
88.0260516848
 51
190.3765489002
  0
ARC
  5
2E0
100
AcDbEntity
  8
0
100
AcDbCircle
 62
7
  6
CONTINUOUS
 10
6.3963871818
 20
9.6614931699
 40
0.016
100
AcDbArc
 50
259.6234510998
 51
1.9739483152
  0
ARC
  5
2E1
100
AcDbEntity
  8
0
100
AcDbCircle
 62
7
  6
CONTINUOUS
 10
6.1509911325
 20
10.1818937647
 40
0.25
100
AcDbArc
 50
268.0260516848
 51
0.6300695472
  0
ARC
  5
2E2
100
AcDbEntity
  8
0
100
AcDbCircle
 62
7
  6
CONTINUOUS
 10
6.431974142
 20
10.1849838091
 40
0.031
100
AcDbArc
 50
159.366699974
 51
180.630086753
  0
ARC
  5
2E3
100
AcDbEntity
  8
0
100
AcDbCircle
 62
7
  6
CONTINUOUS
 10
6.7428946151
 20
10.2085332951
 40
0.024
100
AcDbArc
 50
333.2099568643
 51
45.0
  0
ARC
  5
2E4
100
AcDbEntity
  8
0
100
AcDbCircle
 62
7
  6
CONTINUOUS
 10
6.8051200119
 20
10.2707586918
 40
0.024
100
AcDbArc
 50
225.0
 51
296.7900431357
  0
ARC
  5
2E5
100
AcDbEntity
  8
0
100
AcDbCircle
 62
7
  6
CONTINUOUS
 10
6.8065342254
 20
10.2721729054
 40
0.024
100
AcDbArc
 50
333.2099568643
 51
45.0
  0
ARC
  5
2E6
100
AcDbEntity
  8
0
100
AcDbCircle
 62
7
  6
CONTINUOUS
 10
6.8687596222
 20
10.3343983021
 40
0.024
100
AcDbArc
 50
225.0
 51
296.7900431357
  0
ARC
  5
2E7
100
AcDbEntity
  8
0
100
AcDbCircle
 62
7
  6
CONTINUOUS
 10
6.6853333318
 20
10.2660945784
 40
0.024
100
AcDbArc
 50
45.0
 51
116.7900431357
  0
ARC
  5
2E8
100
AcDbEntity
  8
0
100
AcDbCircle
 62
7
  6
CONTINUOUS
 10
6.8111983388
 20
10.3919595854
 40
0.024
100
AcDbArc
 50
153.2099568643
 51
225.0
  0
ARC
  5
2E9
100
AcDbEntity
  8
0
100
AcDbCircle
 62
7
  6
CONTINUOUS
 10
6.7480157666
 20
10.3292771506
 40
0.024
100
AcDbArc
 50
45.0
 51
114.2576200455
  0
ARC
  5
2EA
100
AcDbEntity
  8
0
100
AcDbCircle
 62
7
  6
CONTINUOUS
 10
6.7480157666
 20
10.3292771506
 40
0.024
100
AcDbArc
 50
155.7423799545
 51
225.0
  0
ARC
  5
2EB
100
AcDbEntity
  8
0
100
AcDbCircle
 62
7
  6
CONTINUOUS
 10
6.7724502829
 20
10.2779725766
 40
0.006
100
AcDbArc
 50
135.0
 51
225.0
  0
ARC
  5
2EC
100
AcDbEntity
  8
0
100
AcDbCircle
 62
7
  6
CONTINUOUS
 10
6.7993203406
 20
10.3048426343
 40
0.006
100
AcDbArc
 50
45.0
 51
135.0
  0
ARC
  5
2ED
100
AcDbEntity
  8
0
100
AcDbCircle
 62
7
  6
CONTINUOUS
 10
6.7777142514
 20
10.3250345099
 40
0.006
100
AcDbArc
 50
315.0
 51
45.0
  0
ARC
  5
2EE
100
AcDbEntity
  8
0
100
AcDbCircle
 62
7
  6
CONTINUOUS
 10
6.7522584073
 20
10.2995786658
 40
0.006
100
AcDbArc
 50
225.0
 51
315.0
  0
ARC
  5
2EF
100
AcDbEntity
  8
0
100
AcDbCircle
 62
7
  6
CONTINUOUS
 10
7.744722107
 20
9.5920789989
 40
0.275
100
AcDbArc
 50
190.0
 51
80.0
  0
ARC
  5
2F0
100
AcDbEntity
  8
0
100
AcDbCircle
 62
7
  6
CONTINUOUS
 10
7.1549073413
 20
9.6706555619
 40
0.25
100
AcDbArc
 50
358.0260516848
 51
90.6300695472
  0
ARC
  5
2F1
100
AcDbEntity
  8
0
100
AcDbCircle
 62
7
  6
CONTINUOUS
 10
7.1518172968
 20
9.9516385714
 40
0.031
100
AcDbArc
 50
250.2040808207
 51
270.6300714454
  0
ARC
  5
2F2
100
AcDbEntity
  8
0
100
AcDbCircle
 62
7
  6
CONTINUOUS
 10
7.4407413366
 20
9.6402374054
 40
0.016
100
AcDbArc
 50
10.0000000002
 51
135.0
  0
ARC
  5
2F3
100
AcDbEntity
  8
0
100
AcDbCircle
 62
7
  6
CONTINUOUS
 10
7.6965637005
 20
9.8960597694
 40
0.016
100
AcDbArc
 50
135.0
 51
259.9999999998
  0
ARC
  5
2F4
100
AcDbEntity
  8
0
100
AcDbCircle
 62
7
  6
CONTINUOUS
 10
7.675307936
 20
9.9160516112
 40
0.016
100
AcDbArc
 50
349.6234510999
 51
91.9739483152
  0
ARC
  5
2F5
100
AcDbEntity
  8
0
100
AcDbCircle
 62
7
  6
CONTINUOUS
 10
7.4207494948
 20
9.6614931699
 40
0.016
100
AcDbArc
 50
178.0260516848
 51
280.3765489001
  0
ARC
  5
2F6
100
AcDbEntity
  8
0
100
AcDbCircle
 62
7
  6
CONTINUOUS
 10
6.9085683383
 20
10.4282327676
 40
1.18
100
AcDbArc
 50
238.374126381
 51
301.6257548444
  0
ARC
  5
2F7
100
AcDbEntity
  8
0
100
AcDbCircle
 62
7
  6
CONTINUOUS
 10
6.9085683383
 20
10.4282327676
 40
1.18
100
AcDbArc
 50
328.3553649612
 51
31.6437919734
  0
ARC
  5
2F8
100
AcDbEntity
  8
0
100
AcDbCircle
 62
7
  6
CONTINUOUS
 10
6.9085683383
 20
10.4282327676
 40
1.18
100
AcDbArc
 50
58.374126381
 51
121.6257548444
  0
ARC
  5
2F9
100
AcDbEntity
  8
0
100
AcDbCircle
 62
7
  6
CONTINUOUS
 10
6.9085683383
 20
10.4282327676
 40
1.18
100
AcDbArc
 50
148.3553649612
 51
211.6437919734
  0
ARC
  5
2FA
100
AcDbEntity
  8
0
100
AcDbCircle
 62
7
  6
CONTINUOUS
 10
6.9085683383
 20
10.4282327676
 40
1.0000026738
100
AcDbArc
 50
56.1862970184
 51
123.8137029816
  0
ARC
  5
2FB
100
AcDbEntity
  8
0
100
AcDbCircle
 62
7
  6
CONTINUOUS
 10
6.9085683383
 20
10.4282327676
 40
1.0000026738
100
AcDbArc
 50
326.1862970184
 51
33.8137029816
  0
ARC
  5
2FC
100
AcDbEntity
  8
0
100
AcDbCircle
 62
7
  6
CONTINUOUS
 10
6.9085683383
 20
10.4282327676
 40
1.0000026738
100
AcDbArc
 50
236.1862970184
 51
303.8137029816
  0
ARC
  5
2FD
100
AcDbEntity
  8
0
100
AcDbCircle
 62
7
  6
CONTINUOUS
 10
6.9085683383
 20
10.4282327676
 40
1.0000026738
100
AcDbArc
 50
146.1862970184
 51
213.8137029816
  0
ARC
  5
2FE
100
AcDbEntity
  8
0
100
AcDbCircle
 62
9
  6
CONTINUOUS
 10
6.9085683383
 20
10.4282327676
 40
0.8130026738
100
AcDbArc
 50
54.1582685774
 51
125.832590228
  0
ARC
  5
2FF
100
AcDbEntity
  8
0
100
AcDbCircle
 62
9
  6
CONTINUOUS
 10
6.9085683383
 20
10.4282327676
 40
0.8130026738
100
AcDbArc
 50
324.1796371131
 51
35.8329686686
  0
ARC
  5
300
100
AcDbEntity
  8
0
100
AcDbCircle
 62
9
  6
CONTINUOUS
 10
6.9085683383
 20
10.4282327676
 40
0.8130026738
100
AcDbArc
 50
234.1582685774
 51
305.832590228
  0
ARC
  5
301
100
AcDbEntity
  8
0
100
AcDbCircle
 62
9
  6
CONTINUOUS
 10
6.9085683383
 20
10.4282327676
 40
0.8130026738
100
AcDbArc
 50
144.1796371131
 51
215.8329686686
  0
ARC
  5
302
100
AcDbEntity
  8
0
100
AcDbCircle
 62
7
  6
CONTINUOUS
 10
6.9085683383
 20
10.4282327676
 40
0.741
100
AcDbArc
 50
143.8055822462
 51
177.3531455237
  0
ARC
  5
303
100
AcDbEntity
  8
0
100
AcDbCircle
 62
7
  6
CONTINUOUS
 10
6.9085683383
 20
10.4282327676
 40
0.741
100
AcDbArc
 50
122.6316076561
 51
126.1941524461
  0
ARC
  5
304
100
AcDbEntity
  8
0
100
AcDbCircle
 62
7
  6
CONTINUOUS
 10
6.9085683383
 20
10.4282327676
 40
0.741
100
AcDbArc
 50
62.6291242566
 51
117.3669832926
  0
ARC
  5
305
100
AcDbEntity
  8
0
100
AcDbCircle
 62
7
  6
CONTINUOUS
 10
6.9085683383
 20
10.4282327676
 40
0.741
100
AcDbArc
 50
53.7853846493
 51
57.3645520063
  0
ARC
  5
306
100
AcDbEntity
  8
0
100
AcDbCircle
 62
7
  6
CONTINUOUS
 10
6.9085683383
 20
10.4282327676
 40
0.741
100
AcDbArc
 50
2.6470278516
 51
36.2158697342
  0
ARC
  5
307
100
AcDbEntity
  8
0
100
AcDbCircle
 62
7
  6
CONTINUOUS
 10
6.9085683383
 20
10.4282327676
 40
0.741
100
AcDbArc
 50
323.8055822462
 51
357.3531455237
  0
ARC
  5
308
100
AcDbEntity
  8
0
100
AcDbCircle
 62
7
  6
CONTINUOUS
 10
6.9085683383
 20
10.4282327676
 40
0.741
100
AcDbArc
 50
302.6316076561
 51
306.1941524461
  0
ARC
  5
309
100
AcDbEntity
  8
0
100
AcDbCircle
 62
7
  6
CONTINUOUS
 10
6.9085683383
 20
10.4282327676
 40
0.741
100
AcDbArc
 50
242.6291242566
 51
297.3669832926
  0
ARC
  5
30A
100
AcDbEntity
  8
0
100
AcDbCircle
 62
7
  6
CONTINUOUS
 10
6.9085683383
 20
10.4282327676
 40
0.741
100
AcDbArc
 50
233.7853846493
 51
237.3645520063
  0
ARC
  5
30B
100
AcDbEntity
  8
0
100
AcDbCircle
 62
7
  6
CONTINUOUS
 10
6.9085683383
 20
10.4282327676
 40
0.741
100
AcDbArc
 50
182.6470278516
 51
216.2158697342
  0
ARC
  5
30C
100
AcDbEntity
  8
0
100
AcDbCircle
 62
7
  6
CONTINUOUS
 10
6.9085683383
 20
10.4282327676
 40
0.6515
100
AcDbArc
 50
55.8319786818
 51
124.1761469876
  0
ARC
  5
30D
100
AcDbEntity
  8
0
100
AcDbCircle
 62
7
  6
CONTINUOUS
 10
6.9085683383
 20
10.4282327676
 40
0.6515
100
AcDbArc
 50
325.8238530124
 51
34.1680213182
  0
ARC
  5
30E
100
AcDbEntity
  8
0
100
AcDbCircle
 62
7
  6
CONTINUOUS
 10
6.9085683383
 20
10.4282327676
 40
0.6515
100
AcDbArc
 50
235.8319786818
 51
304.1761469876
  0
ARC
  5
30F
100
AcDbEntity
  8
0
100
AcDbCircle
 62
7
  6
CONTINUOUS
 10
6.9085683383
 20
10.4282327676
 40
0.6515
100
AcDbArc
 50
145.8238530124
 51
214.1680213182
  0
ARC
  5
310
100
AcDbEntity
  8
0
100
AcDbCircle
 62
9
  6
CONTINUOUS
 10
6.9085683383
 20
10.4282327676
 40
0.6146339942
100
AcDbArc
 50
57.9898762785
 51
122.0191168508
  0
ARC
  5
311
100
AcDbEntity
  8
0
100
AcDbCircle
 62
9
  6
CONTINUOUS
 10
6.9085683383
 20
10.4282327676
 40
0.6146339942
100
AcDbArc
 50
147.9808831492
 51
212.0101237215
  0
ARC
  5
312
100
AcDbEntity
  8
0
100
AcDbCircle
 62
9
  6
CONTINUOUS
 10
6.9085683383
 20
10.4282327676
 40
0.6146339942
100
AcDbArc
 50
237.9898762785
 51
302.0191168508
  0
ARC
  5
313
100
AcDbEntity
  8
0
100
AcDbCircle
 62
9
  6
CONTINUOUS
 10
6.9085683383
 20
10.4282327676
 40
0.6146339942
100
AcDbArc
 50
327.9808831492
 51
32.0101237215
  0
CIRCLE
  5
314
100
AcDbEntity
  8
0
100
AcDbCircle
 62
7
  6
CONTINUOUS
 10
6.9085683383
 20
10.4282327676
 40
0.5575
  0
CIRCLE
  5
315
100
AcDbEntity
  8
0
100
AcDbCircle
 62
7
  6
CONTINUOUS
 10
6.9085683383
 20
10.4282327676
 40
0.5275
  0
CIRCLE
  5
316
100
AcDbEntity
  8
0
100
AcDbCircle
 62
7
  6
CONTINUOUS
 10
6.9085683383
 20
10.4282327676
 40
0.5132341523
  0
CIRCLE
  5
317
100
AcDbEntity
  8
0
100
AcDbCircle
 62
7
  6
CONTINUOUS
 10
6.9085683383
 20
10.4282327676
 40
0.4545099561
  0
CIRCLE
  5
318
100
AcDbEntity
  8
0
100
AcDbCircle
 62
7
  6
CONTINUOUS
 10
6.9085683383
 20
10.4282327676
 40
0.4275
  0
CIRCLE
  5
319
100
AcDbEntity
  8
0
100
AcDbCircle
 62
7
  6
CONTINUOUS
 10
6.9085683383
 20
10.4282327676
 40
0.4175
  0
CIRCLE
  5
31A
100
AcDbEntity
  8
0
100
AcDbCircle
 62
9
  6
CONTINUOUS
 10
6.9085683383
 20
10.4282327676
 40
0.3951446396
  0
ARC
  5
31B
100
AcDbEntity
  8
0
100
AcDbCircle
 62
7
  6
CONTINUOUS
 10
7.6661455441
 20
10.1818937647
 40
0.25
100
AcDbArc
 50
179.3699304528
 51
271.9739483152
  0
ARC
  5
31C
100
AcDbEntity
  8
0
100
AcDbCircle
 62
7
  6
CONTINUOUS
 10
7.3851625346
 20
10.1849838091
 40
0.031
100
AcDbArc
 50
359.3699285546
 51
21.2832692003
  0
ARC
  5
31D
100
AcDbEntity
  8
0
100
AcDbCircle
 62
7
  6
CONTINUOUS
 10
7.744722107
 20
11.2643865364
 40
0.275
100
AcDbArc
 50
280.0
 51
170.0
  0
ARC
  5
31E
100
AcDbEntity
  8
0
100
AcDbCircle
 62
7
  6
CONTINUOUS
 10
6.0724145695
 20
11.2643865364
 40
0.275
100
AcDbArc
 50
10.0
 51
260.0
  0
ARC
  5
31F
100
AcDbEntity
  8
0
100
AcDbCircle
 62
7
  6
CONTINUOUS
 10
7.1549073413
 20
11.1858099734
 40
0.25
100
AcDbArc
 50
269.3699304528
 51
1.9739483152
  0
ARC
  5
320
100
AcDbEntity
  8
0
100
AcDbCircle
 62
7
  6
CONTINUOUS
 10
7.6661455441
 20
10.6745717706
 40
0.25
100
AcDbArc
 50
88.0260516848
 51
180.6300695472
  0
ARC
  5
321
100
AcDbEntity
  8
0
100
AcDbCircle
 62
7
  6
CONTINUOUS
 10
6.1509911325
 20
10.6745717706
 40
0.25
100
AcDbArc
 50
359.3699304528
 51
91.9739483152
  0
ARC
  5
322
100
AcDbEntity
  8
0
100
AcDbCircle
 62
7
  6
CONTINUOUS
 10
6.6622293353
 20
11.1858099734
 40
0.25
100
AcDbArc
 50
178.0260516848
 51
270.6300695472
  0
ARC
  5
323
100
AcDbEntity
  8
0
100
AcDbCircle
 62
7
  6
CONTINUOUS
 10
7.0475252284
 20
10.6022452061
 40
0.0413119841
100
AcDbArc
 50
89.9999999999
 51
135.0
  0
ARC
  5
324
100
AcDbEntity
  8
0
100
AcDbCircle
 62
7
  6
CONTINUOUS
 10
6.9813361665
 20
10.5360561441
 40
0.0413119841
100
AcDbArc
 50
135.0
 51
180.0
  0
ARC
  5
325
100
AcDbEntity
  8
0
100
AcDbCircle
 62
7
  6
CONTINUOUS
 10
7.014662433
 20
10.4925514072
 40
0.036
100
AcDbArc
 50
344.0852950607
 51
45.0
  0
ARC
  5
326
100
AcDbEntity
  8
0
100
AcDbCircle
 62
7
  6
CONTINUOUS
 10
7.0910299653
 20
10.5689189396
 40
0.036
100
AcDbArc
 50
225.0
 51
285.9147049393
  0
ARC
  5
327
100
AcDbEntity
  8
0
100
AcDbCircle
 62
7
  6
CONTINUOUS
 10
7.3851625346
 20
10.6714817261
 40
0.031
100
AcDbArc
 50
339.3667093254
 51
0.630086753
  0
ARC
  5
328
100
AcDbEntity
  8
0
100
AcDbCircle
 62
7
  6
CONTINUOUS
 10
7.1518172968
 20
10.9048269639
 40
0.031
100
AcDbArc
 50
89.369913247
 51
110.2869309671
  0
ARC
  5
329
100
AcDbEntity
  8
0
100
AcDbCircle
 62
7
  6
CONTINUOUS
 10
6.431974142
 20
10.6714817261
 40
0.031
100
AcDbArc
 50
179.3699285546
 51
201.2832683609
  0
ARC
  5
32A
100
AcDbEntity
  8
0
100
AcDbCircle
 62
7
  6
CONTINUOUS
 10
6.6653193798
 20
10.9048269639
 40
0.031
100
AcDbArc
 50
70.2040621123
 51
90.6300714454
  0
ARC
  5
32B
100
AcDbEntity
  8
0
100
AcDbCircle
 62
7
  6
CONTINUOUS
 10
7.4407413366
 20
11.2162281299
 40
0.016
100
AcDbArc
 50
225.0
 51
349.9999999998
  0
ARC
  5
32C
100
AcDbEntity
  8
0
100
AcDbCircle
 62
7
  6
CONTINUOUS
 10
7.6965637005
 20
10.9604057659
 40
0.016
100
AcDbArc
 50
100.0000000002
 51
225.0
  0
ARC
  5
32D
100
AcDbEntity
  8
0
100
AcDbCircle
 62
7
  6
CONTINUOUS
 10
7.675307936
 20
10.9404139241
 40
0.016
100
AcDbArc
 50
268.0260516848
 51
10.3765489002
  0
ARC
  5
32E
100
AcDbEntity
  8
0
100
AcDbCircle
 62
7
  6
CONTINUOUS
 10
7.4207494948
 20
11.1949723654
 40
0.016
100
AcDbArc
 50
79.6234510998
 51
181.9739483152
  0
ARC
  5
32F
100
AcDbEntity
  8
0
100
AcDbCircle
 62
7
  6
CONTINUOUS
 10
6.1205729761
 20
10.9604057659
 40
0.016
100
AcDbArc
 50
315.0
 51
79.9999999998
  0
ARC
  5
330
100
AcDbEntity
  8
0
100
AcDbCircle
 62
7
  6
CONTINUOUS
 10
6.37639534
 20
11.2162281299
 40
0.016
100
AcDbArc
 50
190.0000000002
 51
315.0
  0
ARC
  5
331
100
AcDbEntity
  8
0
100
AcDbCircle
 62
7
  6
CONTINUOUS
 10
6.3963871818
 20
11.1949723654
 40
0.016
100
AcDbArc
 50
358.0260516848
 51
100.3765489001
  0
ARC
  5
332
100
AcDbEntity
  8
0
100
AcDbCircle
 62
7
  6
CONTINUOUS
 10
6.1418287406
 20
10.9404139241
 40
0.016
100
AcDbArc
 50
169.6234510999
 51
271.9739483152
  0
ARC
  5
333
100
AcDbEntity
  8
0
100
AcDbCircle
 62
7
  6
CONTINUOUS
 10
7.0021892761
 20
10.6110905813
 40
0.003
100
AcDbArc
 50
135.0
 51
225.0
  0
ARC
  5
334
100
AcDbEntity
  8
0
100
AcDbCircle
 62
7
  6
CONTINUOUS
 10
6.9724907913
 20
10.5813920965
 40
0.003
100
AcDbArc
 50
45.0
 51
135.0
  0
ARC
  5
335
100
AcDbEntity
  8
0
100
AcDbCircle
 62
7
  6
CONTINUOUS
 10
10.9085683383
 20
10.4282327676
 40
1.175
100
AcDbArc
 50
290.2843613853
 51
76.1783321734
  0
ARC
  5
336
100
AcDbEntity
  8
0
100
AcDbCircle
 62
7
  6
CONTINUOUS
 10
10.9085683383
 20
10.4282327676
 40
1.175
100
AcDbArc
 50
103.8216678266
 51
249.7156386147
  0
ARC
  5
337
100
AcDbEntity
  8
0
100
AcDbCircle
 62
9
  6
CONTINUOUS
 10
10.9085683383
 20
10.4282327676
 40
1.145
100
AcDbArc
 50
290.8500152009
 51
76.4201168544
  0
ARC
  5
338
100
AcDbEntity
  8
0
100
AcDbCircle
 62
9
  6
CONTINUOUS
 10
10.9085683383
 20
10.4282327676
 40
1.145
100
AcDbArc
 50
103.5794922309
 51
249.1499851838
  0
ARC
  5
339
100
AcDbEntity
  8
0
100
AcDbCircle
 62
7
  6
CONTINUOUS
 10
10.9085683383
 20
10.4282327676
 40
1.0675
100
AcDbArc
 50
292.4579816471
 51
80.4243539374
  0
ARC
  5
33A
100
AcDbEntity
  8
0
100
AcDbCircle
 62
7
  6
CONTINUOUS
 10
10.9085683383
 20
10.4282327676
 40
1.0675
100
AcDbArc
 50
99.5759801521
 51
247.5414306731
  0
ARC
  5
33B
100
AcDbEntity
  8
0
100
AcDbCircle
 62
7
  6
CONTINUOUS
 10
10.9085683383
 20
10.4282327676
 40
0.87
100
AcDbArc
 50
297.9536457857
 51
76.6409832571
  0
ARC
  5
33C
100
AcDbEntity
  8
0
100
AcDbCircle
 62
7
  6
CONTINUOUS
 10
10.9085683383
 20
10.4282327676
 40
0.87
100
AcDbArc
 50
103.3570890577
 51
242.0467750217
  0
ARC
  5
33D
100
AcDbEntity
  8
0
100
AcDbCircle
 62
7
  6
CONTINUOUS
 10
10.9085683383
 20
10.4282327676
 40
0.82
100
AcDbArc
 50
298.6193729961
 51
75.6796308194
  0
ARC
  5
33E
100
AcDbEntity
  8
0
100
AcDbCircle
 62
7
  6
CONTINUOUS
 10
10.9085683383
 20
10.4282327676
 40
0.82
100
AcDbArc
 50
104.3209630617
 51
241.3813631274
  0
ARC
  5
33F
100
AcDbEntity
  8
0
100
AcDbCircle
 62
7
  6
CONTINUOUS
 10
10.9085686905
 20
10.4282327294
 40
0.7100000773
100
AcDbArc
 50
106.5715037532
 51
237.7047416317
  0
ARC
  5
340
100
AcDbEntity
  8
0
100
AcDbCircle
 62
7
  6
CONTINUOUS
 10
10.9085681152
 20
10.4282330261
 40
0.7099997651
100
AcDbArc
 50
302.2952366532
 51
73.4284995057
  0
CIRCLE
  5
341
100
AcDbEntity
  8
0
100
AcDbCircle
 62
7
  6
CONTINUOUS
 10
10.9085683383
 20
10.4282327676
 40
0.4635
  0
CIRCLE
  5
342
100
AcDbEntity
  8
0
100
AcDbCircle
 62
9
  6
CONTINUOUS
 10
10.9085683383
 20
10.4282327676
 40
0.346
  0
CIRCLE
  5
343
100
AcDbEntity
  8
0
100
AcDbCircle
 62
7
  6
CONTINUOUS
 10
10.9085683383
 20
10.4282327676
 40
0.3125
  0
CIRCLE
  5
344
100
AcDbEntity
  8
0
100
AcDbCircle
 62
9
  6
CONTINUOUS
 10
10.9085683383
 20
10.4282327676
 40
0.1279789985
  0
ARC
  5
345
100
AcDbEntity
  8
0
100
AcDbCircle
 62
7
  6
CONTINUOUS
 10
10.4955683383
 20
9.7748110049
 40
0.063
100
AcDbArc
 50
303.20382253
 51
57.7047672559
  0
ARC
  5
346
100
AcDbEntity
  8
0
100
AcDbCircle
 62
7
  6
CONTINUOUS
 10
10.5645683383
 20
9.6693833046
 40
0.063
100
AcDbArc
 50
123.20382253
 51
180.0
  0
ARC
  5
347
100
AcDbEntity
  8
0
100
AcDbCircle
 62
7
  6
CONTINUOUS
 10
10.5015683383
 20
9.2112426868
 40
0.0625
100
AcDbArc
 50
90.0
 51
270.0
  0
ARC
  5
348
100
AcDbEntity
  8
0
100
AcDbCircle
 62
7
  6
CONTINUOUS
 10
10.6671819695
 20
11.3893130798
 40
0.1064
100
AcDbArc
 50
303.8483853713
 51
49.0237155136
  0
ARC
  5
349
100
AcDbEntity
  8
0
100
AcDbCircle
 62
7
  6
CONTINUOUS
 10
10.9985683383
 20
11.6717426868
 40
0.09
100
AcDbArc
 50
0.0
 51
75.164888418
  0
ARC
  5
34A
100
AcDbEntity
  8
0
100
AcDbCircle
 62
7
  6
CONTINUOUS
 10
10.8185683383
 20
11.6717426868
 40
0.09
100
AcDbArc
 50
104.835111582
 51
180.0
  0
ARC
  5
34B
100
AcDbEntity
  8
0
100
AcDbCircle
 62
7
  6
CONTINUOUS
 10
10.6875683383
 20
11.5757426868
 40
0.06
100
AcDbArc
 50
180.0
 51
270.0
  0
ARC
  5
34C
100
AcDbEntity
  8
0
100
AcDbCircle
 62
7
  6
CONTINUOUS
 10
10.6875683383
 20
11.6117426868
 40
0.06
100
AcDbArc
 50
90.0
 51
180.0
  0
ARC
  5
34D
100
AcDbEntity
  8
0
100
AcDbCircle
 62
7
  6
CONTINUOUS
 10
10.7520683383
 20
11.2627426868
 40
0.046
100
AcDbArc
 50
123.8483853713
 51
180.0
  0
ARC
  5
34E
100
AcDbEntity
  8
0
100
AcDbCircle
 62
7
  6
CONTINUOUS
 10
11.0650683383
 20
11.2627426868
 40
0.046
100
AcDbArc
 50
0.0
 51
56.1516146287
  0
ARC
  5
34F
100
AcDbEntity
  8
0
100
AcDbCircle
 62
7
  6
CONTINUOUS
 10
10.7500683383
 20
11.4847426868
 40
0.02
100
AcDbArc
 50
180.0
 51
229.0237155138
  0
ARC
  5
350
100
AcDbEntity
  8
0
100
AcDbCircle
 62
7
  6
CONTINUOUS
 10
11.0670683383
 20
11.4847426868
 40
0.02
100
AcDbArc
 50
310.9762844862
 51
360.0
  0
ARC
  5
351
100
AcDbEntity
  8
0
100
AcDbCircle
 62
7
  6
CONTINUOUS
 10
11.3215683383
 20
9.7748110049
 40
0.063
100
AcDbArc
 50
122.2952327441
 51
236.79617747
  0
ARC
  5
352
100
AcDbEntity
  8
0
100
AcDbCircle
 62
7
  6
CONTINUOUS
 10
11.2525683383
 20
9.6693833046
 40
0.063
100
AcDbArc
 50
0.0
 51
56.79617747
  0
ARC
  5
353
100
AcDbEntity
  8
0
100
AcDbCircle
 62
7
  6
CONTINUOUS
 10
11.3155683383
 20
9.2112426868
 40
0.0625
100
AcDbArc
 50
270.0
 51
90.0
  0
ARC
  5
354
100
AcDbEntity
  8
0
100
AcDbCircle
 62
7
  6
CONTINUOUS
 10
11.149954707
 20
11.3893130798
 40
0.1064
100
AcDbArc
 50
130.9762844864
 51
236.1516146287
  0
ARC
  5
355
100
AcDbEntity
  8
0
100
AcDbCircle
 62
7
  6
CONTINUOUS
 10
11.1295683383
 20
11.5757426868
 40
0.06
100
AcDbArc
 50
270.0
 51
360.0
  0
ARC
  5
356
100
AcDbEntity
  8
0
100
AcDbCircle
 62
7
  6
CONTINUOUS
 10
11.1295683383
 20
11.6117426868
 40
0.06
100
AcDbArc
 50
0.0
 51
90.0
  0
ARC
  5
357
100
AcDbEntity
  8
0
100
AcDbCircle
 62
7
  6
CONTINUOUS
 10
14.9085683383
 20
9.2457327676
 40
0.275
100
AcDbArc
 50
145.0
 51
35.0
  0
ARC
  5
358
100
AcDbEntity
  8
0
100
AcDbCircle
 62
7
  6
CONTINUOUS
 10
15.6184442973
 20
10.0667327676
 40
0.25
100
AcDbArc
 50
43.0260516848
 51
135.6300695472
  0
ARC
  5
359
100
AcDbEntity
  8
0
100
AcDbCircle
 62
7
  6
CONTINUOUS
 10
14.1986923793
 20
10.0667327676
 40
0.25
100
AcDbArc
 50
44.3699304528
 51
136.9739483152
  0
ARC
  5
35A
100
AcDbEntity
  8
0
100
AcDbCircle
 62
7
  6
CONTINUOUS
 10
14.5470683383
 20
9.7183568087
 40
0.25
100
AcDbArc
 50
313.0260516848
 51
45.6300695472
  0
ARC
  5
35B
100
AcDbEntity
  8
0
100
AcDbCircle
 62
7
  6
CONTINUOUS
 10
15.2700683383
 20
9.7183568087
 40
0.25
100
AcDbArc
 50
134.3699304528
 51
226.9739483152
  0
ARC
  5
35C
100
AcDbEntity
  8
0
100
AcDbCircle
 62
7
  6
CONTINUOUS
 10
14.6489937352
 20
10.3912327676
 40
0.121
100
AcDbArc
 50
72.3178031512
 51
100.863388708
  0
ARC
  5
35D
100
AcDbEntity
  8
0
100
AcDbCircle
 62
7
  6
CONTINUOUS
 10
15.4175743144
 20
10.2632327676
 40
0.031
100
AcDbArc
 50
294.3667093254
 51
315.630086753
  0
ARC
  5
35E
100
AcDbEntity
  8
0
100
AcDbCircle
 62
7
  6
CONTINUOUS
 10
14.3995623621
 20
10.2632327676
 40
0.031
100
AcDbArc
 50
224.369913247
 51
245.2869442006
  0
ARC
  5
35F
100
AcDbEntity
  8
0
100
AcDbCircle
 62
7
  6
CONTINUOUS
 10
14.7435683383
 20
9.9192267915
 40
0.031
100
AcDbArc
 50
205.2040808207
 51
225.6300714454
  0
ARC
  5
360
100
AcDbEntity
  8
0
100
AcDbCircle
 62
7
  6
CONTINUOUS
 10
15.0735683383
 20
9.9192267915
 40
0.031
100
AcDbArc
 50
314.3699285546
 51
336.2832692003
  0
ARC
  5
361
100
AcDbEntity
  8
0
100
AcDbCircle
 62
7
  6
CONTINUOUS
 10
14.9100683383
 20
10.3960034124
 40
0.03
100
AcDbArc
 50
286.4592496283
 51
360.0
  0
ARC
  5
362
100
AcDbEntity
  8
0
100
AcDbCircle
 62
7
  6
CONTINUOUS
 10
15.0300683383
 20
10.3960034124
 40
0.03
100
AcDbArc
 50
270.0
 51
328.815717175
  0
ARC
  5
363
100
AcDbEntity
  8
0
100
AcDbCircle
 62
7
  6
CONTINUOUS
 10
15.0060683383
 20
10.3960034124
 40
0.03
100
AcDbArc
 50
180.0
 51
270.0
  0
ARC
  5
364
100
AcDbEntity
  8
0
100
AcDbCircle
 62
7
  6
CONTINUOUS
 10
15.0905683383
 20
10.3833572831
 40
0.018
100
AcDbArc
 50
296.3877999613
 51
360.0
  0
ARC
  5
365
100
AcDbEntity
  8
0
100
AcDbCircle
 62
7
  6
CONTINUOUS
 10
15.8420683383
 20
10.2473390393
 40
0.016
100
AcDbArc
 50
55.0000000002
 51
180.0
  0
ARC
  5
366
100
AcDbEntity
  8
0
100
AcDbCircle
 62
7
  6
CONTINUOUS
 10
15.8129018762
 20
10.2482327676
 40
0.016
100
AcDbArc
 50
223.0260516848
 51
325.3765489002
  0
ARC
  5
367
100
AcDbEntity
  8
0
100
AcDbCircle
 62
7
  6
CONTINUOUS
 10
13.9750683383
 20
10.2473390393
 40
0.016
100
AcDbArc
 50
0.0
 51
124.9999999998
  0
ARC
  5
368
100
AcDbEntity
  8
0
100
AcDbCircle
 62
7
  6
CONTINUOUS
 10
14.0042348004
 20
10.2482327676
 40
0.016
100
AcDbArc
 50
214.6234510998
 51
316.9739483152
  0
ARC
  5
369
100
AcDbEntity
  8
0
100
AcDbCircle
 62
7
  6
CONTINUOUS
 10
14.72767461
 20
9.4947327676
 40
0.016
100
AcDbArc
 50
325.0000000002
 51
90.0
  0
ARC
  5
36A
100
AcDbEntity
  8
0
100
AcDbCircle
 62
7
  6
CONTINUOUS
 10
15.0894620666
 20
9.4947327676
 40
0.016
100
AcDbArc
 50
90.0
 51
214.9999999998
  0
ARC
  5
36B
100
AcDbEntity
  8
0
100
AcDbCircle
 62
7
  6
CONTINUOUS
 10
15.0885683383
 20
9.5238992298
 40
0.016
100
AcDbArc
 50
304.6234510999
 51
46.9739483151
  0
ARC
  5
36C
100
AcDbEntity
  8
0
100
AcDbCircle
 62
7
  6
CONTINUOUS
 10
14.7285683383
 20
9.5238992298
 40
0.016
100
AcDbArc
 50
133.0260516849
 51
235.3765489001
  0
ARC
  5
36D
100
AcDbEntity
  8
0
100
AcDbCircle
 62
7
  6
CONTINUOUS
 10
15.1508502186
 20
10.3732327676
 40
0.006
100
AcDbArc
 50
180.0
 51
270.0
  0
ARC
  5
36E
100
AcDbEntity
  8
0
100
AcDbCircle
 62
7
  6
CONTINUOUS
 10
13.7260683383
 20
10.4282327676
 40
0.275
100
AcDbArc
 50
55.0
 51
305.0
  0
ARC
  5
36F
100
AcDbEntity
  8
0
100
AcDbCircle
 62
7
  6
CONTINUOUS
 10
14.1986923793
 20
10.7897327676
 40
0.25
100
AcDbArc
 50
223.0260516848
 51
315.6300695472
  0
ARC
  5
370
100
AcDbEntity
  8
0
100
AcDbCircle
 62
7
  6
CONTINUOUS
 10
14.6458621097
 20
10.4320969489
 40
0.0888641812
100
AcDbArc
 50
224.2338173193
 51
336.8459014309
  0
ARC
  5
371
100
AcDbEntity
  8
0
100
AcDbCircle
 62
7
  6
CONTINUOUS
 10
14.6855683383
 20
10.4288533968
 40
0.085
100
AcDbArc
 50
158.3999655658
 51
201.6000344342
  0
ARC
  5
372
100
AcDbEntity
  8
0
100
AcDbCircle
 62
7
  6
CONTINUOUS
 10
14.6418931746
 20
10.4282327676
 40
0.0833248363
100
AcDbArc
 50
100.863388708
 51
224.2338173193
  0
ARC
  5
373
100
AcDbEntity
  8
0
100
AcDbCircle
 62
7
  6
CONTINUOUS
 10
14.6432124998
 20
10.4320969489
 40
0.0697243244
100
AcDbArc
 50
15.9292215989
 51
31.2636680057
  0
ARC
  5
374
100
AcDbEntity
  8
0
100
AcDbCircle
 62
7
  6
CONTINUOUS
 10
14.6543730581
 20
10.4284572199
 40
0.061607623
100
AcDbArc
 50
256.3709027892
 51
336.8459014309
  0
ARC
  5
375
100
AcDbEntity
  8
0
100
AcDbCircle
 62
7
  6
CONTINUOUS
 10
14.6566974406
 20
10.4402842139
 40
0.0539485538
100
AcDbArc
 50
31.2636680057
 51
158.3999655658
  0
ARC
  5
376
100
AcDbEntity
  8
0
100
AcDbCircle
 62
7
  6
CONTINUOUS
 10
14.6511666165
 20
10.4152327676
 40
0.048
100
AcDbArc
 50
201.6000344342
 51
256.3709027892
  0
ARC
  5
377
100
AcDbEntity
  8
0
100
AcDbCircle
 62
7
  6
CONTINUOUS
 10
14.3995623621
 20
10.5932327676
 40
0.031
100
AcDbArc
 50
114.366699974
 51
135.630086753
  0
ARC
  5
378
100
AcDbEntity
  8
0
100
AcDbCircle
 62
7
  6
CONTINUOUS
 10
14.7435683383
 20
10.9372387438
 40
0.031
100
AcDbArc
 50
134.3699285546
 51
156.2832683609
  0
ARC
  5
379
100
AcDbEntity
  8
0
100
AcDbCircle
 62
7
  6
CONTINUOUS
 10
13.9750683383
 20
10.609126496
 40
0.016
100
AcDbArc
 50
235.0000000002
 51
360.0
  0
ARC
  5
37A
100
AcDbEntity
  8
0
100
AcDbCircle
 62
7
  6
CONTINUOUS
 10
14.0042348004
 20
10.6082327676
 40
0.016
100
AcDbArc
 50
43.0260516848
 51
145.3765489001
  0
ARC
  5
37B
100
AcDbEntity
  8
0
100
AcDbCircle
 62
7
  6
CONTINUOUS
 10
14.6875683383
 20
10.5122327676
 40
0.006
100
AcDbArc
 50
252.3178031508
 51
360.0
  0
ARC
  5
37C
100
AcDbEntity
  8
0
100
AcDbCircle
 62
7
  6
CONTINUOUS
 10
14.5470683383
 20
11.1381087266
 40
0.25
100
AcDbArc
 50
314.3699304528
 51
46.9739483152
  0
ARC
  5
37D
100
AcDbEntity
  8
0
100
AcDbCircle
 62
7
  6
CONTINUOUS
 10
14.72767461
 20
11.3617327676
 40
0.016
100
AcDbArc
 50
270.0
 51
34.9999999998
  0
ARC
  5
37E
100
AcDbEntity
  8
0
100
AcDbCircle
 62
7
  6
CONTINUOUS
 10
14.7285683383
 20
11.3325663055
 40
0.016
100
AcDbArc
 50
124.6234510999
 51
226.9739483152
  0
ARC
  5
37F
100
AcDbEntity
  8
0
100
AcDbCircle
 62
7
  6
CONTINUOUS
 10
14.9085683383
 20
10.4282327676
 40
1.18
100
AcDbArc
 50
193.3710729669
 51
256.6332187406
  0
ARC
  5
380
100
AcDbEntity
  8
0
100
AcDbCircle
 62
7
  6
CONTINUOUS
 10
14.9085683383
 20
10.4282327676
 40
1.18
100
AcDbArc
 50
283.3669301662
 51
346.628520285
  0
ARC
  5
381
100
AcDbEntity
  8
0
100
AcDbCircle
 62
7
  6
CONTINUOUS
 10
14.9085683383
 20
10.4282327676
 40
1.18
100
AcDbArc
 50
13.3710729669
 51
76.6332187406
  0
ARC
  5
382
100
AcDbEntity
  8
0
100
AcDbCircle
 62
7
  6
CONTINUOUS
 10
14.9085683383
 20
10.4282327676
 40
1.18
100
AcDbArc
 50
103.3669301662
 51
166.628520285
  0
ARC
  5
383
100
AcDbEntity
  8
0
100
AcDbCircle
 62
7
  6
CONTINUOUS
 10
14.9085683383
 20
10.4282327676
 40
1.0000026738
100
AcDbArc
 50
101.1603298445
 51
168.8396701555
  0
ARC
  5
384
100
AcDbEntity
  8
0
100
AcDbCircle
 62
7
  6
CONTINUOUS
 10
14.9085683383
 20
10.4282327676
 40
1.0000026738
100
AcDbArc
 50
11.1603298445
 51
78.8396701555
  0
ARC
  5
385
100
AcDbEntity
  8
0
100
AcDbCircle
 62
7
  6
CONTINUOUS
 10
14.9085683383
 20
10.4282327676
 40
1.0000026738
100
AcDbArc
 50
281.1603298445
 51
348.8396701555
  0
ARC
  5
386
100
AcDbEntity
  8
0
100
AcDbCircle
 62
7
  6
CONTINUOUS
 10
14.9085683383
 20
10.4282327676
 40
1.0000026738
100
AcDbArc
 50
191.1603298445
 51
258.8396701555
  0
ARC
  5
387
100
AcDbEntity
  8
0
100
AcDbCircle
 62
9
  6
CONTINUOUS
 10
14.9085683383
 20
10.4282327676
 40
0.8130026738
100
AcDbArc
 50
99.1618403548
 51
170.8244337738
  0
ARC
  5
388
100
AcDbEntity
  8
0
100
AcDbCircle
 62
9
  6
CONTINUOUS
 10
14.9085683383
 20
10.4282327676
 40
0.8130026738
100
AcDbArc
 50
9.1755938751
 51
80.8381441148
  0
ARC
  5
389
100
AcDbEntity
  8
0
100
AcDbCircle
 62
9
  6
CONTINUOUS
 10
14.9085683383
 20
10.4282327676
 40
0.8130026738
100
AcDbArc
 50
279.1618403548
 51
350.8244337738
  0
ARC
  5
38A
100
AcDbEntity
  8
0
100
AcDbCircle
 62
9
  6
CONTINUOUS
 10
14.9085683383
 20
10.4282327676
 40
0.8130026738
100
AcDbArc
 50
189.1755938751
 51
260.8381441148
  0
ARC
  5
38B
100
AcDbEntity
  8
0
100
AcDbCircle
 62
7
  6
CONTINUOUS
 10
14.9085683383
 20
10.4282327676
 40
0.741
100
AcDbArc
 50
122.6316076561
 51
171.2243205375
  0
ARC
  5
38C
100
AcDbEntity
  8
0
100
AcDbCircle
 62
7
  6
CONTINUOUS
 10
14.9085683383
 20
10.4282327676
 40
0.741
100
AcDbArc
 50
98.8072849057
 51
117.3669832926
  0
ARC
  5
38D
100
AcDbEntity
  8
0
100
AcDbCircle
 62
7
  6
CONTINUOUS
 10
14.9085683383
 20
10.4282327676
 40
0.741
100
AcDbArc
 50
62.6291242566
 51
81.1928536464
  0
ARC
  5
38E
100
AcDbEntity
  8
0
100
AcDbCircle
 62
7
  6
CONTINUOUS
 10
14.9085683383
 20
10.4282327676
 40
0.741
100
AcDbArc
 50
8.775497606
 51
57.3645520063
  0
ARC
  5
38F
100
AcDbEntity
  8
0
100
AcDbCircle
 62
7
  6
CONTINUOUS
 10
14.9085683383
 20
10.4282327676
 40
0.741
100
AcDbArc
 50
302.6316076561
 51
351.2243205375
  0
ARC
  5
390
100
AcDbEntity
  8
0
100
AcDbCircle
 62
7
  6
CONTINUOUS
 10
14.9085683383
 20
10.4282327676
 40
0.741
100
AcDbArc
 50
278.8072849057
 51
297.3669832926
  0
ARC
  5
391
100
AcDbEntity
  8
0
100
AcDbCircle
 62
7
  6
CONTINUOUS
 10
14.9085683383
 20
10.4282327676
 40
0.741
100
AcDbArc
 50
242.6291242566
 51
261.1928536464
  0
ARC
  5
392
100
AcDbEntity
  8
0
100
AcDbCircle
 62
7
  6
CONTINUOUS
 10
14.9085683383
 20
10.4282327676
 40
0.741
100
AcDbArc
 50
188.775497606
 51
237.3645520063
  0
ARC
  5
393
100
AcDbEntity
  8
0
100
AcDbCircle
 62
7
  6
CONTINUOUS
 10
14.9085683383
 20
10.4282327676
 40
0.6515
100
AcDbArc
 50
100.8479253388
 51
169.1432550594
  0
ARC
  5
394
100
AcDbEntity
  8
0
100
AcDbCircle
 62
7
  6
CONTINUOUS
 10
14.9085683383
 20
10.4282327676
 40
0.6515
100
AcDbArc
 50
10.8567449406
 51
79.1520746612
  0
ARC
  5
395
100
AcDbEntity
  8
0
100
AcDbCircle
 62
7
  6
CONTINUOUS
 10
14.9085683383
 20
10.4282327676
 40
0.6515
100
AcDbArc
 50
280.8479253388
 51
349.1432550594
  0
ARC
  5
396
100
AcDbEntity
  8
0
100
AcDbCircle
 62
7
  6
CONTINUOUS
 10
14.9085683383
 20
10.4282327676
 40
0.6515
100
AcDbArc
 50
190.8567449406
 51
259.1520746612
  0
ARC
  5
397
100
AcDbEntity
  8
0
100
AcDbCircle
 62
9
  6
CONTINUOUS
 10
14.9085683383
 20
10.4282327676
 40
0.6146339942
100
AcDbArc
 50
13.0547481952
 51
76.954605017
  0
ARC
  5
398
100
AcDbEntity
  8
0
100
AcDbCircle
 62
9
  6
CONTINUOUS
 10
14.9085683383
 20
10.4282327676
 40
0.6146339942
100
AcDbArc
 50
103.045394983
 51
166.9452518048
  0
ARC
  5
399
100
AcDbEntity
  8
0
100
AcDbCircle
 62
9
  6
CONTINUOUS
 10
14.9085683383
 20
10.4282327676
 40
0.6146339942
100
AcDbArc
 50
193.0547481952
 51
256.954605017
  0
ARC
  5
39A
100
AcDbEntity
  8
0
100
AcDbCircle
 62
9
  6
CONTINUOUS
 10
14.9085683383
 20
10.4282327676
 40
0.6146339942
100
AcDbArc
 50
283.045394983
 51
346.9452518048
  0
CIRCLE
  5
39B
100
AcDbEntity
  8
0
100
AcDbCircle
 62
7
  6
CONTINUOUS
 10
14.9085683383
 20
10.4282327676
 40
0.5575
  0
CIRCLE
  5
39C
100
AcDbEntity
  8
0
100
AcDbCircle
 62
7
  6
CONTINUOUS
 10
14.9085683383
 20
10.4282327676
 40
0.5275
  0
CIRCLE
  5
39D
100
AcDbEntity
  8
0
100
AcDbCircle
 62
7
  6
CONTINUOUS
 10
14.9085683383
 20
10.4282327676
 40
0.5132341523
  0
CIRCLE
  5
39E
100
AcDbEntity
  8
0
100
AcDbCircle
 62
7
  6
CONTINUOUS
 10
14.9085683383
 20
10.4282327676
 40
0.4545099561
  0
CIRCLE
  5
39F
100
AcDbEntity
  8
0
100
AcDbCircle
 62
7
  6
CONTINUOUS
 10
14.9085683383
 20
10.4282327676
 40
0.4275
  0
CIRCLE
  5
3A0
100
AcDbEntity
  8
0
100
AcDbCircle
 62
7
  6
CONTINUOUS
 10
14.9085683383
 20
10.4282327676
 40
0.4175
  0
CIRCLE
  5
3A1
100
AcDbEntity
  8
0
100
AcDbCircle
 62
9
  6
CONTINUOUS
 10
14.9085683383
 20
10.4282327676
 40
0.3951446566
  0
ARC
  5
3A2
100
AcDbEntity
  8
0
100
AcDbCircle
 62
7
  6
CONTINUOUS
 10
15.0060683383
 20
10.4654621229
 40
0.03
100
AcDbArc
 50
106.4592496283
 51
180.0
  0
ARC
  5
3A3
100
AcDbEntity
  8
0
100
AcDbCircle
 62
7
  6
CONTINUOUS
 10
14.9100683383
 20
10.4654621229
 40
0.03
100
AcDbArc
 50
0.0
 51
73.5407503717
  0
ARC
  5
3A4
100
AcDbEntity
  8
0
100
AcDbCircle
 62
7
  6
CONTINUOUS
 10
15.1322292583
 20
10.4307327676
 40
0.097
100
AcDbArc
 50
341.5590861804
 51
18.4409138196
  0
ARC
  5
3A5
100
AcDbEntity
  8
0
100
AcDbCircle
 62
7
  6
CONTINUOUS
 10
15.0905683383
 20
10.4781082522
 40
0.018
100
AcDbArc
 50
0.0
 51
63.6122000388
  0
ARC
  5
3A6
100
AcDbEntity
  8
0
100
AcDbCircle
 62
7
  6
CONTINUOUS
 10
15.1508502186
 20
10.4882327676
 40
0.006
100
AcDbArc
 50
90.0
 51
180.0
  0
ARC
  5
3A7
100
AcDbEntity
  8
0
100
AcDbCircle
 62
7
  6
CONTINUOUS
 10
15.1830683383
 20
10.4277327676
 40
0.0845
100
AcDbArc
 50
270.0
 51
360.0
  0
ARC
  5
3A8
100
AcDbEntity
  8
0
100
AcDbCircle
 62
7
  6
CONTINUOUS
 10
15.1830683383
 20
10.4277327676
 40
0.0845
100
AcDbArc
 50
0.3390302596
 51
90.0
  0
ARC
  5
3A9
100
AcDbEntity
  8
0
100
AcDbCircle
 62
7
  6
CONTINUOUS
 10
15.1787131264
 20
10.4152327676
 40
0.048
100
AcDbArc
 50
270.0
 51
341.5590861804
  0
ARC
  5
3AA
100
AcDbEntity
  8
0
100
AcDbCircle
 62
7
  6
CONTINUOUS
 10
15.1787131264
 20
10.4462327676
 40
0.048
100
AcDbArc
 50
18.4409138196
 51
90.0
  0
ARC
  5
3AB
100
AcDbEntity
  8
0
100
AcDbCircle
 62
7
  6
CONTINUOUS
 10
15.4175743144
 20
10.5932327676
 40
0.031
100
AcDbArc
 50
44.369913247
 51
65.2869309671
  0
ARC
  5
3AC
100
AcDbEntity
  8
0
100
AcDbCircle
 62
7
  6
CONTINUOUS
 10
15.0735683383
 20
10.9372387438
 40
0.031
100
AcDbArc
 50
25.2040621123
 51
45.6300714454
  0
ARC
  5
3AD
100
AcDbEntity
  8
0
100
AcDbCircle
 62
7
  6
CONTINUOUS
 10
16.0910683383
 20
10.4282327676
 40
0.275
100
AcDbArc
 50
235.0
 51
125.0
  0
ARC
  5
3AE
100
AcDbEntity
  8
0
100
AcDbCircle
 62
7
  6
CONTINUOUS
 10
15.8420683383
 20
10.609126496
 40
0.016
100
AcDbArc
 50
180.0
 51
304.9999999998
  0
ARC
  5
3AF
100
AcDbEntity
  8
0
100
AcDbCircle
 62
7
  6
CONTINUOUS
 10
15.8129018762
 20
10.6082327676
 40
0.016
100
AcDbArc
 50
34.6234510999
 51
136.9739483152
  0
ARC
  5
3B0
100
AcDbEntity
  8
0
100
AcDbCircle
 62
7
  6
CONTINUOUS
 10
15.6184442973
 20
10.7897327676
 40
0.25
100
AcDbArc
 50
224.3699304528
 51
316.9739483152
  0
ARC
  5
3B1
100
AcDbEntity
  8
0
100
AcDbCircle
 62
7
  6
CONTINUOUS
 10
14.9085683383
 20
11.6107327676
 40
0.275
100
AcDbArc
 50
325.0
 51
215.0
  0
ARC
  5
3B2
100
AcDbEntity
  8
0
100
AcDbCircle
 62
7
  6
CONTINUOUS
 10
15.2700683383
 20
11.1381087266
 40
0.25
100
AcDbArc
 50
133.0260516848
 51
225.6300695472
  0
ARC
  5
3B3
100
AcDbEntity
  8
0
100
AcDbCircle
 62
7
  6
CONTINUOUS
 10
15.0894620666
 20
11.3617327676
 40
0.016
100
AcDbArc
 50
145.0000000002
 51
270.0
  0
ARC
  5
3B4
100
AcDbEntity
  8
0
100
AcDbCircle
 62
7
  6
CONTINUOUS
 10
15.0885683383
 20
11.3325663055
 40
0.016
100
AcDbArc
 50
313.0260516848
 51
55.3765489001
  0
SPLINE
  5
3B5
100
AcDbEntity
  8
0
100
AcDbSpline
 62
7
  6
CONTINUOUS
 70
0
 71
3
 72
11
 73
7
 74
0
 42
0.0000001
 43
0.0000001
 44
0.0000000001
 40
0.0
 40
0.0
 40
0.0
 40
0.0
 40
0.273039475
 40
0.4997206271
 40
0.7263911349
 40
1.0
 40
1.0
 40
1.0
 40
1.0
 10
6.8519997958
 20
10.3716642252
 30
0.0
 10
6.8688229164
 20
10.3548421474
 30
0.0
 10
6.9088720535
 20
10.3333133469
 30
0.0
 10
6.9726519669
 20
10.3617917051
 30
0.0
 10
7.0009743131
 20
10.4254915657
 30
0.0
 10
6.9798358348
 20
10.4658608499
 30
0.0
 10
6.9630155604
 20
10.4826799898
 30
0.0
  0
SPLINE
  5
3B6
100
AcDbEntity
  8
0
100
AcDbSpline
 62
7
  6
CONTINUOUS
 70
0
 71
3
 72
11
 73
7
 74
0
 42
0.0000001
 43
0.0000001
 44
0.0000000001
 40
0.0
 40
0.0
 40
0.0
 40
0.0
 40
0.2911005069
 40
0.5007865867
 40
0.7104726666
 40
1.0
 40
1.0
 40
1.0
 40
1.0
 10
6.9377718483
 20
10.4574362777
 30
0.0
 10
6.949588899
 20
10.4456192271
 30
0.0
 10
6.9671735788
 20
10.4225456442
 30
0.0
 10
6.9546436546
 20
10.3798581925
 30
0.0
 10
6.9117319101
 20
10.3669655137
 30
0.0
 10
6.8894932579
 20
10.3855067154
 30
0.0
 10
6.8776677719
 20
10.3973322013
 30
0.0
  0
SPLINE
  5
3B7
100
AcDbEntity
  8
0
100
AcDbSpline
 62
7
  6
CONTINUOUS
 70
0
 71
3
 72
11
 73
7
 74
0
 42
0.0000001
 43
0.0000001
 44
0.0000000001
 40
0.0
 40
0.0
 40
0.0
 40
0.0
 40
0.2895273334
 40
0.4992134133
 40
0.7088994931
 40
1.0
 40
1.0
 40
1.0
 40
1.0
 10
6.8776677719
 20
10.3973322013
 30
0.0
 10
6.865842286
 20
10.4091576872
 30
0.0
 10
6.8473010843
 20
10.4313963395
 30
0.0
 10
6.8601937631
 20
10.474308084
 30
0.0
 10
6.9028812149
 20
10.4868380082
 30
0.0
 10
6.9259547977
 20
10.4692533283
 30
0.0
 10
6.9377718483
 20
10.4574362777
 30
0.0
  0
SPLINE
  5
3B8
100
AcDbEntity
  8
0
100
AcDbSpline
 62
7
  6
CONTINUOUS
 70
0
 71
3
 72
11
 73
7
 74
0
 42
0.0000001
 43
0.0000001
 44
0.0000000001
 40
0.0
 40
0.0
 40
0.0
 40
0.0
 40
0.2736079326
 40
0.5003103346
 40
0.7269614556
 40
1.0
 40
1.0
 40
1.0
 40
1.0
 10
6.9630155604
 20
10.4826799898
 30
0.0
 10
6.9461952861
 20
10.4994991297
 30
0.0
 10
6.9058211601
 20
10.5206370453
 30
0.0
 10
6.8421346995
 20
10.4923237245
 30
0.0
 10
6.8136472187
 20
10.4285311193
 30
0.0
 10
6.8351766752
 20
10.3884863029
 30
0.0
 10
6.8519997958
 20
10.3716642252
 30
0.0
  0
SPLINE
  5
3B9
100
AcDbEntity
  8
0
100
AcDbSpline
 62
7
  6
CONTINUOUS
 70
0
 71
3
 72
11
 73
7
 74
0
 42
0.0000001
 43
0.0000001
 44
0.0000000001
 40
0.0
 40
0.0
 40
0.0
 40
0.0
 40
0.2895273334
 40
0.4992134133
 40
0.7088994931
 40
1.0
 40
1.0
 40
1.0
 40
1.0
 10
14.7848683383
 20
10.4282327676
 30
0.0
 10
14.7848683383
 20
10.4449565302
 30
0.0
 10
14.7874828306
 20
10.4737922415
 30
0.0
 10
14.8269425168
 20
10.4950189264
 30
0.0
 10
14.8659870977
 20
10.4736943342
 30
0.0
 10
14.8698683383
 20
10.4449446009
 30
0.0
 10
14.8698683383
 20
10.4282327676
 30
0.0
  0
SPLINE
  5
3BA
100
AcDbEntity
  8
0
100
AcDbSpline
 62
7
  6
CONTINUOUS
 70
0
 71
3
 72
11
 73
7
 74
0
 42
0.0000001
 43
0.0000001
 44
0.0000000001
 40
0.0
 40
0.0
 40
0.0
 40
0.0
 40
0.2730403189
 40
0.4997214642
 40
0.7263919651
 40
1.0
 40
1.0
 40
1.0
 40
1.0
 10
14.7485683383
 20
10.4282329904
 30
0.0
 10
14.748569031
 20
10.4044421682
 30
0.0
 10
14.7616648548
 20
10.3608998717
 30
0.0
 10
14.8269013808
 20
10.3359378734
 30
0.0
 10
14.8919708336
 20
10.3609535254
 30
0.0
 10
14.9055690958
 20
10.4044459668
 30
0.0
 10
14.9055683383
 20
10.4282325532
 30
0.0
  0
SPLINE
  5
3BB
100
AcDbEntity
  8
0
100
AcDbSpline
 62
7
  6
CONTINUOUS
 70
0
 71
3
 72
11
 73
7
 74
0
 42
0.0000001
 43
0.0000001
 44
0.0000000001
 40
0.0
 40
0.0
 40
0.0
 40
0.0
 40
0.2911005069
 40
0.5007865867
 40
0.7104726666
 40
1.0
 40
1.0
 40
1.0
 40
1.0
 10
14.8698683383
 20
10.4282327676
 30
0.0
 10
14.8698683383
 20
10.4115209344
 30
0.0
 10
14.8659870977
 20
10.3827712011
 30
0.0
 10
14.8269425168
 20
10.3614466089
 30
0.0
 10
14.7874828306
 20
10.3826732938
 30
0.0
 10
14.7848683383
 20
10.4115090051
 30
0.0
 10
14.7848683383
 20
10.4282327676
 30
0.0
  0
SPLINE
  5
3BC
100
AcDbEntity
  8
0
100
AcDbSpline
 62
7
  6
CONTINUOUS
 70
0
 71
3
 72
11
 73
7
 74
0
 42
0.0000001
 43
0.0000001
 44
0.0000000001
 40
0.0
 40
0.0
 40
0.0
 40
0.0
 40
0.2736100635
 40
0.5003111614
 40
0.7269609786
 40
1.0
 40
1.0
 40
1.0
 40
1.0
 10
14.9055683383
 20
10.4282318014
 30
0.0
 10
14.9055677376
 20
10.4520187814
 30
0.0
 10
14.8919658129
 20
10.4955148798
 30
0.0
 10
14.826911812
 20
10.5205275943
 30
0.0
 10
14.7616597535
 20
10.4955630311
 30
0.0
 10
14.7485674936
 20
10.4520231588
 30
0.0
 10
14.7485683383
 20
10.4282322324
 30
0.0
  0
SPLINE
  5
3BD
100
AcDbEntity
  8
0
100
AcDbSpline
 62
7
  6
CONTINUOUS
 70
0
 71
3
 72
28
 73
24
 74
0
 42
0.0000001
 43
0.0000001
 44
0.0000000001
 40
0.0
 40
0.0
 40
0.0
 40
0.0
 40
0.0625983504
 40
0.0939229908
 40
0.1252410496
 40
0.1878367547
 40
0.2504202059
 40
0.3129904368
 40
0.3755399134
 40
0.4068160614
 40
0.4380872114
 40
0.5005946332
 40
0.5630784681
 40
0.5943209408
 40
0.6255577247
 40
0.6879969055
 40
0.7192181698
 40
0.7504349263
 40
0.812837513
 40
0.8752267932
 40
0.9064269167
 40
0.937625204
 40
1.0
 40
1.0
 40
1.0
 40
1.0
 10
10.9085683383
 20
3.232854775
 30
0.0
 10
10.9188040578
 20
3.232854775
 30
0.0
 10
10.9341753254
 20
3.2336039966
 30
0.0
 10
10.9545090445
 20
3.2360842326
 30
0.0
 10
10.9746991186
 20
3.2395509623
 30
0.0
 10
10.9995795799
 20
3.2457171736
 30
0.0
 10
11.0285641201
 20
3.2559784193
 30
0.0
 10
11.0564099566
 20
3.2689992691
 30
0.0
 10
11.078449222
 20
3.2820565934
 30
0.0
 10
11.0952463503
 20
3.2937421711
 30
0.0
 10
11.1114482141
 20
3.3062289491
 30
0.0
 10
11.1305275111
 20
3.3232889058
 30
0.0
 10
11.1478484445
 20
3.3421252372
 30
0.0
 10
11.1605483268
 20
3.3581416926
 30
0.0
 10
11.1724459123
 20
3.3747528262
 30
0.0
 10
11.1831110384
 20
3.3922146186
 30
0.0
 10
11.1924521325
 20
3.4103791948
 30
0.0
 10
11.2008915643
 20
3.4289741277
 30
0.0
 10
11.2097212612
 20
3.4529529814
 30
0.0
 10
11.2161616097
 20
3.4776780366
 30
0.0
 10
11.2198463532
 20
3.4977547108
 30
0.0
 10
11.2225423865
 20
3.5179838387
 30
0.0
 10
11.2234484331
 20
3.5332897384
 30
0.0
 10
11.2235519914
 20
3.5434883778
 30
0.0
  0
LINE
  5
3BE
100
AcDbEntity
  8
0
100
AcDbLine
 62
7
  6
CONTINUOUS
 10
11.2235670555
 20
3.5458565901
 11
11.223568084
 21
3.5466561049
  0
LINE
  5
3BF
100
AcDbEntity
  8
0
100
AcDbLine
 62
7
  6
CONTINUOUS
 10
10.5935685926
 20
3.5466561048
 11
10.5935696282
 21
3.5458505991
  0
LINE
  5
3C0
100
AcDbEntity
  8
0
100
AcDbLine
 62
7
  6
CONTINUOUS
 10
10.5935696282
 20
3.5458505991
 11
10.5935725418
 21
3.5450846769
  0
SPLINE
  5
3C1
100
AcDbEntity
  8
0
100
AcDbSpline
 62
7
  6
CONTINUOUS
 70
0
 71
3
 72
29
 73
25
 74
0
 42
0.0000001
 43
0.0000001
 44
0.0000000001
 40
0.0
 40
0.0
 40
0.0
 40
0.0
 40
0.0623841733
 40
0.1247722314
 40
0.1871682495
 40
0.2183781919
 40
0.2495913889
 40
0.2808082832
 40
0.312029074
 40
0.3432540856
 40
0.3744837708
 40
0.4369416369
 40
0.4994202765
 40
0.530675687
 40
0.5619365943
 40
0.6244587044
 40
0.6557350421
 40
0.6870161135
 40
0.7495771113
 40
0.812157534
 40
0.874750285
 40
0.9373536373
 40
0.9686726503
 40
1.0
 40
1.0
 40
1.0
 40
1.0
 10
10.5935725418
 20
3.5450846769
 30
0.0
 10
10.593620122
 20
3.5356282741
 30
0.0
 10
10.5945754947
 20
3.5167078165
 30
0.0
 10
10.5985724059
 20
3.4885823122
 30
0.0
 10
10.604017451
 20
3.4655344976
 30
0.0
 10
10.6096098791
 20
3.4474536233
 30
0.0
 10
10.6144175053
 20
3.4340926862
 30
0.0
 10
10.6198258612
 20
3.4209619977
 30
0.0
 10
10.6258238014
 20
3.4080879254
 30
0.0
 10
10.632400737
 20
3.3954973144
 30
0.0
 10
10.6419217105
 20
3.3791239989
 30
0.0
 10
10.655200894
 20
3.3594850322
 30
0.0
 10
10.6702062663
 20
3.3411265455
 30
0.0
 10
10.6831665743
 20
3.3272971175
 30
0.0
 10
10.6967439023
 20
3.3140644073
 30
0.0
 10
10.7112083951
 20
3.3017633014
 30
0.0
 10
10.7264541804
 20
3.2904827539
 30
0.0
 10
10.7421996168
 20
3.279899294
 30
0.0
 10
10.7627576665
 20
3.2680143492
 30
0.0
 10
10.7886140613
 20
3.2560371049
 30
0.0
 10
10.8154485336
 20
3.2464312016
 30
0.0
 10
10.8384497456
 20
3.240472218
 30
0.0
 10
10.8571132838
 20
3.2369609031
 30
0.0
 10
10.866519546
 20
3.2356277031
 30
0.0
 10
10.8712351272
 20
3.2350672887
 30
0.0
  0
LINE
  5
3C2
100
AcDbEntity
  8
0
100
AcDbLine
 62
7
  6
CONTINUOUS
 10
10.8712351272
 20
3.2350672887
 11
10.8714399804
 21
3.235043011
  0
SPLINE
  5
3C3
100
AcDbEntity
  8
0
100
AcDbSpline
 62
7
  6
CONTINUOUS
 70
0
 71
3
 72
45
 73
41
 74
0
 42
0.0000001
 43
0.0000001
 44
0.0000000001
 40
0.0
 40
0.0
 40
0.0
 40
0.0
 40
0.0312947931
 40
0.0626046378
 40
0.0782590471
 40
0.0939109564
 40
0.1252054541
 40
0.1564982293
 40
0.1877870649
 40
0.2190702157
 40
0.2503473916
 40
0.2659865044
 40
0.2816240486
 40
0.2972599343
 40
0.3128941582
 40
0.3441521626
 40
0.3597813753
 40
0.3754089539
 40
0.4066538256
 40
0.4378924393
 40
0.4691253699
 40
0.5003530625
 40
0.5315763051
 40
0.5627958054
 40
0.594012489
 40
0.6252272593
 40
0.6564410946
 40
0.6876550156
 40
0.7188699667
 40
0.7500869943
 40
0.7813069263
 40
0.8125307408
 40
0.8281470655
 40
0.8437646086
 40
0.8593835036
 40
0.8750037981
 40
0.9062432115
 40
0.9374889416
 40
0.9687411006
 40
1.0
 40
1.0
 40
1.0
 40
1.0
 10
10.9085683383
 20
3.0786912191
 30
0.0
 10
10.8969709377
 20
3.0786912191
 30
0.0
 10
10.8737619276
 20
3.0795610558
 30
0.0
 10
10.8449144072
 20
3.0828077781
 30
0.0
 10
10.8220326888
 20
3.0866948126
 30
0.0
 10
10.7993180508
 20
3.091433052
 30
0.0
 10
10.771282755
 20
3.0989431585
 30
0.0
 10
10.7384159153
 20
3.1104434816
 30
0.0
 10
10.7065027147
 20
3.124365762
 30
0.0
 10
10.6757275003
 20
3.1406347852
 30
0.0
 10
10.6511672489
 20
3.1560726309
 30
0.0
 10
10.6322619768
 20
3.1694958221
 30
0.0
 10
10.6184698101
 20
3.1800865646
 30
0.0
 10
10.6050854675
 20
3.1911855825
 30
0.0
 10
10.5878133291
 20
3.2066389171
 30
0.0
 10
10.5714232985
 20
3.2230522744
 30
0.0
 10
10.5559985588
 20
3.2403436569
 30
0.0
 10
10.5412373273
 20
3.2581990752
 30
0.0
 10
10.5240593379
 20
3.2815346136
 30
0.0
 10
10.5056130005
 20
3.3109985619
 30
0.0
 10
10.4894321551
 20
3.3417588638
 30
0.0
 10
10.4756125394
 20
3.3736433672
 30
0.0
 10
10.4642277657
 20
3.4064709677
 30
0.0
 10
10.4553470307
 20
3.440058352
 30
0.0
 10
10.4490151671
 20
3.4742149177
 30
0.0
 10
10.4452736486
 20
3.5087492333
 30
0.0
 10
10.4441377686
 20
3.5434660361
 30
0.0
 10
10.4456197775
 20
3.5781698783
 30
0.0
 10
10.4497056624
 20
3.6126653107
 30
0.0
 10
10.4563776888
 20
3.646757636
 30
0.0
 10
10.4655928457
 20
3.6802545169
 30
0.0
 10
10.4753534648
 20
3.7075176854
 30
0.0
 10
10.484371622
 20
3.728839348
 30
0.0
 10
10.4917343185
 20
3.7445686473
 30
0.0
 10
10.4996839845
 20
3.7600112205
 30
0.0
 10
10.5110487626
 20
3.7801889829
 30
0.0
 10
10.5266682761
 20
3.80459281
 30
0.0
 10
10.5475575066
 20
3.8323883638
 30
0.0
 10
10.5704770114
 20
3.8585433053
 30
0.0
 10
10.5870264972
 20
3.8747899484
 30
0.0
 10
10.5955911624
 20
3.8825898111
 30
0.0
  0
SPLINE
  5
3C4
100
AcDbEntity
  8
0
100
AcDbSpline
 62
7
  6
CONTINUOUS
 70
0
 71
3
 72
45
 73
41
 74
0
 42
0.0000001
 43
0.0000001
 44
0.0000000001
 40
0.0
 40
0.0
 40
0.0
 40
0.0
 40
0.0312588867
 40
0.0625110331
 40
0.0937567507
 40
0.1249961524
 40
0.1406164414
 40
0.1562353308
 40
0.1718528687
 40
0.1874691887
 40
0.2186929943
 40
0.2499129191
 40
0.2811299405
 40
0.3123448874
 40
0.3435588051
 40
0.3747726396
 40
0.4059874099
 40
0.4372040957
 40
0.4684235989
 40
0.4996468463
 40
0.5308745444
 40
0.5621074821
 40
0.5933461032
 40
0.6245909832
 40
0.6402185659
 40
0.6558477829
 40
0.687105796
 40
0.7027400241
 40
0.718375914
 40
0.7340134623
 40
0.749652579
 40
0.7809297625
 40
0.8122129203
 40
0.843501762
 40
0.8747945415
 40
0.9060890426
 40
0.9217409533
 40
0.9373953638
 40
0.9687052087
 40
1.0
 40
1.0
 40
1.0
 40
1.0
 10
11.2215466513
 20
3.8825887744
 30
0.0
 10
11.2301112753
 20
3.8747888972
 30
0.0
 10
11.2466606818
 20
3.8585422325
 30
0.0
 10
11.2695800582
 20
3.8323872615
 30
0.0
 10
11.2904691752
 20
3.8045916996
 30
0.0
 10
11.3060885849
 20
3.7801878667
 30
0.0
 10
11.3174532908
 20
3.7600101103
 30
0.0
 10
11.3254029033
 20
3.7445675434
 30
0.0
 10
11.3327655412
 20
3.7288382493
 30
0.0
 10
11.3417836289
 20
3.7075165999
 30
0.0
 10
11.3515441698
 20
3.680253454
 30
0.0
 10
11.3607592254
 20
3.6467566038
 30
0.0
 10
11.3674311721
 20
3.6126643187
 30
0.0
 10
11.3715169718
 20
3.5781689298
 30
0.0
 10
11.3729989129
 20
3.5434651361
 30
0.0
 10
11.3718629665
 20
3.5087483851
 30
0.0
 10
11.3681213911
 20
3.4742141237
 30
0.0
 10
11.3617894802
 20
3.4400576136
 30
0.0
 10
11.3529086993
 20
3.4064702875
 30
0.0
 10
11.3415238957
 20
3.3736427431
 30
0.0
 10
11.3277042461
 20
3.3417582999
 30
0.0
 10
11.3115233854
 20
3.310998052
 30
0.0
 10
11.2930770271
 20
3.2815341636
 30
0.0
 10
11.2758990347
 20
3.2581986683
 30
0.0
 10
11.2611378001
 20
3.2403432859
 30
0.0
 10
11.2457130567
 20
3.2230519414
 30
0.0
 10
11.2293230319
 20
3.2066386148
 30
0.0
 10
11.2120508973
 20
3.1911853144
 30
0.0
 10
11.1986665591
 20
3.1800863216
 30
0.0
 10
11.1848744
 20
3.1694956013
 30
0.0
 10
11.1659691397
 20
3.1560724389
 30
0.0
 10
11.141408904
 20
3.140634631
 30
0.0
 10
11.1106337165
 20
3.1243656437
 30
0.0
 10
11.0787205457
 20
3.1104433995
 30
0.0
 10
11.0458537422
 20
3.0989431036
 30
0.0
 10
11.017818479
 20
3.0914330175
 30
0.0
 10
10.995103869
 20
3.0866947905
 30
0.0
 10
10.9722221803
 20
3.0828077666
 30
0.0
 10
10.9433746995
 20
3.0795610533
 30
0.0
 10
10.9201657222
 20
3.0786912191
 30
0.0
 10
10.9085683383
 20
3.0786912191
 30
0.0
  0
LINE
  5
3C5
100
AcDbEntity
  8
0
100
AcDbLine
 62
7
  6
CONTINUOUS
 10
11.221388028
 20
3.5178288114
 11
11.2214022401
 21
3.5180445502
  0
LINE
  5
3C6
100
AcDbEntity
  8
0
100
AcDbLine
 62
7
  6
CONTINUOUS
 10
11.2220658513
 20
3.5371347987
 11
11.2220675978
 21
3.5376988695
  0
LINE
  5
3C7
100
AcDbEntity
  8
0
100
AcDbLine
 62
7
  6
CONTINUOUS
 10
11.2220675978
 20
3.5376988695
 11
11.2220683383
 21
3.5383763093
  0
LINE
  5
3C8
100
AcDbEntity
  8
0
100
AcDbLine
 62
7
  6
CONTINUOUS
 10
11.2220610526
 20
3.5405014039
 11
11.2220566711
 21
3.5410656418
  0
LINE
  5
3C9
100
AcDbEntity
  8
0
100
AcDbLine
 62
7
  6
CONTINUOUS
 10
11.2219724191
 20
3.5460895917
 11
11.2219619368
 21
3.5465002867
  0
LINE
  5
3CA
100
AcDbEntity
  8
0
100
AcDbLine
 62
7
  6
CONTINUOUS
 10
10.5951747398
 20
3.5465002866
 11
10.5951642541
 21
3.5460894571
  0
LINE
  5
3CB
100
AcDbEntity
  8
0
100
AcDbLine
 62
7
  6
CONTINUOUS
 10
10.5951642541
 20
3.5460894571
 11
10.5951461148
 21
3.5453216672
  0
LINE
  5
3CC
100
AcDbEntity
  8
0
100
AcDbLine
 62
7
  6
CONTINUOUS
 10
10.5950980966
 20
3.5426717761
 11
10.5950907613
 21
3.5421048384
  0
LINE
  5
3CD
100
AcDbEntity
  8
0
100
AcDbLine
 62
7
  6
CONTINUOUS
 10
10.5950702336
 20
3.53946012
 11
10.5950687715
 21
3.5388944282
  0
LINE
  5
3CE
100
AcDbEntity
  8
0
100
AcDbLine
 62
7
  6
CONTINUOUS
 10
10.5950687715
 20
3.5388944282
 11
10.5950683383
 21
3.5383763093
  0
LINE
  5
3CF
100
AcDbEntity
  8
0
100
AcDbLine
 62
7
  6
CONTINUOUS
 10
10.5950683383
 20
3.5383763093
 11
10.5950684638
 21
3.5380973817
  0
SPLINE
  5
3D0
100
AcDbEntity
  8
0
100
AcDbSpline
 62
9
  6
CONTINUOUS
 70
0
 71
3
 72
38
 73
34
 74
0
 42
0.0000001
 43
0.0000001
 44
0.0000000001
 40
0.0
 40
0.0
 40
0.0
 40
0.0
 40
0.0313160084
 40
0.0626478503
 40
0.0939716319
 40
0.1252873134
 40
0.1878701584
 40
0.2504280921
 40
0.281715205
 40
0.312994565
 40
0.3442656249
 40
0.3755283387
 40
0.40678267
 40
0.4380289444
 40
0.4692674094
 40
0.5004987264
 40
0.5317234516
 40
0.5629425263
 40
0.5941567273
 40
0.625367195
 40
0.6565748445
 40
0.6877809531
 40
0.7189865255
 40
0.750192894
 40
0.7814010569
 40
0.8126122971
 40
0.8438275038
 40
0.8594393929
 40
0.8750526514
 40
0.9062788082
 40
0.9375117399
 40
0.9687519171
 40
1.0
 40
1.0
 40
1.0
 40
1.0
 10
10.9085683383
 20
3.1471820309
 30
0.0
 10
10.8991930718
 20
3.1471820309
 30
0.0
 10
10.8804312237
 20
3.1478396145
 30
0.0
 10
10.85243123
 20
3.1507840365
 30
0.0
 10
10.8247032727
 20
3.1556809908
 30
0.0
 10
10.7883066593
 20
3.1647685224
 30
0.0
 10
10.7441466279
 20
3.1808657924
 30
0.0
 10
10.702674408
 20
3.2029681314
 30
0.0
 10
10.6716261321
 20
3.2239709531
 30
0.0
 10
10.6494960384
 20
3.2413148504
 30
0.0
 10
10.6286436446
 20
3.2601628825
 30
0.0
 10
10.6091673378
 20
3.2804197963
 30
0.0
 10
10.5911663076
 20
3.3019885562
 30
0.0
 10
10.5747260553
 20
3.3247604847
 30
0.0
 10
10.5599305762
 20
3.3486257407
 30
0.0
 10
10.5468496858
 20
3.3734649298
 30
0.0
 10
10.5355507525
 20
3.3991574265
 30
0.0
 10
10.5260864993
 20
3.4255754303
 30
0.0
 10
10.5185063319
 20
3.4525899739
 30
0.0
 10
10.5128449124
 20
3.4800672541
 30
0.0
 10
10.5091326107
 20
3.5078725837
 30
0.0
 10
10.5073854257
 20
3.535868694
 30
0.0
 10
10.5076140145
 20
3.5639179783
 30
0.0
 10
10.5098154325
 20
3.5918822329
 30
0.0
 10
10.5139804383
 20
3.6196239757
 30
0.0
 10
10.5200870415
 20
3.6470059008
 30
0.0
 10
10.5267702213
 20
3.6694143372
 30
0.0
 10
10.5330520963
 20
3.6870238858
 30
0.0
 10
10.5399497644
 20
3.7044050115
 30
0.0
 10
10.5497147256
 20
3.7256634319
 30
0.0
 10
10.5631971125
 20
3.7502883371
 30
0.0
 10
10.5783787848
 20
3.773910477
 30
0.0
 10
10.5895845048
 20
3.7889132131
 30
0.0
 10
10.5954419491
 20
3.7962073947
 30
0.0
  0
SPLINE
  5
3D1
100
AcDbEntity
  8
0
100
AcDbSpline
 62
9
  6
CONTINUOUS
 70
0
 71
3
 72
38
 73
34
 74
0
 42
0.0000001
 43
0.0000001
 44
0.0000000001
 40
0.0
 40
0.0
 40
0.0
 40
0.0
 40
0.0312481095
 40
0.0624882868
 40
0.0937211994
 40
0.1249473321
 40
0.1405605803
 40
0.15617246
 40
0.187387656
 40
0.2185988943
 40
0.2498070555
 40
0.2810134175
 40
0.3122189719
 40
0.3434250515
 40
0.3746326643
 40
0.4058430954
 40
0.4370572648
 40
0.4682763191
 40
0.4995010275
 40
0.5307323269
 40
0.5619707561
 40
0.59321697
 40
0.6244712128
 40
0.6557338225
 40
0.6870047821
 40
0.7182840718
 40
0.7495711513
 40
0.8121291893
 40
0.8747122207
 40
0.9060280292
 40
0.93735199
 40
0.968683965
 40
1.0
 40
1.0
 40
1.0
 40
1.0
 10
11.2217046541
 20
3.796195031
 30
0.0
 10
11.227561712
 20
3.7889007406
 30
0.0
 10
11.2387666722
 20
3.7738978393
 30
0.0
 10
11.2539471492
 20
3.7502755189
 30
0.0
 10
11.2674284226
 20
3.7256505848
 30
0.0
 10
11.2771924213
 20
3.7043921946
 30
0.0
 10
11.2840893753
 20
3.6870111554
 30
0.0
 10
11.2903705541
 20
3.669401718
 30
0.0
 10
11.2970528439
 20
3.6469934551
 30
0.0
 10
11.3031585088
 20
3.6196118332
 30
0.0
 10
11.3073225615
 20
3.5918704518
 30
0.0
 10
11.3095231583
 20
3.563906638
 30
0.0
 10
11.3097509281
 20
3.5358578589
 30
0.0
 10
11.3080030643
 20
3.507862313
 30
0.0
 10
11.3042900957
 20
3.4800576038
 30
0.0
 10
11.2986281589
 20
3.4525809687
 30
0.0
 10
11.2910474877
 20
3.4255671093
 30
0.0
 10
11.2815828778
 20
3.3991497823
 30
0.0
 10
11.2702836075
 20
3.3734579937
 30
0.0
 10
11.2572025203
 20
3.348619493
 30
0.0
 10
11.2424068805
 20
3.324754961
 30
0.0
 10
11.2259666122
 20
3.3019837246
 30
0.0
 10
11.2079656064
 20
3.2804156905
 30
0.0
 10
11.1884894668
 20
3.2601594269
 30
0.0
 10
11.1676372531
 20
3.2413120594
 30
0.0
 10
11.1455074453
 20
3.2239687034
 30
0.0
 10
11.1144595115
 20
3.2029665558
 30
0.0
 10
11.0729878108
 20
3.1808648603
 30
0.0
 10
11.0288283721
 20
3.1647680299
 30
0.0
 10
10.9924322262
 20
3.1556807525
 30
0.0
 10
10.9647046164
 20
3.1507839335
 30
0.0
 10
10.9367050114
 20
3.1478396049
 30
0.0
 10
10.9179434473
 20
3.1471820309
 30
0.0
 10
10.9085683383
 20
3.1471820309
 30
0.0
  0
SPLINE
  5
3D2
100
AcDbEntity
  8
0
100
AcDbSpline
 62
7
  6
CONTINUOUS
 70
0
 71
3
 72
13
 73
9
 74
0
 42
0.0000001
 43
0.0000001
 44
0.0000000001
 40
0.0
 40
0.0
 40
0.0
 40
0.0
 40
0.2500186605
 40
0.3750910004
 40
0.500140214
 40
0.6251712691
 40
0.750190098
 40
1.0
 40
1.0
 40
1.0
 40
1.0
 10
11.1550694751
 20
3.3519620143
 30
0.0
 10
11.1655152102
 20
3.3653473431
 30
0.0
 10
11.179578458
 20
3.3867649763
 30
0.0
 10
11.1946219499
 20
3.4172451135
 30
0.0
 10
11.2040026618
 20
3.4409643544
 30
0.0
 10
11.2114182168
 20
3.4653657379
 30
0.0
 10
11.2186018656
 20
3.4985688321
 30
0.0
 10
11.2209134084
 20
3.5240690281
 30
0.0
 10
11.2210571956
 20
3.5410330643
 30
0.0
  0
SPLINE
  5
3D3
100
AcDbEntity
  8
0
100
AcDbSpline
 62
7
  6
CONTINUOUS
 70
0
 71
3
 72
21
 73
17
 74
0
 42
0.0000001
 43
0.0000001
 44
0.0000000001
 40
0.0
 40
0.0
 40
0.0
 40
0.0
 40
0.062376444
 40
0.1247598954
 40
0.1871563438
 40
0.2495649341
 40
0.3743017873
 40
0.4367669503
 40
0.499260538
 40
0.5617819516
 40
0.624332053
 40
0.6869064678
 40
0.7494993913
 40
0.8121209728
 40
0.8747876566
 40
1.0
 40
1.0
 40
1.0
 40
1.0
 10
10.5960864042
 20
3.5420637211
 30
0.0
 10
10.596183634
 20
3.5327669781
 30
0.0
 10
10.5972161727
 20
3.5141701639
 30
0.0
 10
10.6012718061
 20
3.4865348305
 30
0.0
 10
10.607808231
 20
3.4593688686
 30
0.0
 10
10.6197305459
 20
3.4240971315
 30
0.0
 10
10.6364073841
 20
3.3905690782
 30
0.0
 10
10.6573373459
 20
3.3597491521
 30
0.0
 10
10.6750743694
 20
3.338104092
 30
0.0
 10
10.6946871791
 20
3.3181292537
 30
0.0
 10
10.7160286416
 20
3.2999934888
 30
0.0
 10
10.7389134183
 20
3.2838305659
 30
0.0
 10
10.7631642374
 20
3.2697805683
 30
0.0
 10
10.7885914787
 20
3.2579503809
 30
0.0
 10
10.8237508496
 20
3.2452845044
 30
0.0
 10
10.8513238614
 20
3.2393680419
 30
0.0
 10
10.8698477815
 20
3.2370939724
 30
0.0
  0
SPLINE
  5
3D4
100
AcDbEntity
  8
0
100
AcDbSpline
 62
9
  6
CONTINUOUS
 70
0
 71
3
 72
27
 73
23
 74
0
 42
0.0000001
 43
0.0000001
 44
0.0000000001
 40
0.0
 40
0.0
 40
0.0
 40
0.0
 40
0.0876026868
 40
0.1745851632
 40
0.2600666251
 40
0.3433109329
 40
0.4236685718
 40
0.5005130942
 40
0.5732465191
 40
0.641327635
 40
0.7043273725
 40
0.7338120379
 40
0.7619084168
 40
0.8138610755
 40
0.860168563
 40
0.9010711345
 40
0.9196859512
 40
0.9372093588
 40
0.9537950705
 40
0.9696347367
 40
0.984952401
 40
1.0
 40
1.0
 40
1.0
 40
1.0
 10
10.9085683383
 20
5.2427265411
 30
0.0
 10
10.9187716762
 20
5.2427265411
 30
0.0
 10
10.9391077351
 20
5.2423840422
 30
0.0
 10
10.9693655681
 20
5.24085839
 30
0.0
 10
10.9990472165
 20
5.2383273151
 30
0.0
 10
11.0278524018
 20
5.2348185219
 30
0.0
 10
11.0555093314
 20
5.2303666635
 30
0.0
 10
11.0817587268
 20
5.2250139599
 30
0.0
 10
11.106351459
 20
5.2188167819
 30
0.0
 10
11.1290498722
 20
5.2118271185
 30
0.0
 10
11.1465793784
 20
5.2052688538
 30
0.0
 10
11.1594507444
 20
5.1996414395
 30
0.0
 10
11.1709334175
 20
5.1940770661
 30
0.0
 10
11.1837744441
 20
5.1868382144
 30
0.0
 10
11.1970046403
 20
5.1774155794
 30
0.0
 10
11.2060372172
 20
5.1689471454
 30
0.0
 10
11.2117118392
 20
5.161980285
 30
0.0
 10
11.2151041404
 20
5.156847559
 30
0.0
 10
11.21775667
 20
5.1516548116
 30
0.0
 10
11.2196617781
 20
5.1464138892
 30
0.0
 10
11.2208108891
 20
5.1411396742
 30
0.0
 10
11.2210683383
 20
5.1375978836
 30
0.0
 10
11.2210683383
 20
5.1358452463
 30
0.0
  0
SPLINE
  5
3D5
100
AcDbEntity
  8
0
100
AcDbSpline
 62
9
  6
CONTINUOUS
 70
0
 71
3
 72
9
 73
5
 74
0
 42
0.0000001
 43
0.0000001
 44
0.0000000001
 40
0.0
 40
0.0
 40
0.0
 40
0.0
 40
0.4999023987
 40
1.0
 40
1.0
 40
1.0
 40
1.0
 10
10.8714096012
 20
3.236906229
 30
0.0
 10
10.8775709575
 20
3.2361712476
 30
0.0
 10
10.8899471508
 20
3.2351194486
 30
0.0
 10
10.9023608763
 20
3.2347351715
 30
0.0
 10
10.9085683383
 20
3.2347351715
 30
0.0
  0
SPLINE
  5
3D6
100
AcDbEntity
  8
0
100
AcDbSpline
 62
7
  6
CONTINUOUS
 70
0
 71
3
 72
12
 73
8
 74
0
 42
0.0000001
 43
0.0000001
 44
0.0000000001
 40
0.0
 40
0.0
 40
0.0
 40
0.0
 40
0.2498366782
 40
0.4997332453
 40
0.6247940522
 40
0.7498820011
 40
1.0
 40
1.0
 40
1.0
 40
1.0
 10
10.5960926389
 20
3.5388384134
 30
0.0
 10
10.596272611
 20
3.5241825777
 30
0.0
 10
10.5987186773
 20
3.4948521427
 30
0.0
 10
10.6069617364
 20
3.4590055341
 30
0.0
 10
10.6165417768
 20
3.4312538446
 30
0.0
 10
10.6280775318
 20
3.4042481672
 30
0.0
 10
10.6388741352
 20
3.3849542995
 30
0.0
 10
10.6469306151
 20
3.3726904048
 30
0.0
  0
SPLINE
  5
3D7
100
AcDbEntity
  8
0
100
AcDbSpline
 62
9
  6
CONTINUOUS
 70
0
 71
3
 72
21
 73
17
 74
0
 42
0.0000001
 43
0.0000001
 44
0.0000000001
 40
0.0
 40
0.0
 40
0.0
 40
0.0
 40
0.1246548323
 40
0.2493458918
 40
0.3117889568
 40
0.3742525588
 40
0.4367365678
 40
0.4992436985
 40
0.5617749774
 40
0.6243306957
 40
0.6869059317
 40
0.7494906972
 40
0.812095878
 40
0.874743461
 40
0.937413538
 40
1.0
 40
1.0
 40
1.0
 40
1.0
 10
11.2210593767
 20
3.5436930509
 30
0.0
 10
11.2209051819
 20
3.5234477923
 30
0.0
 10
11.2166106037
 20
3.4828762362
 30
0.0
 10
11.2014460571
 20
3.4342063908
 30
0.0
 10
11.1838347875
 20
3.3976319302
 30
0.0
 10
11.1679864149
 20
3.3715897473
 30
0.0
 10
11.1496699024
 20
3.3472100217
 30
0.0
 10
11.1290466653
 20
3.3247324051
 30
0.0
 10
11.1063274628
 20
3.3043583795
 30
0.0
 10
11.0817147531
 20
3.28629853
 30
0.0
 10
11.0554576136
 20
3.2707097309
 30
0.0
 10
11.0277994224
 20
3.2577488146
 30
0.0
 10
10.9990007521
 20
3.2475365199
 30
0.0
 10
10.9693304338
 20
3.2401716666
 30
0.0
 10
10.9390903452
 20
3.2357328484
 30
0.0
 10
10.9187333342
 20
3.2347351715
 30
0.0
 10
10.9085683383
 20
3.2347351715
 30
0.0
  0
SPLINE
  5
3D8
100
AcDbEntity
  8
0
100
AcDbSpline
 62
9
  6
CONTINUOUS
 70
0
 71
3
 72
27
 73
23
 74
0
 42
0.0000001
 43
0.0000001
 44
0.0000000001
 40
0.0
 40
0.0
 40
0.0
 40
0.0
 40
0.015047599
 40
0.0303652633
 40
0.0462049295
 40
0.0627906412
 40
0.0803140488
 40
0.0989288655
 40
0.139831437
 40
0.1861389245
 40
0.2380915832
 40
0.2661879621
 40
0.2956726275
 40
0.358672365
 40
0.4267534809
 40
0.4994869058
 40
0.5763314282
 40
0.6566890671
 40
0.7399333749
 40
0.8254148368
 40
0.9123973132
 40
1.0
 40
1.0
 40
1.0
 40
1.0
 10
10.5960683383
 20
5.1358452463
 30
0.0
 10
10.5960683383
 20
5.1375978836
 30
0.0
 10
10.5963257875
 20
5.1411396742
 30
0.0
 10
10.5974748985
 20
5.1464138892
 30
0.0
 10
10.5993800066
 20
5.1516548116
 30
0.0
 10
10.6020325362
 20
5.156847559
 30
0.0
 10
10.6054248373
 20
5.161980285
 30
0.0
 10
10.6110994594
 20
5.1689471454
 30
0.0
 10
10.6201320363
 20
5.1774155794
 30
0.0
 10
10.6333622325
 20
5.1868382144
 30
0.0
 10
10.646203259
 20
5.1940770661
 30
0.0
 10
10.6576859322
 20
5.1996414395
 30
0.0
 10
10.6705572982
 20
5.2052688538
 30
0.0
 10
10.6880868043
 20
5.2118271185
 30
0.0
 10
10.7107852176
 20
5.2188167819
 30
0.0
 10
10.7353779498
 20
5.2250139599
 30
0.0
 10
10.7616273452
 20
5.2303666635
 30
0.0
 10
10.7892842748
 20
5.2348185219
 30
0.0
 10
10.81808946
 20
5.2383273151
 30
0.0
 10
10.8477711085
 20
5.24085839
 30
0.0
 10
10.8780289415
 20
5.2423840422
 30
0.0
 10
10.8983650004
 20
5.2427265411
 30
0.0
 10
10.9085683383
 20
5.2427265411
 30
0.0
  0
SPLINE
  5
3D9
100
AcDbEntity
  8
0
100
AcDbSpline
 62
9
  6
CONTINUOUS
 70
0
 71
3
 72
21
 73
17
 74
0
 42
0.0000001
 43
0.0000001
 44
0.0000000001
 40
0.0
 40
0.0
 40
0.0
 40
0.0
 40
0.0624077137
 40
0.1248189622
 40
0.1872391293
 40
0.2496703305
 40
0.3744524584
 40
0.4369323975
 40
0.4994334205
 40
0.5619568144
 40
0.6245039243
 40
0.6870675456
 40
0.7496415659
 40
0.8122399705
 40
0.8748816367
 40
1.0
 40
1.0
 40
1.0
 40
1.0
 10
10.5960953295
 20
3.5420660036
 30
0.0
 10
10.5962155929
 20
3.5327373289
 30
0.0
 10
10.5972968777
 20
3.5140791677
 30
0.0
 10
10.6014350372
 20
3.4863599327
 30
0.0
 10
10.6080601409
 20
3.4591188759
 30
0.0
 10
10.6201108986
 20
3.4237598938
 30
0.0
 10
10.6369245911
 20
3.3901622177
 30
0.0
 10
10.6580013618
 20
3.3592965325
 30
0.0
 10
10.6758487289
 20
3.3376301611
 30
0.0
 10
10.6955739797
 20
3.3176482895
 30
0.0
 10
10.7170256379
 20
3.2995170883
 30
0.0
 10
10.7400180707
 20
3.2833712708
 30
0.0
 10
10.7643742115
 20
3.2693534473
 30
0.0
 10
10.7899018929
 20
3.2575661957
 30
0.0
 10
10.8251824793
 20
3.2449744572
 30
0.0
 10
10.8528370946
 20
3.2391217225
 30
0.0
 10
10.8714096057
 20
3.2369062284
 30
0.0
  0
SPLINE
  5
3DA
100
AcDbEntity
  8
0
100
AcDbSpline
 62
9
  6
CONTINUOUS
 70
0
 71
3
 72
27
 73
23
 74
0
 42
0.0000001
 43
0.0000001
 44
0.0000000001
 40
0.0
 40
0.0
 40
0.0
 40
0.0
 40
0.0876026868
 40
0.1745851632
 40
0.2600666251
 40
0.3433109329
 40
0.4236685718
 40
0.5005130942
 40
0.5732465191
 40
0.641327635
 40
0.7043273725
 40
0.7338120379
 40
0.7619084168
 40
0.8138610755
 40
0.860168563
 40
0.9010711345
 40
0.9196859512
 40
0.9372093588
 40
0.9537950705
 40
0.9696347367
 40
0.984952401
 40
1.0
 40
1.0
 40
1.0
 40
1.0
 10
10.9085683383
 20
6.7393040513
 30
0.0
 10
10.8983650004
 20
6.7393040513
 30
0.0
 10
10.8780289415
 20
6.7389615524
 30
0.0
 10
10.8477711085
 20
6.7374359002
 30
0.0
 10
10.81808946
 20
6.7349048253
 30
0.0
 10
10.7892842748
 20
6.7313960321
 30
0.0
 10
10.7616273452
 20
6.7269441737
 30
0.0
 10
10.7353779498
 20
6.7215914701
 30
0.0
 10
10.7107852176
 20
6.7153942921
 30
0.0
 10
10.6880868043
 20
6.7084046287
 30
0.0
 10
10.6705572982
 20
6.701846364
 30
0.0
 10
10.6576859322
 20
6.6962189497
 30
0.0
 10
10.646203259
 20
6.6906545763
 30
0.0
 10
10.6333622325
 20
6.6834157246
 30
0.0
 10
10.6201320363
 20
6.6739930896
 30
0.0
 10
10.6110994594
 20
6.6655246556
 30
0.0
 10
10.6054248373
 20
6.6585577952
 30
0.0
 10
10.6020325362
 20
6.6534250692
 30
0.0
 10
10.5993800066
 20
6.6482323218
 30
0.0
 10
10.5974748985
 20
6.6429913994
 30
0.0
 10
10.5963257875
 20
6.6377171844
 30
0.0
 10
10.5960683383
 20
6.6341753938
 30
0.0
 10
10.5960683383
 20
6.6324227565
 30
0.0
  0
SPLINE
  5
3DB
100
AcDbEntity
  8
0
100
AcDbSpline
 62
9
  6
CONTINUOUS
 70
0
 71
3
 72
27
 73
23
 74
0
 42
0.0000001
 43
0.0000001
 44
0.0000000001
 40
0.0
 40
0.0
 40
0.0
 40
0.0
 40
0.015047599
 40
0.0303652633
 40
0.0462049295
 40
0.0627906412
 40
0.0803140488
 40
0.0989288655
 40
0.139831437
 40
0.1861389245
 40
0.2380915832
 40
0.2661879621
 40
0.2956726275
 40
0.358672365
 40
0.4267534809
 40
0.4994869058
 40
0.5763314282
 40
0.6566890671
 40
0.7399333749
 40
0.8254148368
 40
0.9123973132
 40
1.0
 40
1.0
 40
1.0
 40
1.0
 10
11.2210683383
 20
6.6324227565
 30
0.0
 10
11.2210683383
 20
6.6341753938
 30
0.0
 10
11.2208108891
 20
6.6377171844
 30
0.0
 10
11.2196617781
 20
6.6429913994
 30
0.0
 10
11.21775667
 20
6.6482323218
 30
0.0
 10
11.2151041404
 20
6.6534250692
 30
0.0
 10
11.2117118392
 20
6.6585577952
 30
0.0
 10
11.2060372172
 20
6.6655246556
 30
0.0
 10
11.1970046403
 20
6.6739930896
 30
0.0
 10
11.1837744441
 20
6.6834157246
 30
0.0
 10
11.1709334175
 20
6.6906545763
 30
0.0
 10
11.1594507444
 20
6.6962189497
 30
0.0
 10
11.1465793784
 20
6.701846364
 30
0.0
 10
11.1290498722
 20
6.7084046287
 30
0.0
 10
11.106351459
 20
6.7153942921
 30
0.0
 10
11.0817587268
 20
6.7215914701
 30
0.0
 10
11.0555093314
 20
6.7269441737
 30
0.0
 10
11.0278524018
 20
6.7313960321
 30
0.0
 10
10.9990472165
 20
6.7349048253
 30
0.0
 10
10.9693655681
 20
6.7374359002
 30
0.0
 10
10.9391077351
 20
6.7389615524
 30
0.0
 10
10.9187716762
 20
6.7393040513
 30
0.0
 10
10.9085683383
 20
6.7393040513
 30
0.0
  0
ENDSEC
  0
SECTION
  2
OBJECTS
  0
DICTIONARY
  5
C
100
AcDbDictionary
280
0
281
1
  3
ACAD_GROUP
350
D
  3
ACAD_MLINESTYLE
350
17
  3
ACAD_LAYOUT
350
1A
  3
ACAD_PLOTSETTINGS
350
19
  3
ACAD_PLOTSTYLENAME
350
E
  0
DICTIONARY
  5
D
102
{ACAD_REACTORS
330
C
102
}
100
AcDbDictionary
280
0
281
1
  0
ACDBDICTIONARYWDFLT
  5
E
102
{ACAD_REACTORS
330
C
102
}
100
AcDbDictionary
281
1
  3
Normal
350
F
100
AcDbDictionaryWithDefault
340
F
  0
DICTIONARY
  5
17
102
{ACAD_REACTORS
330
C
102
}
100
AcDbDictionary
280
0
281
1
  3
Standard
350
18
  0
DICTIONARY
  5
19
102
{ACAD_REACTORS
330
C
102
}
100
AcDbDictionary
281
1
  0
DICTIONARY
  5
1A
102
{ACAD_REACTORS
330
C
102
}
100
AcDbDictionary
281
1
  3
Model
350
3DC
  3
Layout1
350
3DD
  0
ACDBPLACEHOLDER
  5
F
102
{ACAD_REACTORS
330
E
102
}
  0
MLINESTYLE
  5
18
102
{ACAD_REACTORS
330
17
102
}
100
AcDbMlineStyle
  2
STANDARD
 70
0
  3

 62
256
 51
90.0
 52
90.0
 71
2
 49
0.5
 62
256
  6
BYLAYER
 49
-0.5
 62
256
  6
BYLAYER
  0
LAYOUT
  5
3DC
102
{ACAD_REACTORS
330
1A
102
}
100
AcDbPlotSettings
  1

  2
none_device
  4
ANSI_C_(22.00_x_17.00_Inches)
  6

 40
0.0
 41
0.0
 42
0.0
 43
0.0
 44
558.8
 45
431.8
 46
0.0
 47
0.0
 48
0.0
 49
0.0
140
0.0
141
0.0
142
1.0
143
1.0
 70
1024
 72
0
 73
0
 74
0
  7

 75
0
147
1.0
148
0.0
149
0.0
100
AcDbLayout
  1
Model
 70
0
 71
0
 10
0.0
 20
0.0
 11
22.0
 21
17.0
 12
0.0
 22
0.0
 32
0.0
 14
0.0
 24
0.0
 34
0.0
 15
0.0
 25
0.0
 35
0.0
146
0.0
 13
0.0
 23
0.0
 33
0.0
 16
1.0
 26
0.0
 36
0.0
 17
0.0
 27
1.0
 37
0.0
 76
0
330
202
345
0
346
0
  0
LAYOUT
  5
3DD
102
{ACAD_REACTORS
330
1A
102
}
100
AcDbPlotSettings
  1

  2
none_device
  4
ANSI_C_(22.00_x_17.00_Inches)
  6

 40
0.0
 41
0.0
 42
0.0
 43
0.0
 44
558.8
 45
431.8
 46
0.0
 47
0.0
 48
0.0
 49
0.0
140
0.0
141
0.0
142
1.0
143
1.0
 70
0
 72
0
 73
0
 74
0
  7

 75
0
147
1.0
148
0.0
149
0.0
100
AcDbLayout
  1
Layout1
 70
0
 71
1
 10
0.0
 20
0.0
 11
22.0
 21
17.0
 12
0.0
 22
0.0
 32
0.0
 14
0.0
 24
0.0
 34
0.0
 15
0.0
 25
0.0
 35
0.0
146
0.0
 13
0.0
 23
0.0
 33
0.0
 16
1.0
 26
0.0
 36
0.0
 17
0.0
 27
1.0
 37
0.0
 76
0
330
203
345
0
346
0
  0
ENDSEC
  0
EOF
