  0
SECTION
  2
HEADER
  9
$ACADVER
  1
AC1015
  9
$DWGCODEPAGE
  3
ANSI_1252
  9
$EXTMAX
 10
16.5354330709
 20
11.6929133858
 30
0.0
  9
$EXTMIN
 10
0.0
 20
0.0
 30
0.0
  9
$LIMMIN
 10
0.0
 20
0.0
  9
$LIMMAX
 10
16.5354330709
 20
11.6929133858
  9
$VIEWCTR
 10
8.2677165354
 20
5.8464566929
  9
$VIEWSIZE
 40
11.6929133858
  9
$CLAYER
  8
0
  9
$LTSCALE
 40
0.9094488189
  9
$CELTYPE
  6
BYLAYER
  9
$DIMSCALE
 40
1.0
  9
$DIMASZ
 40
0.1875
  9
$DIMEXO
 40
0.1033464567
  9
$DIMDLI
 40
0.6283464567
  9
$DIMEXE
 40
0.2976377953
  9
$DIMCEN
 40
0.1488188976
  9
$DIMLFAC
 40
1.0
  9
$DIMBLK
  1
_CLOSED
  9
$DIMTXT
 40
0.15625
  9
$DIMTOL
 70
0
  9
$DIMLIM
 70
0
  9
$DIMTFAC
 40
1.0
  9
$PDMODE
 70
3
  9
$PDSIZE
 40
0.3125
  9
$HANDSEED
  5
280
  9
$TILEMODE
 70
1
  9
$MEASUREMENT
 70
0
  9
$INSUNITS
 70
1
  0
ENDSEC
  0
SECTION
  2
CLASSES
  0
CLASS
  1
ACDBDICTIONARYWDFLT
  2
AcDbDictionaryWithDefault
  3
AutoCAD 2000
 90
0
280
0
281
0
  0
CLASS
  1
ACDBPLACEHOLDER
  2
AcDbPlaceHolder
  3
AutoCAD 2000
 90
0
280
0
281
0
  0
CLASS
  1
LAYOUT
  2
AcDbLayout
  3
AutoCAD 2000
 90
0
280
0
281
0
  0
ENDSEC
  0
SECTION
  2
TABLES
  0
TABLE
  2
VPORT
  5
8
100
AcDbSymbolTable
 70
2
  0
VPORT
  5
1F4
100
AcDbSymbolTableRecord
100
AcDbViewportTableRecord
  2
*ACTIVE
 70
0
 10
0.0
 20
0.0
 11
1.0
 21
1.0
 12
8.2677165354
 22
5.8464566929
 13
0.0
 23
0.0
 14
1.0
 24
1.0
 15
0.0
 25
0.0
 16
0.0
 26
0.0
 36
1.0
 17
0.0
 27
0.0
 37
0.0
 40
11.6929133858
 41
1.4141414141
 42
50.0
 43
0.0
 44
0.0
 50
0.0
 51
0.0
 71
0
 72
100
 73
1
 74
1
 75
0
 76
0
 77
0
 78
0
  0
ENDTAB
  0
TABLE
  2
LTYPE
  5
5
100
AcDbSymbolTable
 70
6
  0
LTYPE
  5
14
100
AcDbSymbolTableRecord
100
AcDbLinetypeTableRecord
  2
BYBLOCK
 70
0
  3

 72
65
 73
0
 40
0.0
  0
LTYPE
  5
15
100
AcDbSymbolTableRecord
100
AcDbLinetypeTableRecord
  2
BYLAYER
 70
0
  3

 72
65
 73
0
 40
0.0
  0
LTYPE
  5
16
100
AcDbSymbolTableRecord
100
AcDbLinetypeTableRecord
  2
CONTINUOUS
 70
64
  3
Solid line
 72
65
 73
0
 40
0.0
  0
LTYPE
  5
1F5
100
AcDbSymbolTableRecord
100
AcDbLinetypeTableRecord
  2
CENTER
 70
64
  3
____ _ ____ _ ____ _ ____ _ ____ _ ____ _ ____
 72
65
 73
4
 40
0.6
 49
0.375
 74
0
 49
-0.075
 74
0
 49
0.075
 74
0
 49
-0.075
 74
0
  0
LTYPE
  5
1F6
100
AcDbSymbolTableRecord
100
AcDbLinetypeTableRecord
  2
HIDDEN
 70
64
  3
- - - - - - - - - - - - - - - - - - - -
 72
65
 73
2
 40
0.2
 49
0.1
 74
0
 49
-0.1
 74
0
  0
LTYPE
  5
1F7
100
AcDbSymbolTableRecord
100
AcDbLinetypeTableRecord
  2
PHANTOM
 70
64
  3
_____ _ _ _____ _ _ _____ _ _ _____
 72
65
 73
6
 40
0.8
 49
0.45
 74
0
 49
-0.05
 74
0
 49
0.1
 74
0
 49
-0.05
 74
0
 49
0.1
 74
0
 49
-0.05
 74
0
  0
LTYPE
  5
1F8
100
AcDbSymbolTableRecord
100
AcDbLinetypeTableRecord
  2
DOT
 70
64
  3
. . . . . . . . . . . . . . . . . . . .
 72
65
 73
2
 40
0.2
 49
0.1
 74
0
 49
-0.1
 74
0
  0
LTYPE
  5
1F9
100
AcDbSymbolTableRecord
100
AcDbLinetypeTableRecord
  2
DASHED
 70
64
  3
- - - - - - - - - - - - - - - - - - - -
 72
65
 73
2
 40
0.2
 49
0.1
 74
0
 49
-0.1
 74
0
  0
ENDTAB
  0
TABLE
  2
LAYER
  5
2
100
AcDbSymbolTable
 70
36
  0
LAYER
  5
10
100
AcDbSymbolTableRecord
100
AcDbLayerTableRecord
  2
0
 70
0
 62
7
  6
CONTINUOUS
370
-3
390
F
  0
LAYER
  5
1FA
100
AcDbSymbolTableRecord
100
AcDbLayerTableRecord
  2
DEFAULT_1
 70
0
 62
7
  6
CENTER
370
-3
390
F
  0
LAYER
  5
1FB
100
AcDbSymbolTableRecord
100
AcDbLayerTableRecord
  2
DEFAULT_2
 70
0
 62
8
  6
HIDDEN
370
-3
390
F
  0
LAYER
  5
1FC
100
AcDbSymbolTableRecord
100
AcDbLayerTableRecord
  2
DEFAULT_3
 70
0
 62
7
  6
PHANTOM
370
-3
390
F
  0
LAYER
  5
1FD
100
AcDbSymbolTableRecord
100
AcDbLayerTableRecord
  2
DEFAULT_COORDINATE_SYSTEM
 70
0
 62
7
  6
CONTINUOUS
370
-3
390
F
  0
LAYER
  5
1FE
100
AcDbSymbolTableRecord
100
AcDbLayerTableRecord
  2
DEFAULT_DATUM_AXES
 70
0
 62
7
  6
CONTINUOUS
370
-3
390
F
  0
LAYER
  5
1FF
100
AcDbSymbolTableRecord
100
AcDbLayerTableRecord
  2
DEFAULT_DATUM_CURVES
 70
0
 62
7
  6
CONTINUOUS
370
-3
390
F
  0
LAYER
  5
200
100
AcDbSymbolTableRecord
100
AcDbLayerTableRecord
  2
DEFAULT_DATUM_PLANES
 70
0
 62
7
  6
CONTINUOUS
370
-3
390
F
  0
ENDTAB
  0
TABLE
  2
STYLE
  5
3
100
AcDbSymbolTable
 70
1
  0
STYLE
  5
11
100
AcDbSymbolTableRecord
100
AcDbTextStyleTableRecord
  2
STANDARD
 70
0
 40
0.0
 41
0.8
 50
0.0
 71
0
 42
0.2
  3
txt
  4

  0
STYLE
  5
201
100
AcDbSymbolTableRecord
100
AcDbTextStyleTableRecord
  2
TEXTSTYLE_1
 70
0
 40
0.0
 41
0.8
 50
0.0
 71
0
 42
0.2
  3
gdt
  4

  0
ENDTAB
  0
TABLE
  2
VIEW
  5
6
100
AcDbSymbolTable
 70
0
  0
ENDTAB
  0
TABLE
  2
UCS
  5
7
100
AcDbSymbolTable
 70
0
  0
ENDTAB
  0
TABLE
  2
APPID
  5
9
100
AcDbSymbolTable
 70
1
  0
APPID
  5
202
100
AcDbSymbolTableRecord
100
AcDbRegAppTableRecord
  2
ACAD
 70
0
  0
ENDTAB
  0
TABLE
  2
BLOCK_RECORD
  5
1
100
AcDbSymbolTable
 70
0
  0
BLOCK_RECORD
  5
203
100
AcDbSymbolTableRecord
100
AcDbBlockTableRecord
  2
*Model_Space
  0
BLOCK_RECORD
  5
204
100
AcDbSymbolTableRecord
100
AcDbBlockTableRecord
  2
*Paper_Space
  0
ENDTAB
  0
TABLE
  2
DIMSTYLE
  5
A
100
AcDbSymbolTable
 70
1
100
AcDbDimStyleTable
 71
0
  0
DIMSTYLE
105
205
100
AcDbSymbolTableRecord
100
AcDbDimStyleTableRecord
  2
STANDARD
 70
0
  3

  4

 40
1.0
 41
0.1875
 42
0.0625
 43
0.38
 44
0.18
 45
0.0
 46
0.0
 47
0.01
 48
0.01
140
0.15625
141
0.09
142
0.0
143
25.4
144
1.0
145
0.0
146
1.0
147
0.09
 71
0.0
 72
0.0
 73
1
 74
1
 75
0
 76
0
 77
0
 78
4
170
0
171
2
172
0
173
0
174
0
175
0
176
0
177
0
178
0
270
2
271
2
272
2
273
2
274
2
275
0
280
0
281
0
282
0
283
1
284
4
285
0
286
0
287
3
288
0
340
11
  0
ENDTAB
  0
ENDSEC
  0
SECTION
  2
BLOCKS
  0
BLOCK
  5
20
100
AcDbEntity
  8
0
100
AcDbBlockBegin
  2
*Model_Space
 70
0
 10
0.0
 20
0.0
 30
0.0
  3
*Model_Space
  1

  0
ENDBLK
  5
21
100
AcDbEntity
  8
0
100
AcDbBlockEnd
  0
BLOCK
  5
1C
100
AcDbEntity
  8
0
100
AcDbBlockBegin
  2
*Paper_Space
 70
0
 10
0.0
 20
0.0
 30
0.0
  3
*Paper_Space
  1

  0
ENDBLK
  5
1D
100
AcDbEntity
  8
0
100
AcDbBlockEnd
  0
ENDSEC
  0
SECTION
  2
ENTITIES
  0
LINE
  5
206
100
AcDbEntity
  8
0
100
AcDbLine
 62
6
  6
CONTINUOUS
 10
7.537612751
 20
1.8560651331
 11
9.252612751
 21
1.8560651331
  0
LINE
  5
207
100
AcDbEntity
  8
0
100
AcDbLine
 62
9
  6
CONTINUOUS
 10
7.3711247494
 20
1.8725651331
 11
9.4191007526
 21
1.8725651331
  0
LINE
  5
208
100
AcDbEntity
  8
0
100
AcDbLine
 62
9
  6
CONTINUOUS
 10
7.2901929649
 20
2.1619367501
 11
9.5000325371
 21
2.1619367501
  0
LINE
  5
209
100
AcDbEntity
  8
0
100
AcDbLine
 62
9
  6
CONTINUOUS
 10
7.282687219
 20
2.2182306615
 11
9.5075382829
 21
2.2182306615
  0
LINE
  5
20A
100
AcDbEntity
  8
0
100
AcDbLine
 62
6
  6
CONTINUOUS
 10
9.490112751
 20
2.3417728025
 11
7.300112751
 21
2.3417728025
  0
LINE
  5
20B
100
AcDbEntity
  8
0
100
AcDbLine
 62
9
  6
CONTINUOUS
 10
7.3476192649
 20
2.3755589232
 11
9.442606237
 21
2.3755589232
  0
LINE
  5
20C
100
AcDbEntity
  8
0
100
AcDbLine
 62
6
  6
CONTINUOUS
 10
7.9783131584
 20
8.5074258963
 11
7.9462252911
 21
8.4152765542
  0
LINE
  5
20D
100
AcDbEntity
  8
0
100
AcDbLine
 62
9
  6
CONTINUOUS
 10
7.3476192649
 20
4.5994493509
 11
9.442606237
 21
4.5994493509
  0
LINE
  5
20E
100
AcDbEntity
  8
0
100
AcDbLine
 62
9
  6
CONTINUOUS
 10
7.3185119336
 20
4.6347091234
 11
9.4717135683
 21
4.6347091234
  0
LINE
  5
20F
100
AcDbEntity
  8
0
100
AcDbLine
 62
6
  6
CONTINUOUS
 10
7.377612751
 20
6.9125651331
 11
7.377612751
 21
6.7575651331
  0
LINE
  5
210
100
AcDbEntity
  8
0
100
AcDbLine
 62
6
  6
CONTINUOUS
 10
7.430112751
 20
4.8975651331
 11
7.430112751
 21
4.8525651331
  0
LINE
  5
211
100
AcDbEntity
  8
0
100
AcDbLine
 62
9
  6
CONTINUOUS
 10
7.3241253001
 20
4.8525651331
 11
9.4661002018
 21
4.8525651331
  0
LINE
  5
212
100
AcDbEntity
  8
0
100
AcDbLine
 62
6
  6
CONTINUOUS
 10
7.3226214871
 20
4.8975651331
 11
9.4676040148
 21
4.8975651331
  0
LINE
  5
213
100
AcDbEntity
  8
0
100
AcDbLine
 62
6
  6
CONTINUOUS
 10
7.895112751
 20
8.267656297
 11
7.895112751
 21
8.2200601096
  0
LINE
  5
214
100
AcDbEntity
  8
0
100
AcDbLine
 62
6
  6
CONTINUOUS
 10
7.900112751
 20
8.3400126288
 11
7.900112751
 21
8.3005455387
  0
LINE
  5
215
100
AcDbEntity
  8
0
100
AcDbLine
 62
6
  6
CONTINUOUS
 10
8.020112751
 20
9.5967607713
 11
8.020112751
 21
8.5566889586
  0
LINE
  5
216
100
AcDbEntity
  8
0
100
AcDbLine
 62
6
  6
CONTINUOUS
 10
8.020112751
 20
5.6795651331
 11
8.020112751
 21
7.4941029292
  0
LINE
  5
217
100
AcDbEntity
  8
0
100
AcDbLine
 62
6
  6
CONTINUOUS
 10
7.8954664178
 20
8.0090419835
 11
7.9423082615
 21
7.5833181039
  0
LINE
  5
218
100
AcDbEntity
  8
0
100
AcDbLine
 62
6
  6
CONTINUOUS
 10
8.8947590841
 20
8.0090419835
 11
8.8479172404
 21
7.5833181039
  0
LINE
  5
219
100
AcDbEntity
  8
0
100
AcDbLine
 62
6
  6
CONTINUOUS
 10
8.770112751
 20
9.5967607713
 11
8.770112751
 21
8.5566912024
  0
LINE
  5
21A
100
AcDbEntity
  8
0
100
AcDbLine
 62
6
  6
CONTINUOUS
 10
8.770112751
 20
5.6795651331
 11
8.770112751
 21
7.4940960008
  0
LINE
  5
21B
100
AcDbEntity
  8
0
100
AcDbLine
 62
6
  6
CONTINUOUS
 10
8.890112751
 20
8.3400126288
 11
8.890112751
 21
8.3005455387
  0
LINE
  5
21C
100
AcDbEntity
  8
0
100
AcDbLine
 62
6
  6
CONTINUOUS
 10
8.895112751
 20
8.267656297
 11
8.895112751
 21
8.220210362
  0
LINE
  5
21D
100
AcDbEntity
  8
0
100
AcDbLine
 62
6
  6
CONTINUOUS
 10
8.020112751
 20
6.5475651331
 11
7.3206249479
 21
6.5475651331
  0
LINE
  5
21E
100
AcDbEntity
  8
0
100
AcDbLine
 62
6
  6
CONTINUOUS
 10
8.770112751
 20
6.5475651331
 11
9.469600554
 21
6.5475651331
  0
LINE
  5
21F
100
AcDbEntity
  8
0
100
AcDbLine
 62
9
  6
CONTINUOUS
 10
8.020112751
 20
6.7575651331
 11
7.361612751
 21
6.7575651331
  0
LINE
  5
220
100
AcDbEntity
  8
0
100
AcDbLine
 62
9
  6
CONTINUOUS
 10
8.770112751
 20
6.7575651331
 11
9.428612751
 21
6.7575651331
  0
LINE
  5
221
100
AcDbEntity
  8
0
100
AcDbLine
 62
6
  6
CONTINUOUS
 10
9.360112751
 20
4.8975651331
 11
9.360112751
 21
4.8525651331
  0
LINE
  5
222
100
AcDbEntity
  8
0
100
AcDbLine
 62
6
  6
CONTINUOUS
 10
9.412612751
 20
6.9125651331
 11
9.412612751
 21
6.7575651331
  0
LINE
  5
223
100
AcDbEntity
  8
0
100
AcDbLine
 62
6
  6
CONTINUOUS
 10
9.4442188066
 20
6.9125651331
 11
8.770112751
 21
6.9125651331
  0
LINE
  5
224
100
AcDbEntity
  8
0
100
AcDbLine
 62
6
  6
CONTINUOUS
 10
8.020112751
 20
6.9125651331
 11
7.3460066954
 21
6.9125651331
  0
LINE
  5
225
100
AcDbEntity
  8
0
100
AcDbLine
 62
6
  6
CONTINUOUS
 10
8.8119123435
 20
8.5074258965
 11
8.8440004498
 21
8.4152758677
  0
LINE
  5
226
100
AcDbEntity
  8
0
100
AcDbLine
 62
6
  6
CONTINUOUS
 10
9.077612751
 20
7.7525651331
 11
8.8665392705
 21
7.7525651331
  0
LINE
  5
227
100
AcDbEntity
  8
0
100
AcDbLine
 62
6
  6
CONTINUOUS
 10
7.9236862314
 20
7.7525651331
 11
7.712612751
 21
7.7525651331
  0
ARC
  5
228
100
AcDbEntity
  8
0
100
AcDbCircle
 62
6
  6
CONTINUOUS
 10
1.505112751
 20
3.4875041371
 40
8.015
100
AcDbArc
 50
352.0254613649
 51
7.9745386351
  0
ARC
  5
229
100
AcDbEntity
  8
0
100
AcDbCircle
 62
6
  6
CONTINUOUS
 10
4.9069603811
 20
5.7280606812
 40
4.6356523699
100
AcDbArc
 50
349.679514879
 51
10.1824333986
  0
ARC
  5
22A
100
AcDbEntity
  8
0
100
AcDbCircle
 62
6
  6
CONTINUOUS
 10
7.371112751
 20
2.0285651331
 40
0.156
100
AcDbArc
 50
121.2462013687
 51
270.0
  0
ARC
  5
22B
100
AcDbEntity
  8
0
100
AcDbCircle
 62
6
  6
CONTINUOUS
 10
7.324112751
 20
4.7435651331
 40
0.109
100
AcDbArc
 50
90.0
 51
267.0546368936
  0
ARC
  5
22C
100
AcDbEntity
  8
0
100
AcDbCircle
 62
6
  6
CONTINUOUS
 10
7.300112751
 20
2.2787728025
 40
0.063
100
AcDbArc
 50
90.0
 51
253.9428672775
  0
ARC
  5
22D
100
AcDbEntity
  8
0
100
AcDbCircle
 62
6
  6
CONTINUOUS
 10
7.537612751
 20
1.9075651331
 40
0.0515
100
AcDbArc
 50
222.937535355
 51
270.0
  0
ARC
  5
22E
100
AcDbEntity
  8
0
100
AcDbCircle
 62
6
  6
CONTINUOUS
 10
7.274112751
 20
2.1884400842
 40
0.031
100
AcDbArc
 50
301.2462013687
 51
73.9428672775
  0
ARC
  5
22F
100
AcDbEntity
  8
0
100
AcDbCircle
 62
6
  6
CONTINUOUS
 10
7.3169190406
 20
2.3712581994
 40
0.031
100
AcDbArc
 50
287.7699851748
 51
7.9745386351
  0
ARC
  5
230
100
AcDbEntity
  8
0
100
AcDbCircle
 62
6
  6
CONTINUOUS
 10
7.3169190406
 20
4.6037500748
 40
0.031
100
AcDbArc
 50
352.0254613649
 51
87.0546368936
  0
ARC
  5
231
100
AcDbEntity
  8
0
100
AcDbCircle
 62
6
  6
CONTINUOUS
 10
8.2674137633
 20
7.5524514748
 40
0.77146804
100
AcDbArc
 50
104.951809211
 51
108.6544075784
  0
ARC
  5
232
100
AcDbEntity
  8
0
100
AcDbCircle
 62
6
  6
CONTINUOUS
 10
7.712612751
 20
7.2525651331
 40
0.5
100
AcDbArc
 50
90.0
 51
222.8436430436
  0
ARC
  5
233
100
AcDbEntity
  8
0
100
AcDbCircle
 62
6
  6
CONTINUOUS
 10
8.2052315792
 20
7.9369240904
 40
0.4911065998
100
AcDbArc
 50
112.0507318844
 51
112.22189169
  0
ARC
  5
234
100
AcDbEntity
  8
0
100
AcDbCircle
 62
6
  6
CONTINUOUS
 10
7.361612751
 20
6.6485651331
 40
0.109
100
AcDbArc
 50
90.0
 51
247.9117101651
  0
ARC
  5
235
100
AcDbEntity
  8
0
100
AcDbCircle
 62
6
  6
CONTINUOUS
 10
7.9669743658
 20
8.3005457935
 40
0.0668616148
100
AcDbArc
 50
180.0002183351
 51
183.7574161201
  0
ARC
  5
236
100
AcDbEntity
  8
0
100
AcDbCircle
 62
9
  6
CONTINUOUS
 10
8.0341809706
 20
8.4879549151
 40
0.0591634616
100
AcDbArc
 50
155.6205684888
 51
160.7854970315
  0
ARC
  5
237
100
AcDbEntity
  8
0
100
AcDbCircle
 62
9
  6
CONTINUOUS
 10
7.9582260306
 20
8.3005491195
 40
0.0581128349
100
AcDbArc
 50
180.0035303892
 51
184.3536378595
  0
ARC
  5
238
100
AcDbEntity
  8
0
100
AcDbCircle
 62
6
  6
CONTINUOUS
 10
9.419112751
 20
2.0285651331
 40
0.156
100
AcDbArc
 50
270.0
 51
58.7537986313
  0
ARC
  5
239
100
AcDbEntity
  8
0
100
AcDbCircle
 62
6
  6
CONTINUOUS
 10
9.490112751
 20
2.2787728025
 40
0.063
100
AcDbArc
 50
286.0571327225
 51
90.0
  0
ARC
  5
23A
100
AcDbEntity
  8
0
100
AcDbCircle
 62
6
  6
CONTINUOUS
 10
9.252612751
 20
1.9075651331
 40
0.0515
100
AcDbArc
 50
270.0
 51
317.062464645
  0
ARC
  5
23B
100
AcDbEntity
  8
0
100
AcDbCircle
 62
6
  6
CONTINUOUS
 10
9.516112751
 20
2.1884400842
 40
0.031
100
AcDbArc
 50
106.0571327225
 51
238.7537986313
  0
ARC
  5
23C
100
AcDbEntity
  8
0
100
AcDbCircle
 62
6
  6
CONTINUOUS
 10
9.4733064614
 20
2.3712581994
 40
0.031
100
AcDbArc
 50
172.0254613649
 51
252.2300148252
  0
ARC
  5
23D
100
AcDbEntity
  8
0
100
AcDbCircle
 62
6
  6
CONTINUOUS
 10
8.395112751
 20
5.6795651331
 40
0.495
100
AcDbArc
 50
139.261048199
 51
40.738951801
  0
ARC
  5
23E
100
AcDbEntity
  8
0
100
AcDbCircle
 62
9
  6
CONTINUOUS
 10
8.395112751
 20
5.6795651331
 40
0.432
100
AcDbArc
 50
150.4782860102
 51
29.5217139898
  0
ARC
  5
23F
100
AcDbEntity
  8
0
100
AcDbCircle
 62
9
  6
CONTINUOUS
 10
8.395112751
 20
5.6795651331
 40
0.375
100
AcDbArc
 50
180.0
 51
360.0
  0
ARC
  5
240
100
AcDbEntity
  8
0
100
AcDbCircle
 62
6
  6
CONTINUOUS
 10
9.466112751
 20
4.7435651331
 40
0.109
100
AcDbArc
 50
272.9453631064
 51
90.0
  0
ARC
  5
241
100
AcDbEntity
  8
0
100
AcDbCircle
 62
6
  6
CONTINUOUS
 10
9.4733064614
 20
4.6037500748
 40
0.031
100
AcDbArc
 50
92.9453631064
 51
187.9745386351
  0
ARC
  5
242
100
AcDbEntity
  8
0
100
AcDbCircle
 62
6
  6
CONTINUOUS
 10
15.285112751
 20
3.4875041371
 40
8.015
100
AcDbArc
 50
172.0254613649
 51
187.9745386351
  0
ARC
  5
243
100
AcDbEntity
  8
0
100
AcDbCircle
 62
6
  6
CONTINUOUS
 10
11.8832651209
 20
5.7280606812
 40
4.6356523699
100
AcDbArc
 50
169.8175666014
 51
190.320485121
  0
ARC
  5
244
100
AcDbEntity
  8
0
100
AcDbCircle
 62
6
  6
CONTINUOUS
 10
8.395112751
 20
7.2615651331
 40
0.712
100
AcDbArc
 50
131.9218383037
 51
136.3886597474
  0
ARC
  5
245
100
AcDbEntity
  8
0
100
AcDbCircle
 62
6
  6
CONTINUOUS
 10
8.395112751
 20
7.2615651331
 40
0.712
100
AcDbArc
 50
43.6231026256
 51
48.0676526626
  0
ARC
  5
246
100
AcDbEntity
  8
0
100
AcDbCircle
 62
6
  6
CONTINUOUS
 10
8.395112751
 20
8.4045651331
 40
0.5
100
AcDbArc
 50
352.0460986947
 51
41.2137057717
  0
ARC
  5
247
100
AcDbEntity
  8
0
100
AcDbCircle
 62
6
  6
CONTINUOUS
 10
8.395112751
 20
8.4045651331
 40
0.5
100
AcDbArc
 50
138.7862942283
 51
187.9539013053
  0
ARC
  5
248
100
AcDbEntity
  8
0
100
AcDbCircle
 62
6
  6
CONTINUOUS
 10
9.077612751
 20
7.2525651331
 40
0.5
100
AcDbArc
 50
317.1563569564
 51
90.0
  0
ARC
  5
249
100
AcDbEntity
  8
0
100
AcDbCircle
 62
9
  6
CONTINUOUS
 10
8.5864349605
 20
7.9483407981
 40
0.4978377443
100
AcDbArc
 50
68.1240092395
 51
68.3232350205
  0
ARC
  5
24A
100
AcDbEntity
  8
0
100
AcDbCircle
 62
6
  6
CONTINUOUS
 10
8.395112751
 20
8.4045651331
 40
0.433
100
AcDbArc
 50
150.0031329747
 51
169.7551021979
  0
ARC
  5
24B
100
AcDbEntity
  8
0
100
AcDbCircle
 62
6
  6
CONTINUOUS
 10
8.395112751
 20
8.4045651331
 40
0.433
100
AcDbArc
 50
10.2448978021
 51
29.9968670253
  0
ARC
  5
24C
100
AcDbEntity
  8
0
100
AcDbCircle
 62
6
  6
CONTINUOUS
 10
8.395112751
 20
9.5975651331
 40
0.375
100
AcDbArc
 50
0.0
 51
180.0
  0
ARC
  5
24D
100
AcDbEntity
  8
0
100
AcDbCircle
 62
6
  6
CONTINUOUS
 10
9.428612751
 20
6.6485651331
 40
0.109
100
AcDbArc
 50
292.0882898349
 51
90.0
  0
ARC
  5
24E
100
AcDbEntity
  8
0
100
AcDbCircle
 62
6
  6
CONTINUOUS
 10
8.8232146336
 20
8.3005470106
 40
0.0668981174
100
AcDbArc
 50
356.241501176
 51
359.9987394214
  0
ARC
  5
24F
100
AcDbEntity
  8
0
100
AcDbCircle
 62
9
  6
CONTINUOUS
 10
8.7551998858
 20
8.4876171378
 40
0.0600722329
100
AcDbArc
 50
19.2535924429
 51
24.3413799794
  0
ARC
  5
250
100
AcDbEntity
  8
0
100
AcDbCircle
 62
9
  6
CONTINUOUS
 10
8.8320701214
 20
8.3005463408
 40
0.0580421847
100
AcDbArc
 50
355.6299431885
 51
359.9991930448
  0
SPLINE
  5
251
100
AcDbEntity
  8
0
100
AcDbSpline
 62
6
  6
CONTINUOUS
 70
0
 71
3
 72
11
 73
7
 74
5
 42
0.0000001
 43
0.0000001
 44
0.0000000001
 12
0.0
 22
0.0328770638
 32
0.0
 13
-0.013042992
 23
0.0301791597
 33
0.0
 40
0.0
 40
0.0
 40
0.0
 40
0.0
 40
0.2483912353
 40
0.4968488157
 40
0.7471581864
 40
1.0
 40
1.0
 40
1.0
 40
1.0
 10
8.895112751
 20
8.267656297
 30
0.0
 10
8.895112751
 20
8.2703784218
 30
0.0
 10
8.8948206651
 20
8.2758278976
 30
0.0
 10
8.893511873
 20
8.2839254574
 30
0.0
 10
8.891363656
 20
8.2918913351
 30
0.0
 10
8.8894096352
 20
8.2970580528
 30
0.0
 10
8.8883103639
 20
8.2996015707
 30
0.0
 11
8.895112751
 21
8.267656297
 31
0.0
 11
8.8946761825
 21
8.2758109938
 31
0.0
 11
8.8933781723
 21
8.2838757611
 31
0.0
 11
8.8912432055
 21
8.2918234371
 31
0.0
 11
8.8883103639
 21
8.2996015707
 31
0.0
  0
SPLINE
  5
252
100
AcDbEntity
  8
0
100
AcDbSpline
 62
6
  6
CONTINUOUS
 70
0
 71
3
 72
33
 73
29
 74
27
 42
0.0000001
 43
0.0000001
 44
0.0000000001
 12
-0.2123663686
 22
0.491377942
 32
0.0
 13
-0.5353052927
 23
0.0
 33
0.0
 40
0.0
 40
0.0
 40
0.0
 40
0.0
 40
0.0186580838
 40
0.0377295182
 40
0.0573352774
 40
0.077585848
 40
0.0985852888
 40
0.1204214994
 40
0.1431670849
 40
0.1668783437
 40
0.1915964985
 40
0.2173492265
 40
0.2441517548
 40
0.2720084125
 40
0.3009141973
 40
0.3308552465
 40
0.361810888
 40
0.3937532098
 40
0.4266492287
 40
0.4604601601
 40
0.4951431865
 40
0.5306510406
 40
0.6039318129
 40
0.6798634004
 40
0.7579618255
 40
0.8377122685
 40
0.9185752959
 40
1.0
 40
1.0
 40
1.0
 40
1.0
 10
8.8883103639
 20
8.2996015707
 30
0.0
 10
8.8869895808
 20
8.3026576276
 30
0.0
 10
8.8839732756
 20
8.3086930362
 30
0.0
 10
8.8784962477
 20
8.3173513875
 30
0.0
 10
8.8720819781
 20
8.3256998989
 30
0.0
 10
8.8647783335
 20
8.3337499644
 30
0.0
 10
8.856617701
 20
8.3415166744
 30
0.0
 10
8.8476268183
 20
8.3490183144
 30
0.0
 10
8.8378235226
 20
8.3562669857
 30
0.0
 10
8.8272248589
 20
8.3632737476
 30
0.0
 10
8.8158453248
 20
8.370043898
 30
0.0
 10
8.8037007308
 20
8.3765808337
 30
0.0
 10
8.7908074301
 20
8.3828841815
 30
0.0
 10
8.7771837726
 20
8.3889519798
 30
0.0
 10
8.7628498556
 20
8.3947802023
 30
0.0
 10
8.7478278229
 20
8.4003638547
 30
0.0
 10
8.7321418317
 20
8.4056968478
 30
0.0
 10
8.715817955
 20
8.4107727479
 30
0.0
 10
8.6988841687
 20
8.4155845604
 30
0.0
 10
8.6813701882
 20
8.4201253621
 30
0.0
 10
8.6633073428
 20
8.4243881267
 30
0.0
 10
8.6382727695
 20
8.4297479934
 30
0.0
 10
8.6058409983
 20
8.4356778194
 30
0.0
 10
8.5656943901
 20
8.4415121229
 30
0.0
 10
8.5242244738
 20
8.4460954798
 30
0.0
 10
8.4817504806
 20
8.4493940761
 30
0.0
 10
8.4386015876
 20
8.4513833235
 30
0.0
 10
8.409641776
 20
8.4518259658
 30
0.0
 10
8.395112751
 20
8.4518259658
 30
0.0
 11
8.8883103639
 21
8.2996015707
 31
0.0
 11
8.8838625594
 21
8.308544311
 31
0.0
 11
8.8784219969
 21
8.3171828741
 31
0.0
 11
8.8720444781
 21
8.3255179613
 31
0.0
 11
8.8647753448
 21
8.3335597553
 31
0.0
 11
8.8566462776
 21
8.3413238304
 31
0.0
 11
8.8476824813
 21
8.3488260962
 31
0.0
 11
8.8379024243
 21
8.3560787769
 31
0.0
 11
8.8273226708
 21
8.363091268
 31
0.0
 11
8.8159584619
 21
8.3698687458
 31
0.0
 11
8.8038256338
 21
8.3764137032
 31
0.0
 11
8.7909410952
 21
8.3827256308
 31
0.0
 11
8.777323501
 21
8.3888020931
 31
0.0
 11
8.7629932128
 21
8.3946390063
 31
0.0
 11
8.7479728045
 21
8.4002310866
 31
0.0
 11
8.7322864947
 21
8.4055722856
 31
0.0
 11
8.7159607942
 21
8.4106559531
 31
0.0
 11
8.6990236618
 21
8.4154751826
 31
0.0
 11
8.681505154
 21
8.4200229137
 31
0.0
 11
8.6634366602
 21
8.4242921257
 31
0.0
 11
8.6448512919
 21
8.4282759362
 31
0.0
 11
8.6062688676
 21
8.4353611308
 31
0.0
 11
8.5660481603
 21
8.4412296246
 31
0.0
 11
8.524496593
 21
8.4458394757
 31
0.0
 11
8.4819348544
 21
8.4491569642
 31
0.0
 11
8.4386946992
 21
8.4511574574
 31
0.0
 11
8.395112751
 21
8.4518259658
 31
0.0
  0
SPLINE
  5
253
100
AcDbEntity
  8
0
100
AcDbSpline
 62
6
  6
CONTINUOUS
 70
0
 71
3
 72
45
 73
41
 74
39
 42
0.0000001
 43
0.0000001
 44
0.0000000001
 12
0.3969794778
 22
0.2929187023
 32
0.0
 13
-0.4764982397
 23
0.1278416971
 33
0.0
 40
0.0
 40
0.0
 40
0.0
 40
0.0
 40
0.0300123612
 40
0.0595539434
 40
0.0887656798
 40
0.1177895401
 40
0.146766878
 40
0.1758196935
 40
0.190406787
 40
0.2050444579
 40
0.2344704584
 40
0.2492687089
 40
0.2641129497
 40
0.2789956783
 40
0.2939072456
 40
0.3088345045
 40
0.3237652242
 40
0.338686483
 40
0.3535846524
 40
0.3832605359
 40
0.4127403956
 40
0.4274044497
 40
0.4420156225
 40
0.4711029511
 40
0.5000890817
 40
0.5290891319
 40
0.5582414575
 40
0.5876877441
 40
0.617571498
 40
0.6480201111
 40
0.6791477957
 40
0.7110505811
 40
0.7438045861
 40
0.7774701878
 40
0.8120887395
 40
0.8476888562
 40
0.8842833764
 40
0.9218747585
 40
0.9604530984
 40
1.0
 40
1.0
 40
1.0
 40
1.0
 10
8.8903044074
 20
7.9673923868
 30
0.0
 10
8.8942758378
 20
7.9703227807
 30
0.0
 10
8.9020049819
 20
7.9763472495
 30
0.0
 10
8.9129715615
 20
7.9859953867
 30
0.0
 10
8.9231716918
 20
7.9962255002
 30
0.0
 10
8.9325446664
 20
8.0070994887
 30
0.0
 10
8.9410092524
 20
8.0186649701
 30
0.0
 10
8.9472034882
 20
8.0288959516
 30
0.0
 10
8.9515758181
 20
8.0374280869
 30
0.0
 10
8.9555485698
 20
8.0462202787
 30
0.0
 10
8.9588581162
 20
8.055339287
 30
0.0
 10
8.9614260568
 20
8.0647114202
 30
0.0
 10
8.962972725
 20
8.0718724106
 30
0.0
 10
8.9641188442
 20
8.0791270949
 30
0.0
 10
8.9648534158
 20
8.0864487568
 30
0.0
 10
8.9651704501
 20
8.0938083319
 30
0.0
 10
8.9650631279
 20
8.1011754929
 30
0.0
 10
8.9645364247
 20
8.108519947
 30
0.0
 10
8.963280668
 20
8.118227493
 30
0.0
 10
8.9607013336
 20
8.1301569492
 30
0.0
 10
8.9568527965
 20
8.1416956709
 30
0.0
 10
8.9530946898
 20
8.1506009462
 30
0.0
 10
8.9489238699
 20
8.1592489146
 30
0.0
 10
8.9429593885
 20
8.1696292298
 30
0.0
 10
8.9347369622
 20
8.1813729146
 30
0.0
 10
8.9255809664
 20
8.1924152267
 30
0.0
 10
8.9155795545
 20
8.2027996213
 30
0.0
 10
8.9047994533
 20
8.2125876798
 30
0.0
 10
8.8932782629
 20
8.2218333567
 30
0.0
 10
8.8810447624
 20
8.2305949865
 30
0.0
 10
8.8681108361
 20
8.238914143
 30
0.0
 10
8.8544881667
 20
8.246832079
 30
0.0
 10
8.8401814989
 20
8.2543749424
 30
0.0
 10
8.8251990372
 20
8.2615671347
 30
0.0
 10
8.8095476838
 20
8.2684226311
 30
0.0
 10
8.7932385058
 20
8.2749534848
 30
0.0
 10
8.7762839109
 20
8.2811654387
 30
0.0
 10
8.7587001564
 20
8.2870626101
 30
0.0
 10
8.7405059582
 20
8.2926455398
 30
0.0
 10
8.7281342783
 20
8.2961155035
 30
0.0
 10
8.7218529353
 20
8.2978007512
 30
0.0
 11
8.8903044074
 21
7.9673923868
 31
0.0
 11
8.901971723
 21
7.9765087986
 31
0.0
 11
8.9129032793
 21
7.9861479023
 31
0.0
 11
8.9230655665
 21
7.9963666252
 31
0.0
 11
8.9324009656
 21
8.0072239596
 31
0.0
 11
8.9408292315
 21
8.0187712084
 31
0.0
 11
8.9482386984
 21
8.0310407024
 31
0.0
 11
8.9515189439
 21
8.0374461831
 31
0.0
 11
8.9544909032
 21
8.0440277798
 31
0.0
 11
8.9594308991
 21
8.0576787436
 31
0.0
 11
8.9613595112
 21
8.0647201134
 31
0.0
 11
8.9629042207
 21
8.0718787528
 31
0.0
 11
8.964049337
 21
8.0791312991
 31
0.0
 11
8.964783528
 21
8.0864511907
 31
0.0
 11
8.9650996922
 21
8.0938087617
 31
0.0
 11
8.964993109
 21
8.1011740589
 31
0.0
 11
8.9644664395
 21
8.1085165952
 31
0.0
 11
8.9635242418
 21
8.1158059645
 31
0.0
 11
8.9604369036
 21
8.1301173339
 31
0.0
 11
8.9558475276
 21
8.1439181382
 31
0.0
 11
8.9530362051
 21
8.1505840653
 31
0.0
 11
8.9499066285
 21
8.1570776827
 31
0.0
 11
8.9427708492
 21
8.1695279731
 31
0.0
 11
8.9345840612
 21
8.1812529537
 31
0.0
 11
8.9254653755
 21
8.1922776847
 31
0.0
 11
8.9155020205
 21
8.202649858
 31
0.0
 11
8.9047578223
 21
8.2124276522
 31
0.0
 11
8.8932703904
 21
8.2216688235
 31
0.0
 11
8.881066276
 21
8.2304275121
 31
0.0
 11
8.8681587368
 21
8.2387478437
 31
0.0
 11
8.8545575086
 21
8.2466680766
 31
0.0
 11
8.8402692812
 21
8.2542156434
 31
0.0
 11
8.8253009048
 21
8.2614131369
 31
0.0
 11
8.8096609661
 21
8.2682750982
 31
0.0
 11
8.7933597192
 21
8.2748126272
 31
0.0
 11
8.77641077
 21
8.2810316672
 31
0.0
 11
8.758829997
 21
8.2869358614
 31
0.0
 11
8.7406367883
 21
8.2925258261
 31
0.0
 11
8.7218529353
 21
8.2978007512
 31
0.0
  0
SPLINE
  5
254
100
AcDbEntity
  8
0
100
AcDbSpline
 62
6
  6
CONTINUOUS
 70
0
 71
3
 72
15
 73
11
 74
9
 42
0.0000001
 43
0.0000001
 44
0.0000000001
 12
-0.3186562416
 22
0.0854936101
 32
0.0
 13
-0.3299256851
 23
-0.0
 33
0.0
 40
0.0
 40
0.0
 40
0.0
 40
0.0
 40
0.1132435777
 40
0.2309531658
 40
0.3526639497
 40
0.4778266036
 40
0.6058250589
 40
0.7359932108
 40
0.8676266827
 40
1.0
 40
1.0
 40
1.0
 40
1.0
 10
8.7218529353
 20
8.2978007512
 30
0.0
 10
8.7098243443
 20
8.3010279519
 30
0.0
 10
8.6851481069
 20
8.3070793777
 30
0.0
 10
8.6471444772
 20
8.3148627271
 30
0.0
 10
8.6075963404
 20
8.321511201
 30
0.0
 10
8.5667291518
 20
8.3269966425
 30
0.0
 10
8.5247853219
 20
8.3312931712
 30
0.0
 10
8.4820218314
 20
8.3343787826
 30
0.0
 10
8.4387064655
 20
8.336237017
 30
0.0
 10
8.4096705368
 20
8.3366503309
 30
0.0
 10
8.395112751
 20
8.3366503309
 30
0.0
 11
8.7218529353
 21
8.2978007512
 31
0.0
 11
8.6855743942
 21
8.3067329334
 31
0.0
 11
8.6475343679
 21
8.3145525228
 31
0.0
 11
8.6079382937
 21
8.3212320579
 31
0.0
 11
8.5670133358
 21
8.3267432445
 31
0.0
 11
8.5250045567
 21
8.3310599011
 31
0.0
 11
8.4821707766
 21
8.3341599735
 31
0.0
 11
8.4387816581
 21
8.3360268731
 31
0.0
 11
8.395112751
 21
8.3366503309
 31
0.0
  0
SPLINE
  5
255
100
AcDbEntity
  8
0
100
AcDbSpline
 62
6
  6
CONTINUOUS
 70
0
 71
3
 72
39
 73
35
 74
33
 42
0.0000001
 43
0.0000001
 44
0.0000000001
 12
0.5081166047
 22
0.0
 32
0.0
 13
0.0555720337
 23
0.505068543
 33
0.0
 40
0.0
 40
0.0
 40
0.0
 40
0.0
 40
0.0836965836
 40
0.1667224243
 40
0.2484216153
 40
0.3281552383
 40
0.3670963265
 40
0.4053227037
 40
0.4427658229
 40
0.4793611926
 40
0.5150480995
 40
0.549770971
 40
0.5834794849
 40
0.6161293074
 40
0.6476835297
 40
0.6781124506
 40
0.7073962787
 40
0.735524836
 40
0.7625003617
 40
0.7883386475
 40
0.8130708528
 40
0.8367461848
 40
0.8594327164
 40
0.881220159
 40
0.8918125339
 40
0.9022219088
 40
0.912465097
 40
0.9225601498
 40
0.9423685406
 40
0.9617997117
 40
0.9714068708
 40
0.9809559105
 40
0.9904751359
 40
1.0
 40
1.0
 40
1.0
 40
1.0
 10
8.395112751
 20
7.4229039145
 30
0.0
 10
8.4092886256
 20
7.4229039145
 30
0.0
 10
8.4375290128
 20
7.4233697017
 30
0.0
 10
8.4795602775
 20
7.4254625103
 30
0.0
 10
8.5208274829
 20
7.4289301109
 30
0.0
 10
8.5545321678
 20
7.4329715356
 30
0.0
 10
8.5808183615
 20
7.4368861835
 30
0.0
 10
8.599960102
 20
7.4401212129
 30
0.0
 10
8.6186416162
 20
7.4436716967
 30
0.0
 10
8.6368225234
 20
7.4475305615
 30
0.0
 10
8.6544639729
 20
7.4516905794
 30
0.0
 10
8.6715289283
 20
7.4561440295
 30
0.0
 10
8.6879822562
 20
7.460883251
 30
0.0
 10
8.7037909641
 20
7.4659005812
 30
0.0
 10
8.7189242438
 20
7.4711886398
 30
0.0
 10
8.7333537481
 20
7.4767407086
 30
0.0
 10
8.7470535452
 20
7.4825509196
 30
0.0
 10
8.7600002529
 20
7.488615009
 30
0.0
 10
8.7721730389
 20
7.494930389
 30
0.0
 10
8.7835529432
 20
7.5014978262
 30
0.0
 10
8.7941232254
 20
7.5083205181
 30
0.0
 10
8.8038666881
 20
7.5154077274
 30
0.0
 10
8.8127661964
 20
7.5227709056
 30
0.0
 10
8.8195229606
 20
7.5292140899
 30
0.0
 10
8.8244600154
 20
7.5345220881
 30
0.0
 10
8.8278986418
 20
7.5385469005
 30
0.0
 10
8.8311023295
 20
7.5426551499
 30
0.0
 10
8.8350273083
 20
7.5482102269
 30
0.0
 10
8.8393345587
 20
7.5553893046
 30
0.0
 10
8.842782823
 20
7.5629321349
 30
0.0
 10
8.8449503983
 20
7.5691016514
 30
0.0
 10
8.8462698345
 20
7.5737794253
 30
0.0
 10
8.8472796359
 20
7.5785192248
 30
0.0
 10
8.8477408017
 20
7.5817145341
 30
0.0
 10
8.8479172404
 20
7.5833181039
 30
0.0
 11
8.395112751
 21
7.4229039145
 31
0.0
 11
8.4376345435
 21
7.423608156
 31
0.0
 11
8.479768723
 21
7.4257147432
 31
0.0
 11
8.5211344165
 21
7.4292054373
 31
0.0
 11
8.5613576548
 21
7.4340503833
 31
0.0
 11
8.5809279191
 21
7.4369684013
 31
0.0
 11
8.6000791431
 21
7.4402089728
 31
0.0
 11
8.6187692214
 21
7.4437655867
 31
0.0
 11
8.6369576879
 21
7.447631219
 31
0.0
 11
8.6546054409
 21
7.4517985312
 31
0.0
 11
8.6716753367
 21
7.4562598704
 31
0.0
 11
8.6881320497
 21
7.4610075053
 31
0.0
 11
8.7039422561
 21
7.4660337084
 31
0.0
 11
8.7190750678
 21
7.4713310938
 31
0.0
 11
8.7335015849
 21
7.4768927239
 31
0.0
 11
8.7471957568
 21
7.4827127009
 31
0.0
 11
8.7601336337
 21
7.4887863642
 31
0.0
 11
8.7722939418
 21
7.4951109885
 31
0.0
 11
8.7836574159
 21
7.5016865856
 31
0.0
 11
8.794206487
 21
7.5085161296
 31
0.0
 11
8.8039240783
 21
7.5156073364
 31
0.0
 11
8.8127923438
 21
7.5229717709
 31
0.0
 11
8.8207892884
 21
7.5306272399
 31
0.0
 11
8.8244526714
 21
7.5345702449
 31
0.0
 11
8.8278861821
 21
7.5385934762
 31
0.0
 11
8.8310846081
 21
7.5426994872
 31
0.0
 11
8.8340420286
 21
7.5468905568
 31
0.0
 11
8.8392003695
 21
7.5555331945
 31
0.0
 11
8.8432888342
 21
7.5645202142
 31
0.0
 11
8.8449047087
 21
7.5691265738
 31
0.0
 11
8.8462200555
 21
7.5737969073
 31
0.0
 11
8.8472266182
 21
7.5785278909
 31
0.0
 11
8.8479172404
 21
7.5833181039
 31
0.0
  0
SPLINE
  5
256
100
AcDbEntity
  8
0
100
AcDbSpline
 62
6
  6
CONTINUOUS
 70
0
 71
3
 72
21
 73
17
 74
15
 42
0.0000001
 43
0.0000001
 44
0.0000000001
 12
-0.3810851859
 22
0.0
 32
0.0
 13
-0.3532092961
 23
-0.1430703045
 33
0.0
 40
0.0
 40
0.0
 40
0.0
 40
0.0
 40
0.1388807945
 40
0.2763493186
 40
0.3441253539
 40
0.4110341817
 40
0.476912399
 40
0.5416015893
 40
0.6049499008
 40
0.6668128269
 40
0.7270547079
 40
0.7855501761
 40
0.8421850986
 40
0.896858806
 40
0.9494863497
 40
1.0
 40
1.0
 40
1.0
 40
1.0
 10
8.395112751
 20
8.4518259658
 30
0.0
 10
8.3774709465
 20
8.4518259658
 30
0.0
 10
8.3423634602
 20
8.4511748326
 30
0.0
 10
8.2987072551
 20
8.4487270372
 30
0.0
 10
8.2642594789
 20
8.4457855067
 30
0.0
 10
8.23892095
 20
8.443113874
 30
0.0
 10
8.2140313497
 20
8.4399739101
 30
0.0
 10
8.1896610809
 20
8.4363740066
 30
0.0
 10
8.1658787206
 20
8.432323747
 30
0.0
 10
8.1427505494
 20
8.427833562
 30
0.0
 10
8.1203402496
 20
8.4229148126
 30
0.0
 10
8.0987086024
 20
8.4175795433
 30
0.0
 10
8.0779132651
 20
8.4118401298
 30
0.0
 10
8.0580082145
 20
8.4057091203
 30
0.0
 10
8.039044101
 20
8.3991990138
 30
0.0
 10
8.026803997
 20
8.3945161276
 30
0.0
 10
8.0208567001
 20
8.3921071265
 30
0.0
 11
8.395112751
 21
8.4518259658
 31
0.0
 11
8.3421965317
 21
8.4508394962
 31
0.0
 11
8.2898923501
 21
8.4478910721
 31
0.0
 11
8.2641578262
 21
8.4456904484
 31
0.0
 11
8.2388008094
 21
8.4430131699
 31
0.0
 11
8.2138935829
 21
8.4398664617
 31
0.0
 11
8.1895069012
 21
8.4362587753
 31
0.0
 11
8.1657094995
 21
8.432199646
 31
0.0
 11
8.1425679385
 21
8.4276995476
 31
0.0
 11
8.1201461837
 21
8.4227698414
 31
0.0
 11
8.0985052749
 21
8.4174225551
 31
0.0
 11
8.0777032561
 21
8.411670143
 31
0.0
 11
8.0577946683
 21
8.4055252652
 31
0.0
 11
8.038830187
 21
8.3990003415
 31
0.0
 11
8.0208567001
 21
8.3921071265
 31
0.0
  0
SPLINE
  5
257
100
AcDbEntity
  8
0
100
AcDbSpline
 62
6
  6
CONTINUOUS
 70
0
 71
3
 72
21
 73
17
 74
15
 42
0.0000001
 43
0.0000001
 44
0.0000000001
 12
-0.1414084628
 22
-0.0577714371
 32
0.0
 13
-0.0606019691
 23
-0.140218735
 33
0.0
 40
0.0
 40
0.0
 40
0.0
 40
0.0
 40
0.1531829066
 40
0.2264192109
 40
0.2974187722
 40
0.366203546
 40
0.4328076902
 40
0.4972854859
 40
0.5597070007
 40
0.6201619579
 40
0.6787623033
 40
0.790896185
 40
0.8448041661
 40
0.8974905251
 40
0.9491572715
 40
1.0
 40
1.0
 40
1.0
 40
1.0
 10
8.0194977555
 20
8.3915543128
 30
0.0
 10
8.0122773024
 20
8.3886044473
 30
0.0
 10
8.0017051558
 20
8.3839882978
 30
0.0
 10
7.9880959218
 20
8.3773415165
 30
0.0
 10
7.9784957208
 20
8.3722892689
 30
0.0
 10
7.9693576312
 20
8.3670956566
 30
0.0
 10
7.9606888296
 20
8.3617603723
 30
0.0
 10
7.9524969575
 20
8.35628112
 30
0.0
 10
7.9447888859
 20
8.3506557686
 30
0.0
 10
7.9375718819
 20
8.3448789719
 30
0.0
 10
7.9287471619
 20
8.3370839823
 30
0.0
 10
7.9207695219
 20
8.3288440505
 30
0.0
 10
7.9138162918
 20
8.3201351732
 30
0.0
 10
7.909227167
 20
8.3135025035
 30
0.0
 10
7.9052211584
 20
8.3066824512
 30
0.0
 10
7.9029424762
 20
8.3019785836
 30
0.0
 10
7.9019154197
 20
8.2996022159
 30
0.0
 11
8.0194977555
 21
8.3915543128
 31
0.0
 11
7.9980691221
 21
8.3821551893
 31
0.0
 11
7.9880192621
 21
8.3772406235
 31
0.0
 11
7.9784244263
 21
8.3721845554
 31
0.0
 11
7.9692926465
 21
8.3669873164
 31
0.0
 11
7.9606317459
 21
8.3616487246
 31
0.0
 11
7.9524489838
 21
8.3561668997
 31
0.0
 11
7.9447515326
 21
8.3505394239
 31
0.0
 11
7.9375471587
 21
8.3447620759
 31
0.0
 11
7.9308440575
 21
8.3388293672
 31
0.0
 11
7.918983723
 21
8.3264708479
 31
0.0
 11
7.9138535802
 21
8.3200294529
 31
0.0
 11
7.9092823126
 21
8.3134056358
 31
0.0
 11
7.9052932093
 21
8.3065956595
 31
0.0
 11
7.9019154197
 21
8.2996022159
 31
0.0
  0
SPLINE
  5
258
100
AcDbEntity
  8
0
100
AcDbSpline
 62
6
  6
CONTINUOUS
 70
0
 71
3
 72
11
 73
7
 74
5
 42
0.0000001
 43
0.0000001
 44
0.0000000001
 12
-0.0130435396
 22
-0.0301796897
 32
0.0
 13
0.0
 23
-0.0328777675
 33
0.0
 40
0.0
 40
0.0
 40
0.0
 40
0.0
 40
0.2528411009
 40
0.5031505109
 40
0.7516100723
 40
1.0
 40
1.0
 40
1.0
 40
1.0
 10
7.9019154197
 20
8.2996022159
 30
0.0
 10
7.9008161054
 20
8.2970586606
 30
0.0
 10
7.8988619961
 20
8.2918918574
 30
0.0
 10
7.8967136892
 20
8.2839258045
 30
0.0
 10
7.8954048615
 20
8.2758280647
 30
0.0
 10
7.895112751
 20
8.2703784658
 30
0.0
 10
7.895112751
 20
8.267656297
 30
0.0
 11
7.9019154197
 21
8.2996022159
 31
0.0
 11
7.8989824569
 21
8.2918239629
 31
0.0
 11
7.8968474034
 21
8.2838761266
 31
0.0
 11
7.8955493401
 21
8.2758111247
 31
0.0
 11
7.895112751
 21
8.267656297
 31
0.0
  0
SPLINE
  5
259
100
AcDbEntity
  8
0
100
AcDbSpline
 62
6
  6
CONTINUOUS
 70
0
 71
3
 72
15
 73
11
 74
9
 42
0.0000001
 43
0.0000001
 44
0.0000000001
 12
-0.3299283678
 22
0.0
 32
0.0
 13
-0.3186585569
 23
-0.0854953331
 33
0.0
 40
0.0
 40
0.0
 40
0.0
 40
0.0
 40
0.1323735874
 40
0.2640072772
 40
0.394175587
 40
0.5221741182
 40
0.6473367553
 40
0.7690474202
 40
0.886756775
 40
1.0
 40
1.0
 40
1.0
 40
1.0
 10
8.395112751
 20
8.3366503309
 30
0.0
 10
8.3805548171
 20
8.3366503309
 30
0.0
 10
8.3515185985
 20
8.3362370088
 30
0.0
 10
8.3082028101
 20
8.3343787372
 30
0.0
 10
8.2654389245
 20
8.3312930658
 30
0.0
 10
8.2234947342
 20
8.3269964556
 30
0.0
 10
8.1826272273
 20
8.321510913
 30
0.0
 10
8.1430788207
 20
8.3148623211
 30
0.0
 10
8.1050749755
 20
8.3070788377
 30
0.0
 10
8.080398616
 20
8.3010273116
 30
0.0
 10
8.0683699751
 20
8.2978000558
 30
0.0
 11
8.395112751
 21
8.3366503309
 31
0.0
 11
8.3514433998
 21
8.3360268605
 31
0.0
 11
8.3080538574
 21
8.3341599235
 31
0.0
 11
8.2652196793
 21
8.3310597904
 31
0.0
 11
8.2232105383
 21
8.3267430515
 31
0.0
 11
8.182285261
 21
8.321231763
 31
0.0
 11
8.1426889156
 21
8.3145521084
 31
0.0
 11
8.1046486732
 21
8.3067323846
 31
0.0
 11
8.0683699751
 21
8.2978000558
 31
0.0
  0
SPLINE
  5
25A
100
AcDbEntity
  8
0
100
AcDbSpline
 62
6
  6
CONTINUOUS
 70
0
 71
3
 72
41
 73
37
 74
35
 42
0.0000001
 43
0.0000001
 44
0.0000000001
 12
-0.4198679141
 22
-0.1423395785
 32
0.0
 13
0.356618883
 23
-0.2633867749
 33
0.0
 40
0.0
 40
0.0
 40
0.0
 40
0.0
 40
0.0378376864
 40
0.0747394269
 40
0.1107120435
 40
0.1457713122
 40
0.179945879
 40
0.2132744704
 40
0.2458118631
 40
0.2776243281
 40
0.3087950411
 40
0.3394208169
 40
0.3696094267
 40
0.3994830844
 40
0.4587367281
 40
0.4883873309
 40
0.5181661418
 40
0.5481306283
 40
0.5631920086
 40
0.5783042329
 40
0.6086471376
 40
0.6238740634
 40
0.6391215371
 40
0.6543785788
 40
0.6696346829
 40
0.6848783334
 40
0.7000979738
 40
0.7304229843
 40
0.7605637413
 40
0.7755633097
 40
0.7905112507
 40
0.8202729987
 40
0.8499130031
 40
0.8795280899
 40
0.9390993378
 40
1.0
 40
1.0
 40
1.0
 40
1.0
 10
8.0206526456
 20
8.2833905199
 30
0.0
 10
8.0153570354
 20
8.2815952531
 30
0.0
 10
8.0049395086
 20
8.2779213551
 30
0.0
 10
7.9896567014
 20
8.2720748736
 30
0.0
 10
7.9749234719
 20
8.2659576964
 30
0.0
 10
7.9607489215
 20
8.2595637699
 30
0.0
 10
7.9471408216
 20
8.2528831197
 30
0.0
 10
7.9341043465
 20
8.2459035697
 30
0.0
 10
7.9216457701
 20
8.2386056104
 30
0.0
 10
7.9097686682
 20
8.2309687703
 30
0.0
 10
7.8984822476
 20
8.2229607505
 30
0.0
 10
7.8877949646
 20
8.2145508682
 30
0.0
 10
7.8777266486
 20
8.2056930839
 30
0.0
 10
7.8652016464
 20
8.1932727627
 30
0.0
 10
7.8539667198
 20
8.1796921391
 30
0.0
 10
7.8444360949
 20
8.1649488107
 30
0.0
 10
7.8382163552
 20
8.1532747302
 30
0.0
 10
7.8339167971
 20
8.1430715991
 30
0.0
 10
7.8310603513
 20
8.1346525689
 30
0.0
 10
7.8286070508
 20
8.126049623
 30
0.0
 10
7.8267992881
 20
8.1172471006
 30
0.0
 10
7.8256814302
 20
8.1083261657
 30
0.0
 10
7.8251909463
 20
8.1015825333
 30
0.0
 10
7.8250560162
 20
8.0948182752
 30
0.0
 10
7.8252780602
 20
8.0880569091
 30
0.0
 10
7.8258527486
 20
8.0813217662
 30
0.0
 10
7.8270846086
 20
8.0724199046
 30
0.0
 10
7.8294721057
 20
8.061471614
 30
0.0
 10
7.8329324274
 20
8.0508501196
 30
0.0
 10
7.8362798934
 20
8.0426224254
 30
0.0
 10
7.8399820788
 20
8.0346097861
 30
0.0
 10
7.84525713
 20
8.024954325
 30
0.0
 10
7.8525157865
 20
8.0139664681
 30
0.0
 10
7.863306627
 20
8.0000943025
 30
0.0
 10
7.8787598611
 20
7.9840888131
 30
0.0
 10
7.8925840161
 20
7.9728111526
 30
0.0
 10
7.8998234582
 20
7.9674643429
 30
0.0
 11
8.0206526456
 21
8.2833905199
 31
0.0
 11
8.0048347892
 21
8.2778053926
 31
0.0
 11
7.9895571903
 21
8.2719535424
 31
0.0
 11
7.9748310767
 21
8.2658312458
 31
0.0
 11
7.960666114
 21
8.2594325543
 31
0.0
 11
7.9470695677
 21
8.2527479128
 31
0.0
 11
7.9340478755
 21
8.2457649429
 31
0.0
 11
7.9216060538
 21
8.2384653126
 31
0.0
 11
7.9097494641
 21
8.2308275138
 31
0.0
 11
7.8984854881
 21
8.2228216984
 31
0.0
 11
7.8878238091
 21
8.2144145593
 31
0.0
 11
7.8777834509
 21
8.2055648627
 31
0.0
 11
7.8683897578
 21
8.1962285694
 31
0.0
 11
7.851730759
 21
8.1759169383
 31
0.0
 11
7.8446050692
 21
8.1648705469
 31
0.0
 11
7.8384088706
 21
8.1532128061
 31
0.0
 11
7.8332592031
 21
8.1409671121
 31
0.0
 11
7.8311150822
 21
8.1346434202
 31
0.0
 11
7.8292784969
 21
8.1282002204
 31
0.0
 11
7.8265795023
 21
8.1150215609
 31
0.0
 11
7.8257400517
 21
8.1083232646
 31
0.0
 11
7.8252503178
 21
8.1015812257
 31
0.0
 11
7.8251155277
 21
8.0948185246
 31
0.0
 11
7.8253370119
 21
8.0880585234
 31
0.0
 11
7.8259117454
 21
8.081324899
 31
0.0
 11
7.8268358727
 21
8.0746410198
 31
0.0
 11
7.8296955259
 21
8.0615044051
 31
0.0
 11
7.8338250542
 21
8.0487959239
 31
0.0
 11
7.8363300575
 21
8.0426358851
 31
0.0
 11
7.8391082771
 21
8.0366193472
 31
0.0
 11
7.8454237284
 21
8.0250343919
 31
0.0
 11
7.8526552479
 21
8.0140626173
 31
0.0
 11
7.8607057347
 21
8.0036908205
 31
0.0
 11
7.8789702259
 21
7.9846143796
 31
0.0
 11
7.8998234582
 21
7.9674643429
 31
0.0
  0
SPLINE
  5
25B
100
AcDbEntity
  8
0
100
AcDbSpline
 62
6
  6
CONTINUOUS
 70
0
 71
3
 72
39
 73
35
 74
33
 42
0.0000001
 43
0.0000001
 44
0.0000000001
 12
0.0555720337
 22
-0.5050685435
 32
0.0
 13
0.5081166053
 23
0.0
 33
0.0
 40
0.0
 40
0.0
 40
0.0
 40
0.0
 40
0.009525132
 40
0.0190442566
 40
0.0285931094
 40
0.0382001943
 40
0.0576314858
 40
0.077439932
 40
0.0875349927
 40
0.0977781966
 40
0.108187569
 40
0.1187799499
 40
0.1405674494
 40
0.1632539967
 40
0.1869293587
 40
0.2116615775
 40
0.2374998932
 40
0.2644754254
 40
0.292604006
 40
0.3218878377
 40
0.3523167694
 40
0.3838709961
 40
0.4165208166
 40
0.450229334
 40
0.4849521964
 40
0.520639099
 40
0.5572344558
 40
0.5946775612
 40
0.6329039231
 40
0.6718449903
 40
0.7515785691
 40
0.8332777043
 40
0.9163034831
 40
1.0
 40
1.0
 40
1.0
 40
1.0
 10
7.9423082615
 20
7.5833181039
 30
0.0
 10
7.9424847052
 20
7.581714489
 30
0.0
 10
7.9429458665
 20
7.5785191504
 30
0.0
 10
7.9439556709
 20
7.5737793545
 30
0.0
 10
7.9452751103
 20
7.5691016452
 30
0.0
 10
7.9474426936
 20
7.5629321572
 30
0.0
 10
7.9508909465
 20
7.5553893043
 30
0.0
 10
7.9551981958
 20
7.5482101878
 30
0.0
 10
7.9591231985
 20
7.542655111
 30
0.0
 10
7.962326896
 20
7.538546865
 30
0.0
 10
7.9657655201
 20
7.5345220465
 30
0.0
 10
7.9707025844
 20
7.5292140429
 30
0.0
 10
7.9774593644
 20
7.522770856
 30
0.0
 10
7.9863588857
 20
7.5154076664
 30
0.0
 10
7.9961023629
 20
7.5083204595
 30
0.0
 10
8.0066726597
 20
7.5014977677
 30
0.0
 10
8.0180525713
 20
7.4949303261
 30
0.0
 10
8.0302253716
 20
7.4886149517
 30
0.0
 10
8.0431720846
 20
7.4825508603
 30
0.0
 10
8.056871891
 20
7.4767406547
 30
0.0
 10
8.0713013992
 20
7.471188587
 30
0.0
 10
8.0864346831
 20
7.4659005338
 30
0.0
 10
8.1022433927
 20
7.4608832056
 30
0.0
 10
8.118696721
 20
7.4561439902
 30
0.0
 10
8.1357616753
 20
7.4516905422
 30
0.0
 10
8.1534031216
 20
7.4475305302
 30
0.0
 10
8.1715840242
 20
7.4436716689
 30
0.0
 10
8.1902655319
 20
7.4401211888
 30
0.0
 10
8.2094072647
 20
7.4368861645
 30
0.0
 10
8.2356934451
 20
7.4329715201
 30
0.0
 10
8.2693981102
 20
7.4289301021
 30
0.0
 10
8.3106652885
 20
7.4254625063
 30
0.0
 10
8.3526965222
 20
7.4233697011
 30
0.0
 10
8.3809368876
 20
7.4229039145
 30
0.0
 10
8.395112751
 20
7.4229039145
 30
0.0
 11
7.9423082615
 21
7.5833181039
 31
0.0
 11
7.9429988984
 21
7.5785277555
 31
0.0
 11
7.9440054553
 21
7.5737968231
 31
0.0
 11
7.9453207921
 21
7.5691265853
 31
0.0
 11
7.9469366641
 21
7.5645202648
 31
0.0
 11
7.951025142
 21
7.5555331839
 31
0.0
 11
7.9561834866
 21
7.5468905156
 31
0.0
 11
7.9591409183
 21
7.542699449
 31
0.0
 11
7.9623393557
 21
7.5385934367
 31
0.0
 11
7.9657728642
 21
7.5345702052
 31
0.0
 11
7.9694362502
 21
7.5306271989
 31
0.0
 11
7.977433221
 21
7.5229717153
 31
0.0
 11
7.9863014947
 21
7.5156072783
 31
0.0
 11
7.9960191032
 21
7.5085160691
 31
0.0
 11
8.0065681839
 21
7.5016865273
 31
0.0
 11
8.0179316727
 21
7.4951109254
 31
0.0
 11
8.0300919874
 21
7.4887863064
 31
0.0
 11
8.0430298766
 21
7.4827126415
 31
0.0
 11
8.0567240526
 21
7.4768926695
 31
0.0
 11
8.0711505763
 21
7.4713310412
 31
0.0
 11
8.0862833919
 21
7.4660336599
 31
0.0
 11
8.1020935985
 21
7.4610074607
 31
0.0
 11
8.1185503145
 21
7.4562598298
 31
0.0
 11
8.1356202066
 21
7.4517984947
 31
0.0
 11
8.1532679584
 21
7.4476311869
 31
0.0
 11
8.1714564191
 21
7.4437655588
 31
0.0
 11
8.1901464911
 21
7.4402089488
 31
0.0
 11
8.2092977079
 21
7.4369683816
 31
0.0
 11
8.2288679619
 21
7.4340503669
 31
0.0
 11
8.2690911784
 21
7.4292054277
 31
0.0
 11
8.310456844
 21
7.4257147388
 31
0.0
 11
8.3525909923
 21
7.4236081549
 31
0.0
 11
8.395112751
 21
7.4229039145
 31
0.0
  0
SPLINE
  5
25C
100
AcDbEntity
  8
0
100
AcDbSpline
 62
6
  6
CONTINUOUS
 70
0
 71
3
 72
33
 73
29
 74
27
 42
0.0000001
 43
0.0000001
 44
0.0000000001
 12
-0.4541959119
 22
0.0
 32
0.0
 13
-0.1493618682
 23
-0.4289346788
 33
0.0
 40
0.0
 40
0.0
 40
0.0
 40
0.0
 40
0.0829164176
 40
0.165234232
 40
0.2463660543
 40
0.3257360436
 40
0.4027935456
 40
0.4770192534
 40
0.5129209256
 40
0.5479395507
 40
0.5820235416
 40
0.6151258396
 40
0.6472034347
 40
0.6782190307
 40
0.7081406176
 40
0.7369430964
 40
0.7646086408
 40
0.7911278043
 40
0.8165011244
 40
0.8407396314
 40
0.8638678106
 40
0.885923624
 40
0.9069613353
 40
0.92705254
 40
0.946289321
 40
0.964775727
 40
0.9826295256
 40
1.0
 40
1.0
 40
1.0
 40
1.0
 10
8.395112751
 20
8.6378528583
 30
0.0
 10
8.3825593183
 20
8.6378528583
 30
0.0
 10
8.3575413072
 20
8.6374640329
 30
0.0
 10
8.3202768436
 20
8.6357168248
 30
0.0
 10
8.2836219881
 20
8.6328205505
 30
0.0
 10
8.2478744144
 20
8.6287983101
 30
0.0
 10
8.213323297
 20
8.6236820347
 30
0.0
 10
8.1854563612
 20
8.6184842278
 30
0.0
 10
8.1639874894
 20
8.6137889619
 30
0.0
 10
8.1485321972
 20
8.610059793
 30
0.0
 10
8.1335747819
 20
8.6060907257
 30
0.0
 10
8.1191441222
 20
8.6018888933
 30
0.0
 10
8.1052677942
 20
8.5974613861
 30
0.0
 10
8.0919718741
 20
8.592815655
 30
0.0
 10
8.0792809227
 20
8.5879588191
 30
0.0
 10
8.067217842
 20
8.5828980333
 30
0.0
 10
8.0558039346
 20
8.5776398406
 30
0.0
 10
8.0450587293
 20
8.5721903329
 30
0.0
 10
8.035000314
 20
8.5665544455
 30
0.0
 10
8.0256450359
 20
8.5607361611
 30
0.0
 10
8.017008566
 20
8.5547372934
 30
0.0
 10
8.0091055402
 20
8.5485583208
 30
0.0
 10
8.0019516294
 20
8.5421969071
 30
0.0
 10
7.9955633229
 20
8.5356491284
 30
0.0
 10
7.9899626205
 20
8.5289091292
 30
0.0
 10
7.9851755632
 20
8.5219738995
 30
0.0
 10
7.981235998
 20
8.5148443484
 30
0.0
 10
7.9791779867
 20
8.5099094945
 30
0.0
 10
7.9783131579
 20
8.5074258949
 30
0.0
 11
8.395112751
 21
8.6378528583
 31
0.0
 11
8.3574570343
 21
8.6372654528
 31
0.0
 11
8.3201099503
 21
8.6355079351
 31
0.0
 11
8.2833755747
 21
8.6325943223
 31
0.0
 11
8.2475538876
 21
8.6285477235
 31
0.0
 11
8.2129353296
 21
8.623399946
 31
0.0
 11
8.1797990217
 21
8.6171908926
 31
0.0
 11
8.1638700523
 21
8.6137028589
 31
0.0
 11
8.1484095364
 21
8.6099676834
 31
0.0
 11
8.1334478961
 21
8.6059921613
 31
0.0
 11
8.1190140738
 21
8.6017833793
 31
0.0
 11
8.1051359178
 21
8.5973485757
 31
0.0
 11
8.0918395583
 21
8.5926951023
 31
0.0
 11
8.0791498555
 21
8.5878302614
 31
0.0
 11
8.0670899014
 21
8.5827611987
 31
0.0
 11
8.0556812516
 21
8.5774946592
 31
0.0
 11
8.044943833
 21
8.5720368801
 31
0.0
 11
8.0348958963
 21
8.566393113
 31
0.0
 11
8.025554428
 21
8.5605676748
 31
0.0
 11
8.0169350921
 21
8.5545629863
 31
0.0
 11
8.0090531207
 21
8.5483801032
 31
0.0
 11
8.0019240451
 21
8.5420177971
 31
0.0
 11
7.9955647935
 21
8.5354731959
 31
0.0
 11
7.9899952855
 21
8.5287411516
 31
0.0
 11
7.9852413144
 21
8.5218201594
 31
0.0
 11
7.9813355818
 21
8.5147136049
 31
0.0
 11
7.9783131579
 21
8.5074258949
 31
0.0
  0
SPLINE
  5
25D
100
AcDbEntity
  8
0
100
AcDbSpline
 62
6
  6
CONTINUOUS
 70
0
 71
3
 72
33
 73
29
 74
27
 42
0.0000001
 43
0.0000001
 44
0.0000000001
 12
-0.1493618681
 22
0.4289346791
 32
0.0
 13
-0.4541959122
 23
0.0
 33
0.0
 40
0.0
 40
0.0
 40
0.0
 40
0.0
 40
0.0173705565
 40
0.0352242618
 40
0.0537106779
 40
0.0729475035
 40
0.0930387146
 40
0.1140764341
 40
0.1361322593
 40
0.1592604518
 40
0.1834989666
 40
0.2088722976
 40
0.2353914665
 40
0.2630570205
 40
0.2918595022
 40
0.3217810958
 40
0.352796693
 40
0.3848742906
 40
0.4179765887
 40
0.4520605781
 40
0.4870792019
 40
0.5229808695
 40
0.5972065668
 40
0.6742640538
 40
0.753634024
 40
0.8347658231
 40
0.9170836099
 40
1.0
 40
1.0
 40
1.0
 40
1.0
 10
8.8119123441
 20
8.5074258948
 30
0.0
 10
8.8110475111
 20
8.5099095062
 30
0.0
 10
8.8089895062
 20
8.5148443614
 30
0.0
 10
8.805049929
 20
8.5219739057
 30
0.0
 10
8.8002628771
 20
8.5289091315
 30
0.0
 10
8.7946621713
 20
8.5356491401
 30
0.0
 10
8.7882738578
 20
8.5421969248
 30
0.0
 10
8.7811199399
 20
8.5485583363
 30
0.0
 10
8.7732169109
 20
8.554737313
 30
0.0
 10
8.7645804352
 20
8.5607361813
 30
0.0
 10
8.7552251522
 20
8.5665544668
 30
0.0
 10
8.7451667325
 20
8.572190354
 30
0.0
 10
8.7344215231
 20
8.5776398622
 30
0.0
 10
8.7230076123
 20
8.5828980541
 30
0.0
 10
8.7109445284
 20
8.5879588397
 30
0.0
 10
8.6982535747
 20
8.5928156742
 30
0.0
 10
8.6849576527
 20
8.5974614046
 30
0.0
 10
8.6710813236
 20
8.6018889104
 30
0.0
 10
8.6566506634
 20
8.6060907413
 30
0.0
 10
8.6416932482
 20
8.6100598076
 30
0.0
 10
8.6262379566
 20
8.6137889743
 30
0.0
 10
8.604769087
 20
8.6184842391
 30
0.0
 10
8.5769021553
 20
8.6236820429
 30
0.0
 10
8.5423510443
 20
8.6287983157
 30
0.0
 10
8.5066034791
 20
8.6328205536
 30
0.0
 10
8.469948634
 20
8.6357168262
 30
0.0
 10
8.4326841823
 20
8.6374640331
 30
0.0
 10
8.4076661794
 20
8.6378528583
 30
0.0
 10
8.395112751
 20
8.6378528583
 30
0.0
 11
8.8119123441
 21
8.5074258948
 31
0.0
 11
8.8088899076
 21
8.51471364
 31
0.0
 11
8.8049841888
 21
8.5218201538
 31
0.0
 11
8.8002302151
 21
8.5287411498
 31
0.0
 11
8.7946606963
 21
8.5354732114
 31
0.0
 11
8.7883014418
 21
8.5420178139
 31
0.0
 11
8.7811723606
 21
8.5483801193
 31
0.0
 11
8.7732903845
 21
8.5545630052
 31
0.0
 11
8.7646710425
 21
8.5605676956
 31
0.0
 11
8.7553295702
 21
8.5663931339
 31
0.0
 11
8.7452816283
 21
8.5720369018
 31
0.0
 11
8.7345442066
 21
8.5774946804
 31
0.0
 11
8.723135552
 21
8.58276122
 31
0.0
 11
8.7110755961
 21
8.5878302817
 31
0.0
 11
8.6983858898
 21
8.5926951219
 31
0.0
 11
8.6850895293
 21
8.5973485941
 31
0.0
 11
8.6712113717
 21
8.6017833965
 31
0.0
 11
8.6567775489
 21
8.6059921771
 31
0.0
 11
8.641815909
 21
8.6099676979
 31
0.0
 11
8.6263553932
 21
8.6137028717
 31
0.0
 11
8.6104264257
 21
8.6171909041
 31
0.0
 11
8.577290122
 21
8.6233999545
 31
0.0
 11
8.5426715705
 21
8.6285477293
 31
0.0
 11
8.5068498919
 21
8.6325943256
 31
0.0
 11
8.4701155267
 21
8.6355079366
 31
0.0
 11
8.4327684551
 21
8.6372654532
 31
0.0
 11
8.395112751
 21
8.6378528583
 31
0.0
  0
SPLINE
  5
25E
100
AcDbEntity
  8
0
100
AcDbSpline
 62
6
  6
CONTINUOUS
 70
0
 71
3
 72
38
 73
34
 74
32
 42
0.0000001
 43
0.0000001
 44
0.0000000001
 12
0.0
 22
0.5580680235
 32
0.0
 13
-0.5580680235
 23
0.0
 33
0.0
 40
0.0
 40
0.0
 40
0.0
 40
0.0
 40
0.0085060205
 40
0.01701713
 40
0.0255679475
 40
0.0341895382
 40
0.0517213836
 40
0.0697782712
 40
0.0885322933
 40
0.1081376454
 40
0.1287254544
 40
0.1504039024
 40
0.1732568438
 40
0.1973454079
 40
0.2227098281
 40
0.2493728806
 40
0.2773410296
 40
0.3066077454
 40
0.3371546199
 40
0.3689529718
 40
0.4019657091
 40
0.4361475742
 40
0.4714467791
 40
0.5078055669
 40
0.5451606217
 40
0.5834442275
 40
0.6225842865
 40
0.6625050644
 40
0.7031277267
 40
0.7443703368
 40
0.8283739576
 40
0.9138220742
 40
1.0
 40
1.0
 40
1.0
 40
1.0
 10
8.890112751
 20
8.3400126288
 30
0.0
 10
8.890112751
 20
8.3415949415
 30
0.0
 10
8.8900001241
 20
8.3447616712
 30
0.0
 10
8.8894946395
 20
8.3494946769
 30
0.0
 10
8.8886558263
 20
8.3542022565
 30
0.0
 10
8.8870903199
 20
8.3604696561
 30
0.0
 10
8.8843029264
 20
8.3682334832
 30
0.0
 10
8.8797318282
 20
8.3772751111
 30
0.0
 10
8.8739763708
 20
8.3860740935
 30
0.0
 10
8.8670851706
 20
8.3946239657
 30
0.0
 10
8.8590968117
 20
8.4029278197
 30
0.0
 10
8.8500410557
 20
8.4109895063
 30
0.0
 10
8.8399435781
 20
8.4188129059
 30
0.0
 10
8.8288268561
 20
8.4263977979
 30
0.0
 10
8.8167137284
 20
8.433741499
 30
0.0
 10
8.8036281952
 20
8.4408383842
 30
0.0
 10
8.7895962539
 20
8.4476807068
 30
0.0
 10
8.7746464712
 20
8.4542592225
 30
0.0
 10
8.7588099623
 20
8.460563503
 30
0.0
 10
8.7421205678
 20
8.466582674
 30
0.0
 10
8.7246146687
 20
8.4723053186
 30
0.0
 10
8.7063311599
 20
8.4777201859
 30
0.0
 10
8.6873112764
 20
8.4828161006
 30
0.0
 10
8.667598426
 20
8.4875821373
 30
0.0
 10
8.6472380905
 20
8.4920080387
 30
0.0
 10
8.6262776108
 20
8.4960838714
 30
0.0
 10
8.6047660547
 20
8.4998004947
 30
0.0
 10
8.5827540901
 20
8.5031494873
 30
0.0
 10
8.560293686
 20
8.5061230752
 30
0.0
 10
8.5296332655
 20
8.5095992242
 30
0.0
 10
8.490573214
 20
8.5129455009
 30
0.0
 10
8.4430728591
 20
8.5153558688
 30
0.0
 10
8.4111437992
 20
8.5158923983
 30
0.0
 10
8.395112751
 20
8.5158923983
 30
0.0
 11
8.890112751
 21
8.3400126288
 31
0.0
 11
8.8899442398
 21
8.3447565749
 31
0.0
 11
8.8894407009
 21
8.3494795867
 31
0.0
 11
8.8886051268
 21
8.3541777998
 31
0.0
 11
8.8874412769
 21
8.358846349
 31
0.0
 11
8.8841540773
 21
8.3680615666
 31
0.0
 11
8.8796319052
 21
8.3770668604
 31
0.0
 11
8.8739267245
 21
8.3858411688
 31
0.0
 11
8.867083286
 21
8.3943778813
 31
0.0
 11
8.8591378203
 21
8.4026770281
 31
0.0
 11
8.8501190467
 21
8.4107408054
 31
0.0
 11
8.8400520279
 21
8.4185706706
 31
0.0
 11
8.8289597153
 21
8.4261651681
 31
0.0
 11
8.8168655164
 21
8.4335201944
 31
0.0
 11
8.8037938958
 21
8.4406294203
 31
0.0
 11
8.789771672
 21
8.447484415
 31
0.0
 11
8.7748278476
 21
8.4540755501
 31
0.0
 11
8.7589940718
 21
8.4603921732
 31
0.0
 11
8.74230469
 21
8.4664231264
 31
0.0
 11
8.7247963321
 21
8.472157003
 31
0.0
 11
8.7065083166
 21
8.477582393
 31
0.0
 11
8.6874821113
 21
8.4826880957
 31
0.0
 11
8.6677613171
 21
8.4874632233
 31
0.0
 11
8.6473917009
 21
8.4918974125
 31
0.0
 11
8.6264206989
 21
8.4959808128
 31
0.0
 11
8.6048975817
 21
8.4997042534
 31
0.0
 11
8.5828731481
 21
8.5030592969
 31
0.0
 11
8.5603995089
 21
8.5060382077
 31
0.0
 11
8.5375301907
 21
8.5086341489
 31
0.0
 11
8.4908231069
 21
8.5126538321
 31
0.0
 11
8.4431990479
 21
8.5150808433
 31
0.0
 11
8.395112751
 21
8.5158923983
 31
0.0
  0
SPLINE
  5
25F
100
AcDbEntity
  8
0
100
AcDbSpline
 62
6
  6
CONTINUOUS
 70
0
 71
3
 72
21
 73
17
 74
15
 42
0.0000001
 43
0.0000001
 44
0.0000000001
 12
-0.380618689
 22
0.0
 32
0.0
 13
-0.3529251093
 23
-0.1425287818
 33
0.0
 40
0.0
 40
0.0
 40
0.0
 40
0.0
 40
0.1391305806
 40
0.2768330667
 40
0.3447145902
 40
0.4117178404
 40
0.4776763967
 40
0.5424282929
 40
0.6058175615
 40
0.6676949011
 40
0.7279188714
 40
0.7863572727
 40
0.8428879611
 40
0.8974005102
 40
0.9497983278
 40
1.0
 40
1.0
 40
1.0
 40
1.0
 10
8.395112751
 20
8.5158923983
 30
0.0
 10
8.3774608512
 20
8.5158923983
 30
0.0
 10
8.3423349781
 20
8.5152426607
 30
0.0
 10
8.2986572456
 20
8.5128002481
 30
0.0
 10
8.2641961266
 20
8.5098655101
 30
0.0
 10
8.2388525066
 20
8.5072006004
 30
0.0
 10
8.2139624224
 20
8.5040691919
 30
0.0
 10
8.1895974616
 20
8.50048004
 30
0.0
 10
8.1658275817
 20
8.4964432478
 30
0.0
 10
8.1427206887
 20
8.4919699328
 30
0.0
 10
8.1203423908
 20
8.487072318
 30
0.0
 10
8.0987557173
 20
8.4817636431
 30
0.0
 10
8.0780209642
 20
8.4760578572
 30
0.0
 10
8.0581952197
 20
8.4699695019
 30
0.0
 10
8.0393327012
 20
8.4635138179
 30
0.0
 10
8.0271670784
 20
8.4588736012
 30
0.0
 10
8.0212612682
 20
8.4564885402
 30
0.0
 11
8.395112751
 21
8.5158923983
 31
0.0
 11
8.3421662023
 21
8.5149079886
 31
0.0
 11
8.2898366952
 21
8.5119660363
 31
0.0
 11
8.2640931664
 21
8.5097705692
 31
0.0
 11
8.2387306919
 21
8.5070999801
 31
0.0
 11
8.2138225475
 21
8.5039617729
 31
0.0
 11
8.1894406668
 21
8.5003647668
 31
0.0
 11
8.1656551521
 21
8.4963190048
 31
0.0
 11
8.1425341537
 21
8.4918356264
 31
0.0
 11
8.1201435532
 21
8.4869268593
 31
0.0
 11
8.0985466261
 21
8.4816059042
 31
0.0
 11
8.0778039929
 21
8.4758867421
 31
0.0
 11
8.0579732857
 21
8.4697840302
 31
0.0
 11
8.0391087441
 21
8.4633128788
 31
0.0
 11
8.0212612682
 21
8.4564885402
 31
0.0
  0
SPLINE
  5
260
100
AcDbEntity
  8
0
100
AcDbSpline
 62
6
  6
CONTINUOUS
 70
0
 71
3
 72
26
 73
22
 74
20
 42
0.0000001
 43
0.0000001
 44
0.0000000001
 12
-0.1645463734
 22
-0.0664520419
 32
0.0
 13
0.0
 23
-0.1774581159
 33
0.0
 40
0.0
 40
0.0
 40
0.0
 40
0.0
 40
0.0842562344
 40
0.1652345517
 40
0.2429038979
 40
0.3172607256
 40
0.388328668
 40
0.4561660072
 40
0.5208673148
 40
0.5825704136
 40
0.6414584826
 40
0.6977671233
 40
0.7517743767
 40
0.7780259264
 40
0.8038297734
 40
0.8542744552
 40
0.903511497
 40
0.9277949754
 40
0.9519201978
 40
0.9759620859
 40
1.0
 40
1.0
 40
1.0
 40
1.0
 10
8.0212612682
 20
8.4564885402
 30
0.0
 10
8.0166399156
 20
8.4546222072
 30
0.0
 10
8.0076319331
 20
8.4508238372
 30
0.0
 10
7.9945851214
 20
8.4447977524
 30
0.0
 10
7.9822898292
 20
8.4385618516
 30
0.0
 10
7.9707663129
 20
8.4321227466
 30
0.0
 10
7.9600330713
 20
8.4254856471
 30
0.0
 10
7.9501073551
 20
8.4186545729
 30
0.0
 10
7.9410057788
 20
8.4116314228
 30
0.0
 10
7.9327446642
 20
8.4044167513
 30
0.0
 10
7.9253420516
 20
8.3970080443
 30
0.0
 10
7.9188186773
 20
8.3894034222
 30
0.0
 10
7.9140915442
 20
8.3828377727
 30
0.0
 10
7.9107977133
 20
8.3774953652
 30
0.0
 10
7.9078747444
 20
8.3721808718
 30
0.0
 10
7.9048073237
 20
8.3654047423
 30
0.0
 10
7.9025540392
 20
8.3584074572
 30
0.0
 10
7.9012892849
 20
8.3527684363
 30
0.0
 10
7.900611768
 20
8.3485337125
 30
0.0
 10
7.9002036456
 20
8.3442794282
 30
0.0
 10
7.900112751
 20
8.3414345364
 30
0.0
 10
7.900112751
 20
8.3400126288
 30
0.0
 11
8.0212612682
 21
8.4564885402
 31
0.0
 11
8.007487798
 21
8.4506702581
 31
0.0
 11
7.9944463825
 21
8.4446348754
 31
0.0
 11
7.9821592893
 21
8.4383898799
 31
0.0
 11
7.97064678
 21
8.4319419324
 31
0.0
 11
7.9599279059
 21
8.4252968013
 31
0.0
 11
7.9500201862
 21
8.4184588609
 31
0.0
 11
7.9409405612
 21
8.411430952
 31
0.0
 11
7.9327055965
 21
8.4042141918
 31
0.0
 11
7.9253332434
 21
8.3968078179
 31
0.0
 11
7.9188431764
 21
8.3892099502
 31
0.0
 11
7.9132601306
 21
8.3814200116
 31
0.0
 11
7.9108174197
 21
8.3774532426
 31
0.0
 11
7.9086129825
 21
8.3734396865
 31
0.0
 11
7.9049378039
 21
8.365277082
 31
0.0
 11
7.9022727311
 21
8.3569559334
 31
0.0
 11
7.901331101
 21
8.3527507697
 31
0.0
 11
7.9006556875
 21
8.3485231662
 31
0.0
 11
7.900248847
 21
8.3442761801
 31
0.0
 11
7.900112751
 21
8.3400126288
 31
0.0
  0
SPLINE
  5
261
100
AcDbEntity
  8
0
100
AcDbSpline
 62
9
  6
CONTINUOUS
 70
0
 71
3
 72
42
 73
38
 74
36
 42
0.0000001
 43
0.0000001
 44
0.0000000001
 12
-0.4193600441
 22
0.0
 32
0.0
 13
-0.0
 23
-0.4193600441
 33
0.0
 40
0.0
 40
0.0
 40
0.0
 40
0.0
 40
0.0875718734
 40
0.1311909789
 40
0.1745484816
 40
0.217532731
 40
0.2600387645
 40
0.3019816573
 40
0.3432807713
 40
0.3838560686
 40
0.42362835
 40
0.4625204899
 40
0.5004589773
 40
0.5373719239
 40
0.5731890591
 40
0.6078422508
 40
0.6412708452
 40
0.6734268706
 40
0.7042667761
 40
0.7337511533
 40
0.7618460375
 40
0.7885299848
 40
0.8137987127
 40
0.8376581738
 40
0.8601264535
 40
0.881237579
 40
0.9010518944
 40
0.9196609129
 40
0.9285522714
 40
0.9371894983
 40
0.9537761647
 40
0.9617793835
 40
0.9696219114
 40
0.9773333432
 40
0.9849449996
 40
0.9924894197
 40
1.0
 40
1.0
 40
1.0
 40
1.0
 10
8.395112751
 20
8.903347866
 30
0.0
 10
8.3828713694
 20
8.903347866
 30
0.0
 10
8.3645306317
 20
8.9030388908
 30
0.0
 10
8.340151915
 20
8.9020121754
 30
0.0
 10
8.3220158881
 20
8.9009387425
 30
0.0
 10
8.3040564034
 20
8.8995628495
 30
0.0
 10
8.2863210691
 20
8.8978860371
 30
0.0
 10
8.2688531308
 20
8.8959141331
 30
0.0
 10
8.2516924717
 20
8.8936525607
 30
0.0
 10
8.2348784296
 20
8.8911067845
 30
0.0
 10
8.218450211
 20
8.8882821049
 30
0.0
 10
8.2024465103
 20
8.8851842329
 30
0.0
 10
8.1869048412
 20
8.8818221698
 30
0.0
 10
8.1718623066
 20
8.8782045354
 30
0.0
 10
8.1573558887
 20
8.8743400967
 30
0.0
 10
8.1434219628
 20
8.8702371328
 30
0.0
 10
8.1300947402
 20
8.865904286
 30
0.0
 10
8.1174049094
 20
8.8613538351
 30
0.0
 10
8.1053816931
 20
8.8565970993
 30
0.0
 10
8.0940539775
 20
8.8516455505
 30
0.0
 10
8.0834500427
 20
8.8465097934
 30
0.0
 10
8.0735956906
 20
8.8412009274
 30
0.0
 10
8.0645123474
 20
8.8357332947
 30
0.0
 10
8.0562202457
 20
8.8301197469
 30
0.0
 10
8.0487392405
 20
8.8243731464
 30
0.0
 10
8.0420889677
 20
8.8185044814
 30
0.0
 10
8.0362868291
 20
8.8125259989
 30
0.0
 10
8.0321057688
 20
8.8073875815
 30
0.0
 10
8.0292200622
 20
8.8032387261
 30
0.0
 10
8.0267054902
 20
8.7991849229
 30
0.0
 10
8.0245845187
 20
8.7950383388
 30
0.0
 10
8.0229068105
 20
8.7908238283
 30
0.0
 10
8.021888854
 20
8.7876895183
 30
0.0
 10
8.0210969594
 20
8.7845470416
 30
0.0
 10
8.020531182
 20
8.7813982533
 30
0.0
 10
8.020191667
 20
8.7782454526
 30
0.0
 10
8.0201161561
 20
8.7761401913
 30
0.0
 10
8.0201161561
 20
8.7750903122
 30
0.0
 11
8.395112751
 21
8.903347866
 31
0.0
 11
8.3583938177
 21
8.9027292047
 31
0.0
 11
8.3401179456
 21
8.9019586276
 31
0.0
 11
8.3219673852
 21
8.9008829969
 31
0.0
 11
8.303994322
 21
8.8995041458
 31
0.0
 11
8.2862482873
 21
8.8978246477
 31
0.0
 11
8.2687703718
 21
8.8958494283
 31
0.0
 11
8.2515999926
 21
8.8935838801
 31
0.0
 11
8.2347765666
 21
8.8910333959
 31
0.0
 11
8.2183395094
 21
8.8882033699
 31
0.0
 11
8.2023276668
 21
8.88510002
 31
0.0
 11
8.1867784354
 21
8.8817316571
 31
0.0
 11
8.1717289853
 21
8.8781069197
 31
0.0
 11
8.1572164864
 21
8.8742344466
 31
0.0
 11
8.1432780924
 21
8.870122882
 31
0.0
 11
8.1299485853
 21
8.8657817003
 31
0.0
 11
8.1172578894
 21
8.8612220761
 31
0.0
 11
8.105235334
 21
8.8564553921
 31
0.0
 11
8.0939102487
 21
8.8514930311
 31
0.0
 11
8.0833119212
 21
8.8463463857
 31
0.0
 11
8.0734665917
 21
8.8410275847
 31
0.0
 11
8.0643954414
 21
8.8355499781
 31
0.0
 11
8.0561191745
 21
8.8299270312
 31
0.0
 11
8.048658495
 21
8.8241722091
 31
0.0
 11
8.0420340117
 21
8.8182989896
 31
0.0
 11
8.0362622583
 21
8.8123213761
 31
0.0
 11
8.0313542565
 21
8.8062540832
 31
0.0
 11
8.0292274844
 21
8.8031914212
 31
0.0
 11
8.0273206365
 21
8.8001118764
 31
0.0
 11
8.0241720286
 21
8.7939095207
 31
0.0
 11
8.0229329262
 21
8.7907904013
 31
0.0
 11
8.021918889
 21
8.7876617888
 31
0.0
 11
8.0211301934
 21
8.7845255728
 31
0.0
 11
8.0205668393
 21
8.7813836541
 31
0.0
 11
8.0202288269
 21
8.7782379336
 31
0.0
 11
8.0201161561
 21
8.7750903122
 31
0.0
  0
SPLINE
  5
262
100
AcDbEntity
  8
0
100
AcDbSpline
 62
9
  6
CONTINUOUS
 70
0
 71
3
 72
22
 73
18
 74
16
 42
0.0000001
 43
0.0000001
 44
0.0000000001
 12
0.3836949783
 22
0.0
 32
0.0
 13
0.356025502
 23
-0.1430652937
 33
0.0
 40
0.0
 40
0.0
 40
0.0
 40
0.0
 40
0.1393066854
 40
0.2085155724
 40
0.2771889185
 40
0.345151136
 40
0.4122296279
 40
0.4782552127
 40
0.5430629282
 40
0.6064933153
 40
0.6683922712
 40
0.7286132152
 40
0.7870163326
 40
0.8434717348
 40
0.8978575192
 40
0.9500662374
 40
1.0
 40
1.0
 40
1.0
 40
1.0
 10
8.395112751
 20
8.5093125997
 30
0.0
 10
8.4129298428
 20
8.5093125997
 30
0.0
 10
8.4396022264
 20
8.5088214368
 30
0.0
 10
8.4750174231
 20
8.5071758116
 30
0.0
 10
8.5012901095
 20
8.5054563708
 30
0.0
 10
8.5272531887
 20
8.5032542742
 30
0.0
 10
8.5528311031
 20
8.5005758943
 30
0.0
 10
8.5779491347
 20
8.4974290836
 30
0.0
 10
8.6025339505
 20
8.4938228433
 30
0.0
 10
8.6265137792
 20
8.4897679948
 30
0.0
 10
8.6498185543
 20
8.485275961
 30
0.0
 10
8.6723802319
 20
8.4803603662
 30
0.0
 10
8.6941328002
 20
8.4750349229
 30
0.0
 10
8.7150127204
 20
8.4693161364
 30
0.0
 10
8.7349588847
 20
8.4632195264
 30
0.0
 10
8.7539129241
 20
8.4567644332
 30
0.0
 10
8.7661299228
 20
8.4521278059
 30
0.0
 10
8.7720558205
 20
8.4497465431
 30
0.0
 11
8.395112751
 21
8.5093125997
 31
0.0
 11
8.4485548652
 21
8.5083230102
 31
0.0
 11
8.4750812658
 21
8.5070886937
 31
0.0
 11
8.5013744864
 21
8.505365639
 31
0.0
 11
8.5273577021
 21
8.5031588318
 31
0.0
 11
8.5529550365
 21
8.5004746804
 31
0.0
 11
8.5780916575
 21
8.497320969
 31
0.0
 11
8.6026940033
 21
8.4937068049
 31
0.0
 11
8.6266902122
 21
8.4896427729
 31
0.0
 11
8.6500098993
 21
8.4851405706
 31
0.0
 11
8.6725849363
 21
8.4802134178
 31
0.0
 11
8.6943488818
 21
8.4748755165
 31
0.0
 11
8.7152381522
 21
8.4691426596
 31
0.0
 11
8.7351907608
 21
8.4630313459
 31
0.0
 11
8.7541488298
 21
8.4565597482
 31
0.0
 11
8.7720558205
 21
8.4497465431
 31
0.0
  0
SPLINE
  5
263
100
AcDbEntity
  8
0
100
AcDbSpline
 62
9
  6
CONTINUOUS
 70
0
 71
3
 72
26
 73
22
 74
20
 42
0.0000001
 43
0.0000001
 44
0.0000000001
 12
0.15761242
 22
-0.0633349775
 32
0.0
 13
-0.0000004215
 23
-0.1698616917
 33
0.0
 40
0.0
 40
0.0
 40
0.0
 40
0.0
 40
0.087929643
 40
0.1722519536
 40
0.2529019152
 40
0.3298437629
 40
0.403064681
 40
0.4725756264
 40
0.5384285499
 40
0.6007143551
 40
0.6595647002
 40
0.7151709354
 40
0.7677872539
 40
0.7930786452
 40
0.8177489953
 40
0.865425266
 40
0.9113101892
 40
0.9337602531
 40
0.955973242
 40
0.9780267107
 40
1.0
 40
1.0
 40
1.0
 40
1.0
 10
8.7720558205
 20
8.4497465431
 30
0.0
 10
8.7766754217
 20
8.4478902024
 30
0.0
 10
8.7856709739
 20
8.4441167104
 30
0.0
 10
8.7986859193
 20
8.4381386109
 30
0.0
 10
8.8109191697
 20
8.4319696867
 30
0.0
 10
8.8223474024
 20
8.4256224986
 30
0.0
 10
8.8329490861
 20
8.4191094796
 30
0.0
 10
8.8427032862
 20
8.4124417702
 30
0.0
 10
8.8515917616
 20
8.4056322054
 30
0.0
 10
8.8595981665
 20
8.398693729
 30
0.0
 10
8.8667063253
 20
8.3916373514
 30
0.0
 10
8.87290211
 20
8.3844761244
 30
0.0
 10
8.8773529097
 20
8.3783516926
 30
0.0
 10
8.8804219763
 20
8.3734182098
 30
0.0
 10
8.8831053279
 20
8.368582591
 30
0.0
 10
8.8858959211
 20
8.3624824394
 30
0.0
 10
8.8879351044
 20
8.3562208157
 30
0.0
 10
8.8890676867
 20
8.3512176986
 30
0.0
 10
8.889670332
 20
8.3474858941
 30
0.0
 10
8.8900319068
 20
8.343750409
 30
0.0
 10
8.890112309
 20
8.3412568432
 30
0.0
 10
8.890112306
 20
8.3400127032
 30
0.0
 11
8.7720558205
 21
8.4497465431
 31
0.0
 11
8.7858252115
 21
8.4439599794
 31
0.0
 11
8.7988363823
 21
8.4379715326
 31
0.0
 11
8.8110631168
 21
8.4317926289
 31
0.0
 11
8.8224822793
 21
8.425435441
 31
0.0
 11
8.8330718904
 21
8.4189124221
 31
0.0
 11
8.8428103533
 21
8.4122360894
 31
0.0
 11
8.8516793018
 21
8.4054195019
 31
0.0
 11
8.8596620003
 21
8.3984759916
 31
0.0
 11
8.8667419845
 21
8.3914189227
 31
0.0
 11
8.8729058904
 21
8.3842620195
 31
0.0
 11
8.8781424022
 21
8.3770192442
 31
0.0
 11
8.880409361
 21
8.373370019
 31
0.0
 11
8.8824404242
 21
8.3697045763
 31
0.0
 11
8.8857918194
 21
8.3623322104
 31
0.0
 11
8.8881908406
 21
8.3549165144
 31
0.0
 11
8.8890314361
 21
8.3511969092
 31
0.0
 11
8.8896319314
 21
8.3474718643
 31
0.0
 11
8.8899922184
 21
8.3437431909
 31
0.0
 11
8.890112306
 21
8.3400127032
 31
0.0
  0
SPLINE
  5
264
100
AcDbEntity
  8
0
100
AcDbSpline
 62
9
  6
CONTINUOUS
 70
0
 71
3
 72
21
 73
17
 74
15
 42
0.0000001
 43
0.0000001
 44
0.0000000001
 12
0.3818249589
 22
0.0
 32
0.0
 13
0.3548229599
 23
-0.1410353374
 33
0.0
 40
0.0
 40
0.0
 40
0.0
 40
0.0
 40
0.1391208363
 40
0.2768306176
 40
0.3447229954
 40
0.4117436161
 40
0.4777254803
 40
0.5425057153
 40
0.6059268051
 40
0.6678364059
 40
0.7280895971
 40
0.7865478812
 40
0.8430826011
 40
0.8975726201
 40
0.9499109647
 40
1.0
 40
1.0
 40
1.0
 40
1.0
 10
8.395112751
 20
8.4698455097
 30
0.0
 10
8.4128193535
 20
8.4698455097
 30
0.0
 10
8.4480561698
 20
8.469200359
 30
0.0
 10
8.491874566
 20
8.4667753923
 30
0.0
 10
8.5264519718
 20
8.4638617721
 30
0.0
 10
8.5518853541
 20
8.4612160319
 30
0.0
 10
8.5768672224
 20
8.4581073891
 30
0.0
 10
8.6013256147
 20
8.4545445722
 30
0.0
 10
8.6251899949
 20
8.4505381608
 30
0.0
 10
8.6483915033
 20
8.4460992655
 30
0.0
 10
8.6708632407
 20
8.4412412382
 30
0.0
 10
8.6925402703
 20
8.4359773855
 30
0.0
 10
8.7133600615
 20
8.4303238923
 30
0.0
 10
8.7332624269
 20
8.4242958693
 30
0.0
 10
8.7521898288
 20
8.4179121663
 30
0.0
 10
8.7643970106
 20
8.4133274454
 30
0.0
 10
8.7703212572
 20
8.4109726707
 30
0.0
 11
8.395112751
 21
8.4698455097
 31
0.0
 11
8.4482235672
 21
8.4688681871
 31
0.0
 11
8.5007234101
 21
8.4659473355
 31
0.0
 11
8.526554614
 21
8.4637676425
 31
0.0
 11
8.5520070402
 21
8.4611163111
 31
0.0
 11
8.5770072
 21
8.4580009309
 31
0.0
 11
8.6014828441
 21
8.4544303916
 31
0.0
 11
8.6253633714
 21
8.4504150202
 31
0.0
 11
8.6485795956
 21
8.4459662228
 31
0.0
 11
8.6710645637
 21
8.4410969139
 31
0.0
 11
8.6927528914
 21
8.4358209322
 31
0.0
 11
8.7135820503
 21
8.4301537122
 31
0.0
 11
8.7334909644
 21
8.4241113466
 31
0.0
 11
8.7524225958
 21
8.4177115782
 31
0.0
 11
8.7703212572
 21
8.4109726707
 31
0.0
  0
SPLINE
  5
265
100
AcDbEntity
  8
0
100
AcDbSpline
 62
9
  6
CONTINUOUS
 70
0
 71
3
 72
23
 73
19
 74
17
 42
0.0000001
 43
0.0000001
 44
0.0000000001
 12
0.1577476279
 22
-0.0633384194
 32
0.0
 13
0.0000001318
 23
-0.1699884392
 33
0.0
 40
0.0
 40
0.0
 40
0.0
 40
0.0
 40
0.0879445592
 40
0.1722809294
 40
0.2529439405
 40
0.329897793
 40
0.4031292189
 40
0.4726489951
 40
0.5385091788
 40
0.6008002738
 40
0.6596537706
 40
0.7152612487
 40
0.767876677
 40
0.8178198678
 40
0.8654914152
 40
0.9113700484
 40
0.956003886
 40
1.0
 40
1.0
 40
1.0
 40
1.0
 10
8.7719287808
 20
8.4103304758
 30
0.0
 10
8.7765531293
 20
8.4084737193
 30
0.0
 10
8.7855579673
 20
8.4046993038
 30
0.0
 10
8.7985864883
 20
8.3987194522
 30
0.0
 10
8.8108326235
 20
8.392548455
 30
0.0
 10
8.8222730273
 20
8.3861989432
 30
0.0
 10
8.8328860885
 20
8.3796833155
 30
0.0
 10
8.8426508185
 20
8.3730127138
 30
0.0
 10
8.8515489842
 20
8.3662000841
 30
0.0
 10
8.8595641902
 20
8.359258282
 30
0.0
 10
8.8666800958
 20
8.3521984785
 30
0.0
 10
8.8728829639
 20
8.345033255
 30
0.0
 10
8.878160875
 20
8.3377752669
 30
0.0
 10
8.8825006053
 20
8.3304356849
 30
0.0
 10
8.885891063
 20
8.323027804
 30
0.0
 10
8.8883231504
 20
8.3155656643
 30
0.0
 10
8.8897862501
 20
8.3080663826
 30
0.0
 10
8.8901123042
 20
8.3030384823
 30
0.0
 10
8.8901123061
 20
8.3005455387
 30
0.0
 11
8.7719287808
 21
8.4103304758
 31
0.0
 11
8.7857124068
 21
8.4045424753
 31
0.0
 11
8.7987371607
 21
8.3985522631
 31
0.0
 11
8.8109767842
 21
8.3923712833
 31
0.0
 11
8.8224081304
 21
8.3860117374
 31
0.0
 11
8.8330091173
 21
8.3794860861
 31
0.0
 11
8.8427581006
 21
8.372806864
 31
0.0
 11
8.8516367383
 21
8.3659871618
 31
0.0
 11
8.8596281976
 21
8.3590403249
 31
0.0
 11
8.8667159601
 21
8.3519797354
 31
0.0
 11
8.8728867137
 21
8.34481915
 31
0.0
 11
8.8781290569
 21
8.3375725484
 31
0.0
 11
8.882431839
 21
8.3302539299
 31
0.0
 11
8.8857869994
 21
8.3228775199
 31
0.0
 11
8.8881887177
 21
8.3154577077
 31
0.0
 11
8.8896313816
 21
8.3080088906
 31
0.0
 11
8.8901123061
 21
8.3005455387
 31
0.0
  0
SPLINE
  5
266
100
AcDbEntity
  8
0
100
AcDbSpline
 62
9
  6
CONTINUOUS
 70
0
 71
3
 72
31
 73
27
 74
25
 42
0.0000001
 43
0.0000001
 44
0.0000000001
 12
0.4859343228
 22
0.0
 32
0.0
 13
0.3306302154
 23
-0.3561120986
 33
0.0
 40
0.0
 40
0.0
 40
0.0
 40
0.0
 40
0.0786993738
 40
0.1569678585
 40
0.2343783727
 40
0.3105098137
 40
0.3849522289
 40
0.4573103852
 40
0.5272077519
 40
0.5942910163
 40
0.6266762084
 40
0.658238242
 40
0.688941479
 40
0.7187538941
 40
0.7476450918
 40
0.775587457
 40
0.8025584778
 40
0.828538443
 40
0.8535107192
 40
0.8774651754
 40
0.9003971402
 40
0.9223064697
 40
0.9432003538
 40
0.9630957257
 40
0.9820174325
 40
1.0
 40
1.0
 40
1.0
 40
1.0
 10
8.395112751
 20
8.457028382
 30
0.0
 10
8.4078603266
 20
8.457028382
 30
0.0
 10
8.4332870316
 20
8.4566859669
 30
0.0
 10
8.4712244691
 20
8.4551468764
 30
0.0
 10
8.5086906216
 20
8.4525923432
 30
0.0
 10
8.5454527974
 20
8.4490382375
 30
0.0
 10
8.5812829303
 20
8.4445067055
 30
0.0
 10
8.615958819
 20
8.4390260164
 30
0.0
 10
8.6492649313
 20
8.432630292
 30
0.0
 10
8.6760123425
 20
8.4265015007
 30
0.0
 10
8.6965526448
 20
8.4211527186
 30
0.0
 10
8.7113080432
 20
8.4169858545
 30
0.0
 10
8.7255714819
 20
8.4126229433
 30
0.0
 10
8.7393209547
 20
8.4080712747
 30
0.0
 10
8.7525349534
 20
8.4033377966
 30
0.0
 10
8.7651927021
 20
8.3984293512
 30
0.0
 10
8.7772748016
 20
8.3933541731
 30
0.0
 10
8.7887625546
 20
8.3881202468
 30
0.0
 10
8.7996377491
 20
8.3827349804
 30
0.0
 10
8.8098837322
 20
8.3772070034
 30
0.0
 10
8.8194850392
 20
8.3715452327
 30
0.0
 10
8.828426602
 20
8.3657579085
 30
0.0
 10
8.8366942918
 20
8.3598533488
 30
0.0
 10
8.8442761673
 20
8.3538409526
 30
0.0
 10
8.8511602923
 20
8.3477299825
 30
0.0
 10
8.8553815685
 20
8.3434904459
 30
0.0
 10
8.8573634285
 20
8.3413558426
 30
0.0
 11
8.395112751
 21
8.457028382
 31
0.0
 11
8.4333519913
 21
8.4565119948
 31
0.0
 11
8.4713539007
 21
8.4549660081
 31
0.0
 11
8.5088826986
 21
8.4523999176
 31
0.0
 11
8.545704887
 21
8.4488295393
 31
0.0
 11
8.5815913875
 21
8.4442769167
 31
0.0
 11
8.616318807
 21
8.4387701776
 31
0.0
 11
8.6496707639
 21
8.4323433453
 31
0.0
 11
8.6814392961
 21
8.4250362311
 31
0.0
 11
8.6966674772
 21
8.4210665872
 31
0.0
 11
8.7114261335
 21
8.4168943038
 31
0.0
 11
8.7256920117
 21
8.4125257963
 31
0.0
 11
8.7394432477
 21
8.4079680474
 31
0.0
 11
8.7526581137
 21
8.4032280954
 31
0.0
 11
8.7653155192
 21
8.3983131834
 31
0.0
 11
8.7773962487
 21
8.3932311558
 31
0.0
 11
8.7888814295
 21
8.3879899673
 31
0.0
 11
8.799752405
 21
8.3825976251
 31
0.0
 11
8.8099925318
 21
8.3770626265
 31
0.0
 11
8.8195862632
 21
8.3713937357
 31
0.0
 11
8.8285180749
 21
8.3655997215
 31
0.0
 11
8.8367736473
 21
8.3596895558
 31
0.0
 11
8.8443408993
 21
8.3536725875
 31
0.0
 11
8.8512079932
 21
8.3475582067
 31
0.0
 11
8.8573634285
 21
8.3413558426
 31
0.0
  0
SPLINE
  5
267
100
AcDbEntity
  8
0
100
AcDbSpline
 62
9
  6
CONTINUOUS
 70
0
 71
3
 72
15
 73
11
 74
9
 42
0.0000001
 43
0.0000001
 44
0.0000000001
 12
0.0696977465
 22
0.0751644569
 32
0.0
 13
0.0944854033
 23
0.0397489622
 33
0.0
 40
0.0
 40
0.0
 40
0.0
 40
0.0
 40
0.1017625245
 40
0.2098601906
 40
0.3245454925
 40
0.4459870675
 40
0.5742698636
 40
0.7094010688
 40
0.8513422953
 40
1.0
 40
1.0
 40
1.0
 40
1.0
 10
7.9328085472
 20
8.3412981606
 30
0.0
 10
7.9351727534
 20
8.3438478022
 30
0.0
 10
7.9402693953
 20
8.3489037571
 30
0.0
 10
7.9486877892
 20
8.3561339165
 30
0.0
 10
7.9580844743
 20
8.363219738
 30
0.0
 10
7.9684393362
 20
8.3701450838
 30
0.0
 10
7.9797302823
 20
8.3768955707
 30
0.0
 10
7.9919323415
 20
8.3834579072
 30
0.0
 10
8.0050194343
 20
8.3898168793
 30
0.0
 10
8.0141085907
 20
8.3938204699
 30
0.0
 10
8.0187905851
 20
8.3957901331
 30
0.0
 11
7.9328085472
 21
8.3412981606
 31
0.0
 11
7.9401971151
 21
8.3486616078
 31
0.0
 11
7.948588198
 21
8.3558983639
 31
0.0
 11
7.9579622773
 21
8.3629926187
 31
0.0
 11
7.9682994318
 21
8.3699286128
 31
0.0
 11
7.9795770927
 21
8.3766910321
 31
0.0
 11
7.9917694065
 21
8.3832651149
 31
0.0
 11
8.004850196
 21
8.3896361627
 31
0.0
 11
8.0187905851
 21
8.3957901331
 31
0.0
  0
SPLINE
  5
268
100
AcDbEntity
  8
0
100
AcDbSpline
 62
9
  6
CONTINUOUS
 70
0
 71
3
 72
22
 73
18
 74
16
 42
0.0000001
 43
0.0000001
 44
0.0000000001
 12
0.3534974271
 22
0.1487124505
 32
0.0
 13
0.3835046595
 23
0.0
 33
0.0
 40
0.0
 40
0.0
 40
0.0
 40
0.0
 40
0.0492761792
 40
0.1009348297
 40
0.1548783447
 40
0.2109966093
 40
0.2691655334
 40
0.329249598
 40
0.3911038865
 40
0.4545746059
 40
0.5195004123
 40
0.5857134985
 40
0.6530400511
 40
0.7213015859
 40
0.790315688
 40
0.8598967612
 40
1.0
 40
1.0
 40
1.0
 40
1.0
 10
8.0187905851
 20
8.3957901331
 30
0.0
 10
8.0245969193
 20
8.3982327935
 30
0.0
 10
8.0365948651
 20
8.4029904475
 30
0.0
 10
8.0552581927
 20
8.4096103854
 30
0.0
 10
8.0749658707
 20
8.4158674631
 30
0.0
 10
8.0956571516
 20
8.4217413716
 30
0.0
 10
8.1172684495
 20
8.4272144533
 30
0.0
 10
8.139733234
 20
8.4322697276
 30
0.0
 10
8.1629823775
 20
8.4368915997
 30
0.0
 10
8.186944379
 20
8.4410658512
 30
0.0
 10
8.211545557
 20
8.4447797566
 30
0.0
 10
8.2367103079
 20
8.4480217315
 30
0.0
 10
8.2623612858
 20
8.4507819922
 30
0.0
 10
8.2884196119
 20
8.4530519838
 30
0.0
 10
8.3148054619
 20
8.4548248112
 30
0.0
 10
8.3503938937
 20
8.4565219709
 30
0.0
 10
8.3772026693
 20
8.457028382
 30
0.0
 10
8.395112751
 20
8.457028382
 30
0.0
 11
8.0187905851
 21
8.3957901331
 31
0.0
 11
8.036350995
 21
8.4027724654
 31
0.0
 11
8.0550172143
 21
8.4094103249
 31
0.0
 11
8.0747307483
 21
8.4156835163
 31
0.0
 11
8.0954309722
 21
8.4215725473
 31
0.0
 11
8.1170537404
 21
8.4270593625
 31
0.0
 11
8.139532085
 21
8.4321270735
 31
0.0
 11
8.1627966535
 21
8.4367601117
 31
0.0
 11
8.1867756519
 21
8.440944288
 31
0.0
 11
8.2113951609
 21
8.4446668366
 31
0.0
 11
8.236579417
 21
8.4479163092
 31
0.0
 11
8.2622508241
 21
8.4506828353
 31
0.0
 11
8.2883303913
 21
8.4529579489
 31
0.0
 11
8.3147379169
 21
8.4547346998
 31
0.0
 11
8.341392202
 21
8.4560076774
 31
0.0
 11
8.395112751
 21
8.457028382
 31
0.0
  0
SPLINE
  5
269
100
AcDbEntity
  8
0
100
AcDbSpline
 62
9
  6
CONTINUOUS
 70
0
 71
3
 72
33
 73
29
 74
27
 42
0.0000001
 43
0.0000001
 44
0.0000000001
 12
0.4467543272
 22
0.0
 32
0.0
 13
0.1839951231
 23
-0.4071059119
 33
0.0
 40
0.0
 40
0.0
 40
0.0
 40
0.0
 40
0.0831205289
 40
0.1656993905
 40
0.2471114616
 40
0.3268222899
 40
0.404298158
 40
0.4420353562
 40
0.4790229361
 40
0.5505112463
 40
0.5849062349
 40
0.6183323216
 40
0.6507411324
 40
0.6820903865
 40
0.7123413827
 40
0.7414583317
 40
0.7694126393
 40
0.7961819558
 40
0.8217484833
 40
0.8461032224
 40
0.8692474985
 40
0.8911907314
 40
0.9119543788
 40
0.9315762553
 40
0.9501088598
 40
0.9676230718
 40
0.9842140074
 40
1.0
 40
1.0
 40
1.0
 40
1.0
 10
8.395112751
 20
8.6340094731
 30
0.0
 10
8.4074909029
 20
8.6340094731
 30
0.0
 10
8.4321681844
 20
8.6336360928
 30
0.0
 10
8.4689349368
 20
8.6319619268
 30
0.0
 10
8.5051263058
 20
8.6291846956
 30
0.0
 10
8.5404541907
 20
8.6253272885
 30
0.0
 10
8.5691941029
 20
8.6212041674
 30
0.0
 10
8.5915347587
 20
8.6173736781
 30
0.0
 10
8.6129234374
 20
8.6132919708
 30
0.0
 10
8.6337051711
 20
8.6086989308
 30
0.0
 10
8.6538063649
 20
8.6035624106
 30
0.0
 10
8.6681812701
 20
8.5995385573
 30
0.0
 10
8.6820209957
 20
8.5953009023
 30
0.0
 10
8.695298781
 20
8.5908582716
 30
0.0
 10
8.7079888655
 20
8.5862197102
 30
0.0
 10
8.7200661998
 20
8.5813935016
 30
0.0
 10
8.73150739
 20
8.5763893081
 30
0.0
 10
8.7422905691
 20
8.5712174581
 30
0.0
 10
8.752394516
 20
8.565887316
 30
0.0
 10
8.7617995708
 20
8.5604089122
 30
0.0
 10
8.7704882046
 20
8.5547935078
 30
0.0
 10
8.7784435278
 20
8.5490512579
 30
0.0
 10
8.7856496927
 20
8.5431920865
 30
0.0
 10
8.7920936282
 20
8.5372274916
 30
0.0
 10
8.7977627673
 20
8.5311679433
 30
0.0
 10
8.8026445691
 20
8.5250225425
 30
0.0
 10
8.8067289119
 20
8.518803713
 30
0.0
 10
8.808963866
 20
8.5145194494
 30
0.0
 10
8.8099320479
 20
8.5123772591
 30
0.0
 11
8.395112751
 21
8.6340094731
 31
0.0
 11
8.4322429368
 21
8.6334463397
 31
0.0
 11
8.4690969246
 21
8.6317618625
 31
0.0
 11
8.5053607364
 21
8.6289690534
 31
0.0
 11
8.5407599541
 21
8.6250896298
 31
0.0
 11
8.5750189866
 21
8.6201544234
 31
0.0
 11
8.5916352631
 21
8.6173024261
 31
0.0
 11
8.6078661031
 21
8.6142017248
 31
0.0
 11
8.639044399
 21
8.6072784806
 31
0.0
 11
8.6539309522
 21
8.6034695608
 31
0.0
 11
8.6683099901
 21
8.5994390284
 31
0.0
 11
8.6821526461
 21
8.5951945211
 31
0.0
 11
8.6954323089
 21
8.5907445545
 31
0.0
 11
8.7081231703
 21
8.586097957
 31
0.0
 11
8.7201996094
 21
8.5812636129
 31
0.0
 11
8.7316382394
 21
8.5762510719
 31
0.0
 11
8.7424171488
 21
8.5710703229
 31
0.0
 11
8.7525145118
 21
8.5657313757
 31
0.0
 11
8.7619104204
 21
8.5602446615
 31
0.0
 11
8.7705872436
 21
8.5546211113
 31
0.0
 11
8.7785274901
 21
8.5488716863
 31
0.0
 11
8.785715038
 21
8.5430075618
 31
0.0
 11
8.7921367382
 21
8.5370403768
 31
0.0
 11
8.7977798313
 21
8.5309818313
 31
0.0
 11
8.8026323559
 21
8.5248437056
 31
0.0
 11
8.8066856818
 21
8.5186381142
 31
0.0
 11
8.8099320479
 21
8.5123772591
 31
0.0
  0
SPLINE
  5
26A
100
AcDbEntity
  8
0
100
AcDbSpline
 62
9
  6
CONTINUOUS
 70
0
 71
3
 72
67
 73
63
 74
61
 42
0.0000001
 43
0.0000001
 44
0.0000000001
 12
-0.9689401358
 22
-0.0000000008
 32
0.0
 13
0.9689401358
 23
0.0
 33
0.0
 40
0.0
 40
0.0
 40
0.0
 40
0.0
 40
0.0438269045
 40
0.0872925037
 40
0.1300090765
 40
0.1509794884
 40
0.1716325579
 40
0.2118136399
 40
0.2502316465
 40
0.268687298
 40
0.2865939392
 40
0.3039193072
 40
0.3206349163
 40
0.3367142093
 40
0.3521339403
 40
0.3668755062
 40
0.3809232387
 40
0.3942670303
 40
0.4069028335
 40
0.4188319455
 40
0.4300647233
 40
0.4406205652
 40
0.4505291126
 40
0.4598345258
 40
0.4642802521
 40
0.46859858
 40
0.4768910701
 40
0.4848101227
 40
0.4886662362
 40
0.4924723227
 40
0.4962446556
 40
0.5
 40
0.5037553444
 40
0.5075276773
 40
0.5113337638
 40
0.5151898773
 40
0.5231089299
 40
0.53140142
 40
0.5357197479
 40
0.5401654742
 40
0.5494708874
 40
0.5593794348
 40
0.5699352767
 40
0.5811680545
 40
0.5930971665
 40
0.6057329697
 40
0.6190767613
 40
0.6331244938
 40
0.6478660597
 40
0.6632857907
 40
0.6793650837
 40
0.6960806928
 40
0.7134060608
 40
0.731312702
 40
0.7497683535
 40
0.7881863601
 40
0.8283674421
 40
0.8490205116
 40
0.8699909235
 40
0.9127074963
 40
0.9561730955
 40
1.0
 40
1.0
 40
1.0
 40
1.0
 10
8.395112751
 20
7.7204574532
 30
0.0
 10
8.3809575354
 20
7.7204574532
 30
0.0
 10
8.3527614292
 20
7.7199853361
 30
0.0
 10
8.3108170462
 20
7.717867047
 30
0.0
 10
8.2763260997
 20
7.7149254061
 30
0.0
 10
8.2492564351
 20
7.7118702746
 30
0.0
 10
8.2230603136
 20
7.7084185305
 30
0.0
 10
8.19140263
 20
7.7033226892
 30
0.0
 10
8.1606768212
 20
7.697059271
 30
0.0
 10
8.137191958
 20
7.691410934
 30
0.0
 10
8.1204347821
 20
7.6869455888
 30
0.0
 10
8.1043384504
 20
7.6822044666
 30
0.0
 10
8.0889412437
 20
7.6771999619
 30
0.0
 10
8.0742800851
 20
7.6719437604
 30
0.0
 10
8.060390201
 20
7.6664479151
 30
0.0
 10
8.0473043175
 20
7.6607267063
 30
0.0
 10
8.0350538285
 20
7.6547928917
 30
0.0
 10
8.0236678297
 20
7.6486604755
 30
0.0
 10
8.0131726644
 20
7.6423447991
 30
0.0
 10
8.003593644
 20
7.6358591462
 30
0.0
 10
7.9949529641
 20
7.6292188605
 30
0.0
 10
7.9872702401
 20
7.6224388826
 30
0.0
 10
7.9805654233
 20
7.6155328579
 30
0.0
 10
7.9757338083
 20
7.6095967076
 30
0.0
 10
7.9723999012
 20
7.6048036502
 30
0.0
 10
7.9694956927
 20
7.6001199358
 30
0.0
 10
7.9664708665
 20
7.594201651
 30
0.0
 10
7.9642495526
 20
7.5880917842
 30
0.0
 10
7.9630173314
 20
7.5832090107
 30
0.0
 10
7.9623625156
 20
7.5795712464
 30
0.0
 10
7.9619696321
 20
7.5759287276
 30
0.0
 10
7.9618386461
 20
7.5722837576
 30
0.0
 10
7.9619696321
 20
7.5686387877
 30
0.0
 10
7.9623625156
 20
7.5649962688
 30
0.0
 10
7.9630173314
 20
7.5613585045
 30
0.0
 10
7.9642495526
 20
7.556475731
 30
0.0
 10
7.9664708665
 20
7.5503658642
 30
0.0
 10
7.9694956927
 20
7.5444475794
 30
0.0
 10
7.9723999012
 20
7.539763865
 30
0.0
 10
7.9757338083
 20
7.5349708077
 30
0.0
 10
7.9805654233
 20
7.5290346574
 30
0.0
 10
7.9872702401
 20
7.5221286326
 30
0.0
 10
7.9949529641
 20
7.5153486548
 30
0.0
 10
8.003593644
 20
7.5087083691
 30
0.0
 10
8.0131726644
 20
7.5022227162
 30
0.0
 10
8.0236678297
 20
7.4959070397
 30
0.0
 10
8.0350538285
 20
7.4897746235
 30
0.0
 10
8.0473043175
 20
7.483840809
 30
0.0
 10
8.060390201
 20
7.4781196001
 30
0.0
 10
8.0742800851
 20
7.4726237548
 30
0.0
 10
8.0889412437
 20
7.4673675533
 30
0.0
 10
8.1043384504
 20
7.4623630487
 30
0.0
 10
8.1204347821
 20
7.4576219265
 30
0.0
 10
8.137191958
 20
7.4531565813
 30
0.0
 10
8.1606768212
 20
7.4475082442
 30
0.0
 10
8.19140263
 20
7.4412448261
 30
0.0
 10
8.2230603136
 20
7.4361489848
 30
0.0
 10
8.2492564351
 20
7.4326972406
 30
0.0
 10
8.2763260997
 20
7.4296421091
 30
0.0
 10
8.3108170462
 20
7.4267004682
 30
0.0
 10
8.3527614292
 20
7.4245821791
 30
0.0
 10
8.3809575354
 20
7.424110062
 30
0.0
 10
8.395112751
 20
7.424110062
 30
0.0
 11
8.395112751
 21
7.7204574532
 31
0.0
 11
8.3526531001
 21
7.719743868
 31
0.0
 11
8.3105916189
 21
7.7176102094
 31
0.0
 11
8.2693528883
 21
7.7140771092
 31
0.0
 11
8.2491622988
 21
7.7117956943
 31
0.0
 11
8.2293226088
 21
7.7091783767
 31
0.0
 11
8.1908891618
 21
7.7029611783
 31
0.0
 11
8.1544227708
 21
7.6954856029
 31
0.0
 11
8.1370376009
 21
7.6912978987
 31
0.0
 11
8.1202739801
 21
7.6868235725
 31
0.0
 11
8.1041728955
 21
7.6820731358
 31
0.0
 11
8.0887723812
 21
7.6770583248
 31
0.0
 11
8.0741098792
 21
7.6717911189
 31
0.0
 11
8.0602210415
 21
7.6662840709
 31
0.0
 11
8.0471385212
 21
7.6605506948
 31
0.0
 11
8.0348945499
 21
7.6546046289
 31
0.0
 11
8.02351854
 21
7.6484601916
 31
0.0
 11
8.0130372404
 21
7.6421323439
 31
0.0
 11
8.0034768775
 21
7.6356361459
 31
0.0
 11
7.9948599028
 21
7.628987327
 31
0.0
 11
7.9872067661
 21
7.6222019715
 31
0.0
 11
7.9805369363
 21
7.6152962836
 31
0.0
 11
7.9748654979
 21
7.6082870007
 31
0.0
 11
7.9724084992
 21
7.604748789
 31
0.0
 11
7.9702062807
 21
7.6011910125
 31
0.0
 11
7.9665712908
 21
7.594025338
 31
0.0
 11
7.9639681548
 21
7.5868073077
 31
0.0
 11
7.9630557143
 21
7.5831840891
 31
0.0
 11
7.9624037861
 21
7.5795542993
 31
0.0
 11
7.9620126283
 21
7.5759201247
 31
0.0
 11
7.9618822424
 21
7.5722837576
 31
0.0
 11
7.9620126283
 21
7.5686473905
 31
0.0
 11
7.9624037861
 21
7.5650132159
 31
0.0
 11
7.9630557143
 21
7.5613834261
 31
0.0
 11
7.9639681548
 21
7.5577602076
 31
0.0
 11
7.9665712908
 21
7.5505421772
 31
0.0
 11
7.9702062807
 21
7.5433765028
 31
0.0
 11
7.9724084992
 21
7.5398187262
 31
0.0
 11
7.9748654979
 21
7.5362805145
 31
0.0
 11
7.9805369363
 21
7.5292712317
 31
0.0
 11
7.9872067661
 21
7.5223655438
 31
0.0
 11
7.9948599028
 21
7.5155801882
 31
0.0
 11
8.0034768775
 21
7.5089313693
 31
0.0
 11
8.0130372404
 21
7.5024351714
 31
0.0
 11
8.02351854
 21
7.4961073236
 31
0.0
 11
8.0348945499
 21
7.4899628863
 31
0.0
 11
8.0471385212
 21
7.4840168205
 31
0.0
 11
8.0602210415
 21
7.4782834444
 31
0.0
 11
8.0741098792
 21
7.4727763964
 31
0.0
 11
8.0887723812
 21
7.4675091904
 31
0.0
 11
8.1041728955
 21
7.4624943794
 31
0.0
 11
8.1202739801
 21
7.4577439428
 31
0.0
 11
8.1370376009
 21
7.4532696166
 31
0.0
 11
8.1544227708
 21
7.4490819124
 31
0.0
 11
8.1908891618
 21
7.4416063369
 31
0.0
 11
8.2293226088
 21
7.4353891385
 31
0.0
 11
8.2491622988
 21
7.4327718209
 31
0.0
 11
8.2693528883
 21
7.4304904061
 31
0.0
 11
8.3105916189
 21
7.4269573059
 31
0.0
 11
8.3526531001
 21
7.4248236472
 31
0.0
 11
8.395112751
 21
7.424110062
 31
0.0
  0
SPLINE
  5
26B
100
AcDbEntity
  8
0
100
AcDbSpline
 62
9
  6
CONTINUOUS
 70
0
 71
3
 72
41
 73
37
 74
35
 42
0.0000001
 43
0.0000001
 44
0.0000000001
 12
-0.5125618626
 22
0.0
 32
0.0
 13
0.056082309
 23
-0.5094844822
 33
0.0
 40
0.0
 40
0.0
 40
0.0
 40
0.0
 40
0.0444032102
 40
0.0887290569
 40
0.1766804861
 40
0.263047982
 40
0.3054094937
 40
0.3470972847
 40
0.3880206104
 40
0.4280939117
 40
0.4672335092
 40
0.5053601836
 40
0.5423987425
 40
0.5782772076
 40
0.6129310561
 40
0.6462999217
 40
0.6783302879
 40
0.7089774114
 40
0.738202624
 40
0.7659793006
 40
0.7922911781
 40
0.8171342068
 40
0.8405223915
 40
0.8624858619
 40
0.8830784874
 40
0.9023811203
 40
0.9205043735
 40
0.9375972438
 40
0.9458182517
 40
0.9538551242
 40
0.9617375528
 40
0.9694974036
 40
0.9771682413
 40
0.9847849863
 40
0.9923834933
 40
1.0
 40
1.0
 40
1.0
 40
1.0
 10
8.395112751
 20
7.7441239883
 30
0.0
 10
8.3875262869
 20
7.7441239883
 30
0.0
 10
8.3723662109
 20
7.7439935122
 30
0.0
 10
8.3421885326
 20
7.7432149793
 30
0.0
 10
8.3048740322
 20
7.7412846645
 30
0.0
 10
8.2679851711
 20
7.7380606256
 30
0.0
 10
8.2390604108
 20
7.7347126419
 30
0.0
 10
8.2178995345
 20
7.7318511792
 30
0.0
 10
8.1971860044
 20
7.7286297518
 30
0.0
 10
8.176971949
 20
7.7250575115
 30
0.0
 10
8.1573082795
 20
7.7211427694
 30
0.0
 10
8.1382444603
 20
7.7168956066
 30
0.0
 10
8.1198284198
 20
7.7123273408
 30
0.0
 10
8.1021067156
 20
7.7074484669
 30
0.0
 10
8.0851237272
 20
7.702272343
 30
0.0
 10
8.0689221367
 20
7.6968116418
 30
0.0
 10
8.0535426981
 20
7.6910797094
 30
0.0
 10
8.0390235703
 20
7.685092035
 30
0.0
 10
8.0254013538
 20
7.6788623964
 30
0.0
 10
8.0127097056
 20
7.6724070302
 30
0.0
 10
8.0009798858
 20
7.6657420653
 30
0.0
 10
7.9902414021
 20
7.6588826326
 30
0.0
 10
7.9805198394
 20
7.6518465662
 30
0.0
 10
7.9718395924
 20
7.6446491507
 30
0.0
 10
7.9642222438
 20
7.6373068109
 30
0.0
 10
7.9576861455
 20
7.6298359231
 30
0.0
 10
7.9522510781
 20
7.6222517645
 30
0.0
 10
7.9486051208
 20
7.6157663417
 30
0.0
 10
7.9462851381
 20
7.6105582652
 30
0.0
 10
7.9448516185
 20
7.6066876736
 30
0.0
 10
7.9437033595
 20
7.602805106
 30
0.0
 10
7.9428409397
 20
7.5989130639
 30
0.0
 10
7.9422650627
 20
7.5950142136
 30
0.0
 10
7.9419763261
 20
7.5911111554
 30
0.0
 10
7.9419753583
 20
7.5872068922
 30
0.0
 10
7.942166111
 20
7.5846116042
 30
0.0
 10
7.9423084948
 20
7.5833181069
 30
0.0
 11
8.395112751
 21
7.7441239883
 31
0.0
 11
8.3723542014
 21
7.7439281589
 31
0.0
 11
8.3496420375
 21
7.7433415294
 31
0.0
 11
8.3046222276
 21
7.7410021795
 31
0.0
 11
8.2605232492
 21
7.7371296432
 31
0.0
 11
8.2389547166
 21
7.7346299985
 31
0.0
 11
8.2177803627
 21
7.7317629683
 31
0.0
 11
8.1970544079
 21
7.7285355385
 31
0.0
 11
8.1768286355
 21
7.7249562064
 31
0.0
 11
8.1571543692
 21
7.7210337555
 31
0.0
 11
8.1380810764
 21
7.7167781497
 31
0.0
 11
8.1196567294
 21
7.7122003029
 31
0.0
 11
8.1019285316
 21
7.7073114754
 31
0.0
 11
8.0849405857
 21
7.7021242889
 31
0.0
 11
8.0687361217
 21
7.6966517439
 31
0.0
 11
8.0533562592
 21
7.6909075653
 31
0.0
 11
8.0388391839
 21
7.684906485
 31
0.0
 11
8.0252224098
 21
7.6786634285
 31
0.0
 11
8.0125397442
 21
7.6721942933
 31
0.0
 11
8.0008231828
 21
7.6655154517
 31
0.0
 11
7.9901030077
 21
7.6586436151
 31
0.0
 11
7.9804053177
 21
7.6515963212
 31
0.0
 11
7.9717553747
 21
7.6443912616
 31
0.0
 11
7.9641748472
 21
7.6370466369
 31
0.0
 11
7.9576823415
 21
7.6295810815
 31
0.0
 11
7.9522953032
 21
7.6220133409
 31
0.0
 11
7.9480263412
 21
7.6143626041
 31
0.0
 11
7.9463146492
 21
7.6105121481
 31
0.0
 11
7.9448866342
 21
7.6066481886
 31
0.0
 11
7.9437430926
 21
7.6027731674
 31
0.0
 11
7.9428844991
 21
7.5988895407
 31
0.0
 11
7.9423113244
 21
7.5949997649
 31
0.0
 11
7.9420240394
 21
7.5911062964
 31
0.0
 11
7.9420230954
 21
7.5872115916
 31
0.0
 11
7.9423084948
 21
7.5833181069
 31
0.0
  0
SPLINE
  5
26C
100
AcDbEntity
  8
0
100
AcDbSpline
 62
9
  6
CONTINUOUS
 70
0
 71
3
 72
40
 73
36
 74
34
 42
0.0000001
 43
0.0000001
 44
0.0000000001
 12
-0.5655807672
 22
0.0
 32
0.0
 13
0.0618308852
 23
-0.5621908447
 33
0.0
 40
0.0
 40
0.0
 40
0.0
 40
0.0
 40
0.0444052257
 40
0.0887313951
 40
0.1766812894
 40
0.2630502642
 40
0.3054124037
 40
0.3471002034
 40
0.3880238507
 40
0.4280974692
 40
0.4672373319
 40
0.5053646277
 40
0.5424031493
 40
0.578282096
 40
0.6129363593
 40
0.6463051119
 40
0.6783362468
 40
0.708983214
 40
0.7382087827
 40
0.7659860347
 40
0.7922974855
 40
0.817141342
 40
0.8405293975
 40
0.8624929671
 40
0.8830862506
 40
0.9023884063
 40
0.9205122695
 40
0.937605166
 40
0.9538546367
 40
0.9617373018
 40
0.9694972782
 40
0.9771681101
 40
0.9847848807
 40
0.9923834674
 40
1.0
 40
1.0
 40
1.0
 40
1.0
 10
8.395112751
 20
8.1864829594
 30
0.0
 10
8.3867411704
 20
8.1864829594
 30
0.0
 10
8.3700125097
 20
8.1863390138
 30
0.0
 10
8.3367131297
 20
8.1854799556
 30
0.0
 10
8.2955388044
 20
8.1833499027
 30
0.0
 10
8.2548341004
 20
8.179792272
 30
0.0
 10
8.222916967
 20
8.1760981558
 30
0.0
 10
8.199567082
 20
8.1729404494
 30
0.0
 10
8.1767108266
 20
8.1693859067
 30
0.0
 10
8.1544056702
 20
8.1654441707
 30
0.0
 10
8.1327078326
 20
8.1611242334
 30
0.0
 10
8.1116718382
 20
8.1564380485
 30
0.0
 10
8.0913507431
 20
8.1513968737
 30
0.0
 10
8.0717957384
 20
8.1460134162
 30
0.0
 10
8.0530558382
 20
8.1403020297
 30
0.0
 10
8.0351783344
 20
8.1342759699
 30
0.0
 10
8.0182077865
 20
8.1279516027
 30
0.0
 10
8.0021867818
 20
8.1213441467
 30
0.0
 10
7.9871553771
 20
8.1144700654
 30
0.0
 10
7.9731505957
 20
8.107347349
 30
0.0
 10
7.9602077022
 20
8.0999921724
 30
0.0
 10
7.9483579989
 20
8.0924238226
 30
0.0
 10
7.9376308957
 20
8.0846595699
 30
0.0
 10
7.9280529141
 20
8.0767174023
 30
0.0
 10
7.9196468882
 20
8.0686161133
 30
0.0
 10
7.9124356288
 20
8.0603718009
 30
0.0
 10
7.9064373178
 20
8.0520027394
 30
0.0
 10
7.9016716332
 20
8.0435268418
 30
0.0
 10
7.8987124749
 20
8.0363144482
 30
0.0
 10
7.8970057047
 20
8.0305449942
 30
0.0
 10
7.8960537093
 20
8.0262502565
 30
0.0
 10
7.8954186013
 20
8.0219480498
 30
0.0
 10
7.8951004767
 20
8.0176412072
 30
0.0
 10
7.8950994128
 20
8.0133330832
 30
0.0
 10
7.8953095729
 20
8.0104693002
 30
0.0
 10
7.8954665518
 20
8.0090419852
 30
0.0
 11
8.395112751
 21
8.1864829594
 31
0.0
 11
8.3699989388
 21
8.1862668865
 31
0.0
 11
8.3449372681
 21
8.1856195776
 31
0.0
 11
8.2952615226
 21
8.1830382315
 31
0.0
 11
8.246600155
 21
8.1787650528
 31
0.0
 11
8.2228002327
 21
8.1760068816
 31
0.0
 11
8.1994356337
 21
8.1728431814
 31
0.0
 11
8.1765656181
 21
8.1692819347
 31
0.0
 11
8.1542475326
 21
8.1653323404
 31
0.0
 11
8.1325380474
 21
8.1610040485
 31
0.0
 11
8.111491459
 21
8.156308303
 31
0.0
 11
8.0911613707
 21
8.1512567929
 31
0.0
 11
8.0715991043
 21
8.145862264
 31
0.0
 11
8.0528536959
 21
8.1401385212
 31
0.0
 11
8.0349731777
 21
8.1340997459
 31
0.0
 11
8.018001954
 21
8.1277614461
 31
0.0
 11
8.0019833926
 21
8.1211394976
 31
0.0
 11
7.9869579167
 21
8.1142506092
 31
0.0
 11
7.9729629975
 21
8.1071123238
 31
0.0
 11
7.9600348583
 21
8.0997424638
 31
0.0
 11
7.9482052328
 21
8.0921598265
 31
0.0
 11
7.9375045787
 21
8.0843834774
 31
0.0
 11
7.9279599003
 21
8.0764330382
 31
0.0
 11
7.9195947367
 21
8.0683286879
 31
0.0
 11
7.9124312162
 21
8.06009077
 31
0.0
 11
7.9064864083
 21
8.0517401903
 31
0.0
 11
7.9017759511
 21
8.0432980059
 31
0.0
 11
7.8983117345
 21
8.0347855188
 31
0.0
 11
7.8970495165
 21
8.0305096446
 31
0.0
 11
7.8961018859
 21
8.0262242762
 31
0.0
 11
7.8954696736
 21
8.0219321121
 31
0.0
 11
7.8951530472
 21
8.0176358648
 31
0.0
 11
7.8951520066
 21
8.0133382504
 31
0.0
 11
7.8954665518
 21
8.0090419852
 31
0.0
  0
SPLINE
  5
26D
100
AcDbEntity
  8
0
100
AcDbSpline
 62
6
  6
CONTINUOUS
 70
0
 71
3
 72
47
 73
43
 74
41
 42
0.0000001
 43
0.0000001
 44
0.0000000001
 12
-0.6156516583
 22
0.0
 32
0.0
 13
0.348716317
 23
-0.5073695838
 33
0.0
 40
0.0
 40
0.0
 40
0.0
 40
0.0
 40
0.0467990818
 40
0.0934878834
 40
0.139911302
 40
0.1859371216
 40
0.2314444536
 40
0.2763105784
 40
0.3204112816
 40
0.3636263317
 40
0.405841746
 40
0.4469471161
 40
0.4868387279
 40
0.5254171885
 40
0.5625922614
 40
0.5982801959
 40
0.6324076625
 40
0.6649113853
 40
0.6957400799
 40
0.72485782
 40
0.752243724
 40
0.777899421
 40
0.8018482658
 40
0.8132011197
 40
0.8241509526
 40
0.8448872664
 40
0.85471396
 40
0.8642054939
 40
0.882276835
 40
0.8909273136
 40
0.8993650566
 40
0.9076296619
 40
0.9157637681
 40
0.9238126956
 40
0.9318235026
 40
0.9398439185
 40
0.9479215051
 40
0.9561027758
 40
0.964432034
 40
0.9729507343
 40
0.9816971736
 40
1.0
 40
1.0
 40
1.0
 40
1.0
 10
8.395112751
 20
8.2060060262
 30
0.0
 10
8.3855087735
 20
8.2060060262
 30
0.0
 10
8.3663229399
 20
8.205821134
 30
0.0
 10
8.3376210079
 20
8.2049917831
 30
0.0
 10
8.3090990133
 20
8.2036115416
 30
0.0
 10
8.280851673
 20
8.2016855041
 30
0.0
 10
8.252967076
 20
8.1992196081
 30
0.0
 10
8.2255319361
 20
8.1962218907
 30
0.0
 10
8.1986331293
 20
8.1927020435
 30
0.0
 10
8.1723563181
 20
8.1886705183
 30
0.0
 10
8.1467845787
 20
8.1841412546
 30
0.0
 10
8.1219986897
 20
8.1791273947
 30
0.0
 10
8.0980767817
 20
8.1736462935
 30
0.0
 10
8.0750945379
 20
8.1677139778
 30
0.0
 10
8.053124302
 20
8.1613505017
 30
0.0
 10
8.0322353294
 20
8.154575194
 30
0.0
 10
8.0124932069
 20
8.1474099284
 30
0.0
 10
7.9939597231
 20
8.1398774087
 30
0.0
 10
7.9766929612
 20
8.1320006146
 30
0.0
 10
7.9607462041
 20
8.1238052686
 30
0.0
 10
7.9461691718
 20
8.1153148115
 30
0.0
 10
7.9330064471
 20
8.1065570919
 30
0.0
 10
7.9230792453
 20
8.0989248383
 30
0.0
 10
7.9159133142
 20
8.0926965619
 30
0.0
 10
7.909497454
 20
8.0866238979
 30
0.0
 10
7.9037056174
 20
8.08035427
 30
0.0
 10
7.8986280265
 20
8.0738850987
 30
0.0
 10
7.8942375205
 20
8.0675890488
 30
0.0
 10
7.890535943
 20
8.0611162315
 30
0.0
 10
7.8876254132
 20
8.0545083705
 30
0.0
 10
7.8858763971
 20
8.0496030859
 30
0.0
 10
7.884532099
 20
8.0446814587
 30
0.0
 10
7.8835943646
 20
8.0397473331
 30
0.0
 10
7.8830644706
 20
8.0348051464
 30
0.0
 10
7.8829424866
 20
8.0298593959
 30
0.0
 10
7.8832285072
 20
8.0249145429
 30
0.0
 10
7.883922394
 20
8.0199750525
 30
0.0
 10
7.8850238735
 20
8.0150454314
 30
0.0
 10
7.8865310573
 20
8.0101299766
 30
0.0
 10
7.8884422724
 20
8.0052323968
 30
0.0
 10
7.8915728188
 20
7.9986336469
 30
0.0
 10
7.8944617201
 20
7.9938705185
 30
0.0
 10
7.8965892182
 20
7.990775086
 30
0.0
 11
8.395112751
 21
8.2060060262
 31
0.0
 11
8.3663021565
 21
8.2057283792
 31
0.0
 11
8.3375701514
 21
8.2048967476
 31
0.0
 11
8.3090229949
 21
8.2035133898
 31
0.0
 11
8.280752955
 21
8.201582977
 31
0.0
 11
8.2528455171
 21
8.1991114602
 31
0.0
 11
8.2253875303
 21
8.196106706
 31
0.0
 11
8.1984671006
 21
8.1925783344
 31
0.0
 11
8.1721703641
 21
8.1885373104
 31
0.0
 11
8.1465800757
 21
8.1839967477
 31
0.0
 11
8.1217776158
 21
8.1789706712
 31
0.0
 11
8.0978409735
 21
8.1734753836
 31
0.0
 11
8.0748467768
 21
8.16752796
 31
0.0
 11
8.0528672419
 21
8.1611475194
 31
0.0
 11
8.0319725262
 21
8.154354106
 31
0.0
 11
8.012228527
 21
8.1471693217
 31
0.0
 11
7.9936978574
 21
8.1396159624
 31
0.0
 11
7.9764395183
 21
8.131717852
 31
0.0
 11
7.960507619
 21
8.1235001965
 31
0.0
 11
7.9459535086
 21
8.1149888249
 31
0.0
 11
7.9328222599
 21
8.1062109287
 31
0.0
 11
7.9211566182
 21
8.0971941308
 31
0.0
 11
7.9158847553
 21
8.0926050982
 31
0.0
 11
7.9109924761
 21
8.087967157
 31
0.0
 11
7.9023629292
 21
8.0785591546
 31
0.0
 11
7.898632231
 21
8.0737965696
 31
0.0
 11
7.8952947269
 21
8.0689999762
 31
0.0
 11
7.8898105039
 21
8.059319924
 31
0.0
 11
7.887668206
 21
8.0544441222
 31
0.0
 11
7.8859277995
 21
8.0495496353
 31
0.0
 11
7.8845907171
 21
8.0446403426
 31
0.0
 11
7.8836583723
 21
8.0397201237
 31
0.0
 11
7.8831315535
 21
8.0347928717
 31
0.0
 11
7.8830103041
 21
8.0298624958
 31
0.0
 11
7.8832946241
 21
8.0249329059
 31
0.0
 11
7.8839845135
 21
8.0200080121
 31
0.0
 11
7.8850797551
 21
8.0150917199
 31
0.0
 11
7.8865791776
 21
8.010187914
 31
0.0
 11
7.8884813481
 21
8.0053004736
 31
0.0
 11
7.8907848338
 21
8.0004332781
 31
0.0
 11
7.8965892182
 21
7.990775086
 31
0.0
  0
SPLINE
  5
26E
100
AcDbEntity
  8
0
100
AcDbSpline
 62
9
  6
CONTINUOUS
 70
0
 71
3
 72
20
 73
16
 74
14
 42
0.0000001
 43
0.0000001
 44
0.0000000001
 12
-0.3820560344
 22
0.0
 32
0.0
 13
-0.3560299758
 23
-0.1385982314
 33
0.0
 40
0.0
 40
0.0
 40
0.0
 40
0.0
 40
0.0694737172
 40
0.1388054685
 40
0.27623801
 40
0.4109173789
 40
0.5415452232
 40
0.6049463933
 40
0.6668703
 40
0.727175251
 40
0.7857264854
 40
0.8423960857
 40
0.8970681456
 40
0.9496340256
 40
1.0
 40
1.0
 40
1.0
 40
1.0
 10
8.395112751
 20
8.3485355192
 30
0.0
 10
8.3862651333
 20
8.3485355192
 30
0.0
 10
8.3685874898
 20
8.3483747824
 30
0.0
 10
8.3334196492
 20
8.3474158472
 30
0.0
 10
8.2899900384
 20
8.3450403967
 30
0.0
 10
8.2389067706
 20
8.3403120945
 30
0.0
 10
8.197395488
 20
8.3348065704
 30
0.0
 10
8.1652351613
 20
8.3294806311
 30
0.0
 10
8.1420023874
 20
8.3250982367
 30
0.0
 10
8.1194827895
 20
8.3203009154
 30
0.0
 10
8.0977395334
 20
8.3151026651
 30
0.0
 10
8.0768339614
 20
8.309517203
 30
0.0
 10
8.0568244714
 20
8.3035615801
 30
0.0
 10
8.0377677013
 20
8.2972514749
 30
0.0
 10
8.0254634598
 20
8.292721315
 30
0.0
 10
8.0194861942
 20
8.2903944367
 30
0.0
 11
8.395112751
 21
8.3485355192
 31
0.0
 11
8.3685709953
 21
8.3482941753
 31
0.0
 11
8.3420922491
 21
8.3475712175
 31
0.0
 11
8.2896644699
 21
8.3446892291
 31
0.0
 11
8.2384307091
 21
8.3399220987
 31
0.0
 11
8.1889616877
 21
8.3333236021
 31
0.0
 11
8.1650653583
 21
8.3293600857
 31
0.0
 11
8.1418181903
 21
8.3249681411
 31
0.0
 11
8.1192855659
 21
8.3201601825
 31
0.0
 11
8.0975309487
 21
8.3149499112
 31
0.0
 11
8.0766162419
 21
8.309351766
 31
0.0
 11
8.0565997507
 21
8.3033818525
 31
0.0
 11
8.0375386863
 21
8.2970567281
 31
0.0
 11
8.0194861942
 21
8.2903944367
 31
0.0
  0
SPLINE
  5
26F
100
AcDbEntity
  8
0
100
AcDbSpline
 62
9
  6
CONTINUOUS
 70
0
 71
3
 72
14
 73
10
 74
8
 42
0.0000001
 43
0.0000001
 44
0.0000000001
 12
-0.0814595762
 22
-0.0317112433
 32
0.0
 13
-0.0705687878
 23
-0.0515879027
 33
0.0
 40
0.0
 40
0.0
 40
0.0
 40
0.0
 40
0.2778376751
 40
0.4099129395
 40
0.5373368091
 40
0.6600644728
 40
0.7780770205
 40
0.8913803498
 40
1.0
 40
1.0
 40
1.0
 40
1.0
 10
8.0194861942
 20
8.2903944367
 30
0.0
 10
8.0119420145
 20
8.2874575773
 30
0.0
 10
8.0009087068
 20
8.2828644287
 30
0.0
 10
7.9867165328
 20
8.2762482072
 30
0.0
 10
7.9767633907
 20
8.2712465659
 30
0.0
 10
7.9673338063
 20
8.2661274591
 30
0.0
 10
7.9584392551
 20
8.2608971635
 30
0.0
 10
7.9500906789
 20
8.2555626338
 30
0.0
 10
7.944784245
 20
8.2518631965
 30
0.0
 10
7.9422291927
 20
8.2499953765
 30
0.0
 11
8.0194861942
 21
8.2903944367
 31
0.0
 11
7.9970802752
 21
8.2810225151
 31
0.0
 11
7.9866186982
 21
8.2761390031
 31
0.0
 11
7.976668846
 21
8.2711319614
 31
0.0
 11
7.9672436784
 21
8.2660075528
 31
0.0
 11
7.9583548715
 21
8.2607722188
 31
0.0
 11
7.9500131443
 21
8.2554326086
 31
0.0
 11
7.9422291927
 21
8.2499953765
 31
0.0
  0
SPLINE
  5
270
100
AcDbEntity
  8
0
100
AcDbSpline
 62
9
  6
CONTINUOUS
 70
0
 71
3
 72
38
 73
34
 74
32
 42
0.0000001
 43
0.0000001
 44
0.0000000001
 12
-0.5591375987
 22
0.0
 32
0.0
 13
0.0
 23
-0.5591375987
 33
0.0
 40
0.0
 40
0.0
 40
0.0
 40
0.0
 40
0.0876572588
 40
0.1745832233
 40
0.260017305
 40
0.3019588977
 40
0.3432645788
 40
0.3838487901
 40
0.4236302522
 40
0.4625293445
 40
0.5004707635
 40
0.5373821294
 40
0.573194701
 40
0.6078459896
 40
0.6412767868
 40
0.6734350666
 40
0.7042751578
 40
0.7337574922
 40
0.7618531809
 40
0.7885409565
 40
0.813811851
 40
0.8376706506
 40
0.8601359302
 40
0.8812472757
 40
0.9010647786
 40
0.9196752748
 40
0.9371972797
 40
0.9537823292
 40
0.9696202959
 40
0.9773324993
 40
0.984944677
 40
0.9924893319
 40
1.0
 40
1.0
 40
1.0
 40
1.0
 10
8.395112751
 20
8.4386663687
 30
0.0
 10
8.3787752612
 20
8.4386663687
 30
0.0
 10
8.3462338377
 20
8.4381216758
 30
0.0
 10
8.2978250799
 20
8.4356766886
 30
0.0
 10
8.2580189466
 20
8.4322815493
 30
0.0
 10
8.2267770736
 20
8.4287559079
 30
0.0
 10
8.203893822
 20
8.425740669
 30
0.0
 10
8.1814710049
 20
8.4223451932
 30
0.0
 10
8.1595624178
 20
8.4185785653
 30
0.0
 10
8.1382207204
 20
8.414448976
 30
0.0
 10
8.1174970973
 20
8.4099669716
 30
0.0
 10
8.097441329
 20
8.405143466
 30
0.0
 10
8.0781017311
 20
8.3999893486
 30
0.0
 10
8.0595245176
 20
8.3945181393
 30
0.0
 10
8.0417543576
 20
8.388742116
 30
0.0
 10
8.0248337328
 20
8.3826755098
 30
0.0
 10
8.0088029133
 20
8.3763333588
 30
0.0
 10
7.9937004711
 20
8.3697297371
 30
0.0
 10
7.9795618935
 20
8.3628816299
 30
0.0
 10
7.96642091
 20
8.3558044316
 30
0.0
 10
7.9543086116
 20
8.3485146888
 30
0.0
 10
7.943252923
 20
8.3410301207
 30
0.0
 10
7.9332806007
 20
8.333366211
 30
0.0
 10
7.92441425
 20
8.3255411161
 30
0.0
 10
7.9166752429
 20
8.317570831
 30
0.0
 10
7.9100833739
 20
8.3094713938
 30
0.0
 10
7.9046549653
 20
8.3012597081
 30
0.0
 10
7.9004089037
 20
8.2929524782
 30
0.0
 10
7.8978453459
 20
8.2859005867
 30
0.0
 10
7.8964232815
 20
8.2802653436
 30
0.0
 10
7.8956674312
 20
8.2760668911
 30
0.0
 10
7.8952139488
 20
8.2718631673
 30
0.0
 10
7.8951130769
 20
8.2690561293
 30
0.0
 10
7.8951130769
 20
8.267656297
 30
0.0
 11
8.395112751
 21
8.4386663687
 31
0.0
 11
8.3461072006
 21
8.4378428562
 31
0.0
 11
8.2975660471
 21
8.4353803518
 31
0.0
 11
8.2499709992
 21
8.4313026466
 31
0.0
 11
8.2266681463
 21
8.4286697497
 31
0.0
 11
8.2037709886
 21
8.4256489836
 31
0.0
 11
8.1813352189
 21
8.42224747
 31
0.0
 11
8.1594143709
 21
8.4184737031
 31
0.0
 11
8.1380615407
 21
8.4143364635
 31
0.0
 11
8.1173277813
 21
8.4098459043
 31
0.0
 11
8.0972631161
 21
8.4050128684
 31
0.0
 11
8.0779163066
 21
8.399848785
 31
0.0
 11
8.0593333145
 21
8.3943663804
 31
0.0
 11
8.0415595014
 21
8.3885786371
 31
0.0
 11
8.0246373885
 21
8.3824995761
 31
0.0
 11
8.0086075296
 21
8.3761439377
 31
0.0
 11
7.9935092372
 21
8.3695268161
 31
0.0
 11
7.9793780384
 21
8.3626643759
 31
0.0
 11
7.9662485697
 21
8.3555730238
 31
0.0
 11
7.9541523833
 21
8.3482698358
 31
0.0
 11
7.9431181049
 21
8.3407725236
 31
0.0
 11
7.9331732527
 21
8.3330989834
 31
0.0
 11
7.9243408721
 21
8.3252678315
 31
0.0
 11
7.916642673
 21
8.3172978951
 31
0.0
 11
7.9100974342
 21
8.3092083272
 31
0.0
 11
7.9047201273
 21
8.301018704
 31
0.0
 11
7.9005247483
 21
8.2927486769
 31
0.0
 11
7.8975205985
 21
8.2844182038
 31
0.0
 11
7.8964675542
 21
8.2802365751
 31
0.0
 11
7.8957150727
 21
8.2760473656
 31
0.0
 11
7.8952635759
 21
8.2718530963
 31
0.0
 11
7.8951130769
 21
8.267656297
 31
0.0
  0
SPLINE
  5
271
100
AcDbEntity
  8
0
100
AcDbSpline
 62
9
  6
CONTINUOUS
 70
0
 71
3
 72
67
 73
63
 74
61
 42
0.0000001
 43
0.0000001
 44
0.0000000001
 12
0.9689401358
 22
-0.0000000008
 32
0.0
 13
-0.9689401358
 23
0.0
 33
0.0
 40
0.0
 40
0.0
 40
0.0
 40
0.0
 40
0.0438269045
 40
0.0872925037
 40
0.1300090765
 40
0.1509794884
 40
0.1716325579
 40
0.2118136399
 40
0.2502316465
 40
0.268687298
 40
0.2865939392
 40
0.3039193072
 40
0.3206349163
 40
0.3367142093
 40
0.3521339403
 40
0.3668755062
 40
0.3809232387
 40
0.3942670303
 40
0.4069028335
 40
0.4188319455
 40
0.4300647233
 40
0.4406205652
 40
0.4505291126
 40
0.4598345258
 40
0.4642802521
 40
0.46859858
 40
0.4768910701
 40
0.4848101227
 40
0.4886662362
 40
0.4924723227
 40
0.4962446556
 40
0.5
 40
0.5037553444
 40
0.5075276773
 40
0.5113337638
 40
0.5151898773
 40
0.5231089299
 40
0.53140142
 40
0.5357197479
 40
0.5401654742
 40
0.5494708874
 40
0.5593794348
 40
0.5699352767
 40
0.5811680545
 40
0.5930971665
 40
0.6057329697
 40
0.6190767613
 40
0.6331244938
 40
0.6478660597
 40
0.6632857907
 40
0.6793650837
 40
0.6960806928
 40
0.7134060608
 40
0.731312702
 40
0.7497683535
 40
0.7881863601
 40
0.8283674421
 40
0.8490205116
 40
0.8699909235
 40
0.9127074963
 40
0.9561730955
 40
1.0
 40
1.0
 40
1.0
 40
1.0
 10
8.395112751
 20
7.7204574532
 30
0.0
 10
8.4092679665
 20
7.7204574532
 30
0.0
 10
8.4374640727
 20
7.7199853361
 30
0.0
 10
8.4794084557
 20
7.717867047
 30
0.0
 10
8.5138994022
 20
7.7149254061
 30
0.0
 10
8.5409690668
 20
7.7118702746
 30
0.0
 10
8.5671651883
 20
7.7084185305
 30
0.0
 10
8.598822872
 20
7.7033226892
 30
0.0
 10
8.6295486807
 20
7.697059271
 30
0.0
 10
8.6530335439
 20
7.691410934
 30
0.0
 10
8.6697907198
 20
7.6869455888
 30
0.0
 10
8.6858870515
 20
7.6822044666
 30
0.0
 10
8.7012842582
 20
7.6771999619
 30
0.0
 10
8.7159454169
 20
7.6719437604
 30
0.0
 10
8.7298353009
 20
7.6664479151
 30
0.0
 10
8.7429211845
 20
7.6607267063
 30
0.0
 10
8.7551716734
 20
7.6547928917
 30
0.0
 10
8.7665576722
 20
7.6486604755
 30
0.0
 10
8.7770528375
 20
7.6423447991
 30
0.0
 10
8.786631858
 20
7.6358591462
 30
0.0
 10
8.7952725378
 20
7.6292188605
 30
0.0
 10
8.8029552618
 20
7.6224388826
 30
0.0
 10
8.8096600786
 20
7.6155328579
 30
0.0
 10
8.8144916937
 20
7.6095967076
 30
0.0
 10
8.8178256007
 20
7.6048036502
 30
0.0
 10
8.8207298092
 20
7.6001199358
 30
0.0
 10
8.8237546355
 20
7.594201651
 30
0.0
 10
8.8259759493
 20
7.5880917842
 30
0.0
 10
8.8272081705
 20
7.5832090107
 30
0.0
 10
8.8278629863
 20
7.5795712464
 30
0.0
 10
8.8282558698
 20
7.5759287276
 30
0.0
 10
8.8283868558
 20
7.5722837576
 30
0.0
 10
8.8282558698
 20
7.5686387877
 30
0.0
 10
8.8278629863
 20
7.5649962688
 30
0.0
 10
8.8272081705
 20
7.5613585045
 30
0.0
 10
8.8259759493
 20
7.556475731
 30
0.0
 10
8.8237546355
 20
7.5503658642
 30
0.0
 10
8.8207298092
 20
7.5444475794
 30
0.0
 10
8.8178256007
 20
7.539763865
 30
0.0
 10
8.8144916937
 20
7.5349708077
 30
0.0
 10
8.8096600786
 20
7.5290346574
 30
0.0
 10
8.8029552618
 20
7.5221286326
 30
0.0
 10
8.7952725378
 20
7.5153486548
 30
0.0
 10
8.786631858
 20
7.5087083691
 30
0.0
 10
8.7770528375
 20
7.5022227162
 30
0.0
 10
8.7665576722
 20
7.4959070397
 30
0.0
 10
8.7551716734
 20
7.4897746235
 30
0.0
 10
8.7429211845
 20
7.483840809
 30
0.0
 10
8.7298353009
 20
7.4781196001
 30
0.0
 10
8.7159454169
 20
7.4726237548
 30
0.0
 10
8.7012842582
 20
7.4673675533
 30
0.0
 10
8.6858870515
 20
7.4623630487
 30
0.0
 10
8.6697907198
 20
7.4576219265
 30
0.0
 10
8.6530335439
 20
7.4531565813
 30
0.0
 10
8.6295486807
 20
7.4475082442
 30
0.0
 10
8.598822872
 20
7.4412448261
 30
0.0
 10
8.5671651883
 20
7.4361489848
 30
0.0
 10
8.5409690668
 20
7.4326972406
 30
0.0
 10
8.5138994022
 20
7.4296421091
 30
0.0
 10
8.4794084557
 20
7.4267004682
 30
0.0
 10
8.4374640727
 20
7.4245821791
 30
0.0
 10
8.4092679665
 20
7.424110062
 30
0.0
 10
8.395112751
 20
7.424110062
 30
0.0
 11
8.395112751
 21
7.7204574532
 31
0.0
 11
8.4375724018
 21
7.719743868
 31
0.0
 11
8.479633883
 21
7.7176102094
 31
0.0
 11
8.5208726136
 21
7.7140771092
 31
0.0
 11
8.5410632031
 21
7.7117956943
 31
0.0
 11
8.5609028931
 21
7.7091783767
 31
0.0
 11
8.5993363401
 21
7.7029611783
 31
0.0
 11
8.6358027311
 21
7.6954856029
 31
0.0
 11
8.653187901
 21
7.6912978987
 31
0.0
 11
8.6699515219
 21
7.6868235725
 31
0.0
 11
8.6860526065
 21
7.6820731358
 31
0.0
 11
8.7014531207
 21
7.6770583248
 31
0.0
 11
8.7161156227
 21
7.6717911189
 31
0.0
 11
8.7300044604
 21
7.6662840709
 31
0.0
 11
8.7430869807
 21
7.6605506948
 31
0.0
 11
8.755330952
 21
7.6546046289
 31
0.0
 11
8.7667069619
 21
7.6484601916
 31
0.0
 11
8.7771882615
 21
7.6421323439
 31
0.0
 11
8.7867486245
 21
7.6356361459
 31
0.0
 11
8.7953655991
 21
7.628987327
 31
0.0
 11
8.8030187358
 21
7.6222019715
 31
0.0
 11
8.8096885656
 21
7.6152962836
 31
0.0
 11
8.815360004
 21
7.6082870007
 31
0.0
 11
8.8178170027
 21
7.604748789
 31
0.0
 11
8.8200192212
 21
7.6011910125
 31
0.0
 11
8.8236542112
 21
7.594025338
 31
0.0
 11
8.8262573471
 21
7.5868073077
 31
0.0
 11
8.8271697877
 21
7.5831840891
 31
0.0
 11
8.8278217158
 21
7.5795542993
 31
0.0
 11
8.8282128736
 21
7.5759201247
 31
0.0
 11
8.8283432595
 21
7.5722837576
 31
0.0
 11
8.8282128736
 21
7.5686473905
 31
0.0
 11
8.8278217158
 21
7.5650132159
 31
0.0
 11
8.8271697877
 21
7.5613834261
 31
0.0
 11
8.8262573471
 21
7.5577602076
 31
0.0
 11
8.8236542112
 21
7.5505421772
 31
0.0
 11
8.8200192212
 21
7.5433765028
 31
0.0
 11
8.8178170027
 21
7.5398187262
 31
0.0
 11
8.815360004
 21
7.5362805145
 31
0.0
 11
8.8096885656
 21
7.5292712317
 31
0.0
 11
8.8030187358
 21
7.5223655438
 31
0.0
 11
8.7953655991
 21
7.5155801882
 31
0.0
 11
8.7867486245
 21
7.5089313693
 31
0.0
 11
8.7771882615
 21
7.5024351714
 31
0.0
 11
8.7667069619
 21
7.4961073236
 31
0.0
 11
8.755330952
 21
7.4899628863
 31
0.0
 11
8.7430869807
 21
7.4840168205
 31
0.0
 11
8.7300044604
 21
7.4782834444
 31
0.0
 11
8.7161156227
 21
7.4727763964
 31
0.0
 11
8.7014531207
 21
7.4675091904
 31
0.0
 11
8.6860526065
 21
7.4624943794
 31
0.0
 11
8.6699515219
 21
7.4577439428
 31
0.0
 11
8.653187901
 21
7.4532696166
 31
0.0
 11
8.6358027311
 21
7.4490819124
 31
0.0
 11
8.5993363401
 21
7.4416063369
 31
0.0
 11
8.5609028931
 21
7.4353891385
 31
0.0
 11
8.5410632031
 21
7.4327718209
 31
0.0
 11
8.5208726136
 21
7.4304904061
 31
0.0
 11
8.479633883
 21
7.4269573059
 31
0.0
 11
8.4375724018
 21
7.4248236472
 31
0.0
 11
8.395112751
 21
7.424110062
 31
0.0
  0
SPLINE
  5
272
100
AcDbEntity
  8
0
100
AcDbSpline
 62
9
  6
CONTINUOUS
 70
0
 71
3
 72
41
 73
37
 74
35
 42
0.0000001
 43
0.0000001
 44
0.0000000001
 12
0.5125618626
 22
0.0
 32
0.0
 13
-0.056082309
 23
-0.5094844822
 33
0.0
 40
0.0
 40
0.0
 40
0.0
 40
0.0
 40
0.0444032102
 40
0.0887290569
 40
0.1766804861
 40
0.263047982
 40
0.3054094937
 40
0.3470972847
 40
0.3880206104
 40
0.4280939117
 40
0.4672335092
 40
0.5053601836
 40
0.5423987425
 40
0.5782772076
 40
0.6129310561
 40
0.6462999217
 40
0.6783302879
 40
0.7089774114
 40
0.738202624
 40
0.7659793006
 40
0.7922911781
 40
0.8171342068
 40
0.8405223915
 40
0.8624858619
 40
0.8830784874
 40
0.9023811203
 40
0.9205043735
 40
0.9375972438
 40
0.9458182517
 40
0.9538551242
 40
0.9617375528
 40
0.9694974036
 40
0.9771682413
 40
0.9847849863
 40
0.9923834933
 40
1.0
 40
1.0
 40
1.0
 40
1.0
 10
8.395112751
 20
7.7441239883
 30
0.0
 10
8.402699215
 20
7.7441239883
 30
0.0
 10
8.417859291
 20
7.7439935122
 30
0.0
 10
8.4480369693
 20
7.7432149793
 30
0.0
 10
8.4853514697
 20
7.7412846645
 30
0.0
 10
8.5222403308
 20
7.7380606256
 30
0.0
 10
8.5511650911
 20
7.7347126419
 30
0.0
 10
8.5723259674
 20
7.7318511792
 30
0.0
 10
8.5930394975
 20
7.7286297518
 30
0.0
 10
8.6132535529
 20
7.7250575115
 30
0.0
 10
8.6329172224
 20
7.7211427694
 30
0.0
 10
8.6519810417
 20
7.7168956066
 30
0.0
 10
8.6703970821
 20
7.7123273408
 30
0.0
 10
8.6881187863
 20
7.7074484669
 30
0.0
 10
8.7051017747
 20
7.702272343
 30
0.0
 10
8.7213033652
 20
7.6968116418
 30
0.0
 10
8.7366828038
 20
7.6910797094
 30
0.0
 10
8.7512019316
 20
7.685092035
 30
0.0
 10
8.7648241481
 20
7.6788623964
 30
0.0
 10
8.7775157963
 20
7.6724070302
 30
0.0
 10
8.7892456161
 20
7.6657420653
 30
0.0
 10
8.7999840998
 20
7.6588826326
 30
0.0
 10
8.8097056625
 20
7.6518465662
 30
0.0
 10
8.8183859095
 20
7.6446491507
 30
0.0
 10
8.8260032581
 20
7.6373068109
 30
0.0
 10
8.8325393564
 20
7.6298359231
 30
0.0
 10
8.8379744238
 20
7.6222517645
 30
0.0
 10
8.8416203811
 20
7.6157663417
 30
0.0
 10
8.8439403639
 20
7.6105582652
 30
0.0
 10
8.8453738834
 20
7.6066876736
 30
0.0
 10
8.8465221424
 20
7.602805106
 30
0.0
 10
8.8473845622
 20
7.5989130639
 30
0.0
 10
8.8479604392
 20
7.5950142136
 30
0.0
 10
8.8482491758
 20
7.5911111554
 30
0.0
 10
8.8482501436
 20
7.5872068922
 30
0.0
 10
8.8480593909
 20
7.5846116042
 30
0.0
 10
8.8479170072
 20
7.5833181069
 30
0.0
 11
8.395112751
 21
7.7441239883
 31
0.0
 11
8.4178713006
 21
7.7439281589
 31
0.0
 11
8.4405834644
 21
7.7433415294
 31
0.0
 11
8.4856032743
 21
7.7410021795
 31
0.0
 11
8.5297022527
 21
7.7371296432
 31
0.0
 11
8.5512707853
 21
7.7346299985
 31
0.0
 11
8.5724451392
 21
7.7317629683
 31
0.0
 11
8.593171094
 21
7.7285355385
 31
0.0
 11
8.6133968664
 21
7.7249562064
 31
0.0
 11
8.6330711327
 21
7.7210337555
 31
0.0
 11
8.6521444255
 21
7.7167781497
 31
0.0
 11
8.6705687725
 21
7.7122003029
 31
0.0
 11
8.6882969703
 21
7.7073114754
 31
0.0
 11
8.7052849162
 21
7.7021242889
 31
0.0
 11
8.7214893802
 21
7.6966517439
 31
0.0
 11
8.7368692427
 21
7.6909075653
 31
0.0
 11
8.751386318
 21
7.684906485
 31
0.0
 11
8.7650030921
 21
7.6786634285
 31
0.0
 11
8.7776857577
 21
7.6721942933
 31
0.0
 11
8.7894023192
 21
7.6655154517
 31
0.0
 11
8.8001224942
 21
7.6586436151
 31
0.0
 11
8.8098201842
 21
7.6515963212
 31
0.0
 11
8.8184701272
 21
7.6443912616
 31
0.0
 11
8.8260506547
 21
7.6370466369
 31
0.0
 11
8.8325431604
 21
7.6295810815
 31
0.0
 11
8.8379301987
 21
7.6220133409
 31
0.0
 11
8.8421991607
 21
7.6143626041
 31
0.0
 11
8.8439108527
 21
7.6105121481
 31
0.0
 11
8.8453388677
 21
7.6066481886
 31
0.0
 11
8.8464824093
 21
7.6027731674
 31
0.0
 11
8.8473410028
 21
7.5988895407
 31
0.0
 11
8.8479141775
 21
7.5949997649
 31
0.0
 11
8.8482014626
 21
7.5911062964
 31
0.0
 11
8.8482024066
 21
7.5872115916
 31
0.0
 11
8.8479170072
 21
7.5833181069
 31
0.0
  0
SPLINE
  5
273
100
AcDbEntity
  8
0
100
AcDbSpline
 62
9
  6
CONTINUOUS
 70
0
 71
3
 72
36
 73
32
 74
30
 42
0.0000001
 43
0.0000001
 44
0.0000000001
 12
0.0
 22
-0.4963382786
 32
0.0
 13
0.4963382786
 23
0.0
 33
0.0
 40
0.0
 40
0.0
 40
0.0
 40
0.0
 40
0.0248187513
 40
0.0497104586
 40
0.0747478142
 40
0.1000011249
 40
0.1255354022
 40
0.1514106774
 40
0.1776822983
 40
0.2044010523
 40
0.2316098478
 40
0.2593427528
 40
0.2876275465
 40
0.31648663
 40
0.3759695576
 40
0.4066228911
 40
0.4378744447
 40
0.4697167745
 40
0.5021387517
 40
0.5351211547
 40
0.5686386916
 40
0.6026630351
 40
0.6371635404
 40
0.7074501564
 40
0.7431778941
 40
0.7792417561
 40
0.8156031684
 40
0.8522199493
 40
0.8890337575
 40
0.9259801814
 40
1.0
 40
1.0
 40
1.0
 40
1.0
 10
8.0201161561
 20
6.0932937838
 30
0.0
 10
8.0201161561
 20
6.0891876183
 30
0.0
 10
8.0204176848
 20
6.0809600589
 30
0.0
 10
8.0217735043
 20
6.0686573494
 30
0.0
 10
8.024034015
 20
6.056414645
 30
0.0
 10
8.02719289
 20
6.044263105
 30
0.0
 10
8.0312380646
 20
6.0322312225
 30
0.0
 10
8.036158866
 20
6.020348025
 30
0.0
 10
8.0419440088
 20
6.0086421841
 30
0.0
 10
8.0485831055
 20
5.997143661
 30
0.0
 10
8.0560584659
 20
5.9858796944
 30
0.0
 10
8.0643484915
 20
5.974875653
 30
0.0
 10
8.0734329754
 20
5.9641573349
 30
0.0
 10
8.0867077849
 20
5.9501432653
 30
0.0
 10
8.1013860735
 20
5.9369613551
 30
0.0
 10
8.1172657817
 20
5.9246581872
 30
0.0
 10
8.1299642018
 20
5.915741822
 30
0.0
 10
8.1432996107
 20
5.9072533605
 30
0.0
 10
8.157242845
 20
5.8992155355
 30
0.0
 10
8.1717586053
 20
5.8916458506
 30
0.0
 10
8.1868100233
 20
5.8845604681
 30
0.0
 10
8.2023604974
 20
5.877976156
 30
0.0
 10
8.2238407657
 20
5.8698381398
 30
0.0
 10
8.2460353551
 20
5.8628372837
 30
0.0
 10
8.2688000563
 20
5.8569659351
 30
0.0
 10
8.2862760693
 20
5.8531051841
 30
0.0
 10
8.3040189903
 20
5.8498223543
 30
0.0
 10
8.3219862612
 20
5.8471286669
 30
0.0
 10
8.3401300728
 20
5.8450272238
 30
0.0
 10
8.3645000019
 20
5.8430186535
 30
0.0
 10
8.3828664612
 20
5.842412379
 30
0.0
 10
8.395112751
 20
5.842412379
 30
0.0
 11
8.0201161561
 21
6.0932937838
 31
0.0
 11
8.0205668393
 21
6.0809835346
 31
0.0
 11
8.021918889
 21
6.0687030317
 31
0.0
 11
8.0241720286
 21
6.056481999
 31
0.0
 11
8.0273206365
 21
6.0443497257
 31
0.0
 11
8.0313542565
 21
6.0323351079
 31
0.0
 11
8.0362622583
 21
6.0204670275
 31
0.0
 11
8.0420340117
 21
6.0087743666
 31
0.0
 11
8.048658495
 21
5.9972859083
 31
0.0
 11
8.0561191745
 21
5.9860290443
 31
0.0
 11
8.0643954414
 21
5.9750301379
 31
0.0
 11
8.0734665917
 21
5.9643155281
 31
0.0
 11
8.0833119212
 21
5.953911554
 31
0.0
 11
8.105235334
 21
5.9341375785
 31
0.0
 11
8.1172578894
 21
5.9248135868
 31
0.0
 11
8.1299485853
 21
5.9158946195
 31
0.0
 11
8.1432780924
 21
5.9074029422
 31
0.0
 11
8.1572164864
 21
5.8993604131
 31
0.0
 11
8.1717289853
 21
5.8917855649
 31
0.0
 11
8.1867784354
 21
5.8846953065
 31
0.0
 11
8.2023276668
 21
5.8781065357
 31
0.0
 11
8.2183395094
 21
5.8720361503
 31
0.0
 11
8.2515999926
 21
5.8615114683
 31
0.0
 11
8.2687703718
 21
5.8570798862
 31
0.0
 11
8.2862482873
 21
5.8532162087
 31
0.0
 11
8.303994322
 21
5.8499309842
 31
0.0
 11
8.3219673852
 21
5.847233848
 31
0.0
 11
8.3401179456
 21
5.8451298336
 31
0.0
 11
8.3583938177
 21
5.8436225269
 31
0.0
 11
8.395112751
 21
5.842412379
 31
0.0
  0
SPLINE
  5
274
100
AcDbEntity
  8
0
100
AcDbSpline
 62
9
  6
CONTINUOUS
 70
0
 71
3
 72
40
 73
36
 74
34
 42
0.0000001
 43
0.0000001
 44
0.0000000001
 12
0.5655807672
 22
0.0
 32
0.0
 13
-0.0618308852
 23
-0.5621908447
 33
0.0
 40
0.0
 40
0.0
 40
0.0
 40
0.0
 40
0.0444052257
 40
0.0887313951
 40
0.1766812894
 40
0.2630502642
 40
0.3054124037
 40
0.3471002034
 40
0.3880238507
 40
0.4280974692
 40
0.4672373319
 40
0.5053646277
 40
0.5424031493
 40
0.578282096
 40
0.6129363593
 40
0.6463051119
 40
0.6783362468
 40
0.708983214
 40
0.7382087827
 40
0.7659860347
 40
0.7922974855
 40
0.817141342
 40
0.8405293975
 40
0.8624929671
 40
0.8830862506
 40
0.9023884063
 40
0.9205122695
 40
0.937605166
 40
0.9538546367
 40
0.9617373018
 40
0.9694972782
 40
0.9771681101
 40
0.9847848807
 40
0.9923834674
 40
1.0
 40
1.0
 40
1.0
 40
1.0
 10
8.395112751
 20
8.1864829594
 30
0.0
 10
8.4034843315
 20
8.1864829594
 30
0.0
 10
8.4202129922
 20
8.1863390138
 30
0.0
 10
8.4535123723
 20
8.1854799556
 30
0.0
 10
8.4946866975
 20
8.1833499027
 30
0.0
 10
8.5353914015
 20
8.179792272
 30
0.0
 10
8.567308535
 20
8.1760981558
 30
0.0
 10
8.5906584199
 20
8.1729404494
 30
0.0
 10
8.6135146753
 20
8.1693859067
 30
0.0
 10
8.6358198318
 20
8.1654441707
 30
0.0
 10
8.6575176694
 20
8.1611242334
 30
0.0
 10
8.6785536637
 20
8.1564380485
 30
0.0
 10
8.6988747588
 20
8.1513968737
 30
0.0
 10
8.7184297635
 20
8.1460134162
 30
0.0
 10
8.7371696637
 20
8.1403020297
 30
0.0
 10
8.7550471675
 20
8.1342759699
 30
0.0
 10
8.7720177154
 20
8.1279516027
 30
0.0
 10
8.7880387202
 20
8.1213441467
 30
0.0
 10
8.8030701248
 20
8.1144700654
 30
0.0
 10
8.8170749062
 20
8.107347349
 30
0.0
 10
8.8300177997
 20
8.0999921724
 30
0.0
 10
8.841867503
 20
8.0924238226
 30
0.0
 10
8.8525946062
 20
8.0846595699
 30
0.0
 10
8.8621725878
 20
8.0767174023
 30
0.0
 10
8.8705786137
 20
8.0686161133
 30
0.0
 10
8.8777898731
 20
8.0603718009
 30
0.0
 10
8.8837881841
 20
8.0520027394
 30
0.0
 10
8.8885538687
 20
8.0435268418
 30
0.0
 10
8.891513027
 20
8.0363144482
 30
0.0
 10
8.8932197973
 20
8.0305449942
 30
0.0
 10
8.8941717926
 20
8.0262502565
 30
0.0
 10
8.8948069006
 20
8.0219480498
 30
0.0
 10
8.8951250252
 20
8.0176412072
 30
0.0
 10
8.8951260892
 20
8.0133330832
 30
0.0
 10
8.8949159291
 20
8.0104693002
 30
0.0
 10
8.8947589501
 20
8.0090419852
 30
0.0
 11
8.395112751
 21
8.1864829594
 31
0.0
 11
8.4202265631
 21
8.1862668865
 31
0.0
 11
8.4452882338
 21
8.1856195776
 31
0.0
 11
8.4949639793
 21
8.1830382315
 31
0.0
 11
8.5436253469
 21
8.1787650528
 31
0.0
 11
8.5674252692
 21
8.1760068816
 31
0.0
 11
8.5907898683
 21
8.1728431814
 31
0.0
 11
8.6136598838
 21
8.1692819347
 31
0.0
 11
8.6359779693
 21
8.1653323404
 31
0.0
 11
8.6576874546
 21
8.1610040485
 31
0.0
 11
8.6787340429
 21
8.156308303
 31
0.0
 11
8.6990641312
 21
8.1512567929
 31
0.0
 11
8.7186263977
 21
8.145862264
 31
0.0
 11
8.737371806
 21
8.1401385212
 31
0.0
 11
8.7552523242
 21
8.1340997459
 31
0.0
 11
8.7722235479
 21
8.1277614461
 31
0.0
 11
8.7882421093
 21
8.1211394976
 31
0.0
 11
8.8032675852
 21
8.1142506092
 31
0.0
 11
8.8172625045
 21
8.1071123238
 31
0.0
 11
8.8301906436
 21
8.0997424638
 31
0.0
 11
8.8420202692
 21
8.0921598265
 31
0.0
 11
8.8527209232
 21
8.0843834774
 31
0.0
 11
8.8622656016
 21
8.0764330382
 31
0.0
 11
8.8706307652
 21
8.0683286879
 31
0.0
 11
8.8777942857
 21
8.06009077
 31
0.0
 11
8.8837390936
 21
8.0517401903
 31
0.0
 11
8.8884495508
 21
8.0432980059
 31
0.0
 11
8.8919137674
 21
8.0347855188
 31
0.0
 11
8.8931759854
 21
8.0305096446
 31
0.0
 11
8.894123616
 21
8.0262242762
 31
0.0
 11
8.8947558283
 21
8.0219321121
 31
0.0
 11
8.8950724547
 21
8.0176358648
 31
0.0
 11
8.8950734953
 21
8.0133382504
 31
0.0
 11
8.8947589501
 21
8.0090419852
 31
0.0
  0
SPLINE
  5
275
100
AcDbEntity
  8
0
100
AcDbSpline
 62
6
  6
CONTINUOUS
 70
0
 71
3
 72
47
 73
43
 74
41
 42
0.0000001
 43
0.0000001
 44
0.0000000001
 12
0.6156516583
 22
0.0
 32
0.0
 13
-0.348716317
 23
-0.5073695838
 33
0.0
 40
0.0
 40
0.0
 40
0.0
 40
0.0
 40
0.0467990818
 40
0.0934878834
 40
0.139911302
 40
0.1859371216
 40
0.2314444536
 40
0.2763105784
 40
0.3204112816
 40
0.3636263317
 40
0.405841746
 40
0.4469471161
 40
0.4868387279
 40
0.5254171885
 40
0.5625922614
 40
0.5982801959
 40
0.6324076625
 40
0.6649113853
 40
0.6957400799
 40
0.72485782
 40
0.752243724
 40
0.777899421
 40
0.8018482658
 40
0.8132011197
 40
0.8241509526
 40
0.8448872664
 40
0.85471396
 40
0.8642054939
 40
0.882276835
 40
0.8909273136
 40
0.8993650566
 40
0.9076296619
 40
0.9157637681
 40
0.9238126956
 40
0.9318235026
 40
0.9398439185
 40
0.9479215051
 40
0.9561027758
 40
0.964432034
 40
0.9729507343
 40
0.9816971736
 40
1.0
 40
1.0
 40
1.0
 40
1.0
 10
8.395112751
 20
8.2060060262
 30
0.0
 10
8.4047167284
 20
8.2060060262
 30
0.0
 10
8.423902562
 20
8.205821134
 30
0.0
 10
8.452604494
 20
8.2049917831
 30
0.0
 10
8.4811264886
 20
8.2036115416
 30
0.0
 10
8.509373829
 20
8.2016855041
 30
0.0
 10
8.5372584259
 20
8.1992196081
 30
0.0
 10
8.5646935658
 20
8.1962218907
 30
0.0
 10
8.5915923727
 20
8.1927020435
 30
0.0
 10
8.6178691838
 20
8.1886705183
 30
0.0
 10
8.6434409232
 20
8.1841412546
 30
0.0
 10
8.6682268123
 20
8.1791273947
 30
0.0
 10
8.6921487202
 20
8.1736462935
 30
0.0
 10
8.715130964
 20
8.1677139778
 30
0.0
 10
8.7371011999
 20
8.1613505017
 30
0.0
 10
8.7579901725
 20
8.154575194
 30
0.0
 10
8.777732295
 20
8.1474099284
 30
0.0
 10
8.7962657788
 20
8.1398774087
 30
0.0
 10
8.8135325407
 20
8.1320006146
 30
0.0
 10
8.8294792978
 20
8.1238052686
 30
0.0
 10
8.8440563301
 20
8.1153148115
 30
0.0
 10
8.8572190548
 20
8.1065570919
 30
0.0
 10
8.8671462567
 20
8.0989248383
 30
0.0
 10
8.8743121878
 20
8.0926965619
 30
0.0
 10
8.8807280479
 20
8.0866238979
 30
0.0
 10
8.8865198845
 20
8.08035427
 30
0.0
 10
8.8915974754
 20
8.0738850987
 30
0.0
 10
8.8959879814
 20
8.0675890488
 30
0.0
 10
8.8996895589
 20
8.0611162315
 30
0.0
 10
8.9026000887
 20
8.0545083705
 30
0.0
 10
8.9043491048
 20
8.0496030859
 30
0.0
 10
8.9056934029
 20
8.0446814587
 30
0.0
 10
8.9066311373
 20
8.0397473331
 30
0.0
 10
8.9071610313
 20
8.0348051464
 30
0.0
 10
8.9072830153
 20
8.0298593959
 30
0.0
 10
8.9069969948
 20
8.0249145429
 30
0.0
 10
8.906303108
 20
8.0199750525
 30
0.0
 10
8.9052016285
 20
8.0150454314
 30
0.0
 10
8.9036944446
 20
8.0101299766
 30
0.0
 10
8.9017832295
 20
8.0052323968
 30
0.0
 10
8.8986526831
 20
7.9986336469
 30
0.0
 10
8.8957637818
 20
7.9938705185
 30
0.0
 10
8.8936362838
 20
7.990775086
 30
0.0
 11
8.395112751
 21
8.2060060262
 31
0.0
 11
8.4239233454
 21
8.2057283792
 31
0.0
 11
8.4526553505
 21
8.2048967476
 31
0.0
 11
8.481202507
 21
8.2035133898
 31
0.0
 11
8.5094725469
 21
8.201582977
 31
0.0
 11
8.5373799848
 21
8.1991114602
 31
0.0
 11
8.5648379716
 21
8.196106706
 31
0.0
 11
8.5917584013
 21
8.1925783344
 31
0.0
 11
8.6180551378
 21
8.1885373104
 31
0.0
 11
8.6436454262
 21
8.1839967477
 31
0.0
 11
8.6684478861
 21
8.1789706712
 31
0.0
 11
8.6923845285
 21
8.1734753836
 31
0.0
 11
8.7153787251
 21
8.16752796
 31
0.0
 11
8.73735826
 21
8.1611475194
 31
0.0
 11
8.7582529757
 21
8.154354106
 31
0.0
 11
8.7779969749
 21
8.1471693217
 31
0.0
 11
8.7965276445
 21
8.1396159624
 31
0.0
 11
8.8137859836
 21
8.131717852
 31
0.0
 11
8.8297178829
 21
8.1235001965
 31
0.0
 11
8.8442719934
 21
8.1149888249
 31
0.0
 11
8.857403242
 21
8.1062109287
 31
0.0
 11
8.8690688838
 21
8.0971941308
 31
0.0
 11
8.8743407466
 21
8.0926050982
 31
0.0
 11
8.8792330258
 21
8.087967157
 31
0.0
 11
8.8878625728
 21
8.0785591546
 31
0.0
 11
8.8915932709
 21
8.0737965696
 31
0.0
 11
8.894930775
 21
8.0689999762
 31
0.0
 11
8.900414998
 21
8.059319924
 31
0.0
 11
8.9025572959
 21
8.0544441222
 31
0.0
 11
8.9042977024
 21
8.0495496353
 31
0.0
 11
8.9056347848
 21
8.0446403426
 31
0.0
 11
8.9065671296
 21
8.0397201237
 31
0.0
 11
8.9070939484
 21
8.0347928717
 31
0.0
 11
8.9072151979
 21
8.0298624958
 31
0.0
 11
8.9069308778
 21
8.0249329059
 31
0.0
 11
8.9062409884
 21
8.0200080121
 31
0.0
 11
8.9051457468
 21
8.0150917199
 31
0.0
 11
8.9036463244
 21
8.010187914
 31
0.0
 11
8.9017441538
 21
8.0053004736
 31
0.0
 11
8.8994406681
 21
8.0004332781
 31
0.0
 11
8.8936362838
 21
7.990775086
 31
0.0
  0
SPLINE
  5
276
100
AcDbEntity
  8
0
100
AcDbSpline
 62
9
  6
CONTINUOUS
 70
0
 71
3
 72
42
 73
38
 74
36
 42
0.0000001
 43
0.0000001
 44
0.0000000001
 12
0.0
 22
0.4193600441
 32
0.0
 13
-0.4193600441
 23
0.0
 33
0.0
 40
0.0
 40
0.0
 40
0.0
 40
0.0
 40
0.0075105803
 40
0.0150550004
 40
0.0226666568
 40
0.0303780886
 40
0.0382206165
 40
0.0462238353
 40
0.0628105017
 40
0.0714477286
 40
0.0803390871
 40
0.0989481056
 40
0.118762421
 40
0.1398735465
 40
0.1623418262
 40
0.1862012873
 40
0.2114700152
 40
0.2381539625
 40
0.2662488467
 40
0.2957332239
 40
0.3265731294
 40
0.3587291548
 40
0.3921577492
 40
0.4268109409
 40
0.4626280761
 40
0.4995410227
 40
0.5374795101
 40
0.57637165
 40
0.6161439314
 40
0.6567192287
 40
0.6980183427
 40
0.7399612355
 40
0.782467269
 40
0.8254515184
 40
0.8688090211
 40
0.9124281266
 40
1.0
 40
1.0
 40
1.0
 40
1.0
 10
8.7701093458
 20
8.7750903122
 30
0.0
 10
8.7701093458
 20
8.7761401913
 30
0.0
 10
8.7700338349
 20
8.7782454526
 30
0.0
 10
8.7696943199
 20
8.7813982533
 30
0.0
 10
8.7691285425
 20
8.7845470416
 30
0.0
 10
8.7683366479
 20
8.7876895183
 30
0.0
 10
8.7673186914
 20
8.7908238283
 30
0.0
 10
8.7656409833
 20
8.7950383388
 30
0.0
 10
8.7635200117
 20
8.7991849229
 30
0.0
 10
8.7610054397
 20
8.8032387261
 30
0.0
 10
8.7581197331
 20
8.8073875815
 30
0.0
 10
8.7539386728
 20
8.8125259989
 30
0.0
 10
8.7481365342
 20
8.8185044814
 30
0.0
 10
8.7414862614
 20
8.8243731464
 30
0.0
 10
8.7340052562
 20
8.8301197469
 30
0.0
 10
8.7257131545
 20
8.8357332947
 30
0.0
 10
8.7166298113
 20
8.8412009274
 30
0.0
 10
8.7067754592
 20
8.8465097934
 30
0.0
 10
8.6961715244
 20
8.8516455505
 30
0.0
 10
8.6848438088
 20
8.8565970993
 30
0.0
 10
8.6728205926
 20
8.8613538351
 30
0.0
 10
8.6601307617
 20
8.865904286
 30
0.0
 10
8.6468035392
 20
8.8702371328
 30
0.0
 10
8.6328696132
 20
8.8743400967
 30
0.0
 10
8.6183631954
 20
8.8782045354
 30
0.0
 10
8.6033206607
 20
8.8818221698
 30
0.0
 10
8.5877789916
 20
8.8851842329
 30
0.0
 10
8.571775291
 20
8.8882821049
 30
0.0
 10
8.5553470723
 20
8.8911067845
 30
0.0
 10
8.5385330302
 20
8.8936525607
 30
0.0
 10
8.5213723711
 20
8.8959141331
 30
0.0
 10
8.5039044328
 20
8.8978860371
 30
0.0
 10
8.4861690985
 20
8.8995628495
 30
0.0
 10
8.4682096138
 20
8.9009387425
 30
0.0
 10
8.4500735869
 20
8.9020121754
 30
0.0
 10
8.4256948702
 20
8.9030388908
 30
0.0
 10
8.4073541325
 20
8.903347866
 30
0.0
 10
8.395112751
 20
8.903347866
 30
0.0
 11
8.7701093458
 21
8.7750903122
 31
0.0
 11
8.769996675
 21
8.7782379336
 31
0.0
 11
8.7696586626
 21
8.7813836541
 31
0.0
 11
8.7690953085
 21
8.7845255728
 31
0.0
 11
8.7683066129
 21
8.7876617888
 31
0.0
 11
8.7672925757
 21
8.7907904013
 31
0.0
 11
8.7660534733
 21
8.7939095207
 31
0.0
 11
8.7629048654
 21
8.8001118764
 31
0.0
 11
8.7609980175
 21
8.8031914212
 31
0.0
 11
8.7588712454
 21
8.8062540832
 31
0.0
 11
8.7539632436
 21
8.8123213761
 31
0.0
 11
8.7481914902
 21
8.8182989896
 31
0.0
 11
8.7415670069
 21
8.8241722091
 31
0.0
 11
8.7341063275
 21
8.8299270312
 31
0.0
 11
8.7258300605
 21
8.8355499781
 31
0.0
 11
8.7167589103
 21
8.8410275847
 31
0.0
 11
8.7069135808
 21
8.8463463857
 31
0.0
 11
8.6963152532
 21
8.8514930311
 31
0.0
 11
8.6849901679
 21
8.8564553921
 31
0.0
 11
8.6729676125
 21
8.8612220761
 31
0.0
 11
8.6602769166
 21
8.8657817003
 31
0.0
 11
8.6469474095
 21
8.870122882
 31
0.0
 11
8.6330090155
 21
8.8742344466
 31
0.0
 11
8.6184965166
 21
8.8781069197
 31
0.0
 11
8.6034470665
 21
8.8817316571
 31
0.0
 11
8.5878978351
 21
8.88510002
 31
0.0
 11
8.5718859925
 21
8.8882033699
 31
0.0
 11
8.5554489353
 21
8.8910333959
 31
0.0
 11
8.5386255093
 21
8.8935838801
 31
0.0
 11
8.5214551301
 21
8.8958494283
 31
0.0
 11
8.5039772147
 21
8.8978246477
 31
0.0
 11
8.4862311799
 21
8.8995041458
 31
0.0
 11
8.4682581167
 21
8.9008829969
 31
0.0
 11
8.4501075563
 21
8.9019586276
 31
0.0
 11
8.4318316842
 21
8.9027292047
 31
0.0
 11
8.395112751
 21
8.903347866
 31
0.0
  0
SPLINE
  5
277
100
AcDbEntity
  8
0
100
AcDbSpline
 62
9
  6
CONTINUOUS
 70
0
 71
3
 72
28
 73
24
 74
22
 42
0.0000001
 43
0.0000001
 44
0.0000000001
 12
0.4693093768
 22
0.0
 32
0.0
 13
0.3790856401
 23
-0.2766683368
 33
0.0
 40
0.0
 40
0.0
 40
0.0
 40
0.0
 40
0.0753436059
 40
0.1503818806
 40
0.224741229
 40
0.298106684
 40
0.3701665636
 40
0.4406062913
 40
0.5091270371
 40
0.5754446928
 40
0.6392933434
 40
0.7004247323
 40
0.7586168441
 40
0.7865497541
 40
0.813677678
 40
0.8399810236
 40
0.8654426135
 40
0.8900493429
 40
0.9137903937
 40
0.9366573741
 40
0.9586466697
 40
0.9797593171
 40
1.0
 40
1.0
 40
1.0
 40
1.0
 10
8.395112751
 20
8.3485355192
 30
0.0
 10
8.4068992379
 20
8.3485355192
 30
0.0
 10
8.4304254397
 20
8.3482508187
 30
0.0
 10
8.4655632743
 20
8.3469735361
 30
0.0
 10
8.5003504513
 20
8.3448504411
 30
0.0
 10
8.5346091206
 20
8.3418933917
 30
0.0
 10
8.5681704855
 20
8.3381174776
 30
0.0
 10
8.600867252
 20
8.3335410622
 30
0.0
 10
8.6325355696
 20
8.3281879724
 30
0.0
 10
8.6630173691
 20
8.3220842153
 30
0.0
 10
8.6921611346
 20
8.3152618518
 30
0.0
 10
8.719821194
 20
8.3077538137
 30
0.0
 10
8.7418115333
 20
8.3008675957
 30
0.0
 10
8.7585389578
 20
8.2950258214
 30
0.0
 10
8.7704585037
 20
8.2905576182
 30
0.0
 10
8.781908512
 20
8.2859482267
 30
0.0
 10
8.7928745707
 20
8.281202985
 30
0.0
 10
8.8033432814
 20
8.2763282708
 30
0.0
 10
8.813301725
 20
8.2713302211
 30
0.0
 10
8.8227372235
 20
8.2662146043
 30
0.0
 10
8.8316381851
 20
8.2609877709
 30
0.0
 10
8.8399936979
 20
8.2556566511
 30
0.0
 10
8.8453051181
 20
8.2519595705
 30
0.0
 10
8.8478627688
 20
8.2500929185
 30
0.0
 11
8.395112751
 21
8.3485355192
 31
0.0
 11
8.430469617
 21
8.3481071684
 31
0.0
 11
8.4656624223
 21
8.346824671
 31
0.0
 11
8.5004948636
 21
8.34469411
 31
0.0
 11
8.5347978221
 21
8.3417263822
 31
0.0
 11
8.5684031445
 21
8.3379362713
 31
0.0
 11
8.6011404626
 21
8.3333426886
 31
0.0
 11
8.632845699
 21
8.3279688448
 31
0.0
 11
8.6633600546
 21
8.3218413486
 31
0.0
 11
8.6925313327
 21
8.3149912391
 31
0.0
 11
8.7202126726
 21
8.307452487
 31
0.0
 11
8.7462660049
 21
8.2992631256
 31
0.0
 11
8.7586408003
 21
8.2949370477
 31
0.0
 11
8.7705605339
 21
8.2904639932
 31
0.0
 11
8.7820100214
 21
8.2858494927
 31
0.0
 11
8.7929746124
 21
8.2810992277
 31
0.0
 11
8.8034410466
 21
8.2762192729
 31
0.0
 11
8.8133962865
 21
8.2712157657
 31
0.0
 11
8.8228273774
 21
8.2660948617
 31
0.0
 11
8.8317226251
 21
8.2608629899
 31
0.0
 11
8.8400713175
 21
8.2555267928
 31
0.0
 11
8.8478627688
 21
8.2500929185
 31
0.0
  0
SPLINE
  5
278
100
AcDbEntity
  8
0
100
AcDbSpline
 62
9
  6
CONTINUOUS
 70
0
 71
3
 72
20
 73
16
 74
14
 42
0.0000001
 43
0.0000001
 44
0.0000000001
 12
0.3830981219
 22
0.0
 32
0.0
 13
0.3567204155
 23
-0.1396950828
 33
0.0
 40
0.0
 40
0.0
 40
0.0
 40
0.0
 40
0.0695248281
 40
0.1389063661
 40
0.2764288588
 40
0.4111776045
 40
0.5418442242
 40
0.6052506528
 40
0.667169019
 40
0.7274568544
 40
0.7859785108
 40
0.8426055774
 40
0.897221613
 40
0.9497176444
 40
1.0
 40
1.0
 40
1.0
 40
1.0
 10
8.395112751
 20
8.4386663687
 30
0.0
 10
8.403991028
 20
8.4386663687
 30
0.0
 10
8.421729777
 20
8.438504519
 30
0.0
 10
8.4570178226
 20
8.437538966
 30
0.0
 10
8.5005921861
 20
8.4351472689
 30
0.0
 10
8.5518385067
 20
8.4303868192
 30
0.0
 10
8.593474772
 20
8.4248439051
 30
0.0
 10
8.6257242634
 20
8.4194819796
 30
0.0
 10
8.6490149319
 20
8.4150705156
 30
0.0
 10
8.6715852408
 20
8.4102417626
 30
0.0
 10
8.6933714333
 20
8.4050097932
 30
0.0
 10
8.7143116331
 20
8.3993886072
 30
0.0
 10
8.7343469446
 20
8.3933954397
 30
0.0
 10
8.7534202519
 20
8.3870461399
 30
0.0
 10
8.7657312973
 20
8.3824875992
 30
0.0
 10
8.7717102115
 20
8.3801461999
 30
0.0
 11
8.395112751
 21
8.4386663687
 31
0.0
 11
8.4217464734
 21
8.4384233492
 31
0.0
 11
8.4483164395
 21
8.437695376
 31
0.0
 11
8.5009210676
 21
8.4347934643
 31
0.0
 11
8.5523194291
 21
8.4299936282
 31
0.0
 11
8.6019347937
 21
8.4233503884
 31
0.0
 11
8.6258957256
 21
8.419360304
 31
0.0
 11
8.6492008843
 21
8.4149391732
 31
0.0
 11
8.6717843089
 21
8.4100996093
 31
0.0
 11
8.6935818915
 21
8.404855468
 31
0.0
 11
8.714531235
 21
8.3992214093
 31
0.0
 11
8.7345735015
 21
8.3932137421
 31
0.0
 11
8.7536509925
 21
8.3868492367
 31
0.0
 11
8.7717102115
 21
8.3801461999
 31
0.0
  0
SPLINE
  5
279
100
AcDbEntity
  8
0
100
AcDbSpline
 62
9
  6
CONTINUOUS
 70
0
 71
3
 72
26
 73
22
 74
20
 42
0.0000001
 43
0.0000001
 44
0.0000000001
 12
0.1639232066
 22
-0.0641938754
 32
0.0
 13
0.0
 23
-0.1760445151
 33
0.0
 40
0.0
 40
0.0
 40
0.0
 40
0.0
 40
0.0882352845
 40
0.1728425448
 40
0.2537570166
 40
0.3309301784
 40
0.4043431432
 40
0.4740072913
 40
0.5399630382
 40
0.6022970125
 40
0.6611411798
 40
0.7166796841
 40
0.7691667443
 40
0.7943717546
 40
0.8189415527
 40
0.8663752551
 40
0.9119713213
 40
0.9342638239
 40
0.9563127296
 40
0.9781976008
 40
1.0
 40
1.0
 40
1.0
 40
1.0
 10
8.7717102115
 20
8.3801461999
 30
0.0
 10
8.7765314818
 20
8.3782581449
 30
0.0
 10
8.7859209566
 20
8.374417263
 30
0.0
 10
8.7995105897
 20
8.3683226339
 30
0.0
 10
8.8122887529
 20
8.3620264025
 30
0.0
 10
8.824229593
 20
8.3555402606
 30
0.0
 10
8.8353095704
 20
8.3488771026
 30
0.0
 10
8.8455072667
 20
8.3420505676
 30
0.0
 10
8.8548019698
 20
8.3350726032
 30
0.0
 10
8.8631757301
 20
8.327957008
 30
0.0
 10
8.8706124234
 20
8.320716899
 30
0.0
 10
8.8770955206
 20
8.3133646815
 30
0.0
 10
8.8817547776
 20
8.3070718507
 30
0.0
 10
8.8849681151
 20
8.3020011061
 30
0.0
 10
8.8877761402
 20
8.2970334531
 30
0.0
 10
8.8906968049
 20
8.2907649482
 30
0.0
 10
8.8928325217
 20
8.2843248545
 30
0.0
 10
8.8940185696
 20
8.2791790917
 30
0.0
 10
8.8946496129
 20
8.2753415796
 30
0.0
 10
8.8950282236
 20
8.2715001239
 30
0.0
 10
8.895112425
 20
8.2689356946
 30
0.0
 10
8.895112425
 20
8.267656297
 30
0.0
 11
8.7717102115
 21
8.3801461999
 31
0.0
 11
8.7860833549
 21
8.3742557555
 31
0.0
 11
8.7996693179
 21
8.368150673
 31
0.0
 11
8.8124413832
 21
8.3618434133
 31
0.0
 11
8.8243731631
 21
8.3553465197
 31
0.0
 11
8.8354408597
 21
8.348673097
 31
0.0
 11
8.8456226511
 21
8.3418366795
 31
0.0
 11
8.8548972076
 21
8.3348508834
 31
0.0
 11
8.863246443
 21
8.3277298468
 31
0.0
 11
8.8706537139
 21
8.32048794
 31
0.0
 11
8.8771032886
 21
8.313139635
 31
0.0
 11
8.8825830332
 21
8.3056998037
 31
0.0
 11
8.8849557071
 21
8.3019502442
 31
0.0
 11
8.8870817164
 21
8.2981834178
 31
0.0
 11
8.8905896863
 21
8.2906055521
 31
0.0
 11
8.8931008051
 21
8.2829815108
 31
0.0
 11
8.8939807752
 21
8.2791569665
 31
0.0
 11
8.8946094691
 21
8.2753266302
 31
0.0
 11
8.894986686
 21
8.2714924296
 31
0.0
 11
8.895112425
 21
8.267656297
 31
0.0
  0
SPLINE
  5
27A
100
AcDbEntity
  8
0
100
AcDbSpline
 62
9
  6
CONTINUOUS
 70
0
 71
3
 72
38
 73
34
 74
32
 42
0.0000001
 43
0.0000001
 44
0.0000000001
 12
0.0000020839
 22
0.55354617
 32
0.0
 13
0.55354617
 23
0.0
 33
0.0
 40
0.0
 40
0.0
 40
0.0
 40
0.0
 40
0.0075122852
 40
0.0150585672
 40
0.0226723884
 40
0.0303863188
 40
0.0462280809
 40
0.0628171443
 40
0.0803437471
 40
0.0989597703
 40
0.1187827933
 40
0.1399011609
 40
0.1623741577
 40
0.186240637
 40
0.2115211911
 40
0.2382181821
 40
0.2663232889
 40
0.2958160088
 40
0.3266647864
 40
0.358832048
 40
0.3922708463
 40
0.4269281876
 40
0.4627462119
 40
0.4996602404
 40
0.5376025026
 40
0.5765002388
 40
0.6162777055
 40
0.656855579
 40
0.6981519314
 40
0.7400821213
 40
0.8254921849
 40
0.9123756786
 40
1.0
 40
1.0
 40
1.0
 40
1.0
 10
7.900113196
 20
8.3400126288
 30
0.0
 10
7.9001132012
 20
8.341398761
 30
0.0
 10
7.9002131046
 20
8.3441783274
 30
0.0
 10
7.9006622046
 20
8.3483409041
 30
0.0
 10
7.9014106843
 20
8.3524982772
 30
0.0
 10
7.9028191623
 20
8.3580783811
 30
0.0
 10
7.9053584567
 20
8.3650611321
 30
0.0
 10
7.9095635622
 20
8.3732870817
 30
0.0
 10
7.914939917
 20
8.3814183476
 30
0.0
 10
7.9214689584
 20
8.3894379801
 30
0.0
 10
7.9291332763
 20
8.3973305821
 30
0.0
 10
7.9379149935
 20
8.4050785535
 30
0.0
 10
7.9477918422
 20
8.4126670398
 30
0.0
 10
7.958741279
 20
8.4200786723
 30
0.0
 10
7.9707378971
 20
8.4272959921
 30
0.0
 10
7.9837526557
 20
8.4343037609
 30
0.0
 10
7.9977553362
 20
8.4410843762
 30
0.0
 10
8.0127125398
 20
8.4476218313
 30
0.0
 10
8.0285882507
 20
8.4539014724
 30
0.0
 10
8.0453448681
 20
8.4599069729
 30
0.0
 10
8.0629419466
 20
8.4656247332
 30
0.0
 10
8.0813372162
 20
8.4710409822
 30
0.0
 10
8.1004865355
 20
8.4761420041
 30
0.0
 10
8.1203436373
 20
8.4809164514
 30
0.0
 10
8.1408607953
 20
8.4853519564
 30
0.0
 10
8.1619885598
 20
8.4894385031
 30
0.0
 10
8.18367615
 20
8.4931658393
 30
0.0
 10
8.2058713751
 20
8.4965253237
 30
0.0
 10
8.2285209769
 20
8.4995086945
 30
0.0
 10
8.2594423727
 20
8.502996841
 30
0.0
 10
8.2988362589
 20
8.506355035
 30
0.0
 10
8.3467426171
 20
8.5087740952
 30
0.0
 10
8.3789447151
 20
8.5093125997
 30
0.0
 10
8.395112751
 20
8.5093125997
 30
0.0
 11
7.900113196
 21
8.3400126288
 31
0.0
 11
7.9002622504
 21
8.3441683533
 31
0.0
 11
7.9007093744
 21
8.34832157
 31
0.0
 11
7.901454555
 21
8.3524697711
 31
0.0
 11
7.9024975209
 21
8.3566104552
 31
0.0
 11
7.9054730763
 21
8.3648593341
 31
0.0
 11
7.9096280944
 21
8.3730483433
 31
0.0
 11
7.9149538213
 21
8.3811576738
 31
0.0
 11
7.9214365739
 21
8.3891678802
 31
0.0
 11
7.9290605791
 21
8.397059671
 31
0.0
 11
7.9378085722
 21
8.404813929
 31
0.0
 11
7.9476582987
 21
8.4124121222
 31
0.0
 11
7.9585864319
 21
8.4198358452
 31
0.0
 11
7.9705672374
 21
8.4270671
 31
0.0
 11
7.9835706201
 21
8.434088626
 31
0.0
 11
7.9975658977
 21
8.4408832717
 31
0.0
 11
8.0125192987
 21
8.4474346403
 31
0.0
 11
8.0283938756
 21
8.4537271111
 31
0.0
 11
8.0451520993
 21
8.4597452395
 31
0.0
 11
8.0627529619
 21
8.4654747008
 31
0.0
 11
8.0811537843
 21
8.470901709
 31
0.0
 11
8.1003105481
 21
8.476013026
 31
0.0
 11
8.1201763546
 21
8.480796594
 31
0.0
 11
8.1407035868
 21
8.485240701
 31
0.0
 11
8.1618424543
 21
8.4893348529
 31
0.0
 11
8.1835421463
 21
8.4930691465
 31
0.0
 11
8.2057502981
 21
8.4964347293
 31
0.0
 11
8.2284135114
 21
8.499423484
 31
0.0
 11
8.2514771749
 21
8.5020283384
 31
0.0
 11
8.2985831807
 21
8.5060622713
 31
0.0
 11
8.3466154828
 21
8.5084980891
 31
0.0
 11
8.395112751
 21
8.5093125997
 31
0.0
  0
SPLINE
  5
27B
100
AcDbEntity
  8
0
100
AcDbSpline
 62
9
  6
CONTINUOUS
 70
0
 71
3
 72
38
 73
34
 74
32
 42
0.0000001
 43
0.0000001
 44
0.0000000001
 12
-0.000000282
 22
0.553546156
 32
0.0
 13
0.553546156
 23
0.0
 33
0.0
 40
0.0
 40
0.0
 40
0.0
 40
0.0
 40
0.0075122779
 40
0.0150585527
 40
0.0226723746
 40
0.0303863048
 40
0.0462280399
 40
0.0628170861
 40
0.0803436977
 40
0.0989596708
 40
0.1187826955
 40
0.1399010469
 40
0.1623739778
 40
0.1862404759
 40
0.2115209862
 40
0.2382179121
 40
0.2663230425
 40
0.2958157128
 40
0.3266644604
 40
0.3588317481
 40
0.3922705181
 40
0.4269278861
 40
0.4627459223
 40
0.49965996
 40
0.5376022558
 40
0.5765000116
 40
0.6162775138
 40
0.6568554127
 40
0.6981517964
 40
0.7400820147
 40
0.8254921287
 40
0.9123756583
 40
1.0
 40
1.0
 40
1.0
 40
1.0
 10
7.9001131958
 20
8.3005455541
 30
0.0
 10
7.9001131951
 20
8.301931685
 30
0.0
 10
7.9002130871
 20
8.304711249
 30
0.0
 10
7.9006621802
 20
8.3088738247
 30
0.0
 10
7.9014106959
 20
8.3130311903
 30
0.0
 10
7.9028191897
 20
8.3186112836
 30
0.0
 10
7.9053584374
 20
8.3255940415
 30
0.0
 10
7.9095635415
 20
8.3338199885
 30
0.0
 10
7.9149399284
 20
8.3419512172
 30
0.0
 10
7.9214689132
 20
8.3499708852
 30
0.0
 10
7.9291332525
 20
8.3578634528
 30
0.0
 10
7.9379149562
 20
8.3656114128
 30
0.0
 10
7.9477917653
 20
8.3731999328
 30
0.0
 10
7.9587412173
 20
8.3806115136
 30
0.0
 10
7.9707378056
 20
8.3878288467
 30
0.0
 10
7.9837525352
 20
8.394836638
 30
0.0
 10
7.9977552199
 20
8.4016172048
 30
0.0
 10
8.012712398
 20
8.4081546897
 30
0.0
 10
8.0285880962
 20
8.414434337
 30
0.0
 10
8.0453447155
 20
8.420439812
 30
0.0
 10
8.0629417863
 20
8.4261576091
 30
0.0
 10
8.0813370631
 20
8.4315738399
 30
0.0
 10
8.1004863868
 20
8.4366748762
 30
0.0
 10
8.120343496
 20
8.4414493347
 30
0.0
 10
8.1408606663
 20
8.4458848341
 30
0.0
 10
8.1619884437
 20
8.4499713973
 30
0.0
 10
8.1836760493
 20
8.4536987292
 30
0.0
 10
8.2058712894
 20
8.4570582241
 30
0.0
 10
8.2285209065
 20
8.4600415949
 30
0.0
 10
8.2594423214
 20
8.4635297461
 30
0.0
 10
8.2988362276
 20
8.466887943
 30
0.0
 10
8.3467426042
 20
8.4693070049
 30
0.0
 10
8.3789447118
 20
8.4698455097
 30
0.0
 10
8.395112751
 20
8.4698455097
 30
0.0
 11
7.9001131958
 21
8.3005455541
 31
0.0
 11
7.9002622346
 21
8.304701275
 31
0.0
 11
7.9007093569
 21
8.3088544878
 31
0.0
 11
7.9014545626
 21
8.3130026847
 31
0.0
 11
7.902497541
 21
8.3171433654
 31
0.0
 11
7.9054730656
 21
8.3253922394
 31
0.0
 11
7.9096280767
 21
8.333581241
 31
0.0
 11
7.9149538242
 21
8.3416905637
 31
0.0
 11
7.9214365362
 21
8.3497007669
 31
0.0
 11
7.9290605519
 21
8.3575925485
 31
0.0
 11
7.9378085376
 21
8.3653468009
 31
0.0
 11
7.947658219
 21
8.3729449923
 31
0.0
 11
7.9585863722
 21
8.3803687037
 31
0.0
 11
7.9705671497
 21
8.3875999574
 31
0.0
 11
7.9835704906
 21
8.394621484
 31
0.0
 11
7.9975657877
 21
8.4014161186
 31
0.0
 11
8.0125191558
 21
8.4079674929
 31
0.0
 11
8.0283937132
 21
8.4142599667
 31
0.0
 11
8.045151953
 21
8.4202780916
 31
0.0
 11
8.0627527949
 21
8.4260075645
 31
0.0
 11
8.0811536322
 21
8.4314345726
 31
0.0
 11
8.1003104002
 21
8.4365458974
 31
0.0
 11
8.1201762094
 21
8.4413294734
 31
0.0
 11
8.1407034597
 21
8.4457735827
 31
0.0
 11
8.161842336
 21
8.4498677432
 31
0.0
 11
8.183542047
 21
8.4536020391
 31
0.0
 11
8.2057502116
 21
8.4569676278
 31
0.0
 11
8.2284134414
 21
8.4599563851
 31
0.0
 11
8.2514771199
 21
8.4625612422
 31
0.0
 11
8.298583152
 21
8.4665951792
 31
0.0
 11
8.3466154728
 21
8.4690309987
 31
0.0
 11
8.395112751
 21
8.4698455097
 31
0.0
  0
SPLINE
  5
27C
100
AcDbEntity
  8
0
100
AcDbSpline
 62
9
  6
CONTINUOUS
 70
0
 71
3
 72
33
 73
29
 74
27
 42
0.0000001
 43
0.0000001
 44
0.0000000001
 12
0.183988439
 22
0.4071101349
 32
0.0
 13
0.4467554226
 23
0.0
 33
0.0
 40
0.0
 40
0.0
 40
0.0
 40
0.0
 40
0.0157859166
 40
0.0323767623
 40
0.0498908754
 40
0.0684233767
 40
0.0880451497
 40
0.1088086962
 40
0.130751833
 40
0.1538960204
 40
0.1782506791
 40
0.2038171355
 40
0.2305863914
 40
0.2585406493
 40
0.28765756
 40
0.3179085295
 40
0.3492577685
 40
0.3816665755
 40
0.4150926696
 40
0.4494876768
 40
0.5209760565
 40
0.5579636861
 40
0.5957009422
 40
0.6731769472
 40
0.7528879406
 40
0.8343002
 40
0.9168792629
 40
1.0
 40
1.0
 40
1.0
 40
1.0
 10
7.9802930023
 20
8.5123762596
 30
0.0
 10
7.9812611444
 20
8.5145184618
 30
0.0
 10
7.9834960222
 20
8.5188027511
 30
0.0
 10
7.987580264
 20
8.5250216221
 30
0.0
 10
7.9924619742
 20
8.5311670651
 30
0.0
 10
7.9981310311
 20
8.5372266563
 30
0.0
 10
8.0045748938
 20
8.5431912944
 30
0.0
 10
8.0117809952
 20
8.5490505094
 30
0.0
 10
8.0197362641
 20
8.5547928032
 30
0.0
 10
8.0284248529
 20
8.5604082514
 30
0.0
 10
8.0378298719
 20
8.5658866989
 30
0.0
 10
8.0479337918
 20
8.5712168845
 30
0.0
 10
8.058716953
 20
8.5763887774
 30
0.0
 10
8.0701581341
 20
8.5813930131
 30
0.0
 10
8.0822354678
 20
8.5862192634
 30
0.0
 10
8.09492556
 20
8.5908578654
 30
0.0
 10
8.1082033612
 20
8.5953005356
 30
0.0
 10
8.1220431105
 20
8.5995382286
 30
0.0
 10
8.136418047
 20
8.6035621181
 30
0.0
 10
8.1565192958
 20
8.6086986859
 30
0.0
 10
8.1773010945
 20
8.6132917694
 30
0.0
 10
8.1986898469
 20
8.6173735162
 30
0.0
 10
8.2210305896
 20
8.6212040428
 30
0.0
 10
8.2497706229
 20
8.6253271996
 30
0.0
 10
8.2850986649
 20
8.6291846426
 30
0.0
 10
8.3212902032
 20
8.6319619109
 30
0.0
 10
8.3580571346
 20
8.6336360932
 30
0.0
 10
8.3827345376
 20
8.6340094731
 30
0.0
 10
8.395112751
 20
8.6340094731
 30
0.0
 11
7.9802930023
 21
8.5123762596
 31
0.0
 11
7.9835392576
 21
8.5186371534
 31
0.0
 11
7.9875924819
 21
8.5248427848
 31
0.0
 11
7.9924449141
 21
8.5309809518
 31
0.0
 11
7.998087924
 21
8.5370395394
 31
0.0
 11
8.0045095506
 21
8.5430067673
 31
0.0
 11
8.0116970342
 21
8.5488709353
 31
0.0
 11
8.0196372257
 21
8.554620404
 31
0.0
 11
8.0283140034
 21
8.5602439981
 31
0.0
 11
8.0377098758
 21
8.5657307562
 31
0.0
 11
8.0478072115
 21
8.5710697468
 31
0.0
 11
8.0585861027
 21
8.5762505389
 31
0.0
 11
8.0700247233
 21
8.5812631224
 31
0.0
 11
8.0821011616
 21
8.5860975082
 31
0.0
 11
8.0947920306
 21
8.5907441465
 31
0.0
 11
8.1080717093
 21
8.5951941527
 31
0.0
 11
8.121914389
 21
8.5994386981
 31
0.0
 11
8.1362934581
 21
8.6034692669
 31
0.0
 11
8.1511800498
 21
8.6072782216
 31
0.0
 11
8.1823584431
 21
8.6142015316
 31
0.0
 11
8.1985893413
 21
8.6173022631
 31
0.0
 11
8.2152056812
 21
8.6201542879
 31
0.0
 11
8.2494648549
 21
8.6250895386
 31
0.0
 11
8.2848642304
 21
8.6289689998
 31
0.0
 11
8.3211282135
 21
8.6317618428
 31
0.0
 11
8.3579823811
 21
8.6334463372
 31
0.0
 11
8.395112751
 21
8.6340094731
 31
0.0
  0
SPLINE
  5
27D
100
AcDbEntity
  8
0
100
AcDbSpline
 62
9
  6
CONTINUOUS
 70
0
 71
3
 72
36
 73
32
 74
30
 42
0.0000001
 43
0.0000001
 44
0.0000000001
 12
0.4963382786
 22
0.0
 32
0.0
 13
0.0
 23
0.4963382786
 33
0.0
 40
0.0
 40
0.0
 40
0.0
 40
0.0
 40
0.0740198186
 40
0.1109662425
 40
0.1477800507
 40
0.1843968316
 40
0.2207582439
 40
0.2568221059
 40
0.2925498436
 40
0.3628364596
 40
0.3973369649
 40
0.4313613084
 40
0.4648788453
 40
0.4978612483
 40
0.5302832255
 40
0.5621255553
 40
0.5933771089
 40
0.6240304424
 40
0.68351337
 40
0.7123724535
 40
0.7406572472
 40
0.7683901522
 40
0.7955989477
 40
0.8223177017
 40
0.8485893226
 40
0.8744645978
 40
0.8999988751
 40
0.9252521858
 40
0.9502895414
 40
0.9751812487
 40
1.0
 40
1.0
 40
1.0
 40
1.0
 10
8.395112751
 20
5.842412379
 30
0.0
 10
8.4073590407
 20
5.842412379
 30
0.0
 10
8.4257255
 20
5.8430186535
 30
0.0
 10
8.4500954291
 20
5.8450272238
 30
0.0
 10
8.4682392407
 20
5.8471286669
 30
0.0
 10
8.4862065116
 20
5.8498223543
 30
0.0
 10
8.5039494326
 20
5.8531051841
 30
0.0
 10
8.5214254456
 20
5.8569659351
 30
0.0
 10
8.5441901468
 20
5.8628372837
 30
0.0
 10
8.5663847362
 20
5.8698381398
 30
0.0
 10
8.5878650045
 20
5.877976156
 30
0.0
 10
8.6034154786
 20
5.8845604681
 30
0.0
 10
8.6184668966
 20
5.8916458506
 30
0.0
 10
8.6329826569
 20
5.8992155355
 30
0.0
 10
8.6469258912
 20
5.9072533605
 30
0.0
 10
8.6602613001
 20
5.915741822
 30
0.0
 10
8.6729597203
 20
5.9246581872
 30
0.0
 10
8.6888394284
 20
5.9369613551
 30
0.0
 10
8.703517717
 20
5.9501432653
 30
0.0
 10
8.7167925265
 20
5.9641573349
 30
0.0
 10
8.7258770104
 20
5.974875653
 30
0.0
 10
8.734167036
 20
5.9858796944
 30
0.0
 10
8.7416423965
 20
5.997143661
 30
0.0
 10
8.7482814931
 20
6.0086421841
 30
0.0
 10
8.754066636
 20
6.020348025
 30
0.0
 10
8.7589874374
 20
6.0322312225
 30
0.0
 10
8.7630326119
 20
6.044263105
 30
0.0
 10
8.7661914869
 20
6.056414645
 30
0.0
 10
8.7684519977
 20
6.0686573494
 30
0.0
 10
8.7698078171
 20
6.0809600589
 30
0.0
 10
8.7701093458
 20
6.0891876183
 30
0.0
 10
8.7701093458
 20
6.0932937838
 30
0.0
 11
8.395112751
 21
5.842412379
 31
0.0
 11
8.4318316842
 21
5.8436225269
 31
0.0
 11
8.4501075563
 21
5.8451298336
 31
0.0
 11
8.4682581167
 21
5.847233848
 31
0.0
 11
8.4862311799
 21
5.8499309842
 31
0.0
 11
8.5039772147
 21
5.8532162087
 31
0.0
 11
8.5214551301
 21
5.8570798862
 31
0.0
 11
8.5386255093
 21
5.8615114683
 31
0.0
 11
8.5718859925
 21
5.8720361503
 31
0.0
 11
8.5878978351
 21
5.8781065357
 31
0.0
 11
8.6034470665
 21
5.8846953065
 31
0.0
 11
8.6184965166
 21
5.8917855649
 31
0.0
 11
8.6330090155
 21
5.8993604131
 31
0.0
 11
8.6469474095
 21
5.9074029422
 31
0.0
 11
8.6602769166
 21
5.9158946195
 31
0.0
 11
8.6729676125
 21
5.9248135868
 31
0.0
 11
8.6849901679
 21
5.9341375785
 31
0.0
 11
8.7069135808
 21
5.953911554
 31
0.0
 11
8.7167589103
 21
5.9643155281
 31
0.0
 11
8.7258300605
 21
5.9750301379
 31
0.0
 11
8.7341063275
 21
5.9860290443
 31
0.0
 11
8.7415670069
 21
5.9972859083
 31
0.0
 11
8.7481914902
 21
6.0087743666
 31
0.0
 11
8.7539632436
 21
6.0204670275
 31
0.0
 11
8.7588712454
 21
6.0323351079
 31
0.0
 11
8.7629048654
 21
6.0443497257
 31
0.0
 11
8.7660534733
 21
6.056481999
 31
0.0
 11
8.7683066129
 21
6.0687030317
 31
0.0
 11
8.7696586626
 21
6.0809835346
 31
0.0
 11
8.7701093458
 21
6.0932937838
 31
0.0
  0
ENDSEC
  0
SECTION
  2
OBJECTS
  0
DICTIONARY
  5
C
100
AcDbDictionary
280
0
281
1
  3
ACAD_GROUP
350
D
  3
ACAD_MLINESTYLE
350
17
  3
ACAD_LAYOUT
350
1A
  3
ACAD_PLOTSETTINGS
350
19
  3
ACAD_PLOTSTYLENAME
350
E
  0
DICTIONARY
  5
D
102
{ACAD_REACTORS
330
C
102
}
100
AcDbDictionary
280
0
281
1
  0
ACDBDICTIONARYWDFLT
  5
E
102
{ACAD_REACTORS
330
C
102
}
100
AcDbDictionary
281
1
  3
Normal
350
F
100
AcDbDictionaryWithDefault
340
F
  0
DICTIONARY
  5
17
102
{ACAD_REACTORS
330
C
102
}
100
AcDbDictionary
280
0
281
1
  3
Standard
350
18
  0
DICTIONARY
  5
19
102
{ACAD_REACTORS
330
C
102
}
100
AcDbDictionary
281
1
  0
DICTIONARY
  5
1A
102
{ACAD_REACTORS
330
C
102
}
100
AcDbDictionary
281
1
  3
Model
350
27E
  3
Layout1
350
27F
  0
ACDBPLACEHOLDER
  5
F
102
{ACAD_REACTORS
330
E
102
}
  0
MLINESTYLE
  5
18
102
{ACAD_REACTORS
330
17
102
}
100
AcDbMlineStyle
  2
STANDARD
 70
0
  3

 62
256
 51
90.0
 52
90.0
 71
2
 49
0.5
 62
256
  6
BYLAYER
 49
-0.5
 62
256
  6
BYLAYER
  0
LAYOUT
  5
27E
102
{ACAD_REACTORS
330
1A
102
}
100
AcDbPlotSettings
  1

  2
none_device
  4
ISO_A3_(420.00_x_297.00_MM)
  6

 40
0.0
 41
0.0
 42
0.0
 43
0.0
 44
420.0
 45
297.0
 46
0.0
 47
0.0
 48
0.0
 49
0.0
140
0.0
141
0.0
142
1.0
143
1.0
 70
1024
 72
0
 73
0
 74
0
  7

 75
0
147
1.0
148
0.0
149
0.0
100
AcDbLayout
  1
Model
 70
0
 71
0
 10
0.0
 20
0.0
 11
16.5354330709
 21
11.6929133858
 12
0.0
 22
0.0
 32
0.0
 14
0.0
 24
0.0
 34
0.0
 15
0.0
 25
0.0
 35
0.0
146
0.0
 13
0.0
 23
0.0
 33
0.0
 16
1.0
 26
0.0
 36
0.0
 17
0.0
 27
1.0
 37
0.0
 76
0
330
203
345
0
346
0
  0
LAYOUT
  5
27F
102
{ACAD_REACTORS
330
1A
102
}
100
AcDbPlotSettings
  1

  2
none_device
  4
ISO_A3_(420.00_x_297.00_MM)
  6

 40
0.0
 41
0.0
 42
0.0
 43
0.0
 44
420.0
 45
297.0
 46
0.0
 47
0.0
 48
0.0
 49
0.0
140
0.0
141
0.0
142
1.0
143
1.0
 70
0
 72
0
 73
0
 74
0
  7

 75
0
147
1.0
148
0.0
149
0.0
100
AcDbLayout
  1
Layout1
 70
0
 71
1
 10
0.0
 20
0.0
 11
16.5354330709
 21
11.6929133858
 12
0.0
 22
0.0
 32
0.0
 14
0.0
 24
0.0
 34
0.0
 15
0.0
 25
0.0
 35
0.0
146
0.0
 13
0.0
 23
0.0
 33
0.0
 16
1.0
 26
0.0
 36
0.0
 17
0.0
 27
1.0
 37
0.0
 76
0
330
204
345
0
346
0
  0
ENDSEC
  0
EOF
