  0
SECTION
  2
HEADER
  9
$ACADVER
  1
AC1015
  9
$DWGCODEPAGE
  3
ANSI_1252
  9
$EXTMAX
 10
16.5354330709
 20
11.6929133858
 30
0.0
  9
$EXTMIN
 10
0.0
 20
0.0
 30
0.0
  9
$LIMMIN
 10
0.0
 20
0.0
  9
$LIMMAX
 10
16.5354330709
 20
11.6929133858
  9
$VIEWCTR
 10
8.2677165354
 20
5.8464566929
  9
$VIEWSIZE
 40
11.6929133858
  9
$CLAYER
  8
0
  9
$LTSCALE
 40
0.9094488189
  9
$CELTYPE
  6
BYLAYER
  9
$DIMSCALE
 40
1.0
  9
$DIMASZ
 40
0.1875
  9
$DIMEXO
 40
0.1033464567
  9
$DIMDLI
 40
0.6283464567
  9
$DIMEXE
 40
0.2976377953
  9
$DIMCEN
 40
0.1488188976
  9
$DIMLFAC
 40
1.0
  9
$DIMBLK
  1
_CLOSED
  9
$DIMTXT
 40
0.15625
  9
$DIMTOL
 70
0
  9
$DIMLIM
 70
0
  9
$DIMTFAC
 40
1.0
  9
$PDMODE
 70
3
  9
$PDSIZE
 40
0.3125
  9
$HANDSEED
  5
29D
  9
$TILEMODE
 70
1
  9
$MEASUREMENT
 70
0
  9
$INSUNITS
 70
1
  0
ENDSEC
  0
SECTION
  2
CLASSES
  0
CLASS
  1
ACDBDICTIONARYWDFLT
  2
AcDbDictionaryWithDefault
  3
AutoCAD 2000
 90
0
280
0
281
0
  0
CLASS
  1
ACDBPLACEHOLDER
  2
AcDbPlaceHolder
  3
AutoCAD 2000
 90
0
280
0
281
0
  0
CLASS
  1
LAYOUT
  2
AcDbLayout
  3
AutoCAD 2000
 90
0
280
0
281
0
  0
ENDSEC
  0
SECTION
  2
TABLES
  0
TABLE
  2
VPORT
  5
8
100
AcDbSymbolTable
 70
2
  0
VPORT
  5
1F4
100
AcDbSymbolTableRecord
100
AcDbViewportTableRecord
  2
*ACTIVE
 70
0
 10
0.0
 20
0.0
 11
1.0
 21
1.0
 12
8.2677165354
 22
5.8464566929
 13
0.0
 23
0.0
 14
1.0
 24
1.0
 15
0.0
 25
0.0
 16
0.0
 26
0.0
 36
1.0
 17
0.0
 27
0.0
 37
0.0
 40
11.6929133858
 41
1.4141414141
 42
50.0
 43
0.0
 44
0.0
 50
0.0
 51
0.0
 71
0
 72
100
 73
1
 74
1
 75
0
 76
0
 77
0
 78
0
  0
ENDTAB
  0
TABLE
  2
LTYPE
  5
5
100
AcDbSymbolTable
 70
6
  0
LTYPE
  5
14
100
AcDbSymbolTableRecord
100
AcDbLinetypeTableRecord
  2
BYBLOCK
 70
0
  3

 72
65
 73
0
 40
0.0
  0
LTYPE
  5
15
100
AcDbSymbolTableRecord
100
AcDbLinetypeTableRecord
  2
BYLAYER
 70
0
  3

 72
65
 73
0
 40
0.0
  0
LTYPE
  5
16
100
AcDbSymbolTableRecord
100
AcDbLinetypeTableRecord
  2
CONTINUOUS
 70
64
  3
Solid line
 72
65
 73
0
 40
0.0
  0
LTYPE
  5
1F5
100
AcDbSymbolTableRecord
100
AcDbLinetypeTableRecord
  2
CENTER
 70
64
  3
____ _ ____ _ ____ _ ____ _ ____ _ ____ _ ____
 72
65
 73
4
 40
0.6
 49
0.375
 74
0
 49
-0.075
 74
0
 49
0.075
 74
0
 49
-0.075
 74
0
  0
LTYPE
  5
1F6
100
AcDbSymbolTableRecord
100
AcDbLinetypeTableRecord
  2
HIDDEN
 70
64
  3
- - - - - - - - - - - - - - - - - - - -
 72
65
 73
2
 40
0.2
 49
0.1
 74
0
 49
-0.1
 74
0
  0
LTYPE
  5
1F7
100
AcDbSymbolTableRecord
100
AcDbLinetypeTableRecord
  2
PHANTOM
 70
64
  3
_____ _ _ _____ _ _ _____ _ _ _____
 72
65
 73
6
 40
0.8
 49
0.45
 74
0
 49
-0.05
 74
0
 49
0.1
 74
0
 49
-0.05
 74
0
 49
0.1
 74
0
 49
-0.05
 74
0
  0
LTYPE
  5
1F8
100
AcDbSymbolTableRecord
100
AcDbLinetypeTableRecord
  2
DOT
 70
64
  3
. . . . . . . . . . . . . . . . . . . .
 72
65
 73
2
 40
0.2
 49
0.1
 74
0
 49
-0.1
 74
0
  0
LTYPE
  5
1F9
100
AcDbSymbolTableRecord
100
AcDbLinetypeTableRecord
  2
DASHED
 70
64
  3
- - - - - - - - - - - - - - - - - - - -
 72
65
 73
2
 40
0.2
 49
0.1
 74
0
 49
-0.1
 74
0
  0
ENDTAB
  0
TABLE
  2
LAYER
  5
2
100
AcDbSymbolTable
 70
36
  0
LAYER
  5
10
100
AcDbSymbolTableRecord
100
AcDbLayerTableRecord
  2
0
 70
0
 62
7
  6
CONTINUOUS
370
-3
390
F
  0
LAYER
  5
1FA
100
AcDbSymbolTableRecord
100
AcDbLayerTableRecord
  2
DEFAULT_1
 70
0
 62
7
  6
CENTER
370
-3
390
F
  0
LAYER
  5
1FB
100
AcDbSymbolTableRecord
100
AcDbLayerTableRecord
  2
DEFAULT_2
 70
0
 62
8
  6
HIDDEN
370
-3
390
F
  0
LAYER
  5
1FC
100
AcDbSymbolTableRecord
100
AcDbLayerTableRecord
  2
DEFAULT_3
 70
0
 62
7
  6
PHANTOM
370
-3
390
F
  0
LAYER
  5
1FD
100
AcDbSymbolTableRecord
100
AcDbLayerTableRecord
  2
DEFAULT_COORDINATE_SYSTEM
 70
0
 62
7
  6
CONTINUOUS
370
-3
390
F
  0
LAYER
  5
1FE
100
AcDbSymbolTableRecord
100
AcDbLayerTableRecord
  2
DEFAULT_DATUM_AXES
 70
0
 62
7
  6
CONTINUOUS
370
-3
390
F
  0
LAYER
  5
1FF
100
AcDbSymbolTableRecord
100
AcDbLayerTableRecord
  2
DEFAULT_DATUM_CURVES
 70
0
 62
7
  6
CONTINUOUS
370
-3
390
F
  0
LAYER
  5
200
100
AcDbSymbolTableRecord
100
AcDbLayerTableRecord
  2
DEFAULT_DATUM_PLANES
 70
0
 62
7
  6
CONTINUOUS
370
-3
390
F
  0
ENDTAB
  0
TABLE
  2
STYLE
  5
3
100
AcDbSymbolTable
 70
1
  0
STYLE
  5
11
100
AcDbSymbolTableRecord
100
AcDbTextStyleTableRecord
  2
STANDARD
 70
0
 40
0.0
 41
0.8
 50
0.0
 71
0
 42
0.2
  3
txt
  4

  0
STYLE
  5
201
100
AcDbSymbolTableRecord
100
AcDbTextStyleTableRecord
  2
TEXTSTYLE_1
 70
0
 40
0.0
 41
0.8
 50
0.0
 71
0
 42
0.2
  3
gdt
  4

  0
ENDTAB
  0
TABLE
  2
VIEW
  5
6
100
AcDbSymbolTable
 70
0
  0
ENDTAB
  0
TABLE
  2
UCS
  5
7
100
AcDbSymbolTable
 70
0
  0
ENDTAB
  0
TABLE
  2
APPID
  5
9
100
AcDbSymbolTable
 70
1
  0
APPID
  5
202
100
AcDbSymbolTableRecord
100
AcDbRegAppTableRecord
  2
ACAD
 70
0
  0
ENDTAB
  0
TABLE
  2
BLOCK_RECORD
  5
1
100
AcDbSymbolTable
 70
0
  0
BLOCK_RECORD
  5
203
100
AcDbSymbolTableRecord
100
AcDbBlockTableRecord
  2
*Model_Space
  0
BLOCK_RECORD
  5
204
100
AcDbSymbolTableRecord
100
AcDbBlockTableRecord
  2
*Paper_Space
  0
ENDTAB
  0
TABLE
  2
DIMSTYLE
  5
A
100
AcDbSymbolTable
 70
1
100
AcDbDimStyleTable
 71
0
  0
DIMSTYLE
105
205
100
AcDbSymbolTableRecord
100
AcDbDimStyleTableRecord
  2
STANDARD
 70
0
  3

  4

 40
1.0
 41
0.1875
 42
0.0625
 43
0.38
 44
0.18
 45
0.0
 46
0.0
 47
0.01
 48
0.01
140
0.15625
141
0.09
142
0.0
143
25.4
144
1.0
145
0.0
146
1.0
147
0.09
 71
0.0
 72
0.0
 73
1
 74
1
 75
0
 76
0
 77
0
 78
4
170
0
171
2
172
0
173
0
174
0
175
0
176
0
177
0
178
0
270
2
271
2
272
2
273
2
274
2
275
0
280
0
281
0
282
0
283
1
284
4
285
0
286
0
287
3
288
0
340
11
  0
ENDTAB
  0
ENDSEC
  0
SECTION
  2
BLOCKS
  0
BLOCK
  5
20
100
AcDbEntity
  8
0
100
AcDbBlockBegin
  2
*Model_Space
 70
0
 10
0.0
 20
0.0
 30
0.0
  3
*Model_Space
  1

  0
ENDBLK
  5
21
100
AcDbEntity
  8
0
100
AcDbBlockEnd
  0
BLOCK
  5
1C
100
AcDbEntity
  8
0
100
AcDbBlockBegin
  2
*Paper_Space
 70
0
 10
0.0
 20
0.0
 30
0.0
  3
*Paper_Space
  1

  0
ENDBLK
  5
1D
100
AcDbEntity
  8
0
100
AcDbBlockEnd
  0
ENDSEC
  0
SECTION
  2
ENTITIES
  0
LINE
  5
206
100
AcDbEntity
  8
0
100
AcDbLine
 62
6
  6
CONTINUOUS
 10
2.8476463137
 20
8.2066215594
 11
2.8148413673
 21
8.1164907099
  0
LINE
  5
207
100
AcDbEntity
  8
0
100
AcDbLine
 62
6
  6
CONTINUOUS
 10
2.8786803279
 20
8.2772677905
 11
2.8643154819
 21
8.2378007004
  0
LINE
  5
208
100
AcDbEntity
  8
0
100
AcDbLine
 62
6
  6
CONTINUOUS
 10
2.7558590592
 20
7.9544381502
 11
2.6447368939
 21
7.5120791791
  0
LINE
  5
209
100
AcDbEntity
  8
0
100
AcDbLine
 62
6
  6
CONTINUOUS
 10
3.1497987687
 20
8.6713030567
 11
3.0485608063
 21
8.393154041
  0
LINE
  5
20A
100
AcDbEntity
  8
0
100
AcDbLine
 62
6
  6
CONTINUOUS
 10
3.0041508275
 20
8.4019646638
 11
2.9069907388
 21
8.2776054213
  0
LINE
  5
20B
100
AcDbEntity
  8
0
100
AcDbLine
 62
6
  6
CONTINUOUS
 10
3.8545682343
 20
8.4147879492
 11
3.7533302719
 21
8.1366389335
  0
LINE
  5
20C
100
AcDbEntity
  8
0
100
AcDbLine
 62
6
  6
CONTINUOUS
 10
3.7930136486
 20
8.114842078
 11
3.7875060144
 21
7.9571240702
  0
LINE
  5
20D
100
AcDbEntity
  8
0
100
AcDbLine
 62
6
  6
CONTINUOUS
 10
3.8089760225
 20
7.9386678486
 11
3.7946111764
 21
7.8992007586
  0
LINE
  5
20E
100
AcDbEntity
  8
0
100
AcDbLine
 62
6
  6
CONTINUOUS
 10
3.7873389345
 20
7.8646014161
 11
3.7545339881
 21
7.7744705666
  0
LINE
  5
20F
100
AcDbEntity
  8
0
100
AcDbLine
 62
6
  6
CONTINUOUS
 10
3.69555168
 20
7.6124180068
 11
3.4963333315
 21
7.2021234242
  0
LINE
  5
210
100
AcDbEntity
  8
0
100
AcDbLine
 62
9
  6
CONTINUOUS
 10
5.3271404287
 20
8.7009102683
 11
5.8845757011
 21
9.2026730779
  0
LINE
  5
211
100
AcDbEntity
  8
0
100
AcDbLine
 62
6
  6
CONTINUOUS
 10
11.8877992775
 20
1.6240203238
 11
13.6027992775
 21
1.6240203238
  0
LINE
  5
212
100
AcDbEntity
  8
0
100
AcDbLine
 62
9
  6
CONTINUOUS
 10
11.7212992775
 20
1.6405203238
 11
13.7692992775
 21
1.6405203238
  0
LINE
  5
213
100
AcDbEntity
  8
0
100
AcDbLine
 62
9
  6
CONTINUOUS
 10
11.6403794914
 20
1.9298919408
 11
13.8502190636
 21
1.9298919408
  0
LINE
  5
214
100
AcDbEntity
  8
0
100
AcDbLine
 62
9
  6
CONTINUOUS
 10
11.6328737456
 20
1.9861858523
 11
13.8577248094
 21
1.9861858523
  0
LINE
  5
215
100
AcDbEntity
  8
0
100
AcDbLine
 62
6
  6
CONTINUOUS
 10
13.8402992775
 20
2.1097279933
 11
11.6502992775
 21
2.1097279933
  0
LINE
  5
216
100
AcDbEntity
  8
0
100
AcDbLine
 62
9
  6
CONTINUOUS
 10
11.6978057914
 20
2.143514114
 11
13.7927927636
 21
2.143514114
  0
LINE
  5
217
100
AcDbEntity
  8
0
100
AcDbLine
 62
6
  6
CONTINUOUS
 10
10.0352992775
 20
8.4225203238
 11
9.9255975609
 21
8.3600203238
  0
LINE
  5
218
100
AcDbEntity
  8
0
100
AcDbLine
 62
9
  6
CONTINUOUS
 10
11.6978057914
 20
4.3674045417
 11
13.7927927636
 21
4.3674045417
  0
LINE
  5
219
100
AcDbEntity
  8
0
100
AcDbLine
 62
9
  6
CONTINUOUS
 10
11.6686984601
 20
4.4026643142
 11
13.8219000949
 21
4.4026643142
  0
LINE
  5
21A
100
AcDbEntity
  8
0
100
AcDbLine
 62
9
  6
CONTINUOUS
 10
11.6742992775
 20
4.6205203238
 11
13.8162992775
 21
4.6205203238
  0
LINE
  5
21B
100
AcDbEntity
  8
0
100
AcDbLine
 62
6
  6
CONTINUOUS
 10
11.6727992775
 20
4.6655203238
 11
13.8177992775
 21
4.6655203238
  0
LINE
  5
21C
100
AcDbEntity
  8
0
100
AcDbLine
 62
6
  6
CONTINUOUS
 10
11.4382343296
 20
5.0150203238
 11
10.9983642254
 21
5.0150203238
  0
LINE
  5
21D
100
AcDbEntity
  8
0
100
AcDbLine
 62
6
  6
CONTINUOUS
 10
10.8467992775
 20
5.0725203238
 11
9.3167992775
 21
5.0725203238
  0
LINE
  5
21E
100
AcDbEntity
  8
0
100
AcDbLine
 62
6
  6
CONTINUOUS
 10
11.619544771
 20
5.0825203238
 11
11.6047992775
 21
5.0825203238
  0
LINE
  5
21F
100
AcDbEntity
  8
0
100
AcDbLine
 62
9
  6
CONTINUOUS
 10
8.109022854
 20
5.6103675698
 11
8.6664581264
 21
6.1121303793
  0
LINE
  5
220
100
AcDbEntity
  8
0
100
AcDbLine
 62
6
  6
CONTINUOUS
 10
2.6572938353
 20
7.488412644
 11
3.4715016008
 21
7.1920652528
  0
LINE
  5
221
100
AcDbEntity
  8
0
100
AcDbLine
 62
9
  6
CONTINUOUS
 10
2.6447368939
 20
7.5120791791
 11
3.4963333315
 21
7.2021234242
  0
LINE
  5
222
100
AcDbEntity
  8
0
100
AcDbLine
 62
6
  6
CONTINUOUS
 10
8.109022854
 20
5.6103675698
 11
5.3271404287
 21
8.7009102683
  0
LINE
  5
223
100
AcDbEntity
  8
0
100
AcDbLine
 62
6
  6
CONTINUOUS
 10
11.6118594534
 20
5.8125203238
 11
11.6047992775
 21
5.8125203238
  0
LINE
  5
224
100
AcDbEntity
  8
0
100
AcDbLine
 62
6
  6
CONTINUOUS
 10
10.8467992775
 20
5.8225203238
 11
9.3167992775
 21
5.8225203238
  0
LINE
  5
225
100
AcDbEntity
  8
0
100
AcDbLine
 62
6
  6
CONTINUOUS
 10
11.4382343296
 20
5.8800203238
 11
10.9983642254
 21
5.8800203238
  0
LINE
  5
226
100
AcDbEntity
  8
0
100
AcDbLine
 62
9
  6
CONTINUOUS
 10
2.7558590592
 20
7.9544381502
 11
3.69555168
 21
7.6124180068
  0
LINE
  5
227
100
AcDbEntity
  8
0
100
AcDbLine
 62
6
  6
CONTINUOUS
 10
2.7500766422
 20
7.973961217
 11
3.7125304538
 21
7.6236566777
  0
LINE
  5
228
100
AcDbEntity
  8
0
100
AcDbLine
 62
6
  6
CONTINUOUS
 10
2.7978876954
 20
8.1034159493
 11
3.7591169602
 21
7.7535571087
  0
LINE
  5
229
100
AcDbEntity
  8
0
100
AcDbLine
 62
9
  6
CONTINUOUS
 10
2.8148413673
 20
8.1164907099
 11
3.7545339881
 21
7.7744705666
  0
LINE
  5
22A
100
AcDbEntity
  8
0
100
AcDbLine
 62
9
  6
CONTINUOUS
 10
2.8476463137
 20
8.2066215594
 11
3.7873389345
 21
7.8646014161
  0
LINE
  5
22B
100
AcDbEntity
  8
0
100
AcDbLine
 62
6
  6
CONTINUOUS
 10
11.6708114745
 20
6.3155203238
 11
13.8197870806
 21
6.3155203238
  0
LINE
  5
22C
100
AcDbEntity
  8
0
100
AcDbLine
 62
9
  6
CONTINUOUS
 10
11.7117992775
 20
6.5255203238
 11
13.7787992775
 21
6.5255203238
  0
LINE
  5
22D
100
AcDbEntity
  8
0
100
AcDbLine
 62
9
  6
CONTINUOUS
 10
2.873280569
 20
8.218575009
 11
3.775385485
 21
7.8902356714
  0
LINE
  5
22E
100
AcDbEntity
  8
0
100
AcDbLine
 62
9
  6
CONTINUOUS
 10
2.8702922066
 20
8.2249835728
 11
3.7817940488
 21
7.8932240338
  0
LINE
  5
22F
100
AcDbEntity
  8
0
100
AcDbLine
 62
9
  6
CONTINUOUS
 10
2.8643154819
 20
8.2378007004
 11
3.7946111764
 21
7.8992007586
  0
LINE
  5
230
100
AcDbEntity
  8
0
100
AcDbLine
 62
9
  6
CONTINUOUS
 10
2.8786803279
 20
8.2772677905
 11
3.8089760225
 21
7.9386678486
  0
LINE
  5
231
100
AcDbEntity
  8
0
100
AcDbLine
 62
9
  6
CONTINUOUS
 10
2.8914974555
 20
8.2832445153
 11
3.8029992977
 21
7.9514849763
  0
LINE
  5
232
100
AcDbEntity
  8
0
100
AcDbLine
 62
9
  6
CONTINUOUS
 10
3.0041508275
 20
8.4019646638
 11
3.7930136486
 21
8.114842078
  0
LINE
  5
233
100
AcDbEntity
  8
0
100
AcDbLine
 62
9
  6
CONTINUOUS
 10
3.0154511365
 20
8.4052049753
 11
3.7864399418
 21
8.1245879992
  0
LINE
  5
234
100
AcDbEntity
  8
0
100
AcDbLine
 62
6
  6
CONTINUOUS
 10
8.6664581264
 20
6.1121303793
 11
5.8845757011
 21
9.2026730779
  0
LINE
  5
235
100
AcDbEntity
  8
0
100
AcDbLine
 62
9
  6
CONTINUOUS
 10
9.3167992775
 20
5.0725203238
 11
9.3167992775
 21
5.8225203238
  0
LINE
  5
236
100
AcDbEntity
  8
0
100
AcDbLine
 62
6
  6
CONTINUOUS
 10
11.6961932219
 20
6.6805203238
 11
13.7944053331
 21
6.6805203238
  0
LINE
  5
237
100
AcDbEntity
  8
0
100
AcDbLine
 62
9
  6
CONTINUOUS
 10
3.8545682343
 20
8.4147879492
 11
3.1497987687
 21
8.6713030567
  0
LINE
  5
238
100
AcDbEntity
  8
0
100
AcDbLine
 62
6
  6
CONTINUOUS
 10
9.9255975609
 20
8.3600203238
 11
9.9255975609
 21
7.9850203238
  0
LINE
  5
239
100
AcDbEntity
  8
0
100
AcDbLine
 62
9
  6
CONTINUOUS
 10
10.0352992775
 20
8.4440203238
 11
10.0352992775
 21
7.9010203238
  0
LINE
  5
23A
100
AcDbEntity
  8
0
100
AcDbLine
 62
6
  6
CONTINUOUS
 10
10.1919517885
 20
8.466919943
 11
10.1919517885
 21
7.8781207047
  0
LINE
  5
23B
100
AcDbEntity
  8
0
100
AcDbLine
 62
9
  6
CONTINUOUS
 10
12.0627992775
 20
7.5205203238
 11
13.4277992775
 21
7.5205203238
  0
LINE
  5
23C
100
AcDbEntity
  8
0
100
AcDbLine
 62
6
  6
CONTINUOUS
 10
10.3372992775
 20
8.4850203238
 11
10.3372992775
 21
7.8600203238
  0
LINE
  5
23D
100
AcDbEntity
  8
0
100
AcDbLine
 62
6
  6
CONTINUOUS
 10
12.4377992775
 20
7.6716945603
 11
13.0527992775
 21
7.6716945603
  0
LINE
  5
23E
100
AcDbEntity
  8
0
100
AcDbLine
 62
6
  6
CONTINUOUS
 10
12.4377992775
 20
7.7782567699
 11
13.0527992775
 21
7.7782567699
  0
LINE
  5
23F
100
AcDbEntity
  8
0
100
AcDbLine
 62
9
  6
CONTINUOUS
 10
10.8467992775
 20
5.0155203238
 11
10.8467992775
 21
5.8795203238
  0
LINE
  5
240
100
AcDbEntity
  8
0
100
AcDbLine
 62
9
  6
CONTINUOUS
 10
10.9691566362
 20
4.9944086217
 11
10.9691566362
 21
5.9006320259
  0
LINE
  5
241
100
AcDbEntity
  8
0
100
AcDbLine
 62
9
  6
CONTINUOUS
 10
10.9983642254
 20
5.0150203238
 11
10.9983642254
 21
5.8800203238
  0
LINE
  5
242
100
AcDbEntity
  8
0
100
AcDbLine
 62
6
  6
CONTINUOUS
 10
10.0352992775
 20
7.9225203238
 11
9.9255975609
 21
7.9850203238
  0
LINE
  5
243
100
AcDbEntity
  8
0
100
AcDbLine
 62
9
  6
CONTINUOUS
 10
11.4382343296
 20
5.0150203239
 11
11.4382343296
 21
5.8800203238
  0
LINE
  5
244
100
AcDbEntity
  8
0
100
AcDbLine
 62
9
  6
CONTINUOUS
 10
11.4674419176
 20
4.9944086251
 11
11.4674419176
 21
5.9006320226
  0
LINE
  5
245
100
AcDbEntity
  8
0
100
AcDbLine
 62
9
  6
CONTINUOUS
 10
11.5897992775
 20
5.0155203238
 11
11.5897992775
 21
5.8795203238
  0
LINE
  5
246
100
AcDbEntity
  8
0
100
AcDbLine
 62
9
  6
CONTINUOUS
 10
11.6047992775
 20
5.0825203238
 11
11.6047992775
 21
5.8125203238
  0
LINE
  5
247
100
AcDbEntity
  8
0
100
AcDbLine
 62
7
  6
CONTINUOUS
 10
11.6477992775
 20
5.2348853381
 11
11.6477992775
 21
5.6283766909
  0
LINE
  5
248
100
AcDbEntity
  8
0
100
AcDbLine
 62
6
  6
CONTINUOUS
 10
11.7277992775
 20
6.6805203238
 11
11.7277992775
 21
6.5255203238
  0
LINE
  5
249
100
AcDbEntity
  8
0
100
AcDbLine
 62
6
  6
CONTINUOUS
 10
11.7802992775
 20
4.6655203238
 11
11.7802992775
 21
4.6205203238
  0
LINE
  5
24A
100
AcDbEntity
  8
0
100
AcDbLine
 62
9
  6
CONTINUOUS
 10
12.026694835
 20
8.4178478253
 11
12.026694835
 21
7.9271928224
  0
LINE
  5
24B
100
AcDbEntity
  8
0
100
AcDbLine
 62
6
  6
CONTINUOUS
 10
12.0502993876
 20
8.4460203238
 11
12.0502993876
 21
7.8990203238
  0
LINE
  5
24C
100
AcDbEntity
  8
0
100
AcDbLine
 62
6
  6
CONTINUOUS
 10
12.2062992775
 20
8.446151371
 11
12.2062992775
 21
7.8988892766
  0
LINE
  5
24D
100
AcDbEntity
  8
0
100
AcDbLine
 62
6
  6
CONTINUOUS
 10
12.4377992775
 20
7.7782567699
 11
12.4377992775
 21
7.6716945603
  0
LINE
  5
24E
100
AcDbEntity
  8
0
100
AcDbLine
 62
6
  6
CONTINUOUS
 10
13.0527992775
 20
7.7782567699
 11
13.0527992775
 21
7.6716945603
  0
LINE
  5
24F
100
AcDbEntity
  8
0
100
AcDbLine
 62
6
  6
CONTINUOUS
 10
13.7102992775
 20
4.6655203238
 11
13.7102992775
 21
4.6205203238
  0
LINE
  5
250
100
AcDbEntity
  8
0
100
AcDbLine
 62
6
  6
CONTINUOUS
 10
13.7627992775
 20
6.6805203238
 11
13.7627992775
 21
6.5255203238
  0
ARC
  5
251
100
AcDbEntity
  8
0
100
AcDbCircle
 62
6
  6
CONTINUOUS
 10
5.8552992775
 20
3.2554593278
 40
8.015
100
AcDbArc
 50
352.0254613649
 51
7.9745386351
  0
ARC
  5
252
100
AcDbEntity
  8
0
100
AcDbCircle
 62
6
  6
CONTINUOUS
 10
2.6641342382
 20
7.5072064964
 40
0.02
100
AcDbArc
 50
165.8988703711
 51
250.0
  0
ARC
  5
253
100
AcDbEntity
  8
0
100
AcDbCircle
 62
6
  6
CONTINUOUS
 10
3.4783420037
 20
7.2108591052
 40
0.02
100
AcDbArc
 50
250.0
 51
334.1011296289
  0
ARC
  5
254
100
AcDbEntity
  8
0
100
AcDbCircle
 62
6
  6
CONTINUOUS
 10
3.724730217
 20
7.6925853784
 40
0.07
100
AcDbArc
 50
259.9631030789
 51
60.5779376015
  0
ARC
  5
255
100
AcDbEntity
  8
0
100
AcDbCircle
 62
6
  6
CONTINUOUS
 10
3.7135430078
 20
7.6036823258
 40
0.02
100
AcDbArc
 50
92.9019940926
 51
154.1011296289
  0
ARC
  5
256
100
AcDbEntity
  8
0
100
AcDbCircle
 62
6
  6
CONTINUOUS
 10
10.946186741
 20
2.5207793055
 40
5.9952410183
100
AcDbArc
 50
79.6169809784
 51
95.8291129085
  0
ARC
  5
257
100
AcDbEntity
  8
0
100
AcDbCircle
 62
6
  6
CONTINUOUS
 10
10.9097992775
 20
5.0155203238
 40
0.063
100
AcDbArc
 50
180.0
 51
340.4209928508
  0
ARC
  5
258
100
AcDbEntity
  8
0
100
AcDbCircle
 62
6
  6
CONTINUOUS
 10
10.9983642254
 20
4.9840203238
 40
0.031
100
AcDbArc
 50
90.0
 51
160.4209927991
  0
ARC
  5
259
100
AcDbEntity
  8
0
100
AcDbCircle
 62
6
  6
CONTINUOUS
 10
9.2571469076
 20
5.496015872
 40
4.6356523699
100
AcDbArc
 50
349.679514879
 51
10.1824333986
  0
ARC
  5
25A
100
AcDbEntity
  8
0
100
AcDbCircle
 62
6
  6
CONTINUOUS
 10
9.3167992775
 20
6.6975203238
 40
1.625
100
AcDbArc
 50
221.9912477809
 51
270.0
  0
ARC
  5
25B
100
AcDbEntity
  8
0
100
AcDbCircle
 62
6
  6
CONTINUOUS
 10
9.3167992775
 20
6.6975203238
 40
0.875
100
AcDbArc
 50
221.9912477809
 51
270.0
  0
ARC
  5
25C
100
AcDbEntity
  8
0
100
AcDbCircle
 62
6
  6
CONTINUOUS
 10
10.9097992775
 20
5.8795203238
 40
0.063
100
AcDbArc
 50
19.5790071492
 51
180.0
  0
ARC
  5
25D
100
AcDbEntity
  8
0
100
AcDbCircle
 62
6
  6
CONTINUOUS
 10
10.9983642254
 20
5.9110203238
 40
0.031
100
AcDbArc
 50
199.5790072009
 51
270.0
  0
ARC
  5
25E
100
AcDbEntity
  8
0
100
AcDbCircle
 62
6
  6
CONTINUOUS
 10
2.7850375962
 20
8.0346055217
 40
0.07
100
AcDbArc
 50
79.4220623985
 51
240.0368969211
  0
ARC
  5
25F
100
AcDbEntity
  8
0
100
AcDbCircle
 62
6
  6
CONTINUOUS
 10
2.736461715
 20
7.9593108328
 40
0.02
100
AcDbArc
 50
345.8988703711
 51
47.0980059074
  0
ARC
  5
260
100
AcDbEntity
  8
0
100
AcDbCircle
 62
6
  6
CONTINUOUS
 10
2.7960475149
 20
8.1233311128
 40
0.02
100
AcDbArc
 50
275.2791954834
 51
340.0
  0
ARC
  5
261
100
AcDbEntity
  8
0
100
AcDbCircle
 62
6
  6
CONTINUOUS
 10
2.8664401662
 20
8.1997811566
 40
0.02
100
AcDbArc
 50
70.0
 51
160.0
  0
ARC
  5
262
100
AcDbEntity
  8
0
100
AcDbCircle
 62
6
  6
CONTINUOUS
 10
2.8737124081
 20
8.234380499
 40
0.01
100
AcDbArc
 50
160.0
 51
250.0
  0
ARC
  5
263
100
AcDbEntity
  8
0
100
AcDbCircle
 62
6
  6
CONTINUOUS
 10
2.8880772541
 20
8.2738475891
 40
0.01
100
AcDbArc
 50
70.0
 51
160.0
  0
ARC
  5
264
100
AcDbEntity
  8
0
100
AcDbCircle
 62
6
  6
CONTINUOUS
 10
3.012030935
 20
8.3958080491
 40
0.01
100
AcDbArc
 50
70.0
 51
141.9999999989
  0
ARC
  5
265
100
AcDbEntity
  8
0
100
AcDbCircle
 62
6
  6
CONTINUOUS
 10
3.7733278405
 20
7.7676301637
 40
0.02
100
AcDbArc
 50
160.0
 51
224.7208045166
  0
ARC
  5
266
100
AcDbEntity
  8
0
100
AcDbCircle
 62
6
  6
CONTINUOUS
 10
3.7685450821
 20
7.871441819
 40
0.02
100
AcDbArc
 50
340.0
 51
70.0
  0
ARC
  5
267
100
AcDbEntity
  8
0
100
AcDbCircle
 62
6
  6
CONTINUOUS
 10
3.7852142502
 20
7.90262096
 40
0.01
100
AcDbArc
 50
250.0
 51
340.0
  0
ARC
  5
268
100
AcDbEntity
  8
0
100
AcDbCircle
 62
6
  6
CONTINUOUS
 10
3.7995790963
 20
7.9420880501
 40
0.01
100
AcDbArc
 50
340.0
 51
70.0
  0
ARC
  5
269
100
AcDbEntity
  8
0
100
AcDbCircle
 62
6
  6
CONTINUOUS
 10
4.6767992775
 20
8.1155203238
 40
1.625
100
AcDbArc
 50
41.9912477809
 51
160.0
  0
ARC
  5
26A
100
AcDbEntity
  8
0
100
AcDbCircle
 62
6
  6
CONTINUOUS
 10
4.6767992775
 20
8.1155203238
 40
0.875
100
AcDbArc
 50
41.9912477809
 51
160.0
  0
ARC
  5
26B
100
AcDbEntity
  8
0
100
AcDbCircle
 62
6
  6
CONTINUOUS
 10
3.7830197403
 20
8.115191073
 40
0.01
100
AcDbArc
 50
358.0000000011
 51
70.0
  0
ARC
  5
26C
100
AcDbEntity
  8
0
100
AcDbCircle
 62
6
  6
CONTINUOUS
 10
9.5352992775
 20
8.1725203238
 40
0.433
100
AcDbArc
 50
25.6597136822
 51
334.3402863178
  0
ARC
  5
26D
100
AcDbEntity
  8
0
100
AcDbCircle
 62
6
  6
CONTINUOUS
 10
10.2686042995
 20
8.4440203238
 40
0.08
100
AcDbArc
 50
30.8304974318
 51
163.3667031102
  0
ARC
  5
26E
100
AcDbEntity
  8
0
100
AcDbCircle
 62
6
  6
CONTINUOUS
 10
10.2686042995
 20
7.9010203238
 40
0.08
100
AcDbArc
 50
196.6332968898
 51
329.1695025682
  0
ARC
  5
26F
100
AcDbEntity
  8
0
100
AcDbCircle
 62
6
  6
CONTINUOUS
 10
10.1152992775
 20
8.4440203238
 40
0.08
100
AcDbArc
 50
16.6332968898
 51
180.0
  0
ARC
  5
270
100
AcDbEntity
  8
0
100
AcDbCircle
 62
6
  6
CONTINUOUS
 10
10.1152992775
 20
7.9010203238
 40
0.08
100
AcDbArc
 50
180.0
 51
343.3667031102
  0
ARC
  5
271
100
AcDbEntity
  8
0
100
AcDbCircle
 62
6
  6
CONTINUOUS
 10
10.946186741
 20
13.8242613422
 40
5.9952410183
100
AcDbArc
 50
264.1708870915
 51
280.3830190216
  0
ARC
  5
272
100
AcDbEntity
  8
0
100
AcDbCircle
 62
6
  6
CONTINUOUS
 10
11.7212992775
 20
1.7965203238
 40
0.156
100
AcDbArc
 50
121.2462013687
 51
270.0
  0
ARC
  5
273
100
AcDbEntity
  8
0
100
AcDbCircle
 62
6
  6
CONTINUOUS
 10
11.8877992775
 20
1.6755203238
 40
0.0515
100
AcDbArc
 50
222.937535355
 51
270.0
  0
ARC
  5
274
100
AcDbEntity
  8
0
100
AcDbCircle
 62
6
  6
CONTINUOUS
 10
11.6502992775
 20
2.0467279933
 40
0.063
100
AcDbArc
 50
90.0
 51
253.9428672775
  0
ARC
  5
275
100
AcDbEntity
  8
0
100
AcDbCircle
 62
6
  6
CONTINUOUS
 10
11.6242992775
 20
1.956395275
 40
0.031
100
AcDbArc
 50
301.2462013687
 51
73.9428672775
  0
ARC
  5
276
100
AcDbEntity
  8
0
100
AcDbCircle
 62
6
  6
CONTINUOUS
 10
11.6671055671
 20
2.1392133901
 40
0.031
100
AcDbArc
 50
287.7699851748
 51
7.9745386351
  0
ARC
  5
277
100
AcDbEntity
  8
0
100
AcDbCircle
 62
6
  6
CONTINUOUS
 10
13.7692992775
 20
1.7965203238
 40
0.156
100
AcDbArc
 50
270.0
 51
58.7537986313
  0
ARC
  5
278
100
AcDbEntity
  8
0
100
AcDbCircle
 62
6
  6
CONTINUOUS
 10
13.6027992775
 20
1.6755203238
 40
0.0515
100
AcDbArc
 50
270.0
 51
317.062464645
  0
ARC
  5
279
100
AcDbEntity
  8
0
100
AcDbCircle
 62
6
  6
CONTINUOUS
 10
13.8402992775
 20
2.0467279933
 40
0.063
100
AcDbArc
 50
286.0571327225
 51
90.0
  0
ARC
  5
27A
100
AcDbEntity
  8
0
100
AcDbCircle
 62
6
  6
CONTINUOUS
 10
13.8662992775
 20
1.956395275
 40
0.031
100
AcDbArc
 50
106.0571327225
 51
238.7537986313
  0
ARC
  5
27B
100
AcDbEntity
  8
0
100
AcDbCircle
 62
6
  6
CONTINUOUS
 10
13.8234929879
 20
2.1392133901
 40
0.031
100
AcDbArc
 50
172.0254613649
 51
252.2300148252
  0
ARC
  5
27C
100
AcDbEntity
  8
0
100
AcDbCircle
 62
6
  6
CONTINUOUS
 10
11.6742992775
 20
4.5115203238
 40
0.109
100
AcDbArc
 50
90.0
 51
267.0546368936
  0
ARC
  5
27D
100
AcDbEntity
  8
0
100
AcDbCircle
 62
6
  6
CONTINUOUS
 10
11.5267992775
 20
5.0155203238
 40
0.063
100
AcDbArc
 50
199.5790039888
 51
360.0
  0
ARC
  5
27E
100
AcDbEntity
  8
0
100
AcDbCircle
 62
6
  6
CONTINUOUS
 10
11.6671055671
 20
4.3717052655
 40
0.031
100
AcDbArc
 50
352.0254613649
 51
87.0546368936
  0
ARC
  5
27F
100
AcDbEntity
  8
0
100
AcDbCircle
 62
6
  6
CONTINUOUS
 10
11.4382343296
 20
4.9840203238
 40
0.031
100
AcDbArc
 50
19.5790136236
 51
90.0
  0
ARC
  5
280
100
AcDbEntity
  8
0
100
AcDbCircle
 62
6
  6
CONTINUOUS
 10
11.6047992775
 20
5.0675203238
 40
0.015
100
AcDbArc
 50
90.0
 51
179.9999986624
  0
ARC
  5
281
100
AcDbEntity
  8
0
100
AcDbCircle
 62
6
  6
CONTINUOUS
 10
12.0627992775
 20
7.0205203238
 40
0.5
100
AcDbArc
 50
90.0
 51
222.8436430436
  0
ARC
  5
282
100
AcDbEntity
  8
0
100
AcDbCircle
 62
6
  6
CONTINUOUS
 10
11.7117992775
 20
6.4165203238
 40
0.109
100
AcDbArc
 50
90.0
 51
247.9117101651
  0
ARC
  5
283
100
AcDbEntity
  8
0
100
AcDbCircle
 62
6
  6
CONTINUOUS
 10
11.5267992775
 20
5.8795203238
 40
0.063
100
AcDbArc
 50
0.0
 51
160.4209960112
  0
ARC
  5
284
100
AcDbEntity
  8
0
100
AcDbCircle
 62
6
  6
CONTINUOUS
 10
11.4382343296
 20
5.9110203238
 40
0.031
100
AcDbArc
 50
270.0
 51
340.4209863764
  0
ARC
  5
285
100
AcDbEntity
  8
0
100
AcDbCircle
 62
6
  6
CONTINUOUS
 10
11.6047992775
 20
5.8275203238
 40
0.015
100
AcDbArc
 50
180.0000013376
 51
270.0
  0
ARC
  5
286
100
AcDbEntity
  8
0
100
AcDbCircle
 62
6
  6
CONTINUOUS
 10
13.8162992775
 20
4.5115203238
 40
0.109
100
AcDbArc
 50
272.9453631064
 51
90.0
  0
ARC
  5
287
100
AcDbEntity
  8
0
100
AcDbCircle
 62
6
  6
CONTINUOUS
 10
13.8234929879
 20
4.3717052655
 40
0.031
100
AcDbArc
 50
92.9453631064
 51
187.9745386351
  0
ARC
  5
288
100
AcDbEntity
  8
0
100
AcDbCircle
 62
6
  6
CONTINUOUS
 10
12.7452992775
 20
7.0295203238
 40
0.712
100
AcDbArc
 50
43.6113402526
 51
64.4129425664
  0
ARC
  5
289
100
AcDbEntity
  8
0
100
AcDbCircle
 62
6
  6
CONTINUOUS
 10
12.7452992775
 20
7.0295203238
 40
0.712
100
AcDbArc
 50
115.5870574336
 51
136.3768973744
  0
ARC
  5
28A
100
AcDbEntity
  8
0
100
AcDbCircle
 62
6
  6
CONTINUOUS
 10
13.4277992775
 20
7.0205203238
 40
0.5
100
AcDbArc
 50
317.1563569564
 51
90.0
  0
ARC
  5
28B
100
AcDbEntity
  8
0
100
AcDbCircle
 62
6
  6
CONTINUOUS
 10
13.7787992775
 20
6.4165203238
 40
0.109
100
AcDbArc
 50
292.0882898349
 51
90.0
  0
ARC
  5
28C
100
AcDbEntity
  8
0
100
AcDbCircle
 62
6
  6
CONTINUOUS
 10
19.6352992775
 20
3.2554593278
 40
8.015
100
AcDbArc
 50
172.0254613649
 51
187.9745386351
  0
ARC
  5
28D
100
AcDbEntity
  8
0
100
AcDbCircle
 62
6
  6
CONTINUOUS
 10
16.2334516474
 20
5.496015872
 40
4.6356523699
100
AcDbArc
 50
169.8175666014
 51
175.9611231367
  0
ARC
  5
28E
100
AcDbEntity
  8
0
100
AcDbCircle
 62
6
  6
CONTINUOUS
 10
16.2334516474
 20
5.496015872
 40
4.6356523699
100
AcDbArc
 50
185.2416326225
 51
190.320485121
  0
ARC
  5
28F
100
AcDbEntity
  8
0
100
AcDbCircle
 62
6
  6
CONTINUOUS
 10
12.2862991646
 20
7.8987548692
 40
0.08
100
AcDbArc
 50
90.8530028128
 51
179.9037377502
  0
ARC
  5
290
100
AcDbEntity
  8
0
100
AcDbCircle
 62
6
  6
CONTINUOUS
 10
12.1282993876
 20
7.8990203238
 40
0.078
100
AcDbArc
 50
180.0
 51
359.9037377502
  0
ARC
  5
291
100
AcDbEntity
  8
0
100
AcDbCircle
 62
6
  6
CONTINUOUS
 10
12.0302993876
 20
7.9075203238
 40
0.02
100
AcDbArc
 50
0.0
 51
100.3830190216
  0
ARC
  5
292
100
AcDbEntity
  8
0
100
AcDbCircle
 62
6
  6
CONTINUOUS
 10
12.2862991646
 20
8.4462857784
 40
0.08
100
AcDbArc
 50
180.0962622498
 51
268.9761146886
  0
ARC
  5
293
100
AcDbEntity
  8
0
100
AcDbCircle
 62
6
  6
CONTINUOUS
 10
12.1282993876
 20
8.4460203238
 40
0.078
100
AcDbArc
 50
0.0962622498
 51
180.0
  0
ARC
  5
294
100
AcDbEntity
  8
0
100
AcDbCircle
 62
6
  6
CONTINUOUS
 10
12.0302993876
 20
8.4375203238
 40
0.02
100
AcDbArc
 50
259.6169809784
 51
360.0
  0
ARC
  5
295
100
AcDbEntity
  8
0
100
AcDbCircle
 62
6
  6
CONTINUOUS
 10
12.7452992775
 20
8.1725203238
 40
0.5
100
AcDbArc
 50
307.9519202892
 51
157.1701428153
  0
ARC
  5
296
100
AcDbEntity
  8
0
100
AcDbCircle
 62
6
  6
CONTINUOUS
 10
12.7452992775
 20
8.1725203238
 40
0.5
100
AcDbArc
 50
202.8394743471
 51
232.0480797108
  0
SPLINE
  5
297
100
AcDbEntity
  8
0
100
AcDbSpline
 62
7
  6
CONTINUOUS
 70
0
 71
3
 72
21
 73
17
 74
15
 42
0.0000001
 43
0.0000001
 44
0.0000000001
 12
0.0499229198
 22
-0.1916430945
 32
0.0
 13
0.0264896455
 23
-0.1962591209
 33
0.0
 40
0.0
 40
0.0
 40
0.0
 40
0.0
 40
0.0044057097
 40
0.0175738327
 40
0.0394295864
 40
0.0698427079
 40
0.1086091654
 40
0.1555137779
 40
0.2102821588
 40
0.2726098356
 40
0.4186194771
 40
0.5906273008
 40
0.6854356208
 40
0.7855976144
 40
0.890630865
 40
1.0
 40
1.0
 40
1.0
 40
1.0
 10
11.609311972
 20
5.8225203238
 30
0.0
 10
11.6093852873
 20
5.8222388826
 30
0.0
 10
11.6096770794
 20
5.8211160783
 30
0.0
 10
11.6103268934
 20
5.8185956334
 30
0.0
 10
11.6113989518
 20
5.81441109
 30
0.0
 10
11.6128743074
 20
5.8085854859
 30
0.0
 10
11.6147250455
 20
5.8011492524
 30
0.0
 10
11.6169229088
 20
5.7921426893
 30
0.0
 10
11.6194287158
 20
5.7816104351
 30
0.0
 10
11.6233348724
 20
5.7646868868
 30
0.0
 10
11.6286896648
 20
5.7401555909
 30
0.0
 10
11.633998919
 20
5.7134237632
 30
0.0
 10
11.6383316574
 20
5.6895886029
 30
0.0
 10
11.6416373944
 20
5.6700617911
 30
0.0
 10
11.644840588
 20
5.6495444557
 30
0.0
 10
11.646833561
 20
5.6355315876
 30
0.0
 10
11.6477992775
 20
5.6283766909
 30
0.0
 11
11.609311972
 21
5.8225203238
 31
0.0
 11
11.6095314539
 21
5.8216758796
 31
0.0
 11
11.6101832363
 21
5.8191508464
 31
0.0
 11
11.6112571415
 21
5.8149579014
 31
0.0
 11
11.6127354089
 21
5.8091191541
 31
0.0
 11
11.6145901556
 21
5.8016693055
 31
0.0
 11
11.6167918213
 21
5.7926450661
 31
0.0
 11
11.6193021259
 21
5.7820933006
 31
0.0
 11
11.6220781892
 21
5.7700662311
 31
0.0
 11
11.6282419911
 21
5.7418152577
 31
0.0
 11
11.6348748619
 21
5.7084030496
 31
0.0
 11
11.6382321417
 21
5.6899299244
 31
0.0
 11
11.6415428422
 21
5.6703722051
 31
0.0
 11
11.6447507714
 21
5.6498204083
 31
0.0
 11
11.6477992775
 21
5.6283766909
 31
0.0
  0
SPLINE
  5
298
100
AcDbEntity
  8
0
100
AcDbSpline
 62
7
  6
CONTINUOUS
 70
0
 71
3
 72
12
 73
8
 74
6
 42
0.0000001
 43
0.0000001
 44
0.0000000001
 12
-0.022135317
 22
-0.1638047199
 32
0.0
 13
-0.0386871063
 23
-0.1607024505
 33
0.0
 40
0.0
 40
0.0
 40
0.0
 40
0.0
 40
0.2179218942
 40
0.414418954
 40
0.7315977939
 40
0.9315633438
 40
1.0
 40
1.0
 40
1.0
 40
1.0
 10
11.6477992775
 20
5.2348853381
 30
0.0
 10
11.6461913541
 20
5.2229864599
 30
0.0
 10
11.6428661492
 20
5.2003936883
 30
0.0
 10
11.6361265634
 20
5.1606493482
 30
0.0
 10
11.628523567
 20
5.1220634313
 30
0.0
 10
11.6214810085
 20
5.0905752784
 30
0.0
 10
11.6180668179
 20
5.0761863033
 30
0.0
 10
11.6171842792
 20
5.0725203238
 30
0.0
 11
11.6477992775
 21
5.2348853381
 31
0.0
 11
11.642558061
 21
5.1992476033
 31
0.0
 11
11.6371299376
 21
5.1672247021
 31
0.0
 11
11.6270077403
 21
5.1157835107
 31
0.0
 11
11.6197957979
 21
5.0835268872
 31
0.0
 11
11.6171842792
 21
5.0725203238
 31
0.0
  0
SPLINE
  5
299
100
AcDbEntity
  8
0
100
AcDbSpline
 62
7
  6
CONTINUOUS
 70
0
 71
3
 72
15
 73
11
 74
9
 42
0.0000001
 43
0.0000001
 44
0.0000000001
 12
-0.2421795767
 22
0.0926319106
 32
0.0
 13
-0.2409887727
 23
0.0956871447
 33
0.0
 40
0.0
 40
0.0
 40
0.0
 40
0.0
 40
0.1497999311
 40
0.2955811689
 40
0.4357178998
 40
0.5686293987
 40
0.6928491656
 40
0.8069673662
 40
0.9097399345
 40
1.0
 40
1.0
 40
1.0
 40
1.0
 10
3.2729818303
 20
8.0730838157
 30
0.0
 10
3.2608890023
 20
8.0777092336
 30
0.0
 10
3.2370306824
 20
8.086843619
 30
0.0
 10
3.2018653198
 20
8.1003199542
 30
0.0
 10
3.168067951
 20
8.1132869445
 30
0.0
 10
3.1360161457
 20
8.1256011488
 30
0.0
 10
3.1060764763
 20
8.1371425199
 30
0.0
 10
3.0785883923
 20
8.1478013196
 30
0.0
 10
3.0538608215
 20
8.1574603939
 30
0.0
 10
3.0383399442
 20
8.1635804324
 30
0.0
 10
3.0310893901
 20
8.1664593417
 30
0.0
 11
3.2729818303
 21
8.0730838157
 31
0.0
 11
3.2367070604
 21
8.0869697755
 31
0.0
 11
3.2014106547
 21
8.1004968402
 31
0.0
 11
3.1674859377
 21
8.1135133102
 31
0.0
 11
3.1353172876
 21
8.125876799
 31
0.0
 11
3.1052658163
 21
8.1374668788
 31
0.0
 11
3.0776787872
 21
8.1481678484
 31
0.0
 11
3.0528590031
 21
8.1578679603
 31
0.0
 11
3.0310893901
 21
8.1664593417
 31
0.0
  0
SPLINE
  5
29A
100
AcDbEntity
  8
0
100
AcDbSpline
 62
7
  6
CONTINUOUS
 70
0
 71
3
 72
13
 73
9
 74
7
 42
0.0000001
 43
0.0000001
 44
0.0000000001
 12
0.2820018296
 22
-0.1078025861
 32
0.0
 13
0.2815180524
 23
-0.1090596884
 33
0.0
 40
0.0
 40
0.0
 40
0.0
 40
0.0
 40
0.2619237833
 40
0.5236401745
 40
0.650732147
 40
0.7734022471
 40
0.8902591884
 40
1.0
 40
1.0
 40
1.0
 40
1.0
 10
3.2529914462
 20
8.0856929004
 30
0.0
 10
3.2776124416
 20
8.07628088
 30
0.0
 10
3.3268408341
 20
8.0574797214
 30
0.0
 10
3.3880128936
 20
8.0341036179
 30
0.0
 10
3.4360923795
 20
8.0157245694
 30
0.0
 10
3.4705498764
 20
8.0025375564
 30
0.0
 10
3.5033674979
 20
7.9899509283
 30
0.0
 10
3.5246448636
 20
7.9817484275
 30
0.0
 10
3.5349428702
 20
7.9777589946
 30
0.0
 11
3.2529914462
 21
8.0856929004
 31
0.0
 11
3.326859428
 21
8.057469911
 31
0.0
 11
3.400667558
 21
8.0292657018
 31
0.0
 11
3.436507148
 21
8.0155633445
 31
0.0
 11
3.4710946042
 21
8.0023241942
 31
0.0
 11
3.5040324072
 21
7.9896847607
 31
0.0
 11
3.5349428702
 21
7.9777589946
 31
0.0
  0
ENDSEC
  0
SECTION
  2
OBJECTS
  0
DICTIONARY
  5
C
100
AcDbDictionary
280
0
281
1
  3
ACAD_GROUP
350
D
  3
ACAD_MLINESTYLE
350
17
  3
ACAD_LAYOUT
350
1A
  3
ACAD_PLOTSETTINGS
350
19
  3
ACAD_PLOTSTYLENAME
350
E
  0
DICTIONARY
  5
D
102
{ACAD_REACTORS
330
C
102
}
100
AcDbDictionary
280
0
281
1
  0
ACDBDICTIONARYWDFLT
  5
E
102
{ACAD_REACTORS
330
C
102
}
100
AcDbDictionary
281
1
  3
Normal
350
F
100
AcDbDictionaryWithDefault
340
F
  0
DICTIONARY
  5
17
102
{ACAD_REACTORS
330
C
102
}
100
AcDbDictionary
280
0
281
1
  3
Standard
350
18
  0
DICTIONARY
  5
19
102
{ACAD_REACTORS
330
C
102
}
100
AcDbDictionary
281
1
  0
DICTIONARY
  5
1A
102
{ACAD_REACTORS
330
C
102
}
100
AcDbDictionary
281
1
  3
Model
350
29B
  3
Layout1
350
29C
  0
ACDBPLACEHOLDER
  5
F
102
{ACAD_REACTORS
330
E
102
}
  0
MLINESTYLE
  5
18
102
{ACAD_REACTORS
330
17
102
}
100
AcDbMlineStyle
  2
STANDARD
 70
0
  3

 62
256
 51
90.0
 52
90.0
 71
2
 49
0.5
 62
256
  6
BYLAYER
 49
-0.5
 62
256
  6
BYLAYER
  0
LAYOUT
  5
29B
102
{ACAD_REACTORS
330
1A
102
}
100
AcDbPlotSettings
  1

  2
none_device
  4
ISO_A3_(420.00_x_297.00_MM)
  6

 40
0.0
 41
0.0
 42
0.0
 43
0.0
 44
420.0
 45
297.0
 46
0.0
 47
0.0
 48
0.0
 49
0.0
140
0.0
141
0.0
142
1.0
143
1.0
 70
1024
 72
0
 73
0
 74
0
  7

 75
0
147
1.0
148
0.0
149
0.0
100
AcDbLayout
  1
Model
 70
0
 71
0
 10
0.0
 20
0.0
 11
16.5354330709
 21
11.6929133858
 12
0.0
 22
0.0
 32
0.0
 14
0.0
 24
0.0
 34
0.0
 15
0.0
 25
0.0
 35
0.0
146
0.0
 13
0.0
 23
0.0
 33
0.0
 16
1.0
 26
0.0
 36
0.0
 17
0.0
 27
1.0
 37
0.0
 76
0
330
203
345
0
346
0
  0
LAYOUT
  5
29C
102
{ACAD_REACTORS
330
1A
102
}
100
AcDbPlotSettings
  1

  2
none_device
  4
ISO_A3_(420.00_x_297.00_MM)
  6

 40
0.0
 41
0.0
 42
0.0
 43
0.0
 44
420.0
 45
297.0
 46
0.0
 47
0.0
 48
0.0
 49
0.0
140
0.0
141
0.0
142
1.0
143
1.0
 70
0
 72
0
 73
0
 74
0
  7

 75
0
147
1.0
148
0.0
149
0.0
100
AcDbLayout
  1
Layout1
 70
0
 71
1
 10
0.0
 20
0.0
 11
16.5354330709
 21
11.6929133858
 12
0.0
 22
0.0
 32
0.0
 14
0.0
 24
0.0
 34
0.0
 15
0.0
 25
0.0
 35
0.0
146
0.0
 13
0.0
 23
0.0
 33
0.0
 16
1.0
 26
0.0
 36
0.0
 17
0.0
 27
1.0
 37
0.0
 76
0
330
204
345
0
346
0
  0
ENDSEC
  0
EOF
