999
DXF file: 943_front.dxf
999
Pro/ENGINEER 2018400 by Parametric Technology Corporation
  0
SECTION
  2
HEADER
  9
$ACADVER
  1
AC1027
  9
$DWGCODEPAGE
  3
ANSI_1252
  9
$EXTMAX
 10
11.0
 20
8.5
 30
0.0
  9
$EXTMIN
 10
0.0
 20
0.0
 30
0.0
  9
$LIMMIN
 10
0.0
 20
0.0
  9
$LIMMAX
 10
11.0
 20
8.5
  9
$VIEWCTR
 10
5.5
 20
4.25
  9
$VIEWSIZE
 40
8.5
  9
$CLAYER
  8
0
  9
$LTSCALE
 40
0.605
  9
$CELTYPE
  6
BYLAYER
  9
$DIMSCALE
 40
1.0
  9
$DIMASZ
 40
0.1
  9
$DIMEXO
 40
0.0625
  9
$DIMDLI
 40
0.418
  9
$DIMEXE
 40
0.125
  9
$DIMCEN
 40
0.099
  9
$DIMLFAC
 40
1.0
  9
$DIMBLK
  1
_FILLED
  9
$DIMALT
 70
1
  9
$DIMALTD
 70
1
  9
$DIMALTTD
 70
2
  9
$DIMALTF
 40
25.4
  9
$DIMTXT
 40
0.08
  9
$DIMTOL
 70
1
  9
$DIMLIM
 70
0
  9
$DIMTFAC
 40
1.0
  9
$DIMTP
 40
0.01
  9
$DIMTM
 40
0.01
  9
$DIMGAP
 40
0.09
  9
$DIMDSEP
 70
46
  9
$AUNITS
 70
0
  9
$PDMODE
 70
3
  9
$PDSIZE
 40
0.3125
  9
$HANDSEED
  5
5BD
  9
$TILEMODE
 70
1
  9
$MEASUREMENT
 70
0
  9
$INSUNITS
 70
1
  0
ENDSEC
  0
SECTION
  2
CLASSES
  0
CLASS
  1
ACDBDICTIONARYWDFLT
  2
AcDbDictionaryWithDefault
  3
AutoCAD 2000
 90
0
 91
1
280
0
281
0
  0
CLASS
  1
ACDBPLACEHOLDER
  2
AcDbPlaceHolder
  3
AutoCAD 2000
 90
0
 91
1
280
0
281
0
  0
CLASS
  1
LAYOUT
  2
AcDbLayout
  3
AutoCAD 2000
 90
0
 91
0
280
0
281
0
  0
ENDSEC
  0
SECTION
  2
TABLES
  0
TABLE
  2
VPORT
  5
8
100
AcDbSymbolTable
 70
2
  0
VPORT
  5
1F4
100
AcDbSymbolTableRecord
100
AcDbViewportTableRecord
  2
*ACTIVE
 70
0
 10
0.0
 20
0.0
 11
1.0
 21
1.0
 12
5.5
 22
4.25
 13
0.0
 23
0.0
 14
1.0
 24
1.0
 15
0.0
 25
0.0
 16
0.0
 26
0.0
 36
1.0
 17
0.0
 27
0.0
 37
0.0
 40
8.5
 41
1.2941176471
 42
50.0
 43
0.0
 44
0.0
 50
0.0
 51
0.0
 71
0
 72
100
 73
1
 74
1
 75
0
 76
0
 77
0
 78
0
  0
ENDTAB
  0
TABLE
  2
LTYPE
  5
5
100
AcDbSymbolTable
 70
6
  0
LTYPE
  5
14
100
AcDbSymbolTableRecord
100
AcDbLinetypeTableRecord
  2
BYBLOCK
 70
0
  3

 72
65
 73
0
 40
0.0
  0
LTYPE
  5
15
100
AcDbSymbolTableRecord
100
AcDbLinetypeTableRecord
  2
BYLAYER
 70
0
  3

 72
65
 73
0
 40
0.0
  0
LTYPE
  5
16
100
AcDbSymbolTableRecord
100
AcDbLinetypeTableRecord
  2
CONTINUOUS
 70
64
  3
Solid line
 72
65
 73
0
 40
0.0
  0
LTYPE
  5
1F5
100
AcDbSymbolTableRecord
100
AcDbLinetypeTableRecord
  2
CENTER
 70
64
  3
____ _ ____ _ ____ _ ____ _ ____ _ ____ _ ____
 72
65
 73
4
 40
0.6
 49
0.375
 74
0
 49
-0.075
 74
0
 49
0.075
 74
0
 49
-0.075
 74
0
  0
LTYPE
  5
1F6
100
AcDbSymbolTableRecord
100
AcDbLinetypeTableRecord
  2
HIDDEN
 70
64
  3
- - - - - - - - - - - - - - - - - - - -
 72
65
 73
2
 40
0.2
 49
0.1
 74
0
 49
-0.1
 74
0
  0
LTYPE
  5
1F7
100
AcDbSymbolTableRecord
100
AcDbLinetypeTableRecord
  2
PHANTOM
 70
64
  3
_____ _ _ _____ _ _ _____ _ _ _____
 72
65
 73
6
 40
0.8
 49
0.45
 74
0
 49
-0.05
 74
0
 49
0.1
 74
0
 49
-0.05
 74
0
 49
0.1
 74
0
 49
-0.05
 74
0
  0
LTYPE
  5
1F8
100
AcDbSymbolTableRecord
100
AcDbLinetypeTableRecord
  2
DOT
 70
64
  3
. . . . . . . . . . . . . . . . . . . .
 72
65
 73
2
 40
0.2
 49
0.1
 74
0
 49
-0.1
 74
0
  0
LTYPE
  5
1F9
100
AcDbSymbolTableRecord
100
AcDbLinetypeTableRecord
  2
DASHED
 70
64
  3
- - - - - - - - - - - - - - - - - - - -
 72
65
 73
2
 40
0.2
 49
0.1
 74
0
 49
-0.1
 74
0
  0
ENDTAB
  0
TABLE
  2
LAYER
  5
2
100
AcDbSymbolTable
 70
36
  0
LAYER
  5
10
100
AcDbSymbolTableRecord
100
AcDbLayerTableRecord
  2
0
 70
0
 62
7
  6
CONTINUOUS
370
-3
390
F
  0
LAYER
  5
1FA
100
AcDbSymbolTableRecord
100
AcDbLayerTableRecord
  2
DEFAULT_1
 70
0
 62
7
  6
CENTER
370
-3
390
F
  0
LAYER
  5
1FB
100
AcDbSymbolTableRecord
100
AcDbLayerTableRecord
  2
DEFAULT_2
 70
0
 62
8
  6
HIDDEN
370
-3
390
F
  0
LAYER
  5
1FC
100
AcDbSymbolTableRecord
100
AcDbLayerTableRecord
  2
DEFAULT_3
 70
0
 62
7
  6
PHANTOM
370
-3
390
F
  0
LAYER
  5
1FD
100
AcDbSymbolTableRecord
100
AcDbLayerTableRecord
  2
DEFAULT_COORDINATE_SYSTEM
 70
0
 62
7
  6
CONTINUOUS
370
-3
390
F
  0
LAYER
  5
1FE
100
AcDbSymbolTableRecord
100
AcDbLayerTableRecord
  2
DEFAULT_DATUM_AXES
 70
0
 62
7
  6
CONTINUOUS
370
-3
390
F
  0
LAYER
  5
1FF
100
AcDbSymbolTableRecord
100
AcDbLayerTableRecord
  2
DEFAULT_DATUM_PLANES
 70
0
 62
7
  6
CONTINUOUS
370
-3
390
F
  0
ENDTAB
  0
TABLE
  2
STYLE
  5
3
100
AcDbSymbolTable
 70
1
  0
STYLE
  5
11
100
AcDbSymbolTableRecord
100
AcDbTextStyleTableRecord
  2
STANDARD
 70
0
 40
0.0
 41
0.8
 50
0.0
 71
0
 42
0.2
  3
txt
  4

  0
STYLE
  5
200
100
AcDbSymbolTableRecord
100
AcDbTextStyleTableRecord
  2
TEXTSTYLE_1
 70
0
 40
0.0
 41
0.8
 50
0.0
 71
0
 42
0.2
  3
gdt
  4

  0
ENDTAB
  0
TABLE
  2
VIEW
  5
6
100
AcDbSymbolTable
 70
0
  0
ENDTAB
  0
TABLE
  2
UCS
  5
7
100
AcDbSymbolTable
 70
0
  0
ENDTAB
  0
TABLE
  2
APPID
  5
9
100
AcDbSymbolTable
 70
1
  0
APPID
  5
201
100
AcDbSymbolTableRecord
100
AcDbRegAppTableRecord
  2
ACAD
 70
0
  0
ENDTAB
  0
TABLE
  2
BLOCK_RECORD
  5
1
100
AcDbSymbolTable
 70
0
  0
BLOCK_RECORD
  5
202
100
AcDbSymbolTableRecord
100
AcDbBlockTableRecord
  2
*Model_Space
  0
BLOCK_RECORD
  5
203
100
AcDbSymbolTableRecord
100
AcDbBlockTableRecord
  2
*Paper_Space
  0
BLOCK_RECORD
  5
204
100
AcDbSymbolTableRecord
100
AcDbBlockTableRecord
  2
_FILLED
  0
ENDTAB
  0
TABLE
  2
DIMSTYLE
  5
A
100
AcDbSymbolTable
 70
1
100
AcDbDimStyleTable
 71
0
  0
DIMSTYLE
105
205
100
AcDbSymbolTableRecord
100
AcDbDimStyleTableRecord
  2
STANDARD
 70
0
  3

  4

 40
1.0
 41
0.1
 42
0.0625
 43
0.38
 44
0.125
 45
0.0
 46
0.0
 47
0.01
 48
0.01
140
0.08
141
0.09
142
0.0
143
25.4
144
1.0
145
0.0
146
1.0
147
0.09
 71
1.0
 72
0.0
 73
1
 74
1
 75
0
 76
0
 77
0
 78
4
 79
1
170
1
171
1
172
0
173
0
174
0
175
0
176
0
177
0
178
0
270
2
179
2
271
2
272
2
273
2
274
2
275
0
280
0
281
0
282
0
283
1
284
4
285
0
286
0
287
3
288
0
340
11
278
46
341
204
342
204
343
204
344
204
  0
ENDTAB
  0
ENDSEC
  0
SECTION
  2
BLOCKS
  0
BLOCK
  5
20
100
AcDbEntity
  8
0
100
AcDbBlockBegin
  2
*Model_Space
 70
0
 10
0.0
 20
0.0
 30
0.0
  3
*Model_Space
  1

  0
ENDBLK
  5
21
100
AcDbEntity
  8
0
100
AcDbBlockEnd
  0
BLOCK
  5
1C
100
AcDbEntity
  8
0
100
AcDbBlockBegin
  2
*Paper_Space
 70
0
 10
0.0
 20
0.0
 30
0.0
  3
*Paper_Space
  1

  0
ENDBLK
  5
1D
100
AcDbEntity
  8
0
100
AcDbBlockEnd
  0
BLOCK
  5
206
100
AcDbEntity
  8
0
100
AcDbBlockBegin
  2
_FILLED
 70
64
 10
0.0
 20
0.0
  3
_FILLED
  1

  0
SOLID
  5
207
100
AcDbEntity
  8
0
  6
BYBLOCK
 62
0
100
AcDbTrace
 10
0.0
 20
0.0
 11
-1.0
 21
0.2
 12
-1.0
 22
-0.2
 13
-1.0
 23
-0.2
  0
ENDBLK
  5
208
100
AcDbEntity
  8
0
  6
BYBLOCK
 62
0
100
AcDbBlockEnd
  0
ENDSEC
  0
SECTION
  2
ENTITIES
  0
MTEXT
  5
209
100
AcDbEntity
  8
0
100
AcDbMText
 62
2
  6
CONTINUOUS
  7
STANDARD
 71
3
 72
1
 10
5.177173913
 20
2.5636397516
 30
0.0
 11
1.0
 21
0.0
 31
0.0
 73
2
 44
0.9
  1
SCALE  .375
 40
0.08
 41
0.704
  0
LINE
  5
20A
100
AcDbEntity
  8
0
100
AcDbLine
 62
7
  6
CONTINUOUS
 10
0.0
 20
0.0
 11
0.0
 21
8.5
  0
LINE
  5
20B
100
AcDbEntity
  8
0
100
AcDbLine
 62
7
  6
CONTINUOUS
 10
0.0
 20
0.0
 11
11.0
 21
0.0
  0
LINE
  5
20C
100
AcDbEntity
  8
0
100
AcDbLine
 62
7
  6
CONTINUOUS
 10
0.0
 20
8.5
 11
11.0
 21
8.5
  0
LINE
  5
20D
100
AcDbEntity
  8
0
100
AcDbLine
 62
7
  6
CONTINUOUS
 10
11.0
 20
0.0
 11
11.0
 21
8.5
  0
LINE
  5
20E
100
AcDbEntity
  8
0
100
AcDbLine
 62
7
  6
CONTINUOUS
 10
2.595855233
 20
3.480024072
 11
2.595855233
 21
3.6489741811
  0
LINE
  5
20F
100
AcDbEntity
  8
0
100
AcDbLine
 62
7
  6
CONTINUOUS
 10
2.6266387044
 20
3.5015788907
 11
2.6266387044
 21
3.6274193624
  0
LINE
  5
210
100
AcDbEntity
  8
0
100
AcDbLine
 62
7
  6
CONTINUOUS
 10
2.636080163
 20
3.4935900429
 11
2.636080163
 21
3.6354082102
  0
LINE
  5
211
100
AcDbEntity
  8
0
100
AcDbLine
 62
7
  6
CONTINUOUS
 10
2.6454038475
 20
3.4929051416
 11
2.6454038475
 21
3.6360931115
  0
LINE
  5
212
100
AcDbEntity
  8
0
100
AcDbLine
 62
7
  6
CONTINUOUS
 10
2.6958698243
 20
2.8296397516
 11
2.6958698243
 21
2.9233682329
  0
LINE
  5
213
100
AcDbEntity
  8
0
100
AcDbLine
 62
7
  6
CONTINUOUS
 10
2.702267663
 20
2.8063897516
 11
2.702267663
 21
2.8296397516
  0
LINE
  5
214
100
AcDbEntity
  8
0
100
AcDbLine
 62
7
  6
CONTINUOUS
 10
2.7809554094
 20
3.6226630669
 11
2.7809554094
 21
3.506335186
  0
LINE
  5
215
100
AcDbEntity
  8
0
100
AcDbLine
 62
7
  6
CONTINUOUS
 10
2.782330163
 20
3.709730663
 11
2.782330163
 21
3.6829991266
  0
LINE
  5
216
100
AcDbEntity
  8
0
100
AcDbLine
 62
7
  6
CONTINUOUS
 10
2.789265422
 20
3.6009992031
 11
2.789265422
 21
3.5279990496
  0
LINE
  5
217
100
AcDbEntity
  8
0
100
AcDbLine
 62
7
  6
CONTINUOUS
 10
2.8380062436
 20
2.8296397516
 11
2.8380062436
 21
2.9233689548
  0
LINE
  5
218
100
AcDbEntity
  8
0
100
AcDbLine
 62
7
  6
CONTINUOUS
 10
2.851330163
 20
3.4388741266
 11
2.851330163
 21
3.3042491266
  0
LINE
  5
219
100
AcDbEntity
  8
0
100
AcDbLine
 62
7
  6
CONTINUOUS
 10
2.880767663
 20
3.742932595
 11
2.880767663
 21
3.7433631126
  0
LINE
  5
21A
100
AcDbEntity
  8
0
100
AcDbLine
 62
7
  6
CONTINUOUS
 10
2.886955163
 20
3.7442999434
 11
2.886955163
 21
3.7448565454
  0
LINE
  5
21B
100
AcDbEntity
  8
0
100
AcDbLine
 62
7
  6
CONTINUOUS
 10
2.901955163
 20
3.7465370324
 11
2.901955163
 21
3.7470814929
  0
LINE
  5
21C
100
AcDbEntity
  8
0
100
AcDbLine
 62
7
  6
CONTINUOUS
 10
2.908142663
 20
3.7474458994
 11
2.908142663
 21
3.7470184326
  0
LINE
  5
21D
100
AcDbEntity
  8
0
100
AcDbLine
 62
7
  6
CONTINUOUS
 10
2.914517663
 20
3.7477793327
 11
2.914517663
 21
3.7482062362
  0
LINE
  5
21E
100
AcDbEntity
  8
0
100
AcDbLine
 62
7
  6
CONTINUOUS
 10
2.920705163
 20
3.7487739783
 11
2.920705163
 21
3.7493163333
  0
LINE
  5
21F
100
AcDbEntity
  8
0
100
AcDbLine
 62
7
  6
CONTINUOUS
 10
2.935705163
 20
3.7501204963
 11
2.935705163
 21
3.7506737188
  0
LINE
  5
220
100
AcDbEntity
  8
0
100
AcDbLine
 62
7
  6
CONTINUOUS
 10
2.941892663
 20
3.7506636836
 11
2.941892663
 21
3.750238591
  0
LINE
  5
221
100
AcDbEntity
  8
0
100
AcDbLine
 62
7
  6
CONTINUOUS
 10
2.963755163
 20
3.751768021
 11
2.963755163
 21
3.7521431701
  0
LINE
  5
222
100
AcDbEntity
  8
0
100
AcDbLine
 62
7
  6
CONTINUOUS
 10
2.995630163
 20
3.7517927129
 11
2.995630163
 21
3.7521678461
  0
LINE
  5
223
100
AcDbEntity
  8
0
100
AcDbLine
 62
7
  6
CONTINUOUS
 10
3.031892663
 20
3.7491890822
 11
3.031892663
 21
3.7496149457
  0
LINE
  5
224
100
AcDbEntity
  8
0
100
AcDbLine
 62
7
  6
CONTINUOUS
 10
3.038830163
 20
3.7489220051
 11
3.038830163
 21
3.7494037326
  0
LINE
  5
225
100
AcDbEntity
  8
0
100
AcDbLine
 62
7
  6
CONTINUOUS
 10
3.052330163
 20
3.7473917283
 11
3.052330163
 21
3.7478760655
  0
LINE
  5
226
100
AcDbEntity
  8
0
100
AcDbLine
 62
7
  6
CONTINUOUS
 10
3.059267663
 20
3.7465113807
 11
3.059267663
 21
3.7460832194
  0
LINE
  5
227
100
AcDbEntity
  8
0
100
AcDbLine
 62
7
  6
CONTINUOUS
 10
3.2644124429
 20
2.9233700287
 11
3.2205789529
 21
2.9670772516
  0
LINE
  5
228
100
AcDbEntity
  8
0
100
AcDbLine
 62
7
  6
CONTINUOUS
 10
3.2106304109
 20
3.1332768059
 11
3.182830163
 21
3.1729959161
  0
LINE
  5
229
100
AcDbEntity
  8
0
100
AcDbLine
 62
7
  6
CONTINUOUS
 10
3.108955163
 20
3.4388741266
 11
3.108955163
 21
3.3042491266
  0
LINE
  5
22A
100
AcDbEntity
  8
0
100
AcDbLine
 62
7
  6
CONTINUOUS
 10
3.1222790824
 20
2.8296397516
 11
3.1222790824
 21
2.9233687725
  0
LINE
  5
22B
100
AcDbEntity
  8
0
100
AcDbLine
 62
7
  6
CONTINUOUS
 10
3.1710199041
 20
3.5279990496
 11
3.1710199041
 21
3.6009992031
  0
LINE
  5
22C
100
AcDbEntity
  8
0
100
AcDbLine
 62
7
  6
CONTINUOUS
 10
3.177955163
 20
3.709730663
 11
3.177955163
 21
3.6829991266
  0
LINE
  5
22D
100
AcDbEntity
  8
0
100
AcDbLine
 62
7
  6
CONTINUOUS
 10
3.1793299167
 20
3.506335186
 11
3.1793299167
 21
3.622663067
  0
LINE
  5
22E
100
AcDbEntity
  8
0
100
AcDbLine
 62
7
  6
CONTINUOUS
 10
3.258017663
 20
2.8063897516
 11
3.258017663
 21
2.8296397516
  0
LINE
  5
22F
100
AcDbEntity
  8
0
100
AcDbLine
 62
7
  6
CONTINUOUS
 10
3.2644155018
 20
2.8296397516
 11
3.2644155018
 21
2.9233689548
  0
LINE
  5
230
100
AcDbEntity
  8
0
100
AcDbLine
 62
7
  6
CONTINUOUS
 10
2.6266387044
 20
3.6274193624
 11
2.595855233
 21
3.6489741811
  0
LINE
  5
231
100
AcDbEntity
  8
0
100
AcDbLine
 62
7
  6
CONTINUOUS
 10
3.1726054701
 20
3.7170938836
 11
3.177955163
 21
3.709730663
  0
LINE
  5
232
100
AcDbEntity
  8
0
100
AcDbLine
 62
7
  6
CONTINUOUS
 10
3.3148814786
 20
3.4929051416
 11
3.3148814786
 21
3.6360931115
  0
LINE
  5
233
100
AcDbEntity
  8
0
100
AcDbLine
 62
7
  6
CONTINUOUS
 10
3.324205163
 20
3.4935900429
 11
3.324205163
 21
3.6354082102
  0
LINE
  5
234
100
AcDbEntity
  8
0
100
AcDbLine
 62
7
  6
CONTINUOUS
 10
3.3336466217
 20
3.5015788907
 11
3.3336466217
 21
3.6274193624
  0
LINE
  5
235
100
AcDbEntity
  8
0
100
AcDbLine
 62
7
  6
CONTINUOUS
 10
3.364430093
 20
3.480024072
 11
3.364430093
 21
3.6489741811
  0
LINE
  5
236
100
AcDbEntity
  8
0
100
AcDbLine
 62
7
  6
CONTINUOUS
 10
2.782330163
 20
3.6829991266
 11
2.7923977084
 21
3.6771866266
  0
LINE
  5
237
100
AcDbEntity
  8
0
100
AcDbLine
 62
7
  6
CONTINUOUS
 10
3.3336466217
 20
3.5015788907
 11
3.364430093
 21
3.480024072
  0
LINE
  5
238
100
AcDbEntity
  8
0
100
AcDbLine
 62
7
  6
CONTINUOUS
 10
2.7876798559
 20
3.7170938836
 11
2.782330163
 21
3.709730663
  0
LINE
  5
239
100
AcDbEntity
  8
0
100
AcDbLine
 62
7
  6
CONTINUOUS
 10
7.606892663
 20
2.6586397516
 11
7.353392663
 21
2.6586397516
  0
LINE
  5
23A
100
AcDbEntity
  8
0
100
AcDbLine
 62
7
  6
CONTINUOUS
 10
7.913267663
 20
2.6657647516
 11
7.047017663
 21
2.6657647516
  0
LINE
  5
23B
100
AcDbEntity
  8
0
100
AcDbLine
 62
7
  6
CONTINUOUS
 10
6.422642663
 20
2.6657647516
 11
5.537642663
 21
2.6657647516
  0
LINE
  5
23C
100
AcDbEntity
  8
0
100
AcDbLine
 62
7
  6
CONTINUOUS
 10
3.422642663
 20
2.6657647516
 11
2.537642663
 21
2.6657647516
  0
LINE
  5
23D
100
AcDbEntity
  8
0
100
AcDbLine
 62
7
  6
CONTINUOUS
 10
4.039517663
 20
2.6657647516
 11
4.920767663
 21
2.6657647516
  0
LINE
  5
23E
100
AcDbEntity
  8
0
100
AcDbLine
 62
7
  6
CONTINUOUS
 10
7.920767663
 20
2.6732647516
 11
7.039517663
 21
2.6732647516
  0
LINE
  5
23F
100
AcDbEntity
  8
0
100
AcDbLine
 62
7
  6
CONTINUOUS
 10
7.920767663
 20
2.7051397516
 11
7.039517663
 21
2.7051397516
  0
LINE
  5
240
100
AcDbEntity
  8
0
100
AcDbLine
 62
7
  6
CONTINUOUS
 10
4.039517663
 20
2.7051397516
 11
4.920767663
 21
2.7051397516
  0
LINE
  5
241
100
AcDbEntity
  8
0
100
AcDbLine
 62
7
  6
CONTINUOUS
 10
7.909517663
 20
2.7163897516
 11
7.050767663
 21
2.7163897516
  0
LINE
  5
242
100
AcDbEntity
  8
0
100
AcDbLine
 62
7
  6
CONTINUOUS
 10
4.050767663
 20
2.7163897516
 11
4.909517663
 21
2.7163897516
  0
LINE
  5
243
100
AcDbEntity
  8
0
100
AcDbLine
 62
7
  6
CONTINUOUS
 10
6.355142663
 20
2.7358897516
 11
5.605142663
 21
2.7358897516
  0
LINE
  5
244
100
AcDbEntity
  8
0
100
AcDbLine
 62
7
  6
CONTINUOUS
 10
3.355142663
 20
2.7358897516
 11
2.605142663
 21
2.7358897516
  0
LINE
  5
245
100
AcDbEntity
  8
0
100
AcDbLine
 62
7
  6
CONTINUOUS
 10
2.782330163
 20
3.4579991266
 11
2.841205163
 21
3.4388741266
  0
LINE
  5
246
100
AcDbEntity
  8
0
100
AcDbLine
 62
7
  6
CONTINUOUS
 10
3.1678876177
 20
3.6771866266
 11
3.177955163
 21
3.6713741266
  0
LINE
  5
247
100
AcDbEntity
  8
0
100
AcDbLine
 62
7
  6
CONTINUOUS
 10
2.7496549152
 20
3.1332768059
 11
2.777455163
 21
3.1729959161
  0
LINE
  5
248
100
AcDbEntity
  8
0
100
AcDbLine
 62
7
  6
CONTINUOUS
 10
7.806392663
 20
2.8063897516
 11
7.153892663
 21
2.8063897516
  0
LINE
  5
249
100
AcDbEntity
  8
0
100
AcDbLine
 62
7
  6
CONTINUOUS
 10
6.2850186657
 20
2.8063897516
 11
5.6752666604
 21
2.8063897516
  0
LINE
  5
24A
100
AcDbEntity
  8
0
100
AcDbLine
 62
7
  6
CONTINUOUS
 10
3.2850186657
 20
2.8063897516
 11
2.6752666604
 21
2.8063897516
  0
LINE
  5
24B
100
AcDbEntity
  8
0
100
AcDbLine
 62
7
  6
CONTINUOUS
 10
4.153892663
 20
2.8063897516
 11
4.806392663
 21
2.8063897516
  0
LINE
  5
24C
100
AcDbEntity
  8
0
100
AcDbLine
 62
7
  6
CONTINUOUS
 10
2.6958698243
 20
2.8296397516
 11
3.2644155018
 21
2.8296397516
  0
LINE
  5
24D
100
AcDbEntity
  8
0
100
AcDbLine
 62
7
  6
CONTINUOUS
 10
5.6958698243
 20
2.8296397516
 11
6.2644155018
 21
2.8296397516
  0
LINE
  5
24E
100
AcDbEntity
  8
0
100
AcDbLine
 62
7
  6
CONTINUOUS
 10
7.679267663
 20
2.9320147516
 11
7.281017663
 21
2.9320147516
  0
LINE
  5
24F
100
AcDbEntity
  8
0
100
AcDbLine
 62
7
  6
CONTINUOUS
 10
4.281392663
 20
2.9320147516
 11
4.678892663
 21
2.9320147516
  0
LINE
  5
250
100
AcDbEntity
  8
0
100
AcDbLine
 62
7
  6
CONTINUOUS
 10
7.2847002338
 20
2.9398897516
 11
7.6755850922
 21
2.9398897516
  0
LINE
  5
251
100
AcDbEntity
  8
0
100
AcDbLine
 62
7
  6
CONTINUOUS
 10
6.2205789529
 20
2.9670772516
 11
5.7397063732
 21
2.9670772516
  0
LINE
  5
252
100
AcDbEntity
  8
0
100
AcDbLine
 62
7
  6
CONTINUOUS
 10
3.2205789529
 20
2.9670772516
 11
2.7397063732
 21
2.9670772516
  0
LINE
  5
253
100
AcDbEntity
  8
0
100
AcDbLine
 62
7
  6
CONTINUOUS
 10
7.288892663
 20
2.9867647516
 11
7.671392663
 21
2.9867647516
  0
LINE
  5
254
100
AcDbEntity
  8
0
100
AcDbLine
 62
7
  6
CONTINUOUS
 10
4.641392663
 20
2.9920147516
 11
4.318892663
 21
2.9920147516
  0
LINE
  5
255
100
AcDbEntity
  8
0
100
AcDbLine
 62
7
  6
CONTINUOUS
 10
4.039517663
 20
2.7051397516
 11
4.039517663
 21
2.6657647516
  0
LINE
  5
256
100
AcDbEntity
  8
0
100
AcDbLine
 62
7
  6
CONTINUOUS
 10
7.288892663
 20
3.0336397516
 11
7.671392663
 21
3.0336397516
  0
LINE
  5
257
100
AcDbEntity
  8
0
100
AcDbLine
 62
7
  6
CONTINUOUS
 10
6.212080163
 20
3.0477022516
 11
5.748205163
 21
3.0477022516
  0
LINE
  5
258
100
AcDbEntity
  8
0
100
AcDbLine
 62
7
  6
CONTINUOUS
 10
3.212080163
 20
3.0477022516
 11
2.748205163
 21
3.0477022516
  0
LINE
  5
259
100
AcDbEntity
  8
0
100
AcDbLine
 62
7
  6
CONTINUOUS
 10
7.2847002338
 20
3.0805147516
 11
7.6755850922
 21
3.0805147516
  0
LINE
  5
25A
100
AcDbEntity
  8
0
100
AcDbLine
 62
7
  6
CONTINUOUS
 10
6.2106304109
 20
3.1332768059
 11
5.7496549152
 21
3.1332768059
  0
LINE
  5
25B
100
AcDbEntity
  8
0
100
AcDbLine
 62
7
  6
CONTINUOUS
 10
3.2106304109
 20
3.1332768059
 11
2.7496549152
 21
3.1332768059
  0
LINE
  5
25C
100
AcDbEntity
  8
0
100
AcDbLine
 62
7
  6
CONTINUOUS
 10
7.3054290028
 20
3.1630147516
 11
7.6548563233
 21
3.1630147516
  0
LINE
  5
25D
100
AcDbEntity
  8
0
100
AcDbLine
 62
7
  6
CONTINUOUS
 10
6.182830163
 20
3.1729959161
 11
5.777455163
 21
3.1729959161
  0
LINE
  5
25E
100
AcDbEntity
  8
0
100
AcDbLine
 62
7
  6
CONTINUOUS
 10
3.182830163
 20
3.1729959161
 11
2.777455163
 21
3.1729959161
  0
LINE
  5
25F
100
AcDbEntity
  8
0
100
AcDbLine
 62
7
  6
CONTINUOUS
 10
3.1505838966
 20
3.7242491266
 11
3.1726054701
 21
3.7170938836
  0
LWPOLYLINE
  5
260
100
AcDbEntity
  8
0
100
AcDbPolyline
 62
7
  6
CONTINUOUS
 90
3
 70
0
 10
2.963755163
 20
3.7521431701
 10
2.9637576911
 20
3.7521423261
 10
2.9637769098
 20
3.7521401043
  0
LINE
  5
261
100
AcDbEntity
  8
0
100
AcDbLine
 62
7
  6
CONTINUOUS
 10
4.306330163
 20
5.7486397516
 11
4.306330163
 21
5.7283897516
  0
LINE
  5
262
100
AcDbEntity
  8
0
100
AcDbLine
 62
7
  6
CONTINUOUS
 10
4.351705163
 20
5.5303897516
 11
4.351705163
 21
5.4310147516
  0
LINE
  5
263
100
AcDbEntity
  8
0
100
AcDbLine
 62
7
  6
CONTINUOUS
 10
2.6266387044
 20
3.5015788907
 11
2.595855233
 21
3.480024072
  0
LINE
  5
264
100
AcDbEntity
  8
0
100
AcDbLine
 62
7
  6
CONTINUOUS
 10
2.8189902652
 20
3.2877394676
 11
3.1412950609
 21
3.2877394676
  0
LINE
  5
265
100
AcDbEntity
  8
0
100
AcDbLine
 62
7
  6
CONTINUOUS
 10
5.8189902652
 20
3.2877394676
 11
6.1412950609
 21
3.2877394676
  0
LINE
  5
266
100
AcDbEntity
  8
0
100
AcDbLine
 62
7
  6
CONTINUOUS
 10
2.8305743299
 20
3.2983897516
 11
3.1297109962
 21
3.2983897516
  0
LINE
  5
267
100
AcDbEntity
  8
0
100
AcDbLine
 62
7
  6
CONTINUOUS
 10
5.8305743299
 20
3.2983897516
 11
6.1297109962
 21
3.2983897516
  0
LINE
  5
268
100
AcDbEntity
  8
0
100
AcDbLine
 62
7
  6
CONTINUOUS
 10
2.851330163
 20
3.3042491266
 11
3.108955163
 21
3.3042491266
  0
LINE
  5
269
100
AcDbEntity
  8
0
100
AcDbLine
 62
7
  6
CONTINUOUS
 10
5.8513301724
 20
3.3042491266
 11
6.1089551537
 21
3.3042491266
  0
LINE
  5
26A
100
AcDbEntity
  8
0
100
AcDbLine
 62
7
  6
CONTINUOUS
 10
4.3237734763
 20
5.0231777672
 11
4.3496475144
 21
4.7616564573
  0
LINE
  5
26B
100
AcDbEntity
  8
0
100
AcDbLine
 62
7
  6
CONTINUOUS
 10
4.362955163
 20
5.8060147516
 11
4.362955163
 21
5.7940147516
  0
LINE
  5
26C
100
AcDbEntity
  8
0
100
AcDbLine
 62
7
  6
CONTINUOUS
 10
4.362955163
 20
5.6946397516
 11
4.362955163
 21
5.6710147516
  0
LINE
  5
26D
100
AcDbEntity
  8
0
100
AcDbLine
 62
7
  6
CONTINUOUS
 10
4.362955163
 20
5.5559449777
 11
4.362955163
 21
5.0780265723
  0
LINE
  5
26E
100
AcDbEntity
  8
0
100
AcDbLine
 62
7
  6
CONTINUOUS
 10
4.6365118498
 20
5.0231777672
 11
4.6106378117
 21
4.7616564573
  0
LINE
  5
26F
100
AcDbEntity
  8
0
100
AcDbLine
 62
7
  6
CONTINUOUS
 10
2.6958717791
 20
2.9233689278
 11
2.7397063732
 21
2.9670772516
  0
LINE
  5
270
100
AcDbEntity
  8
0
100
AcDbLine
 62
7
  6
CONTINUOUS
 10
2.7923977084
 20
3.6771866266
 11
2.782330163
 21
3.6713741266
  0
LINE
  5
271
100
AcDbEntity
  8
0
100
AcDbLine
 62
7
  6
CONTINUOUS
 10
7.3468832719
 20
4.0675737862
 11
7.3539591103
 21
4.0693379908
  0
LINE
  5
272
100
AcDbEntity
  8
0
100
AcDbLine
 62
7
  6
CONTINUOUS
 10
7.6714136783
 20
4.1455573015
 11
7.6785289799
 21
4.1471999983
  0
LINE
  5
273
100
AcDbEntity
  8
0
100
AcDbLine
 62
7
  6
CONTINUOUS
 10
5.857751166
 20
3.7389300026
 11
5.848892663
 21
3.7373683676
  0
LINE
  5
274
100
AcDbEntity
  8
0
100
AcDbLine
 62
7
  6
CONTINUOUS
 10
5.8917693763
 20
3.7448207332
 11
5.879375575
 21
3.7427586856
  0
LINE
  5
275
100
AcDbEntity
  8
0
100
AcDbLine
 62
7
  6
CONTINUOUS
 10
5.8857632779
 20
3.743822426
 11
5.8848436026
 21
3.7436694793
  0
LINE
  5
276
100
AcDbEntity
  8
0
100
AcDbLine
 62
7
  6
CONTINUOUS
 10
5.8820947833
 20
3.7432118219
 11
5.8811831401
 21
3.7430602741
  0
LINE
  5
277
100
AcDbEntity
  8
0
100
AcDbLine
 62
7
  6
CONTINUOUS
 10
5.879375575
 20
3.7431397408
 11
5.9060613712
 21
3.7475657463
  0
LINE
  5
278
100
AcDbEntity
  8
0
100
AcDbLine
 62
7
  6
CONTINUOUS
 10
5.8945051117
 20
3.745654134
 11
5.8952846288
 21
3.7457833533
  0
LINE
  5
279
100
AcDbEntity
  8
0
100
AcDbLine
 62
7
  6
CONTINUOUS
 10
5.89287273
 20
3.7453834632
 11
5.893699979
 21
3.7455205776
  0
LINE
  5
27A
100
AcDbEntity
  8
0
100
AcDbLine
 62
7
  6
CONTINUOUS
 10
5.8960374985
 20
3.7459080644
 11
5.8967639653
 21
3.7460284385
  0
LINE
  5
27B
100
AcDbEntity
  8
0
100
AcDbLine
 62
7
  6
CONTINUOUS
 10
5.8646435127
 20
3.7407883529
 11
5.8650562275
 21
3.7408509155
  0
LINE
  5
27C
100
AcDbEntity
  8
0
100
AcDbLine
 62
7
  6
CONTINUOUS
 10
5.8646435206
 20
3.7404057257
 11
5.8668810446
 21
3.7407388657
  0
LINE
  5
27D
100
AcDbEntity
  8
0
100
AcDbLine
 62
7
  6
CONTINUOUS
 10
5.8650562304
 20
3.7408509035
 11
5.8668810446
 21
3.7411212706
  0
LINE
  5
27E
100
AcDbEntity
  8
0
100
AcDbLine
 62
7
  6
CONTINUOUS
 10
5.9656245174
 20
3.752192212
 11
5.965630163
 21
3.7521930044
  0
LINE
  5
27F
100
AcDbEntity
  8
0
100
AcDbLine
 62
7
  6
CONTINUOUS
 10
2.841205163
 20
3.4388741266
 11
3.119080163
 21
3.4388741266
  0
LINE
  5
280
100
AcDbEntity
  8
0
100
AcDbLine
 62
7
  6
CONTINUOUS
 10
5.841205163
 20
3.4388741266
 11
6.119080163
 21
3.4388741266
  0
LINE
  5
281
100
AcDbEntity
  8
0
100
AcDbLine
 62
7
  6
CONTINUOUS
 10
2.782330163
 20
3.4579991266
 11
3.177955163
 21
3.4579991266
  0
LINE
  5
282
100
AcDbEntity
  8
0
100
AcDbLine
 62
7
  6
CONTINUOUS
 10
5.782330163
 20
3.4579991266
 11
6.177955163
 21
3.4579991266
  0
LINE
  5
283
100
AcDbEntity
  8
0
100
AcDbLine
 62
7
  6
CONTINUOUS
 10
6.189205163
 20
3.4876241266
 11
6.0488794286
 21
3.4876241266
  0
LINE
  5
284
100
AcDbEntity
  8
0
100
AcDbLine
 62
7
  6
CONTINUOUS
 10
3.189205163
 20
3.4876241266
 11
3.0488794286
 21
3.4876241266
  0
LINE
  5
285
100
AcDbEntity
  8
0
100
AcDbLine
 62
7
  6
CONTINUOUS
 10
2.771080163
 20
3.4876241266
 11
2.9114058975
 21
3.4876241266
  0
LINE
  5
286
100
AcDbEntity
  8
0
100
AcDbLine
 62
7
  6
CONTINUOUS
 10
5.771080163
 20
3.4876241266
 11
5.9114058975
 21
3.4876241266
  0
LINE
  5
287
100
AcDbEntity
  8
0
100
AcDbLine
 62
7
  6
CONTINUOUS
 10
6.189205163
 20
3.6413741266
 11
6.0488794286
 21
3.6413741266
  0
LINE
  5
288
100
AcDbEntity
  8
0
100
AcDbLine
 62
7
  6
CONTINUOUS
 10
3.189205163
 20
3.6413741266
 11
3.0488794286
 21
3.6413741266
  0
LINE
  5
289
100
AcDbEntity
  8
0
100
AcDbLine
 62
7
  6
CONTINUOUS
 10
2.771080163
 20
3.6413741266
 11
2.9114058975
 21
3.6413741266
  0
LINE
  5
28A
100
AcDbEntity
  8
0
100
AcDbLine
 62
7
  6
CONTINUOUS
 10
5.771080163
 20
3.6413741266
 11
5.9114058975
 21
3.6413741266
  0
LINE
  5
28B
100
AcDbEntity
  8
0
100
AcDbLine
 62
7
  6
CONTINUOUS
 10
2.9639455507
 20
3.752124473
 11
2.9640582089
 21
3.7521168636
  0
LINE
  5
28C
100
AcDbEntity
  8
0
100
AcDbLine
 62
7
  6
CONTINUOUS
 10
2.963755163
 20
3.7521431701
 11
2.9640582089
 21
3.7521168636
  0
LINE
  5
28D
100
AcDbEntity
  8
0
100
AcDbLine
 62
7
  6
CONTINUOUS
 10
2.9637769098
 20
3.7521401043
 11
2.9638673047
 21
3.7521312187
  0
LINE
  5
28E
100
AcDbEntity
  8
0
100
AcDbLine
 62
7
  6
CONTINUOUS
 10
4.597330163
 20
5.8060147516
 11
4.597330163
 21
5.7940147516
  0
LINE
  5
28F
100
AcDbEntity
  8
0
100
AcDbLine
 62
7
  6
CONTINUOUS
 10
4.597330163
 20
5.6946397516
 11
4.597330163
 21
5.6710147516
  0
LINE
  5
290
100
AcDbEntity
  8
0
100
AcDbLine
 62
7
  6
CONTINUOUS
 10
4.597330163
 20
5.5559449777
 11
4.597330163
 21
5.0780265688
  0
LINE
  5
291
100
AcDbEntity
  8
0
100
AcDbLine
 62
7
  6
CONTINUOUS
 10
4.608580163
 20
5.5303897516
 11
4.608580163
 21
5.4310147516
  0
LINE
  5
292
100
AcDbEntity
  8
0
100
AcDbLine
 62
7
  6
CONTINUOUS
 10
4.653955163
 20
5.7486397516
 11
4.653955163
 21
5.7283897516
  0
LINE
  5
293
100
AcDbEntity
  8
0
100
AcDbLine
 62
7
  6
CONTINUOUS
 10
3.3336466217
 20
3.6274193624
 11
3.364430093
 21
3.6489741811
  0
LINE
  5
294
100
AcDbEntity
  8
0
100
AcDbLine
 62
7
  6
CONTINUOUS
 10
3.177955163
 20
3.6829991266
 11
3.1678876177
 21
3.6771866266
  0
LINE
  5
295
100
AcDbEntity
  8
0
100
AcDbLine
 62
7
  6
CONTINUOUS
 10
7.6134020542
 20
4.4184557169
 11
7.6063262158
 21
4.4166915123
  0
LINE
  5
296
100
AcDbEntity
  8
0
100
AcDbLine
 62
7
  6
CONTINUOUS
 10
7.3378791155
 20
4.0747926344
 11
7.3450474119
 21
4.0761860101
  0
LINE
  5
297
100
AcDbEntity
  8
0
100
AcDbLine
 62
7
  6
CONTINUOUS
 10
7.6660510192
 20
4.1356805121
 11
7.6732425416
 21
4.1369485715
  0
LINE
  5
298
100
AcDbEntity
  8
0
100
AcDbLine
 62
7
  6
CONTINUOUS
 10
7.3292700174
 20
4.0824686758
 11
7.3365014135
 21
4.0834849822
  0
LINE
  5
299
100
AcDbEntity
  8
0
100
AcDbLine
 62
7
  6
CONTINUOUS
 10
7.6601787982
 20
4.1260979183
 11
7.66742683
 21
4.1269878647
  0
LINE
  5
29A
100
AcDbEntity
  8
0
100
AcDbLine
 62
7
  6
CONTINUOUS
 10
5.9789468179
 20
3.7523677274
 11
5.978936364
 21
3.7523667196
  0
LINE
  5
29B
100
AcDbEntity
  8
0
100
AcDbLine
 62
7
  6
CONTINUOUS
 10
5.9789037992
 20
3.7523645267
 11
5.9788891372
 21
3.7523633437
  0
LINE
  5
29C
100
AcDbEntity
  8
0
100
AcDbLine
 62
7
  6
CONTINUOUS
 10
5.9787463126
 20
3.752352899
 11
5.978691298
 21
3.7523488681
  0
LINE
  5
29D
100
AcDbEntity
  8
0
100
AcDbLine
 62
7
  6
CONTINUOUS
 10
5.979017663
 20
3.7523730383
 11
5.9782175293
 21
3.7523146958
  0
LINE
  5
29E
100
AcDbEntity
  8
0
100
AcDbLine
 62
7
  6
CONTINUOUS
 10
5.965614729
 20
3.7521919677
 11
5.965630163
 21
3.7521930044
  0
LINE
  5
29F
100
AcDbEntity
  8
0
100
AcDbLine
 62
7
  6
CONTINUOUS
 10
5.9649602534
 20
3.7515236514
 11
5.9337664986
 21
3.7498752074
  0
LINE
  5
2A0
100
AcDbEntity
  8
0
100
AcDbLine
 62
7
  6
CONTINUOUS
 10
5.9484446848
 20
3.7506452688
 11
5.947291354
 21
3.7505844676
  0
LINE
  5
2A1
100
AcDbEntity
  8
0
100
AcDbLine
 62
7
  6
CONTINUOUS
 10
5.9382638527
 20
3.7501099946
 11
5.9361741427
 21
3.7500005477
  0
LINE
  5
2A2
100
AcDbEntity
  8
0
100
AcDbLine
 62
7
  6
CONTINUOUS
 10
5.9361741427
 20
3.7500005477
 11
5.9337691146
 21
3.7498753734
  0
LINE
  5
2A3
100
AcDbEntity
  8
0
100
AcDbLine
 62
7
  6
CONTINUOUS
 10
5.9207483717
 20
3.7492883947
 11
5.920142663
 21
3.7492704075
  0
LINE
  5
2A4
100
AcDbEntity
  8
0
100
AcDbLine
 62
7
  6
CONTINUOUS
 10
3.009017663
 20
3.7516567778
 11
3.0084191532
 21
3.7516437391
  0
LINE
  5
2A5
100
AcDbEntity
  8
0
100
AcDbLine
 62
7
  6
CONTINUOUS
 10
3.009017663
 20
3.7516567778
 11
3.0084199319
 21
3.7516436994
  0
LWPOLYLINE
  5
2A6
100
AcDbEntity
  8
0
100
AcDbPolyline
 62
7
  6
CONTINUOUS
 90
10
 70
0
 10
5.979017663
 20
3.7523730383
 10
5.9789814019
 20
3.7523728786
 10
5.9789849255
 20
3.7523726355
 10
5.9790077613
 20
3.7523722905
 10
5.9790131663
 20
3.7523717901
 10
5.9789933076
 20
3.7523711266
 10
5.9789822536
 20
3.7523703755
 10
5.9789800565
 20
3.7523695706
 10
5.9789623642
 20
3.7523686818
 10
5.9789197818
 20
3.7523656538
  0
LINE
  5
2A7
100
AcDbEntity
  8
0
100
AcDbLine
 62
7
  6
CONTINUOUS
 10
2.782330163
 20
3.6713741266
 11
3.177955163
 21
3.6713741266
  0
LINE
  5
2A8
100
AcDbEntity
  8
0
100
AcDbLine
 62
7
  6
CONTINUOUS
 10
5.782330163
 20
3.6713741266
 11
6.177955163
 21
3.6713741266
  0
LINE
  5
2A9
100
AcDbEntity
  8
0
100
AcDbLine
 62
7
  6
CONTINUOUS
 10
2.7923977084
 20
3.6771866266
 11
3.1678876177
 21
3.6771866266
  0
LINE
  5
2AA
100
AcDbEntity
  8
0
100
AcDbLine
 62
7
  6
CONTINUOUS
 10
5.7923977084
 20
3.6771866266
 11
6.1678876177
 21
3.6771866266
  0
LINE
  5
2AB
100
AcDbEntity
  8
0
100
AcDbLine
 62
7
  6
CONTINUOUS
 10
2.782330163
 20
3.6829991266
 11
3.177955163
 21
3.6829991266
  0
LINE
  5
2AC
100
AcDbEntity
  8
0
100
AcDbLine
 62
7
  6
CONTINUOUS
 10
5.782330163
 20
3.6829991266
 11
6.177955163
 21
3.6829991266
  0
LINE
  5
2AD
100
AcDbEntity
  8
0
100
AcDbLine
 62
7
  6
CONTINUOUS
 10
7.3053408683
 20
3.6868897516
 11
7.6549444578
 21
3.6868897516
  0
LINE
  5
2AE
100
AcDbEntity
  8
0
100
AcDbLine
 62
7
  6
CONTINUOUS
 10
2.782330163
 20
3.709730663
 11
3.177955163
 21
3.709730663
  0
LINE
  5
2AF
100
AcDbEntity
  8
0
100
AcDbLine
 62
7
  6
CONTINUOUS
 10
5.782330163
 20
3.709730663
 11
6.177955163
 21
3.709730663
  0
LINE
  5
2B0
100
AcDbEntity
  8
0
100
AcDbLine
 62
7
  6
CONTINUOUS
 10
2.7876798559
 20
3.7170938836
 11
3.1726054701
 21
3.7170938836
  0
LINE
  5
2B1
100
AcDbEntity
  8
0
100
AcDbLine
 62
7
  6
CONTINUOUS
 10
5.7876798559
 20
3.7170938836
 11
6.1726054701
 21
3.7170938836
  0
LINE
  5
2B2
100
AcDbEntity
  8
0
100
AcDbLine
 62
7
  6
CONTINUOUS
 10
2.8097014295
 20
3.7242491266
 11
3.1505838966
 21
3.7242491266
  0
LINE
  5
2B3
100
AcDbEntity
  8
0
100
AcDbLine
 62
7
  6
CONTINUOUS
 10
5.8097014295
 20
3.7242491266
 11
6.1505838966
 21
3.7242491266
  0
LINE
  5
2B4
100
AcDbEntity
  8
0
100
AcDbLine
 62
7
  6
CONTINUOUS
 10
6.1283219093
 20
3.7331776115
 11
5.8319634168
 21
3.7331776115
  0
LINE
  5
2B5
100
AcDbEntity
  8
0
100
AcDbLine
 62
7
  6
CONTINUOUS
 10
3.1283219029
 20
3.7331776564
 11
2.8319634232
 21
3.7331776564
  0
LINE
  5
2B6
100
AcDbEntity
  8
0
100
AcDbLine
 62
7
  6
CONTINUOUS
 10
4.2767761242
 20
3.7865598676
 11
4.6835092019
 21
3.7865598676
  0
LINE
  5
2B7
100
AcDbEntity
  8
0
100
AcDbLine
 62
7
  6
CONTINUOUS
 10
4.6742584281
 20
3.7993897516
 11
4.286026898
 21
3.7993897516
  0
LINE
  5
2B8
100
AcDbEntity
  8
0
100
AcDbLine
 62
7
  6
CONTINUOUS
 10
4.2933192095
 20
3.8112335329
 11
4.6669661166
 21
3.8112335329
  0
LINE
  5
2B9
100
AcDbEntity
  8
0
100
AcDbLine
 62
7
  6
CONTINUOUS
 10
5.9340036998
 20
3.7505112564
 11
5.934123049
 21
3.7505093316
  0
LINE
  5
2BA
100
AcDbEntity
  8
0
100
AcDbLine
 62
7
  6
CONTINUOUS
 10
2.950746007
 20
3.7515863709
 11
2.950142663
 21
3.7515997536
  0
LINE
  5
2BB
100
AcDbEntity
  8
0
100
AcDbLine
 62
7
  6
CONTINUOUS
 10
2.9507467661
 20
3.7515864111
 11
2.950142663
 21
3.7515997536
  0
LINE
  5
2BC
100
AcDbEntity
  8
0
100
AcDbLine
 62
7
  6
CONTINUOUS
 10
5.933755163
 20
3.7505209626
 11
5.934123049
 21
3.7505093316
  0
LINE
  5
2BD
100
AcDbEntity
  8
0
100
AcDbLine
 62
7
  6
CONTINUOUS
 10
6.039205276
 20
3.7488753839
 11
6.0403095143
 21
3.7487949324
  0
LINE
  5
2BE
100
AcDbEntity
  8
0
100
AcDbLine
 62
7
  6
CONTINUOUS
 10
6.0403095143
 20
3.7487949324
 11
6.0406551075
 21
3.7487553173
  0
LINE
  5
2BF
100
AcDbEntity
  8
0
100
AcDbLine
 62
7
  6
CONTINUOUS
 10
5.782330163
 20
3.4579991266
 11
5.841205163
 21
3.4388741266
  0
LINE
  5
2C0
100
AcDbEntity
  8
0
100
AcDbLine
 62
7
  6
CONTINUOUS
 10
4.920767663
 20
2.7051397516
 11
4.920767663
 21
2.6657647516
  0
LINE
  5
2C1
100
AcDbEntity
  8
0
100
AcDbLine
 62
7
  6
CONTINUOUS
 10
2.8097014295
 20
3.7242491266
 11
2.7876798559
 21
3.7170938836
  0
LINE
  5
2C2
100
AcDbEntity
  8
0
100
AcDbLine
 62
7
  6
CONTINUOUS
 10
7.2888716477
 20
4.3404722016
 11
7.2817563462
 21
4.3388295048
  0
LINE
  5
2C3
100
AcDbEntity
  8
0
100
AcDbLine
 62
7
  6
CONTINUOUS
 10
7.6224062106
 20
4.4112368687
 11
7.6152379142
 21
4.409843493
  0
LINE
  5
2C4
100
AcDbEntity
  8
0
100
AcDbLine
 62
7
  6
CONTINUOUS
 10
7.2942343069
 20
4.350348991
 11
7.2870427845
 21
4.3490809316
  0
LINE
  5
2C5
100
AcDbEntity
  8
0
100
AcDbLine
 62
7
  6
CONTINUOUS
 10
7.6310153087
 20
4.4035608273
 11
7.6237839125
 21
4.4025445209
  0
LINE
  5
2C6
100
AcDbEntity
  8
0
100
AcDbLine
 62
7
  6
CONTINUOUS
 10
2.9956214379
 20
3.75216708
 11
2.995630163
 21
3.7521678461
  0
LINE
  5
2C7
100
AcDbEntity
  8
0
100
AcDbLine
 62
7
  6
CONTINUOUS
 10
7.3210744507
 20
4.0905847628
 11
7.3283491259
 21
4.0912212144
  0
LINE
  5
2C8
100
AcDbEntity
  8
0
100
AcDbLine
 62
7
  6
CONTINUOUS
 10
7.6538194238
 20
4.1168311988
 11
7.6610941152
 21
4.1173398947
  0
LINE
  5
2C9
100
AcDbEntity
  8
0
100
AcDbLine
 62
7
  6
CONTINUOUS
 10
7.313314879
 20
4.0991186498
 11
7.3206128937
 21
4.099373502
  0
LINE
  5
2CA
100
AcDbEntity
  8
0
100
AcDbLine
 62
7
  6
CONTINUOUS
 10
7.6469714045
 20
4.1079195004
 11
7.6542727555
 21
4.108046946
  0
LINE
  5
2CB
100
AcDbEntity
  8
0
100
AcDbLine
 62
7
  6
CONTINUOUS
 10
7.2887052282
 20
3.8773897516
 11
7.6715800979
 21
3.8773897516
  0
LINE
  5
2CC
100
AcDbEntity
  8
0
100
AcDbLine
 62
7
  6
CONTINUOUS
 10
7.2887052282
 20
3.9242647516
 11
7.6715800979
 21
3.9242647516
  0
LINE
  5
2CD
100
AcDbEntity
  8
0
100
AcDbLine
 62
7
  6
CONTINUOUS
 10
6.114767663
 20
3.736575793
 11
6.083080163
 21
3.7423022767
  0
LINE
  5
2CE
100
AcDbEntity
  8
0
100
AcDbLine
 62
7
  6
CONTINUOUS
 10
6.100390508
 20
3.7398045779
 11
6.1003784248
 21
3.7398079094
  0
LINE
  5
2CF
100
AcDbEntity
  8
0
100
AcDbLine
 62
7
  6
CONTINUOUS
 10
6.1505838966
 20
3.7242491266
 11
6.1726054701
 21
3.7170938836
  0
LINE
  5
2D0
100
AcDbEntity
  8
0
100
AcDbLine
 62
7
  6
CONTINUOUS
 10
5.782330163
 20
3.6829991266
 11
5.7923977084
 21
3.6771866266
  0
LINE
  5
2D1
100
AcDbEntity
  8
0
100
AcDbLine
 62
7
  6
CONTINUOUS
 10
5.6266387044
 20
3.6274193624
 11
5.595855233
 21
3.6489741811
  0
LINE
  5
2D2
100
AcDbEntity
  8
0
100
AcDbLine
 62
7
  6
CONTINUOUS
 10
2.9956254161
 20
3.752166974
 11
2.995630163
 21
3.7521678461
  0
LINE
  5
2D3
100
AcDbEntity
  8
0
100
AcDbLine
 62
7
  6
CONTINUOUS
 10
7.3001065279
 20
4.3599315848
 11
7.2928584961
 21
4.3590416384
  0
LINE
  5
2D4
100
AcDbEntity
  8
0
100
AcDbLine
 62
7
  6
CONTINUOUS
 10
7.6392108754
 20
4.3954447403
 11
7.6319362002
 21
4.3948082887
  0
LINE
  5
2D5
100
AcDbEntity
  8
0
100
AcDbLine
 62
7
  6
CONTINUOUS
 10
7.3064659023
 20
4.3691983043
 11
7.2991912109
 21
4.3686896084
  0
LINE
  5
2D6
100
AcDbEntity
  8
0
100
AcDbLine
 62
7
  6
CONTINUOUS
 10
4.2933192095
 20
4.0916709702
 11
4.6669661166
 21
4.0916709702
  0
LINE
  5
2D7
100
AcDbEntity
  8
0
100
AcDbLine
 62
7
  6
CONTINUOUS
 10
4.6742584281
 20
4.1035147516
 11
4.286026898
 21
4.1035147516
  0
LINE
  5
2D8
100
AcDbEntity
  8
0
100
AcDbLine
 62
7
  6
CONTINUOUS
 10
4.2767761242
 20
4.1163446355
 11
4.6835092019
 21
4.1163446355
  0
LINE
  5
2D9
100
AcDbEntity
  8
0
100
AcDbLine
 62
7
  6
CONTINUOUS
 10
7.3060125705
 20
4.108046946
 11
7.3133139216
 21
4.1079195004
  0
LINE
  5
2DA
100
AcDbEntity
  8
0
100
AcDbLine
 62
7
  6
CONTINUOUS
 10
7.6396724324
 20
4.099373502
 11
7.6469704471
 21
4.0991186498
  0
LINE
  5
2DB
100
AcDbEntity
  8
0
100
AcDbLine
 62
7
  6
CONTINUOUS
 10
7.2991912109
 20
4.1173398947
 11
7.3064659023
 21
4.1168311988
  0
LINE
  5
2DC
100
AcDbEntity
  8
0
100
AcDbLine
 62
7
  6
CONTINUOUS
 10
6.1678876177
 20
3.6771866266
 11
6.177955163
 21
3.6713741266
  0
LINE
  5
2DD
100
AcDbEntity
  8
0
100
AcDbLine
 62
7
  6
CONTINUOUS
 10
6.2644124429
 20
2.9233700287
 11
6.2205789529
 21
2.9670772516
  0
LINE
  5
2DE
100
AcDbEntity
  8
0
100
AcDbLine
 62
7
  6
CONTINUOUS
 10
3.177955163
 20
3.4579991266
 11
3.119080163
 21
3.4388741266
  0
LINE
  5
2DF
100
AcDbEntity
  8
0
100
AcDbLine
 62
7
  6
CONTINUOUS
 10
7.6469704471
 20
4.3869108533
 11
7.6396724324
 21
4.3866560011
  0
LINE
  5
2E0
100
AcDbEntity
  8
0
100
AcDbLine
 62
7
  6
CONTINUOUS
 10
7.3133139216
 20
4.3781100027
 11
7.3060125705
 21
4.3779825571
  0
LINE
  5
2E1
100
AcDbEntity
  8
0
100
AcDbLine
 62
7
  6
CONTINUOUS
 10
7.6542727555
 20
4.3779825571
 11
7.6469714045
 21
4.3781100027
  0
LINE
  5
2E2
100
AcDbEntity
  8
0
100
AcDbLine
 62
7
  6
CONTINUOUS
 10
7.3206128937
 20
4.3866560011
 11
7.313314879
 21
4.3869108533
  0
LINE
  5
2E3
100
AcDbEntity
  8
0
100
AcDbLine
 62
7
  6
CONTINUOUS
 10
7.6319362002
 20
4.0912212144
 11
7.6392108754
 21
4.0905847628
  0
LINE
  5
2E4
100
AcDbEntity
  8
0
100
AcDbLine
 62
7
  6
CONTINUOUS
 10
7.2928584961
 20
4.1269878647
 11
7.3001065279
 21
4.1260979183
  0
LINE
  5
2E5
100
AcDbEntity
  8
0
100
AcDbLine
 62
7
  6
CONTINUOUS
 10
7.6237839125
 20
4.0834849822
 11
7.6310153087
 21
4.0824686758
  0
LINE
  5
2E6
100
AcDbEntity
  8
0
100
AcDbLine
 62
7
  6
CONTINUOUS
 10
6.3336466217
 20
3.5015788907
 11
6.364430093
 21
3.480024072
  0
LINE
  5
2E7
100
AcDbEntity
  8
0
100
AcDbLine
 62
7
  6
CONTINUOUS
 10
7.039517663
 20
2.6732647516
 11
7.047017663
 21
2.6657647516
  0
LINE
  5
2E8
100
AcDbEntity
  8
0
100
AcDbLine
 62
7
  6
CONTINUOUS
 10
6.2106304109
 20
3.1332768059
 11
6.182830163
 21
3.1729959161
  0
LINE
  5
2E9
100
AcDbEntity
  8
0
100
AcDbLine
 62
7
  6
CONTINUOUS
 10
5.595855233
 20
3.480024072
 11
5.595855233
 21
3.6489741811
  0
LINE
  5
2EA
100
AcDbEntity
  8
0
100
AcDbLine
 62
7
  6
CONTINUOUS
 10
5.6266387044
 20
3.5015788907
 11
5.6266387044
 21
3.6274193624
  0
LINE
  5
2EB
100
AcDbEntity
  8
0
100
AcDbLine
 62
7
  6
CONTINUOUS
 10
7.6610941152
 20
4.3686896084
 11
7.6538194238
 21
4.3691983043
  0
LINE
  5
2EC
100
AcDbEntity
  8
0
100
AcDbLine
 62
7
  6
CONTINUOUS
 10
7.3283491259
 20
4.3948082887
 11
7.3210744507
 21
4.3954447403
  0
LINE
  5
2ED
100
AcDbEntity
  8
0
100
AcDbLine
 62
7
  6
CONTINUOUS
 10
7.66742683
 20
4.3590416384
 11
7.6601787982
 21
4.3599315848
  0
LINE
  5
2EE
100
AcDbEntity
  8
0
100
AcDbLine
 62
7
  6
CONTINUOUS
 10
7.3365014135
 20
4.4025445209
 11
7.3292700174
 21
4.4035608273
  0
LINE
  5
2EF
100
AcDbEntity
  8
0
100
AcDbLine
 62
7
  6
CONTINUOUS
 10
7.2870427845
 20
4.1369485715
 11
7.2942343069
 21
4.1356805121
  0
LINE
  5
2F0
100
AcDbEntity
  8
0
100
AcDbLine
 62
7
  6
CONTINUOUS
 10
7.6152379142
 20
4.0761860101
 11
7.6224062106
 21
4.0747926344
  0
LINE
  5
2F1
100
AcDbEntity
  8
0
100
AcDbLine
 62
7
  6
CONTINUOUS
 10
7.2817563462
 20
4.1471999983
 11
7.2888716477
 21
4.1455573015
  0
LINE
  5
2F2
100
AcDbEntity
  8
0
100
AcDbLine
 62
7
  6
CONTINUOUS
 10
7.6063262158
 20
4.0693379908
 11
7.6134020542
 21
4.0675737862
  0
LINE
  5
2F3
100
AcDbEntity
  8
0
100
AcDbLine
 62
7
  6
CONTINUOUS
 10
5.636080163
 20
3.4935900429
 11
5.636080163
 21
3.6354082102
  0
LINE
  5
2F4
100
AcDbEntity
  8
0
100
AcDbLine
 62
7
  6
CONTINUOUS
 10
5.6454038475
 20
3.4929051416
 11
5.6454038475
 21
3.6360931115
  0
LINE
  5
2F5
100
AcDbEntity
  8
0
100
AcDbLine
 62
7
  6
CONTINUOUS
 10
5.6958698243
 20
2.8296397516
 11
5.6958698243
 21
2.9233682329
  0
LINE
  5
2F6
100
AcDbEntity
  8
0
100
AcDbLine
 62
7
  6
CONTINUOUS
 10
5.702267663
 20
2.8063897516
 11
5.702267663
 21
2.8296397516
  0
LINE
  5
2F7
100
AcDbEntity
  8
0
100
AcDbLine
 62
7
  6
CONTINUOUS
 10
5.7809554094
 20
3.622661779
 11
5.7809554094
 21
3.5063364744
  0
LINE
  5
2F8
100
AcDbEntity
  8
0
100
AcDbLine
 62
7
  6
CONTINUOUS
 10
5.782330163
 20
3.709730663
 11
5.782330163
 21
3.6829991266
  0
LINE
  5
2F9
100
AcDbEntity
  8
0
100
AcDbLine
 62
7
  6
CONTINUOUS
 10
5.789265422
 20
3.6009988216
 11
5.789265422
 21
3.5279994301
  0
LINE
  5
2FA
100
AcDbEntity
  8
0
100
AcDbLine
 62
7
  6
CONTINUOUS
 10
5.8380062436
 20
2.8296397516
 11
5.8380062436
 21
2.9233689548
  0
LINE
  5
2FB
100
AcDbEntity
  8
0
100
AcDbLine
 62
7
  6
CONTINUOUS
 10
7.5943389733
 20
4.4314206973
 11
7.5874769025
 21
4.4289231077
  0
LINE
  5
2FC
100
AcDbEntity
  8
0
100
AcDbLine
 62
7
  6
CONTINUOUS
 10
7.2797323729
 20
4.3199450542
 11
7.2728277583
 21
4.3175676047
  0
LINE
  5
2FD
100
AcDbEntity
  8
0
100
AcDbLine
 62
7
  6
CONTINUOUS
 10
7.6040428766
 20
4.4251859204
 11
7.5970594963
 21
4.4230508867
  0
LINE
  5
2FE
100
AcDbEntity
  8
0
100
AcDbLine
 62
7
  6
CONTINUOUS
 10
7.2840332492
 20
4.3303282881
 11
7.277013671
 21
4.3283154564
  0
LINE
  5
2FF
100
AcDbEntity
  8
0
100
AcDbLine
 62
7
  6
CONTINUOUS
 10
4.641392663
 20
4.9108897516
 11
4.6254024515
 21
4.9108897516
  0
LINE
  5
300
100
AcDbEntity
  8
0
100
AcDbLine
 62
7
  6
CONTINUOUS
 10
4.3348828746
 20
4.9108897516
 11
4.318892663
 21
4.9108897516
  0
LINE
  5
301
100
AcDbEntity
  8
0
100
AcDbLine
 62
7
  6
CONTINUOUS
 10
7.6732425416
 20
4.3490809316
 11
7.6660510192
 21
4.350348991
  0
LINE
  5
302
100
AcDbEntity
  8
0
100
AcDbLine
 62
7
  6
CONTINUOUS
 10
7.3450474119
 20
4.409843493
 11
7.3378791155
 21
4.4112368687
  0
LINE
  5
303
100
AcDbEntity
  8
0
100
AcDbLine
 62
7
  6
CONTINUOUS
 10
7.6785289799
 20
4.3388295048
 11
7.6714136783
 21
4.3404722016
  0
LINE
  5
304
100
AcDbEntity
  8
0
100
AcDbLine
 62
7
  6
CONTINUOUS
 10
7.277013671
 20
4.1577140467
 11
7.2840332492
 21
4.155701215
  0
LINE
  5
305
100
AcDbEntity
  8
0
100
AcDbLine
 62
7
  6
CONTINUOUS
 10
7.5970594963
 20
4.0629786164
 11
7.6040428766
 21
4.0608435828
  0
LINE
  5
306
100
AcDbEntity
  8
0
100
AcDbLine
 62
7
  6
CONTINUOUS
 10
7.2728277583
 20
4.1684618984
 11
7.2797323729
 21
4.1660844489
  0
LINE
  5
307
100
AcDbEntity
  8
0
100
AcDbLine
 62
7
  6
CONTINUOUS
 10
7.5874769025
 20
4.0571063954
 11
7.5943389733
 21
4.0546088059
  0
LINE
  5
308
100
AcDbEntity
  8
0
100
AcDbLine
 62
7
  6
CONTINUOUS
 10
6.1726054701
 20
3.7170938836
 11
6.177955163
 21
3.709730663
  0
LWPOLYLINE
  5
309
100
AcDbEntity
  8
0
100
AcDbPolyline
 62
7
  6
CONTINUOUS
 90
3
 70
0
 10
5.933755163
 20
3.7505209626
 10
5.9337552464
 20
3.7505196036
 10
5.9337842449
 20
3.7505180132
  0
LINE
  5
30A
100
AcDbEntity
  8
0
100
AcDbLine
 62
7
  6
CONTINUOUS
 10
5.851330163
 20
3.4388741266
 11
5.851330163
 21
3.3042491266
  0
LINE
  5
30B
100
AcDbEntity
  8
0
100
AcDbLine
 62
7
  6
CONTINUOUS
 10
5.864642663
 20
3.7404055046
 11
5.864642663
 21
3.7407881332
  0
LINE
  5
30C
100
AcDbEntity
  8
0
100
AcDbLine
 62
7
  6
CONTINUOUS
 10
5.8668810446
 20
3.7407388657
 11
5.8668810446
 21
3.7411212706
  0
LINE
  5
30D
100
AcDbEntity
  8
0
100
AcDbLine
 62
7
  6
CONTINUOUS
 10
5.879375575
 20
3.7427586856
 11
5.879375575
 21
3.7431397408
  0
LINE
  5
30E
100
AcDbEntity
  8
0
100
AcDbLine
 62
7
  6
CONTINUOUS
 10
5.9060613712
 20
3.7472458095
 11
5.9060613712
 21
3.7475657463
  0
LINE
  5
30F
100
AcDbEntity
  8
0
100
AcDbLine
 62
7
  6
CONTINUOUS
 10
5.933755163
 20
3.7501447629
 11
5.933755163
 21
3.7505209626
  0
LINE
  5
310
100
AcDbEntity
  8
0
100
AcDbLine
 62
7
  6
CONTINUOUS
 10
5.965630163
 20
3.7518178875
 11
5.965630163
 21
3.7521930044
  0
LINE
  5
311
100
AcDbEntity
  8
0
100
AcDbLine
 62
7
  6
CONTINUOUS
 10
5.983892663
 20
3.7514877452
 11
5.983892663
 21
3.7519119248
  0
LINE
  5
312
100
AcDbEntity
  8
0
100
AcDbLine
 62
7
  6
CONTINUOUS
 10
5.991955163
 20
3.751753339
 11
5.991955163
 21
3.7522538412
  0
LINE
  5
313
100
AcDbEntity
  8
0
100
AcDbLine
 62
7
  6
CONTINUOUS
 10
6.005455163
 20
3.7513217754
 11
6.005455163
 21
3.7518229442
  0
LINE
  5
314
100
AcDbEntity
  8
0
100
AcDbLine
 62
7
  6
CONTINUOUS
 10
6.016705163
 20
3.7503781248
 11
6.016705163
 21
3.7507541731
  0
LINE
  5
315
100
AcDbEntity
  8
0
100
AcDbLine
 62
7
  6
CONTINUOUS
 10
6.025705163
 20
3.7497400528
 11
6.025705163
 21
3.7501165154
  0
LINE
  5
316
100
AcDbEntity
  8
0
100
AcDbLine
 62
7
  6
CONTINUOUS
 10
6.0353296093
 20
3.7490954197
 11
6.0353296093
 21
3.7494723016
  0
LINE
  5
317
100
AcDbEntity
  8
0
100
AcDbLine
 62
7
  6
CONTINUOUS
 10
6.0403095143
 20
3.7487949324
 11
6.0403095143
 21
3.7491720101
  0
LINE
  5
318
100
AcDbEntity
  8
0
100
AcDbLine
 62
7
  6
CONTINUOUS
 10
6.051392663
 20
3.7471116514
 11
6.051392663
 21
3.7475390501
  0
LINE
  5
319
100
AcDbEntity
  8
0
100
AcDbLine
 62
7
  6
CONTINUOUS
 10
5.7876798559
 20
3.7170938836
 11
5.782330163
 21
3.709730663
  0
LINE
  5
31A
100
AcDbEntity
  8
0
100
AcDbLine
 62
7
  6
CONTINUOUS
 10
5.7923977084
 20
3.6771866266
 11
5.782330163
 21
3.6713741266
  0
LINE
  5
31B
100
AcDbEntity
  8
0
100
AcDbLine
 62
7
  6
CONTINUOUS
 10
7.2727888351
 20
4.2985750423
 11
7.2661705558
 21
4.295488888
  0
LINE
  5
31C
100
AcDbEntity
  8
0
100
AcDbLine
 62
7
  6
CONTINUOUS
 10
7.5843220659
 20
4.4371390665
 11
7.5776001131
 21
4.4342857669
  0
LINE
  5
31D
100
AcDbEntity
  8
0
100
AcDbLine
 62
7
  6
CONTINUOUS
 10
7.2759733858
 20
4.3093533711
 11
7.2692119389
 21
4.3066215692
  0
LINE
  5
31E
100
AcDbEntity
  8
0
100
AcDbLine
 62
7
  6
CONTINUOUS
 10
5.8097014295
 20
3.7242491266
 11
5.7876798559
 21
3.7170938836
  0
LINE
  5
31F
100
AcDbEntity
  8
0
100
AcDbLine
 62
7
  6
CONTINUOUS
 10
7.3562424495
 20
4.0608435828
 11
7.3632258298
 21
4.0629786164
  0
LINE
  5
320
100
AcDbEntity
  8
0
100
AcDbLine
 62
7
  6
CONTINUOUS
 10
7.6762520769
 20
4.155701215
 11
7.6832716551
 21
4.1577140467
  0
LINE
  5
321
100
AcDbEntity
  8
0
100
AcDbLine
 62
7
  6
CONTINUOUS
 10
4.3169151571
 20
4.9708245051
 11
4.3289531318
 21
4.9708245051
  0
LINE
  5
322
100
AcDbEntity
  8
0
100
AcDbLine
 62
7
  6
CONTINUOUS
 10
4.6313321943
 20
4.9708245051
 11
4.643370169
 21
4.9708245051
  0
LINE
  5
323
100
AcDbEntity
  8
0
100
AcDbLine
 62
7
  6
CONTINUOUS
 10
7.3539591103
 20
4.4166915123
 11
7.3468832719
 21
4.4184557169
  0
LINE
  5
324
100
AcDbEntity
  8
0
100
AcDbLine
 62
7
  6
CONTINUOUS
 10
7.6832716551
 20
4.3283154564
 11
7.6762520769
 21
4.3303282881
  0
LINE
  5
325
100
AcDbEntity
  8
0
100
AcDbLine
 62
7
  6
CONTINUOUS
 10
7.3632258298
 20
4.4230508867
 11
7.3562424495
 21
4.4251859204
  0
LINE
  5
326
100
AcDbEntity
  8
0
100
AcDbLine
 62
7
  6
CONTINUOUS
 10
7.2692119389
 20
4.1794079339
 11
7.2759733858
 21
4.176676132
  0
LINE
  5
327
100
AcDbEntity
  8
0
100
AcDbLine
 62
7
  6
CONTINUOUS
 10
7.5776001131
 20
4.0517437362
 11
7.5843220659
 21
4.0488904366
  0
LINE
  5
328
100
AcDbEntity
  8
0
100
AcDbLine
 62
7
  6
CONTINUOUS
 10
7.2661705558
 20
4.1905406151
 11
7.2727888351
 21
4.1874544608
  0
LINE
  5
329
100
AcDbEntity
  8
0
100
AcDbLine
 62
7
  6
CONTINUOUS
 10
7.5674561996
 20
4.0469053377
 11
7.57401961
 21
4.0437041485
  0
LINE
  5
32A
100
AcDbEntity
  8
0
100
AcDbLine
 62
7
  6
CONTINUOUS
 10
6.055142663
 20
3.7468932986
 11
6.055142663
 21
3.7475141345
  0
LINE
  5
32B
100
AcDbEntity
  8
0
100
AcDbLine
 62
7
  6
CONTINUOUS
 10
6.0687483682
 20
3.7448339875
 11
6.0687483682
 21
3.7455838715
  0
LINE
  5
32C
100
AcDbEntity
  8
0
100
AcDbLine
 62
7
  6
CONTINUOUS
 10
6.0709983682
 20
3.7443968026
 11
6.0709983682
 21
3.7447767701
  0
LINE
  5
32D
100
AcDbEntity
  8
0
100
AcDbLine
 62
7
  6
CONTINUOUS
 10
6.0814469586
 20
3.7426437158
 11
6.0814469586
 21
3.7430248476
  0
LINE
  5
32E
100
AcDbEntity
  8
0
100
AcDbLine
 62
7
  6
CONTINUOUS
 10
6.0985226653
 20
3.7397157305
 11
6.0985226653
 21
3.7400988227
  0
LINE
  5
32F
100
AcDbEntity
  8
0
100
AcDbLine
 62
7
  6
CONTINUOUS
 10
6.100390508
 20
3.7394212874
 11
6.100390508
 21
3.7398045779
  0
LINE
  5
330
100
AcDbEntity
  8
0
100
AcDbLine
 62
7
  6
CONTINUOUS
 10
6.108955163
 20
3.4388741266
 11
6.108955163
 21
3.3042491266
  0
LINE
  5
331
100
AcDbEntity
  8
0
100
AcDbLine
 62
7
  6
CONTINUOUS
 10
6.1222790824
 20
2.8296397516
 11
6.1222790824
 21
2.9233687725
  0
LINE
  5
332
100
AcDbEntity
  8
0
100
AcDbLine
 62
7
  6
CONTINUOUS
 10
6.1710199041
 20
3.5279994302
 11
6.1710199041
 21
3.6009988216
  0
LINE
  5
333
100
AcDbEntity
  8
0
100
AcDbLine
 62
7
  6
CONTINUOUS
 10
6.177955163
 20
3.709730663
 11
6.177955163
 21
3.6829991266
  0
LINE
  5
334
100
AcDbEntity
  8
0
100
AcDbLine
 62
7
  6
CONTINUOUS
 10
6.1793299167
 20
3.5063364744
 11
6.1793299167
 21
3.622661779
  0
LINE
  5
335
100
AcDbEntity
  8
0
100
AcDbLine
 62
7
  6
CONTINUOUS
 10
6.258017663
 20
2.8063897516
 11
6.258017663
 21
2.8296397516
  0
LINE
  5
336
100
AcDbEntity
  8
0
100
AcDbLine
 62
7
  6
CONTINUOUS
 10
5.6266387044
 20
3.5015788907
 11
5.595855233
 21
3.480024072
  0
LINE
  5
337
100
AcDbEntity
  8
0
100
AcDbLine
 62
7
  6
CONTINUOUS
 10
7.2681171093
 20
4.2765963002
 11
7.2618576766
 21
4.2728352536
  0
LINE
  5
338
100
AcDbEntity
  8
0
100
AcDbLine
 62
7
  6
CONTINUOUS
 10
6.177955163
 20
3.6829991266
 11
6.1678876177
 21
3.6771866266
  0
LINE
  5
339
100
AcDbEntity
  8
0
100
AcDbLine
 62
7
  6
CONTINUOUS
 10
7.5634598439
 20
4.4469653461
 11
7.5570729657
 21
4.4434250417
  0
LINE
  5
33A
100
AcDbEntity
  8
0
100
AcDbLine
 62
7
  6
CONTINUOUS
 10
7.2701652054
 20
4.287646838
 11
7.2637175131
 21
4.2842185392
  0
LINE
  5
33B
100
AcDbEntity
  8
0
100
AcDbLine
 62
7
  6
CONTINUOUS
 10
7.57401961
 20
4.4423253546
 11
7.5674561996
 21
4.4391241654
  0
LINE
  5
33C
100
AcDbEntity
  8
0
100
AcDbLine
 62
7
  6
CONTINUOUS
 10
7.3759632602
 20
4.0488904366
 11
7.382685213
 21
4.0517437362
  0
LINE
  5
33D
100
AcDbEntity
  8
0
100
AcDbLine
 62
7
  6
CONTINUOUS
 10
7.6843119403
 20
4.176676132
 11
7.6910733872
 21
4.1794079339
  0
LINE
  5
33E
100
AcDbEntity
  8
0
100
AcDbLine
 62
7
  6
CONTINUOUS
 10
7.3659463528
 20
4.0546088059
 11
7.3728084236
 21
4.0571063954
  0
LINE
  5
33F
100
AcDbEntity
  8
0
100
AcDbLine
 62
7
  6
CONTINUOUS
 10
7.6805529532
 20
4.1660844489
 11
7.6874575678
 21
4.1684618984
  0
LINE
  5
340
100
AcDbEntity
  8
0
100
AcDbLine
 62
7
  6
CONTINUOUS
 10
6.177955163
 20
3.4579991266
 11
6.119080163
 21
3.4388741266
  0
LINE
  5
341
100
AcDbEntity
  8
0
100
AcDbLine
 62
7
  6
CONTINUOUS
 10
7.6874575678
 20
4.3175676047
 11
7.6805529532
 21
4.3199450542
  0
LINE
  5
342
100
AcDbEntity
  8
0
100
AcDbLine
 62
7
  6
CONTINUOUS
 10
7.3728084236
 20
4.4289231077
 11
7.3659463528
 21
4.4314206973
  0
LINE
  5
343
100
AcDbEntity
  8
0
100
AcDbLine
 62
7
  6
CONTINUOUS
 10
7.6910733872
 20
4.3066215692
 11
7.6843119403
 21
4.3093533711
  0
LINE
  5
344
100
AcDbEntity
  8
0
100
AcDbLine
 62
7
  6
CONTINUOUS
 10
7.382685213
 20
4.4342857669
 11
7.3759632602
 21
4.4371390665
  0
LINE
  5
345
100
AcDbEntity
  8
0
100
AcDbLine
 62
7
  6
CONTINUOUS
 10
7.2637175131
 20
4.2018109639
 11
7.2701652054
 21
4.1983826651
  0
LINE
  5
346
100
AcDbEntity
  8
0
100
AcDbLine
 62
7
  6
CONTINUOUS
 10
7.5570729657
 20
4.0426044614
 11
7.5634598439
 21
4.039064157
  0
LINE
  5
347
100
AcDbEntity
  8
0
100
AcDbLine
 62
7
  6
CONTINUOUS
 10
7.2618576766
 20
4.2131942495
 11
7.2681171093
 21
4.2094332029
  0
LINE
  5
348
100
AcDbEntity
  8
0
100
AcDbLine
 62
7
  6
CONTINUOUS
 10
7.5464812826
 20
4.0388454743
 11
7.5526656355
 21
4.0349810617
  0
LINE
  5
349
100
AcDbEntity
  8
0
100
AcDbLine
 62
7
  6
CONTINUOUS
 10
6.2644155018
 20
2.8296397516
 11
6.2644155018
 21
2.9233689548
  0
LINE
  5
34A
100
AcDbEntity
  8
0
100
AcDbLine
 62
7
  6
CONTINUOUS
 10
6.3148814786
 20
3.4929051416
 11
6.3148814786
 21
3.6360931115
  0
LINE
  5
34B
100
AcDbEntity
  8
0
100
AcDbLine
 62
7
  6
CONTINUOUS
 10
6.324205163
 20
3.4935900429
 11
6.324205163
 21
3.6354082102
  0
LINE
  5
34C
100
AcDbEntity
  8
0
100
AcDbLine
 62
7
  6
CONTINUOUS
 10
6.3336466217
 20
3.5015788907
 11
6.3336466217
 21
3.6274193624
  0
LINE
  5
34D
100
AcDbEntity
  8
0
100
AcDbLine
 62
7
  6
CONTINUOUS
 10
6.364430093
 20
3.480024072
 11
6.364430093
 21
3.6489741811
  0
LINE
  5
34E
100
AcDbEntity
  8
0
100
AcDbLine
 62
7
  6
CONTINUOUS
 10
5.7496549152
 20
3.1332768059
 11
5.777455163
 21
3.1729959161
  0
LINE
  5
34F
100
AcDbEntity
  8
0
100
AcDbLine
 62
7
  6
CONTINUOUS
 10
7.530529169
 20
4.4574880545
 11
7.5247747495
 21
4.4529922092
  0
LINE
  5
350
100
AcDbEntity
  8
0
100
AcDbLine
 62
7
  6
CONTINUOUS
 10
7.2657683798
 20
4.2542496317
 11
7.2599363733
 21
4.2498548996
  0
LINE
  5
351
100
AcDbEntity
  8
0
100
AcDbLine
 62
7
  6
CONTINUOUS
 10
6.3336466217
 20
3.6274193624
 11
6.364430093
 21
3.6489741811
  0
LINE
  5
352
100
AcDbEntity
  8
0
100
AcDbLine
 62
7
  6
CONTINUOUS
 10
7.5416847815
 20
4.4545571003
 11
7.5357029538
 21
4.4503685795
  0
LINE
  5
353
100
AcDbEntity
  8
0
100
AcDbLine
 62
7
  6
CONTINUOUS
 10
7.2666501605
 20
4.2654537178
 11
7.2605961441
 21
4.2613702322
  0
LINE
  5
354
100
AcDbEntity
  8
0
100
AcDbLine
 62
7
  6
CONTINUOUS
 10
7.5526656355
 20
4.4510484414
 11
7.5464812826
 21
4.4471840288
  0
LINE
  5
355
100
AcDbEntity
  8
0
100
AcDbLine
 62
7
  6
CONTINUOUS
 10
7.3968254822
 20
4.039064157
 11
7.4032123604
 21
4.0426044614
  0
LINE
  5
356
100
AcDbEntity
  8
0
100
AcDbLine
 62
7
  6
CONTINUOUS
 10
7.6901201207
 20
4.1983826651
 11
7.696567813
 21
4.2018109639
  0
LINE
  5
357
100
AcDbEntity
  8
0
100
AcDbLine
 62
7
  6
CONTINUOUS
 10
7.3862657161
 20
4.0437041485
 11
7.3928291265
 21
4.0469053377
  0
LINE
  5
358
100
AcDbEntity
  8
0
100
AcDbLine
 62
7
  6
CONTINUOUS
 10
7.687496491
 20
4.1874544608
 11
7.6941147702
 21
4.1905406151
  0
LINE
  5
359
100
AcDbEntity
  8
0
100
AcDbLine
 62
7
  6
CONTINUOUS
 10
4.358267663
 20
5.4178897516
 11
4.362955163
 21
5.4178897516
  0
LINE
  5
35A
100
AcDbEntity
  8
0
100
AcDbLine
 62
7
  6
CONTINUOUS
 10
4.597330163
 20
5.4178897516
 11
4.602017663
 21
5.4178897516
  0
LINE
  5
35B
100
AcDbEntity
  8
0
100
AcDbLine
 62
7
  6
CONTINUOUS
 10
4.362955163
 20
5.4310147516
 11
4.3517051715
 21
5.4310147516
  0
LINE
  5
35C
100
AcDbEntity
  8
0
100
AcDbLine
 62
7
  6
CONTINUOUS
 10
4.597330163
 20
5.4310147516
 11
4.6085801546
 21
5.4310147516
  0
LINE
  5
35D
100
AcDbEntity
  8
0
100
AcDbLine
 62
7
  6
CONTINUOUS
 10
4.362955163
 20
5.5303897516
 11
4.351705163
 21
5.5303897516
  0
LINE
  5
35E
100
AcDbEntity
  8
0
100
AcDbLine
 62
7
  6
CONTINUOUS
 10
4.597330163
 20
5.5303897516
 11
4.608580163
 21
5.5303897516
  0
LINE
  5
35F
100
AcDbEntity
  8
0
100
AcDbLine
 62
7
  6
CONTINUOUS
 10
4.362955163
 20
5.5391886618
 11
4.3559450505
 21
5.5391886618
  0
LINE
  5
360
100
AcDbEntity
  8
0
100
AcDbLine
 62
7
  6
CONTINUOUS
 10
4.597330163
 20
5.5391886618
 11
4.6043402756
 21
5.5391886618
  0
LINE
  5
361
100
AcDbEntity
  8
0
100
AcDbLine
 62
7
  6
CONTINUOUS
 10
7.6941147702
 20
4.295488888
 11
7.687496491
 21
4.2985750423
  0
LINE
  5
362
100
AcDbEntity
  8
0
100
AcDbLine
 62
7
  6
CONTINUOUS
 10
7.3928291265
 20
4.4391241654
 11
7.3862657161
 21
4.4423253546
  0
LINE
  5
363
100
AcDbEntity
  8
0
100
AcDbLine
 62
7
  6
CONTINUOUS
 10
7.696567813
 20
4.2842185392
 11
7.6901201207
 21
4.287646838
  0
LINE
  5
364
100
AcDbEntity
  8
0
100
AcDbLine
 62
7
  6
CONTINUOUS
 10
7.4032123604
 20
4.4434250417
 11
7.3968254822
 21
4.4469653461
  0
LINE
  5
365
100
AcDbEntity
  8
0
100
AcDbLine
 62
7
  6
CONTINUOUS
 10
7.2605961441
 20
4.2246592709
 11
7.2666501605
 21
4.2205757853
  0
LINE
  5
366
100
AcDbEntity
  8
0
100
AcDbLine
 62
7
  6
CONTINUOUS
 10
7.5357029538
 20
4.0356609236
 11
7.5416847815
 21
4.0314724028
  0
LINE
  5
367
100
AcDbEntity
  8
0
100
AcDbLine
 62
7
  6
CONTINUOUS
 10
7.2599363733
 20
4.2361746035
 11
7.2657683798
 21
4.2317798714
  0
LINE
  5
368
100
AcDbEntity
  8
0
100
AcDbLine
 62
7
  6
CONTINUOUS
 10
7.5247747495
 20
4.0330372939
 11
7.530529169
 21
4.0285414486
  0
LINE
  5
369
100
AcDbEntity
  8
0
100
AcDbLine
 62
7
  6
CONTINUOUS
 10
5.6958717791
 20
2.9233689278
 11
5.7397063732
 21
2.9670772516
  0
LINE
  5
36A
100
AcDbEntity
  8
0
100
AcDbLine
 62
7
  6
CONTINUOUS
 10
7.5078345817
 20
4.4615799713
 11
7.5025816293
 21
4.4565072541
  0
LINE
  5
36B
100
AcDbEntity
  8
0
100
AcDbLine
 62
7
  6
CONTINUOUS
 10
7.2657683798
 20
4.2317798714
 11
7.2604276963
 21
4.2267996035
  0
LINE
  5
36C
100
AcDbEntity
  8
0
100
AcDbLine
 62
7
  6
CONTINUOUS
 10
7.5192354507
 20
4.4598311523
 11
7.5137242117
 21
4.4550403053
  0
LINE
  5
36D
100
AcDbEntity
  8
0
100
AcDbLine
 62
7
  6
CONTINUOUS
 10
7.2654663807
 20
4.2430147516
 11
7.2598800357
 21
4.2383272516
  0
LINE
  5
36E
100
AcDbEntity
  8
0
100
AcDbLine
 62
7
  6
CONTINUOUS
 10
7.4186005446
 20
4.0314724028
 11
7.4245823723
 21
4.0356609236
  0
LINE
  5
36F
100
AcDbEntity
  8
0
100
AcDbLine
 62
7
  6
CONTINUOUS
 10
7.6936351656
 20
4.2205757853
 11
7.699689182
 21
4.2246592709
  0
LINE
  5
370
100
AcDbEntity
  8
0
100
AcDbLine
 62
7
  6
CONTINUOUS
 10
7.4076196906
 20
4.0349810617
 11
7.4138040435
 21
4.0388454743
  0
LINE
  5
371
100
AcDbEntity
  8
0
100
AcDbLine
 62
7
  6
CONTINUOUS
 10
7.6921682168
 20
4.2094332029
 11
7.6984276495
 21
4.2131942495
  0
LINE
  5
372
100
AcDbEntity
  8
0
100
AcDbLine
 62
7
  6
CONTINUOUS
 10
4.4568587859
 20
5.6710147516
 11
4.362955163
 21
5.6710147516
  0
LINE
  5
373
100
AcDbEntity
  8
0
100
AcDbLine
 62
7
  6
CONTINUOUS
 10
4.5034265402
 20
5.6710147516
 11
4.597330163
 21
5.6710147516
  0
LINE
  5
374
100
AcDbEntity
  8
0
100
AcDbLine
 62
7
  6
CONTINUOUS
 10
4.620205163
 20
5.6946397516
 11
4.3400802569
 21
5.6946397516
  0
LINE
  5
375
100
AcDbEntity
  8
0
100
AcDbLine
 62
7
  6
CONTINUOUS
 10
4.306330163
 20
5.7283897516
 11
4.653955163
 21
5.7283897516
  0
LINE
  5
376
100
AcDbEntity
  8
0
100
AcDbLine
 62
7
  6
CONTINUOUS
 10
4.306330163
 20
5.7486397516
 11
4.653955163
 21
5.7486397516
  0
LINE
  5
377
100
AcDbEntity
  8
0
100
AcDbLine
 62
7
  6
CONTINUOUS
 10
7.6984276495
 20
4.2728352536
 11
7.6921682168
 21
4.2765963002
  0
LINE
  5
378
100
AcDbEntity
  8
0
100
AcDbLine
 62
7
  6
CONTINUOUS
 10
7.4138040435
 20
4.4471840288
 11
7.4076196906
 21
4.4510484414
  0
LINE
  5
379
100
AcDbEntity
  8
0
100
AcDbLine
 62
7
  6
CONTINUOUS
 10
7.699689182
 20
4.2613702322
 11
7.6936351656
 21
4.2654537178
  0
LINE
  5
37A
100
AcDbEntity
  8
0
100
AcDbLine
 62
7
  6
CONTINUOUS
 10
7.4245823723
 20
4.4503685795
 11
7.4186005446
 21
4.4545571003
  0
LINE
  5
37B
100
AcDbEntity
  8
0
100
AcDbLine
 62
7
  6
CONTINUOUS
 10
7.2598800357
 20
4.2477022516
 11
7.2654663807
 21
4.2430147516
  0
LINE
  5
37C
100
AcDbEntity
  8
0
100
AcDbLine
 62
7
  6
CONTINUOUS
 10
7.5137242117
 20
4.0309891978
 11
7.5192354507
 21
4.0261983509
  0
LINE
  5
37D
100
AcDbEntity
  8
0
100
AcDbLine
 62
7
  6
CONTINUOUS
 10
7.2604276963
 20
4.2592298996
 11
7.2657683798
 21
4.2542496317
  0
LINE
  5
37E
100
AcDbEntity
  8
0
100
AcDbLine
 62
7
  6
CONTINUOUS
 10
7.5025816293
 20
4.029522249
 11
7.5078345817
 21
4.0244495318
  0
LINE
  5
37F
100
AcDbEntity
  8
0
100
AcDbLine
 62
7
  6
CONTINUOUS
 10
7.2615774433
 20
4.2707066702
 11
7.2666501605
 21
4.2654537178
  0
LINE
  5
380
100
AcDbEntity
  8
0
100
AcDbLine
 62
7
  6
CONTINUOUS
 10
7.473302515
 20
4.4632210413
 11
7.4689077829
 21
4.4573890348
  0
LINE
  5
381
100
AcDbEntity
  8
0
100
AcDbLine
 62
7
  6
CONTINUOUS
 10
7.2701652054
 20
4.1983826651
 11
7.2656693601
 21
4.1926282456
  0
LINE
  5
382
100
AcDbEntity
  8
0
100
AcDbLine
 62
7
  6
CONTINUOUS
 10
7.484830163
 20
4.4632773789
 11
7.480142663
 21
4.4576910339
  0
LINE
  5
383
100
AcDbEntity
  8
0
100
AcDbLine
 62
7
  6
CONTINUOUS
 10
7.2681171093
 20
4.2094332029
 11
7.2633262623
 21
4.2039219639
  0
LINE
  5
384
100
AcDbEntity
  8
0
100
AcDbLine
 62
7
  6
CONTINUOUS
 10
7.4963578111
 20
4.4627297183
 11
7.4913775432
 21
4.4573890348
  0
LINE
  5
385
100
AcDbEntity
  8
0
100
AcDbLine
 62
7
  6
CONTINUOUS
 10
7.2666501605
 20
4.2205757853
 11
7.2615774433
 21
4.2153228329
  0
LINE
  5
386
100
AcDbEntity
  8
0
100
AcDbLine
 62
7
  6
CONTINUOUS
 10
7.6945169463
 20
4.2542496317
 11
7.6998576298
 21
4.2592298996
  0
LINE
  5
387
100
AcDbEntity
  8
0
100
AcDbLine
 62
7
  6
CONTINUOUS
 10
7.4410498754
 20
4.0261983509
 11
7.4465611144
 21
4.0309891978
  0
LINE
  5
388
100
AcDbEntity
  8
0
100
AcDbLine
 62
7
  6
CONTINUOUS
 10
7.6948189454
 20
4.2430147516
 11
7.7004052904
 21
4.2477022516
  0
LINE
  5
389
100
AcDbEntity
  8
0
100
AcDbLine
 62
7
  6
CONTINUOUS
 10
7.4297561571
 20
4.0285414486
 11
7.4355105766
 21
4.0330372939
  0
LINE
  5
38A
100
AcDbEntity
  8
0
100
AcDbLine
 62
7
  6
CONTINUOUS
 10
7.6945169463
 20
4.2317798714
 11
7.7003489528
 21
4.2361746035
  0
LINE
  5
38B
100
AcDbEntity
  8
0
100
AcDbLine
 62
7
  6
CONTINUOUS
 10
4.620205163
 20
5.7823897516
 11
4.3400802569
 21
5.7823897516
  0
LINE
  5
38C
100
AcDbEntity
  8
0
100
AcDbLine
 62
7
  6
CONTINUOUS
 10
4.362955163
 20
5.7940147516
 11
4.597330163
 21
5.7940147516
  0
LINE
  5
38D
100
AcDbEntity
  8
0
100
AcDbLine
 62
7
  6
CONTINUOUS
 10
4.362955163
 20
5.8060147516
 11
4.597330163
 21
5.8060147516
  0
LINE
  5
38E
100
AcDbEntity
  8
0
100
AcDbLine
 62
7
  6
CONTINUOUS
 10
4.550455163
 20
5.8528897516
 11
4.409830163
 21
5.8528897516
  0
LINE
  5
38F
100
AcDbEntity
  8
0
100
AcDbLine
 62
7
  6
CONTINUOUS
 10
7.7003489528
 20
4.2498548996
 11
7.6945169463
 21
4.2542496317
  0
LINE
  5
390
100
AcDbEntity
  8
0
100
AcDbLine
 62
7
  6
CONTINUOUS
 10
7.4355105766
 20
4.4529922092
 11
7.4297561571
 21
4.4574880545
  0
LINE
  5
391
100
AcDbEntity
  8
0
100
AcDbLine
 62
7
  6
CONTINUOUS
 10
7.7004052904
 20
4.2383272516
 11
7.6948189454
 21
4.2430147516
  0
LINE
  5
392
100
AcDbEntity
  8
0
100
AcDbLine
 62
7
  6
CONTINUOUS
 10
7.4465611144
 20
4.4550403053
 11
7.4410498754
 21
4.4598311523
  0
LINE
  5
393
100
AcDbEntity
  8
0
100
AcDbLine
 62
7
  6
CONTINUOUS
 10
7.6998576298
 20
4.2267996035
 11
7.6945169463
 21
4.2317798714
  0
LINE
  5
394
100
AcDbEntity
  8
0
100
AcDbLine
 62
7
  6
CONTINUOUS
 10
7.4913775432
 20
4.0286404683
 11
7.4963578111
 21
4.0232997848
  0
LINE
  5
395
100
AcDbEntity
  8
0
100
AcDbLine
 62
7
  6
CONTINUOUS
 10
7.2633262623
 20
4.2821075392
 11
7.2681171093
 21
4.2765963002
  0
LINE
  5
396
100
AcDbEntity
  8
0
100
AcDbLine
 62
7
  6
CONTINUOUS
 10
7.480142663
 20
4.0283384692
 11
7.484830163
 21
4.0227521242
  0
LINE
  5
397
100
AcDbEntity
  8
0
100
AcDbLine
 62
7
  6
CONTINUOUS
 10
7.3441507065
 20
4.0754760213
 11
7.3437831344
 21
4.0759402594
  0
LINE
  5
398
100
AcDbEntity
  8
0
100
AcDbLine
 62
7
  6
CONTINUOUS
 10
7.2656693601
 20
4.2934012575
 11
7.2701652054
 21
4.287646838
  0
LINE
  5
399
100
AcDbEntity
  8
0
100
AcDbLine
 62
7
  6
CONTINUOUS
 10
7.4689077829
 20
4.0286404683
 11
7.473302515
 21
4.0228084618
  0
LINE
  5
39A
100
AcDbEntity
  8
0
100
AcDbLine
 62
7
  6
CONTINUOUS
 10
7.039517663
 20
2.6732647516
 11
7.039517663
 21
2.7051397516
  0
LINE
  5
39B
100
AcDbEntity
  8
0
100
AcDbLine
 62
7
  6
CONTINUOUS
 10
7.4389388754
 20
4.4594399015
 11
7.4355105766
 21
4.4529922092
  0
LINE
  5
39C
100
AcDbEntity
  8
0
100
AcDbLine
 62
7
  6
CONTINUOUS
 10
7.2797323729
 20
4.1660844489
 11
7.2761920685
 21
4.1596975707
  0
LINE
  5
39D
100
AcDbEntity
  8
0
100
AcDbLine
 62
7
  6
CONTINUOUS
 10
7.450322161
 20
4.461299738
 11
7.4465611144
 21
4.4550403053
  0
LINE
  5
39E
100
AcDbEntity
  8
0
100
AcDbLine
 62
7
  6
CONTINUOUS
 10
7.2759733858
 20
4.176676132
 11
7.2721089732
 21
4.1704917791
  0
LINE
  5
39F
100
AcDbEntity
  8
0
100
AcDbLine
 62
7
  6
CONTINUOUS
 10
7.4617871824
 20
4.4625612705
 11
7.4577036968
 21
4.4565072541
  0
LINE
  5
3A0
100
AcDbEntity
  8
0
100
AcDbLine
 62
7
  6
CONTINUOUS
 10
7.2727888351
 20
4.1874544608
 11
7.2686003143
 21
4.1814726331
  0
LINE
  5
3A1
100
AcDbEntity
  8
0
100
AcDbLine
 62
7
  6
CONTINUOUS
 10
7.475455163
 20
4.0227521242
 11
7.480142663
 21
4.0283384692
  0
LINE
  5
3A2
100
AcDbEntity
  8
0
100
AcDbLine
 62
7
  6
CONTINUOUS
 10
7.6921682168
 20
4.2765963002
 11
7.6969590637
 21
4.2821075392
  0
LINE
  5
3A3
100
AcDbEntity
  8
0
100
AcDbLine
 62
7
  6
CONTINUOUS
 10
7.463927515
 20
4.0232997848
 11
7.4689077829
 21
4.0286404683
  0
LINE
  5
3A4
100
AcDbEntity
  8
0
100
AcDbLine
 62
7
  6
CONTINUOUS
 10
7.6936351656
 20
4.2654537178
 11
7.6987078828
 21
4.2707066702
  0
LINE
  5
3A5
100
AcDbEntity
  8
0
100
AcDbLine
 62
7
  6
CONTINUOUS
 10
7.4524507444
 20
4.0244495318
 11
7.4577036968
 21
4.029522249
  0
LINE
  5
3A6
100
AcDbEntity
  8
0
100
AcDbLine
 62
7
  6
CONTINUOUS
 10
7.4577036968
 20
4.4565072541
 11
7.4524507444
 21
4.4615799713
  0
LINE
  5
3A7
100
AcDbEntity
  8
0
100
AcDbLine
 62
7
  6
CONTINUOUS
 10
7.6987078828
 20
4.2153228329
 11
7.6936351656
 21
4.2205757853
  0
LINE
  5
3A8
100
AcDbEntity
  8
0
100
AcDbLine
 62
7
  6
CONTINUOUS
 10
7.4689077829
 20
4.4573890348
 11
7.463927515
 21
4.4627297183
  0
LINE
  5
3A9
100
AcDbEntity
  8
0
100
AcDbLine
 62
7
  6
CONTINUOUS
 10
7.6969590637
 20
4.2039219639
 11
7.6921682168
 21
4.2094332029
  0
LINE
  5
3AA
100
AcDbEntity
  8
0
100
AcDbLine
 62
7
  6
CONTINUOUS
 10
7.480142663
 20
4.4576910339
 11
7.475455163
 21
4.4632773789
  0
LINE
  5
3AB
100
AcDbEntity
  8
0
100
AcDbLine
 62
7
  6
CONTINUOUS
 10
7.2686003143
 20
4.30455687
 11
7.2727888351
 21
4.2985750423
  0
LINE
  5
3AC
100
AcDbEntity
  8
0
100
AcDbLine
 62
7
  6
CONTINUOUS
 10
7.4577036968
 20
4.029522249
 11
7.4617871824
 21
4.0234682326
  0
LINE
  5
3AD
100
AcDbEntity
  8
0
100
AcDbLine
 62
7
  6
CONTINUOUS
 10
7.2721089732
 20
4.315537724
 11
7.2759733858
 21
4.3093533711
  0
LINE
  5
3AE
100
AcDbEntity
  8
0
100
AcDbLine
 62
7
  6
CONTINUOUS
 10
7.4465611144
 20
4.0309891978
 11
7.450322161
 21
4.0247297651
  0
LINE
  5
3AF
100
AcDbEntity
  8
0
100
AcDbLine
 62
7
  6
CONTINUOUS
 10
7.2761920685
 20
4.3263319324
 11
7.2797323729
 21
4.3199450542
  0
LINE
  5
3B0
100
AcDbEntity
  8
0
100
AcDbLine
 62
7
  6
CONTINUOUS
 10
7.4355105766
 20
4.0330372939
 11
7.4389388754
 21
4.0265896016
  0
LINE
  5
3B1
100
AcDbEntity
  8
0
100
AcDbLine
 62
7
  6
CONTINUOUS
 10
7.28083206
 20
4.3368916985
 11
7.2840332492
 21
4.3303282881
  0
LINE
  5
3B2
100
AcDbEntity
  8
0
100
AcDbLine
 62
7
  6
CONTINUOUS
 10
7.288892663
 20
3.0336397516
 11
7.288892663
 21
2.9867647516
  0
LINE
  5
3B3
100
AcDbEntity
  8
0
100
AcDbLine
 62
7
  6
CONTINUOUS
 10
7.292642663
 20
3.9242647516
 11
7.292642663
 21
4.1273370259
  0
LINE
  5
3B4
100
AcDbEntity
  8
0
100
AcDbLine
 62
7
  6
CONTINUOUS
 10
7.292642663
 20
4.1313075066
 11
7.292642663
 21
4.1359611618
  0
LINE
  5
3B5
100
AcDbEntity
  8
0
100
AcDbLine
 62
7
  6
CONTINUOUS
 10
7.3206128937
 20
4.099373502
 11
7.3195965872
 21
4.0921421059
  0
LINE
  5
3B6
100
AcDbEntity
  8
0
100
AcDbLine
 62
7
  6
CONTINUOUS
 10
7.374076483
 20
4.4361146301
 11
7.3728084236
 21
4.4289231077
  0
LINE
  5
3B7
100
AcDbEntity
  8
0
100
AcDbLine
 62
7
  6
CONTINUOUS
 10
7.3133139216
 20
4.1079195004
 11
7.3119205459
 21
4.100751204
  0
LINE
  5
3B8
100
AcDbEntity
  8
0
100
AcDbLine
 62
7
  6
CONTINUOUS
 10
7.3843279098
 20
4.4414010684
 11
7.382685213
 21
4.4342857669
  0
LINE
  5
3B9
100
AcDbEntity
  8
0
100
AcDbLine
 62
7
  6
CONTINUOUS
 10
7.3064659023
 20
4.1168311988
 11
7.3047016977
 21
4.1097553604
  0
LINE
  5
3BA
100
AcDbEntity
  8
0
100
AcDbLine
 62
7
  6
CONTINUOUS
 10
7.3948419582
 20
4.4461437436
 11
7.3928291265
 21
4.4391241654
  0
LINE
  5
3BB
100
AcDbEntity
  8
0
100
AcDbLine
 62
7
  6
CONTINUOUS
 10
7.3001065279
 20
4.1260979183
 11
7.2979714942
 21
4.119114538
  0
LINE
  5
3BC
100
AcDbEntity
  8
0
100
AcDbLine
 62
7
  6
CONTINUOUS
 10
7.4055898099
 20
4.4503296563
 11
7.4032123604
 21
4.4434250417
  0
LINE
  5
3BD
100
AcDbEntity
  8
0
100
AcDbLine
 62
7
  6
CONTINUOUS
 10
7.2942343069
 20
4.1356805121
 11
7.2917367173
 21
4.1288184413
  0
LINE
  5
3BE
100
AcDbEntity
  8
0
100
AcDbLine
 62
7
  6
CONTINUOUS
 10
7.4165358454
 20
4.4539454757
 11
7.4138040435
 21
4.4471840288
  0
LINE
  5
3BF
100
AcDbEntity
  8
0
100
AcDbLine
 62
7
  6
CONTINUOUS
 10
7.2888716477
 20
4.1455573015
 11
7.286018348
 21
4.1388353487
  0
LINE
  5
3C0
100
AcDbEntity
  8
0
100
AcDbLine
 62
7
  6
CONTINUOUS
 10
7.4276685266
 20
4.4569868588
 11
7.4245823723
 21
4.4503685795
  0
LINE
  5
3C1
100
AcDbEntity
  8
0
100
AcDbLine
 62
7
  6
CONTINUOUS
 10
7.2840332492
 20
4.155701215
 11
7.28083206
 21
4.1491378046
  0
LINE
  5
3C2
100
AcDbEntity
  8
0
100
AcDbLine
 62
7
  6
CONTINUOUS
 10
7.5099631651
 20
4.0247297651
 11
7.5137242117
 21
4.0309891978
  0
LINE
  5
3C3
100
AcDbEntity
  8
0
100
AcDbLine
 62
7
  6
CONTINUOUS
 10
7.6843119403
 20
4.3093533711
 11
7.6881763529
 21
4.315537724
  0
LINE
  5
3C4
100
AcDbEntity
  8
0
100
AcDbLine
 62
7
  6
CONTINUOUS
 10
7.4984981437
 20
4.0234682326
 11
7.5025816293
 21
4.029522249
  0
LINE
  5
3C5
100
AcDbEntity
  8
0
100
AcDbLine
 62
7
  6
CONTINUOUS
 10
7.687496491
 20
4.2985750423
 11
7.6916850118
 21
4.30455687
  0
LINE
  5
3C6
100
AcDbEntity
  8
0
100
AcDbLine
 62
7
  6
CONTINUOUS
 10
7.4869828111
 20
4.0228084618
 11
7.4913775432
 21
4.0286404683
  0
LINE
  5
3C7
100
AcDbEntity
  8
0
100
AcDbLine
 62
7
  6
CONTINUOUS
 10
7.6165024672
 20
4.0759402058
 11
7.6161465011
 21
4.0754812737
  0
LINE
  5
3C8
100
AcDbEntity
  8
0
100
AcDbLine
 62
7
  6
CONTINUOUS
 10
7.6901201207
 20
4.287646838
 11
7.694615966
 21
4.2934012575
  0
LINE
  5
3C9
100
AcDbEntity
  8
0
100
AcDbLine
 62
7
  6
CONTINUOUS
 10
7.6165106324
 20
4.0759364945
 11
7.6161510222
 21
4.0754791097
  0
LINE
  5
3CA
100
AcDbEntity
  8
0
100
AcDbLine
 62
7
  6
CONTINUOUS
 10
7.694615966
 20
4.1926282456
 11
7.6901201207
 21
4.1983826651
  0
LINE
  5
3CB
100
AcDbEntity
  8
0
100
AcDbLine
 62
7
  6
CONTINUOUS
 10
7.4913775432
 20
4.4573890348
 11
7.4869828111
 21
4.4632210413
  0
LINE
  5
3CC
100
AcDbEntity
  8
0
100
AcDbLine
 62
7
  6
CONTINUOUS
 10
7.6916850118
 20
4.1814726331
 11
7.687496491
 21
4.1874544608
  0
LINE
  5
3CD
100
AcDbEntity
  8
0
100
AcDbLine
 62
7
  6
CONTINUOUS
 10
7.5025816293
 20
4.4565072541
 11
7.4984981437
 21
4.4625612705
  0
LINE
  5
3CE
100
AcDbEntity
  8
0
100
AcDbLine
 62
7
  6
CONTINUOUS
 10
7.6881763529
 20
4.1704917791
 11
7.6843119403
 21
4.176676132
  0
LINE
  5
3CF
100
AcDbEntity
  8
0
100
AcDbLine
 62
7
  6
CONTINUOUS
 10
7.5137242117
 20
4.4550403053
 11
7.5099631651
 21
4.461299738
  0
LINE
  5
3D0
100
AcDbEntity
  8
0
100
AcDbLine
 62
7
  6
CONTINUOUS
 10
7.4245823723
 20
4.0356609236
 11
7.4276685266
 21
4.0290426443
  0
LINE
  5
3D1
100
AcDbEntity
  8
0
100
AcDbLine
 62
7
  6
CONTINUOUS
 10
7.286018348
 20
4.3471941544
 11
7.2888716477
 21
4.3404722016
  0
LINE
  5
3D2
100
AcDbEntity
  8
0
100
AcDbLine
 62
7
  6
CONTINUOUS
 10
7.4138040435
 20
4.0388454743
 11
7.4165358454
 21
4.0320840274
  0
LINE
  5
3D3
100
AcDbEntity
  8
0
100
AcDbLine
 62
7
  6
CONTINUOUS
 10
7.2917367173
 20
4.3572110618
 11
7.2942343069
 21
4.350348991
  0
LINE
  5
3D4
100
AcDbEntity
  8
0
100
AcDbLine
 62
7
  6
CONTINUOUS
 10
7.4032123604
 20
4.0426044614
 11
7.4055898099
 21
4.0356998468
  0
LINE
  5
3D5
100
AcDbEntity
  8
0
100
AcDbLine
 62
7
  6
CONTINUOUS
 10
7.2979714942
 20
4.3669149651
 11
7.3001065279
 21
4.3599315848
  0
LINE
  5
3D6
100
AcDbEntity
  8
0
100
AcDbLine
 62
7
  6
CONTINUOUS
 10
7.3928291265
 20
4.0469053377
 11
7.3948419582
 21
4.0398857595
  0
LINE
  5
3D7
100
AcDbEntity
  8
0
100
AcDbLine
 62
7
  6
CONTINUOUS
 10
7.3047016977
 20
4.3762741427
 11
7.3064659023
 21
4.3691983043
  0
LINE
  5
3D8
100
AcDbEntity
  8
0
100
AcDbLine
 62
7
  6
CONTINUOUS
 10
7.382685213
 20
4.0517437362
 11
7.3843279098
 21
4.0446284347
  0
LINE
  5
3D9
100
AcDbEntity
  8
0
100
AcDbLine
 62
7
  6
CONTINUOUS
 10
7.3119205459
 20
4.3852782991
 11
7.3133139216
 21
4.3781100027
  0
LINE
  5
3DA
100
AcDbEntity
  8
0
100
AcDbLine
 62
7
  6
CONTINUOUS
 10
7.3728084236
 20
4.0571063954
 11
7.374076483
 21
4.049914873
  0
LINE
  5
3DB
100
AcDbEntity
  8
0
100
AcDbLine
 62
7
  6
CONTINUOUS
 10
7.3195965872
 20
4.3938873972
 11
7.3206128937
 21
4.3866560011
  0
LINE
  5
3DC
100
AcDbEntity
  8
0
100
AcDbLine
 62
7
  6
CONTINUOUS
 10
7.3277126742
 20
4.4020829639
 11
7.3283491259
 21
4.3948082887
  0
LINE
  5
3DD
100
AcDbEntity
  8
0
100
AcDbLine
 62
7
  6
CONTINUOUS
 10
7.3539591103
 20
4.0693379908
 11
7.3544678062
 21
4.0620632994
  0
LINE
  5
3DE
100
AcDbEntity
  8
0
100
AcDbLine
 62
7
  6
CONTINUOUS
 10
7.3362465612
 20
4.4098425356
 11
7.3365014135
 21
4.4025445209
  0
LINE
  5
3DF
100
AcDbEntity
  8
0
100
AcDbLine
 62
7
  6
CONTINUOUS
 10
7.3450474119
 20
4.0761860101
 11
7.3451748575
 21
4.0688846591
  0
LINE
  5
3E0
100
AcDbEntity
  8
0
100
AcDbLine
 62
7
  6
CONTINUOUS
 10
7.3451748575
 20
4.4171448441
 11
7.3450474119
 21
4.409843493
  0
LINE
  5
3E1
100
AcDbEntity
  8
0
100
AcDbLine
 62
7
  6
CONTINUOUS
 10
7.3365014135
 20
4.0834849822
 11
7.3362465612
 21
4.0761869675
  0
LINE
  5
3E2
100
AcDbEntity
  8
0
100
AcDbLine
 62
7
  6
CONTINUOUS
 10
7.3544678062
 20
4.4239662037
 11
7.3539591103
 21
4.4166915123
  0
LINE
  5
3E3
100
AcDbEntity
  8
0
100
AcDbLine
 62
7
  6
CONTINUOUS
 10
7.3283491259
 20
4.0912212144
 11
7.3277126742
 21
4.0839465392
  0
LINE
  5
3E4
100
AcDbEntity
  8
0
100
AcDbLine
 62
7
  6
CONTINUOUS
 10
7.3641157762
 20
4.4302989185
 11
7.3632258298
 21
4.4230508867
  0
LINE
  5
3E5
100
AcDbEntity
  8
0
100
AcDbLine
 62
7
  6
CONTINUOUS
 10
7.5654433679
 20
4.0398857595
 11
7.5674561996
 21
4.0469053377
  0
LINE
  5
3E6
100
AcDbEntity
  8
0
100
AcDbLine
 62
7
  6
CONTINUOUS
 10
7.6601787982
 20
4.3599315848
 11
7.6623138318
 21
4.3669149651
  0
LINE
  5
3E7
100
AcDbEntity
  8
0
100
AcDbLine
 62
7
  6
CONTINUOUS
 10
7.5546955162
 20
4.0356998468
 11
7.5570729657
 21
4.0426044614
  0
LINE
  5
3E8
100
AcDbEntity
  8
0
100
AcDbLine
 62
7
  6
CONTINUOUS
 10
7.6660510192
 20
4.350348991
 11
7.6685486087
 21
4.3572110618
  0
LINE
  5
3E9
100
AcDbEntity
  8
0
100
AcDbLine
 62
7
  6
CONTINUOUS
 10
7.5437494807
 20
4.0320840274
 11
7.5464812826
 21
4.0388454743
  0
LINE
  5
3EA
100
AcDbEntity
  8
0
100
AcDbLine
 62
7
  6
CONTINUOUS
 10
7.6714136783
 20
4.3404722016
 11
7.674266978
 21
4.3471941544
  0
LINE
  5
3EB
100
AcDbEntity
  8
0
100
AcDbLine
 62
7
  6
CONTINUOUS
 10
7.5326167995
 20
4.0290426443
 11
7.5357029538
 21
4.0356609236
  0
LINE
  5
3EC
100
AcDbEntity
  8
0
100
AcDbLine
 62
7
  6
CONTINUOUS
 10
7.6762520769
 20
4.3303282881
 11
7.6794532661
 21
4.3368916985
  0
LINE
  5
3ED
100
AcDbEntity
  8
0
100
AcDbLine
 62
7
  6
CONTINUOUS
 10
7.5213464507
 20
4.0265896016
 11
7.5247747495
 21
4.0330372939
  0
LINE
  5
3EE
100
AcDbEntity
  8
0
100
AcDbLine
 62
7
  6
CONTINUOUS
 10
7.6805529532
 20
4.3199450542
 11
7.6840932576
 21
4.3263319324
  0
LINE
  5
3EF
100
AcDbEntity
  8
0
100
AcDbLine
 62
7
  6
CONTINUOUS
 10
7.6840932576
 20
4.1596975707
 11
7.6805529532
 21
4.1660844489
  0
LINE
  5
3F0
100
AcDbEntity
  8
0
100
AcDbLine
 62
7
  6
CONTINUOUS
 10
7.5247747495
 20
4.4529922092
 11
7.5213464507
 21
4.4594399015
  0
LINE
  5
3F1
100
AcDbEntity
  8
0
100
AcDbLine
 62
7
  6
CONTINUOUS
 10
7.6794532661
 20
4.1491378046
 11
7.6762520769
 21
4.155701215
  0
LINE
  5
3F2
100
AcDbEntity
  8
0
100
AcDbLine
 62
7
  6
CONTINUOUS
 10
7.5357029538
 20
4.4503685795
 11
7.5326167995
 21
4.4569868588
  0
LINE
  5
3F3
100
AcDbEntity
  8
0
100
AcDbLine
 62
7
  6
CONTINUOUS
 10
7.674266978
 20
4.1388353487
 11
7.6714136783
 21
4.1455573015
  0
LINE
  5
3F4
100
AcDbEntity
  8
0
100
AcDbLine
 62
7
  6
CONTINUOUS
 10
7.5464812826
 20
4.4471840288
 11
7.5437494807
 21
4.4539454757
  0
LINE
  5
3F5
100
AcDbEntity
  8
0
100
AcDbLine
 62
7
  6
CONTINUOUS
 10
7.6685486087
 20
4.1288184413
 11
7.6660510192
 21
4.1356805121
  0
LINE
  5
3F6
100
AcDbEntity
  8
0
100
AcDbLine
 62
7
  6
CONTINUOUS
 10
7.5570729657
 20
4.4434250417
 11
7.5546955162
 21
4.4503296563
  0
LINE
  5
3F7
100
AcDbEntity
  8
0
100
AcDbLine
 62
7
  6
CONTINUOUS
 10
7.6623138318
 20
4.119114538
 11
7.6601787982
 21
4.1260979183
  0
LINE
  5
3F8
100
AcDbEntity
  8
0
100
AcDbLine
 62
7
  6
CONTINUOUS
 10
7.5674561996
 20
4.4391241654
 11
7.5654433679
 21
4.4461437436
  0
LINE
  5
3F9
100
AcDbEntity
  8
0
100
AcDbLine
 62
7
  6
CONTINUOUS
 10
7.3632258298
 20
4.0629786164
 11
7.3641157762
 21
4.0557305846
  0
LINE
  5
3FA
100
AcDbEntity
  8
0
100
AcDbLine
 62
7
  6
CONTINUOUS
 10
7.6325726518
 20
4.0839465392
 11
7.6319362002
 21
4.0912212144
  0
LINE
  5
3FB
100
AcDbEntity
  8
0
100
AcDbLine
 62
7
  6
CONTINUOUS
 10
7.6063262158
 20
4.4166915123
 11
7.6058175199
 21
4.4239662037
  0
LINE
  5
3FC
100
AcDbEntity
  8
0
100
AcDbLine
 62
7
  6
CONTINUOUS
 10
7.6240387648
 20
4.0761869675
 11
7.6237839125
 21
4.0834849822
  0
LINE
  5
3FD
100
AcDbEntity
  8
0
100
AcDbLine
 62
7
  6
CONTINUOUS
 10
7.6152379142
 20
4.409843493
 11
7.6151104686
 21
4.4171448441
  0
LINE
  5
3FE
100
AcDbEntity
  8
0
100
AcDbLine
 62
7
  6
CONTINUOUS
 10
7.667642663
 20
3.9242647516
 11
7.667642663
 21
4.1273370259
  0
LINE
  5
3FF
100
AcDbEntity
  8
0
100
AcDbLine
 62
7
  6
CONTINUOUS
 10
7.667642663
 20
4.1313075066
 11
7.667642663
 21
4.1359611618
  0
LINE
  5
400
100
AcDbEntity
  8
0
100
AcDbLine
 62
7
  6
CONTINUOUS
 10
7.671392663
 20
3.0336397516
 11
7.671392663
 21
2.9867647516
  0
LINE
  5
401
100
AcDbEntity
  8
0
100
AcDbLine
 62
7
  6
CONTINUOUS
 10
7.6151104686
 20
4.0688846591
 11
7.6152379142
 21
4.0761860101
  0
LINE
  5
402
100
AcDbEntity
  8
0
100
AcDbLine
 62
7
  6
CONTINUOUS
 10
7.6237839125
 20
4.4025445209
 11
7.6240387648
 21
4.4098425356
  0
LINE
  5
403
100
AcDbEntity
  8
0
100
AcDbLine
 62
7
  6
CONTINUOUS
 10
7.6058175199
 20
4.0620632994
 11
7.6063262158
 21
4.0693379908
  0
LINE
  5
404
100
AcDbEntity
  8
0
100
AcDbLine
 62
7
  6
CONTINUOUS
 10
7.6319362002
 20
4.3948082887
 11
7.6325726518
 21
4.4020829639
  0
LINE
  5
405
100
AcDbEntity
  8
0
100
AcDbLine
 62
7
  6
CONTINUOUS
 10
7.5961695499
 20
4.0557305846
 11
7.5970594963
 21
4.0629786164
  0
LINE
  5
406
100
AcDbEntity
  8
0
100
AcDbLine
 62
7
  6
CONTINUOUS
 10
7.6396724324
 20
4.3866560011
 11
7.6406887388
 21
4.3938873972
  0
LINE
  5
407
100
AcDbEntity
  8
0
100
AcDbLine
 62
7
  6
CONTINUOUS
 10
7.5862088431
 20
4.049914873
 11
7.5874769025
 21
4.0571063954
  0
LINE
  5
408
100
AcDbEntity
  8
0
100
AcDbLine
 62
7
  6
CONTINUOUS
 10
7.6469714045
 20
4.3781100027
 11
7.6483647802
 21
4.3852782991
  0
LINE
  5
409
100
AcDbEntity
  8
0
100
AcDbLine
 62
7
  6
CONTINUOUS
 10
7.5759574163
 20
4.0446284347
 11
7.5776001131
 21
4.0517437362
  0
LINE
  5
40A
100
AcDbEntity
  8
0
100
AcDbLine
 62
7
  6
CONTINUOUS
 10
7.6538194238
 20
4.3691983043
 11
7.6555836284
 21
4.3762741427
  0
LINE
  5
40B
100
AcDbEntity
  8
0
100
AcDbLine
 62
7
  6
CONTINUOUS
 10
7.6555836284
 20
4.1097553604
 11
7.6538194238
 21
4.1168311988
  0
LINE
  5
40C
100
AcDbEntity
  8
0
100
AcDbLine
 62
7
  6
CONTINUOUS
 10
7.5776001131
 20
4.4342857669
 11
7.5759574163
 21
4.4414010684
  0
LINE
  5
40D
100
AcDbEntity
  8
0
100
AcDbLine
 62
7
  6
CONTINUOUS
 10
7.6483647802
 20
4.100751204
 11
7.6469714045
 21
4.1079195004
  0
LINE
  5
40E
100
AcDbEntity
  8
0
100
AcDbLine
 62
7
  6
CONTINUOUS
 10
7.5874769025
 20
4.4289231077
 11
7.5862088431
 21
4.4361146301
  0
LINE
  5
40F
100
AcDbEntity
  8
0
100
AcDbLine
 62
7
  6
CONTINUOUS
 10
7.6406887388
 20
4.0921421059
 11
7.6396724324
 21
4.099373502
  0
LINE
  5
410
100
AcDbEntity
  8
0
100
AcDbLine
 62
7
  6
CONTINUOUS
 10
7.5970594963
 20
4.4230508867
 11
7.5961695499
 21
4.4302989185
  0
LINE
  5
411
100
AcDbEntity
  8
0
100
AcDbLine
 62
7
  6
CONTINUOUS
 10
7.920767663
 20
2.6732647516
 11
7.920767663
 21
2.7051397516
  0
LINE
  5
412
100
AcDbEntity
  8
0
100
AcDbLine
 62
7
  6
CONTINUOUS
 10
7.920767663
 20
2.6732647516
 11
7.913267663
 21
2.6657647516
  0
ARC
  5
413
100
AcDbEntity
  8
0
100
AcDbCircle
 62
7
  6
CONTINUOUS
 10
2.6078187047
 20
2.6657647516
 40
0.0701760417
100
AcDbArc
 50
92.1854050713
 51
180.0
  0
ARC
  5
414
100
AcDbEntity
  8
0
100
AcDbCircle
 62
7
  6
CONTINUOUS
 10
2.6752666604
 20
2.7362647516
 40
0.070125
100
AcDbArc
 50
90.0
 51
180.3063960032
  0
ARC
  5
415
100
AcDbEntity
  8
0
100
AcDbCircle
 62
7
  6
CONTINUOUS
 10
2.853580163
 20
3.3127315695
 40
1.5
100
AcDbArc
 50
347.6542069248
 51
18.4142808257
  0
ARC
  5
416
100
AcDbEntity
  8
0
100
AcDbCircle
 62
7
  6
CONTINUOUS
 10
2.5854405748
 20
3.3073909998
 40
0.234375
100
AcDbArc
 50
325.0110095298
 51
355.1903004544
  0
ARC
  5
417
100
AcDbEntity
  8
0
100
AcDbCircle
 62
7
  6
CONTINUOUS
 10
2.8123208334
 20
3.0894156003
 40
0.0764906704
100
AcDbArc
 50
145.0110095298
 51
213.0478355064
  0
ARC
  5
418
100
AcDbEntity
  8
0
100
AcDbCircle
 62
7
  6
CONTINUOUS
 10
2.6942897129
 20
3.0126251173
 40
0.0643217001
100
AcDbArc
 50
314.9173576842
 51
33.0478355064
  0
ARC
  5
419
100
AcDbEntity
  8
0
100
AcDbCircle
 62
7
  6
CONTINUOUS
 10
2.8305743299
 20
3.2867647516
 40
0.011625
100
AcDbArc
 50
90.0
 51
175.1903004543
  0
ARC
  5
41A
100
AcDbEntity
  8
0
100
AcDbCircle
 62
7
  6
CONTINUOUS
 10
3.3524666214
 20
2.6657647516
 40
0.0701760417
100
AcDbArc
 50
0.0
 51
87.8145949287
  0
ARC
  5
41B
100
AcDbEntity
  8
0
100
AcDbCircle
 62
7
  6
CONTINUOUS
 10
3.2850186657
 20
2.7362647516
 40
0.070125
100
AcDbArc
 50
359.6936039968
 51
90.0
  0
ARC
  5
41C
100
AcDbEntity
  8
0
100
AcDbCircle
 62
7
  6
CONTINUOUS
 10
2.980142663
 20
3.1708716045
 40
0.581502522
100
AcDbArc
 50
88.473827208
 51
91.6148836456
  0
ARC
  5
41D
100
AcDbEntity
  8
0
100
AcDbCircle
 62
7
  6
CONTINUOUS
 10
2.980142663
 20
3.1708716045
 40
0.581502522
100
AcDbArc
 50
75.2370022574
 51
82.8689275621
  0
ARC
  5
41E
100
AcDbEntity
  8
0
100
AcDbCircle
 62
7
  6
CONTINUOUS
 10
2.980142663
 20
3.1708716045
 40
0.581502522
100
AcDbArc
 50
99.221579184
 51
104.7629977426
  0
ARC
  5
41F
100
AcDbEntity
  8
0
100
AcDbCircle
 62
7
  6
CONTINUOUS
 10
2.980142663
 20
3.1708716045
 40
0.581502522
100
AcDbArc
 50
92.9572301428
 51
94.3827253199
  0
ARC
  5
420
100
AcDbEntity
  8
0
100
AcDbCircle
 62
7
  6
CONTINUOUS
 10
2.980142663
 20
3.1708716045
 40
0.581502522
100
AcDbArc
 50
84.2076250178
 51
87.1537590823
  0
ARC
  5
421
100
AcDbEntity
  8
0
100
AcDbCircle
 62
7
  6
CONTINUOUS
 10
2.980142663
 20
3.1708716045
 40
0.5815005874
100
AcDbArc
 50
96.0895835634
 51
97.5036217175
  0
ARC
  5
422
100
AcDbEntity
  8
0
100
AcDbCircle
 62
7
  6
CONTINUOUS
 10
2.980142663
 20
3.1708716045
 40
0.581127522
100
AcDbArc
 50
82.8687745639
 51
84.2038744154
  0
ARC
  5
423
100
AcDbEntity
  8
0
100
AcDbCircle
 62
7
  6
CONTINUOUS
 10
2.980142663
 20
3.1708716045
 40
0.581127522
100
AcDbArc
 50
94.3855590149
 51
95.870581611
  0
ARC
  5
424
100
AcDbEntity
  8
0
100
AcDbCircle
 62
7
  6
CONTINUOUS
 10
2.980142663
 20
3.1708716045
 40
0.581127522
100
AcDbArc
 50
97.7347337773
 51
99.2216419575
  0
ARC
  5
425
100
AcDbEntity
  8
0
100
AcDbCircle
 62
7
  6
CONTINUOUS
 10
2.980142663
 20
3.1708716045
 40
0.581127522
100
AcDbArc
 50
91.6159260019
 51
92.3356347889
  0
ARC
  5
426
100
AcDbEntity
  8
0
100
AcDbCircle
 62
7
  6
CONTINUOUS
 10
2.980142663
 20
3.1708716045
 40
0.581127522
100
AcDbArc
 50
87.7880901012
 51
88.4728421397
  0
ARC
  5
427
100
AcDbEntity
  8
0
100
AcDbCircle
 62
7
  6
CONTINUOUS
 10
2.980142663
 20
3.1708716045
 40
0.5806282524
100
AcDbArc
 50
93.7772047905
 51
96.4896726718
  0
ARC
  5
428
100
AcDbEntity
  8
0
100
AcDbCircle
 62
7
  6
CONTINUOUS
 10
2.980142663
 20
3.1708716045
 40
0.5806282524
100
AcDbArc
 50
97.1232192299
 51
99.8547367444
  0
ARC
  5
429
100
AcDbEntity
  8
0
100
AcDbCircle
 62
7
  6
CONTINUOUS
 10
2.980142663
 20
3.1708716045
 40
0.5806282524
100
AcDbArc
 50
82.1676580455
 51
84.8865797045
  0
ARC
  5
42A
100
AcDbEntity
  8
0
100
AcDbCircle
 62
7
  6
CONTINUOUS
 10
3.3748447513
 20
3.3073909998
 40
0.234375
100
AcDbArc
 50
184.8096995456
 51
214.9889904702
  0
ARC
  5
42B
100
AcDbEntity
  8
0
100
AcDbCircle
 62
7
  6
CONTINUOUS
 10
3.1479644926
 20
3.0894156003
 40
0.0764906704
100
AcDbArc
 50
326.9521644936
 51
34.9889904702
  0
ARC
  5
42C
100
AcDbEntity
  8
0
100
AcDbCircle
 62
7
  6
CONTINUOUS
 10
3.2659956132
 20
3.0126251173
 40
0.0643217001
100
AcDbArc
 50
146.9521644936
 51
225.0826423158
  0
ARC
  5
42D
100
AcDbEntity
  8
0
100
AcDbCircle
 62
7
  6
CONTINUOUS
 10
3.1297109962
 20
3.2867647516
 40
0.011625
100
AcDbArc
 50
4.8096995457
 51
90.0
  0
ARC
  5
42E
100
AcDbEntity
  8
0
100
AcDbCircle
 62
7
  6
CONTINUOUS
 10
3.2539973971
 20
3.4773895388
 40
0.51
100
AcDbArc
 50
157.6438963444
 51
161.2440132164
  0
ARC
  5
42F
100
AcDbEntity
  8
0
100
AcDbCircle
 62
7
  6
CONTINUOUS
 10
3.2532547059
 20
3.6537798074
 40
0.51
100
AcDbArc
 50
199.0137742001
 51
202.5744557109
  0
ARC
  5
430
100
AcDbEntity
  8
0
100
AcDbCircle
 62
7
  6
CONTINUOUS
 10
2.706287929
 20
3.4773895388
 40
0.51
100
AcDbArc
 50
18.7559867836
 51
22.3561036556
  0
ARC
  5
431
100
AcDbEntity
  8
0
100
AcDbCircle
 62
7
  6
CONTINUOUS
 10
2.7070306202
 20
3.6537798074
 40
0.51
100
AcDbArc
 50
337.4255442891
 51
340.9862257999
  0
ARC
  5
432
100
AcDbEntity
  8
0
100
AcDbCircle
 62
7
  6
CONTINUOUS
 10
2.8239142195
 20
4.0473242403
 40
0.309606825
100
AcDbArc
 50
280.5944555442
 51
280.736726952
  0
ARC
  5
433
100
AcDbEntity
  8
0
100
AcDbCircle
 62
7
  6
CONTINUOUS
 10
2.8767128055
 20
4.0461085727
 40
0.3006662464
100
AcDbArc
 50
277.2325181289
 51
277.38499048
  0
ARC
  5
434
100
AcDbEntity
  8
0
100
AcDbCircle
 62
7
  6
CONTINUOUS
 10
2.8747877722
 20
4.0456381312
 40
0.3000519219
100
AcDbArc
 50
276.2318580928
 51
276.3824038418
  0
ARC
  5
435
100
AcDbEntity
  8
0
100
AcDbCircle
 62
7
  6
CONTINUOUS
 10
2.926212809
 20
4.0463694187
 40
0.2961211569
100
AcDbArc
 50
272.883926406
 51
273.0352772252
  0
CIRCLE
  5
436
100
AcDbEntity
  8
0
100
AcDbCircle
 62
7
  6
CONTINUOUS
 10
2.980142663
 20
3.5644991266
 40
0.103125
  0
ARC
  5
437
100
AcDbEntity
  8
0
100
AcDbCircle
 62
7
  6
CONTINUOUS
 10
2.536705163
 20
3.5644991266
 40
0.103125
100
AcDbArc
 50
55.0
 51
305.0
  0
ARC
  5
438
100
AcDbEntity
  8
0
100
AcDbCircle
 62
7
  6
CONTINUOUS
 10
3.423580163
 20
3.5644991266
 40
0.103125
100
AcDbArc
 50
235.0
 51
125.0
  0
ARC
  5
439
100
AcDbEntity
  8
0
100
AcDbCircle
 62
7
  6
CONTINUOUS
 10
2.7139391784
 20
3.4289366266
 40
0.09375
100
AcDbArc
 50
47.7218710408
 51
136.9739483152
  0
ARC
  5
43A
100
AcDbEntity
  8
0
100
AcDbCircle
 62
7
  6
CONTINUOUS
 10
2.7139391784
 20
3.7000616266
 40
0.09375
100
AcDbArc
 50
223.0260516848
 51
312.2781290284
  0
ARC
  5
43B
100
AcDbEntity
  8
0
100
AcDbCircle
 62
7
  6
CONTINUOUS
 10
3.2463461477
 20
3.4289366266
 40
0.09375
100
AcDbArc
 50
43.0260516848
 51
132.2781289827
  0
ARC
  5
43C
100
AcDbEntity
  8
0
100
AcDbCircle
 62
7
  6
CONTINUOUS
 10
3.2463461477
 20
3.7000616266
 40
0.09375
100
AcDbArc
 50
227.7218709486
 51
316.9739483152
  0
ARC
  5
43D
100
AcDbEntity
  8
0
100
AcDbCircle
 62
7
  6
CONTINUOUS
 10
3.125455163
 20
3.7222990397
 40
0.01125
100
AcDbArc
 50
9.9831294818
 51
75.2370022574
  0
ARC
  5
43E
100
AcDbEntity
  8
0
100
AcDbCircle
 62
7
  6
CONTINUOUS
 10
2.834830163
 20
3.7222990397
 40
0.01125
100
AcDbArc
 50
104.7629977426
 51
170.0168705182
  0
ARC
  5
43F
100
AcDbEntity
  8
0
100
AcDbCircle
 62
7
  6
CONTINUOUS
 10
2.630080163
 20
3.4966639784
 40
0.006
100
AcDbArc
 50
0.0
 51
125.0
  0
ARC
  5
440
100
AcDbEntity
  8
0
100
AcDbCircle
 62
7
  6
CONTINUOUS
 10
2.630080163
 20
3.6323342747
 40
0.006
100
AcDbArc
 50
235.0
 51
360.0
  0
ARC
  5
441
100
AcDbEntity
  8
0
100
AcDbCircle
 62
7
  6
CONTINUOUS
 10
2.6410175863
 20
3.4969991266
 40
0.006
100
AcDbArc
 50
214.6234510997
 51
316.9739483152
  0
ARC
  5
442
100
AcDbEntity
  8
0
100
AcDbCircle
 62
7
  6
CONTINUOUS
 10
2.6410175863
 20
3.6319991266
 40
0.006
100
AcDbArc
 50
43.0260516848
 51
145.3765489003
  0
ARC
  5
443
100
AcDbEntity
  8
0
100
AcDbCircle
 62
7
  6
CONTINUOUS
 10
3.330205163
 20
3.4966639784
 40
0.006
100
AcDbArc
 50
55.0
 51
180.0
  0
ARC
  5
444
100
AcDbEntity
  8
0
100
AcDbCircle
 62
7
  6
CONTINUOUS
 10
3.330205163
 20
3.6323342747
 40
0.006
100
AcDbArc
 50
180.0
 51
305.0
  0
ARC
  5
445
100
AcDbEntity
  8
0
100
AcDbCircle
 62
7
  6
CONTINUOUS
 10
3.3192677398
 20
3.4969991266
 40
0.006
100
AcDbArc
 50
223.0260516848
 51
325.3765489003
  0
ARC
  5
446
100
AcDbEntity
  8
0
100
AcDbCircle
 62
7
  6
CONTINUOUS
 10
3.3192677398
 20
3.6319991266
 40
0.006
100
AcDbArc
 50
34.6234510997
 51
136.9739483152
  0
ARC
  5
447
100
AcDbEntity
  8
0
100
AcDbCircle
 62
7
  6
CONTINUOUS
 10
4.6492478139
 20
2.7964686508
 40
0.13875
100
AcDbArc
 50
4.100343755
 51
77.663276837
  0
ARC
  5
448
100
AcDbEntity
  8
0
100
AcDbCircle
 62
7
  6
CONTINUOUS
 10
4.3110375122
 20
2.7964686508
 40
0.13875
100
AcDbArc
 50
102.336723163
 51
175.899656245
  0
ARC
  5
449
100
AcDbEntity
  8
0
100
AcDbCircle
 62
7
  6
CONTINUOUS
 10
4.900067633
 20
2.8101397516
 40
0.09375
100
AcDbArc
 50
182.292442776
 51
270.0
  0
ARC
  5
44A
100
AcDbEntity
  8
0
100
AcDbCircle
 62
7
  6
CONTINUOUS
 10
4.0602176931
 20
2.8101397516
 40
0.09375
100
AcDbArc
 50
270.0
 51
357.707557224
  0
ARC
  5
44B
100
AcDbEntity
  8
0
100
AcDbCircle
 62
7
  6
CONTINUOUS
 10
4.641392663
 20
2.9620147516
 40
0.03
100
AcDbArc
 50
270.0
 51
90.0
  0
ARC
  5
44C
100
AcDbEntity
  8
0
100
AcDbCircle
 62
7
  6
CONTINUOUS
 10
4.318892663
 20
2.9620147516
 40
0.03
100
AcDbArc
 50
90.0
 51
270.0
  0
ARC
  5
44D
100
AcDbEntity
  8
0
100
AcDbCircle
 62
7
  6
CONTINUOUS
 10
4.909517663
 20
2.7051397516
 40
0.01125
100
AcDbArc
 50
0.0
 51
90.0
  0
ARC
  5
44E
100
AcDbEntity
  8
0
100
AcDbCircle
 62
7
  6
CONTINUOUS
 10
4.050767663
 20
2.7051397516
 40
0.01125
100
AcDbArc
 50
90.0
 51
180.0
  0
ARC
  5
44F
100
AcDbEntity
  8
0
100
AcDbCircle
 62
7
  6
CONTINUOUS
 10
4.4696026478
 20
3.9514522516
 40
0.2421025152
100
AcDbArc
 50
324.607754503
 51
35.392245497
  0
ARC
  5
450
100
AcDbEntity
  8
0
100
AcDbCircle
 62
7
  6
CONTINUOUS
 10
4.4906826783
 20
3.9514522516
 40
0.2421025152
100
AcDbArc
 50
144.607754503
 51
215.392245497
  0
ARC
  5
451
100
AcDbEntity
  8
0
100
AcDbCircle
 62
7
  6
CONTINUOUS
 10
4.6742584281
 20
4.1132647516
 40
0.00975
100
AcDbArc
 50
270.0
 51
18.4142808257
  0
ARC
  5
452
100
AcDbEntity
  8
0
100
AcDbCircle
 62
7
  6
CONTINUOUS
 10
4.6742584281
 20
3.7896397516
 40
0.00975
100
AcDbArc
 50
341.5857191743
 51
90.0
  0
ARC
  5
453
100
AcDbEntity
  8
0
100
AcDbCircle
 62
7
  6
CONTINUOUS
 10
4.286026898
 20
4.1132647516
 40
0.00975
100
AcDbArc
 50
161.5857191743
 51
270.0
  0
ARC
  5
454
100
AcDbEntity
  8
0
100
AcDbCircle
 62
7
  6
CONTINUOUS
 10
4.286026898
 20
3.7896397516
 40
0.00975
100
AcDbArc
 50
90.0
 51
198.4142808257
  0
ARC
  5
455
100
AcDbEntity
  8
0
100
AcDbCircle
 62
7
  6
CONTINUOUS
 10
4.673080163
 20
3.8068897516
 40
0.0075
100
AcDbArc
 50
144.607754503
 51
270.0
  0
ARC
  5
456
100
AcDbEntity
  8
0
100
AcDbCircle
 62
7
  6
CONTINUOUS
 10
4.287205163
 20
3.8068897516
 40
0.0075
100
AcDbArc
 50
270.0
 51
35.392245497
  0
ARC
  5
457
100
AcDbEntity
  8
0
100
AcDbCircle
 62
7
  6
CONTINUOUS
 10
4.673080163
 20
4.0960147516
 40
0.0075
100
AcDbArc
 50
90.0
 51
215.392245497
  0
ARC
  5
458
100
AcDbEntity
  8
0
100
AcDbCircle
 62
7
  6
CONTINUOUS
 10
4.287205163
 20
4.0960147516
 40
0.0075
100
AcDbArc
 50
324.607754503
 51
90.0
  0
ARC
  5
459
100
AcDbEntity
  8
0
100
AcDbCircle
 62
7
  6
CONTINUOUS
 10
2.853580163
 20
4.5901729336
 40
1.5
100
AcDbArc
 50
341.5857191743
 51
12.3457930752
  0
ARC
  5
45A
100
AcDbEntity
  8
0
100
AcDbCircle
 62
7
  6
CONTINUOUS
 10
4.480142663
 20
5.1811714657
 40
0.26625
100
AcDbArc
 50
307.8111678058
 51
62.7582127656
  0
ARC
  5
45B
100
AcDbEntity
  8
0
100
AcDbCircle
 62
7
  6
CONTINUOUS
 10
4.480142663
 20
5.1811714657
 40
0.26625
100
AcDbArc
 50
117.2417872344
 51
232.1888321942
  0
ARC
  5
45C
100
AcDbEntity
  8
0
100
AcDbCircle
 62
7
  6
CONTINUOUS
 10
4.480142663
 20
5.1811714657
 40
0.1760625
100
AcDbArc
 50
322.8585359421
 51
48.2706424249
  0
ARC
  5
45D
100
AcDbEntity
  8
0
100
AcDbCircle
 62
7
  6
CONTINUOUS
 10
4.480142663
 20
5.1811714657
 40
0.1760625
100
AcDbArc
 50
131.7293575751
 51
217.1413745253
  0
ARC
  5
45E
100
AcDbEntity
  8
0
100
AcDbCircle
 62
7
  6
CONTINUOUS
 10
4.480142663
 20
5.1811714657
 40
0.152625
100
AcDbArc
 50
140.1586855164
 51
219.8413144836
  0
ARC
  5
45F
100
AcDbEntity
  8
0
100
AcDbCircle
 62
7
  6
CONTINUOUS
 10
4.480142663
 20
5.1811714657
 40
0.152625
100
AcDbArc
 50
320.1586855164
 51
39.8413144836
  0
ARC
  5
460
100
AcDbEntity
  8
0
100
AcDbCircle
 62
7
  6
CONTINUOUS
 10
4.480142663
 20
5.5561714657
 40
0.1171875
100
AcDbArc
 50
0.0
 51
180.0
  0
ARC
  5
461
100
AcDbEntity
  8
0
100
AcDbCircle
 62
7
  6
CONTINUOUS
 10
4.659331626
 20
5.6082123686
 40
0.088251463
100
AcDbArc
 50
225.3638630491
 51
231.4555849098
  0
ARC
  5
462
100
AcDbEntity
  8
0
100
AcDbCircle
 62
7
  6
CONTINUOUS
 10
4.659331626
 20
5.6082123686
 40
0.088251463
100
AcDbArc
 50
134.63231337
 51
167.4475611188
  0
ARC
  5
463
100
AcDbEntity
  8
0
100
AcDbCircle
 62
7
  6
CONTINUOUS
 10
4.3009537001
 20
5.6082123686
 40
0.088251463
100
AcDbArc
 50
308.5444150902
 51
314.6361369509
  0
ARC
  5
464
100
AcDbEntity
  8
0
100
AcDbCircle
 62
7
  6
CONTINUOUS
 10
4.3009537001
 20
5.6082123686
 40
0.088251463
100
AcDbArc
 50
12.5524388812
 51
45.36768663
  0
ARC
  5
465
100
AcDbEntity
  8
0
100
AcDbCircle
 62
7
  6
CONTINUOUS
 10
4.550455163
 20
5.8060147516
 40
0.046875
100
AcDbArc
 50
0.0
 51
90.0
  0
ARC
  5
466
100
AcDbEntity
  8
0
100
AcDbCircle
 62
7
  6
CONTINUOUS
 10
4.409830163
 20
5.8060147516
 40
0.046875
100
AcDbArc
 50
90.0
 51
180.0
  0
ARC
  5
467
100
AcDbEntity
  8
0
100
AcDbCircle
 62
7
  6
CONTINUOUS
 10
4.620205163
 20
5.7486397516
 40
0.03375
100
AcDbArc
 50
0.0
 51
90.0
  0
ARC
  5
468
100
AcDbEntity
  8
0
100
AcDbCircle
 62
7
  6
CONTINUOUS
 10
4.620205163
 20
5.7283897516
 40
0.03375
100
AcDbArc
 50
270.0
 51
360.0
  0
ARC
  5
469
100
AcDbEntity
  8
0
100
AcDbCircle
 62
7
  6
CONTINUOUS
 10
4.340080163
 20
5.7486397516
 40
0.03375
100
AcDbArc
 50
90.0
 51
180.0
  0
ARC
  5
46A
100
AcDbEntity
  8
0
100
AcDbCircle
 62
7
  6
CONTINUOUS
 10
4.340080163
 20
5.7283897516
 40
0.03375
100
AcDbArc
 50
180.0
 51
270.0
  0
ARC
  5
46B
100
AcDbEntity
  8
0
100
AcDbCircle
 62
7
  6
CONTINUOUS
 10
4.641392663
 20
4.9408897516
 40
0.03
100
AcDbArc
 50
270.0
 51
86.2205015298
  0
ARC
  5
46C
100
AcDbEntity
  8
0
100
AcDbCircle
 62
7
  6
CONTINUOUS
 10
4.318892663
 20
4.9408897516
 40
0.03
100
AcDbArc
 50
93.7794984702
 51
270.0
  0
ARC
  5
46D
100
AcDbEntity
  8
0
100
AcDbCircle
 62
7
  6
CONTINUOUS
 10
4.608955163
 20
5.7940147516
 40
0.011625
100
AcDbArc
 50
180.0
 51
270.0
  0
ARC
  5
46E
100
AcDbEntity
  8
0
100
AcDbCircle
 62
7
  6
CONTINUOUS
 10
4.351330163
 20
5.7940147516
 40
0.011625
100
AcDbArc
 50
270.0
 51
360.0
  0
ARC
  5
46F
100
AcDbEntity
  8
0
100
AcDbCircle
 62
7
  6
CONTINUOUS
 10
4.597330163
 20
5.5303897516
 40
0.01125
100
AcDbArc
 50
0.0
 51
51.4555849098
  0
ARC
  5
470
100
AcDbEntity
  8
0
100
AcDbCircle
 62
7
  6
CONTINUOUS
 10
4.362955163
 20
5.5303897516
 40
0.01125
100
AcDbArc
 50
128.5444150902
 51
180.0
  0
ARC
  5
471
100
AcDbEntity
  8
0
100
AcDbCircle
 62
7
  6
CONTINUOUS
 10
5.6078187047
 20
2.6657647516
 40
0.0701760417
100
AcDbArc
 50
92.1854050713
 51
180.0
  0
ARC
  5
472
100
AcDbEntity
  8
0
100
AcDbCircle
 62
7
  6
CONTINUOUS
 10
5.6752666604
 20
2.7362647516
 40
0.070125
100
AcDbArc
 50
90.0
 51
180.3063960032
  0
ARC
  5
473
100
AcDbEntity
  8
0
100
AcDbCircle
 62
7
  6
CONTINUOUS
 10
5.6942897129
 20
3.0126251173
 40
0.0643217001
100
AcDbArc
 50
314.9173576842
 51
33.0478355064
  0
ARC
  5
474
100
AcDbEntity
  8
0
100
AcDbCircle
 62
7
  6
CONTINUOUS
 10
5.980142663
 20
3.1708728708
 40
0.5815012558
100
AcDbArc
 50
78.0669933483
 51
81.2354682492
  0
ARC
  5
475
100
AcDbEntity
  8
0
100
AcDbCircle
 62
7
  6
CONTINUOUS
 10
5.980142663
 20
3.1708728708
 40
0.5815012558
100
AcDbArc
 50
91.4300766046
 51
94.5754586167
  0
ARC
  5
476
100
AcDbEntity
  8
0
100
AcDbCircle
 62
7
  6
CONTINUOUS
 10
5.980142663
 20
3.1708728708
 40
0.5815012558
100
AcDbArc
 50
95.9223880643
 51
101.456409806
  0
ARC
  5
477
100
AcDbEntity
  8
0
100
AcDbCircle
 62
7
  6
CONTINUOUS
 10
5.980142663
 20
3.1708728708
 40
0.5815012558
100
AcDbArc
 50
88.836024953
 51
90.1108472106
  0
ARC
  5
478
100
AcDbEntity
  8
0
100
AcDbCircle
 62
7
  6
CONTINUOUS
 10
5.980142663
 20
3.1708728708
 40
0.5815012558
100
AcDbArc
 50
82.589547494
 51
87.505151011
  0
ARC
  5
479
100
AcDbEntity
  8
0
100
AcDbCircle
 62
7
  6
CONTINUOUS
 10
5.980142663
 20
3.1708728708
 40
0.5815012558
100
AcDbArc
 50
75.2369687319
 51
76.6139015814
  0
ARC
  5
47A
100
AcDbEntity
  8
0
100
AcDbCircle
 62
7
  6
CONTINUOUS
 10
5.980142663
 20
3.1708728708
 40
0.5815012558
100
AcDbArc
 50
103.0445666344
 51
104.7630312681
  0
ARC
  5
47B
100
AcDbEntity
  8
0
100
AcDbCircle
 62
7
  6
CONTINUOUS
 10
5.980142663
 20
3.1708728708
 40
0.5811262558
100
AcDbArc
 50
101.4639028364
 51
102.1588597307
  0
ARC
  5
47C
100
AcDbEntity
  8
0
100
AcDbCircle
 62
7
  6
CONTINUOUS
 10
5.980142663
 20
3.1708728708
 40
0.5811262558
100
AcDbArc
 50
94.5784174525
 51
95.2988140226
  0
ARC
  5
47D
100
AcDbEntity
  8
0
100
AcDbCircle
 62
7
  6
CONTINUOUS
 10
5.980142663
 20
3.1708728708
 40
0.5811262558
100
AcDbArc
 50
90.7468557101
 51
91.430999623
  0
ARC
  5
47E
100
AcDbEntity
  8
0
100
AcDbCircle
 62
7
  6
CONTINUOUS
 10
5.980142663
 20
3.1708728708
 40
0.5811262558
100
AcDbArc
 50
77.3977245437
 51
78.0591795779
  0
ARC
  5
47F
100
AcDbEntity
  8
0
100
AcDbCircle
 62
7
  6
CONTINUOUS
 10
5.980142663
 20
3.1708728708
 40
0.5811262558
100
AcDbArc
 50
81.2352442586
 51
82.5847386688
  0
ARC
  5
480
100
AcDbEntity
  8
0
100
AcDbCircle
 62
7
  6
CONTINUOUS
 10
5.980142663
 20
3.1708728708
 40
0.5811262558
100
AcDbArc
 50
87.503540069
 51
88.835273738
  0
ARC
  5
481
100
AcDbEntity
  8
0
100
AcDbCircle
 62
7
  6
CONTINUOUS
 10
5.980142663
 20
3.1708728708
 40
0.5810511551
100
AcDbArc
 50
79.9593632588
 51
81.0040654587
  0
ARC
  5
482
100
AcDbEntity
  8
0
100
AcDbCircle
 62
7
  6
CONTINUOUS
 10
5.980142663
 20
3.1708728708
 40
0.5810328228
100
AcDbArc
 50
85.5024540677
 51
86.3921798126
  0
ARC
  5
483
100
AcDbEntity
  8
0
100
AcDbCircle
 62
7
  6
CONTINUOUS
 10
5.980142663
 20
3.1708728708
 40
0.5806758644
100
AcDbArc
 50
79.9528066769
 51
80.9982030894
  0
ARC
  5
484
100
AcDbEntity
  8
0
100
AcDbCircle
 62
7
  6
CONTINUOUS
 10
5.980142663
 20
3.1708728708
 40
0.5806575203
100
AcDbArc
 50
85.49954113
 51
86.3898448421
  0
ARC
  5
485
100
AcDbEntity
  8
0
100
AcDbCircle
 62
7
  6
CONTINUOUS
 10
5.980142663
 20
3.1708728708
 40
0.5806269843
100
AcDbArc
 50
84.0880697177
 51
89.6299506004
  0
ARC
  5
486
100
AcDbEntity
  8
0
100
AcDbCircle
 62
7
  6
CONTINUOUS
 10
5.980142663
 20
3.1708728708
 40
0.5806269843
100
AcDbArc
 50
79.7882367111
 51
82.9513441199
  0
ARC
  5
487
100
AcDbEntity
  8
0
100
AcDbCircle
 62
7
  6
CONTINUOUS
 10
5.9655526859
 20
3.2590717635
 40
0.4921032287
100
AcDbArc
 50
96.2161845712
 51
96.9435818357
  0
ARC
  5
488
100
AcDbEntity
  8
0
100
AcDbCircle
 62
7
  6
CONTINUOUS
 10
6.0300307162
 20
3.2899591302
 40
0.4549419156
100
AcDbArc
 50
81.2093589874
 51
81.3411422854
  0
ARC
  5
489
100
AcDbEntity
  8
0
100
AcDbCircle
 62
7
  6
CONTINUOUS
 10
5.9917997825
 20
3.3243040512
 40
0.427628316
100
AcDbArc
 50
83.0535751546
 51
83.4864024217
  0
ARC
  5
48A
100
AcDbEntity
  8
0
100
AcDbCircle
 62
7
  6
CONTINUOUS
 10
5.5854405748
 20
3.3073909998
 40
0.234375
100
AcDbArc
 50
325.0110095298
 51
355.1903004544
  0
ARC
  5
48B
100
AcDbEntity
  8
0
100
AcDbCircle
 62
7
  6
CONTINUOUS
 10
5.7139391784
 20
3.4289366266
 40
0.09375
100
AcDbArc
 50
47.7219773414
 51
136.9739483152
  0
ARC
  5
48C
100
AcDbEntity
  8
0
100
AcDbCircle
 62
7
  6
CONTINUOUS
 10
5.8123208334
 20
3.0894156003
 40
0.0764906704
100
AcDbArc
 50
145.0110095298
 51
213.0478355064
  0
ARC
  5
48D
100
AcDbEntity
  8
0
100
AcDbCircle
 62
7
  6
CONTINUOUS
 10
5.8305743299
 20
3.2867647516
 40
0.011625
100
AcDbArc
 50
90.0
 51
175.1903004543
  0
ARC
  5
48E
100
AcDbEntity
  8
0
100
AcDbCircle
 62
7
  6
CONTINUOUS
 10
6.3524666214
 20
2.6657647516
 40
0.0701760417
100
AcDbArc
 50
0.0
 51
87.8145949287
  0
ARC
  5
48F
100
AcDbEntity
  8
0
100
AcDbCircle
 62
7
  6
CONTINUOUS
 10
6.2850186657
 20
2.7362647516
 40
0.070125
100
AcDbArc
 50
359.6936039968
 51
90.0
  0
ARC
  5
490
100
AcDbEntity
  8
0
100
AcDbCircle
 62
7
  6
CONTINUOUS
 10
6.2659956132
 20
3.0126251173
 40
0.0643217001
100
AcDbArc
 50
146.9521644936
 51
225.0826423158
  0
ARC
  5
491
100
AcDbEntity
  8
0
100
AcDbCircle
 62
7
  6
CONTINUOUS
 10
6.106705163
 20
3.3127315695
 40
1.5
100
AcDbArc
 50
161.5857191743
 51
192.3457930752
  0
ARC
  5
492
100
AcDbEntity
  8
0
100
AcDbCircle
 62
7
  6
CONTINUOUS
 10
6.540392663
 20
3.4251397516
 40
1.144875
100
AcDbArc
 50
346.7644365334
 51
13.2162850744
  0
ARC
  5
493
100
AcDbEntity
  8
0
100
AcDbCircle
 62
7
  6
CONTINUOUS
 10
6.3748447513
 20
3.3073909998
 40
0.234375
100
AcDbArc
 50
184.8096995456
 51
214.9889904702
  0
ARC
  5
494
100
AcDbEntity
  8
0
100
AcDbCircle
 62
7
  6
CONTINUOUS
 10
6.2463461477
 20
3.4289366266
 40
0.09375
100
AcDbArc
 50
43.0260516848
 51
132.2780226796
  0
ARC
  5
495
100
AcDbEntity
  8
0
100
AcDbCircle
 62
7
  6
CONTINUOUS
 10
6.1479644926
 20
3.0894156003
 40
0.0764906704
100
AcDbArc
 50
326.9521644936
 51
34.9889904702
  0
ARC
  5
496
100
AcDbEntity
  8
0
100
AcDbCircle
 62
7
  6
CONTINUOUS
 10
6.1297109962
 20
3.2867647516
 40
0.011625
100
AcDbArc
 50
4.8096995457
 51
90.0
  0
ARC
  5
497
100
AcDbEntity
  8
0
100
AcDbCircle
 62
7
  6
CONTINUOUS
 10
6.2539973971
 20
3.4773895388
 40
0.51
100
AcDbArc
 50
157.6438963444
 51
161.2440132164
  0
ARC
  5
498
100
AcDbEntity
  8
0
100
AcDbCircle
 62
7
  6
CONTINUOUS
 10
6.2532547059
 20
3.6537798074
 40
0.51
100
AcDbArc
 50
199.0137742001
 51
202.5744557109
  0
ARC
  5
499
100
AcDbEntity
  8
0
100
AcDbCircle
 62
7
  6
CONTINUOUS
 10
5.706287929
 20
3.4773895388
 40
0.51
100
AcDbArc
 50
18.7559867836
 51
22.3561036556
  0
ARC
  5
49A
100
AcDbEntity
  8
0
100
AcDbCircle
 62
7
  6
CONTINUOUS
 10
5.7070306202
 20
3.6537798074
 40
0.51
100
AcDbArc
 50
337.4255442891
 51
340.9862257999
  0
ARC
  5
49B
100
AcDbEntity
  8
0
100
AcDbCircle
 62
7
  6
CONTINUOUS
 10
6.0677061944
 20
3.9045485227
 40
0.1578546984
100
AcDbArc
 50
264.068162988
 51
264.2956558545
  0
ARC
  5
49C
100
AcDbEntity
  8
0
100
AcDbCircle
 62
7
  6
CONTINUOUS
 10
6.0284464666
 20
3.5938827545
 40
0.1557417248
100
AcDbArc
 50
85.631475316
 51
87.4669374743
  0
ARC
  5
49D
100
AcDbEntity
  8
0
100
AcDbCircle
 62
7
  6
CONTINUOUS
 10
6.0284494198
 20
3.5936664399
 40
0.1555811839
100
AcDbArc
 50
86.0357858793
 51
87.465410597
  0
ARC
  5
49E
100
AcDbEntity
  8
0
100
AcDbCircle
 62
7
  6
CONTINUOUS
 10
6.0672445403
 20
3.8995396684
 40
0.1532010767
100
AcDbArc
 50
264.0609152567
 51
264.2953311115
  0
CIRCLE
  5
49F
100
AcDbEntity
  8
0
100
AcDbCircle
 62
7
  6
CONTINUOUS
 10
5.980142663
 20
3.5644991266
 40
0.103125
  0
ARC
  5
4A0
100
AcDbEntity
  8
0
100
AcDbCircle
 62
7
  6
CONTINUOUS
 10
5.536705163
 20
3.5644991266
 40
0.103125
100
AcDbArc
 50
55.0
 51
305.0
  0
ARC
  5
4A1
100
AcDbEntity
  8
0
100
AcDbCircle
 62
7
  6
CONTINUOUS
 10
6.423580163
 20
3.5644991266
 40
0.103125
100
AcDbArc
 50
235.0
 51
125.0
  0
ARC
  5
4A2
100
AcDbEntity
  8
0
100
AcDbCircle
 62
7
  6
CONTINUOUS
 10
5.7139391784
 20
3.7000616266
 40
0.09375
100
AcDbArc
 50
223.0260516848
 51
312.2780228439
  0
ARC
  5
4A3
100
AcDbEntity
  8
0
100
AcDbCircle
 62
7
  6
CONTINUOUS
 10
6.2463461477
 20
3.7000616266
 40
0.09375
100
AcDbArc
 50
227.7219771366
 51
316.9739483152
  0
ARC
  5
4A4
100
AcDbEntity
  8
0
100
AcDbCircle
 62
7
  6
CONTINUOUS
 10
6.0436105602
 20
3.7310332105
 40
0.017760468
100
AcDbArc
 50
90.2996903337
 51
101.9040740022
  0
ARC
  5
4A5
100
AcDbEntity
  8
0
100
AcDbCircle
 62
7
  6
CONTINUOUS
 10
6.125455163
 20
3.7222989964
 40
0.01125
100
AcDbArc
 50
9.9833531995
 51
75.2369687319
  0
ARC
  5
4A6
100
AcDbEntity
  8
0
100
AcDbCircle
 62
7
  6
CONTINUOUS
 10
5.834830163
 20
3.7222989964
 40
0.01125
100
AcDbArc
 50
104.7630312681
 51
170.0166468005
  0
ARC
  5
4A7
100
AcDbEntity
  8
0
100
AcDbCircle
 62
7
  6
CONTINUOUS
 10
5.630080163
 20
3.4966639784
 40
0.006
100
AcDbArc
 50
0.0
 51
125.0
  0
ARC
  5
4A8
100
AcDbEntity
  8
0
100
AcDbCircle
 62
7
  6
CONTINUOUS
 10
5.630080163
 20
3.6323342747
 40
0.006
100
AcDbArc
 50
235.0
 51
360.0
  0
ARC
  5
4A9
100
AcDbEntity
  8
0
100
AcDbCircle
 62
7
  6
CONTINUOUS
 10
5.6410175863
 20
3.4969991266
 40
0.006
100
AcDbArc
 50
214.6234510997
 51
316.9739483152
  0
ARC
  5
4AA
100
AcDbEntity
  8
0
100
AcDbCircle
 62
7
  6
CONTINUOUS
 10
5.6410175863
 20
3.6319991266
 40
0.006
100
AcDbArc
 50
43.0260516848
 51
145.3765489003
  0
ARC
  5
4AB
100
AcDbEntity
  8
0
100
AcDbCircle
 62
7
  6
CONTINUOUS
 10
6.330205163
 20
3.4966639784
 40
0.006
100
AcDbArc
 50
55.0
 51
180.0
  0
ARC
  5
4AC
100
AcDbEntity
  8
0
100
AcDbCircle
 62
7
  6
CONTINUOUS
 10
6.330205163
 20
3.6323342747
 40
0.006
100
AcDbArc
 50
180.0
 51
305.0
  0
ARC
  5
4AD
100
AcDbEntity
  8
0
100
AcDbCircle
 62
7
  6
CONTINUOUS
 10
6.3192677398
 20
3.4969991266
 40
0.006
100
AcDbArc
 50
223.0260516848
 51
325.3765489003
  0
ARC
  5
4AE
100
AcDbEntity
  8
0
100
AcDbCircle
 62
7
  6
CONTINUOUS
 10
6.3192677398
 20
3.6319991266
 40
0.006
100
AcDbArc
 50
34.6234510997
 51
136.9739483152
  0
ARC
  5
4AF
100
AcDbEntity
  8
0
100
AcDbCircle
 62
7
  6
CONTINUOUS
 10
8.419892663
 20
3.4251397516
 40
1.144875
100
AcDbArc
 50
166.7837149256
 51
193.2355634666
  0
ARC
  5
4B0
100
AcDbEntity
  8
0
100
AcDbCircle
 62
7
  6
CONTINUOUS
 10
7.8070775307
 20
3.1272118937
 40
0.156375
100
AcDbArc
 50
166.7644365334
 51
197.3749047622
  0
ARC
  5
4B1
100
AcDbEntity
  8
0
100
AcDbCircle
 62
7
  6
CONTINUOUS
 10
7.1532077954
 20
3.1272118937
 40
0.156375
100
AcDbArc
 50
342.6250952378
 51
13.2355634666
  0
ARC
  5
4B2
100
AcDbEntity
  8
0
100
AcDbCircle
 62
7
  6
CONTINUOUS
 10
7.649241826
 20
2.7965525369
 40
0.13875
100
AcDbArc
 50
4.0656154981
 51
77.5021822312
  0
ARC
  5
4B3
100
AcDbEntity
  8
0
100
AcDbCircle
 62
7
  6
CONTINUOUS
 10
7.3110435001
 20
2.7965525369
 40
0.13875
100
AcDbArc
 50
102.4978177688
 51
175.9343845019
  0
ARC
  5
4B4
100
AcDbEntity
  8
0
100
AcDbCircle
 62
7
  6
CONTINUOUS
 10
7.900067633
 20
2.8101397516
 40
0.09375
100
AcDbArc
 50
182.292442776
 51
270.0
  0
ARC
  5
4B5
100
AcDbEntity
  8
0
100
AcDbCircle
 62
7
  6
CONTINUOUS
 10
7.0602176931
 20
2.8101397516
 40
0.09375
100
AcDbArc
 50
270.0
 51
357.707557224
  0
ARC
  5
4B6
100
AcDbEntity
  8
0
100
AcDbCircle
 62
7
  6
CONTINUOUS
 10
7.648142663
 20
2.9098897516
 40
0.03
100
AcDbArc
 50
90.0
 51
132.4811128754
  0
ARC
  5
4B7
100
AcDbEntity
  8
0
100
AcDbCircle
 62
7
  6
CONTINUOUS
 10
7.312142663
 20
2.9098897516
 40
0.03
100
AcDbArc
 50
47.5188871246
 51
90.0
  0
ARC
  5
4B8
100
AcDbEntity
  8
0
100
AcDbCircle
 62
7
  6
CONTINUOUS
 10
7.671392663
 20
3.0572647516
 40
0.023625
100
AcDbArc
 50
270.0
 51
79.7778206094
  0
ARC
  5
4B9
100
AcDbEntity
  8
0
100
AcDbCircle
 62
7
  6
CONTINUOUS
 10
7.671392663
 20
2.9631397516
 40
0.023625
100
AcDbArc
 50
280.2221793906
 51
90.0
  0
ARC
  5
4BA
100
AcDbEntity
  8
0
100
AcDbCircle
 62
7
  6
CONTINUOUS
 10
7.288892663
 20
3.0572647516
 40
0.023625
100
AcDbArc
 50
100.2221793906
 51
270.0
  0
ARC
  5
4BB
100
AcDbEntity
  8
0
100
AcDbCircle
 62
7
  6
CONTINUOUS
 10
7.288892663
 20
2.9631397516
 40
0.023625
100
AcDbArc
 50
90.0
 51
259.7778206094
  0
ARC
  5
4BC
100
AcDbEntity
  8
0
100
AcDbCircle
 62
7
  6
CONTINUOUS
 10
7.606892663
 20
2.6698897516
 40
0.01125
100
AcDbArc
 50
270.0
 51
338.4898117331
  0
ARC
  5
4BD
100
AcDbEntity
  8
0
100
AcDbCircle
 62
7
  6
CONTINUOUS
 10
7.353392663
 20
2.6698897516
 40
0.01125
100
AcDbArc
 50
201.5101882669
 51
270.0
  0
ARC
  5
4BE
100
AcDbEntity
  8
0
100
AcDbCircle
 62
7
  6
CONTINUOUS
 10
7.909517663
 20
2.7051397516
 40
0.01125
100
AcDbArc
 50
0.0
 51
90.0
  0
ARC
  5
4BF
100
AcDbEntity
  8
0
100
AcDbCircle
 62
7
  6
CONTINUOUS
 10
7.050767663
 20
2.7051397516
 40
0.01125
100
AcDbArc
 50
90.0
 51
180.0
  0
ARC
  5
4C0
100
AcDbEntity
  8
0
100
AcDbCircle
 62
7
  6
CONTINUOUS
 10
7.9758389968
 20
3.7622511174
 40
0.329625
100
AcDbArc
 50
159.5553787122
 51
193.2162850744
  0
ARC
  5
4C1
100
AcDbEntity
  8
0
100
AcDbCircle
 62
7
  6
CONTINUOUS
 10
6.9844463293
 20
3.7622511174
 40
0.329625
100
AcDbArc
 50
346.7837149256
 51
20.4446212878
  0
ARC
  5
4C2
100
AcDbEntity
  8
0
100
AcDbCircle
 62
7
  6
CONTINUOUS
 10
7.4417164199
 20
4.2129937495
 40
0.2221209279
100
AcDbArc
 50
321.3604229401
 51
321.7496987073
  0
ARC
  5
4C3
100
AcDbEntity
  8
0
100
AcDbCircle
 62
7
  6
CONTINUOUS
 10
7.5184887596
 20
4.2129302042
 40
0.2220186343
100
AcDbArc
 50
218.2527528173
 51
218.6393705814
  0
ARC
  5
4C4
100
AcDbEntity
  8
0
100
AcDbCircle
 62
7
  6
CONTINUOUS
 10
7.4475166015
 20
4.2081520033
 40
0.2145647566
100
AcDbArc
 50
317.5842210826
 51
319.340775129
  0
ARC
  5
4C5
100
AcDbEntity
  8
0
100
AcDbCircle
 62
7
  6
CONTINUOUS
 10
7.5122364293
 20
4.2076815117
 40
0.2138543945
100
AcDbArc
 50
220.6571212388
 51
222.4231087114
  0
ARC
  5
4C6
100
AcDbEntity
  8
0
100
AcDbCircle
 62
7
  6
CONTINUOUS
 10
7.671580163
 20
3.9008272516
 40
0.0234375
100
AcDbArc
 50
270.0
 51
90.0
  0
ARC
  5
4C7
100
AcDbEntity
  8
0
100
AcDbCircle
 62
7
  6
CONTINUOUS
 10
7.288705163
 20
3.9008272516
 40
0.0234375
100
AcDbArc
 50
90.0
 51
270.0
  0
CIRCLE
  5
4C8
100
AcDbEntity
  8
0
100
AcDbCircle
 62
7
  6
CONTINUOUS
 10
7.5256046486
 20
4.1332563497
 40
0.0077756448
  0
CIRCLE
  5
4C9
100
AcDbEntity
  8
0
100
AcDbCircle
 62
7
  6
CONTINUOUS
 10
7.5641467829
 20
4.1590087592
 40
0.0077756448
  0
CIRCLE
  5
4CA
100
AcDbEntity
  8
0
100
AcDbCircle
 62
7
  6
CONTINUOUS
 10
7.4346782311
 20
4.133257363
 40
0.0077756448
  0
CIRCLE
  5
4CB
100
AcDbEntity
  8
0
100
AcDbCircle
 62
7
  6
CONTINUOUS
 10
7.4801413391
 20
4.1242136619
 40
0.0077756448
  0
CIRCLE
  5
4CC
100
AcDbEntity
  8
0
100
AcDbCircle
 62
7
  6
CONTINUOUS
 10
7.5899000525
 20
4.197550319
 40
0.0077756448
  0
CIRCLE
  5
4CD
100
AcDbEntity
  8
0
100
AcDbCircle
 62
7
  6
CONTINUOUS
 10
7.3703842603
 20
4.1975527657
 40
0.0077756447
  0
CIRCLE
  5
4CE
100
AcDbEntity
  8
0
100
AcDbCircle
 62
7
  6
CONTINUOUS
 10
7.3961366701
 20
4.159010631
 40
0.0077756447
  0
CIRCLE
  5
4CF
100
AcDbEntity
  8
0
100
AcDbCircle
 62
7
  6
CONTINUOUS
 10
7.4283884827
 20
4.1912605425
 40
0.0073454913
  0
CIRCLE
  5
4D0
100
AcDbEntity
  8
0
100
AcDbCircle
 62
7
  6
CONTINUOUS
 10
7.4801426834
 20
4.1698232675
 40
0.0073454913
  0
CIRCLE
  5
4D1
100
AcDbEntity
  8
0
100
AcDbCircle
 62
7
  6
CONTINUOUS
 10
7.5318968721
 20
4.1912605712
 40
0.0073454913
  0
ARC
  5
4D2
100
AcDbEntity
  8
0
100
AcDbCircle
 62
7
  6
CONTINUOUS
 10
6.106705163
 20
4.5901729336
 40
1.5
100
AcDbArc
 50
167.6542069248
 51
198.4142808257
  0
CIRCLE
  5
4D3
100
AcDbEntity
  8
0
100
AcDbCircle
 62
7
  6
CONTINUOUS
 10
7.3703852737
 20
4.2884791839
 40
0.0077756447
  0
CIRCLE
  5
4D4
100
AcDbEntity
  8
0
100
AcDbCircle
 62
7
  6
CONTINUOUS
 10
7.3613440609
 20
4.2430147699
 40
0.007772963
  0
CIRCLE
  5
4D5
100
AcDbEntity
  8
0
100
AcDbCircle
 62
7
  6
CONTINUOUS
 10
7.4283884543
 20
4.2947689321
 40
0.0073454911
  0
CIRCLE
  5
4D6
100
AcDbEntity
  8
0
100
AcDbCircle
 62
7
  6
CONTINUOUS
 10
7.4069514463
 20
4.2430148327
 40
0.007345322
  0
ARC
  5
4D7
100
AcDbEntity
  8
0
100
AcDbCircle
 62
7
  6
CONTINUOUS
 10
7.4801413085
 20
4.3618159796
 40
0.0077756672
100
AcDbArc
 50
259.4577309428
 51
78.0602691446
  0
CIRCLE
  5
4D8
100
AcDbEntity
  8
0
100
AcDbCircle
 62
7
  6
CONTINUOUS
 10
7.3961385432
 20
4.3270207437
 40
0.0077756447
  0
CIRCLE
  5
4D9
100
AcDbEntity
  8
0
100
AcDbCircle
 62
7
  6
CONTINUOUS
 10
7.4346806775
 20
4.3527731532
 40
0.0077756447
  0
ARC
  5
4DA
100
AcDbEntity
  8
0
100
AcDbCircle
 62
7
  6
CONTINUOUS
 10
7.4801426425
 20
4.3162062356
 40
0.0073454913
100
AcDbArc
 50
211.7114066917
 51
30.6305827013
  0
ARC
  5
4DB
100
AcDbEntity
  8
0
100
AcDbCircle
 62
7
  6
CONTINUOUS
 10
7.480142663
 20
4.2430147516
 40
0.2203125
100
AcDbArc
 50
106.2208244843
 51
106.780848866
  0
ARC
  5
4DC
100
AcDbEntity
  8
0
100
AcDbCircle
 62
7
  6
CONTINUOUS
 10
7.480142663
 20
4.2430147516
 40
0.2203125
100
AcDbArc
 50
109.219151134
 51
109.7791755157
  0
ARC
  5
4DD
100
AcDbEntity
  8
0
100
AcDbCircle
 62
7
  6
CONTINUOUS
 10
7.480142663
 20
4.2430147516
 40
0.2203125
100
AcDbArc
 50
112.2208244843
 51
112.7791755157
  0
ARC
  5
4DE
100
AcDbEntity
  8
0
100
AcDbCircle
 62
7
  6
CONTINUOUS
 10
7.480142663
 20
4.2430147516
 40
0.2203125
100
AcDbArc
 50
115.2208244843
 51
115.7791755157
  0
ARC
  5
4DF
100
AcDbEntity
  8
0
100
AcDbCircle
 62
7
  6
CONTINUOUS
 10
7.480142663
 20
4.2430147516
 40
0.2203125
100
AcDbArc
 50
118.2208244843
 51
118.7791755157
  0
ARC
  5
4E0
100
AcDbEntity
  8
0
100
AcDbCircle
 62
7
  6
CONTINUOUS
 10
7.480142663
 20
4.2430147516
 40
0.2203125
100
AcDbArc
 50
121.2208244843
 51
121.7791755157
  0
ARC
  5
4E1
100
AcDbEntity
  8
0
100
AcDbCircle
 62
7
  6
CONTINUOUS
 10
7.480142663
 20
4.2430147516
 40
0.2203125
100
AcDbArc
 50
124.2208244843
 51
124.780848866
  0
ARC
  5
4E2
100
AcDbEntity
  8
0
100
AcDbCircle
 62
7
  6
CONTINUOUS
 10
7.480142663
 20
4.2430147516
 40
0.2203125
100
AcDbArc
 50
127.219151134
 51
127.7791755157
  0
ARC
  5
4E3
100
AcDbEntity
  8
0
100
AcDbCircle
 62
7
  6
CONTINUOUS
 10
7.480142663
 20
4.2430147516
 40
0.2203125
100
AcDbArc
 50
130.2208244843
 51
130.7791755157
  0
ARC
  5
4E4
100
AcDbEntity
  8
0
100
AcDbCircle
 62
7
  6
CONTINUOUS
 10
7.480142663
 20
4.2430147516
 40
0.2203125
100
AcDbArc
 50
133.2208244843
 51
133.7791755157
  0
ARC
  5
4E5
100
AcDbEntity
  8
0
100
AcDbCircle
 62
7
  6
CONTINUOUS
 10
7.480142663
 20
4.2430147516
 40
0.2203125
100
AcDbArc
 50
136.2208244843
 51
136.7791755157
  0
ARC
  5
4E6
100
AcDbEntity
  8
0
100
AcDbCircle
 62
7
  6
CONTINUOUS
 10
7.480142663
 20
4.2430147516
 40
0.2203125
100
AcDbArc
 50
139.2208244843
 51
139.7791755157
  0
ARC
  5
4E7
100
AcDbEntity
  8
0
100
AcDbCircle
 62
7
  6
CONTINUOUS
 10
7.480142663
 20
4.2430147516
 40
0.2203125
100
AcDbArc
 50
142.2208244843
 51
142.780848866
  0
ARC
  5
4E8
100
AcDbEntity
  8
0
100
AcDbCircle
 62
7
  6
CONTINUOUS
 10
7.480142663
 20
4.2430147516
 40
0.2203125
100
AcDbArc
 50
145.219151134
 51
145.7791755157
  0
ARC
  5
4E9
100
AcDbEntity
  8
0
100
AcDbCircle
 62
7
  6
CONTINUOUS
 10
7.480142663
 20
4.2430147516
 40
0.2203125
100
AcDbArc
 50
148.2208244843
 51
148.7791755157
  0
ARC
  5
4EA
100
AcDbEntity
  8
0
100
AcDbCircle
 62
7
  6
CONTINUOUS
 10
7.480142663
 20
4.2430147516
 40
0.2203125
100
AcDbArc
 50
151.2208244843
 51
151.7791755157
  0
ARC
  5
4EB
100
AcDbEntity
  8
0
100
AcDbCircle
 62
7
  6
CONTINUOUS
 10
7.480142663
 20
4.2430147516
 40
0.2203125
100
AcDbArc
 50
154.2208244843
 51
154.7791755157
  0
ARC
  5
4EC
100
AcDbEntity
  8
0
100
AcDbCircle
 62
7
  6
CONTINUOUS
 10
7.480142663
 20
4.2430147516
 40
0.2203125
100
AcDbArc
 50
157.2208244843
 51
157.7791755157
  0
ARC
  5
4ED
100
AcDbEntity
  8
0
100
AcDbCircle
 62
7
  6
CONTINUOUS
 10
7.480142663
 20
4.2430147516
 40
0.2203125
100
AcDbArc
 50
160.2208244843
 51
160.780848866
  0
ARC
  5
4EE
100
AcDbEntity
  8
0
100
AcDbCircle
 62
7
  6
CONTINUOUS
 10
7.480142663
 20
4.2430147516
 40
0.2203125
100
AcDbArc
 50
163.219151134
 51
163.7791755157
  0
ARC
  5
4EF
100
AcDbEntity
  8
0
100
AcDbCircle
 62
7
  6
CONTINUOUS
 10
7.480142663
 20
4.2430147516
 40
0.2203125
100
AcDbArc
 50
166.2208244843
 51
166.7791755157
  0
ARC
  5
4F0
100
AcDbEntity
  8
0
100
AcDbCircle
 62
7
  6
CONTINUOUS
 10
7.480142663
 20
4.2430147516
 40
0.2203125
100
AcDbArc
 50
169.2208244843
 51
169.7791755157
  0
ARC
  5
4F1
100
AcDbEntity
  8
0
100
AcDbCircle
 62
7
  6
CONTINUOUS
 10
7.480142663
 20
4.2430147516
 40
0.2203125
100
AcDbArc
 50
172.2208244843
 51
172.7791755157
  0
ARC
  5
4F2
100
AcDbEntity
  8
0
100
AcDbCircle
 62
7
  6
CONTINUOUS
 10
7.480142663
 20
4.2430147516
 40
0.2203125
100
AcDbArc
 50
175.2208244843
 51
175.7791755157
  0
ARC
  5
4F3
100
AcDbEntity
  8
0
100
AcDbCircle
 62
7
  6
CONTINUOUS
 10
7.480142663
 20
4.2430147516
 40
0.2203125
100
AcDbArc
 50
178.2208244843
 51
178.780848866
  0
ARC
  5
4F4
100
AcDbEntity
  8
0
100
AcDbCircle
 62
7
  6
CONTINUOUS
 10
7.480142663
 20
4.2430147516
 40
0.2203125
100
AcDbArc
 50
181.219151134
 51
181.7791755157
  0
ARC
  5
4F5
100
AcDbEntity
  8
0
100
AcDbCircle
 62
7
  6
CONTINUOUS
 10
7.480142663
 20
4.2430147516
 40
0.2203125
100
AcDbArc
 50
184.2208244843
 51
184.7791755157
  0
ARC
  5
4F6
100
AcDbEntity
  8
0
100
AcDbCircle
 62
7
  6
CONTINUOUS
 10
7.480142663
 20
4.2430147516
 40
0.2203125
100
AcDbArc
 50
187.2208244843
 51
187.7791755157
  0
ARC
  5
4F7
100
AcDbEntity
  8
0
100
AcDbCircle
 62
7
  6
CONTINUOUS
 10
7.480142663
 20
4.2430147516
 40
0.2203125
100
AcDbArc
 50
190.2208244843
 51
190.7791755157
  0
ARC
  5
4F8
100
AcDbEntity
  8
0
100
AcDbCircle
 62
7
  6
CONTINUOUS
 10
7.480142663
 20
4.2430147516
 40
0.2203125
100
AcDbArc
 50
193.2208244843
 51
193.7791755157
  0
ARC
  5
4F9
100
AcDbEntity
  8
0
100
AcDbCircle
 62
7
  6
CONTINUOUS
 10
7.480142663
 20
4.2430147516
 40
0.2203125
100
AcDbArc
 50
196.2208244843
 51
196.780848866
  0
ARC
  5
4FA
100
AcDbEntity
  8
0
100
AcDbCircle
 62
7
  6
CONTINUOUS
 10
7.480142663
 20
4.2430147516
 40
0.2203125
100
AcDbArc
 50
199.219151134
 51
199.7791755157
  0
ARC
  5
4FB
100
AcDbEntity
  8
0
100
AcDbCircle
 62
7
  6
CONTINUOUS
 10
7.480142663
 20
4.2430147516
 40
0.2203125
100
AcDbArc
 50
202.2208244843
 51
202.7791755157
  0
ARC
  5
4FC
100
AcDbEntity
  8
0
100
AcDbCircle
 62
7
  6
CONTINUOUS
 10
7.480142663
 20
4.2430147516
 40
0.2203125
100
AcDbArc
 50
205.2208244843
 51
205.7791755157
  0
ARC
  5
4FD
100
AcDbEntity
  8
0
100
AcDbCircle
 62
7
  6
CONTINUOUS
 10
7.480142663
 20
4.2430147516
 40
0.2203125
100
AcDbArc
 50
208.2208244843
 51
208.7791755157
  0
ARC
  5
4FE
100
AcDbEntity
  8
0
100
AcDbCircle
 62
7
  6
CONTINUOUS
 10
7.480142663
 20
4.2430147516
 40
0.2203125
100
AcDbArc
 50
211.2208244843
 51
211.7791755157
  0
ARC
  5
4FF
100
AcDbEntity
  8
0
100
AcDbCircle
 62
7
  6
CONTINUOUS
 10
7.480142663
 20
4.2430147516
 40
0.2203125
100
AcDbArc
 50
214.2208244843
 51
214.780848866
  0
ARC
  5
500
100
AcDbEntity
  8
0
100
AcDbCircle
 62
7
  6
CONTINUOUS
 10
7.480142663
 20
4.2430147516
 40
0.2203125
100
AcDbArc
 50
217.219151134
 51
217.7791755157
  0
ARC
  5
501
100
AcDbEntity
  8
0
100
AcDbCircle
 62
7
  6
CONTINUOUS
 10
7.480142663
 20
4.2430147516
 40
0.2203125
100
AcDbArc
 50
220.2208244843
 51
220.7791755157
  0
ARC
  5
502
100
AcDbEntity
  8
0
100
AcDbCircle
 62
7
  6
CONTINUOUS
 10
7.480142663
 20
4.2430147516
 40
0.2203125
100
AcDbArc
 50
223.2208244843
 51
223.7791755157
  0
ARC
  5
503
100
AcDbEntity
  8
0
100
AcDbCircle
 62
7
  6
CONTINUOUS
 10
7.480142663
 20
4.2430147516
 40
0.2203125
100
AcDbArc
 50
226.2208244843
 51
226.7791755157
  0
ARC
  5
504
100
AcDbEntity
  8
0
100
AcDbCircle
 62
7
  6
CONTINUOUS
 10
7.480142663
 20
4.2430147516
 40
0.2203125
100
AcDbArc
 50
229.2208244843
 51
229.7791755157
  0
ARC
  5
505
100
AcDbEntity
  8
0
100
AcDbCircle
 62
7
  6
CONTINUOUS
 10
7.480142663
 20
4.2430147516
 40
0.2203125
100
AcDbArc
 50
232.2208244843
 51
232.780848866
  0
ARC
  5
506
100
AcDbEntity
  8
0
100
AcDbCircle
 62
7
  6
CONTINUOUS
 10
7.480142663
 20
4.2430147516
 40
0.2203125
100
AcDbArc
 50
235.219151134
 51
235.7791755157
  0
ARC
  5
507
100
AcDbEntity
  8
0
100
AcDbCircle
 62
7
  6
CONTINUOUS
 10
7.480142663
 20
4.2430147516
 40
0.2203125
100
AcDbArc
 50
238.2208244843
 51
238.7791755157
  0
ARC
  5
508
100
AcDbEntity
  8
0
100
AcDbCircle
 62
7
  6
CONTINUOUS
 10
7.480142663
 20
4.2430147516
 40
0.2203125
100
AcDbArc
 50
241.2208244843
 51
241.7791755157
  0
ARC
  5
509
100
AcDbEntity
  8
0
100
AcDbCircle
 62
7
  6
CONTINUOUS
 10
7.480142663
 20
4.2430147516
 40
0.2203125
100
AcDbArc
 50
244.2208244843
 51
244.7791755157
  0
ARC
  5
50A
100
AcDbEntity
  8
0
100
AcDbCircle
 62
7
  6
CONTINUOUS
 10
7.480142663
 20
4.2430147516
 40
0.2203125
100
AcDbArc
 50
247.2208244843
 51
247.7791755157
  0
ARC
  5
50B
100
AcDbEntity
  8
0
100
AcDbCircle
 62
7
  6
CONTINUOUS
 10
7.480142663
 20
4.2430147516
 40
0.2203125
100
AcDbArc
 50
250.2208244843
 51
250.780848866
  0
ARC
  5
50C
100
AcDbEntity
  8
0
100
AcDbCircle
 62
7
  6
CONTINUOUS
 10
7.480142663
 20
4.2430147516
 40
0.2203125
100
AcDbArc
 50
253.219151134
 51
253.7791755157
  0
ARC
  5
50D
100
AcDbEntity
  8
0
100
AcDbCircle
 62
7
  6
CONTINUOUS
 10
7.480142663
 20
4.2430147516
 40
0.2203125
100
AcDbArc
 50
256.2208244843
 51
256.7791755157
  0
ARC
  5
50E
100
AcDbEntity
  8
0
100
AcDbCircle
 62
7
  6
CONTINUOUS
 10
7.480142663
 20
4.2430147516
 40
0.2203125
100
AcDbArc
 50
259.2208244843
 51
259.7791755157
  0
ARC
  5
50F
100
AcDbEntity
  8
0
100
AcDbCircle
 62
7
  6
CONTINUOUS
 10
7.480142663
 20
4.2430147516
 40
0.2203125
100
AcDbArc
 50
262.2208244843
 51
262.7791755157
  0
ARC
  5
510
100
AcDbEntity
  8
0
100
AcDbCircle
 62
7
  6
CONTINUOUS
 10
7.480142663
 20
4.2430147516
 40
0.2203125
100
AcDbArc
 50
265.2208244843
 51
265.7791755157
  0
ARC
  5
511
100
AcDbEntity
  8
0
100
AcDbCircle
 62
7
  6
CONTINUOUS
 10
7.480142663
 20
4.2430147516
 40
0.2203125
100
AcDbArc
 50
268.2208244843
 51
268.780848866
  0
ARC
  5
512
100
AcDbEntity
  8
0
100
AcDbCircle
 62
7
  6
CONTINUOUS
 10
7.480142663
 20
4.2430147516
 40
0.2203125
100
AcDbArc
 50
271.219151134
 51
271.7791755157
  0
ARC
  5
513
100
AcDbEntity
  8
0
100
AcDbCircle
 62
7
  6
CONTINUOUS
 10
7.480142663
 20
4.2430147516
 40
0.2203125
100
AcDbArc
 50
274.2208244843
 51
274.7791755157
  0
ARC
  5
514
100
AcDbEntity
  8
0
100
AcDbCircle
 62
7
  6
CONTINUOUS
 10
7.480142663
 20
4.2430147516
 40
0.2203125
100
AcDbArc
 50
277.2208244843
 51
277.7791755157
  0
ARC
  5
515
100
AcDbEntity
  8
0
100
AcDbCircle
 62
7
  6
CONTINUOUS
 10
7.480142663
 20
4.2430147516
 40
0.2203125
100
AcDbArc
 50
280.2208244843
 51
280.7791755157
  0
ARC
  5
516
100
AcDbEntity
  8
0
100
AcDbCircle
 62
7
  6
CONTINUOUS
 10
7.480142663
 20
4.2430147516
 40
0.2203125
100
AcDbArc
 50
283.2208244843
 51
283.7791755157
  0
ARC
  5
517
100
AcDbEntity
  8
0
100
AcDbCircle
 62
7
  6
CONTINUOUS
 10
7.480142663
 20
4.2430147516
 40
0.2203125
100
AcDbArc
 50
286.2208244843
 51
286.780848866
  0
ARC
  5
518
100
AcDbEntity
  8
0
100
AcDbCircle
 62
7
  6
CONTINUOUS
 10
7.480142663
 20
4.2430147516
 40
0.2203125
100
AcDbArc
 50
289.219151134
 51
289.7791755157
  0
ARC
  5
519
100
AcDbEntity
  8
0
100
AcDbCircle
 62
7
  6
CONTINUOUS
 10
7.480142663
 20
4.2430147516
 40
0.2203125
100
AcDbArc
 50
292.2208244843
 51
292.7791755157
  0
ARC
  5
51A
100
AcDbEntity
  8
0
100
AcDbCircle
 62
7
  6
CONTINUOUS
 10
7.480142663
 20
4.2430147516
 40
0.2203125
100
AcDbArc
 50
295.2208244843
 51
295.7791755157
  0
ARC
  5
51B
100
AcDbEntity
  8
0
100
AcDbCircle
 62
7
  6
CONTINUOUS
 10
7.480142663
 20
4.2430147516
 40
0.2203125
100
AcDbArc
 50
298.2208244843
 51
298.7791755157
  0
ARC
  5
51C
100
AcDbEntity
  8
0
100
AcDbCircle
 62
7
  6
CONTINUOUS
 10
7.480142663
 20
4.2430147516
 40
0.2203125
100
AcDbArc
 50
301.2208244843
 51
301.7791755157
  0
ARC
  5
51D
100
AcDbEntity
  8
0
100
AcDbCircle
 62
7
  6
CONTINUOUS
 10
7.480142663
 20
4.2430147516
 40
0.2203125
100
AcDbArc
 50
304.2208244843
 51
304.780848866
  0
ARC
  5
51E
100
AcDbEntity
  8
0
100
AcDbCircle
 62
7
  6
CONTINUOUS
 10
7.480142663
 20
4.2430147516
 40
0.2203125
100
AcDbArc
 50
307.219151134
 51
307.7791755157
  0
ARC
  5
51F
100
AcDbEntity
  8
0
100
AcDbCircle
 62
7
  6
CONTINUOUS
 10
7.480142663
 20
4.2430147516
 40
0.2203125
100
AcDbArc
 50
310.2208244843
 51
310.7791755157
  0
ARC
  5
520
100
AcDbEntity
  8
0
100
AcDbCircle
 62
7
  6
CONTINUOUS
 10
7.480142663
 20
4.2430147516
 40
0.2203125
100
AcDbArc
 50
313.2208244843
 51
313.7791755157
  0
ARC
  5
521
100
AcDbEntity
  8
0
100
AcDbCircle
 62
7
  6
CONTINUOUS
 10
7.480142663
 20
4.2430147516
 40
0.2203125
100
AcDbArc
 50
316.2208244843
 51
316.7791755157
  0
ARC
  5
522
100
AcDbEntity
  8
0
100
AcDbCircle
 62
7
  6
CONTINUOUS
 10
7.480142663
 20
4.2430147516
 40
0.2203125
100
AcDbArc
 50
319.2208244843
 51
319.7791755157
  0
ARC
  5
523
100
AcDbEntity
  8
0
100
AcDbCircle
 62
7
  6
CONTINUOUS
 10
7.480142663
 20
4.2430147516
 40
0.2203125
100
AcDbArc
 50
322.2208244843
 51
322.780848866
  0
ARC
  5
524
100
AcDbEntity
  8
0
100
AcDbCircle
 62
7
  6
CONTINUOUS
 10
7.480142663
 20
4.2430147516
 40
0.2203125
100
AcDbArc
 50
325.219151134
 51
325.7791755157
  0
ARC
  5
525
100
AcDbEntity
  8
0
100
AcDbCircle
 62
7
  6
CONTINUOUS
 10
7.480142663
 20
4.2430147516
 40
0.2203125
100
AcDbArc
 50
328.2208244843
 51
328.7791755157
  0
ARC
  5
526
100
AcDbEntity
  8
0
100
AcDbCircle
 62
7
  6
CONTINUOUS
 10
7.480142663
 20
4.2430147516
 40
0.2203125
100
AcDbArc
 50
331.2208244843
 51
331.7791755157
  0
ARC
  5
527
100
AcDbEntity
  8
0
100
AcDbCircle
 62
7
  6
CONTINUOUS
 10
7.480142663
 20
4.2430147516
 40
0.2203125
100
AcDbArc
 50
334.2208244843
 51
334.7791755157
  0
ARC
  5
528
100
AcDbEntity
  8
0
100
AcDbCircle
 62
7
  6
CONTINUOUS
 10
7.480142663
 20
4.2430147516
 40
0.2203125
100
AcDbArc
 50
337.2208244843
 51
337.7791755157
  0
ARC
  5
529
100
AcDbEntity
  8
0
100
AcDbCircle
 62
7
  6
CONTINUOUS
 10
7.480142663
 20
4.2430147516
 40
0.2203125
100
AcDbArc
 50
340.2208244843
 51
340.780848866
  0
ARC
  5
52A
100
AcDbEntity
  8
0
100
AcDbCircle
 62
7
  6
CONTINUOUS
 10
7.480142663
 20
4.2430147516
 40
0.2203125
100
AcDbArc
 50
343.219151134
 51
343.7791755157
  0
ARC
  5
52B
100
AcDbEntity
  8
0
100
AcDbCircle
 62
7
  6
CONTINUOUS
 10
7.480142663
 20
4.2430147516
 40
0.2203125
100
AcDbArc
 50
346.2208244843
 51
346.7791755157
  0
ARC
  5
52C
100
AcDbEntity
  8
0
100
AcDbCircle
 62
7
  6
CONTINUOUS
 10
7.480142663
 20
4.2430147516
 40
0.2203125
100
AcDbArc
 50
349.2208244843
 51
349.7791755157
  0
ARC
  5
52D
100
AcDbEntity
  8
0
100
AcDbCircle
 62
7
  6
CONTINUOUS
 10
7.480142663
 20
4.2430147516
 40
0.2203125
100
AcDbArc
 50
352.2208244843
 51
352.7791755157
  0
ARC
  5
52E
100
AcDbEntity
  8
0
100
AcDbCircle
 62
7
  6
CONTINUOUS
 10
7.480142663
 20
4.2430147516
 40
0.2203125
100
AcDbArc
 50
355.2208244843
 51
355.7791755157
  0
ARC
  5
52F
100
AcDbEntity
  8
0
100
AcDbCircle
 62
7
  6
CONTINUOUS
 10
7.480142663
 20
4.2430147516
 40
0.2203125
100
AcDbArc
 50
358.2208244843
 51
358.780848866
  0
ARC
  5
530
100
AcDbEntity
  8
0
100
AcDbCircle
 62
7
  6
CONTINUOUS
 10
7.480142663
 20
4.2430147516
 40
0.2203125
100
AcDbArc
 50
1.219151134
 51
1.7791755157
  0
ARC
  5
531
100
AcDbEntity
  8
0
100
AcDbCircle
 62
7
  6
CONTINUOUS
 10
7.480142663
 20
4.2430147516
 40
0.2203125
100
AcDbArc
 50
4.2208244843
 51
4.7791755157
  0
ARC
  5
532
100
AcDbEntity
  8
0
100
AcDbCircle
 62
7
  6
CONTINUOUS
 10
7.480142663
 20
4.2430147516
 40
0.2203125
100
AcDbArc
 50
7.2208244843
 51
7.7791755157
  0
ARC
  5
533
100
AcDbEntity
  8
0
100
AcDbCircle
 62
7
  6
CONTINUOUS
 10
7.480142663
 20
4.2430147516
 40
0.2203125
100
AcDbArc
 50
10.2208244843
 51
10.7791755157
  0
ARC
  5
534
100
AcDbEntity
  8
0
100
AcDbCircle
 62
7
  6
CONTINUOUS
 10
7.480142663
 20
4.2430147516
 40
0.2203125
100
AcDbArc
 50
13.2208244843
 51
13.7791755157
  0
ARC
  5
535
100
AcDbEntity
  8
0
100
AcDbCircle
 62
7
  6
CONTINUOUS
 10
7.480142663
 20
4.2430147516
 40
0.2203125
100
AcDbArc
 50
16.2208244843
 51
16.780848866
  0
ARC
  5
536
100
AcDbEntity
  8
0
100
AcDbCircle
 62
7
  6
CONTINUOUS
 10
7.480142663
 20
4.2430147516
 40
0.2203125
100
AcDbArc
 50
19.219151134
 51
19.7791755157
  0
ARC
  5
537
100
AcDbEntity
  8
0
100
AcDbCircle
 62
7
  6
CONTINUOUS
 10
7.480142663
 20
4.2430147516
 40
0.2203125
100
AcDbArc
 50
22.2208244843
 51
22.7791755157
  0
ARC
  5
538
100
AcDbEntity
  8
0
100
AcDbCircle
 62
7
  6
CONTINUOUS
 10
7.480142663
 20
4.2430147516
 40
0.2203125
100
AcDbArc
 50
25.2208244843
 51
25.7791755157
  0
ARC
  5
539
100
AcDbEntity
  8
0
100
AcDbCircle
 62
7
  6
CONTINUOUS
 10
7.480142663
 20
4.2430147516
 40
0.2203125
100
AcDbArc
 50
28.2208244843
 51
28.7791755157
  0
ARC
  5
53A
100
AcDbEntity
  8
0
100
AcDbCircle
 62
7
  6
CONTINUOUS
 10
7.480142663
 20
4.2430147516
 40
0.2203125
100
AcDbArc
 50
31.2208244843
 51
31.7791755157
  0
ARC
  5
53B
100
AcDbEntity
  8
0
100
AcDbCircle
 62
7
  6
CONTINUOUS
 10
7.480142663
 20
4.2430147516
 40
0.2203125
100
AcDbArc
 50
34.2208244843
 51
34.780848866
  0
ARC
  5
53C
100
AcDbEntity
  8
0
100
AcDbCircle
 62
7
  6
CONTINUOUS
 10
7.480142663
 20
4.2430147516
 40
0.2203125
100
AcDbArc
 50
37.219151134
 51
37.7791755157
  0
ARC
  5
53D
100
AcDbEntity
  8
0
100
AcDbCircle
 62
7
  6
CONTINUOUS
 10
7.480142663
 20
4.2430147516
 40
0.2203125
100
AcDbArc
 50
40.2208244843
 51
40.7791755157
  0
ARC
  5
53E
100
AcDbEntity
  8
0
100
AcDbCircle
 62
7
  6
CONTINUOUS
 10
7.480142663
 20
4.2430147516
 40
0.2203125
100
AcDbArc
 50
43.2208244843
 51
43.7791755157
  0
ARC
  5
53F
100
AcDbEntity
  8
0
100
AcDbCircle
 62
7
  6
CONTINUOUS
 10
7.480142663
 20
4.2430147516
 40
0.2203125
100
AcDbArc
 50
46.2208244843
 51
46.7791755157
  0
ARC
  5
540
100
AcDbEntity
  8
0
100
AcDbCircle
 62
7
  6
CONTINUOUS
 10
7.480142663
 20
4.2430147516
 40
0.2203125
100
AcDbArc
 50
49.2208244843
 51
49.7791755157
  0
ARC
  5
541
100
AcDbEntity
  8
0
100
AcDbCircle
 62
7
  6
CONTINUOUS
 10
7.480142663
 20
4.2430147516
 40
0.2203125
100
AcDbArc
 50
52.2208244843
 51
52.780848866
  0
ARC
  5
542
100
AcDbEntity
  8
0
100
AcDbCircle
 62
7
  6
CONTINUOUS
 10
7.480142663
 20
4.2430147516
 40
0.2203125
100
AcDbArc
 50
55.219151134
 51
55.7791755157
  0
ARC
  5
543
100
AcDbEntity
  8
0
100
AcDbCircle
 62
7
  6
CONTINUOUS
 10
7.480142663
 20
4.2430147516
 40
0.2203125
100
AcDbArc
 50
103.2208244843
 51
103.7791755157
  0
ARC
  5
544
100
AcDbEntity
  8
0
100
AcDbCircle
 62
7
  6
CONTINUOUS
 10
7.480142663
 20
4.2430147516
 40
0.2203125
100
AcDbArc
 50
100.2208244843
 51
100.7791755157
  0
ARC
  5
545
100
AcDbEntity
  8
0
100
AcDbCircle
 62
7
  6
CONTINUOUS
 10
7.480142663
 20
4.2430147516
 40
0.2203125
100
AcDbArc
 50
97.2208244843
 51
97.7791755157
  0
ARC
  5
546
100
AcDbEntity
  8
0
100
AcDbCircle
 62
7
  6
CONTINUOUS
 10
7.480142663
 20
4.2430147516
 40
0.2203125
100
AcDbArc
 50
94.2208244843
 51
94.7791755157
  0
ARC
  5
547
100
AcDbEntity
  8
0
100
AcDbCircle
 62
7
  6
CONTINUOUS
 10
7.480142663
 20
4.2430147516
 40
0.2203125
100
AcDbArc
 50
91.219151134
 51
91.7791755157
  0
ARC
  5
548
100
AcDbEntity
  8
0
100
AcDbCircle
 62
7
  6
CONTINUOUS
 10
7.480142663
 20
4.2430147516
 40
0.2203125
100
AcDbArc
 50
58.2208244843
 51
58.7791755157
  0
ARC
  5
549
100
AcDbEntity
  8
0
100
AcDbCircle
 62
7
  6
CONTINUOUS
 10
7.480142663
 20
4.2430147516
 40
0.2203125
100
AcDbArc
 50
61.2208244843
 51
61.7791755157
  0
ARC
  5
54A
100
AcDbEntity
  8
0
100
AcDbCircle
 62
7
  6
CONTINUOUS
 10
7.480142663
 20
4.2430147516
 40
0.2203125
100
AcDbArc
 50
64.2208244843
 51
64.7791755157
  0
ARC
  5
54B
100
AcDbEntity
  8
0
100
AcDbCircle
 62
7
  6
CONTINUOUS
 10
7.480142663
 20
4.2430147516
 40
0.2203125
100
AcDbArc
 50
67.2208244843
 51
67.7791755157
  0
ARC
  5
54C
100
AcDbEntity
  8
0
100
AcDbCircle
 62
7
  6
CONTINUOUS
 10
7.480142663
 20
4.2430147516
 40
0.2203125
100
AcDbArc
 50
70.2208244843
 51
70.780848866
  0
ARC
  5
54D
100
AcDbEntity
  8
0
100
AcDbCircle
 62
7
  6
CONTINUOUS
 10
7.480142663
 20
4.2430147516
 40
0.2203125
100
AcDbArc
 50
73.219151134
 51
73.7791755157
  0
ARC
  5
54E
100
AcDbEntity
  8
0
100
AcDbCircle
 62
7
  6
CONTINUOUS
 10
7.480142663
 20
4.2430147516
 40
0.2203125
100
AcDbArc
 50
76.2208244843
 51
76.7791755157
  0
ARC
  5
54F
100
AcDbEntity
  8
0
100
AcDbCircle
 62
7
  6
CONTINUOUS
 10
7.480142663
 20
4.2430147516
 40
0.2203125
100
AcDbArc
 50
79.2208244843
 51
79.7791755157
  0
ARC
  5
550
100
AcDbEntity
  8
0
100
AcDbCircle
 62
7
  6
CONTINUOUS
 10
7.480142663
 20
4.2430147516
 40
0.2203125
100
AcDbArc
 50
82.2208244843
 51
82.7791755157
  0
ARC
  5
551
100
AcDbEntity
  8
0
100
AcDbCircle
 62
7
  6
CONTINUOUS
 10
7.480142663
 20
4.2430147516
 40
0.2203125
100
AcDbArc
 50
85.2208244843
 51
85.7791755157
  0
ARC
  5
552
100
AcDbEntity
  8
0
100
AcDbCircle
 62
7
  6
CONTINUOUS
 10
7.480142663
 20
4.2430147516
 40
0.2203125
100
AcDbArc
 50
88.2208244843
 51
88.780848866
  0
CIRCLE
  5
553
100
AcDbEntity
  8
0
100
AcDbCircle
 62
7
  6
CONTINUOUS
 10
7.480142663
 20
4.2430147516
 40
0.208125
  0
CIRCLE
  5
554
100
AcDbEntity
  8
0
100
AcDbCircle
 62
7
  6
CONTINUOUS
 10
7.480142663
 20
4.2430147516
 40
0.2074796951
  0
CIRCLE
  5
555
100
AcDbEntity
  8
0
100
AcDbCircle
 62
7
  6
CONTINUOUS
 10
7.480142663
 20
4.2430147516
 40
0.1698655874
  0
CIRCLE
  5
556
100
AcDbEntity
  8
0
100
AcDbCircle
 62
7
  6
CONTINUOUS
 10
7.480142663
 20
4.2430147516
 40
0.1667608923
  0
CIRCLE
  5
557
100
AcDbEntity
  8
0
100
AcDbCircle
 62
7
  6
CONTINUOUS
 10
7.480142663
 20
4.2430147516
 40
0.1565625
  0
CIRCLE
  5
558
100
AcDbEntity
  8
0
100
AcDbCircle
 62
7
  6
CONTINUOUS
 10
7.480142663
 20
4.2430147516
 40
0.1553887795
  0
CIRCLE
  5
559
100
AcDbEntity
  8
0
100
AcDbCircle
 62
7
  6
CONTINUOUS
 10
7.480142663
 20
4.2430147516
 40
0.152786636
  0
CIRCLE
  5
55A
100
AcDbEntity
  8
0
100
AcDbCircle
 62
7
  6
CONTINUOUS
 10
7.5318968432
 20
4.2947689607
 40
0.0073454913
  0
CIRCLE
  5
55B
100
AcDbEntity
  8
0
100
AcDbCircle
 62
7
  6
CONTINUOUS
 10
7.5989412652
 20
4.2430147332
 40
0.007772963
  0
CIRCLE
  5
55C
100
AcDbEntity
  8
0
100
AcDbCircle
 62
7
  6
CONTINUOUS
 10
7.5533338797
 20
4.2430146704
 40
0.007345322
  0
CIRCLE
  5
55D
100
AcDbEntity
  8
0
100
AcDbCircle
 62
7
  6
CONTINUOUS
 10
7.589901066
 20
4.2884767373
 40
0.0077756448
  0
CIRCLE
  5
55E
100
AcDbEntity
  8
0
100
AcDbCircle
 62
7
  6
CONTINUOUS
 10
7.5641486563
 20
4.3270188721
 40
0.0077756448
  0
CIRCLE
  5
55F
100
AcDbEntity
  8
0
100
AcDbCircle
 62
7
  6
CONTINUOUS
 10
7.5256070949
 20
4.3527721399
 40
0.0077756447
  0
ARC
  5
560
100
AcDbEntity
  8
0
100
AcDbCircle
 62
7
  6
CONTINUOUS
 10
7.480143987
 20
4.361815841
 40
0.0077756447
100
AcDbArc
 50
78.0797910025
 51
259.4381406587
  0
ARC
  5
561
100
AcDbEntity
  8
0
100
AcDbCircle
 62
7
  6
CONTINUOUS
 10
7.4801426739
 20
4.3162067169
 40
0.007345495
100
AcDbArc
 50
30.6274767224
 51
211.7144719421
  0
SPLINE
  5
562
100
AcDbEntity
  8
0
100
AcDbSpline
 62
7
  6
CONTINUOUS
 70
0
 71
3
 72
95
 73
91
 74
0
 42
0.0000001
 43
0.0000001
 44
0.0000000001
 40
0.0
 40
0.0
 40
0.0
 40
0.0
 40
0.0000027069
 40
0.0000108237
 40
0.0000243482
 40
0.0000432784
 40
0.0000676121
 40
0.0000973473
 40
0.0001730133
 40
0.0002702597
 40
0.0003890694
 40
0.0005294257
 40
0.0006913115
 40
0.0010796043
 40
0.0015538125
 40
0.0021137976
 40
0.0027593087
 40
0.0034899612
 40
0.0043053629
 40
0.0052051214
 40
0.0061888447
 40
0.0084065999
 40
0.0109547633
 40
0.0138285523
 40
0.0170231303
 40
0.0205334383
 40
0.024353602
 40
0.0284775753
 40
0.0328993011
 40
0.0426100083
 40
0.053432392
 40
0.0653121884
 40
0.0781947734
 40
0.0920265662
 40
0.1067552198
 40
0.1223307377
 40
0.1387050537
 40
0.1558328789
 40
0.1921772654
 40
0.231044769
 40
0.2721389719
 40
0.3151703104
 40
0.3598352783
 40
0.4057954504
 40
0.4526629288
 40
0.5000000003
 40
0.5473370716
 40
0.59420455
 40
0.6401647223
 40
0.6848296902
 40
0.7278610288
 40
0.7689552315
 40
0.8078227352
 40
0.8441671216
 40
0.8612949468
 40
0.8776692628
 40
0.8932447806
 40
0.9079734342
 40
0.921805227
 40
0.934687812
 40
0.9465676083
 40
0.9573899919
 40
0.9671006992
 40
0.971522425
 40
0.9756463982
 40
0.9794665619
 40
0.9829768699
 40
0.9861714479
 40
0.9890452368
 40
0.9915934002
 40
0.9938111555
 40
0.9947948788
 40
0.9956946374
 40
0.996510039
 40
0.9972406915
 40
0.9978862025
 40
0.9984461874
 40
0.9989203955
 40
0.9993086881
 40
0.9994705739
 40
0.9996109301
 40
0.9997297399
 40
0.9998269862
 40
0.9999026524
 40
0.9999323875
 40
0.9999567213
 40
0.9999756515
 40
0.9999891761
 40
0.999997293
 40
1.0
 40
1.0
 40
1.0
 40
1.0
 10
6.189205163
 20
3.4876241266
 30
0.0
 10
6.1892050161
 20
3.4876241266
 30
0.0
 10
6.1892048924
 20
3.4876249402
 30
0.0
 10
6.1892040506
 20
3.4876257811
 30
0.0
 10
6.189203027
 20
3.4876278471
 30
0.0
 10
6.1892014167
 20
3.4876304271
 30
0.0
 10
6.1891994184
 20
3.487633869
 30
0.0
 10
6.1891958302
 20
3.4876399209
 30
0.0
 10
6.1891902442
 20
3.4876494054
 30
0.0
 10
6.1891821951
 20
3.4876630432
 30
0.0
 10
6.1891723671
 20
3.4876797128
 30
0.0
 10
6.1891607582
 20
3.4876994051
 30
0.0
 10
6.1891417246
 20
3.4877317046
 30
0.0
 10
6.1891134993
 20
3.4877796259
 30
0.0
 10
6.189074324
 20
3.4878461817
 30
0.0
 10
6.1890280859
 20
3.4879247848
 30
0.0
 10
6.1889748196
 20
3.4880154065
 30
0.0
 10
6.1889145748
 20
3.4881180116
 30
0.0
 10
6.1888474036
 20
3.4882325567
 30
0.0
 10
6.1887733585
 20
3.4883589988
 30
0.0
 10
6.1886609645
 20
3.4885512142
 30
0.0
 10
6.188503678
 20
3.4888208512
 30
0.0
 10
6.1882952503
 20
3.4891794532
 30
0.0
 10
6.1880609377
 20
3.4895843503
 30
0.0
 10
6.1878014005
 20
3.4900350017
 30
0.0
 10
6.1875173405
 20
3.4905308207
 30
0.0
 10
6.1872095788
 20
3.4910712114
 30
0.0
 10
6.1868789627
 20
3.4916555283
 30
0.0
 10
6.1863934325
 20
3.49251964
 30
0.0
 10
6.1857356986
 20
3.4937041307
 30
0.0
 10
6.1848928645
 20
3.4952489397
 30
0.0
 10
6.183981855
 20
3.4969526536
 30
0.0
 10
6.1830111909
 20
3.4988096521
 30
0.0
 10
6.1819897137
 20
3.5008144889
 30
0.0
 10
6.1809263307
 20
3.5029619011
 30
0.0
 10
6.1798302241
 20
3.505246937
 30
0.0
 10
6.1787105341
 20
3.5076648812
 30
0.0
 10
6.1771679712
 20
3.5111291803
 30
0.0
 10
6.175240314
 20
3.5157581933
 30
0.0
 10
6.1730278702
 20
3.5216740911
 30
0.0
 10
6.1709521957
 20
3.528023145
 30
0.0
 10
6.1690951543
 20
3.5347673283
 30
0.0
 10
6.1675384689
 20
3.5418586194
 30
0.0
 10
6.1663591067
 20
3.5492341014
 30
0.0
 10
6.1656219344
 20
3.5568132201
 30
0.0
 10
6.1653709658
 20
3.5644991266
 30
0.0
 10
6.1656219344
 20
3.5721850331
 30
0.0
 10
6.1663591067
 20
3.5797641518
 30
0.0
 10
6.1675384689
 20
3.5871396338
 30
0.0
 10
6.1690951544
 20
3.5942309249
 30
0.0
 10
6.1709521957
 20
3.6009751082
 30
0.0
 10
6.1730278702
 20
3.6073241621
 30
0.0
 10
6.175240314
 20
3.6132400599
 30
0.0
 10
6.1771679712
 20
3.6178690729
 30
0.0
 10
6.1787105341
 20
3.6213333719
 30
0.0
 10
6.1798302241
 20
3.6237513162
 30
0.0
 10
6.1809263307
 20
3.6260363521
 30
0.0
 10
6.1819897137
 20
3.6281837643
 30
0.0
 10
6.183011191
 20
3.6301886011
 30
0.0
 10
6.183981855
 20
3.6320455996
 30
0.0
 10
6.1848928645
 20
3.6337493134
 30
0.0
 10
6.1857356986
 20
3.6352941224
 30
0.0
 10
6.1863934325
 20
3.6364786132
 30
0.0
 10
6.1868789628
 20
3.6373427249
 30
0.0
 10
6.1872095788
 20
3.6379270417
 30
0.0
 10
6.1875173406
 20
3.6384674324
 30
0.0
 10
6.1878014005
 20
3.6389632514
 30
0.0
 10
6.1880609377
 20
3.6394139028
 30
0.0
 10
6.1882952503
 20
3.6398187999
 30
0.0
 10
6.188503678
 20
3.6401774019
 30
0.0
 10
6.1886609645
 20
3.6404470389
 30
0.0
 10
6.1887733585
 20
3.6406392543
 30
0.0
 10
6.1888474036
 20
3.6407656964
 30
0.0
 10
6.1889145749
 20
3.6408802416
 30
0.0
 10
6.1889748196
 20
3.6409828466
 30
0.0
 10
6.189028086
 20
3.6410734684
 30
0.0
 10
6.189074324
 20
3.6411520714
 30
0.0
 10
6.1891134993
 20
3.6412186272
 30
0.0
 10
6.1891417245
 20
3.6412665485
 30
0.0
 10
6.1891607581
 20
3.641298848
 30
0.0
 10
6.1891723669
 20
3.6413185404
 30
0.0
 10
6.189182195
 20
3.64133521
 30
0.0
 10
6.189190244
 20
3.6413488477
 30
0.0
 10
6.1891958301
 20
3.6413583322
 30
0.0
 10
6.1891994183
 20
3.6413643841
 30
0.0
 10
6.1892014166
 20
3.641367826
 30
0.0
 10
6.1892030269
 20
3.641370406
 30
0.0
 10
6.1892040506
 20
3.641372472
 30
0.0
 10
6.1892048923
 20
3.641373313
 30
0.0
 10
6.1892050161
 20
3.6413741266
 30
0.0
 10
6.189205163
 20
3.6413741266
 30
0.0
  0
SPLINE
  5
563
100
AcDbEntity
  8
0
100
AcDbSpline
 62
7
  6
CONTINUOUS
 70
0
 71
3
 72
62
 73
58
 74
0
 42
0.0000001
 43
0.0000001
 44
0.0000000001
 40
0.0
 40
0.0
 40
0.0
 40
0.0
 40
0.0109549958
 40
0.0426103599
 40
0.0920253439
 40
0.1558257447
 40
0.2310267017
 40
0.27212187
 40
0.3151542196
 40
0.3598202368
 40
0.405781489
 40
0.4526500685
 40
0.499988252
 40
0.5473264357
 40
0.5941950153
 40
0.6401562672
 40
0.6848222845
 40
0.727854634
 40
0.7689498024
 40
0.8078182193
 40
0.8441634597
 40
0.8612916873
 40
0.877666388
 40
0.8932422719
 40
0.9079712716
 40
0.9218033893
 40
0.934686277
 40
0.9465663525
 40
0.9573889905
 40
0.9670999259
 40
0.9715217555
 40
0.9756458256
 40
0.9794660791
 40
0.9829764697
 40
0.9861711231
 40
0.9890449798
 40
0.9915932029
 40
0.9938110092
 40
0.9947947551
 40
0.9956945343
 40
0.9965099549
 40
0.9972406249
 40
0.9978861522
 40
0.9984461521
 40
0.9989203737
 40
0.9993086777
 40
0.9994705681
 40
0.9996109282
 40
0.9997297409
 40
0.9998269893
 40
0.9999026565
 40
0.9999323917
 40
0.9999567253
 40
0.999975655
 40
0.9999891788
 40
0.9999972945
 40
1.0
 40
1.0
 40
1.0
 40
1.0
 10
5.771080163
 20
3.6413741266
 30
0.0
 10
5.7713823511
 20
3.6408618658
 30
0.0
 10
5.7725504891
 20
3.6388650921
 30
0.0
 10
5.7750107366
 20
3.6345162771
 30
0.0
 10
5.7786817004
 20
3.6275582912
 30
0.0
 10
5.7830421243
 20
3.6182998607
 30
0.0
 10
5.7866444179
 20
3.6091993964
 30
0.0
 10
5.7893331077
 20
3.6009751609
 30
0.0
 10
5.7911901782
 20
3.59423091
 30
0.0
 10
5.7927468554
 20
3.587139638
 30
0.0
 10
5.7939262199
 20
3.5797641507
 30
0.0
 10
5.7946633916
 20
3.5721850334
 30
0.0
 10
5.7949143603
 20
3.5644991265
 30
0.0
 10
5.7946633917
 20
3.5568132201
 30
0.0
 10
5.7939262194
 20
3.5492341014
 30
0.0
 10
5.7927468572
 20
3.5418586194
 30
0.0
 10
5.7911901718
 20
3.5347673283
 30
0.0
 10
5.7893331304
 20
3.5280231451
 30
0.0
 10
5.7872574559
 20
3.5216740911
 30
0.0
 10
5.7850450121
 20
3.5157581933
 30
0.0
 10
5.7831173549
 20
3.5111291803
 30
0.0
 10
5.781574792
 20
3.5076648813
 30
0.0
 10
5.780455102
 20
3.505246937
 30
0.0
 10
5.7793589954
 20
3.5029619011
 30
0.0
 10
5.7782956124
 20
3.5008144889
 30
0.0
 10
5.7772741352
 20
3.4988096521
 30
0.0
 10
5.7763034711
 20
3.4969526536
 30
0.0
 10
5.7753924616
 20
3.4952489397
 30
0.0
 10
5.7745496275
 20
3.4937041307
 30
0.0
 10
5.7738918936
 20
3.49251964
 30
0.0
 10
5.7734063634
 20
3.4916555283
 30
0.0
 10
5.7730757473
 20
3.4910712114
 30
0.0
 10
5.7727679856
 20
3.4905308207
 30
0.0
 10
5.7724839256
 20
3.4900350017
 30
0.0
 10
5.7722243883
 20
3.4895843503
 30
0.0
 10
5.7719900756
 20
3.4891794533
 30
0.0
 10
5.7717816479
 20
3.4888208513
 30
0.0
 10
5.7716243617
 20
3.4885512142
 30
0.0
 10
5.771511968
 20
3.4883589988
 30
0.0
 10
5.7714379231
 20
3.4882325567
 30
0.0
 10
5.7713707519
 20
3.4881180115
 30
0.0
 10
5.771310507
 20
3.4880154064
 30
0.0
 10
5.7712572404
 20
3.4879247847
 30
0.0
 10
5.7712110018
 20
3.4878461817
 30
0.0
 10
5.7711718256
 20
3.4877796259
 30
0.0
 10
5.7711436001
 20
3.4877317046
 30
0.0
 10
5.7711245656
 20
3.4876994051
 30
0.0
 10
5.7711129577
 20
3.4876797128
 30
0.0
 10
5.7711031263
 20
3.4876630432
 30
0.0
 10
5.7710950865
 20
3.4876494055
 30
0.0
 10
5.7710894795
 20
3.4876399209
 30
0.0
 10
5.7710859238
 20
3.487633869
 30
0.0
 10
5.7710838583
 20
3.4876304271
 30
0.0
 10
5.7710824222
 20
3.4876278471
 30
0.0
 10
5.7710810053
 20
3.4876257811
 30
0.0
 10
5.7710808543
 20
3.4876249402
 30
0.0
 10
5.7710800162
 20
3.4876241267
 30
0.0
 10
5.771080163
 20
3.4876241266
 30
0.0
  0
SPLINE
  5
564
100
AcDbEntity
  8
0
100
AcDbSpline
 62
7
  6
CONTINUOUS
 70
0
 71
3
 72
46
 73
42
 74
0
 42
0.0000001
 43
0.0000001
 44
0.0000000001
 40
0.0
 40
0.0
 40
0.0
 40
0.0
 40
0.0847696995
 40
0.1682934254
 40
0.2493512461
 40
0.3267749163
 40
0.3994775779
 40
0.4337499362
 40
0.4664898691
 40
0.4976025025
 40
0.5270080972
 40
0.5546460572
 40
0.580481008
 40
0.6045121174
 40
0.6267886042
 40
0.647436507
 40
0.6667098238
 40
0.6759673386
 40
0.685084597
 40
0.6941857774
 40
0.7034365166
 40
0.7130593261
 40
0.7233399877
 40
0.7346147574
 40
0.7472143543
 40
0.7613502979
 40
0.7770002039
 40
0.7939157361
 40
0.8117401049
 40
0.8301380293
 40
0.8488331258
 40
0.8675955296
 40
0.8862080674
 40
0.9044286011
 40
0.9219550609
 40
0.9384348193
 40
0.953535143
 40
0.9670809694
 40
0.9791466751
 40
0.99000524
 40
1.0
 40
1.0
 40
1.0
 40
1.0
 10
4.480142663
 20
5.0827897729
 30
0.0
 10
4.4738821521
 20
5.0827897729
 30
0.0
 10
4.4614530425
 20
5.0827232857
 30
0.0
 10
4.443039726
 20
5.0824248147
 30
0.0
 10
4.4251732394
 20
5.081932235
 30
0.0
 10
4.4081126496
 20
5.0812524813
 30
0.0
 10
4.3945131361
 20
5.0805244554
 30
0.0
 10
4.3842168691
 20
5.0798474431
 30
0.0
 10
4.3769899955
 20
5.0793085058
 30
0.0
 10
4.3701268347
 20
5.0787296236
 30
0.0
 10
4.3636454652
 20
5.0781116893
 30
0.0
 10
4.357559762
 20
5.0774551037
 30
0.0
 10
4.3518780609
 20
5.0767592913
 30
0.0
 10
4.3466010743
 20
5.0760219297
 30
0.0
 10
4.3417183867
 20
5.0752374044
 30
0.0
 10
4.3372024641
 20
5.0743937542
 30
0.0
 10
4.3336547332
 20
5.073611348
 30
0.0
 10
4.3309604646
 20
5.0729235736
 30
0.0
 10
4.3290074697
 20
5.0723717929
 30
0.0
 10
4.327072464
 20
5.0717612178
 30
0.0
 10
4.3251255726
 20
5.0710681769
 30
0.0
 10
4.3231303069
 20
5.070256661
 30
0.0
 10
4.3210467658
 20
5.0692731273
 30
0.0
 10
4.318842108
 20
5.0680425658
 30
0.0
 10
4.3165115598
 20
5.0664704455
 30
0.0
 10
4.3141051343
 20
5.0644581627
 30
0.0
 10
4.3117411699
 20
5.061933119
 30
0.0
 10
4.3095901444
 20
5.0588800356
 30
0.0
 10
4.3078331593
 20
5.0553528566
 30
0.0
 10
4.306622485
 20
5.0514628841
 30
0.0
 10
4.3060601485
 20
5.0473568048
 30
0.0
 10
4.3061917355
 20
5.043198367
 30
0.0
 10
4.3070069131
 20
5.0391548221
 30
0.0
 10
4.3084384932
 20
5.0353853514
 30
0.0
 10
4.3103644801
 20
5.0320260004
 30
0.0
 10
4.3126179468
 20
5.0291690687
 30
0.0
 10
4.315016154
 20
5.0268425249
 30
0.0
 10
4.3174044664
 20
5.0250069013
 30
0.0
 10
4.3196900174
 20
5.0235755291
 30
0.0
 10
4.3218463305
 20
5.0224485332
 30
0.0
 10
4.3232540192
 20
5.021821565
 30
0.0
 10
4.3239358986
 20
5.0215389025
 30
0.0
  0
SPLINE
  5
565
100
AcDbEntity
  8
0
100
AcDbSpline
 62
7
  6
CONTINUOUS
 70
0
 71
3
 72
39
 73
35
 74
0
 42
0.0000001
 43
0.0000001
 44
0.0000000001
 40
0.0
 40
0.0
 40
0.0
 40
0.0
 40
0.0084164466
 40
0.0167055657
 40
0.0248462297
 40
0.0327708086
 40
0.047768183
 40
0.0614123533
 40
0.07359808
 40
0.0844465954
 40
0.0894515809
 40
0.0942258321
 40
0.103233192
 40
0.1117473097
 40
0.1199910692
 40
0.1363122535
 40
0.1531290065
 40
0.1709654165
 40
0.1901198135
 40
0.2107619384
 40
0.2329820965
 40
0.2568230154
 40
0.2822948745
 40
0.3093839662
 40
0.3380604794
 40
0.3682816168
 40
0.433134459
 40
0.5034215812
 40
0.5785208073
 40
0.6577344199
 40
0.7403058239
 40
0.8254336478
 40
0.9122830044
 40
1.0
 40
1.0
 40
1.0
 40
1.0
 10
4.3496475144
 20
4.7616564573
 30
0.0
 10
4.3496854812
 20
4.7612727089
 30
0.0
 10
4.3497959374
 20
4.7605139998
 30
0.0
 10
4.3500628726
 20
4.7594058429
 30
0.0
 10
4.3504199362
 20
4.7583470483
 30
0.0
 10
4.3509906594
 20
4.7570416944
 30
0.0
 10
4.3518484368
 20
4.7555935552
 30
0.0
 10
4.3530335741
 20
4.7541387385
 30
0.0
 10
4.3542553072
 20
4.7529793054
 30
0.0
 10
4.3552772372
 20
4.7521973473
 30
0.0
 10
4.3560649607
 20
4.7516747437
 30
0.0
 10
4.356799889
 20
4.7512262968
 30
0.0
 10
4.357699268
 20
4.750740288
 30
0.0
 10
4.3587682205
 20
4.7502382151
 30
0.0
 10
4.3601692919
 20
4.7496590833
 30
0.0
 10
4.3619617795
 20
4.7490364902
 30
0.0
 10
4.364207578
 20
4.7483925857
 30
0.0
 10
4.3666037369
 20
4.7478103806
 30
0.0
 10
4.3691884431
 20
4.7472682798
 30
0.0
 10
4.371983464
 20
4.7467553021
 30
0.0
 10
4.3750003965
 20
4.7462659287
 30
0.0
 10
4.3782443196
 20
4.7457972106
 30
0.0
 10
4.3817160187
 20
4.7453478067
 30
0.0
 10
4.385413232
 20
4.7449172416
 30
0.0
 10
4.3893314441
 20
4.7445054917
 30
0.0
 10
4.3949760787
 20
4.7439693683
 30
0.0
 10
4.402528083
 20
4.7433563694
 30
0.0
 10
4.4121399278
 20
4.7427190524
 30
0.0
 10
4.4224161335
 20
4.7421693192
 30
0.0
 10
4.4332601917
 20
4.7417121061
 30
0.0
 10
4.4445676086
 20
4.7413517738
 30
0.0
 10
4.4562277059
 20
4.7410918222
 30
0.0
 10
4.4681254045
 20
4.7409348106
 30
0.0
 10
4.4761236742
 20
4.740899861
 30
0.0
 10
4.480142663
 20
4.740899861
 30
0.0
  0
SPLINE
  5
566
100
AcDbEntity
  8
0
100
AcDbSpline
 62
7
  6
CONTINUOUS
 70
0
 71
3
 72
45
 73
41
 74
0
 42
0.0000001
 43
0.0000001
 44
0.0000000001
 40
0.0
 40
0.0
 40
0.0
 40
0.0
 40
0.0208422427
 40
0.0329070957
 40
0.0464504637
 40
0.0615473543
 40
0.0780237636
 40
0.0955470003
 40
0.113764855
 40
0.132376231
 40
0.1511386651
 40
0.169835327
 40
0.188235944
 40
0.2060638348
 40
0.2229831182
 40
0.238636109
 40
0.2527746469
 40
0.2653756618
 40
0.2766518303
 40
0.2869333109
 40
0.2965567815
 40
0.3058073588
 40
0.3149088045
 40
0.3240263246
 40
0.3332837458
 40
0.3525572949
 40
0.3732055261
 40
0.3954823258
 40
0.4195134854
 40
0.4453485683
 40
0.4729867158
 40
0.5023925318
 40
0.533505418
 40
0.5662456294
 40
0.600518289
 40
0.6732216305
 40
0.7506460767
 40
0.8317047501
 40
0.915229387
 40
1.0
 40
1.0
 40
1.0
 40
1.0
 10
4.6363485748
 20
5.0215384969
 30
0.0
 10
4.6377705502
 20
5.0221278161
 30
0.0
 10
4.6399690229
 20
5.0231833059
 30
0.0
 10
4.6428795421
 20
5.0250059904
 30
0.0
 10
4.6452676687
 20
5.0268412461
 30
0.0
 10
4.6476655582
 20
5.0291670332
 30
0.0
 10
4.6499188884
 20
5.0320231181
 30
0.0
 10
4.6518449652
 20
5.0353815818
 30
0.0
 10
4.6532771208
 20
5.0391502451
 30
0.0
 10
4.6540929645
 20
5.0431933404
 30
0.0
 10
4.654225476
 20
5.0473517562
 30
0.0
 10
4.6536638473
 20
5.051458231
 30
0.0
 10
4.652453804
 20
5.0553489849
 30
0.0
 10
4.65069696
 20
5.0588770453
 30
0.0
 10
4.648545899
 20
5.0619310179
 30
0.0
 10
4.6461817023
 20
5.064456781
 30
0.0
 10
4.6437750311
 20
5.0664695627
 30
0.0
 10
4.6414442422
 20
5.0680420181
 30
0.0
 10
4.6392393835
 20
5.0692727403
 30
0.0
 10
4.6371557118
 20
5.0702564622
 30
0.0
 10
4.6351603722
 20
5.0710680301
 30
0.0
 10
4.6332133989
 20
5.07176097
 30
0.0
 10
4.6312784129
 20
5.0723716533
 30
0.0
 10
4.6293253999
 20
5.0729234486
 30
0.0
 10
4.6266311151
 20
5.0736112115
 30
0.0
 10
4.6230833798
 20
5.0743936578
 30
0.0
 10
4.6185674225
 20
5.0752373294
 30
0.0
 10
4.6136847143
 20
5.0760218654
 30
0.0
 10
4.6084077223
 20
5.0767592279
 30
0.0
 10
4.6027260288
 20
5.0774550506
 30
0.0
 10
4.5966403221
 20
5.0781116421
 30
0.0
 10
4.5901589425
 20
5.0787295835
 30
0.0
 10
4.5832957668
 20
5.0793084714
 30
0.0
 10
4.5760688745
 20
5.0798474139
 30
0.0
 10
4.5657725753
 20
5.0805244329
 30
0.0
 10
4.5521730121
 20
5.081252466
 30
0.0
 10
4.5351123521
 20
5.0819322265
 30
0.0
 10
4.5172457826
 20
5.0824248111
 30
0.0
 10
4.4988323763
 20
5.0827232851
 30
0.0
 10
4.4864032048
 20
5.0827897729
 30
0.0
 10
4.480142663
 20
5.0827897729
 30
0.0
  0
SPLINE
  5
567
100
AcDbEntity
  8
0
100
AcDbSpline
 62
7
  6
CONTINUOUS
 70
0
 71
3
 72
36
 73
32
 74
0
 42
0.0000001
 43
0.0000001
 44
0.0000000001
 40
0.0
 40
0.0
 40
0.0
 40
0.0
 40
0.087719367
 40
0.1745710584
 40
0.2597011353
 40
0.3422746781
 40
0.4214902777
 40
0.4965913094
 40
0.5668800266
 40
0.6317342261
 40
0.6619559531
 40
0.6906329926
 40
0.7177225391
 40
0.7431947933
 40
0.7670360298
 40
0.7892563552
 40
0.8098984288
 40
0.8290531363
 40
0.8468898677
 40
0.8637070192
 40
0.8800287373
 40
0.8967819759
 40
0.9155548817
 40
0.9264040891
 40
0.93859001
 40
0.9522330162
 40
0.9672302293
 40
0.9751536931
 40
0.9832934447
 40
0.9915862698
 40
1.0
 40
1.0
 40
1.0
 40
1.0
 10
4.480142663
 20
4.740899861
 30
0.0
 10
4.4841616882
 20
4.740899861
 30
0.0
 10
4.4921600295
 20
4.7409348112
 30
0.0
 10
4.5040578327
 20
4.7410918256
 30
0.0
 10
4.5157180281
 20
4.7413517818
 30
0.0
 10
4.5270255334
 20
4.7417121205
 30
0.0
 10
4.5378696677
 20
4.7421693415
 30
0.0
 10
4.5481459345
 20
4.742719084
 30
0.0
 10
4.5577578233
 20
4.7433564116
 30
0.0
 10
4.5653098528
 20
4.7439694208
 30
0.0
 10
4.5709544978
 20
4.744505553
 30
0.0
 10
4.5748727102
 20
4.7449173096
 30
0.0
 10
4.5785699187
 20
4.7453478816
 30
0.0
 10
4.5820416072
 20
4.7457972928
 30
0.0
 10
4.5852855106
 20
4.746266016
 30
0.0
 10
4.5883024062
 20
4.7467554005
 30
0.0
 10
4.5910973942
 20
4.7472683731
 30
0.0
 10
4.5936820798
 20
4.7478104976
 30
0.0
 10
4.5960782173
 20
4.748392726
 30
0.0
 10
4.5983240796
 20
4.7490366913
 30
0.0
 10
4.6004849268
 20
4.7497873133
 30
0.0
 10
4.6026644965
 20
4.750739536
 30
0.0
 10
4.604506759
 20
4.7518140871
 30
0.0
 10
4.6060303947
 20
4.752979472
 30
0.0
 10
4.6072520554
 20
4.7541390765
 30
0.0
 10
4.6084371285
 20
4.7555937856
 30
0.0
 10
4.6092947525
 20
4.7570418655
 30
0.0
 10
4.6098654197
 20
4.7583470999
 30
0.0
 10
4.610222547
 20
4.7594059372
 30
0.0
 10
4.610489338
 20
4.7605141114
 30
0.0
 10
4.6105998579
 20
4.7612728396
 30
0.0
 10
4.6106378117
 20
4.7616564573
 30
0.0
  0
LINE
  5
568
100
AcDbEntity
  8
0
100
AcDbLine
 62
7
  6
CONTINUOUS
 10
5.912267663
 20
3.7482816306
 11
5.857751166
 21
3.7389300026
  0
LINE
  5
569
100
AcDbEntity
  8
0
100
AcDbLine
 62
7
  6
CONTINUOUS
 10
5.9782175293
 20
3.7523146958
 11
5.9658885607
 21
3.751573718
  0
LINE
  5
56A
100
AcDbEntity
  8
0
100
AcDbLine
 62
7
  6
CONTINUOUS
 10
5.9658885607
 20
3.751573718
 11
5.9649600816
 21
3.7515236603
  0
LINE
  5
56B
100
AcDbEntity
  8
0
100
AcDbLine
 62
7
  6
CONTINUOUS
 10
5.9337664986
 20
3.7498752074
 11
5.9332933948
 21
3.749850736
  0
LINE
  5
56C
100
AcDbEntity
  8
0
100
AcDbLine
 62
7
  6
CONTINUOUS
 10
5.9332933948
 20
3.749850736
 11
5.9207483717
 21
3.7492883947
  0
SPLINE
  5
56D
100
AcDbEntity
  8
0
100
AcDbSpline
 62
7
  6
CONTINUOUS
 70
0
 71
3
 72
95
 73
91
 74
0
 42
0.0000001
 43
0.0000001
 44
0.0000000001
 40
0.0
 40
0.0
 40
0.0
 40
0.0
 40
0.0000027067
 40
0.0000108227
 40
0.0000243461
 40
0.0000432749
 40
0.0000676068
 40
0.00009734
 40
0.0001730016
 40
0.0002702434
 40
0.0003890488
 40
0.0005294013
 40
0.0006912847
 40
0.0010795779
 40
0.0015537969
 40
0.0021138006
 40
0.0027593114
 40
0.0034899491
 40
0.004305331
 40
0.0052050749
 40
0.0061887985
 40
0.008406601
 40
0.010954735
 40
0.0138284811
 40
0.0170231
 40
0.0205334153
 40
0.0243535315
 40
0.028477498
 40
0.0328992637
 40
0.0426099176
 40
0.0534323308
 40
0.0653121072
 40
0.0781947083
 40
0.0920264878
 40
0.1067551771
 40
0.1223306865
 40
0.1387050394
 40
0.155832869
 40
0.1921773366
 40
0.2310449216
 40
0.2721391906
 40
0.3151705259
 40
0.3598353841
 40
0.4057954706
 40
0.4526629622
 40
0.5000000003
 40
0.5473370382
 40
0.5942045297
 40
0.6401646165
 40
0.6848294747
 40
0.72786081
 40
0.7689550789
 40
0.8078226639
 40
0.8441671314
 40
0.861294961
 40
0.877669314
 40
0.8932448233
 40
0.9079735125
 40
0.921805292
 40
0.9346878931
 40
0.9465676695
 40
0.9573900826
 40
0.9671007366
 40
0.9715225022
 40
0.9756464688
 40
0.9794665849
 40
0.9829769002
 40
0.9861715191
 40
0.9890452651
 40
0.9915933991
 40
0.9938112016
 40
0.9947949253
 40
0.9956946692
 40
0.9965100511
 40
0.9972406887
 40
0.9978861995
 40
0.9984462031
 40
0.9989204219
 40
0.999308715
 40
0.9994705983
 40
0.9996109508
 40
0.9997297562
 40
0.9998269979
 40
0.9999026596
 40
0.9999323928
 40
0.9999567248
 40
0.9999756536
 40
0.9999891771
 40
0.9999972933
 40
1.0
 40
1.0
 40
1.0
 40
1.0
 10
3.189205163
 20
3.4876241266
 30
0.0
 10
3.1892050161
 20
3.4876241266
 30
0.0
 10
3.1892048924
 20
3.4876249401
 30
0.0
 10
3.1892040508
 20
3.4876257809
 30
0.0
 10
3.1892030273
 20
3.4876278468
 30
0.0
 10
3.1892014172
 20
3.4876304267
 30
0.0
 10
3.1891994191
 20
3.4876338684
 30
0.0
 10
3.1891958313
 20
3.48763992
 30
0.0
 10
3.1891902458
 20
3.4876494042
 30
0.0
 10
3.1891821973
 20
3.4876630414
 30
0.0
 10
3.1891723698
 20
3.4876797105
 30
0.0
 10
3.1891607614
 20
3.4876994024
 30
0.0
 10
3.1891417281
 20
3.4877317018
 30
0.0
 10
3.1891135025
 20
3.4877796235
 30
0.0
 10
3.1890743258
 20
3.4878461803
 30
0.0
 10
3.1890280855
 20
3.4879247839
 30
0.0
 10
3.1889748192
 20
3.4880154059
 30
0.0
 10
3.1889145762
 20
3.4881180098
 30
0.0
 10
3.1888474073
 20
3.4882325533
 30
0.0
 10
3.1887733639
 20
3.4883589942
 30
0.0
 10
3.1886609688
 20
3.488551211
 30
0.0
 10
3.1885036772
 20
3.4888208461
 30
0.0
 10
3.1882952535
 20
3.489179449
 30
0.0
 10
3.1880609453
 20
3.4895843467
 30
0.0
 10
3.1878014019
 20
3.4900349948
 30
0.0
 10
3.187517342
 20
3.4905308139
 30
0.0
 10
3.1872095869
 20
3.4910712055
 30
0.0
 10
3.1868789701
 20
3.491655521
 30
0.0
 10
3.1863934314
 20
3.4925196267
 30
0.0
 10
3.1857357126
 20
3.4937041269
 30
0.0
 10
3.1848928642
 20
3.4952489254
 30
0.0
 10
3.1839818656
 20
3.4969526468
 30
0.0
 10
3.183011195
 20
3.4988096408
 30
0.0
 10
3.1819897174
 20
3.5008144798
 30
0.0
 10
3.1809263383
 20
3.5029618948
 30
0.0
 10
3.1798302209
 20
3.5052469295
 30
0.0
 10
3.1787105421
 20
3.5076648809
 30
0.0
 10
3.177167961
 20
3.5111291791
 30
0.0
 10
3.1752403085
 20
3.5157582043
 30
0.0
 10
3.1730278603
 20
3.5216741136
 30
0.0
 10
3.1709521885
 20
3.528023177
 30
0.0
 10
3.1690951501
 20
3.5347673584
 30
0.0
 10
3.1675384555
 20
3.5418586361
 30
0.0
 10
3.166359067
 20
3.5492341044
 30
0.0
 10
3.1656219311
 20
3.5568132226
 30
0.0
 10
3.165371016
 20
3.5644991266
 30
0.0
 10
3.1656219311
 20
3.5721850306
 30
0.0
 10
3.166359067
 20
3.5797641487
 30
0.0
 10
3.1675384555
 20
3.5871396171
 30
0.0
 10
3.1690951502
 20
3.5942308948
 30
0.0
 10
3.1709521885
 20
3.6009750762
 30
0.0
 10
3.1730278603
 20
3.6073241396
 30
0.0
 10
3.1752403085
 20
3.6132400489
 30
0.0
 10
3.1771679611
 20
3.617869074
 30
0.0
 10
3.1787105421
 20
3.6213333722
 30
0.0
 10
3.1798302209
 20
3.6237513237
 30
0.0
 10
3.1809263383
 20
3.6260363584
 30
0.0
 10
3.1819897174
 20
3.6281837733
 30
0.0
 10
3.183011195
 20
3.6301886124
 30
0.0
 10
3.1839818657
 20
3.6320456064
 30
0.0
 10
3.1848928642
 20
3.6337493278
 30
0.0
 10
3.1857357126
 20
3.6352941263
 30
0.0
 10
3.1863934314
 20
3.6364786264
 30
0.0
 10
3.1868789701
 20
3.6373427322
 30
0.0
 10
3.1872095869
 20
3.6379270477
 30
0.0
 10
3.187517342
 20
3.6384674393
 30
0.0
 10
3.1878014019
 20
3.6389632584
 30
0.0
 10
3.1880609453
 20
3.6394139065
 30
0.0
 10
3.1882952535
 20
3.6398188041
 30
0.0
 10
3.1885036772
 20
3.640177407
 30
0.0
 10
3.1886609689
 20
3.6404470421
 30
0.0
 10
3.1887733639
 20
3.640639259
 30
0.0
 10
3.1888474074
 20
3.6407656998
 30
0.0
 10
3.1889145763
 20
3.6408802433
 30
0.0
 10
3.1889748193
 20
3.6409828472
 30
0.0
 10
3.1890280855
 20
3.6410734692
 30
0.0
 10
3.1890743257
 20
3.6411520728
 30
0.0
 10
3.1891135025
 20
3.6412186297
 30
0.0
 10
3.189141728
 20
3.6412665513
 30
0.0
 10
3.1891607613
 20
3.6412988507
 30
0.0
 10
3.1891723697
 20
3.6413185426
 30
0.0
 10
3.1891821971
 20
3.6413352117
 30
0.0
 10
3.1891902456
 20
3.641348849
 30
0.0
 10
3.1891958312
 20
3.6413583331
 30
0.0
 10
3.189199419
 20
3.6413643847
 30
0.0
 10
3.1892014171
 20
3.6413678264
 30
0.0
 10
3.1892030272
 20
3.6413704063
 30
0.0
 10
3.1892040507
 20
3.6413724722
 30
0.0
 10
3.1892048924
 20
3.641373313
 30
0.0
 10
3.1892050161
 20
3.6413741266
 30
0.0
 10
3.189205163
 20
3.6413741266
 30
0.0
  0
SPLINE
  5
56E
100
AcDbEntity
  8
0
100
AcDbSpline
 62
7
  6
CONTINUOUS
 70
0
 71
3
 72
62
 73
58
 74
0
 42
0.0000001
 43
0.0000001
 44
0.0000000001
 40
0.0
 40
0.0
 40
0.0
 40
0.0
 40
0.0109549676
 40
0.042610269
 40
0.0920252651
 40
0.155825735
 40
0.2310268542
 40
0.2721220887
 40
0.315154435
 40
0.3598203426
 40
0.4057815091
 40
0.4526501019
 40
0.499988252
 40
0.5473264022
 40
0.594194995
 40
0.6401561613
 40
0.6848220689
 40
0.7278544153
 40
0.7689496498
 40
0.807818148
 40
0.8441634695
 40
0.8612917016
 40
0.8776664392
 40
0.8932423145
 40
0.9079713499
 40
0.9218034544
 40
0.9346863582
 40
0.9465664138
 40
0.9573890812
 40
0.9670999633
 40
0.9715218328
 40
0.9756458962
 40
0.9794661021
 40
0.9829765
 40
0.9861711942
 40
0.9890450081
 40
0.9915932018
 40
0.9938110556
 40
0.9947948017
 40
0.9956945662
 40
0.9965099671
 40
0.9972406221
 40
0.9978861489
 40
0.9984461674
 40
0.9989203997
 40
0.9993087042
 40
0.9994705921
 40
0.9996109486
 40
0.999729757
 40
0.9998270009
 40
0.9999026636
 40
0.9999323969
 40
0.9999567288
 40
0.999975657
 40
0.9999891797
 40
0.9999972947
 40
1.0
 40
1.0
 40
1.0
 40
1.0
 10
2.771080163
 20
3.6413741266
 30
0.0
 10
2.7713823504
 20
3.6408618671
 30
0.0
 10
2.7725504853
 20
3.6388650973
 30
0.0
 10
2.7750107258
 20
3.6345162832
 30
0.0
 10
2.7786816981
 20
3.6275583006
 30
0.0
 10
2.7830421298
 20
3.6182998588
 30
0.0
 10
2.7866444272
 20
3.6091993782
 30
0.0
 10
2.7893331151
 20
3.6009751291
 30
0.0
 10
2.7911901823
 20
3.5942308798
 30
0.0
 10
2.7927468688
 20
3.5871396214
 30
0.0
 10
2.7939262595
 20
3.5797641476
 30
0.0
 10
2.7946633949
 20
3.5721850309
 30
0.0
 10
2.7949143101
 20
3.5644991265
 30
0.0
 10
2.794663395
 20
3.5568132226
 30
0.0
 10
2.7939262591
 20
3.5492341045
 30
0.0
 10
2.7927468706
 20
3.5418586361
 30
0.0
 10
2.791190176
 20
3.5347673584
 30
0.0
 10
2.7893331376
 20
3.528023177
 30
0.0
 10
2.7872574658
 20
3.5216741136
 30
0.0
 10
2.7850450176
 20
3.5157582043
 30
0.0
 10
2.7831173651
 20
3.5111291792
 30
0.0
 10
2.781574784
 20
3.5076648809
 30
0.0
 10
2.7804551052
 20
3.5052469295
 30
0.0
 10
2.7793589878
 20
3.5029618948
 30
0.0
 10
2.7782956087
 20
3.5008144798
 30
0.0
 10
2.7772741311
 20
3.4988096408
 30
0.0
 10
2.7763034605
 20
3.4969526468
 30
0.0
 10
2.7753924619
 20
3.4952489254
 30
0.0
 10
2.7745496135
 20
3.4937041269
 30
0.0
 10
2.7738918947
 20
3.4925196268
 30
0.0
 10
2.773406356
 20
3.491655521
 30
0.0
 10
2.7730757393
 20
3.4910712055
 30
0.0
 10
2.7727679842
 20
3.4905308139
 30
0.0
 10
2.7724839242
 20
3.4900349948
 30
0.0
 10
2.7722243807
 20
3.4895843467
 30
0.0
 10
2.7719900724
 20
3.489179449
 30
0.0
 10
2.7717816487
 20
3.4888208462
 30
0.0
 10
2.7716243573
 20
3.488551211
 30
0.0
 10
2.7715119626
 20
3.4883589942
 30
0.0
 10
2.7714379192
 20
3.4882325533
 30
0.0
 10
2.7713707505
 20
3.4881180098
 30
0.0
 10
2.7713105074
 20
3.4880154058
 30
0.0
 10
2.7712572409
 20
3.4879247838
 30
0.0
 10
2.7712110002
 20
3.4878461802
 30
0.0
 10
2.7711718226
 20
3.4877796234
 30
0.0
 10
2.7711435967
 20
3.4877317018
 30
0.0
 10
2.7711245625
 20
3.4876994024
 30
0.0
 10
2.771112955
 20
3.4876797105
 30
0.0
 10
2.7711031242
 20
3.4876630414
 30
0.0
 10
2.7710950849
 20
3.4876494042
 30
0.0
 10
2.7710894785
 20
3.48763992
 30
0.0
 10
2.7710859231
 20
3.4876338684
 30
0.0
 10
2.7710838578
 20
3.4876304267
 30
0.0
 10
2.771082422
 20
3.4876278469
 30
0.0
 10
2.7710810052
 20
3.487625781
 30
0.0
 10
2.7710808543
 20
3.4876249402
 30
0.0
 10
2.7710800162
 20
3.4876241267
 30
0.0
 10
2.771080163
 20
3.4876241266
 30
0.0
  0
LINE
  5
56F
100
AcDbEntity
  8
0
100
AcDbLine
 62
7
  6
CONTINUOUS
 10
3.0084191532
 20
3.7516437391
 11
2.9957549961
 21
3.7515348685
  0
LINE
  5
570
100
AcDbEntity
  8
0
100
AcDbLine
 62
7
  6
CONTINUOUS
 10
2.9957549961
 20
3.7515348685
 11
2.9637525903
 21
3.7514986352
  0
LINE
  5
571
100
AcDbEntity
  8
0
100
AcDbLine
 62
7
  6
CONTINUOUS
 10
2.9637525903
 20
3.7514986352
 11
2.9632832932
 21
3.7514986786
  0
LINE
  5
572
100
AcDbEntity
  8
0
100
AcDbLine
 62
7
  6
CONTINUOUS
 10
2.9632832932
 20
3.7514986786
 11
2.9507467661
 21
3.7515864111
  0
LINE
  5
573
100
AcDbEntity
  8
0
100
AcDbLine
 62
7
  6
CONTINUOUS
 10
2.920705163
 20
3.7493163333
 11
2.920330308
 21
3.749284418
  0
LINE
  5
574
100
AcDbEntity
  8
0
100
AcDbLine
 62
7
  6
CONTINUOUS
 10
2.920330308
 20
3.749284418
 11
2.918455163
 21
3.7490909275
  0
LINE
  5
575
100
AcDbEntity
  8
0
100
AcDbLine
 62
7
  6
CONTINUOUS
 10
2.904205163
 20
3.7473925748
 11
2.901955163
 21
3.7470814929
  0
LINE
  5
576
100
AcDbEntity
  8
0
100
AcDbLine
 62
7
  6
CONTINUOUS
 10
2.995630163
 20
3.7517927129
 11
2.994846881
 21
3.7517486122
  0
SPLINE
  5
577
100
AcDbEntity
  8
0
100
AcDbSpline
 62
7
  6
CONTINUOUS
 70
0
 71
3
 72
27
 73
23
 74
0
 42
0.0000001
 43
0.0000001
 44
0.0000000001
 40
0.0
 40
0.0
 40
0.0
 40
0.0
 40
0.029797831
 40
0.0758969523
 40
0.140214458
 40
0.2209621655
 40
0.3142763876
 40
0.4168091654
 40
0.5240765234
 40
0.6293920079
 40
0.727227152
 40
0.8137976382
 40
0.8848683673
 40
0.9365898142
 40
0.9553666008
 40
0.9699871039
 40
0.9810042905
 40
0.9889647823
 40
0.994395007
 40
0.9977628246
 40
0.9995021402
 40
1.0
 40
1.0
 40
1.0
 40
1.0
 10
2.994846881
 20
3.7517486122
 30
0.0
 10
2.9945383003
 20
3.7517351246
 30
0.0
 10
2.9937520462
 20
3.7517072516
 30
0.0
 10
2.9922990683
 20
3.7516706882
 30
0.0
 10
2.9903177904
 20
3.7516368116
 30
0.0
 10
2.9878470007
 20
3.7516066756
 30
0.0
 10
2.9849800246
 20
3.7515799229
 30
0.0
 10
2.9818380896
 20
3.751559989
 30
0.0
 10
2.9785716917
 20
3.7515527001
 30
0.0
 10
2.9753539937
 20
3.7515609022
 30
0.0
 10
2.9723508779
 20
3.7515781357
 30
0.0
 10
2.9697027813
 20
3.7516010641
 30
0.0
 10
2.9675327592
 20
3.751628791
 30
0.0
 10
2.9660655918
 20
3.7516598226
 30
0.0
 10
2.965183706
 20
3.7516875826
 30
0.0
 10
2.9647236664
 20
3.7517055855
 30
0.0
 10
2.9643757897
 20
3.7517222343
 30
0.0
 10
2.9641232123
 20
3.7517369953
 30
0.0
 10
2.9639499165
 20
3.7517491601
 30
0.0
 10
2.9638410925
 20
3.7517585359
 30
0.0
 10
2.9637832779
 20
3.7517643704
 30
0.0
 10
2.963760277
 20
3.7517673256
 30
0.0
 10
2.963755163
 20
3.751768021
 30
0.0
  0
LINE
  5
578
100
AcDbEntity
  8
0
100
AcDbLine
 62
7
  6
CONTINUOUS
 10
6.0353296093
 20
3.7490954197
 11
6.025705163
 21
3.7497400528
  0
SPLINE
  5
579
100
AcDbEntity
  8
0
100
AcDbSpline
 62
7
  6
CONTINUOUS
 70
0
 71
3
 72
10
 73
6
 74
0
 42
0.0000001
 43
0.0000001
 44
0.0000000001
 40
0.0
 40
0.0
 40
0.0
 40
0.0
 40
0.1267286048
 40
0.3267147723
 40
1.0
 40
1.0
 40
1.0
 40
1.0
 10
2.886955163
 20
3.7442999434
 30
0.0
 10
2.886955163
 20
3.7442979315
 30
0.0
 10
2.8869523702
 20
3.7442930337
 30
0.0
 10
2.8869399836
 20
3.7442832165
 30
0.0
 10
2.8869273004
 20
3.7442771057
 30
0.0
 10
2.8869175559
 20
3.7442727128
 30
0.0
  0
LINE
  5
57A
100
AcDbEntity
  8
0
100
AcDbLine
 62
7
  6
CONTINUOUS
 10
2.8869175559
 20
3.7442727128
 11
2.8815928682
 21
3.743137522
  0
SPLINE
  5
57B
100
AcDbEntity
  8
0
100
AcDbSpline
 62
7
  6
CONTINUOUS
 70
0
 71
3
 72
8
 73
4
 74
0
 42
0.0000001
 43
0.0000001
 44
0.0000000001
 40
0.0
 40
0.0
 40
0.0
 40
0.0
 40
1.0
 40
1.0
 40
1.0
 40
1.0
 10
2.8808373638
 20
3.7429952378
 30
0.0
 10
2.8808141307
 20
3.7429908914
 30
0.0
 10
2.8807908971
 20
3.7429865476
 30
0.0
 10
2.880767663
 20
3.7429822063
 30
0.0
  0
LINE
  5
57C
100
AcDbEntity
  8
0
100
AcDbLine
 62
7
  6
CONTINUOUS
 10
6.016705163
 20
3.7503781248
 11
6.005455163
 21
3.7513217754
  0
LINE
  5
57D
100
AcDbEntity
  8
0
100
AcDbLine
 62
7
  6
CONTINUOUS
 10
2.908142663
 20
3.747067692
 11
2.9077472457
 21
3.7470237007
  0
LINE
  5
57E
100
AcDbEntity
  8
0
100
AcDbLine
 62
7
  6
CONTINUOUS
 10
2.9077472457
 20
3.7470237007
 11
2.907359061
 21
3.7469810259
  0
LINE
  5
57F
100
AcDbEntity
  8
0
100
AcDbLine
 62
7
  6
CONTINUOUS
 10
2.907359061
 20
3.7469810259
 11
2.901955163
 21
3.7465370324
  0
SPLINE
  5
580
100
AcDbEntity
  8
0
100
AcDbSpline
 62
7
  6
CONTINUOUS
 70
0
 71
3
 72
11
 73
7
 74
0
 42
0.0000001
 43
0.0000001
 44
0.0000000001
 40
0.0
 40
0.0
 40
0.0
 40
0.0
 40
0.1031600869
 40
0.2966887873
 40
0.594609835
 40
1.0
 40
1.0
 40
1.0
 40
1.0
 10
2.920705163
 20
3.7487739783
 30
0.0
 10
2.920705163
 20
3.7487707453
 30
0.0
 10
2.9206978001
 20
3.7487629778
 30
0.0
 10
2.9206817702
 20
3.7487547949
 30
0.0
 10
2.9206553484
 20
3.7487441682
 30
0.0
 10
2.9206344078
 20
3.7487375894
 30
0.0
 10
2.9206222382
 20
3.7487339405
 30
0.0
  0
LINE
  5
581
100
AcDbEntity
  8
0
100
AcDbLine
 62
7
  6
CONTINUOUS
 10
2.9206222382
 20
3.7487339405
 11
2.9153591845
 21
3.7479363924
  0
LINE
  5
582
100
AcDbEntity
  8
0
100
AcDbLine
 62
7
  6
CONTINUOUS
 10
6.055142663
 20
3.7468932986
 11
6.0548068668
 21
3.7468716612
  0
LINE
  5
583
100
AcDbEntity
  8
0
100
AcDbLine
 62
7
  6
CONTINUOUS
 10
6.0548068668
 20
3.7468716612
 11
6.0520162256
 21
3.7470973241
  0
LINE
  5
584
100
AcDbEntity
  8
0
100
AcDbLine
 62
7
  6
CONTINUOUS
 10
2.941892663
 20
3.7502875766
 11
2.9414985826
 21
3.7502669326
  0
LINE
  5
585
100
AcDbEntity
  8
0
100
AcDbLine
 62
7
  6
CONTINUOUS
 10
2.9414985826
 20
3.7502669326
 11
2.9411115514
 21
3.7502471662
  0
LINE
  5
586
100
AcDbEntity
  8
0
100
AcDbLine
 62
7
  6
CONTINUOUS
 10
2.9411115514
 20
3.7502471662
 11
2.935705163
 21
3.7501204963
  0
LINE
  5
587
100
AcDbEntity
  8
0
100
AcDbLine
 62
7
  6
CONTINUOUS
 10
6.0985226653
 20
3.7397157305
 11
6.0837031944
 21
3.7422450355
  0
LINE
  5
588
100
AcDbEntity
  8
0
100
AcDbLine
 62
7
  6
CONTINUOUS
 10
6.0837031944
 20
3.7422450355
 11
6.0829534353
 21
3.7423772802
  0
LINE
  5
589
100
AcDbEntity
  8
0
100
AcDbLine
 62
7
  6
CONTINUOUS
 10
6.0829534353
 20
3.7423772802
 11
6.0814469586
 21
3.7426437158
  0
LINE
  5
58A
100
AcDbEntity
  8
0
100
AcDbLine
 62
7
  6
CONTINUOUS
 10
3.038830163
 20
3.7489220051
 11
3.0385007937
 21
3.7488909542
  0
LINE
  5
58B
100
AcDbEntity
  8
0
100
AcDbLine
 62
7
  6
CONTINUOUS
 10
3.0385007937
 20
3.7488909542
 11
3.0324095743
 21
3.7492035685
  0
LINE
  5
58C
100
AcDbEntity
  8
0
100
AcDbLine
 62
7
  6
CONTINUOUS
 10
3.0324095743
 20
3.7492035685
 11
3.031892663
 21
3.7492381568
  0
LINE
  5
58D
100
AcDbEntity
  8
0
100
AcDbLine
 62
7
  6
CONTINUOUS
 10
6.0709983682
 20
3.7443968026
 11
6.0687483682
 21
3.7448339875
  0
LINE
  5
58E
100
AcDbEntity
  8
0
100
AcDbLine
 62
7
  6
CONTINUOUS
 10
3.0592077741
 20
3.7461421249
 11
3.0587611974
 21
3.7462136996
  0
LINE
  5
58F
100
AcDbEntity
  8
0
100
AcDbLine
 62
7
  6
CONTINUOUS
 10
3.0587611974
 20
3.7462136996
 11
3.052330163
 21
3.7473917283
  0
LINE
  5
590
100
AcDbEntity
  8
0
100
AcDbLine
 62
7
  6
CONTINUOUS
 10
5.879375575
 20
3.7427586856
 11
5.8668810446
 21
3.7407388657
  0
LINE
  5
591
100
AcDbEntity
  8
0
100
AcDbLine
 62
7
  6
CONTINUOUS
 10
6.1003784162
 20
3.7398079053
 11
6.100181539
 21
3.7398417989
  0
LINE
  5
592
100
AcDbEntity
  8
0
100
AcDbLine
 62
7
  6
CONTINUOUS
 10
6.100181539
 20
3.7398417989
 11
6.0985226653
 21
3.7400988227
  0
SPLINE
  5
593
100
AcDbEntity
  8
0
100
AcDbSpline
 62
7
  6
CONTINUOUS
 70
0
 71
3
 72
35
 73
31
 74
0
 42
0.0000001
 43
0.0000001
 44
0.0000000001
 40
0.0
 40
0.0
 40
0.0
 40
0.0
 40
0.0699549406
 40
0.1378443923
 40
0.1709585024
 40
0.2034921793
 40
0.2354337304
 40
0.2667797479
 40
0.2975370096
 40
0.3277249509
 40
0.3573780724
 40
0.3865474223
 40
0.4153015528
 40
0.4437260753
 40
0.4719214405
 40
0.4999992242
 40
0.5280770094
 40
0.5562723789
 40
0.5846969084
 40
0.6134510484
 40
0.6426204097
 40
0.672273544
 40
0.7024614989
 40
0.7332187759
 40
0.764564809
 40
0.7965063673
 40
0.8290400712
 40
0.8621542234
 40
0.9300435827
 40
1.0
 40
1.0
 40
1.0
 40
1.0
 10
5.8380062436
 20
2.9233687726
 30
0.0
 10
5.8352761708
 20
2.9260909768
 30
0.0
 10
5.8297788987
 20
2.9313388108
 30
0.0
 10
5.8226269046
 20
2.9374814583
 30
0.0
 10
5.8168142776
 20
2.9419975339
 30
0.0
 10
5.8124504559
 20
2.9451435433
 30
0.0
 10
5.8080464382
 20
2.9480604632
 30
0.0
 10
5.8036027899
 20
2.9507318191
 30
0.0
 10
5.7991207206
 20
2.9531409122
 30
0.0
 10
5.7946021617
 20
2.9552712099
 30
0.0
 10
5.7900498156
 20
2.9571066544
 30
0.0
 10
5.7854672409
 20
2.958632135
 30
0.0
 10
5.7808589706
 20
2.9598342379
 30
0.0
 10
5.7762304168
 20
2.9607016526
 30
0.0
 10
5.7715877936
 20
2.9612256572
 30
0.0
 10
5.7669379756
 20
2.9614009138
 30
0.0
 10
5.7622881577
 20
2.9612256485
 30
0.0
 10
5.7576455348
 20
2.9607016351
 30
0.0
 10
5.7530169814
 20
2.9598342119
 30
0.0
 10
5.7484087117
 20
2.9586321007
 30
0.0
 10
5.7438261377
 20
2.9571066122
 30
0.0
 10
5.7392737925
 20
2.95527116
 30
0.0
 10
5.7347552342
 20
2.9531408555
 30
0.0
 10
5.7302731659
 20
2.9507317553
 30
0.0
 10
5.7258295199
 20
2.9480603915
 30
0.0
 10
5.7214255
 20
2.9451434704
 30
0.0
 10
5.7170616767
 20
2.9419974542
 30
0.0
 10
5.7112490893
 20
2.9374813351
 30
0.0
 10
5.7040968474
 20
2.9313388397
 30
0.0
 10
5.6985999525
 20
2.9260904967
 30
0.0
 10
5.6958698243
 20
2.9233682329
 30
0.0
  0
SPLINE
  5
594
100
AcDbEntity
  8
0
100
AcDbSpline
 62
7
  6
CONTINUOUS
 70
0
 71
3
 72
29
 73
25
 74
0
 42
0.0000001
 43
0.0000001
 44
0.0000000001
 40
0.0
 40
0.0
 40
0.0
 40
0.0
 40
0.0624997347
 40
0.1249986409
 40
0.1874967852
 40
0.2499936901
 40
0.3124893939
 40
0.3437410658
 40
0.3749928279
 40
0.4062445757
 40
0.4374963508
 40
0.4687481846
 40
0.5
 40
0.5312518155
 40
0.5625036492
 40
0.5937554243
 40
0.6250071721
 40
0.6562589343
 40
0.6875106061
 40
0.7500063099
 40
0.8125032148
 40
0.8750013591
 40
0.9375002653
 40
1.0
 40
1.0
 40
1.0
 40
1.0
 10
6.1222790824
 20
2.9233689549
 30
0.0
 10
6.1167429636
 20
2.9261290451
 30
0.0
 10
6.1055717913
 20
2.931453767
 30
0.0
 10
6.0885097878
 20
2.9387668871
 30
0.0
 10
6.0711269171
 20
2.9452860714
 30
0.0
 10
6.0534256289
 20
2.9508873854
 30
0.0
 10
6.0384216491
 20
2.9546786837
 30
0.0
 10
6.0262909976
 20
2.9571204272
 30
0.0
 10
6.0171350602
 20
2.9586418487
 30
0.0
 10
6.0079311969
 20
2.9598400975
 30
0.0
 10
5.9986898546
 20
2.9607043312
 30
0.0
 10
5.989422801
 20
2.9612262271
 30
0.0
 10
5.980142663
 20
2.9614007491
 30
0.0
 10
5.970862525
 20
2.9612262271
 30
0.0
 10
5.9615954714
 20
2.9607043312
 30
0.0
 10
5.9523541292
 20
2.9598400975
 30
0.0
 10
5.9431502658
 20
2.9586418487
 30
0.0
 10
5.9339943284
 20
2.9571204272
 30
0.0
 10
5.9218636769
 20
2.9546786837
 30
0.0
 10
5.9068596971
 20
2.9508873854
 30
0.0
 10
5.889158409
 20
2.9452860714
 30
0.0
 10
5.8717755382
 20
2.938766887
 30
0.0
 10
5.8547135347
 20
2.931453767
 30
0.0
 10
5.8435423625
 20
2.9261290449
 30
0.0
 10
5.8380062436
 20
2.9233689548
 30
0.0
  0
SPLINE
  5
595
100
AcDbEntity
  8
0
100
AcDbSpline
 62
7
  6
CONTINUOUS
 70
0
 71
3
 72
35
 73
31
 74
0
 42
0.0000001
 43
0.0000001
 44
0.0000000001
 40
0.0
 40
0.0
 40
0.0
 40
0.0
 40
0.0699564171
 40
0.1378457764
 40
0.1709599286
 40
0.2034936325
 40
0.2354351908
 40
0.2667812239
 40
0.2975385009
 40
0.3277264558
 40
0.3573795901
 40
0.3865489515
 40
0.4153030914
 40
0.4437276209
 40
0.4719229905
 40
0.5000007756
 40
0.5280785593
 40
0.5562739245
 40
0.584698447
 40
0.6134525775
 40
0.6426219274
 40
0.6722750489
 40
0.7024629902
 40
0.7332202519
 40
0.7645662693
 40
0.7965078204
 40
0.8290414973
 40
0.8621556075
 40
0.9300450591
 40
1.0
 40
1.0
 40
1.0
 40
1.0
 10
6.2644155018
 20
2.923368233
 30
0.0
 10
6.2616853736
 20
2.9260904968
 30
0.0
 10
6.2561884787
 20
2.9313388397
 30
0.0
 10
6.2490362368
 20
2.9374813351
 30
0.0
 10
6.2432236493
 20
2.9419974542
 30
0.0
 10
6.238859826
 20
2.9451434704
 30
0.0
 10
6.2344558061
 20
2.9480603915
 30
0.0
 10
6.2300121601
 20
2.9507317553
 30
0.0
 10
6.2255300918
 20
2.9531408555
 30
0.0
 10
6.2210115336
 20
2.95527116
 30
0.0
 10
6.2164591883
 20
2.9571066122
 30
0.0
 10
6.2118766144
 20
2.9586321007
 30
0.0
 10
6.2072683446
 20
2.9598342119
 30
0.0
 10
6.2026397913
 20
2.9607016351
 30
0.0
 10
6.1979971683
 20
2.9612256485
 30
0.0
 10
6.1933473505
 20
2.9614009138
 30
0.0
 10
6.1886975325
 20
2.9612256572
 30
0.0
 10
6.1840549092
 20
2.9607016526
 30
0.0
 10
6.1794263555
 20
2.9598342379
 30
0.0
 10
6.1748180852
 20
2.958632135
 30
0.0
 10
6.1702355105
 20
2.9571066544
 30
0.0
 10
6.1656831644
 20
2.9552712099
 30
0.0
 10
6.1611646055
 20
2.9531409122
 30
0.0
 10
6.1566825362
 20
2.9507318191
 30
0.0
 10
6.1522388879
 20
2.9480604632
 30
0.0
 10
6.1478348701
 20
2.9451435433
 30
0.0
 10
6.1434710484
 20
2.9419975339
 30
0.0
 10
6.1376584215
 20
2.9374814583
 30
0.0
 10
6.1305064273
 20
2.9313388109
 30
0.0
 10
6.1250091553
 20
2.9260909767
 30
0.0
 10
6.1222790824
 20
2.9233687725
 30
0.0
  0
SPLINE
  5
596
100
AcDbEntity
  8
0
100
AcDbSpline
 62
7
  6
CONTINUOUS
 70
0
 71
3
 72
67
 73
63
 74
0
 42
0.0000001
 43
0.0000001
 44
0.0000000001
 40
0.0
 40
0.0
 40
0.0
 40
0.0
 40
0.0483979061
 40
0.0963326141
 40
0.1433473359
 40
0.188992587
 40
0.2328331289
 40
0.2744515695
 40
0.3134526794
 40
0.3494677655
 40
0.3662487122
 40
0.3821590397
 40
0.3971619246
 40
0.4112231287
 40
0.4243111043
 40
0.4363970824
 40
0.4474555742
 40
0.4574647028
 40
0.4664066501
 40
0.4742688546
 40
0.477793246
 40
0.4810463124
 40
0.4840289666
 40
0.4867432368
 40
0.4891924059
 40
0.4913817814
 40
0.4933196383
 40
0.4950185072
 40
0.4964978046
 40
0.4977876123
 40
0.4989334708
 40
0.5
 40
0.5010665292
 40
0.5022123877
 40
0.5035021954
 40
0.5049814928
 40
0.5066803617
 40
0.5086182186
 40
0.5108075941
 40
0.5132567632
 40
0.5159710334
 40
0.5189536876
 40
0.522206754
 40
0.5257311454
 40
0.5335933499
 40
0.5425352972
 40
0.5525444258
 40
0.5636029176
 40
0.5756888957
 40
0.5887768713
 40
0.6028380754
 40
0.6178409603
 40
0.6337512878
 40
0.6505322345
 40
0.6865473206
 40
0.7255484305
 40
0.7671668711
 40
0.811007413
 40
0.8566526641
 40
0.9036673859
 40
0.9516020939
 40
1.0
 40
1.0
 40
1.0
 40
1.0
 10
4.480142663
 20
4.7409440977
 30
0.0
 10
4.4840284784
 20
4.7409440977
 30
0.0
 10
4.4917629608
 20
4.7409770561
 30
0.0
 10
4.5032713489
 20
4.7411251202
 30
0.0
 10
4.5145570368
 20
4.7413702573
 30
0.0
 10
4.5255114144
 20
4.7417100412
 30
0.0
 10
4.5360289893
 20
4.742141085
 30
0.0
 10
4.5460085472
 20
4.7426590505
 30
0.0
 10
4.5553540409
 20
4.7432587745
 30
0.0
 10
4.5627021719
 20
4.7438341628
 30
0.0
 10
4.5681957461
 20
4.744335754
 30
0.0
 10
4.572005829
 20
4.7447196624
 30
0.0
 10
4.5755946761
 20
4.7451192194
 30
0.0
 10
4.5789536659
 20
4.745533436
 30
0.0
 10
4.5820747395
 20
4.7459612536
 30
0.0
 10
4.5849504287
 20
4.746401576
 30
0.0
 10
4.5875738741
 20
4.7468532525
 30
0.0
 10
4.5899389035
 20
4.7473150352
 30
0.0
 10
4.5920399377
 20
4.7477857097
 30
0.0
 10
4.5936197604
 20
4.7481977421
 30
0.0
 10
4.594745882
 20
4.7485349324
 30
0.0
 10
4.5954902952
 20
4.7487800881
 30
0.0
 10
4.5961654117
 20
4.7490266448
 30
0.0
 10
4.596770899
 20
4.7492744467
 30
0.0
 10
4.5973064966
 20
4.7495233534
 30
0.0
 10
4.5977720365
 20
4.7497732556
 30
0.0
 10
4.5981674795
 20
4.7500240935
 30
0.0
 10
4.5984928929
 20
4.7502760081
 30
0.0
 10
4.5987483861
 20
4.7505294819
 30
0.0
 10
4.5989337864
 20
4.7507855402
 30
0.0
 10
4.5990475955
 20
4.7510456451
 30
0.0
 10
4.599086292
 20
4.7513096218
 30
0.0
 10
4.5990475955
 20
4.7515735984
 30
0.0
 10
4.5989337864
 20
4.7518337033
 30
0.0
 10
4.5987483861
 20
4.7520897617
 30
0.0
 10
4.5984928929
 20
4.7523432354
 30
0.0
 10
4.5981674795
 20
4.75259515
 30
0.0
 10
4.5977720365
 20
4.752845988
 30
0.0
 10
4.5973064966
 20
4.7530958901
 30
0.0
 10
4.596770899
 20
4.7533447969
 30
0.0
 10
4.5961654117
 20
4.7535925987
 30
0.0
 10
4.5954902952
 20
4.7538391555
 30
0.0
 10
4.594745882
 20
4.7540843111
 30
0.0
 10
4.5936197604
 20
4.7544215014
 30
0.0
 10
4.5920399377
 20
4.7548335338
 30
0.0
 10
4.5899389035
 20
4.7553042083
 30
0.0
 10
4.5875738741
 20
4.755765991
 30
0.0
 10
4.5849504287
 20
4.7562176675
 30
0.0
 10
4.5820747395
 20
4.7566579899
 30
0.0
 10
4.5789536659
 20
4.7570858075
 30
0.0
 10
4.5755946761
 20
4.7575000241
 30
0.0
 10
4.572005829
 20
4.7578995812
 30
0.0
 10
4.5681957461
 20
4.7582834895
 30
0.0
 10
4.5627021719
 20
4.7587850807
 30
0.0
 10
4.5553540409
 20
4.759360469
 30
0.0
 10
4.5460085472
 20
4.7599601931
 30
0.0
 10
4.5360289893
 20
4.7604781586
 30
0.0
 10
4.5255114144
 20
4.7609092023
 30
0.0
 10
4.5145570368
 20
4.7612489863
 30
0.0
 10
4.5032713489
 20
4.7614941233
 30
0.0
 10
4.4917629608
 20
4.7616421875
 30
0.0
 10
4.4840284784
 20
4.7616751459
 30
0.0
 10
4.480142663
 20
4.7616751459
 30
0.0
  0
SPLINE
  5
597
100
AcDbEntity
  8
0
100
AcDbSpline
 62
7
  6
CONTINUOUS
 70
0
 71
3
 72
67
 73
63
 74
0
 42
0.0000001
 43
0.0000001
 44
0.0000000001
 40
0.0
 40
0.0
 40
0.0
 40
0.0
 40
0.0483979061
 40
0.0963326141
 40
0.1433473359
 40
0.188992587
 40
0.2328331289
 40
0.2744515695
 40
0.3134526794
 40
0.3494677655
 40
0.3662487122
 40
0.3821590397
 40
0.3971619246
 40
0.4112231287
 40
0.4243111043
 40
0.4363970824
 40
0.4474555742
 40
0.4574647028
 40
0.4664066501
 40
0.4742688546
 40
0.477793246
 40
0.4810463124
 40
0.4840289666
 40
0.4867432368
 40
0.4891924059
 40
0.4913817814
 40
0.4933196383
 40
0.4950185072
 40
0.4964978046
 40
0.4977876123
 40
0.4989334708
 40
0.5
 40
0.5010665292
 40
0.5022123877
 40
0.5035021954
 40
0.5049814928
 40
0.5066803617
 40
0.5086182186
 40
0.5108075941
 40
0.5132567632
 40
0.5159710334
 40
0.5189536876
 40
0.522206754
 40
0.5257311454
 40
0.5335933499
 40
0.5425352972
 40
0.5525444258
 40
0.5636029176
 40
0.5756888957
 40
0.5887768713
 40
0.6028380754
 40
0.6178409603
 40
0.6337512878
 40
0.6505322345
 40
0.6865473206
 40
0.7255484305
 40
0.7671668711
 40
0.811007413
 40
0.8566526641
 40
0.9036673859
 40
0.9516020939
 40
1.0
 40
1.0
 40
1.0
 40
1.0
 10
4.480142663
 20
4.7409440977
 30
0.0
 10
4.4762568477
 20
4.7409440977
 30
0.0
 10
4.4685223653
 20
4.7409770561
 30
0.0
 10
4.4570139772
 20
4.7411251202
 30
0.0
 10
4.4457282893
 20
4.7413702573
 30
0.0
 10
4.4347739117
 20
4.7417100412
 30
0.0
 10
4.4242563367
 20
4.742141085
 30
0.0
 10
4.4142767789
 20
4.7426590505
 30
0.0
 10
4.4049312852
 20
4.7432587745
 30
0.0
 10
4.3975831542
 20
4.7438341628
 30
0.0
 10
4.39208958
 20
4.744335754
 30
0.0
 10
4.3882794971
 20
4.7447196624
 30
0.0
 10
4.38469065
 20
4.7451192194
 30
0.0
 10
4.3813316602
 20
4.745533436
 30
0.0
 10
4.3782105866
 20
4.7459612536
 30
0.0
 10
4.3753348974
 20
4.746401576
 30
0.0
 10
4.372711452
 20
4.7468532525
 30
0.0
 10
4.3703464226
 20
4.7473150352
 30
0.0
 10
4.3682453883
 20
4.7477857097
 30
0.0
 10
4.3666655657
 20
4.7481977421
 30
0.0
 10
4.3655394441
 20
4.7485349324
 30
0.0
 10
4.3647950309
 20
4.7487800881
 30
0.0
 10
4.3641199144
 20
4.7490266448
 30
0.0
 10
4.3635144271
 20
4.7492744467
 30
0.0
 10
4.3629788295
 20
4.7495233534
 30
0.0
 10
4.3625132896
 20
4.7497732556
 30
0.0
 10
4.3621178466
 20
4.7500240935
 30
0.0
 10
4.3617924332
 20
4.7502760081
 30
0.0
 10
4.36153694
 20
4.7505294819
 30
0.0
 10
4.3613515397
 20
4.7507855402
 30
0.0
 10
4.3612377306
 20
4.7510456451
 30
0.0
 10
4.3611990341
 20
4.7513096218
 30
0.0
 10
4.3612377306
 20
4.7515735984
 30
0.0
 10
4.3613515397
 20
4.7518337033
 30
0.0
 10
4.36153694
 20
4.7520897617
 30
0.0
 10
4.3617924332
 20
4.7523432354
 30
0.0
 10
4.3621178466
 20
4.75259515
 30
0.0
 10
4.3625132896
 20
4.752845988
 30
0.0
 10
4.3629788295
 20
4.7530958901
 30
0.0
 10
4.3635144271
 20
4.7533447969
 30
0.0
 10
4.3641199144
 20
4.7535925987
 30
0.0
 10
4.3647950309
 20
4.7538391555
 30
0.0
 10
4.3655394441
 20
4.7540843111
 30
0.0
 10
4.3666655657
 20
4.7544215014
 30
0.0
 10
4.3682453883
 20
4.7548335338
 30
0.0
 10
4.3703464226
 20
4.7553042083
 30
0.0
 10
4.372711452
 20
4.755765991
 30
0.0
 10
4.3753348974
 20
4.7562176675
 30
0.0
 10
4.3782105866
 20
4.7566579899
 30
0.0
 10
4.3813316602
 20
4.7570858075
 30
0.0
 10
4.38469065
 20
4.7575000241
 30
0.0
 10
4.3882794971
 20
4.7578995812
 30
0.0
 10
4.39208958
 20
4.7582834895
 30
0.0
 10
4.3975831542
 20
4.7587850807
 30
0.0
 10
4.4049312852
 20
4.759360469
 30
0.0
 10
4.4142767789
 20
4.7599601931
 30
0.0
 10
4.4242563367
 20
4.7604781586
 30
0.0
 10
4.4347739117
 20
4.7609092023
 30
0.0
 10
4.4457282893
 20
4.7612489863
 30
0.0
 10
4.4570139772
 20
4.7614941233
 30
0.0
 10
4.4685223653
 20
4.7616421875
 30
0.0
 10
4.4762568477
 20
4.7616751459
 30
0.0
 10
4.480142663
 20
4.7616751459
 30
0.0
  0
SPLINE
  5
598
100
AcDbEntity
  8
0
100
AcDbSpline
 62
7
  6
CONTINUOUS
 70
0
 71
3
 72
21
 73
17
 74
0
 42
0.0000001
 43
0.0000001
 44
0.0000000001
 40
0.0
 40
0.0
 40
0.0
 40
0.0
 40
0.1155107319
 40
0.2335755865
 40
0.3544361719
 40
0.4159946509
 40
0.4783131846
 40
0.5413913593
 40
0.6052123877
 40
0.6697400634
 40
0.7022541924
 40
0.7349207781
 40
0.8006557807
 40
0.8668402486
 40
0.9333387225
 40
1.0
 40
1.0
 40
1.0
 40
1.0
 10
7.6036379113
 20
4.0609654971
 30
0.0
 10
7.5999461039
 20
4.0570524469
 30
0.0
 10
7.5921725556
 20
4.049423424
 30
0.0
 10
7.579470268
 20
4.0388521546
 30
0.0
 10
7.5679470968
 20
4.0308723493
 30
0.0
 10
7.5581358186
 20
4.0250633084
 30
0.0
 10
7.550429599
 20
4.0210019065
 30
0.0
 10
7.5424293253
 20
4.0172969709
 30
0.0
 10
7.5341473835
 20
4.0139849571
 30
0.0
 10
7.5270449269
 20
4.0115875844
 30
0.0
 10
7.5212438869
 20
4.009899453
 30
0.0
 10
7.5153422428
 20
4.0083648361
 30
0.0
 10
7.507842103
 20
4.0067592706
 30
0.0
 10
7.498701536
 20
4.0053636683
 30
0.0
 10
7.489450609
 20
4.0045176709
 30
0.0
 10
7.483247302
 20
4.0043273246
 30
0.0
 10
7.480142663
 20
4.0043272516
 30
0.0
  0
SPLINE
  5
599
100
AcDbEntity
  8
0
100
AcDbSpline
 62
7
  6
CONTINUOUS
 70
0
 71
3
 72
35
 73
31
 74
0
 42
0.0000001
 43
0.0000001
 44
0.0000000001
 40
0.0
 40
0.0
 40
0.0
 40
0.0
 40
0.0699549406
 40
0.1378443923
 40
0.1709585024
 40
0.2034921793
 40
0.2354337304
 40
0.2667797479
 40
0.2975370096
 40
0.3277249509
 40
0.3573780724
 40
0.3865474223
 40
0.4153015528
 40
0.4437260753
 40
0.4719214405
 40
0.4999992242
 40
0.5280770094
 40
0.5562723789
 40
0.5846969084
 40
0.6134510484
 40
0.6426204097
 40
0.672273544
 40
0.7024614989
 40
0.7332187759
 40
0.764564809
 40
0.7965063673
 40
0.8290400712
 40
0.8621542234
 40
0.9300435827
 40
1.0
 40
1.0
 40
1.0
 40
1.0
 10
2.8380062436
 20
2.9233687726
 30
0.0
 10
2.8352761708
 20
2.9260909768
 30
0.0
 10
2.8297788987
 20
2.9313388108
 30
0.0
 10
2.8226269046
 20
2.9374814583
 30
0.0
 10
2.8168142776
 20
2.9419975339
 30
0.0
 10
2.8124504559
 20
2.9451435433
 30
0.0
 10
2.8080464382
 20
2.9480604632
 30
0.0
 10
2.8036027899
 20
2.9507318191
 30
0.0
 10
2.7991207206
 20
2.9531409122
 30
0.0
 10
2.7946021617
 20
2.9552712099
 30
0.0
 10
2.7900498156
 20
2.9571066544
 30
0.0
 10
2.7854672409
 20
2.958632135
 30
0.0
 10
2.7808589706
 20
2.9598342379
 30
0.0
 10
2.7762304168
 20
2.9607016526
 30
0.0
 10
2.7715877936
 20
2.9612256572
 30
0.0
 10
2.7669379756
 20
2.9614009138
 30
0.0
 10
2.7622881577
 20
2.9612256485
 30
0.0
 10
2.7576455348
 20
2.9607016351
 30
0.0
 10
2.7530169814
 20
2.9598342119
 30
0.0
 10
2.7484087117
 20
2.9586321007
 30
0.0
 10
2.7438261377
 20
2.9571066122
 30
0.0
 10
2.7392737925
 20
2.95527116
 30
0.0
 10
2.7347552342
 20
2.9531408555
 30
0.0
 10
2.7302731659
 20
2.9507317553
 30
0.0
 10
2.7258295199
 20
2.9480603915
 30
0.0
 10
2.7214255
 20
2.9451434704
 30
0.0
 10
2.7170616767
 20
2.9419974542
 30
0.0
 10
2.7112490893
 20
2.9374813351
 30
0.0
 10
2.7040968474
 20
2.9313388397
 30
0.0
 10
2.6985999525
 20
2.9260904967
 30
0.0
 10
2.6958698243
 20
2.9233682329
 30
0.0
  0
LINE
  5
59A
100
AcDbEntity
  8
0
100
AcDbLine
 62
7
  6
CONTINUOUS
 10
5.8668810446
 20
3.7411212706
 11
5.879375575
 21
3.7431397408
  0
SPLINE
  5
59B
100
AcDbEntity
  8
0
100
AcDbSpline
 62
7
  6
CONTINUOUS
 70
0
 71
3
 72
29
 73
25
 74
0
 42
0.0000001
 43
0.0000001
 44
0.0000000001
 40
0.0
 40
0.0
 40
0.0
 40
0.0
 40
0.0624997347
 40
0.1249986409
 40
0.1874967852
 40
0.2499936901
 40
0.3124893939
 40
0.3437410658
 40
0.3749928279
 40
0.4062445757
 40
0.4374963508
 40
0.4687481846
 40
0.5
 40
0.5312518155
 40
0.5625036492
 40
0.5937554243
 40
0.6250071721
 40
0.6562589343
 40
0.6875106061
 40
0.7500063099
 40
0.8125032148
 40
0.8750013591
 40
0.9375002653
 40
1.0
 40
1.0
 40
1.0
 40
1.0
 10
3.1222790824
 20
2.9233689549
 30
0.0
 10
3.1167429636
 20
2.9261290451
 30
0.0
 10
3.1055717913
 20
2.931453767
 30
0.0
 10
3.0885097878
 20
2.9387668871
 30
0.0
 10
3.0711269171
 20
2.9452860714
 30
0.0
 10
3.0534256289
 20
2.9508873854
 30
0.0
 10
3.0384216491
 20
2.9546786837
 30
0.0
 10
3.0262909976
 20
2.9571204272
 30
0.0
 10
3.0171350602
 20
2.9586418487
 30
0.0
 10
3.0079311969
 20
2.9598400975
 30
0.0
 10
2.9986898546
 20
2.9607043312
 30
0.0
 10
2.989422801
 20
2.9612262271
 30
0.0
 10
2.980142663
 20
2.9614007491
 30
0.0
 10
2.970862525
 20
2.9612262271
 30
0.0
 10
2.9615954714
 20
2.9607043312
 30
0.0
 10
2.9523541292
 20
2.9598400975
 30
0.0
 10
2.9431502658
 20
2.9586418487
 30
0.0
 10
2.9339943284
 20
2.9571204272
 30
0.0
 10
2.9218636769
 20
2.9546786837
 30
0.0
 10
2.9068596971
 20
2.9508873854
 30
0.0
 10
2.889158409
 20
2.9452860714
 30
0.0
 10
2.8717755382
 20
2.938766887
 30
0.0
 10
2.8547135347
 20
2.931453767
 30
0.0
 10
2.8435423625
 20
2.9261290449
 30
0.0
 10
2.8380062436
 20
2.9233689548
 30
0.0
  0
LINE
  5
59C
100
AcDbEntity
  8
0
100
AcDbLine
 62
7
  6
CONTINUOUS
 10
5.983892663
 20
3.7519119248
 11
5.991955163
 21
3.7521284976
  0
LINE
  5
59D
100
AcDbEntity
  8
0
100
AcDbLine
 62
7
  6
CONTINUOUS
 10
6.025705163
 20
3.7501165154
 11
6.0353296093
 21
3.7494723016
  0
LINE
  5
59E
100
AcDbEntity
  8
0
100
AcDbLine
 62
7
  6
CONTINUOUS
 10
6.005455163
 20
3.7516972127
 11
6.016705163
 21
3.7507541731
  0
LINE
  5
59F
100
AcDbEntity
  8
0
100
AcDbLine
 62
7
  6
CONTINUOUS
 10
6.099556947
 20
3.7395570059
 11
6.1003672696
 21
3.7394268586
  0
LINE
  5
5A0
100
AcDbEntity
  8
0
100
AcDbLine
 62
7
  6
CONTINUOUS
 10
6.0687483682
 20
3.7452136658
 11
6.0709983682
 21
3.7447767701
  0
SPLINE
  5
5A1
100
AcDbEntity
  8
0
100
AcDbSpline
 62
7
  6
CONTINUOUS
 70
0
 71
3
 72
37
 73
33
 74
0
 42
0.0000001
 43
0.0000001
 44
0.0000000001
 40
0.0
 40
0.0
 40
0.0
 40
0.0
 40
0.0021243252
 40
0.0043557023
 40
0.0068377643
 40
0.0096759577
 40
0.0129405866
 40
0.0166770989
 40
0.0209150281
 40
0.0256733433
 40
0.0309643949
 40
0.0367962102
 40
0.0431733622
 40
0.0500982919
 40
0.0655923754
 40
0.08327055
 40
0.103108852
 40
0.1250725868
 40
0.1491181226
 40
0.1751943574
 40
0.2032437902
 40
0.2332028545
 40
0.2650023645
 40
0.2985681801
 40
0.37067779
 40
0.448848143
 40
0.5323321742
 40
0.6203285998
 40
0.7119903762
 40
0.8064338134
 40
0.9027463588
 40
1.0
 40
1.0
 40
1.0
 40
1.0
 10
4.349647516
 20
4.7616564573
 30
0.0
 10
4.3496382935
 20
4.7617496468
 30
0.0
 10
4.3496469557
 20
4.7619445646
 30
0.0
 10
4.3497446669
 20
4.7622331461
 30
0.0
 10
4.3499229194
 20
4.7625170972
 30
0.0
 10
4.3501792623
 20
4.7627975191
 30
0.0
 10
4.3505131343
 20
4.7630759264
 30
0.0
 10
4.3509246272
 20
4.7633530235
 30
0.0
 10
4.3514138746
 20
4.7636290408
 30
0.0
 10
4.3519808563
 20
4.7639039949
 30
0.0
 10
4.3526254317
 20
4.7641777771
 30
0.0
 10
4.3533473502
 20
4.7644502102
 30
0.0
 10
4.3541462532
 20
4.7647211574
 30
0.0
 10
4.3553597207
 20
4.7650942762
 30
0.0
 10
4.3570681413
 20
4.7655500679
 30
0.0
 10
4.3593466232
 20
4.7660705125
 30
0.0
 10
4.3619187043
 20
4.7665812984
 30
0.0
 10
4.364778267
 20
4.767081049
 30
0.0
 10
4.3679185218
 20
4.7675683695
 30
0.0
 10
4.371331899
 20
4.7680419727
 30
0.0
 10
4.3750101485
 20
4.7685006167
 30
0.0
 10
4.3789443502
 20
4.7689431189
 30
0.0
 10
4.3831249476
 20
4.769368377
 30
0.0
 10
4.3891596568
 20
4.7699242743
 30
0.0
 10
4.3972392098
 20
4.7705619914
 30
0.0
 10
4.4075228368
 20
4.7712266836
 30
0.0
 10
4.4185132299
 20
4.7718009042
 30
0.0
 10
4.4301034507
 20
4.7722788544
 30
0.0
 10
4.4421807364
 20
4.7726556732
 30
0.0
 10
4.4546275082
 20
4.7729275615
 30
0.0
 10
4.4673226688
 20
4.7730917947
 30
0.0
 10
4.4758555186
 20
4.7731283534
 30
0.0
 10
4.480142663
 20
4.7731283534
 30
0.0
  0
LINE
  5
5A2
100
AcDbEntity
  8
0
100
AcDbLine
 62
7
  6
CONTINUOUS
 10
6.0814469586
 20
3.7430248476
 11
6.0829534156
 21
3.742758593
  0
LINE
  5
5A3
100
AcDbEntity
  8
0
100
AcDbLine
 62
7
  6
CONTINUOUS
 10
6.0829534156
 20
3.742758593
 11
6.083703166
 21
3.742626438
  0
LINE
  5
5A4
100
AcDbEntity
  8
0
100
AcDbLine
 62
7
  6
CONTINUOUS
 10
6.083703166
 20
3.742626438
 11
6.0985226653
 21
3.7400988227
  0
LINE
  5
5A5
100
AcDbEntity
  8
0
100
AcDbLine
 62
7
  6
CONTINUOUS
 10
6.052016196
 20
3.747475515
 11
6.055142663
 21
3.7472716204
  0
SPLINE
  5
5A6
100
AcDbEntity
  8
0
100
AcDbSpline
 62
7
  6
CONTINUOUS
 70
0
 71
3
 72
38
 73
34
 74
0
 42
0.0000001
 43
0.0000001
 44
0.0000000001
 40
0.0
 40
0.0
 40
0.0
 40
0.0
 40
0.0021243233
 40
0.0043556957
 40
0.0068377594
 40
0.0096759551
 40
0.0129405654
 40
0.0166770888
 40
0.0209150193
 40
0.0256733021
 40
0.0309643828
 40
0.036796186
 40
0.0431732973
 40
0.0500982751
 40
0.0575718047
 40
0.065593162
 40
0.0832713437
 40
0.1031096786
 40
0.1250733382
 40
0.1491188329
 40
0.1751951125
 40
0.2032445072
 40
0.2332034804
 40
0.2650030143
 40
0.2985688334
 40
0.3706783203
 40
0.4488486253
 40
0.5323325977
 40
0.6203289201
 40
0.7119906406
 40
0.8064339266
 40
0.9027465411
 40
1.0
 40
1.0
 40
1.0
 40
1.0
 10
4.323773478
 20
5.0231777672
 30
0.0
 10
4.3237624273
 20
5.0232894339
 30
0.0
 10
4.3237728064
 20
5.0235229989
 30
0.0
 10
4.3238898893
 20
5.0238688001
 30
0.0
 10
4.3241034869
 20
5.0242090513
 30
0.0
 10
4.3244106572
 20
5.0245450726
 30
0.0
 10
4.3248107252
 20
5.0248786849
 30
0.0
 10
4.3253038096
 20
5.0252107208
 30
0.0
 10
4.3258900626
 20
5.0255414649
 30
0.0
 10
4.3265694616
 20
5.0258709404
 30
0.0
 10
4.327341843
 20
5.0261990012
 30
0.0
 10
4.3282068987
 20
5.0265254559
 30
0.0
 10
4.3291642076
 20
5.0268501145
 30
0.0
 10
4.3302132657
 20
5.0271727414
 30
0.0
 10
4.3313534808
 20
5.0274931444
 30
0.0
 10
4.3330501834
 20
5.0279314165
 30
0.0
 10
4.3353957305
 20
5.0284669777
 30
0.0
 10
4.3384777328
 20
5.0290790974
 30
0.0
 10
4.3419042951
 20
5.029677921
 30
0.0
 10
4.3456671802
 20
5.0302618719
 30
0.0
 10
4.3497573517
 20
5.0308293743
 30
0.0
 10
4.3541649081
 20
5.0313789575
 30
0.0
 10
4.3588791655
 20
5.0319092001
 30
0.0
 10
4.3638886757
 20
5.0324187741
 30
0.0
 10
4.3711199236
 20
5.0330848912
 30
0.0
 10
4.3808014564
 20
5.0338490556
 30
0.0
 10
4.3931240773
 20
5.0346455381
 30
0.0
 10
4.4062936006
 20
5.0353336123
 30
0.0
 10
4.4201818831
 20
5.0359063307
 30
0.0
 10
4.4346537995
 20
5.0363578608
 30
0.0
 10
4.4495684715
 20
5.0366836606
 30
0.0
 10
4.4647807755
 20
5.0368804556
 30
0.0
 10
4.4750054864
 20
5.0369242634
 30
0.0
 10
4.480142663
 20
5.0369242634
 30
0.0
  0
SPLINE
  5
5A7
100
AcDbEntity
  8
0
100
AcDbSpline
 62
7
  6
CONTINUOUS
 70
0
 71
3
 72
19
 73
15
 74
0
 42
0.0000001
 43
0.0000001
 44
0.0000000001
 40
0.0
 40
0.0
 40
0.0
 40
0.0
 40
0.0666726282
 40
0.1331818779
 40
0.199376239
 40
0.2651197084
 40
0.3303008445
 40
0.3948338897
 40
0.4586588878
 40
0.5217394013
 40
0.6455793837
 40
0.7664370853
 40
0.8844963197
 40
1.0
 40
1.0
 40
1.0
 40
1.0
 10
7.480142663
 20
4.0043272516
 30
0.0
 10
7.4770334388
 20
4.0043272957
 30
0.0
 10
7.4708209796
 20
4.0045180946
 30
0.0
 10
7.4615566068
 20
4.0053666086
 30
0.0
 10
7.4524029495
 20
4.0067663448
 30
0.0
 10
7.4434094765
 20
4.0086940923
 30
0.0
 10
7.4346180957
 20
4.0111203635
 30
0.0
 10
7.4260633986
 20
4.0140120043
 30
0.0
 10
7.4177717262
 20
4.0173332808
 30
0.0
 10
7.4071595806
 20
4.0222548302
 30
0.0
 10
7.3946169122
 20
4.0292857682
 30
0.0
 10
7.3806976825
 20
4.0389409973
 30
0.0
 10
7.3679871413
 20
4.0495363142
 30
0.0
 10
7.3602107576
 20
4.0571816878
 30
0.0
 10
7.3565178916
 20
4.0611029468
 30
0.0
  0
SPLINE
  5
5A8
100
AcDbEntity
  8
0
100
AcDbSpline
 62
7
  6
CONTINUOUS
 70
0
 71
3
 72
37
 73
33
 74
0
 42
0.0000001
 43
0.0000001
 44
0.0000000001
 40
0.0
 40
0.0
 40
0.0
 40
0.0
 40
0.0021243252
 40
0.0043557023
 40
0.0068377643
 40
0.0096759577
 40
0.0129405866
 40
0.0166770989
 40
0.0209150281
 40
0.0256733433
 40
0.0309643949
 40
0.0367962102
 40
0.0431733622
 40
0.0500982919
 40
0.0655923754
 40
0.08327055
 40
0.103108852
 40
0.1250725868
 40
0.1491181226
 40
0.1751943574
 40
0.2032437902
 40
0.2332028545
 40
0.2650023645
 40
0.2985681801
 40
0.37067779
 40
0.448848143
 40
0.5323321742
 40
0.6203285998
 40
0.7119903762
 40
0.8064338134
 40
0.9027463588
 40
1.0
 40
1.0
 40
1.0
 40
1.0
 10
4.6106378101
 20
4.7616564573
 30
0.0
 10
4.6106470326
 20
4.7617496468
 30
0.0
 10
4.6106383704
 20
4.7619445646
 30
0.0
 10
4.6105406592
 20
4.7622331461
 30
0.0
 10
4.6103624067
 20
4.7625170972
 30
0.0
 10
4.6101060638
 20
4.7627975191
 30
0.0
 10
4.6097721918
 20
4.7630759264
 30
0.0
 10
4.6093606989
 20
4.7633530235
 30
0.0
 10
4.6088714515
 20
4.7636290408
 30
0.0
 10
4.6083044698
 20
4.7639039949
 30
0.0
 10
4.6076598944
 20
4.7641777771
 30
0.0
 10
4.6069379759
 20
4.7644502102
 30
0.0
 10
4.6061390729
 20
4.7647211574
 30
0.0
 10
4.6049256054
 20
4.7650942762
 30
0.0
 10
4.6032171848
 20
4.7655500679
 30
0.0
 10
4.6009387029
 20
4.7660705125
 30
0.0
 10
4.5983666218
 20
4.7665812984
 30
0.0
 10
4.595507059
 20
4.767081049
 30
0.0
 10
4.5923668043
 20
4.7675683695
 30
0.0
 10
4.5889534271
 20
4.7680419727
 30
0.0
 10
4.5852751776
 20
4.7685006167
 30
0.0
 10
4.5813409759
 20
4.7689431189
 30
0.0
 10
4.5771603785
 20
4.769368377
 30
0.0
 10
4.5711256693
 20
4.7699242743
 30
0.0
 10
4.5630461163
 20
4.7705619914
 30
0.0
 10
4.5527624893
 20
4.7712266836
 30
0.0
 10
4.5417720962
 20
4.7718009042
 30
0.0
 10
4.5301818754
 20
4.7722788544
 30
0.0
 10
4.5181045897
 20
4.7726556732
 30
0.0
 10
4.5056578179
 20
4.7729275615
 30
0.0
 10
4.4929626573
 20
4.7730917947
 30
0.0
 10
4.4844298075
 20
4.7731283534
 30
0.0
 10
4.480142663
 20
4.7731283534
 30
0.0
  0
SPLINE
  5
5A9
100
AcDbEntity
  8
0
100
AcDbSpline
 62
7
  6
CONTINUOUS
 70
0
 71
3
 72
38
 73
34
 74
0
 42
0.0000001
 43
0.0000001
 44
0.0000000001
 40
0.0
 40
0.0
 40
0.0
 40
0.0
 40
0.0021243233
 40
0.0043556957
 40
0.0068377594
 40
0.0096759551
 40
0.0129405654
 40
0.0166770888
 40
0.0209150193
 40
0.0256733021
 40
0.0309643828
 40
0.036796186
 40
0.0431732973
 40
0.0500982751
 40
0.0575718047
 40
0.065593162
 40
0.0832713437
 40
0.1031096786
 40
0.1250733382
 40
0.1491188329
 40
0.1751951125
 40
0.2032445072
 40
0.2332034804
 40
0.2650030143
 40
0.2985688334
 40
0.3706783203
 40
0.4488486253
 40
0.5323325977
 40
0.6203289201
 40
0.7119906406
 40
0.8064339266
 40
0.9027465411
 40
1.0
 40
1.0
 40
1.0
 40
1.0
 10
4.6365118481
 20
5.0231777672
 30
0.0
 10
4.6365228988
 20
5.0232894339
 30
0.0
 10
4.6365125197
 20
5.0235229989
 30
0.0
 10
4.6363954367
 20
5.0238688001
 30
0.0
 10
4.6361818392
 20
5.0242090513
 30
0.0
 10
4.6358746689
 20
5.0245450726
 30
0.0
 10
4.6354746009
 20
5.0248786849
 30
0.0
 10
4.6349815165
 20
5.0252107208
 30
0.0
 10
4.6343952635
 20
5.0255414649
 30
0.0
 10
4.6337158645
 20
5.0258709404
 30
0.0
 10
4.6329434831
 20
5.0261990012
 30
0.0
 10
4.6320784274
 20
5.0265254559
 30
0.0
 10
4.6311211184
 20
5.0268501145
 30
0.0
 10
4.6300720604
 20
5.0271727414
 30
0.0
 10
4.6289318453
 20
5.0274931444
 30
0.0
 10
4.6272351427
 20
5.0279314165
 30
0.0
 10
4.6248895956
 20
5.0284669777
 30
0.0
 10
4.6218075933
 20
5.0290790974
 30
0.0
 10
4.618381031
 20
5.029677921
 30
0.0
 10
4.6146181459
 20
5.0302618719
 30
0.0
 10
4.6105279744
 20
5.0308293743
 30
0.0
 10
4.606120418
 20
5.0313789575
 30
0.0
 10
4.6014061606
 20
5.0319092001
 30
0.0
 10
4.5963966503
 20
5.0324187741
 30
0.0
 10
4.5891654025
 20
5.0330848912
 30
0.0
 10
4.5794838697
 20
5.0338490556
 30
0.0
 10
4.5671612488
 20
5.0346455381
 30
0.0
 10
4.5539917255
 20
5.0353336123
 30
0.0
 10
4.540103443
 20
5.0359063307
 30
0.0
 10
4.5256315266
 20
5.0363578608
 30
0.0
 10
4.5107168546
 20
5.0366836606
 30
0.0
 10
4.4955045506
 20
5.0368804556
 30
0.0
 10
4.4852798397
 20
5.0369242634
 30
0.0
 10
4.480142663
 20
5.0369242634
 30
0.0
  0
LINE
  5
5AA
100
AcDbEntity
  8
0
100
AcDbLine
 62
7
  6
CONTINUOUS
 10
2.935705163
 20
3.7504967117
 11
2.9411114818
 21
3.750623296
  0
LINE
  5
5AB
100
AcDbEntity
  8
0
100
AcDbLine
 62
7
  6
CONTINUOUS
 10
2.914517663
 20
3.7482062362
 11
2.920705163
 21
3.7491510697
  0
SPLINE
  5
5AC
100
AcDbEntity
  8
0
100
AcDbSpline
 62
7
  6
CONTINUOUS
 70
0
 71
3
 72
23
 73
19
 74
0
 42
0.0000001
 43
0.0000001
 44
0.0000000001
 40
0.0
 40
0.0
 40
0.0
 40
0.0
 40
0.0199032648
 40
0.054904682
 40
0.1089293599
 40
0.1824808194
 40
0.2712010499
 40
0.3708531994
 40
0.4773525749
 40
0.5845367351
 40
0.6857924632
 40
0.7769011617
 40
0.8543349029
 40
0.9141649747
 40
0.955676629
 40
0.9814649689
 40
0.9951283783
 40
1.0
 40
1.0
 40
1.0
 40
1.0
 10
5.934123049
 20
3.7505093316
 30
0.0
 10
5.9343323594
 20
3.7505067315
 30
0.0
 10
5.9349098517
 20
3.7505086324
 30
0.0
 10
5.9360552895
 20
3.7505310032
 30
0.0
 10
5.9377643284
 20
3.7505851353
 30
0.0
 10
5.9400373775
 20
3.7506754013
 30
0.0
 10
5.9427894857
 20
3.7507950818
 30
0.0
 10
5.9458873738
 20
3.7509389915
 30
0.0
 10
5.9491787087
 20
3.7511031179
 30
0.0
 10
5.9524860208
 20
3.7512846634
 30
0.0
 10
5.9556310262
 20
3.7514692392
 30
0.0
 10
5.958463177
 20
3.7516437878
 30
0.0
 10
5.9608600114
 20
3.7517988401
 30
0.0
 10
5.9627355863
 20
3.7519311729
 30
0.0
 10
5.9640684574
 20
3.7520370197
 30
0.0
 10
5.9649165455
 20
3.7521136247
 30
0.0
 10
5.9653801664
 20
3.7521622308
 30
0.0
 10
5.9655737633
 20
3.7521852031
 30
0.0
 10
5.9656245174
 20
3.752192212
 30
0.0
  0
LINE
  5
5AD
100
AcDbEntity
  8
0
100
AcDbLine
 62
7
  6
CONTINUOUS
 10
2.901955163
 20
3.7469155882
 11
2.9073590431
 21
3.7473592882
  0
SPLINE
  5
5AE
100
AcDbEntity
  8
0
100
AcDbSpline
 62
7
  6
CONTINUOUS
 70
0
 71
3
 72
35
 73
31
 74
0
 42
0.0000001
 43
0.0000001
 44
0.0000000001
 40
0.0
 40
0.0
 40
0.0
 40
0.0
 40
0.0699564171
 40
0.1378457764
 40
0.1709599286
 40
0.2034936325
 40
0.2354351908
 40
0.2667812239
 40
0.2975385009
 40
0.3277264558
 40
0.3573795901
 40
0.3865489515
 40
0.4153030914
 40
0.4437276209
 40
0.4719229905
 40
0.5000007756
 40
0.5280785593
 40
0.5562739245
 40
0.584698447
 40
0.6134525775
 40
0.6426219274
 40
0.6722750489
 40
0.7024629902
 40
0.7332202519
 40
0.7645662693
 40
0.7965078204
 40
0.8290414973
 40
0.8621556075
 40
0.9300450591
 40
1.0
 40
1.0
 40
1.0
 40
1.0
 10
3.2644155018
 20
2.923368233
 30
0.0
 10
3.2616853736
 20
2.9260904968
 30
0.0
 10
3.2561884787
 20
2.9313388397
 30
0.0
 10
3.2490362368
 20
2.9374813351
 30
0.0
 10
3.2432236493
 20
2.9419974542
 30
0.0
 10
3.238859826
 20
2.9451434704
 30
0.0
 10
3.2344558061
 20
2.9480603915
 30
0.0
 10
3.2300121601
 20
2.9507317553
 30
0.0
 10
3.2255300918
 20
2.9531408555
 30
0.0
 10
3.2210115336
 20
2.95527116
 30
0.0
 10
3.2164591883
 20
2.9571066122
 30
0.0
 10
3.2118766144
 20
2.9586321007
 30
0.0
 10
3.2072683446
 20
2.9598342119
 30
0.0
 10
3.2026397913
 20
2.9607016351
 30
0.0
 10
3.1979971683
 20
2.9612256485
 30
0.0
 10
3.1933473505
 20
2.9614009138
 30
0.0
 10
3.1886975325
 20
2.9612256572
 30
0.0
 10
3.1840549092
 20
2.9607016526
 30
0.0
 10
3.1794263555
 20
2.9598342379
 30
0.0
 10
3.1748180852
 20
2.958632135
 30
0.0
 10
3.1702355105
 20
2.9571066544
 30
0.0
 10
3.1656831644
 20
2.9552712099
 30
0.0
 10
3.1611646055
 20
2.9531409122
 30
0.0
 10
3.1566825362
 20
2.9507318191
 30
0.0
 10
3.1522388879
 20
2.9480604632
 30
0.0
 10
3.1478348701
 20
2.9451435433
 30
0.0
 10
3.1434710484
 20
2.9419975339
 30
0.0
 10
3.1376584215
 20
2.9374814583
 30
0.0
 10
3.1305064273
 20
2.9313388109
 30
0.0
 10
3.1250091553
 20
2.9260909767
 30
0.0
 10
3.1222790824
 20
2.9233687725
 30
0.0
  0
LINE
  5
5AF
100
AcDbEntity
  8
0
100
AcDbLine
 62
7
  6
CONTINUOUS
 10
2.880767663
 20
3.7433631126
 11
2.886955163
 21
3.7446799751
  0
LINE
  5
5B0
100
AcDbEntity
  8
0
100
AcDbLine
 62
7
  6
CONTINUOUS
 10
3.052330163
 20
3.7477697233
 11
3.059267663
 21
3.7465113807
  0
LINE
  5
5B1
100
AcDbEntity
  8
0
100
AcDbLine
 62
7
  6
CONTINUOUS
 10
3.031892663
 20
3.7496149457
 11
3.0324095723
 21
3.7495803802
  0
LINE
  5
5B2
100
AcDbEntity
  8
0
100
AcDbLine
 62
7
  6
CONTINUOUS
 10
3.0324095723
 20
3.7495803802
 11
3.038830163
 21
3.749299
  0
SPLINE
  5
5B3
100
AcDbEntity
  8
0
100
AcDbSpline
 62
7
  6
CONTINUOUS
 70
0
 71
3
 72
23
 73
19
 74
0
 42
0.0000001
 43
0.0000001
 44
0.0000000001
 40
0.0
 40
0.0
 40
0.0
 40
0.0
 40
0.01808962
 40
0.0507211898
 40
0.1020854843
 40
0.1734348896
 40
0.2608029707
 40
0.3597245716
 40
0.4661663335
 40
0.5741508407
 40
0.6767437663
 40
0.7694209896
 40
0.8486223151
 40
0.9103127659
 40
0.9533594698
 40
0.9802564246
 40
0.9946592868
 40
1.0
 40
1.0
 40
1.0
 40
1.0
 10
2.9640582089
 20
3.7521168636
 30
0.0
 10
2.9642481237
 20
3.7521039267
 30
0.0
 10
2.9647812102
 20
3.7520765975
 30
0.0
 10
2.9658548368
 20
3.7520397821
 30
0.0
 10
2.9674891771
 20
3.7520046114
 30
0.0
 10
2.9696996721
 20
3.7519762835
 30
0.0
 10
2.9724106816
 20
3.7519529161
 30
0.0
 10
2.9754910147
 20
3.7519355289
 30
0.0
 10
2.9787883384
 20
3.7519277999
 30
0.0
 10
2.9821242954
 20
3.7519365529
 30
0.0
 10
2.9853153431
 20
3.7519578333
 30
0.0
 10
2.9882034425
 20
3.751985767
 30
0.0
 10
2.9906610685
 20
3.7520169372
 30
0.0
 10
2.9925963294
 20
3.7520522255
 30
0.0
 10
2.9939810125
 20
3.7520895612
 30
0.0
 10
2.9948679805
 20
3.7521230794
 30
0.0
 10
2.9953581148
 20
3.7521486009
 30
0.0
 10
2.9955654402
 20
3.7521623195
 30
0.0
 10
2.9956214379
 20
3.75216708
 30
0.0
  0
LINE
  5
5B4
100
AcDbEntity
  8
0
100
AcDbLine
 62
7
  6
CONTINUOUS
 10
6.0406551065
 20
3.7487553059
 11
6.0414568446
 21
3.7486622785
  0
LINE
  5
5B5
100
AcDbEntity
  8
0
100
AcDbLine
 62
7
  6
CONTINUOUS
 10
5.965630163
 20
3.7518178875
 11
5.964781355
 21
3.7517271299
  0
SPLINE
  5
5B6
100
AcDbEntity
  8
0
100
AcDbSpline
 62
7
  6
CONTINUOUS
 70
0
 71
3
 72
21
 73
17
 74
0
 42
0.0000001
 43
0.0000001
 44
0.0000000001
 40
0.0
 40
0.0
 40
0.0
 40
0.0
 40
0.0253808466
 40
0.0620863596
 40
0.111499032
 40
0.1734581744
 40
0.2458200492
 40
0.3264404459
 40
0.5041480578
 40
0.6818667137
 40
0.7624999043
 40
0.8346894267
 40
0.8958597409
 40
0.9434739727
 40
0.977543345
 40
1.0
 40
1.0
 40
1.0
 40
1.0
 10
5.964781355
 20
3.7517271299
 30
0.0
 10
5.9645253563
 20
3.751703028
 30
0.0
 10
5.9638987527
 20
3.7516481377
 30
0.0
 10
5.9627726427
 20
3.7515594664
 30
0.0
 10
5.9612763004
 20
3.7514524103
 30
0.0
 10
5.9594189617
 20
3.7513296317
 30
0.0
 10
5.9572457212
 20
3.7511926679
 30
0.0
 10
5.9539016729
 20
3.7509899636
 30
0.0
 10
5.9494911972
 20
3.7507394832
 30
0.0
 10
5.9450787614
 20
3.7505236437
 30
0.0
 10
5.9417334882
 20
3.7503725921
 30
0.0
 10
5.9395675089
 20
3.7502803005
 30
0.0
 10
5.9377354666
 20
3.7502088077
 30
0.0
 10
5.9362889664
 20
3.7501620461
 30
0.0
 10
5.9352341937
 20
3.7501378407
 30
0.0
 10
5.9346615427
 20
3.7501316805
 30
0.0
 10
5.9344340367
 20
3.7501315077
 30
0.0
  0
LINE
  5
5B7
100
AcDbEntity
  8
0
100
AcDbLine
 62
7
  6
CONTINUOUS
 10
5.9344340367
 20
3.7501315077
 11
5.933755163
 21
3.7501447629
  0
LINE
  5
5B8
100
AcDbEntity
  8
0
100
AcDbLine
 62
7
  6
CONTINUOUS
 10
5.991955163
 20
3.751753339
 11
5.9917523243
 21
3.7517092853
  0
LINE
  5
5B9
100
AcDbEntity
  8
0
100
AcDbLine
 62
7
  6
CONTINUOUS
 10
5.9917523243
 20
3.7517092853
 11
5.9844019033
 21
3.751539541
  0
LINE
  5
5BA
100
AcDbEntity
  8
0
100
AcDbLine
 62
7
  6
CONTINUOUS
 10
5.9844019033
 20
3.751539541
 11
5.983892663
 21
3.7515366263
  0
ENDSEC
  0
SECTION
  2
OBJECTS
  0
DICTIONARY
  5
C
100
AcDbDictionary
280
0
281
1
  3
ACAD_GROUP
350
D
  3
ACAD_MLINESTYLE
350
17
  3
ACAD_LAYOUT
350
1A
  3
ACAD_PLOTSETTINGS
350
19
  3
ACAD_PLOTSTYLENAME
350
E
  0
DICTIONARY
  5
D
102
{ACAD_REACTORS
330
C
102
}
100
AcDbDictionary
280
0
281
1
  0
ACDBDICTIONARYWDFLT
  5
E
102
{ACAD_REACTORS
330
C
102
}
100
AcDbDictionary
281
1
  3
Normal
350
F
100
AcDbDictionaryWithDefault
340
F
  0
DICTIONARY
  5
17
102
{ACAD_REACTORS
330
C
102
}
100
AcDbDictionary
280
0
281
1
  3
Standard
350
18
  0
DICTIONARY
  5
19
102
{ACAD_REACTORS
330
C
102
}
100
AcDbDictionary
281
1
  0
DICTIONARY
  5
1A
102
{ACAD_REACTORS
330
C
102
}
100
AcDbDictionary
281
1
  3
Model
350
5BB
  3
Layout1
350
5BC
  0
ACDBPLACEHOLDER
  5
F
102
{ACAD_REACTORS
330
E
102
}
  0
MLINESTYLE
  5
18
102
{ACAD_REACTORS
330
17
102
}
100
AcDbMlineStyle
  2
STANDARD
 70
0
  3

 62
256
 51
90.0
 52
90.0
 71
2
 49
0.5
 62
256
  6
BYLAYER
 49
-0.5
 62
256
  6
BYLAYER
  0
LAYOUT
  5
5BB
102
{ACAD_REACTORS
330
1A
102
}
100
AcDbPlotSettings
  1

  2
none_device
  4
ANSI_A_(11.00_x_8.50_Inches)
  6

 40
0.0
 41
0.0
 42
0.0
 43
0.0
 44
279.4
 45
215.9
 46
0.0
 47
0.0
 48
0.0
 49
0.0
140
0.0
141
0.0
142
1.0
143
1.0
 70
1024
 72
0
 73
0
 74
0
  7

 75
0
147
1.0
148
0.0
149
0.0
100
AcDbLayout
  1
Model
 70
0
 71
0
 10
0.0
 20
0.0
 11
11.0
 21
8.5
 12
0.0
 22
0.0
 32
0.0
 14
0.0
 24
0.0
 34
0.0
 15
0.0
 25
0.0
 35
0.0
146
0.0
 13
0.0
 23
0.0
 33
0.0
 16
1.0
 26
0.0
 36
0.0
 17
0.0
 27
1.0
 37
0.0
 76
0
330
202
345
0
346
0
  0
LAYOUT
  5
5BC
102
{ACAD_REACTORS
330
1A
102
}
100
AcDbPlotSettings
  1

  2
none_device
  4
ANSI_A_(11.00_x_8.50_Inches)
  6

 40
0.0
 41
0.0
 42
0.0
 43
0.0
 44
279.4
 45
215.9
 46
0.0
 47
0.0
 48
0.0
 49
0.0
140
0.0
141
0.0
142
1.0
143
1.0
 70
0
 72
0
 73
0
 74
0
  7

 75
0
147
1.0
148
0.0
149
0.0
100
AcDbLayout
  1
Layout1
 70
0
 71
1
 10
0.0
 20
0.0
 11
11.0
 21
8.5
 12
0.0
 22
0.0
 32
0.0
 14
0.0
 24
0.0
 34
0.0
 15
0.0
 25
0.0
 35
0.0
146
0.0
 13
0.0
 23
0.0
 33
0.0
 16
1.0
 26
0.0
 36
0.0
 17
0.0
 27
1.0
 37
0.0
 76
0
330
203
345
0
346
0
  0
ENDSEC
  0
EOF
