999
DXF file: 9453-1_front.dxf
999
Pro/ENGINEER 2018400 by Parametric Technology Corporation
  0
SECTION
  2
HEADER
  9
$ACADVER
  1
AC1027
  9
$DWGCODEPAGE
  3
ANSI_1252
  9
$EXTMAX
 10
11.0
 20
8.5
 30
0.0
  9
$EXTMIN
 10
0.0
 20
0.0
 30
0.0
  9
$LIMMIN
 10
0.0
 20
0.0
  9
$LIMMAX
 10
11.0
 20
8.5
  9
$VIEWCTR
 10
5.5
 20
4.25
  9
$VIEWSIZE
 40
8.5
  9
$CLAYER
  8
0
  9
$LTSCALE
 40
0.605
  9
$CELTYPE
  6
BYLAYER
  9
$DIMSCALE
 40
1.0
  9
$DIMASZ
 40
0.1
  9
$DIMEXO
 40
0.0625
  9
$DIMDLI
 40
0.418
  9
$DIMEXE
 40
0.125
  9
$DIMCEN
 40
0.099
  9
$DIMLFAC
 40
1.0
  9
$DIMBLK
  1
_FILLED
  9
$DIMALT
 70
1
  9
$DIMALTD
 70
1
  9
$DIMALTTD
 70
2
  9
$DIMALTF
 40
25.4
  9
$DIMTXT
 40
0.08
  9
$DIMTOL
 70
1
  9
$DIMLIM
 70
0
  9
$DIMTFAC
 40
1.0
  9
$DIMTP
 40
0.01
  9
$DIMTM
 40
0.01
  9
$DIMGAP
 40
0.09
  9
$DIMDSEP
 70
46
  9
$AUNITS
 70
0
  9
$PDMODE
 70
3
  9
$PDSIZE
 40
0.3125
  9
$HANDSEED
  5
667
  9
$TILEMODE
 70
1
  9
$MEASUREMENT
 70
0
  9
$INSUNITS
 70
1
  0
ENDSEC
  0
SECTION
  2
CLASSES
  0
CLASS
  1
ACDBDICTIONARYWDFLT
  2
AcDbDictionaryWithDefault
  3
AutoCAD 2000
 90
0
 91
1
280
0
281
0
  0
CLASS
  1
ACDBPLACEHOLDER
  2
AcDbPlaceHolder
  3
AutoCAD 2000
 90
0
 91
1
280
0
281
0
  0
CLASS
  1
LAYOUT
  2
AcDbLayout
  3
AutoCAD 2000
 90
0
 91
0
280
0
281
0
  0
ENDSEC
  0
SECTION
  2
TABLES
  0
TABLE
  2
VPORT
  5
8
100
AcDbSymbolTable
 70
2
  0
VPORT
  5
1F4
100
AcDbSymbolTableRecord
100
AcDbViewportTableRecord
  2
*ACTIVE
 70
0
 10
0.0
 20
0.0
 11
1.0
 21
1.0
 12
5.5
 22
4.25
 13
0.0
 23
0.0
 14
1.0
 24
1.0
 15
0.0
 25
0.0
 16
0.0
 26
0.0
 36
1.0
 17
0.0
 27
0.0
 37
0.0
 40
8.5
 41
1.2941176471
 42
50.0
 43
0.0
 44
0.0
 50
0.0
 51
0.0
 71
0
 72
100
 73
1
 74
1
 75
0
 76
0
 77
0
 78
0
  0
ENDTAB
  0
TABLE
  2
LTYPE
  5
5
100
AcDbSymbolTable
 70
6
  0
LTYPE
  5
14
100
AcDbSymbolTableRecord
100
AcDbLinetypeTableRecord
  2
BYBLOCK
 70
0
  3

 72
65
 73
0
 40
0.0
  0
LTYPE
  5
15
100
AcDbSymbolTableRecord
100
AcDbLinetypeTableRecord
  2
BYLAYER
 70
0
  3

 72
65
 73
0
 40
0.0
  0
LTYPE
  5
16
100
AcDbSymbolTableRecord
100
AcDbLinetypeTableRecord
  2
CONTINUOUS
 70
64
  3
Solid line
 72
65
 73
0
 40
0.0
  0
LTYPE
  5
1F5
100
AcDbSymbolTableRecord
100
AcDbLinetypeTableRecord
  2
CENTER
 70
64
  3
____ _ ____ _ ____ _ ____ _ ____ _ ____ _ ____
 72
65
 73
4
 40
0.6
 49
0.375
 74
0
 49
-0.075
 74
0
 49
0.075
 74
0
 49
-0.075
 74
0
  0
LTYPE
  5
1F6
100
AcDbSymbolTableRecord
100
AcDbLinetypeTableRecord
  2
HIDDEN
 70
64
  3
- - - - - - - - - - - - - - - - - - - -
 72
65
 73
2
 40
0.2
 49
0.1
 74
0
 49
-0.1
 74
0
  0
LTYPE
  5
1F7
100
AcDbSymbolTableRecord
100
AcDbLinetypeTableRecord
  2
PHANTOM
 70
64
  3
_____ _ _ _____ _ _ _____ _ _ _____
 72
65
 73
6
 40
0.8
 49
0.45
 74
0
 49
-0.05
 74
0
 49
0.1
 74
0
 49
-0.05
 74
0
 49
0.1
 74
0
 49
-0.05
 74
0
  0
LTYPE
  5
1F8
100
AcDbSymbolTableRecord
100
AcDbLinetypeTableRecord
  2
DOT
 70
64
  3
. . . . . . . . . . . . . . . . . . . .
 72
65
 73
2
 40
0.2
 49
0.1
 74
0
 49
-0.1
 74
0
  0
LTYPE
  5
1F9
100
AcDbSymbolTableRecord
100
AcDbLinetypeTableRecord
  2
DASHED
 70
64
  3
- - - - - - - - - - - - - - - - - - - -
 72
65
 73
2
 40
0.2
 49
0.1
 74
0
 49
-0.1
 74
0
  0
ENDTAB
  0
TABLE
  2
LAYER
  5
2
100
AcDbSymbolTable
 70
36
  0
LAYER
  5
10
100
AcDbSymbolTableRecord
100
AcDbLayerTableRecord
  2
0
 70
0
 62
7
  6
CONTINUOUS
370
-3
390
F
  0
LAYER
  5
1FA
100
AcDbSymbolTableRecord
100
AcDbLayerTableRecord
  2
DEFAULT_1
 70
0
 62
7
  6
CENTER
370
-3
390
F
  0
LAYER
  5
1FB
100
AcDbSymbolTableRecord
100
AcDbLayerTableRecord
  2
DEFAULT_2
 70
0
 62
8
  6
HIDDEN
370
-3
390
F
  0
LAYER
  5
1FC
100
AcDbSymbolTableRecord
100
AcDbLayerTableRecord
  2
DEFAULT_3
 70
0
 62
7
  6
PHANTOM
370
-3
390
F
  0
LAYER
  5
1FD
100
AcDbSymbolTableRecord
100
AcDbLayerTableRecord
  2
DEFAULT_COORDINATE_SYSTEM
 70
0
 62
7
  6
CONTINUOUS
370
-3
390
F
  0
LAYER
  5
1FE
100
AcDbSymbolTableRecord
100
AcDbLayerTableRecord
  2
DEFAULT_DATUM_AXES
 70
0
 62
7
  6
CONTINUOUS
370
-3
390
F
  0
LAYER
  5
1FF
100
AcDbSymbolTableRecord
100
AcDbLayerTableRecord
  2
DEFAULT_DATUM_PLANES
 70
0
 62
7
  6
CONTINUOUS
370
-3
390
F
  0
ENDTAB
  0
TABLE
  2
STYLE
  5
3
100
AcDbSymbolTable
 70
1
  0
STYLE
  5
11
100
AcDbSymbolTableRecord
100
AcDbTextStyleTableRecord
  2
STANDARD
 70
0
 40
0.0
 41
0.8
 50
0.0
 71
0
 42
0.2
  3
txt
  4

  0
STYLE
  5
200
100
AcDbSymbolTableRecord
100
AcDbTextStyleTableRecord
  2
TEXTSTYLE_1
 70
0
 40
0.0
 41
0.8
 50
0.0
 71
0
 42
0.2
  3
gdt
  4

  0
ENDTAB
  0
TABLE
  2
VIEW
  5
6
100
AcDbSymbolTable
 70
0
  0
ENDTAB
  0
TABLE
  2
UCS
  5
7
100
AcDbSymbolTable
 70
0
  0
ENDTAB
  0
TABLE
  2
APPID
  5
9
100
AcDbSymbolTable
 70
1
  0
APPID
  5
201
100
AcDbSymbolTableRecord
100
AcDbRegAppTableRecord
  2
ACAD
 70
0
  0
ENDTAB
  0
TABLE
  2
BLOCK_RECORD
  5
1
100
AcDbSymbolTable
 70
0
  0
BLOCK_RECORD
  5
202
100
AcDbSymbolTableRecord
100
AcDbBlockTableRecord
  2
*Model_Space
  0
BLOCK_RECORD
  5
203
100
AcDbSymbolTableRecord
100
AcDbBlockTableRecord
  2
*Paper_Space
  0
BLOCK_RECORD
  5
204
100
AcDbSymbolTableRecord
100
AcDbBlockTableRecord
  2
_FILLED
  0
ENDTAB
  0
TABLE
  2
DIMSTYLE
  5
A
100
AcDbSymbolTable
 70
1
100
AcDbDimStyleTable
 71
0
  0
DIMSTYLE
105
205
100
AcDbSymbolTableRecord
100
AcDbDimStyleTableRecord
  2
STANDARD
 70
0
  3

  4

 40
1.0
 41
0.1
 42
0.0625
 43
0.38
 44
0.125
 45
0.0
 46
0.0
 47
0.01
 48
0.01
140
0.08
141
0.09
142
0.0
143
25.4
144
1.0
145
0.0
146
1.0
147
0.09
 71
1.0
 72
0.0
 73
1
 74
1
 75
0
 76
0
 77
0
 78
4
 79
1
170
1
171
1
172
0
173
0
174
0
175
0
176
0
177
0
178
0
270
2
179
2
271
2
272
2
273
2
274
2
275
0
280
0
281
0
282
0
283
1
284
4
285
0
286
0
287
3
288
0
340
11
278
46
341
204
342
204
343
204
344
204
  0
ENDTAB
  0
ENDSEC
  0
SECTION
  2
BLOCKS
  0
BLOCK
  5
20
100
AcDbEntity
  8
0
100
AcDbBlockBegin
  2
*Model_Space
 70
0
 10
0.0
 20
0.0
 30
0.0
  3
*Model_Space
  1

  0
ENDBLK
  5
21
100
AcDbEntity
  8
0
100
AcDbBlockEnd
  0
BLOCK
  5
1C
100
AcDbEntity
  8
0
100
AcDbBlockBegin
  2
*Paper_Space
 70
0
 10
0.0
 20
0.0
 30
0.0
  3
*Paper_Space
  1

  0
ENDBLK
  5
1D
100
AcDbEntity
  8
0
100
AcDbBlockEnd
  0
BLOCK
  5
206
100
AcDbEntity
  8
0
100
AcDbBlockBegin
  2
_FILLED
 70
64
 10
0.0
 20
0.0
  3
_FILLED
  1

  0
SOLID
  5
207
100
AcDbEntity
  8
0
  6
BYBLOCK
 62
0
100
AcDbTrace
 10
0.0
 20
0.0
 11
-1.0
 21
0.2
 12
-1.0
 22
-0.2
 13
-1.0
 23
-0.2
  0
ENDBLK
  5
208
100
AcDbEntity
  8
0
  6
BYBLOCK
 62
0
100
AcDbBlockEnd
  0
ENDSEC
  0
SECTION
  2
ENTITIES
  0
MTEXT
  5
209
100
AcDbEntity
  8
0
100
AcDbMText
 62
2
  6
CONTINUOUS
  7
STANDARD
 71
3
 72
1
 10
5.3270574534
 20
1.7263527686
 30
0.0
 11
1.0
 21
0.0
 31
0.0
 73
2
 44
0.9
  1
SCALE  .500
 40
0.08
 41
0.704
  0
LINE
  5
20A
100
AcDbEntity
  8
0
100
AcDbLine
 62
7
  6
CONTINUOUS
 10
0.0
 20
0.0
 11
0.0
 21
8.5
  0
LINE
  5
20B
100
AcDbEntity
  8
0
100
AcDbLine
 62
7
  6
CONTINUOUS
 10
0.0
 20
0.0
 11
11.0
 21
0.0
  0
LINE
  5
20C
100
AcDbEntity
  8
0
100
AcDbLine
 62
7
  6
CONTINUOUS
 10
0.0
 20
8.5
 11
11.0
 21
8.5
  0
LINE
  5
20D
100
AcDbEntity
  8
0
100
AcDbLine
 62
7
  6
CONTINUOUS
 10
11.0
 20
0.0
 11
11.0
 21
8.5
  0
LINE
  5
20E
100
AcDbEntity
  8
0
100
AcDbLine
 62
7
  6
CONTINUOUS
 10
0.9881824534
 20
3.8836026783
 11
0.9881824534
 21
4.145102859
  0
LINE
  5
20F
100
AcDbEntity
  8
0
100
AcDbLine
 62
7
  6
CONTINUOUS
 10
0.9981824534
 20
4.1551027686
 11
0.9981824534
 21
3.8736027686
  0
LINE
  5
210
100
AcDbEntity
  8
0
100
AcDbLine
 62
7
  6
CONTINUOUS
 10
1.0381824534
 20
3.8736027686
 11
1.0381824534
 21
4.1551027686
  0
LINE
  5
211
100
AcDbEntity
  8
0
100
AcDbLine
 62
7
  6
CONTINUOUS
 10
2.2621024796
 20
2.5022089368
 11
2.3429098539
 21
2.1981774596
  0
LINE
  5
212
100
AcDbEntity
  8
0
100
AcDbLine
 62
7
  6
CONTINUOUS
 10
2.1471824534
 20
1.8683451825
 11
2.1471824534
 21
1.8408527686
  0
LINE
  5
213
100
AcDbEntity
  8
0
100
AcDbLine
 62
7
  6
CONTINUOUS
 10
2.1826824534
 20
3.8736027686
 11
2.1826824534
 21
4.1551027686
  0
LINE
  5
214
100
AcDbEntity
  8
0
100
AcDbLine
 62
7
  6
CONTINUOUS
 10
2.2351824534
 20
3.8736027686
 11
2.2351824534
 21
4.1551027686
  0
LINE
  5
215
100
AcDbEntity
  8
0
100
AcDbLine
 62
7
  6
CONTINUOUS
 10
2.3351824534
 20
3.9158527686
 11
2.3351824534
 21
4.1128527686
  0
LINE
  5
216
100
AcDbEntity
  8
0
100
AcDbLine
 62
7
  6
CONTINUOUS
 10
2.3476824534
 20
4.1168527686
 11
2.3476824534
 21
4.1128527686
  0
LINE
  5
217
100
AcDbEntity
  8
0
100
AcDbLine
 62
7
  6
CONTINUOUS
 10
2.3476824534
 20
3.9158527686
 11
2.3476824534
 21
3.9118527686
  0
LINE
  5
218
100
AcDbEntity
  8
0
100
AcDbLine
 62
7
  6
CONTINUOUS
 10
2.3508424534
 20
3.0023527686
 11
2.3508424534
 21
2.8849264958
  0
LINE
  5
219
100
AcDbEntity
  8
0
100
AcDbLine
 62
7
  6
CONTINUOUS
 10
2.3626824534
 20
4.2079948172
 11
2.3626824534
 21
4.1723527686
  0
LINE
  5
21A
100
AcDbEntity
  8
0
100
AcDbLine
 62
7
  6
CONTINUOUS
 10
2.3651824534
 20
3.9984703884
 11
2.3651824534
 21
4.0302351488
  0
LINE
  5
21B
100
AcDbEntity
  8
0
100
AcDbLine
 62
7
  6
CONTINUOUS
 10
0.9981824534
 20
4.1551027686
 11
0.9881824534
 21
4.1451027686
  0
LINE
  5
21C
100
AcDbEntity
  8
0
100
AcDbLine
 62
7
  6
CONTINUOUS
 10
0.9981824534
 20
3.8736027686
 11
0.9881824534
 21
3.8836027686
  0
LINE
  5
21D
100
AcDbEntity
  8
0
100
AcDbLine
 62
7
  6
CONTINUOUS
 10
2.4546824534
 20
3.8468527686
 11
2.4546824534
 21
3.6673527686
  0
LINE
  5
21E
100
AcDbEntity
  8
0
100
AcDbLine
 62
7
  6
CONTINUOUS
 10
2.4939324534
 20
4.2522640599
 11
2.4939324534
 21
4.2528380834
  0
LINE
  5
21F
100
AcDbEntity
  8
0
100
AcDbLine
 62
7
  6
CONTINUOUS
 10
2.5021824534
 20
4.2540871911
 11
2.5021824534
 21
4.2548293271
  0
LINE
  5
220
100
AcDbEntity
  8
0
100
AcDbLine
 62
7
  6
CONTINUOUS
 10
2.5221824534
 20
4.2570699764
 11
2.5221824534
 21
4.2577959237
  0
LINE
  5
221
100
AcDbEntity
  8
0
100
AcDbLine
 62
7
  6
CONTINUOUS
 10
2.5304324534
 20
4.2582817991
 11
2.5304324534
 21
4.2577118433
  0
LINE
  5
222
100
AcDbEntity
  8
0
100
AcDbLine
 62
7
  6
CONTINUOUS
 10
2.5389324534
 20
4.2587263769
 11
2.5389324534
 21
4.2592955814
  0
LINE
  5
223
100
AcDbEntity
  8
0
100
AcDbLine
 62
7
  6
CONTINUOUS
 10
2.5471824534
 20
4.2600525709
 11
2.5471824534
 21
4.2607757109
  0
LINE
  5
224
100
AcDbEntity
  8
0
100
AcDbLine
 62
7
  6
CONTINUOUS
 10
2.5671824534
 20
4.2618479283
 11
2.5671824534
 21
4.2625855583
  0
LINE
  5
225
100
AcDbEntity
  8
0
100
AcDbLine
 62
7
  6
CONTINUOUS
 10
2.5754324534
 20
4.262572178
 11
2.5754324534
 21
4.2620053878
  0
LINE
  5
226
100
AcDbEntity
  8
0
100
AcDbLine
 62
7
  6
CONTINUOUS
 10
2.6045824534
 20
4.2640446279
 11
2.6045824534
 21
4.2645448267
  0
LINE
  5
227
100
AcDbEntity
  8
0
100
AcDbLine
 62
7
  6
CONTINUOUS
 10
2.6470824534
 20
4.2640775505
 11
2.6470824534
 21
4.264577728
  0
LINE
  5
228
100
AcDbEntity
  8
0
100
AcDbLine
 62
7
  6
CONTINUOUS
 10
2.6954324534
 20
4.2606060428
 11
2.6954324534
 21
4.2611738609
  0
LINE
  5
229
100
AcDbEntity
  8
0
100
AcDbLine
 62
7
  6
CONTINUOUS
 10
2.7046824534
 20
4.26024994
 11
2.7046824534
 21
4.2608922433
  0
LINE
  5
22A
100
AcDbEntity
  8
0
100
AcDbLine
 62
7
  6
CONTINUOUS
 10
2.4178648274
 20
3.6353669745
 11
2.364241055
 21
3.1938527686
  0
LINE
  5
22B
100
AcDbEntity
  8
0
100
AcDbLine
 62
7
  6
CONTINUOUS
 10
2.7226824534
 20
4.2582095709
 11
2.7226824534
 21
4.2588553538
  0
LINE
  5
22C
100
AcDbEntity
  8
0
100
AcDbLine
 62
7
  6
CONTINUOUS
 10
2.7319324534
 20
4.2570357741
 11
2.7319324534
 21
4.2564648924
  0
LINE
  5
22D
100
AcDbEntity
  8
0
100
AcDbLine
 62
7
  6
CONTINUOUS
 10
2.7981824534
 20
3.8468527686
 11
2.7981824534
 21
3.6673527686
  0
LINE
  5
22E
100
AcDbEntity
  8
0
100
AcDbLine
 62
7
  6
CONTINUOUS
 10
2.8876824534
 20
4.001943095
 11
2.8876824534
 21
4.0267624423
  0
LINE
  5
22F
100
AcDbEntity
  8
0
100
AcDbLine
 62
7
  6
CONTINUOUS
 10
2.8901824534
 20
4.2079948172
 11
2.8901824534
 21
4.1723527686
  0
LINE
  5
230
100
AcDbEntity
  8
0
100
AcDbLine
 62
7
  6
CONTINUOUS
 10
2.8947773263
 20
3.9518115159
 11
2.8947773263
 21
4.0768940213
  0
LINE
  5
231
100
AcDbEntity
  8
0
100
AcDbLine
 62
7
  6
CONTINUOUS
 10
2.9020224534
 20
3.0023527686
 11
2.9020224534
 21
2.8849264958
  0
LINE
  5
232
100
AcDbEntity
  8
0
100
AcDbLine
 62
7
  6
CONTINUOUS
 10
2.9050900389
 20
4.1081500026
 11
2.9050900389
 21
3.9205555346
  0
LINE
  5
233
100
AcDbEntity
  8
0
100
AcDbLine
 62
7
  6
CONTINUOUS
 10
2.9051824534
 20
4.1168527686
 11
2.9051824534
 21
4.1083419455
  0
LINE
  5
234
100
AcDbEntity
  8
0
100
AcDbLine
 62
7
  6
CONTINUOUS
 10
2.9051824534
 20
3.9203635917
 11
2.9051824534
 21
3.9118527686
  0
LINE
  5
235
100
AcDbEntity
  8
0
100
AcDbLine
 62
7
  6
CONTINUOUS
 10
3.0307523538
 20
3.9185309864
 11
3.0307523538
 21
4.1101745508
  0
LINE
  5
236
100
AcDbEntity
  8
0
100
AcDbLine
 62
7
  6
CONTINUOUS
 10
3.044239325
 20
3.9243527686
 11
3.044239325
 21
4.1043527686
  0
LINE
  5
237
100
AcDbEntity
  8
0
100
AcDbLine
 62
7
  6
CONTINUOUS
 10
9.7039324534
 20
1.8213527686
 11
8.5489324534
 21
1.8213527686
  0
LINE
  5
238
100
AcDbEntity
  8
0
100
AcDbLine
 62
7
  6
CONTINUOUS
 10
3.0861824073
 20
1.8213527686
 11
2.1666844673
 21
1.8213527686
  0
LINE
  5
239
100
AcDbEntity
  8
0
100
AcDbLine
 62
7
  6
CONTINUOUS
 10
6.1666825763
 20
1.8213527686
 11
7.0861823305
 21
1.8213527686
  0
LINE
  5
23A
100
AcDbEntity
  8
0
100
AcDbLine
 62
7
  6
CONTINUOUS
 10
9.7139324534
 20
1.8313527686
 11
8.5389324534
 21
1.8313527686
  0
LINE
  5
23B
100
AcDbEntity
  8
0
100
AcDbLine
 62
7
  6
CONTINUOUS
 10
2.1471824534
 20
1.8408527686
 11
3.1056824534
 21
1.8408527686
  0
LINE
  5
23C
100
AcDbEntity
  8
0
100
AcDbLine
 62
7
  6
CONTINUOUS
 10
6.1471824534
 20
1.8408527686
 11
7.1056824534
 21
1.8408527686
  0
LINE
  5
23D
100
AcDbEntity
  8
0
100
AcDbLine
 62
7
  6
CONTINUOUS
 10
2.1471824534
 20
1.8683451825
 11
3.1056824534
 21
1.8683451825
  0
LINE
  5
23E
100
AcDbEntity
  8
0
100
AcDbLine
 62
7
  6
CONTINUOUS
 10
6.1471824534
 20
1.8683451825
 11
7.1056824534
 21
1.8683451825
  0
LINE
  5
23F
100
AcDbEntity
  8
0
100
AcDbLine
 62
7
  6
CONTINUOUS
 10
9.7139324534
 20
1.8738527686
 11
8.5389324534
 21
1.8738527686
  0
LINE
  5
240
100
AcDbEntity
  8
0
100
AcDbLine
 62
7
  6
CONTINUOUS
 10
2.1617450677
 20
1.8872097583
 11
3.0911198392
 21
1.8872097583
  0
LINE
  5
241
100
AcDbEntity
  8
0
100
AcDbLine
 62
7
  6
CONTINUOUS
 10
6.1617450677
 20
1.8872097583
 11
7.0911198392
 21
1.8872097583
  0
LINE
  5
242
100
AcDbEntity
  8
0
100
AcDbLine
 62
7
  6
CONTINUOUS
 10
9.6989324534
 20
1.8888527686
 11
8.5539324534
 21
1.8888527686
  0
LWPOLYLINE
  5
243
100
AcDbEntity
  8
0
100
AcDbPolyline
 62
7
  6
CONTINUOUS
 90
27
 70
0
 10
3.2662856233
 20
3.0170667781
 10
3.2671866602
 20
3.015672136
 10
3.2680602933
 20
3.014236991
 10
3.2688957557
 20
3.0127773817
 10
3.2696923365
 20
3.0112942868
 10
3.2704491076
 20
3.0097892005
 10
3.2711654268
 20
3.0082632024
 10
3.2718406958
 20
3.0067173586
 10
3.2724741674
 20
3.005153204
 10
3.2730653203
 20
3.0035718917
 10
3.2736136822
 20
3.0019745426
 10
3.2741186894
 20
3.00036269
 10
3.2745799283
 20
2.9987376031
 10
3.2749970708
 20
2.9971003818
 10
3.2753697688
 20
2.995452334
 10
3.2756977347
 20
2.9937946915
 10
3.2759807235
 20
2.9921286473
 10
3.2762185124
 20
2.9904554641
 10
3.2764109202
 20
2.9887763724
 10
3.2765577997
 20
2.9870926028
 10
3.276659035
 20
2.9854054255
 10
3.2767145483
 20
2.9837160803
 10
3.2767242954
 20
2.9820258077
 10
3.2766882666
 20
2.9803358812
 10
3.2766064884
 20
2.9786475532
 10
3.2764790199
 20
2.9769620533
 10
3.2764075458
 20
2.9762124145
  0
LINE
  5
244
100
AcDbEntity
  8
0
100
AcDbLine
 62
7
  6
CONTINUOUS
 10
3.1936824534
 20
3.0793527686
 11
3.1816824534
 21
3.1001373783
  0
LINE
  5
245
100
AcDbEntity
  8
0
100
AcDbLine
 62
7
  6
CONTINUOUS
 10
2.9050900389
 20
3.9205555346
 11
2.9051824534
 21
3.9203635917
  0
LINE
  5
246
100
AcDbEntity
  8
0
100
AcDbLine
 62
7
  6
CONTINUOUS
 10
2.8350000795
 20
3.6353669745
 11
2.8886238518
 21
3.1938527686
  0
LINE
  5
247
100
AcDbEntity
  8
0
100
AcDbLine
 62
7
  6
CONTINUOUS
 10
3.0565802896
 20
3.9289840899
 11
3.0565802896
 21
4.0997214473
  0
LINE
  5
248
100
AcDbEntity
  8
0
100
AcDbLine
 62
7
  6
CONTINUOUS
 10
3.0811633246
 20
3.9118344082
 11
3.0811633246
 21
4.116871129
  0
LINE
  5
249
100
AcDbEntity
  8
0
100
AcDbLine
 62
7
  6
CONTINUOUS
 10
3.1056824534
 20
1.8683451825
 11
3.1056824534
 21
1.8408527686
  0
LINE
  5
24A
100
AcDbEntity
  8
0
100
AcDbLine
 62
7
  6
CONTINUOUS
 10
3.1816824534
 20
3.1001373783
 11
3.1816824534
 21
3.3485681589
  0
LINE
  5
24B
100
AcDbEntity
  8
0
100
AcDbLine
 62
7
  6
CONTINUOUS
 10
3.2299605902
 20
3.3108960538
 11
3.2299605902
 21
3.1378094834
  0
LINE
  5
24C
100
AcDbEntity
  8
0
100
AcDbLine
 62
7
  6
CONTINUOUS
 10
3.2601789534
 20
3.3893527686
 11
3.2601789534
 21
3.5828527686
  0
LINE
  5
24D
100
AcDbEntity
  8
0
100
AcDbLine
 62
7
  6
CONTINUOUS
 10
3.2769324534
 20
3.3693527686
 11
3.2769324534
 21
3.3893527686
  0
LINE
  5
24E
100
AcDbEntity
  8
0
100
AcDbLine
 62
7
  6
CONTINUOUS
 10
2.9051824534
 20
4.1083419455
 11
2.9050900389
 21
4.1081500026
  0
LINE
  5
24F
100
AcDbEntity
  8
0
100
AcDbLine
 62
7
  6
CONTINUOUS
 10
2.3737922428
 20
4.2191046066
 11
2.3626824534
 21
4.2079948172
  0
LINE
  5
250
100
AcDbEntity
  8
0
100
AcDbLine
 62
7
  6
CONTINUOUS
 10
9.5614324534
 20
2.0088527686
 11
8.6914324534
 21
2.0088527686
  0
LINE
  5
251
100
AcDbEntity
  8
0
100
AcDbLine
 62
7
  6
CONTINUOUS
 10
9.3919324534
 20
2.1763527686
 11
8.8609324534
 21
2.1763527686
  0
LINE
  5
252
100
AcDbEntity
  8
0
100
AcDbLine
 62
7
  6
CONTINUOUS
 10
8.8658425478
 20
2.1868527686
 11
9.387022359
 21
2.1868527686
  0
LINE
  5
253
100
AcDbEntity
  8
0
100
AcDbLine
 62
7
  6
CONTINUOUS
 10
2.3429098539
 20
2.1981774596
 11
2.9099550529
 21
2.1981774596
  0
LINE
  5
254
100
AcDbEntity
  8
0
100
AcDbLine
 62
7
  6
CONTINUOUS
 10
6.3429098539
 20
2.1981774596
 11
6.9099550529
 21
2.1981774596
  0
LINE
  5
255
100
AcDbEntity
  8
0
100
AcDbLine
 62
7
  6
CONTINUOUS
 10
3.4304043167
 20
3.3108960538
 11
3.4304043167
 21
3.1378094834
  0
LINE
  5
256
100
AcDbEntity
  8
0
100
AcDbLine
 62
7
  6
CONTINUOUS
 10
3.5269605902
 20
3.3108960538
 11
3.5269605902
 21
3.1378094834
  0
LINE
  5
257
100
AcDbEntity
  8
0
100
AcDbLine
 62
7
  6
CONTINUOUS
 10
3.6804324534
 20
3.3693527686
 11
3.6804324534
 21
3.3893527686
  0
LINE
  5
258
100
AcDbEntity
  8
0
100
AcDbLine
 62
7
  6
CONTINUOUS
 10
3.6971859534
 20
3.3893527686
 11
3.6971859534
 21
3.5828527686
  0
LINE
  5
259
100
AcDbEntity
  8
0
100
AcDbLine
 62
7
  6
CONTINUOUS
 10
2.9907624273
 20
2.5022089368
 11
2.9099550529
 21
2.1981774596
  0
LINE
  5
25A
100
AcDbEntity
  8
0
100
AcDbLine
 62
7
  6
CONTINUOUS
 10
2.3163843889
 20
3.077863078
 11
2.3163616107
 21
3.0778345488
  0
LINE
  5
25B
100
AcDbEntity
  8
0
100
AcDbLine
 62
7
  6
CONTINUOUS
 10
2.3163843889
 20
3.077863078
 11
2.3163615036
 21
3.0778354952
  0
LINE
  5
25C
100
AcDbEntity
  8
0
100
AcDbLine
 62
7
  6
CONTINUOUS
 10
9.3814324534
 20
2.2493527686
 11
8.8714324534
 21
2.2493527686
  0
LINE
  5
25D
100
AcDbEntity
  8
0
100
AcDbLine
 62
7
  6
CONTINUOUS
 10
9.3814324534
 20
2.3118527686
 11
8.8714324534
 21
2.3118527686
  0
LINE
  5
25E
100
AcDbEntity
  8
0
100
AcDbLine
 62
7
  6
CONTINUOUS
 10
8.8658425478
 20
2.3743527686
 11
9.387022359
 21
2.3743527686
  0
LINE
  5
25F
100
AcDbEntity
  8
0
100
AcDbLine
 62
7
  6
CONTINUOUS
 10
6.2935492225
 20
2.3838930061
 11
6.0678881446
 21
2.3838930061
  0
LINE
  5
260
100
AcDbEntity
  8
0
100
AcDbLine
 62
7
  6
CONTINUOUS
 10
2.9593156843
 20
2.3838930061
 11
3.1849767622
 21
2.3838930061
  0
LINE
  5
261
100
AcDbEntity
  8
0
100
AcDbLine
 62
7
  6
CONTINUOUS
 10
8.8934809064
 20
2.4843527686
 11
9.3593840004
 21
2.4843527686
  0
LINE
  5
262
100
AcDbEntity
  8
0
100
AcDbLine
 62
7
  6
CONTINUOUS
 10
2.2621024796
 20
2.5022089368
 11
2.9907624273
 21
2.5022089368
  0
LINE
  5
263
100
AcDbEntity
  8
0
100
AcDbLine
 62
7
  6
CONTINUOUS
 10
6.2621024796
 20
2.5022089368
 11
6.9907624273
 21
2.5022089368
  0
LINE
  5
264
100
AcDbEntity
  8
0
100
AcDbLine
 62
7
  6
CONTINUOUS
 10
2.879072664
 20
4.2191046066
 11
2.8901824534
 21
4.2079948172
  0
LINE
  5
265
100
AcDbEntity
  8
0
100
AcDbLine
 62
7
  6
CONTINUOUS
 10
3.7756824534
 20
3.3485681589
 11
3.7636824534
 21
3.3693527686
  0
LINE
  5
266
100
AcDbEntity
  8
0
100
AcDbLine
 62
7
  6
CONTINUOUS
 10
3.7274043167
 20
3.3108960538
 11
3.7274043167
 21
3.1378094834
  0
LINE
  5
267
100
AcDbEntity
  8
0
100
AcDbLine
 62
7
  6
CONTINUOUS
 10
3.7756824534
 20
3.1001373783
 11
3.7756824534
 21
3.3485681589
  0
LINE
  5
268
100
AcDbEntity
  8
0
100
AcDbLine
 62
7
  6
CONTINUOUS
 10
4.0411824534
 20
4.3638562686
 11
4.0411824534
 21
3.9268492686
  0
LWPOLYLINE
  5
269
100
AcDbEntity
  8
0
100
AcDbPolyline
 62
7
  6
CONTINUOUS
 90
23
 70
0
 10
3.67772669
 20
2.9810795368
 10
3.6777666167
 20
2.9818267046
 10
3.6778891834
 20
2.9835062488
 10
3.6780569584
 20
2.9851818653
 10
3.6782698186
 20
2.9868523371
 10
3.6785276083
 20
2.9885164516
 10
3.678830139
 20
2.9901730009
 10
3.67917719
 20
2.9918207826
 10
3.679568508
 20
2.9934586
 10
3.6800038077
 20
2.9950852638
 10
3.6804827719
 20
2.9966995936
 10
3.6810050514
 20
2.998300417
 10
3.6815702655
 20
2.9998865705
 10
3.6821780044
 20
3.0014569081
 10
3.6828278237
 20
3.0030102844
 10
3.6835192422
 20
3.0045455546
 10
3.6842517656
 20
3.006061626
 10
3.6850248499
 20
3.0075573772
 10
3.6858378866
 20
3.0090316452
 10
3.6866902796
 20
3.0104833698
 10
3.6875813981
 20
3.0119114965
 10
3.6885105251
 20
3.0133149037
 10
3.6889864875
 20
3.0140032586
  0
LINE
  5
26A
100
AcDbEntity
  8
0
100
AcDbLine
 62
7
  6
CONTINUOUS
 10
3.1816824534
 20
3.3485681589
 11
3.1936824534
 21
3.3693527686
  0
LINE
  5
26B
100
AcDbEntity
  8
0
100
AcDbLine
 62
7
  6
CONTINUOUS
 10
2.3756824534
 20
4.1648527686
 11
2.3618362958
 21
4.1568527686
  0
LINE
  5
26C
100
AcDbEntity
  8
0
100
AcDbLine
 62
7
  6
CONTINUOUS
 10
8.9487532652
 20
3.6904314814
 11
8.9581877164
 21
3.6927837543
  0
LINE
  5
26D
100
AcDbEntity
  8
0
100
AcDbLine
 62
7
  6
CONTINUOUS
 10
6.9388955988
 20
2.7732671895
 11
6.313969308
 21
2.7732671895
  0
LINE
  5
26E
100
AcDbEntity
  8
0
100
AcDbLine
 62
7
  6
CONTINUOUS
 10
2.9388955988
 20
2.7732671895
 11
2.313969308
 21
2.7732671895
  0
LINE
  5
26F
100
AcDbEntity
  8
0
100
AcDbLine
 62
7
  6
CONTINUOUS
 10
6.3212842626
 20
2.7838930061
 11
6.0678881446
 21
2.7838930061
  0
LINE
  5
270
100
AcDbEntity
  8
0
100
AcDbLine
 62
7
  6
CONTINUOUS
 10
2.9315806468
 20
2.7838930061
 11
3.1849767622
 21
2.7838930061
  0
LINE
  5
271
100
AcDbEntity
  8
0
100
AcDbLine
 62
7
  6
CONTINUOUS
 10
6.9020224534
 20
2.8849264958
 11
6.3508424534
 21
2.8849264958
  0
LINE
  5
272
100
AcDbEntity
  8
0
100
AcDbLine
 62
7
  6
CONTINUOUS
 10
2.9020224534
 20
2.8849264958
 11
2.3508424534
 21
2.8849264958
  0
LINE
  5
273
100
AcDbEntity
  8
0
100
AcDbLine
 62
7
  6
CONTINUOUS
 10
2.3626824534
 20
4.1723527686
 11
2.3756824534
 21
4.1648527686
  0
LINE
  5
274
100
AcDbEntity
  8
0
100
AcDbLine
 62
7
  6
CONTINUOUS
 10
3.0811633246
 20
3.9118344082
 11
3.0565802896
 21
3.9289840899
  0
LINE
  5
275
100
AcDbEntity
  8
0
100
AcDbLine
 62
7
  6
CONTINUOUS
 10
4.2546359435
 20
3.9268492686
 11
4.2546359435
 21
4.3638562686
  0
LINE
  5
276
100
AcDbEntity
  8
0
100
AcDbLine
 62
7
  6
CONTINUOUS
 10
4.3044968078
 20
3.9020340693
 11
4.3044968079
 21
4.3886714679
  0
LINE
  5
277
100
AcDbEntity
  8
0
100
AcDbLine
 62
7
  6
CONTINUOUS
 10
4.3044968167
 20
4.3281687511
 11
4.3044965879
 21
4.3322393254
  0
LINE
  5
278
100
AcDbEntity
  8
0
100
AcDbLine
 62
7
  6
CONTINUOUS
 10
4.3214324534
 20
4.6863527686
 11
4.3214324534
 21
4.4319524228
  0
LINE
  5
279
100
AcDbEntity
  8
0
100
AcDbLine
 62
7
  6
CONTINUOUS
 10
4.3044966833
 20
4.3471071142
 11
4.3044972082
 21
4.3504779431
  0
LINE
  5
27A
100
AcDbEntity
  8
0
100
AcDbLine
 62
7
  6
CONTINUOUS
 10
4.3044967537
 20
4.3361672059
 11
4.3044967088
 21
4.3435993253
  0
LINE
  5
27B
100
AcDbEntity
  8
0
100
AcDbLine
 62
7
  6
CONTINUOUS
 10
4.3044958752
 20
4.2847545751
 11
4.3044964292
 21
4.2901950297
  0
LINE
  5
27C
100
AcDbEntity
  8
0
100
AcDbLine
 62
7
  6
CONTINUOUS
 10
4.3044961832
 20
4.300616348
 11
4.3044966861
 21
4.3150770417
  0
LINE
  5
27D
100
AcDbEntity
  8
0
100
AcDbLine
 62
7
  6
CONTINUOUS
 10
4.3044965573
 20
4.3195898344
 11
4.3044968205
 21
4.323953301
  0
LINE
  5
27E
100
AcDbEntity
  8
0
100
AcDbLine
 62
7
  6
CONTINUOUS
 10
4.3044959059
 20
4.2430099459
 11
4.3044965255
 21
4.2493127693
  0
LINE
  5
27F
100
AcDbEntity
  8
0
100
AcDbLine
 62
7
  6
CONTINUOUS
 10
4.3044963389
 20
4.2555099085
 11
4.3044967808
 21
4.2734400327
  0
LINE
  5
280
100
AcDbEntity
  8
0
100
AcDbLine
 62
7
  6
CONTINUOUS
 10
4.3044963145
 20
4.2036500174
 11
4.3044969696
 21
4.2301596754
  0
LINE
  5
281
100
AcDbEntity
  8
0
100
AcDbLine
 62
7
  6
CONTINUOUS
 10
4.3044964628
 20
4.1832897607
 11
4.3044967192
 21
4.1969010813
  0
LINE
  5
282
100
AcDbEntity
  8
0
100
AcDbLine
 62
7
  6
CONTINUOUS
 10
4.304495725
 20
4.0670908334
 11
4.3044966928
 21
4.1211480755
  0
LINE
  5
283
100
AcDbEntity
  8
0
100
AcDbLine
 62
7
  6
CONTINUOUS
 10
4.3044966967
 20
3.9756284422
 11
4.3044970325
 21
3.9802923093
  0
LINE
  5
284
100
AcDbEntity
  8
0
100
AcDbLine
 62
7
  6
CONTINUOUS
 10
4.3044960005
 20
4.0115426901
 11
4.304496808
 21
4.0540798667
  0
LINE
  5
285
100
AcDbEntity
  8
0
100
AcDbLine
 62
7
  6
CONTINUOUS
 10
4.3044967272
 20
3.9471060377
 11
4.3044965813
 21
3.9711156029
  0
LINE
  5
286
100
AcDbEntity
  8
0
100
AcDbLine
 62
7
  6
CONTINUOUS
 10
4.3044965867
 20
3.936993643
 11
4.3044972206
 21
3.9402274754
  0
LINE
  5
287
100
AcDbEntity
  8
0
100
AcDbLine
 62
7
  6
CONTINUOUS
 10
4.3044965556
 20
4.3568110121
 11
4.304497631
 21
4.3597766144
  0
LINE
  5
288
100
AcDbEntity
  8
0
100
AcDbLine
 62
7
  6
CONTINUOUS
 10
4.3044963882
 20
3.9254011957
 11
4.3044976372
 21
3.9309288717
  0
LINE
  5
289
100
AcDbEntity
  8
0
100
AcDbLine
 62
7
  6
CONTINUOUS
 10
4.3044963865
 20
4.3653043104
 11
4.3044977142
 21
4.367869744
  0
LINE
  5
28A
100
AcDbEntity
  8
0
100
AcDbLine
 62
7
  6
CONTINUOUS
 10
4.3044954559
 20
3.9181119627
 11
4.3044977127
 21
3.9228357651
  0
LINE
  5
28B
100
AcDbEntity
  8
0
100
AcDbLine
 62
7
  6
CONTINUOUS
 10
4.3044953266
 20
4.378637692
 11
4.3044967517
 21
4.3819268522
  0
LINE
  5
28C
100
AcDbEntity
  8
0
100
AcDbLine
 62
7
  6
CONTINUOUS
 10
4.3044955872
 20
4.3833325072
 11
4.3044967939
 21
4.3856654709
  0
LINE
  5
28D
100
AcDbEntity
  8
0
100
AcDbLine
 62
7
  6
CONTINUOUS
 10
4.3044954602
 20
4.3725935383
 11
4.3044972819
 21
4.374755166
  0
LINE
  5
28E
100
AcDbEntity
  8
0
100
AcDbLine
 62
7
  6
CONTINUOUS
 10
4.3044956131
 20
4.3873351138
 11
4.3044968078
 21
4.3886714679
  0
LINE
  5
28F
100
AcDbEntity
  8
0
100
AcDbLine
 62
7
  6
CONTINUOUS
 10
3.0811633246
 20
4.116871129
 11
3.0565802896
 21
4.0997214473
  0
LINE
  5
290
100
AcDbEntity
  8
0
100
AcDbLine
 62
7
  6
CONTINUOUS
 10
2.8901824534
 20
4.1723527686
 11
2.8771824534
 21
4.1648527686
  0
LINE
  5
291
100
AcDbEntity
  8
0
100
AcDbLine
 62
7
  6
CONTINUOUS
 10
2.3991774754
 20
4.2273527686
 11
2.3737922428
 21
4.2191046066
  0
LINE
  5
292
100
AcDbEntity
  8
0
100
AcDbLine
 62
7
  6
CONTINUOUS
 10
9.3041116416
 20
4.1582740558
 11
9.2946771905
 21
4.1559217829
  0
LINE
  5
293
100
AcDbEntity
  8
0
100
AcDbLine
 62
7
  6
CONTINUOUS
 10
9.3814604738
 20
3.7944095019
 11
9.3909475426
 21
3.7965997643
  0
LINE
  5
294
100
AcDbEntity
  8
0
100
AcDbLine
 62
7
  6
CONTINUOUS
 10
8.9367477234
 20
3.7000566124
 11
8.9463054519
 21
3.7019144466
  0
LINE
  5
295
100
AcDbEntity
  8
0
100
AcDbLine
 62
7
  6
CONTINUOUS
 10
9.3743102617
 20
3.7812404493
 11
9.3838989582
 21
3.7829311952
  0
LINE
  5
296
100
AcDbEntity
  8
0
100
AcDbLine
 62
7
  6
CONTINUOUS
 10
8.9252689259
 20
3.7102913342
 11
8.9349107874
 21
3.7116464095
  0
LINE
  5
297
100
AcDbEntity
  8
0
100
AcDbLine
 62
7
  6
CONTINUOUS
 10
2.3508424562
 20
3.0023527686
 11
2.9020224507
 21
3.0023527686
  0
LINE
  5
298
100
AcDbEntity
  8
0
100
AcDbLine
 62
7
  6
CONTINUOUS
 10
6.3508423804
 20
3.0023527686
 11
6.9020225265
 21
3.0023527686
  0
LINE
  5
299
100
AcDbEntity
  8
0
100
AcDbLine
 62
7
  6
CONTINUOUS
 10
6.8818527889
 20
3.077863078
 11
6.7762397731
 21
3.077863078
  0
LINE
  5
29A
100
AcDbEntity
  8
0
100
AcDbLine
 62
7
  6
CONTINUOUS
 10
6.6018438852
 20
3.077863078
 11
6.4661917086
 21
3.077863078
  0
LINE
  5
29B
100
AcDbEntity
  8
0
100
AcDbLine
 62
7
  6
CONTINUOUS
 10
2.7866731982
 20
3.077863078
 11
2.6510210217
 21
3.077863078
  0
LINE
  5
29C
100
AcDbEntity
  8
0
100
AcDbLine
 62
7
  6
CONTINUOUS
 10
2.4766251337
 20
3.077863078
 11
2.371012118
 21
3.077863078
  0
LINE
  5
29D
100
AcDbEntity
  8
0
100
AcDbLine
 62
7
  6
CONTINUOUS
 10
2.9064413571
 20
3.077863078
 11
2.9365390282
 21
3.077863078
  0
LINE
  5
29E
100
AcDbEntity
  8
0
100
AcDbLine
 62
7
  6
CONTINUOUS
 10
6.3163258786
 20
3.077863078
 11
6.3464235497
 21
3.077863078
  0
LINE
  5
29F
100
AcDbEntity
  8
0
100
AcDbLine
 62
7
  6
CONTINUOUS
 10
6.0591824534
 20
3.0793527686
 11
5.4891824534
 21
3.0793527686
  0
LINE
  5
2A0
100
AcDbEntity
  8
0
100
AcDbLine
 62
7
  6
CONTINUOUS
 10
3.7636824534
 20
3.0793527686
 11
3.1936824534
 21
3.0793527686
  0
LINE
  5
2A1
100
AcDbEntity
  8
0
100
AcDbLine
 62
7
  6
CONTINUOUS
 10
6.0711824534
 20
3.1378094834
 11
6.0229043167
 21
3.1378094834
  0
LINE
  5
2A2
100
AcDbEntity
  8
0
100
AcDbLine
 62
7
  6
CONTINUOUS
 10
5.8224605902
 20
3.1378094834
 11
5.7259043167
 21
3.1378094834
  0
LINE
  5
2A3
100
AcDbEntity
  8
0
100
AcDbLine
 62
7
  6
CONTINUOUS
 10
5.5254605902
 20
3.1378094834
 11
5.4771824534
 21
3.1378094834
  0
LINE
  5
2A4
100
AcDbEntity
  8
0
100
AcDbLine
 62
7
  6
CONTINUOUS
 10
3.7756824534
 20
3.1378094834
 11
3.7274043167
 21
3.1378094834
  0
LINE
  5
2A5
100
AcDbEntity
  8
0
100
AcDbLine
 62
7
  6
CONTINUOUS
 10
3.5269605902
 20
3.1378094834
 11
3.4304043167
 21
3.1378094834
  0
LINE
  5
2A6
100
AcDbEntity
  8
0
100
AcDbLine
 62
7
  6
CONTINUOUS
 10
3.2299605902
 20
3.1378094834
 11
3.1816824534
 21
3.1378094834
  0
LINE
  5
2A7
100
AcDbEntity
  8
0
100
AcDbLine
 62
7
  6
CONTINUOUS
 10
8.8933633938
 20
3.1828527686
 11
9.359501513
 21
3.1828527686
  0
LINE
  5
2A8
100
AcDbEntity
  8
0
100
AcDbLine
 62
7
  6
CONTINUOUS
 10
2.364241055
 20
3.1938527686
 11
2.8886238518
 21
3.1938527686
  0
LINE
  5
2A9
100
AcDbEntity
  8
0
100
AcDbLine
 62
7
  6
CONTINUOUS
 10
6.364241055
 20
3.1938527686
 11
6.8886238518
 21
3.1938527686
  0
LINE
  5
2AA
100
AcDbEntity
  8
0
100
AcDbLine
 62
7
  6
CONTINUOUS
 10
2.3626824534
 20
3.8723527686
 11
2.4411824534
 21
3.8468527686
  0
LINE
  5
2AB
100
AcDbEntity
  8
0
100
AcDbLine
 62
7
  6
CONTINUOUS
 10
2.2351824534
 20
4.1551027686
 11
2.3351824534
 21
4.1128527686
  0
LINE
  5
2AC
100
AcDbEntity
  8
0
100
AcDbLine
 62
7
  6
CONTINUOUS
 10
2.8771824534
 20
4.1648527686
 11
2.8910286111
 21
4.1568527686
  0
LINE
  5
2AD
100
AcDbEntity
  8
0
100
AcDbLine
 62
7
  6
CONTINUOUS
 10
4.406683865
 20
5.3531826292
 11
4.4244698755
 21
5.0934847446
  0
LINE
  5
2AE
100
AcDbEntity
  8
0
100
AcDbLine
 62
7
  6
CONTINUOUS
 10
4.4389324534
 20
6.3412922482
 11
4.4389324534
 21
5.4533158295
  0
LINE
  5
2AF
100
AcDbEntity
  8
0
100
AcDbLine
 62
7
  6
CONTINUOUS
 10
3.7636824534
 20
3.0793527686
 11
3.7756824534
 21
3.1001373783
  0
LINE
  5
2B0
100
AcDbEntity
  8
0
100
AcDbLine
 62
7
  6
CONTINUOUS
 10
2.2351824534
 20
3.8736027686
 11
2.3351824534
 21
3.9158527686
  0
LINE
  5
2B1
100
AcDbEntity
  8
0
100
AcDbLine
 62
7
  6
CONTINUOUS
 10
8.871404433
 20
4.0542960353
 11
8.8619173643
 21
4.0521057729
  0
LINE
  5
2B2
100
AcDbEntity
  8
0
100
AcDbLine
 62
7
  6
CONTINUOUS
 10
9.3161171835
 20
4.1486489248
 11
9.3065594549
 21
4.1467910906
  0
LINE
  5
2B3
100
AcDbEntity
  8
0
100
AcDbLine
 62
7
  6
CONTINUOUS
 10
8.8785546452
 20
4.0674650879
 11
8.8689659487
 21
4.065774342
  0
LINE
  5
2B4
100
AcDbEntity
  8
0
100
AcDbLine
 62
7
  6
CONTINUOUS
 10
9.3664806337
 20
3.7684636576
 11
9.376144676
 21
3.7696502528
  0
LINE
  5
2B5
100
AcDbEntity
  8
0
100
AcDbLine
 62
7
  6
CONTINUOUS
 10
8.9143415037
 20
3.7211127835
 11
8.9240410705
 21
3.7219613857
  0
LINE
  5
2B6
100
AcDbEntity
  8
0
100
AcDbLine
 62
7
  6
CONTINUOUS
 10
9.3580014677
 20
3.7561080315
 11
9.3677010562
 21
3.7567862928
  0
LINE
  5
2B7
100
AcDbEntity
  8
0
100
AcDbLine
 62
7
  6
CONTINUOUS
 10
6.0711824534
 20
3.3108960538
 11
6.0229043167
 21
3.3108960538
  0
LINE
  5
2B8
100
AcDbEntity
  8
0
100
AcDbLine
 62
7
  6
CONTINUOUS
 10
5.8224605902
 20
3.3108960538
 11
5.7259043167
 21
3.3108960538
  0
LINE
  5
2B9
100
AcDbEntity
  8
0
100
AcDbLine
 62
7
  6
CONTINUOUS
 10
5.5254605902
 20
3.3108960538
 11
5.4771824534
 21
3.3108960538
  0
LINE
  5
2BA
100
AcDbEntity
  8
0
100
AcDbLine
 62
7
  6
CONTINUOUS
 10
3.7756824534
 20
3.3108960538
 11
3.7274043167
 21
3.3108960538
  0
LINE
  5
2BB
100
AcDbEntity
  8
0
100
AcDbLine
 62
7
  6
CONTINUOUS
 10
3.5269605902
 20
3.3108960538
 11
3.4304043167
 21
3.3108960538
  0
LINE
  5
2BC
100
AcDbEntity
  8
0
100
AcDbLine
 62
7
  6
CONTINUOUS
 10
3.2299605902
 20
3.3108960538
 11
3.1816824534
 21
3.3108960538
  0
LINE
  5
2BD
100
AcDbEntity
  8
0
100
AcDbLine
 62
7
  6
CONTINUOUS
 10
6.0591824534
 20
3.3693527686
 11
5.4891824534
 21
3.3693527686
  0
LINE
  5
2BE
100
AcDbEntity
  8
0
100
AcDbLine
 62
7
  6
CONTINUOUS
 10
3.7636824534
 20
3.3693527686
 11
3.1936824534
 21
3.3693527686
  0
LINE
  5
2BF
100
AcDbEntity
  8
0
100
AcDbLine
 62
7
  6
CONTINUOUS
 10
5.9926859534
 20
3.3893527686
 11
5.5556789534
 21
3.3893527686
  0
LINE
  5
2C0
100
AcDbEntity
  8
0
100
AcDbLine
 62
7
  6
CONTINUOUS
 10
3.2601789534
 20
3.3893527686
 11
3.6971859534
 21
3.3893527686
  0
LINE
  5
2C1
100
AcDbEntity
  8
0
100
AcDbLine
 62
7
  6
CONTINUOUS
 10
9.3816824534
 20
3.4368527686
 11
8.8711825403
 21
3.4368527686
  0
LINE
  5
2C2
100
AcDbEntity
  8
0
100
AcDbLine
 62
7
  6
CONTINUOUS
 10
9.3816824534
 20
3.4993527686
 11
8.8711825403
 21
3.4993527686
  0
LINE
  5
2C3
100
AcDbEntity
  8
0
100
AcDbLine
 62
7
  6
CONTINUOUS
 10
2.8536874315
 20
4.2273527686
 11
2.879072664
 21
4.2191046066
  0
LINE
  5
2C4
100
AcDbEntity
  8
0
100
AcDbLine
 62
7
  6
CONTINUOUS
 10
4.8139324534
 20
6.3412922482
 11
4.8139324534
 21
5.4533158115
  0
LINE
  5
2C5
100
AcDbEntity
  8
0
100
AcDbLine
 62
7
  6
CONTINUOUS
 10
4.9314324534
 20
4.6863527686
 11
4.9314324534
 21
4.4319524228
  0
LINE
  5
2C6
100
AcDbEntity
  8
0
100
AcDbLine
 62
7
  6
CONTINUOUS
 10
4.948368099
 20
4.3886714679
 11
4.9483680989
 21
3.9020340693
  0
LINE
  5
2C7
100
AcDbEntity
  8
0
100
AcDbLine
 62
7
  6
CONTINUOUS
 10
4.9483682201
 20
4.32383191
 11
4.9483685848
 21
4.3194593812
  0
LINE
  5
2C8
100
AcDbEntity
  8
0
100
AcDbLine
 62
7
  6
CONTINUOUS
 10
4.9483685403
 20
4.2900113811
 11
4.9483691626
 21
4.2845640308
  0
LINE
  5
2C9
100
AcDbEntity
  8
0
100
AcDbLine
 62
7
  6
CONTINUOUS
 10
4.9483681422
 20
4.305436526
 11
4.9483686658
 21
4.3004492212
  0
LINE
  5
2CA
100
AcDbEntity
  8
0
100
AcDbLine
 62
7
  6
CONTINUOUS
 10
4.9982289633
 20
4.3638562686
 11
4.9982289633
 21
3.9268492686
  0
LINE
  5
2CB
100
AcDbEntity
  8
0
100
AcDbLine
 62
7
  6
CONTINUOUS
 10
4.9483683758
 20
4.3435164679
 11
4.9483679045
 21
4.3398638264
  0
LINE
  5
2CC
100
AcDbEntity
  8
0
100
AcDbLine
 62
7
  6
CONTINUOUS
 10
4.9483684071
 20
4.3149373766
 11
4.948367917
 21
4.3102641939
  0
LINE
  5
2CD
100
AcDbEntity
  8
0
100
AcDbLine
 62
7
  6
CONTINUOUS
 10
4.9483691609
 20
4.2789660169
 11
4.9483683671
 21
4.2732391023
  0
LINE
  5
2CE
100
AcDbEntity
  8
0
100
AcDbLine
 62
7
  6
CONTINUOUS
 10
4.9483686021
 20
4.2673825483
 11
4.9483683605
 21
4.2553058869
  0
LINE
  5
2CF
100
AcDbEntity
  8
0
100
AcDbLine
 62
7
  6
CONTINUOUS
 10
4.9483693686
 20
4.2428124116
 11
4.948367692
 21
4.2102007748
  0
LINE
  5
2D0
100
AcDbEntity
  8
0
100
AcDbLine
 62
7
  6
CONTINUOUS
 10
4.94836877
 20
4.1967654643
 11
4.9483680919
 21
4.1899904661
  0
LINE
  5
2D1
100
AcDbEntity
  8
0
100
AcDbLine
 62
7
  6
CONTINUOUS
 10
4.9483691553
 20
4.0293038692
 11
4.9483686189
 21
4.0233193516
  0
LINE
  5
2D2
100
AcDbEntity
  8
0
100
AcDbLine
 62
7
  6
CONTINUOUS
 10
4.9483686718
 20
3.9902564982
 11
4.9483680335
 21
3.9626494135
  0
LINE
  5
2D3
100
AcDbEntity
  8
0
100
AcDbLine
 62
7
  6
CONTINUOUS
 10
4.9483691705
 20
4.0061405332
 11
4.9483685357
 21
4.0006937117
  0
LINE
  5
2D4
100
AcDbEntity
  8
0
100
AcDbLine
 62
7
  6
CONTINUOUS
 10
4.9483684535
 20
4.1074878467
 11
4.9483683411
 21
4.0415861329
  0
LINE
  5
2D5
100
AcDbEntity
  8
0
100
AcDbLine
 62
7
  6
CONTINUOUS
 10
4.9483686522
 20
4.3652607791
 11
4.9483676761
 21
4.3504078643
  0
LINE
  5
2D6
100
AcDbEntity
  8
0
100
AcDbLine
 62
7
  6
CONTINUOUS
 10
4.9483694358
 20
4.3725632431
 11
4.948367251
 21
4.3678309052
  0
LINE
  5
2D7
100
AcDbEntity
  8
0
100
AcDbLine
 62
7
  6
CONTINUOUS
 10
4.9483683447
 20
3.9436747963
 11
4.9483672434
 21
3.9228746412
  0
LINE
  5
2D8
100
AcDbEntity
  8
0
100
AcDbLine
 62
7
  6
CONTINUOUS
 10
4.9483693393
 20
3.9073835554
 11
4.9483681837
 21
3.9050461099
  0
LINE
  5
2D9
100
AcDbEntity
  8
0
100
AcDbLine
 62
7
  6
CONTINUOUS
 10
4.9483695801
 20
3.912087218
 11
4.9483681465
 21
3.9087918764
  0
LINE
  5
2DA
100
AcDbEntity
  8
0
100
AcDbLine
 62
7
  6
CONTINUOUS
 10
4.9483694309
 20
3.9181423042
 11
4.9483676124
 21
3.9159768212
  0
LINE
  5
2DB
100
AcDbEntity
  8
0
100
AcDbLine
 62
7
  6
CONTINUOUS
 10
4.9483694103
 20
3.9033732254
 11
4.948368099
 21
3.9020340693
  0
LINE
  5
2DC
100
AcDbEntity
  8
0
100
AcDbLine
 62
7
  6
CONTINUOUS
 10
4.8461810418
 20
5.3531826292
 11
4.8283950313
 21
5.0934847446
  0
LINE
  5
2DD
100
AcDbEntity
  8
0
100
AcDbLine
 62
7
  6
CONTINUOUS
 10
2.8901824534
 20
3.8723527686
 11
2.8116824534
 21
3.8468527686
  0
LINE
  5
2DE
100
AcDbEntity
  8
0
100
AcDbLine
 62
7
  6
CONTINUOUS
 10
9.3275959809
 20
4.138414203
 11
9.3179541194
 21
4.1370591277
  0
LINE
  5
2DF
100
AcDbEntity
  8
0
100
AcDbLine
 62
7
  6
CONTINUOUS
 10
8.8863842732
 20
4.0802418796
 11
8.8767202308
 21
4.0790552844
  0
LINE
  5
2E0
100
AcDbEntity
  8
0
100
AcDbLine
 62
7
  6
CONTINUOUS
 10
9.3385234032
 20
4.1275927537
 11
9.3288238363
 21
4.1267441515
  0
LINE
  5
2E1
100
AcDbEntity
  8
0
100
AcDbLine
 62
7
  6
CONTINUOUS
 10
8.8948634391
 20
4.0925975057
 11
8.8851638506
 21
4.0919192444
  0
LINE
  5
2E2
100
AcDbEntity
  8
0
100
AcDbLine
 62
7
  6
CONTINUOUS
 10
8.903995408
 20
3.7324912995
 11
8.9137260943
 21
3.7328311026
  0
LINE
  5
2E3
100
AcDbEntity
  8
0
100
AcDbLine
 62
7
  6
CONTINUOUS
 10
9.3488707754
 20
3.7442257671
 11
9.3586059101
 21
3.7443956945
  0
LINE
  5
2E4
100
AcDbEntity
  8
0
100
AcDbLine
 62
7
  6
CONTINUOUS
 10
5.9926859534
 20
3.5828527686
 11
5.5556789534
 21
3.5828527686
  0
LINE
  5
2E5
100
AcDbEntity
  8
0
100
AcDbLine
 62
7
  6
CONTINUOUS
 10
3.2601789534
 20
3.5828527686
 11
3.6971859534
 21
3.5828527686
  0
LINE
  5
2E6
100
AcDbEntity
  8
0
100
AcDbLine
 62
7
  6
CONTINUOUS
 10
2.4178648274
 20
3.6353669745
 11
2.8350000795
 21
3.6353669745
  0
LINE
  5
2E7
100
AcDbEntity
  8
0
100
AcDbLine
 62
7
  6
CONTINUOUS
 10
6.4178648274
 20
3.6353669745
 11
6.8350000795
 21
3.6353669745
  0
LINE
  5
2E8
100
AcDbEntity
  8
0
100
AcDbLine
 62
7
  6
CONTINUOUS
 10
2.4426825748
 20
3.6573527686
 11
2.810182332
 21
3.6573527686
  0
LINE
  5
2E9
100
AcDbEntity
  8
0
100
AcDbLine
 62
7
  6
CONTINUOUS
 10
6.4426825836
 20
3.6573527686
 11
6.8101823232
 21
3.6573527686
  0
LINE
  5
2EA
100
AcDbEntity
  8
0
100
AcDbLine
 62
7
  6
CONTINUOUS
 10
2.4546824534
 20
3.6673527686
 11
2.7981824534
 21
3.6673527686
  0
LINE
  5
2EB
100
AcDbEntity
  8
0
100
AcDbLine
 62
7
  6
CONTINUOUS
 10
6.4546824534
 20
3.6673527686
 11
6.7981824534
 21
3.6673527686
  0
LINE
  5
2EC
100
AcDbEntity
  8
0
100
AcDbLine
 62
7
  6
CONTINUOUS
 10
2.4411824077
 20
3.8468527686
 11
2.8116824991
 21
3.8468527686
  0
LINE
  5
2ED
100
AcDbEntity
  8
0
100
AcDbLine
 62
7
  6
CONTINUOUS
 10
6.4411824077
 20
3.8468527686
 11
6.8116824991
 21
3.8468527686
  0
LINE
  5
2EE
100
AcDbEntity
  8
0
100
AcDbLine
 62
7
  6
CONTINUOUS
 10
2.3626824534
 20
3.8723527686
 11
2.8901824534
 21
3.8723527686
  0
LINE
  5
2EF
100
AcDbEntity
  8
0
100
AcDbLine
 62
7
  6
CONTINUOUS
 10
6.3626824534
 20
3.8723527686
 11
6.8901824534
 21
3.8723527686
  0
LINE
  5
2F0
100
AcDbEntity
  8
0
100
AcDbLine
 62
7
  6
CONTINUOUS
 10
8.2546824534
 20
3.8736027686
 11
8.2146824534
 21
3.8736027686
  0
LINE
  5
2F1
100
AcDbEntity
  8
0
100
AcDbLine
 62
7
  6
CONTINUOUS
 10
7.0701824534
 20
3.8736027686
 11
7.0176824534
 21
3.8736027686
  0
LINE
  5
2F2
100
AcDbEntity
  8
0
100
AcDbLine
 62
7
  6
CONTINUOUS
 10
0.9981824534
 20
3.8736027686
 11
1.0381824534
 21
3.8736027686
  0
LINE
  5
2F3
100
AcDbEntity
  8
0
100
AcDbLine
 62
7
  6
CONTINUOUS
 10
2.1826824534
 20
3.8736027686
 11
2.2351824534
 21
3.8736027686
  0
LINE
  5
2F4
100
AcDbEntity
  8
0
100
AcDbLine
 62
7
  6
CONTINUOUS
 10
8.8942589968
 20
3.7443956945
 11
8.9039941314
 21
3.7442257671
  0
LINE
  5
2F5
100
AcDbEntity
  8
0
100
AcDbLine
 62
7
  6
CONTINUOUS
 10
9.3391388125
 20
3.7328311026
 11
9.3488694989
 21
3.7324912995
  0
LWPOLYLINE
  5
2F6
100
AcDbEntity
  8
0
100
AcDbPolyline
 62
7
  6
CONTINUOUS
 90
23
 70
0
 10
5.5638784543
 20
3.0140032419
 10
5.5643544148
 20
3.0133148899
 10
5.5652835374
 20
3.0119114898
 10
5.5661746517
 20
3.0104833709
 10
5.5670270408
 20
3.0090316546
 10
5.5678400738
 20
3.0075573953
 10
5.5686131548
 20
3.0060616533
 10
5.5693456752
 20
3.0045455914
 10
5.5700370913
 20
3.003010331
 10
5.5706869086
 20
3.0014569648
 10
5.571294646
 20
2.9998866374
 10
5.571859859
 20
2.9983004944
 10
5.572382138
 20
2.9966996816
 10
5.5728611022
 20
2.9950853626
 10
5.5732964024
 20
2.9934587096
 10
5.5736877215
 20
2.9918209032
 10
5.5740347741
 20
2.9901731326
 10
5.5743373069
 20
2.9885165944
 10
5.5745950992
 20
2.9868524911
 10
5.5748079627
 20
2.9851820305
 10
5.5749757415
 20
2.9835064252
 10
5.5750983126
 20
2.9818268922
 10
5.5751382505
 20
2.9810795388
  0
LINE
  5
2F7
100
AcDbEntity
  8
0
100
AcDbLine
 62
7
  6
CONTINUOUS
 10
5.4891824534
 20
3.0793527686
 11
5.4771824534
 21
3.1001373783
  0
LINE
  5
2F8
100
AcDbEntity
  8
0
100
AcDbLine
 62
7
  6
CONTINUOUS
 10
5.2116824534
 20
4.3638562686
 11
5.2116824534
 21
3.9268492686
  0
LINE
  5
2F9
100
AcDbEntity
  8
0
100
AcDbLine
 62
7
  6
CONTINUOUS
 10
6.4632437906
 20
4.24692727
 11
6.4514324534
 21
4.2448450901
  0
LINE
  5
2FA
100
AcDbEntity
  8
0
100
AcDbLine
 62
7
  6
CONTINUOUS
 10
6.5086095825
 20
4.2547829354
 11
6.4920763361
 21
4.2520321806
  0
LINE
  5
2FB
100
AcDbEntity
  8
0
100
AcDbLine
 62
7
  6
CONTINUOUS
 10
6.5068359615
 20
4.2544884137
 11
6.5057947554
 21
4.2543153136
  0
LINE
  5
2FC
100
AcDbEntity
  8
0
100
AcDbLine
 62
7
  6
CONTINUOUS
 10
6.5026344495
 20
4.2537900338
 11
6.5005115851
 21
4.253437089
  0
LINE
  5
2FD
100
AcDbEntity
  8
0
100
AcDbLine
 62
7
  6
CONTINUOUS
 10
6.4920763361
 20
4.2525402542
 11
6.5276573976
 21
4.2584415949
  0
LINE
  5
2FE
100
AcDbEntity
  8
0
100
AcDbLine
 62
7
  6
CONTINUOUS
 10
6.510739346
 20
4.2556424751
 11
6.5116813377
 21
4.2557986177
  0
LINE
  5
2FF
100
AcDbEntity
  8
0
100
AcDbLine
 62
7
  6
CONTINUOUS
 10
6.5125996589
 20
4.2559509086
 11
6.5134921151
 21
4.2560988306
  0
LINE
  5
300
100
AcDbEntity
  8
0
100
AcDbLine
 62
7
  6
CONTINUOUS
 10
6.5143581824
 20
4.2562423033
 11
6.5151977303
 21
4.2563814073
  0
LINE
  5
301
100
AcDbEntity
  8
0
100
AcDbLine
 62
7
  6
CONTINUOUS
 10
6.5215531404
 20
4.2574333186
 11
6.5232588783
 21
4.2577152933
  0
LINE
  5
302
100
AcDbEntity
  8
0
100
AcDbLine
 62
7
  6
CONTINUOUS
 10
6.5232588783
 20
4.2577152933
 11
6.5261332478
 21
4.2581901117
  0
LINE
  5
303
100
AcDbEntity
  8
0
100
AcDbLine
 62
7
  6
CONTINUOUS
 10
6.5261332478
 20
4.2581901117
 11
6.5273068851
 21
4.2583836322
  0
LINE
  5
304
100
AcDbEntity
  8
0
100
AcDbLine
 62
7
  6
CONTINUOUS
 10
6.4724335863
 20
4.2494050704
 11
6.4729838727
 21
4.2494884872
  0
LINE
  5
305
100
AcDbEntity
  8
0
100
AcDbLine
 62
7
  6
CONTINUOUS
 10
6.4729838766
 20
4.2494884712
 11
6.4754169622
 21
4.2498489606
  0
LINE
  5
306
100
AcDbEntity
  8
0
100
AcDbLine
 62
7
  6
CONTINUOUS
 10
6.4724335863
 20
4.2488948995
 11
6.4754169622
 21
4.2493390874
  0
LINE
  5
307
100
AcDbEntity
  8
0
100
AcDbLine
 62
7
  6
CONTINUOUS
 10
6.6070766433
 20
4.2646104541
 11
6.6070824534
 21
4.2646112725
  0
LINE
  5
308
100
AcDbEntity
  8
0
100
AcDbLine
 62
7
  6
CONTINUOUS
 10
6.6248558519
 20
4.2648455692
 11
6.6248448833
 21
4.2648444747
  0
LINE
  5
309
100
AcDbEntity
  8
0
100
AcDbLine
 62
7
  6
CONTINUOUS
 10
6.624809279
 20
4.2648420977
 11
6.6247937343
 21
4.2648408229
  0
LINE
  5
30A
100
AcDbEntity
  8
0
100
AcDbLine
 62
7
  6
CONTINUOUS
 10
6.6249324534
 20
4.2648513176
 11
6.6238114273
 21
4.2647696693
  0
LINE
  5
30B
100
AcDbEntity
  8
0
100
AcDbLine
 62
7
  6
CONTINUOUS
 10
6.6246708975
 20
4.264831819
 11
6.6246465218
 21
4.2648300457
  0
LINE
  5
30C
100
AcDbEntity
  8
0
100
AcDbLine
 62
7
  6
CONTINUOUS
 10
6.6243848271
 20
4.2648108997
 11
6.6243398704
 21
4.2648076319
  0
LINE
  5
30D
100
AcDbEntity
  8
0
100
AcDbLine
 62
7
  6
CONTINUOUS
 10
6.6070677946
 20
4.2646102332
 11
6.6070824534
 21
4.2646112725
  0
LINE
  5
30E
100
AcDbEntity
  8
0
100
AcDbLine
 62
7
  6
CONTINUOUS
 10
6.6060631955
 20
4.2637120471
 11
6.5651344086
 21
4.2615487099
  0
LWPOLYLINE
  5
30F
100
AcDbEntity
  8
0
100
AcDbPolyline
 62
7
  6
CONTINUOUS
 90
3
 70
0
 10
6.585591376
 20
4.2626227462
 10
6.5842473836
 20
4.262551783
 10
6.5829040119
 20
4.2624809535
  0
LINE
  5
310
100
AcDbEntity
  8
0
100
AcDbLine
 62
7
  6
CONTINUOUS
 10
6.5698045882
 20
4.2617925197
 11
6.5651343924
 21
4.2615487076
  0
LINE
  5
311
100
AcDbEntity
  8
0
100
AcDbLine
 62
7
  6
CONTINUOUS
 10
9.3488694989
 20
4.1162142377
 11
9.3391388125
 21
4.1158744346
  0
LINE
  5
312
100
AcDbEntity
  8
0
100
AcDbLine
 62
7
  6
CONTINUOUS
 10
8.9039941314
 20
4.1044797701
 11
8.8942589968
 21
4.1043098427
  0
LINE
  5
313
100
AcDbEntity
  8
0
100
AcDbLine
 62
7
  6
CONTINUOUS
 10
2.3476824534
 20
3.9118527686
 11
2.9051824534
 21
3.9118527686
  0
LINE
  5
314
100
AcDbEntity
  8
0
100
AcDbLine
 62
7
  6
CONTINUOUS
 10
6.3476824534
 20
3.9118527686
 11
6.9051824534
 21
3.9118527686
  0
LINE
  5
315
100
AcDbEntity
  8
0
100
AcDbLine
 62
7
  6
CONTINUOUS
 10
6.9176824534
 20
3.9158527686
 11
6.9051824534
 21
3.9158527686
  0
LINE
  5
316
100
AcDbEntity
  8
0
100
AcDbLine
 62
7
  6
CONTINUOUS
 10
2.3351824534
 20
3.9158527686
 11
2.3476824534
 21
3.9158527686
  0
LINE
  5
317
100
AcDbEntity
  8
0
100
AcDbLine
 62
7
  6
CONTINUOUS
 10
4.0411824534
 20
3.9268492686
 11
4.2546359435
 21
3.9268492686
  0
LINE
  5
318
100
AcDbEntity
  8
0
100
AcDbLine
 62
7
  6
CONTINUOUS
 10
4.9982289633
 20
3.9268492686
 11
5.2116824534
 21
3.9268492686
  0
LINE
  5
319
100
AcDbEntity
  8
0
100
AcDbLine
 62
7
  6
CONTINUOUS
 10
6.9176824534
 20
4.1128527686
 11
6.9051824534
 21
4.1128527686
  0
LINE
  5
31A
100
AcDbEntity
  8
0
100
AcDbLine
 62
7
  6
CONTINUOUS
 10
2.3351824534
 20
4.1128527686
 11
2.3476824534
 21
4.1128527686
  0
LINE
  5
31B
100
AcDbEntity
  8
0
100
AcDbLine
 62
7
  6
CONTINUOUS
 10
2.3476824534
 20
4.1168527686
 11
2.9051824534
 21
4.1168527686
  0
LINE
  5
31C
100
AcDbEntity
  8
0
100
AcDbLine
 62
7
  6
CONTINUOUS
 10
6.3476824534
 20
4.1168527686
 11
6.9051824534
 21
4.1168527686
  0
LINE
  5
31D
100
AcDbEntity
  8
0
100
AcDbLine
 62
7
  6
CONTINUOUS
 10
8.2546824534
 20
4.1551027686
 11
8.2146824534
 21
4.1551027686
  0
LINE
  5
31E
100
AcDbEntity
  8
0
100
AcDbLine
 62
7
  6
CONTINUOUS
 10
7.0701824534
 20
4.1551027686
 11
7.0176824534
 21
4.1551027686
  0
LINE
  5
31F
100
AcDbEntity
  8
0
100
AcDbLine
 62
7
  6
CONTINUOUS
 10
0.9981824534
 20
4.1551027686
 11
1.0381824534
 21
4.1551027686
  0
LINE
  5
320
100
AcDbEntity
  8
0
100
AcDbLine
 62
7
  6
CONTINUOUS
 10
2.1826824534
 20
4.1551027686
 11
2.2351824534
 21
4.1551027686
  0
LINE
  5
321
100
AcDbEntity
  8
0
100
AcDbLine
 62
7
  6
CONTINUOUS
 10
2.3618362958
 20
4.1568527686
 11
2.8910286111
 21
4.1568527686
  0
LINE
  5
322
100
AcDbEntity
  8
0
100
AcDbLine
 62
7
  6
CONTINUOUS
 10
6.3618362958
 20
4.1568527686
 11
6.8910286111
 21
4.1568527686
  0
LINE
  5
323
100
AcDbEntity
  8
0
100
AcDbLine
 62
7
  6
CONTINUOUS
 10
2.3756824534
 20
4.1648527686
 11
2.8771824534
 21
4.1648527686
  0
LINE
  5
324
100
AcDbEntity
  8
0
100
AcDbLine
 62
7
  6
CONTINUOUS
 10
6.3756824534
 20
4.1648527686
 11
6.8771824534
 21
4.1648527686
  0
LINE
  5
325
100
AcDbEntity
  8
0
100
AcDbLine
 62
7
  6
CONTINUOUS
 10
2.3626824534
 20
4.1723527686
 11
2.8901824534
 21
4.1723527686
  0
LINE
  5
326
100
AcDbEntity
  8
0
100
AcDbLine
 62
7
  6
CONTINUOUS
 10
6.3626824534
 20
4.1723527686
 11
6.8901824534
 21
4.1723527686
  0
LINE
  5
327
100
AcDbEntity
  8
0
100
AcDbLine
 62
7
  6
CONTINUOUS
 10
2.3626824534
 20
4.2079948172
 11
2.8901824534
 21
4.2079948172
  0
LINE
  5
328
100
AcDbEntity
  8
0
100
AcDbLine
 62
7
  6
CONTINUOUS
 10
6.3626824534
 20
4.2079948172
 11
6.8901824534
 21
4.2079948172
  0
LINE
  5
329
100
AcDbEntity
  8
0
100
AcDbLine
 62
7
  6
CONTINUOUS
 10
2.3737922428
 20
4.2191046066
 11
2.879072664
 21
4.2191046066
  0
LINE
  5
32A
100
AcDbEntity
  8
0
100
AcDbLine
 62
7
  6
CONTINUOUS
 10
6.3737922428
 20
4.2191046066
 11
6.879072664
 21
4.2191046066
  0
LINE
  5
32B
100
AcDbEntity
  8
0
100
AcDbLine
 62
7
  6
CONTINUOUS
 10
9.3586059101
 20
4.1043098427
 11
9.3488707754
 21
4.1044797701
  0
LINE
  5
32C
100
AcDbEntity
  8
0
100
AcDbLine
 62
7
  6
CONTINUOUS
 10
2.5875537668
 20
4.2637961963
 11
2.5864324534
 21
4.2638202713
  0
LINE
  5
32D
100
AcDbEntity
  8
0
100
AcDbLine
 62
7
  6
CONTINUOUS
 10
2.5875545926
 20
4.263796241
 11
2.5864324534
 21
4.2638202713
  0
LINE
  5
32E
100
AcDbEntity
  8
0
100
AcDbLine
 62
7
  6
CONTINUOUS
 10
8.8851638506
 20
3.7567862928
 11
8.8948634391
 21
3.7561080315
  0
LINE
  5
32F
100
AcDbEntity
  8
0
100
AcDbLine
 62
7
  6
CONTINUOUS
 10
9.3288238363
 20
3.7219613857
 11
9.3385234032
 21
3.7211127835
  0
LINE
  5
330
100
AcDbEntity
  8
0
100
AcDbLine
 62
7
  6
CONTINUOUS
 10
8.8767202308
 20
3.7696502528
 11
8.8863842732
 21
3.7684636576
  0
LINE
  5
331
100
AcDbEntity
  8
0
100
AcDbLine
 62
7
  6
CONTINUOUS
 10
6.3626824534
 20
3.8723527686
 11
6.4411824534
 21
3.8468527686
  0
LINE
  5
332
100
AcDbEntity
  8
0
100
AcDbLine
 62
7
  6
CONTINUOUS
 10
5.4771824534
 20
3.1001373783
 11
5.4771824534
 21
3.3485681589
  0
LINE
  5
333
100
AcDbEntity
  8
0
100
AcDbLine
 62
7
  6
CONTINUOUS
 10
5.5254605902
 20
3.3108960538
 11
5.5254605902
 21
3.1378094834
  0
LINE
  5
334
100
AcDbEntity
  8
0
100
AcDbLine
 62
7
  6
CONTINUOUS
 10
5.5556789534
 20
3.5828527686
 11
5.5556789534
 21
3.3893527686
  0
LINE
  5
335
100
AcDbEntity
  8
0
100
AcDbLine
 62
7
  6
CONTINUOUS
 10
5.5724324534
 20
3.3693527686
 11
5.5724324534
 21
3.3893527686
  0
LINE
  5
336
100
AcDbEntity
  8
0
100
AcDbLine
 62
7
  6
CONTINUOUS
 10
6.3991774754
 20
4.2273527686
 11
6.3737922428
 21
4.2191046066
  0
LINE
  5
337
100
AcDbEntity
  8
0
100
AcDbLine
 62
7
  6
CONTINUOUS
 10
2.6470748438
 20
4.2645770217
 11
2.6470824534
 21
4.264577728
  0
LINE
  5
338
100
AcDbEntity
  8
0
100
AcDbLine
 62
7
  6
CONTINUOUS
 10
6.5473167315
 20
4.2607408776
 11
6.5464324534
 21
4.2607144765
  0
LINE
  5
339
100
AcDbEntity
  8
0
100
AcDbLine
 62
7
  6
CONTINUOUS
 10
2.6649324534
 20
4.2638963036
 11
2.6638195761
 21
4.263872623
  0
LWPOLYLINE
  5
33A
100
AcDbEntity
  8
0
100
AcDbPolyline
 62
7
  6
CONTINUOUS
 90
10
 70
0
 10
6.6249324534
 20
4.2648513176
 10
6.6248967284
 20
4.2648511523
 10
6.6249002541
 20
4.2648508926
 10
6.624921896
 20
4.2648505197
 10
6.6249249733
 20
4.264849977
 10
6.6249040671
 20
4.2648492583
 10
6.6248942994
 20
4.264848446
 10
6.6248921737
 20
4.264847573
 10
6.624872517
 20
4.2648466062
 10
6.6248265306
 20
4.2648433169
  0
LINE
  5
33B
100
AcDbEntity
  8
0
100
AcDbLine
 62
7
  6
CONTINUOUS
 10
2.3991776988
 20
4.2273527686
 11
2.853687208
 21
4.2273527686
  0
LINE
  5
33C
100
AcDbEntity
  8
0
100
AcDbLine
 62
7
  6
CONTINUOUS
 10
6.3991776988
 20
4.2273527686
 11
6.853687208
 21
4.2273527686
  0
LINE
  5
33D
100
AcDbEntity
  8
0
100
AcDbLine
 62
7
  6
CONTINUOUS
 10
6.8240047817
 20
4.2392574152
 11
6.4288601251
 21
4.2392574152
  0
LINE
  5
33E
100
AcDbEntity
  8
0
100
AcDbLine
 62
7
  6
CONTINUOUS
 10
2.8240047732
 20
4.2392574751
 11
2.4288601336
 21
4.2392574751
  0
LINE
  5
33F
100
AcDbEntity
  8
0
100
AcDbLine
 62
7
  6
CONTINUOUS
 10
4.0411824534
 20
4.3638562686
 11
4.2546359435
 21
4.3638562686
  0
LINE
  5
340
100
AcDbEntity
  8
0
100
AcDbLine
 62
7
  6
CONTINUOUS
 10
4.9982289633
 20
4.3638562686
 11
5.2116824534
 21
4.3638562686
  0
LINE
  5
341
100
AcDbEntity
  8
0
100
AcDbLine
 62
7
  6
CONTINUOUS
 10
4.9446477852
 20
4.3935171334
 11
4.3082171217
 21
4.3935171334
  0
LINE
  5
342
100
AcDbEntity
  8
0
100
AcDbLine
 62
7
  6
CONTINUOUS
 10
4.9314324534
 20
4.4319524228
 11
4.3214324534
 21
4.4319524228
  0
LINE
  5
343
100
AcDbEntity
  8
0
100
AcDbLine
 62
7
  6
CONTINUOUS
 10
6.5648671257
 20
4.2623699918
 11
6.5650018811
 21
4.2623673745
  0
LINE
  5
344
100
AcDbEntity
  8
0
100
AcDbLine
 62
7
  6
CONTINUOUS
 10
6.5645824534
 20
4.2623818833
 11
6.5650018811
 21
4.2623673745
  0
LINE
  5
345
100
AcDbEntity
  8
0
100
AcDbLine
 62
7
  6
CONTINUOUS
 10
8.9137260943
 20
4.1158744346
 11
8.903995408
 21
4.1162142377
  0
LINE
  5
346
100
AcDbEntity
  8
0
100
AcDbLine
 62
7
  6
CONTINUOUS
 10
9.3677010562
 20
4.0919192444
 11
9.3580014677
 21
4.0925975057
  0
LINE
  5
347
100
AcDbEntity
  8
0
100
AcDbLine
 62
7
  6
CONTINUOUS
 10
6.7051826041
 20
4.2601877785
 11
6.7066549218
 21
4.2600805097
  0
LINE
  5
348
100
AcDbEntity
  8
0
100
AcDbLine
 62
7
  6
CONTINUOUS
 10
8.9240410705
 20
4.1267441515
 11
8.9143415037
 21
4.1275927537
  0
LINE
  5
349
100
AcDbEntity
  8
0
100
AcDbLine
 62
7
  6
CONTINUOUS
 10
6.7066549218
 20
4.2600805097
 11
6.7071134586
 21
4.2600279513
  0
LINE
  5
34A
100
AcDbEntity
  8
0
100
AcDbLine
 62
7
  6
CONTINUOUS
 10
9.3179541194
 20
3.7116464095
 11
9.3275959809
 21
3.7102913342
  0
LINE
  5
34B
100
AcDbEntity
  8
0
100
AcDbLine
 62
7
  6
CONTINUOUS
 10
8.8689659487
 20
3.7829311952
 11
8.8785546452
 21
3.7812404493
  0
LINE
  5
34C
100
AcDbEntity
  8
0
100
AcDbLine
 62
7
  6
CONTINUOUS
 10
6.8059324534
 20
4.2437883155
 11
6.7636824534
 21
4.2514236354
  0
LINE
  5
34D
100
AcDbEntity
  8
0
100
AcDbLine
 62
7
  6
CONTINUOUS
 10
9.3065594549
 20
3.7019144466
 11
9.3161171835
 21
3.7000566124
  0
LINE
  5
34E
100
AcDbEntity
  8
0
100
AcDbLine
 62
7
  6
CONTINUOUS
 10
6.0711824534
 20
3.3485681589
 11
6.0591824534
 21
3.3693527686
  0
LWPOLYLINE
  5
34F
100
AcDbEntity
  8
0
100
AcDbPolyline
 62
7
  6
CONTINUOUS
 90
27
 70
0
 10
5.9764573172
 20
2.9762124014
 10
5.9763858624
 20
2.976961817
 10
5.9762583857
 20
2.9786473271
 10
5.9761765998
 20
2.9803356654
 10
5.976140564
 20
2.9820256022
 10
5.9761503046
 20
2.9837158852
 10
5.9762058121
 20
2.9854052406
 10
5.9763070421
 20
2.9870924282
 10
5.9764539168
 20
2.988776208
 10
5.9766463205
 20
2.9904553098
 10
5.9768841058
 20
2.992128503
 10
5.9771670914
 20
2.9937945571
 10
5.9774950547
 20
2.9954522093
 10
5.9778677507
 20
2.9971002667
 10
5.9782848916
 20
2.9987374973
 10
5.9787461293
 20
3.0003625933
 10
5.9792511357
 20
3.0019744547
 10
5.9797994973
 20
3.0035718124
 10
5.9803906503
 20
3.0051531328
 10
5.9810241222
 20
3.0067172949
 10
5.9816993918
 20
3.008263146
 10
5.9824157117
 20
3.0097891506
 10
5.9831724837
 20
3.0112942428
 10
5.9839690655
 20
3.012777343
 10
5.9848045287
 20
3.0142369567
 10
5.9856781625
 20
3.0156721053
 10
5.9865792438
 20
3.0170668165
  0
LINE
  5
350
100
AcDbEntity
  8
0
100
AcDbLine
 62
7
  6
CONTINUOUS
 10
5.7259043167
 20
3.3108960538
 11
5.7259043167
 21
3.1378094834
  0
LINE
  5
351
100
AcDbEntity
  8
0
100
AcDbLine
 62
7
  6
CONTINUOUS
 10
5.8224605902
 20
3.3108960538
 11
5.8224605902
 21
3.1378094834
  0
LINE
  5
352
100
AcDbEntity
  8
0
100
AcDbLine
 62
7
  6
CONTINUOUS
 10
5.9759324534
 20
3.3693527686
 11
5.9759324534
 21
3.3893527686
  0
LINE
  5
353
100
AcDbEntity
  8
0
100
AcDbLine
 62
7
  6
CONTINUOUS
 10
5.9926859534
 20
3.5828527686
 11
5.9926859534
 21
3.3893527686
  0
LINE
  5
354
100
AcDbEntity
  8
0
100
AcDbLine
 62
7
  6
CONTINUOUS
 10
6.0229043167
 20
3.3108960538
 11
6.0229043167
 21
3.1378094834
  0
LINE
  5
355
100
AcDbEntity
  8
0
100
AcDbLine
 62
7
  6
CONTINUOUS
 10
5.4771824534
 20
3.3485681589
 11
5.4891824534
 21
3.3693527686
  0
LINE
  5
356
100
AcDbEntity
  8
0
100
AcDbLine
 62
7
  6
CONTINUOUS
 10
6.1717015822
 20
3.9118344082
 11
6.1962846172
 21
3.9289840899
  0
LINE
  5
357
100
AcDbEntity
  8
0
100
AcDbLine
 62
7
  6
CONTINUOUS
 10
6.3756824534
 20
4.1648527686
 11
6.3618362958
 21
4.1568527686
  0
LINE
  5
358
100
AcDbEntity
  8
0
100
AcDbLine
 62
7
  6
CONTINUOUS
 10
7.0176824534
 20
4.1551027686
 11
6.9176824534
 21
4.1128527686
  0
LINE
  5
359
100
AcDbEntity
  8
0
100
AcDbLine
 62
7
  6
CONTINUOUS
 10
4.9314324534
 20
4.6863527686
 11
4.3214324534
 21
4.6863527686
  0
LINE
  5
35A
100
AcDbEntity
  8
0
100
AcDbLine
 62
7
  6
CONTINUOUS
 10
4.9214324534
 20
4.6963527686
 11
4.3314324534
 21
4.6963527686
  0
LINE
  5
35B
100
AcDbEntity
  8
0
100
AcDbLine
 62
7
  6
CONTINUOUS
 10
4.3476822572
 20
4.759351775
 11
4.9051826496
 21
4.759351775
  0
LINE
  5
35C
100
AcDbEntity
  8
0
100
AcDbLine
 62
7
  6
CONTINUOUS
 10
9.376144676
 20
4.0790552844
 11
9.3664806337
 21
4.0802418796
  0
LINE
  5
35D
100
AcDbEntity
  8
0
100
AcDbLine
 62
7
  6
CONTINUOUS
 10
8.9349107874
 20
4.1370591277
 11
8.9252689259
 21
4.138414203
  0
LINE
  5
35E
100
AcDbEntity
  8
0
100
AcDbLine
 62
7
  6
CONTINUOUS
 10
9.3838989582
 20
4.065774342
 11
9.3743102617
 21
4.0674650879
  0
LINE
  5
35F
100
AcDbEntity
  8
0
100
AcDbLine
 62
7
  6
CONTINUOUS
 10
8.9463054519
 20
4.1467910906
 11
8.9367477234
 21
4.1486489248
  0
LINE
  5
360
100
AcDbEntity
  8
0
100
AcDbLine
 62
7
  6
CONTINUOUS
 10
8.8619173643
 20
3.7965997643
 11
8.871404433
 21
3.7944095019
  0
LINE
  5
361
100
AcDbEntity
  8
0
100
AcDbLine
 62
7
  6
CONTINUOUS
 10
9.2946771905
 20
3.6927837543
 11
9.3041116416
 21
3.6904314814
  0
LINE
  5
362
100
AcDbEntity
  8
0
100
AcDbLine
 62
7
  6
CONTINUOUS
 10
8.8555937974
 20
3.8106184955
 11
8.8649532349
 21
3.8079347199
  0
LINE
  5
363
100
AcDbEntity
  8
0
100
AcDbLine
 62
7
  6
CONTINUOUS
 10
9.2823215644
 20
3.6843045884
 11
9.2916327381
 21
3.6814578769
  0
LINE
  5
364
100
AcDbEntity
  8
0
100
AcDbLine
 62
7
  6
CONTINUOUS
 10
6.8536874315
 20
4.2273527686
 11
6.879072664
 21
4.2191046066
  0
LINE
  5
365
100
AcDbEntity
  8
0
100
AcDbLine
 62
7
  6
CONTINUOUS
 10
7.0176824534
 20
3.8736027686
 11
6.9176824534
 21
3.9158527686
  0
LINE
  5
366
100
AcDbEntity
  8
0
100
AcDbLine
 62
7
  6
CONTINUOUS
 10
6.3626824534
 20
4.1723527686
 11
6.3756824534
 21
4.1648527686
  0
LINE
  5
367
100
AcDbEntity
  8
0
100
AcDbLine
 62
7
  6
CONTINUOUS
 10
6.1717015822
 20
4.116871129
 11
6.1962846172
 21
4.0997214473
  0
LINE
  5
368
100
AcDbEntity
  8
0
100
AcDbLine
 62
7
  6
CONTINUOUS
 10
8.5389324534
 20
1.8313527686
 11
8.5489324534
 21
1.8213527686
  0
LINE
  5
369
100
AcDbEntity
  8
0
100
AcDbLine
 62
7
  6
CONTINUOUS
 10
6.9365033806
 20
3.0778355225
 11
6.9364805179
 21
3.077863078
  0
LINE
  5
36A
100
AcDbEntity
  8
0
100
AcDbLine
 62
7
  6
CONTINUOUS
 10
6.9365032711
 20
3.0778345545
 11
6.9364805179
 21
3.077863078
  0
LINE
  5
36B
100
AcDbEntity
  8
0
100
AcDbLine
 62
7
  6
CONTINUOUS
 10
6.2621024796
 20
2.5022089368
 11
6.3429098539
 21
2.1981774596
  0
LINE
  5
36C
100
AcDbEntity
  8
0
100
AcDbLine
 62
7
  6
CONTINUOUS
 10
6.0711824534
 20
3.1001373783
 11
6.0711824534
 21
3.3485681589
  0
LINE
  5
36D
100
AcDbEntity
  8
0
100
AcDbLine
 62
7
  6
CONTINUOUS
 10
6.1471824534
 20
1.8683451825
 11
6.1471824534
 21
1.8408527686
  0
LINE
  5
36E
100
AcDbEntity
  8
0
100
AcDbLine
 62
7
  6
CONTINUOUS
 10
6.1717015822
 20
3.9118344082
 11
6.1717015822
 21
4.116871129
  0
LINE
  5
36F
100
AcDbEntity
  8
0
100
AcDbLine
 62
7
  6
CONTINUOUS
 10
6.1962846172
 20
3.9289840899
 11
6.1962846172
 21
4.0997214473
  0
LINE
  5
370
100
AcDbEntity
  8
0
100
AcDbLine
 62
7
  6
CONTINUOUS
 10
6.2086255819
 20
4.1043527686
 11
6.2086255819
 21
3.9243527686
  0
LINE
  5
371
100
AcDbEntity
  8
0
100
AcDbLine
 62
7
  6
CONTINUOUS
 10
6.222112553
 20
3.9185309864
 11
6.222112553
 21
4.1101745508
  0
LINE
  5
372
100
AcDbEntity
  8
0
100
AcDbLine
 62
7
  6
CONTINUOUS
 10
6.3476824534
 20
4.1168527686
 11
6.3476824534
 21
4.1083419455
  0
LINE
  5
373
100
AcDbEntity
  8
0
100
AcDbLine
 62
7
  6
CONTINUOUS
 10
6.3476824534
 20
3.9203635917
 11
6.3476824534
 21
3.9118527686
  0
LINE
  5
374
100
AcDbEntity
  8
0
100
AcDbLine
 62
7
  6
CONTINUOUS
 10
6.347774868
 20
3.9205555346
 11
6.347774868
 21
4.1081500026
  0
LINE
  5
375
100
AcDbEntity
  8
0
100
AcDbLine
 62
7
  6
CONTINUOUS
 10
6.3508424534
 20
3.0023527686
 11
6.3508424534
 21
2.8849264958
  0
LINE
  5
376
100
AcDbEntity
  8
0
100
AcDbLine
 62
7
  6
CONTINUOUS
 10
6.3580875805
 20
4.0768940213
 11
6.3580875805
 21
3.9518115159
  0
LINE
  5
377
100
AcDbEntity
  8
0
100
AcDbLine
 62
7
  6
CONTINUOUS
 10
6.3626824534
 20
4.2079948172
 11
6.3626824534
 21
4.1723527686
  0
LINE
  5
378
100
AcDbEntity
  8
0
100
AcDbLine
 62
7
  6
CONTINUOUS
 10
6.3651824534
 20
4.0267624423
 11
6.3651824534
 21
4.001943095
  0
LINE
  5
379
100
AcDbEntity
  8
0
100
AcDbLine
 62
7
  6
CONTINUOUS
 10
6.3476824534
 20
3.9203635917
 11
6.347774868
 21
3.9205555346
  0
LINE
  5
37A
100
AcDbEntity
  8
0
100
AcDbLine
 62
7
  6
CONTINUOUS
 10
6.3737922428
 20
4.2191046066
 11
6.3626824534
 21
4.2079948172
  0
LINE
  5
37B
100
AcDbEntity
  8
0
100
AcDbLine
 62
7
  6
CONTINUOUS
 10
6.8901824534
 20
4.1723527686
 11
6.8771824534
 21
4.1648527686
  0
LINE
  5
37C
100
AcDbEntity
  8
0
100
AcDbLine
 62
7
  6
CONTINUOUS
 10
6.8901824534
 20
3.8723527686
 11
6.8116824534
 21
3.8468527686
  0
LINE
  5
37D
100
AcDbEntity
  8
0
100
AcDbLine
 62
7
  6
CONTINUOUS
 10
9.3909475426
 20
4.0521057729
 11
9.3814604738
 21
4.0542960353
  0
LINE
  5
37E
100
AcDbEntity
  8
0
100
AcDbLine
 62
7
  6
CONTINUOUS
 10
8.9581877164
 20
4.1559217829
 11
8.9487532652
 21
4.1582740558
  0
LINE
  5
37F
100
AcDbEntity
  8
0
100
AcDbLine
 62
7
  6
CONTINUOUS
 10
9.3972711095
 20
4.0380870418
 11
9.3879116719
 21
4.0407708173
  0
LINE
  5
380
100
AcDbEntity
  8
0
100
AcDbLine
 62
7
  6
CONTINUOUS
 10
8.8500125804
 20
3.8249489644
 11
8.8592187332
 21
3.8217790317
  0
LINE
  5
381
100
AcDbEntity
  8
0
100
AcDbLine
 62
7
  6
CONTINUOUS
 10
9.2695447727
 20
3.6764749604
 11
9.2786942005
 21
3.673144841
  0
LINE
  5
382
100
AcDbEntity
  8
0
100
AcDbLine
 62
7
  6
CONTINUOUS
 10
8.8451914878
 20
3.8395436784
 11
8.8542067504
 21
3.8359012759
  0
LINE
  5
383
100
AcDbEntity
  8
0
100
AcDbLine
 62
7
  6
CONTINUOUS
 10
6.8771824534
 20
4.1648527686
 11
6.8910286111
 21
4.1568527686
  0
LINE
  5
384
100
AcDbEntity
  8
0
100
AcDbLine
 62
7
  6
CONTINUOUS
 10
6.347774868
 20
4.1081500026
 11
6.3476824534
 21
4.1083419455
  0
LINE
  5
385
100
AcDbEntity
  8
0
100
AcDbLine
 62
7
  6
CONTINUOUS
 10
6.4546824534
 20
3.8468527686
 11
6.4546824534
 21
3.6673527686
  0
LINE
  5
386
100
AcDbEntity
  8
0
100
AcDbLine
 62
7
  6
CONTINUOUS
 10
6.4724324534
 20
4.248894606
 11
6.4724324534
 21
4.2494047774
  0
LINE
  5
387
100
AcDbEntity
  8
0
100
AcDbLine
 62
7
  6
CONTINUOUS
 10
6.4754169622
 20
4.2493390874
 11
6.4754169622
 21
4.2498489606
  0
LINE
  5
388
100
AcDbEntity
  8
0
100
AcDbLine
 62
7
  6
CONTINUOUS
 10
6.4920763361
 20
4.2520321806
 11
6.4920763361
 21
4.2525402542
  0
LINE
  5
389
100
AcDbEntity
  8
0
100
AcDbLine
 62
7
  6
CONTINUOUS
 10
6.5276573976
 20
4.2580149878
 11
6.5276573976
 21
4.2584415949
  0
LINE
  5
38A
100
AcDbEntity
  8
0
100
AcDbLine
 62
7
  6
CONTINUOUS
 10
6.5645824534
 20
4.2618802837
 11
6.5645824534
 21
4.2623818833
  0
LINE
  5
38B
100
AcDbEntity
  8
0
100
AcDbLine
 62
7
  6
CONTINUOUS
 10
6.6070824534
 20
4.2641111166
 11
6.6070824534
 21
4.2646112725
  0
LINE
  5
38C
100
AcDbEntity
  8
0
100
AcDbLine
 62
7
  6
CONTINUOUS
 10
6.6314324534
 20
4.2636709267
 11
6.6314324534
 21
4.2642364997
  0
LINE
  5
38D
100
AcDbEntity
  8
0
100
AcDbLine
 62
7
  6
CONTINUOUS
 10
6.6421824534
 20
4.2640250519
 11
6.6421824534
 21
4.2646924796
  0
LINE
  5
38E
100
AcDbEntity
  8
0
100
AcDbLine
 62
7
  6
CONTINUOUS
 10
6.6601824534
 20
4.2634496338
 11
6.6601824534
 21
4.2641178588
  0
LINE
  5
38F
100
AcDbEntity
  8
0
100
AcDbLine
 62
7
  6
CONTINUOUS
 10
6.6751824534
 20
4.262191433
 11
6.6751824534
 21
4.2626928307
  0
LINE
  5
390
100
AcDbEntity
  8
0
100
AcDbLine
 62
7
  6
CONTINUOUS
 10
6.6871824534
 20
4.2613406703
 11
6.6871824534
 21
4.2618426203
  0
LINE
  5
391
100
AcDbEntity
  8
0
100
AcDbLine
 62
7
  6
CONTINUOUS
 10
6.4178648274
 20
3.6353669745
 11
6.364241055
 21
3.1938527686
  0
LINE
  5
392
100
AcDbEntity
  8
0
100
AcDbLine
 62
7
  6
CONTINUOUS
 10
6.0591824534
 20
3.0793527686
 11
6.0711824534
 21
3.1001373783
  0
LINE
  5
393
100
AcDbEntity
  8
0
100
AcDbLine
 62
7
  6
CONTINUOUS
 10
9.2786942005
 20
4.1755606962
 11
9.2695447727
 21
4.1722305769
  0
LINE
  5
394
100
AcDbEntity
  8
0
100
AcDbLine
 62
7
  6
CONTINUOUS
 10
8.8592187332
 20
4.0269265055
 11
8.8500125804
 21
4.0237565728
  0
LINE
  5
395
100
AcDbEntity
  8
0
100
AcDbLine
 62
7
  6
CONTINUOUS
 10
9.2916327381
 20
4.1672476603
 11
9.2823215644
 21
4.1644009488
  0
LINE
  5
396
100
AcDbEntity
  8
0
100
AcDbLine
 62
7
  6
CONTINUOUS
 10
8.8649532349
 20
4.0407708173
 11
8.8555937974
 21
4.0380870418
  0
LINE
  5
397
100
AcDbEntity
  8
0
100
AcDbLine
 62
7
  6
CONTINUOUS
 10
4.3625631432
 20
5.3838527686
 11
4.3476822572
 21
5.3838527686
  0
LINE
  5
398
100
AcDbEntity
  8
0
100
AcDbLine
 62
7
  6
CONTINUOUS
 10
4.8902995424
 20
5.3838527686
 11
4.9051826496
 21
5.3838527686
  0
LINE
  5
399
100
AcDbEntity
  8
0
100
AcDbLine
 62
7
  6
CONTINUOUS
 10
4.3939548594
 20
5.4463527686
 11
4.3476827293
 21
5.4463527686
  0
LINE
  5
39A
100
AcDbEntity
  8
0
100
AcDbLine
 62
7
  6
CONTINUOUS
 10
4.8589119626
 20
5.4463527686
 11
4.9051824534
 21
5.4463527686
  0
LINE
  5
39B
100
AcDbEntity
  8
0
100
AcDbLine
 62
7
  6
CONTINUOUS
 10
4.8992237818
 20
5.4528527686
 11
4.819457884
 21
5.4528527686
  0
LINE
  5
39C
100
AcDbEntity
  8
0
100
AcDbLine
 62
7
  6
CONTINUOUS
 10
4.353641125
 20
5.4528527686
 11
4.4334067633
 21
5.4528527686
  0
LINE
  5
39D
100
AcDbEntity
  8
0
100
AcDbLine
 62
7
  6
CONTINUOUS
 10
8.9705433424
 20
4.1644009488
 11
8.9612321687
 21
4.1672476603
  0
LINE
  5
39E
100
AcDbEntity
  8
0
100
AcDbLine
 62
7
  6
CONTINUOUS
 10
9.4028523264
 20
4.0237565728
 11
9.3936461736
 21
4.0269265055
  0
LINE
  5
39F
100
AcDbEntity
  8
0
100
AcDbLine
 62
7
  6
CONTINUOUS
 10
8.9833201341
 20
4.1722305769
 11
8.9741707064
 21
4.1755606962
  0
LINE
  5
3A0
100
AcDbEntity
  8
0
100
AcDbLine
 62
7
  6
CONTINUOUS
 10
9.2563757201
 20
3.6693247482
 11
9.2653383239
 21
3.6655203486
  0
LINE
  5
3A1
100
AcDbEntity
  8
0
100
AcDbLine
 62
7
  6
CONTINUOUS
 10
8.8411363105
 20
3.8543872534
 11
8.8499606828
 21
3.8502723809
  0
LINE
  5
3A2
100
AcDbEntity
  8
0
100
AcDbLine
 62
7
  6
CONTINUOUS
 10
9.2428505021
 20
3.6628735501
 11
9.251601716
 21
3.6586052979
  0
LINE
  5
3A3
100
AcDbEntity
  8
0
100
AcDbLine
 62
7
  6
CONTINUOUS
 10
6.879072664
 20
4.2191046066
 11
6.8901824534
 21
4.2079948172
  0
LWPOLYLINE
  5
3A4
100
AcDbEntity
  8
0
100
AcDbPolyline
 62
7
  6
CONTINUOUS
 90
3
 70
0
 10
6.5645824534
 20
4.2623818833
 10
6.5645829583
 20
4.2623803175
 10
6.564616546
 20
4.2623784114
  0
LINE
  5
3A5
100
AcDbEntity
  8
0
100
AcDbLine
 62
7
  6
CONTINUOUS
 10
6.7000150484
 20
4.2604811594
 11
6.7000150484
 21
4.2609836687
  0
LINE
  5
3A6
100
AcDbEntity
  8
0
100
AcDbLine
 62
7
  6
CONTINUOUS
 10
6.7066549218
 20
4.2600805097
 11
6.7066549218
 21
4.2605832801
  0
LINE
  5
3A7
100
AcDbEntity
  8
0
100
AcDbLine
 62
7
  6
CONTINUOUS
 10
6.7214324534
 20
4.2578361351
 11
6.7214324534
 21
4.258406
  0
LINE
  5
3A8
100
AcDbEntity
  8
0
100
AcDbLine
 62
7
  6
CONTINUOUS
 10
6.7264324534
 20
4.257544998
 11
6.7264324534
 21
4.2583727792
  0
LINE
  5
3A9
100
AcDbEntity
  8
0
100
AcDbLine
 62
7
  6
CONTINUOUS
 10
6.7445733936
 20
4.2547992499
 11
6.7445733936
 21
4.2557990905
  0
LINE
  5
3AA
100
AcDbEntity
  8
0
100
AcDbLine
 62
7
  6
CONTINUOUS
 10
6.7475733936
 20
4.2542163367
 11
6.7475733936
 21
4.25472296
  0
LINE
  5
3AB
100
AcDbEntity
  8
0
100
AcDbLine
 62
7
  6
CONTINUOUS
 10
6.7615048475
 20
4.2518788876
 11
6.7615048475
 21
4.2523870633
  0
LINE
  5
3AC
100
AcDbEntity
  8
0
100
AcDbLine
 62
7
  6
CONTINUOUS
 10
6.7842724564
 20
4.2479749072
 11
6.7842724564
 21
4.2484856968
  0
LINE
  5
3AD
100
AcDbEntity
  8
0
100
AcDbLine
 62
7
  6
CONTINUOUS
 10
6.7867629134
 20
4.2475823164
 11
6.7867629134
 21
4.2480933704
  0
LINE
  5
3AE
100
AcDbEntity
  8
0
100
AcDbLine
 62
7
  6
CONTINUOUS
 10
6.7981824534
 20
3.8468527686
 11
6.7981824534
 21
3.6673527686
  0
LINE
  5
3AF
100
AcDbEntity
  8
0
100
AcDbLine
 62
7
  6
CONTINUOUS
 10
6.8876824534
 20
3.9984703884
 11
6.8876824534
 21
4.0302351488
  0
LINE
  5
3B0
100
AcDbEntity
  8
0
100
AcDbLine
 62
7
  6
CONTINUOUS
 10
6.8901824534
 20
4.2079948172
 11
6.8901824534
 21
4.1723527686
  0
LINE
  5
3B1
100
AcDbEntity
  8
0
100
AcDbLine
 62
7
  6
CONTINUOUS
 10
6.9020224534
 20
3.0023527686
 11
6.9020224534
 21
2.8849264958
  0
LINE
  5
3B2
100
AcDbEntity
  8
0
100
AcDbLine
 62
7
  6
CONTINUOUS
 10
6.9051824534
 20
4.1168527686
 11
6.9051824534
 21
4.1128527686
  0
LINE
  5
3B3
100
AcDbEntity
  8
0
100
AcDbLine
 62
7
  6
CONTINUOUS
 10
6.9051824534
 20
3.9158527686
 11
6.9051824534
 21
3.9118527686
  0
LINE
  5
3B4
100
AcDbEntity
  8
0
100
AcDbLine
 62
7
  6
CONTINUOUS
 10
6.9176824534
 20
3.9158527686
 11
6.9176824534
 21
4.1128527686
  0
LINE
  5
3B5
100
AcDbEntity
  8
0
100
AcDbLine
 62
7
  6
CONTINUOUS
 10
7.0176824534
 20
3.8736027686
 11
7.0176824534
 21
4.1551027686
  0
LINE
  5
3B6
100
AcDbEntity
  8
0
100
AcDbLine
 62
7
  6
CONTINUOUS
 10
8.8499606828
 20
3.9984331563
 11
8.8411363105
 21
3.9943182838
  0
LINE
  5
3B7
100
AcDbEntity
  8
0
100
AcDbLine
 62
7
  6
CONTINUOUS
 10
9.2653383239
 20
4.1831851886
 11
9.2563757201
 21
4.179380789
  0
LINE
  5
3B8
100
AcDbEntity
  8
0
100
AcDbLine
 62
7
  6
CONTINUOUS
 10
8.8542067504
 20
4.0128042613
 11
8.8451914878
 21
4.0091618588
  0
LINE
  5
3B9
100
AcDbEntity
  8
0
100
AcDbLine
 62
7
  6
CONTINUOUS
 10
9.3936461736
 20
3.8217790317
 11
9.4028523264
 21
3.8249489644
  0
LINE
  5
3BA
100
AcDbEntity
  8
0
100
AcDbLine
 62
7
  6
CONTINUOUS
 10
8.9612321687
 20
3.6814578769
 11
8.9705433424
 21
3.6843045884
  0
LINE
  5
3BB
100
AcDbEntity
  8
0
100
AcDbLine
 62
7
  6
CONTINUOUS
 10
9.3879116719
 20
3.8079347199
 11
9.3972711095
 21
3.8106184955
  0
LINE
  5
3BC
100
AcDbEntity
  8
0
100
AcDbLine
 62
7
  6
CONTINUOUS
 10
9.407673419
 20
4.0091618588
 11
9.3986581564
 21
4.0128042613
  0
LINE
  5
3BD
100
AcDbEntity
  8
0
100
AcDbLine
 62
7
  6
CONTINUOUS
 10
8.9964891867
 20
4.179380789
 11
8.9875265829
 21
4.1831851886
  0
LINE
  5
3BE
100
AcDbEntity
  8
0
100
AcDbLine
 62
7
  6
CONTINUOUS
 10
9.4117285964
 20
3.9943182838
 11
9.402904224
 21
3.9984331563
  0
LINE
  5
3BF
100
AcDbEntity
  8
0
100
AcDbLine
 62
7
  6
CONTINUOUS
 10
9.0100144047
 20
4.1858319871
 11
9.0012631908
 21
4.1901002393
  0
LINE
  5
3C0
100
AcDbEntity
  8
0
100
AcDbLine
 62
7
  6
CONTINUOUS
 10
8.8378655868
 20
3.8694143851
 11
8.8464625099
 21
3.86484332
  0
LINE
  5
3C1
100
AcDbEntity
  8
0
100
AcDbLine
 62
7
  6
CONTINUOUS
 10
9.2290061903
 20
3.6571390484
 11
9.2375220279
 21
3.6524186425
  0
LINE
  5
3C2
100
AcDbEntity
  8
0
100
AcDbLine
 62
7
  6
CONTINUOUS
 10
8.8353858048
 20
3.8845920992
 11
8.843731715
 21
3.8795773704
  0
LINE
  5
3C3
100
AcDbEntity
  8
0
100
AcDbLine
 62
7
  6
CONTINUOUS
 10
9.2148839461
 20
3.6521270656
 11
9.2231297501
 21
3.6469745155
  0
LINE
  5
3C4
100
AcDbEntity
  8
0
100
AcDbLine
 62
7
  6
CONTINUOUS
 10
6.8350000795
 20
3.6353669745
 11
6.8886238518
 21
3.1938527686
  0
LINE
  5
3C5
100
AcDbEntity
  8
0
100
AcDbLine
 62
7
  6
CONTINUOUS
 10
7.0701824534
 20
3.8736027686
 11
7.0701824534
 21
4.1551027686
  0
LINE
  5
3C6
100
AcDbEntity
  8
0
100
AcDbLine
 62
7
  6
CONTINUOUS
 10
7.1056824534
 20
1.8683451825
 11
7.1056824534
 21
1.8408527686
  0
LINE
  5
3C7
100
AcDbEntity
  8
0
100
AcDbLine
 62
7
  6
CONTINUOUS
 10
8.843731715
 20
3.9691281668
 11
8.8353858048
 21
3.964113438
  0
LINE
  5
3C8
100
AcDbEntity
  8
0
100
AcDbLine
 62
7
  6
CONTINUOUS
 10
9.2375220279
 20
4.1962868947
 11
9.2290061903
 21
4.1915664888
  0
LINE
  5
3C9
100
AcDbEntity
  8
0
100
AcDbLine
 62
7
  6
CONTINUOUS
 10
8.8464625099
 20
3.9838622172
 11
8.8378655868
 21
3.9792911521
  0
LINE
  5
3CA
100
AcDbEntity
  8
0
100
AcDbLine
 62
7
  6
CONTINUOUS
 10
9.251601716
 20
4.1901002393
 11
9.2428505021
 21
4.1858319871
  0
LINE
  5
3CB
100
AcDbEntity
  8
0
100
AcDbLine
 62
7
  6
CONTINUOUS
 10
9.402904224
 20
3.8502723809
 11
9.4117285964
 21
3.8543872534
  0
LINE
  5
3CC
100
AcDbEntity
  8
0
100
AcDbLine
 62
7
  6
CONTINUOUS
 10
8.9875265829
 20
3.6655203486
 11
8.9964891867
 21
3.6693247482
  0
LINE
  5
3CD
100
AcDbEntity
  8
0
100
AcDbLine
 62
7
  6
CONTINUOUS
 10
9.3986581564
 20
3.8359012759
 11
9.407673419
 21
3.8395436784
  0
LINE
  5
3CE
100
AcDbEntity
  8
0
100
AcDbLine
 62
7
  6
CONTINUOUS
 10
8.9741707064
 20
3.673144841
 11
8.9833201341
 21
3.6764749604
  0
LINE
  5
3CF
100
AcDbEntity
  8
0
100
AcDbLine
 62
7
  6
CONTINUOUS
 10
9.4149993201
 20
3.9792911521
 11
9.406402397
 21
3.9838622172
  0
LINE
  5
3D0
100
AcDbEntity
  8
0
100
AcDbLine
 62
7
  6
CONTINUOUS
 10
9.0238587166
 20
4.1915664888
 11
9.0153428789
 21
4.1962868947
  0
LINE
  5
3D1
100
AcDbEntity
  8
0
100
AcDbLine
 62
7
  6
CONTINUOUS
 10
9.417479102
 20
3.964113438
 11
9.4091331918
 21
3.9691281668
  0
LINE
  5
3D2
100
AcDbEntity
  8
0
100
AcDbLine
 62
7
  6
CONTINUOUS
 10
9.0379809607
 20
4.1965784716
 11
9.0297351568
 21
4.2017310218
  0
LINE
  5
3D3
100
AcDbEntity
  8
0
100
AcDbLine
 62
7
  6
CONTINUOUS
 10
8.8337037615
 20
3.8998787945
 11
8.8417757833
 21
3.894434147
  0
LINE
  5
3D4
100
AcDbEntity
  8
0
100
AcDbLine
 62
7
  6
CONTINUOUS
 10
9.2005128411
 20
3.647880998
 11
9.2084886113
 21
3.6422963036
  0
LINE
  5
3D5
100
AcDbEntity
  8
0
100
AcDbLine
 62
7
  6
CONTINUOUS
 10
8.8328240671
 20
3.9152325712
 11
8.8406000757
 21
3.9093729284
  0
LINE
  5
3D6
100
AcDbEntity
  8
0
100
AcDbLine
 62
7
  6
CONTINUOUS
 10
9.185941902
 20
3.6443828251
 11
9.1936144614
 21
3.6383883647
  0
LINE
  5
3D7
100
AcDbEntity
  8
0
100
AcDbLine
 62
7
  6
CONTINUOUS
 10
6.9907624273
 20
2.5022089368
 11
6.9099550529
 21
2.1981774596
  0
LINE
  5
3D8
100
AcDbEntity
  8
0
100
AcDbLine
 62
7
  6
CONTINUOUS
 10
8.2546824534
 20
3.8736027686
 11
8.2646824534
 21
3.8836027686
  0
LINE
  5
3D9
100
AcDbEntity
  8
0
100
AcDbLine
 62
7
  6
CONTINUOUS
 10
9.1936144614
 20
4.2103171725
 11
9.185941902
 21
4.2043227122
  0
LINE
  5
3DA
100
AcDbEntity
  8
0
100
AcDbLine
 62
7
  6
CONTINUOUS
 10
8.8406000757
 20
3.9393326088
 11
8.8328240671
 21
3.933472966
  0
LINE
  5
3DB
100
AcDbEntity
  8
0
100
AcDbLine
 62
7
  6
CONTINUOUS
 10
9.2084886113
 20
4.2064092336
 11
9.2005128411
 21
4.2008245392
  0
LINE
  5
3DC
100
AcDbEntity
  8
0
100
AcDbLine
 62
7
  6
CONTINUOUS
 10
8.8417757833
 20
3.9542713902
 11
8.8337037615
 21
3.9488267428
  0
LINE
  5
3DD
100
AcDbEntity
  8
0
100
AcDbLine
 62
7
  6
CONTINUOUS
 10
9.2231297501
 20
4.2017310218
 11
9.2148839461
 21
4.1965784716
  0
LINE
  5
3DE
100
AcDbEntity
  8
0
100
AcDbLine
 62
7
  6
CONTINUOUS
 10
9.4091331918
 20
3.8795773704
 11
9.417479102
 21
3.8845920992
  0
LINE
  5
3DF
100
AcDbEntity
  8
0
100
AcDbLine
 62
7
  6
CONTINUOUS
 10
9.0153428789
 20
3.6524186425
 11
9.0238587166
 21
3.6571390484
  0
LINE
  5
3E0
100
AcDbEntity
  8
0
100
AcDbLine
 62
7
  6
CONTINUOUS
 10
9.406402397
 20
3.86484332
 11
9.4149993201
 21
3.8694143851
  0
LINE
  5
3E1
100
AcDbEntity
  8
0
100
AcDbLine
 62
7
  6
CONTINUOUS
 10
9.0012631908
 20
3.6586052979
 11
9.0100144047
 21
3.6628735501
  0
LINE
  5
3E2
100
AcDbEntity
  8
0
100
AcDbLine
 62
7
  6
CONTINUOUS
 10
9.4191611454
 20
3.9488267428
 11
9.4110891235
 21
3.9542713902
  0
LINE
  5
3E3
100
AcDbEntity
  8
0
100
AcDbLine
 62
7
  6
CONTINUOUS
 10
9.0523520658
 20
4.2008245392
 11
9.0443762955
 21
4.2064092336
  0
LINE
  5
3E4
100
AcDbEntity
  8
0
100
AcDbLine
 62
7
  6
CONTINUOUS
 10
9.4200408397
 20
3.933472966
 11
9.4122648311
 21
3.9393326088
  0
LINE
  5
3E5
100
AcDbEntity
  8
0
100
AcDbLine
 62
7
  6
CONTINUOUS
 10
9.0669230048
 20
4.2043227122
 11
9.0592504455
 21
4.2103171725
  0
LINE
  5
3E6
100
AcDbEntity
  8
0
100
AcDbLine
 62
7
  6
CONTINUOUS
 10
8.8327489503
 20
3.9306027686
 11
8.8401974103
 21
3.9243527686
  0
LINE
  5
3E7
100
AcDbEntity
  8
0
100
AcDbLine
 62
7
  6
CONTINUOUS
 10
9.1712078516
 20
3.6416520302
 11
9.1785561702
 21
3.6352642343
  0
LINE
  5
3E8
100
AcDbEntity
  8
0
100
AcDbLine
 62
7
  6
CONTINUOUS
 10
8.8334791644
 20
3.945972966
 11
8.8406000757
 21
3.9393326088
  0
LINE
  5
3E9
100
AcDbEntity
  8
0
100
AcDbLine
 62
7
  6
CONTINUOUS
 10
9.156351075
 20
3.6396960985
 11
9.1633550116
 21
3.6329324756
  0
LINE
  5
3EA
100
AcDbEntity
  8
0
100
AcDbLine
 62
7
  6
CONTINUOUS
 10
8.2546824534
 20
4.1551027686
 11
8.2646824534
 21
4.1451027686
  0
LINE
  5
3EB
100
AcDbEntity
  8
0
100
AcDbLine
 62
7
  6
CONTINUOUS
 10
9.1633550116
 20
4.2157730616
 11
9.156351075
 21
4.2090094387
  0
LINE
  5
3EC
100
AcDbEntity
  8
0
100
AcDbLine
 62
7
  6
CONTINUOUS
 10
8.8406000757
 20
3.9093729284
 11
8.8334791644
 21
3.9027325712
  0
LINE
  5
3ED
100
AcDbEntity
  8
0
100
AcDbLine
 62
7
  6
CONTINUOUS
 10
9.1785561702
 20
4.2134413029
 11
9.1712078516
 21
4.207053507
  0
LINE
  5
3EE
100
AcDbEntity
  8
0
100
AcDbLine
 62
7
  6
CONTINUOUS
 10
8.8401974103
 20
3.9243527686
 11
8.8327489503
 21
3.9181027686
  0
LINE
  5
3EF
100
AcDbEntity
  8
0
100
AcDbLine
 62
7
  6
CONTINUOUS
 10
9.4122648311
 20
3.9093729284
 11
9.4200408397
 21
3.9152325712
  0
LINE
  5
3F0
100
AcDbEntity
  8
0
100
AcDbLine
 62
7
  6
CONTINUOUS
 10
9.0443762955
 20
3.6422963036
 11
9.0523520658
 21
3.647880998
  0
LINE
  5
3F1
100
AcDbEntity
  8
0
100
AcDbLine
 62
7
  6
CONTINUOUS
 10
9.4110891235
 20
3.894434147
 11
9.4191611454
 21
3.8998787945
  0
LINE
  5
3F2
100
AcDbEntity
  8
0
100
AcDbLine
 62
7
  6
CONTINUOUS
 10
9.0297351568
 20
3.6469745155
 11
9.0379809607
 21
3.6521270656
  0
LINE
  5
3F3
100
AcDbEntity
  8
0
100
AcDbLine
 62
7
  6
CONTINUOUS
 10
9.4201159565
 20
3.9181027686
 11
9.4126674966
 21
3.9243527686
  0
LINE
  5
3F4
100
AcDbEntity
  8
0
100
AcDbLine
 62
7
  6
CONTINUOUS
 10
9.0816570552
 20
4.207053507
 11
9.0743087366
 21
4.2134413029
  0
LINE
  5
3F5
100
AcDbEntity
  8
0
100
AcDbLine
 62
7
  6
CONTINUOUS
 10
9.4193857425
 20
3.9027325712
 11
9.4122648311
 21
3.9093729284
  0
LINE
  5
3F6
100
AcDbEntity
  8
0
100
AcDbLine
 62
7
  6
CONTINUOUS
 10
9.0965138318
 20
4.2090094387
 11
9.0895098952
 21
4.2157730616
  0
LINE
  5
3F7
100
AcDbEntity
  8
0
100
AcDbLine
 62
7
  6
CONTINUOUS
 10
8.8350121604
 20
3.9612753268
 11
8.8417757833
 21
3.9542713902
  0
LINE
  5
3F8
100
AcDbEntity
  8
0
100
AcDbLine
 62
7
  6
CONTINUOUS
 10
9.1414122936
 20
3.6385203909
 11
9.1480526508
 21
3.6313994796
  0
LINE
  5
3F9
100
AcDbEntity
  8
0
100
AcDbLine
 62
7
  6
CONTINUOUS
 10
8.8373439191
 20
3.9764764854
 11
8.843731715
 21
3.9691281668
  0
LINE
  5
3FA
100
AcDbEntity
  8
0
100
AcDbLine
 62
7
  6
CONTINUOUS
 10
9.1264324534
 20
3.6381177254
 11
9.1326824534
 21
3.6306692655
  0
LINE
  5
3FB
100
AcDbEntity
  8
0
100
AcDbLine
 62
7
  6
CONTINUOUS
 10
8.9451100191
 20
3.7009670393
 11
8.9446189799
 21
3.7015866297
  0
LINE
  5
3FC
100
AcDbEntity
  8
0
100
AcDbLine
 62
7
  6
CONTINUOUS
 10
8.8404680495
 20
3.9915347766
 11
8.8464625099
 21
3.9838622172
  0
LINE
  5
3FD
100
AcDbEntity
  8
0
100
AcDbLine
 62
7
  6
CONTINUOUS
 10
9.1114526133
 20
3.6385203909
 11
9.117312256
 21
3.6307443823
  0
LINE
  5
3FE
100
AcDbEntity
  8
0
100
AcDbLine
 62
7
  6
CONTINUOUS
 10
8.2146824534
 20
3.8736027686
 11
8.2146824534
 21
4.1551027686
  0
LINE
  5
3FF
100
AcDbEntity
  8
0
100
AcDbLine
 62
7
  6
CONTINUOUS
 10
8.2546824534
 20
3.8736027686
 11
8.2546824534
 21
4.1551027686
  0
LINE
  5
400
100
AcDbEntity
  8
0
100
AcDbLine
 62
7
  6
CONTINUOUS
 10
8.2646824534
 20
4.145102859
 11
8.2646824534
 21
3.8836026783
  0
LINE
  5
401
100
AcDbEntity
  8
0
100
AcDbLine
 62
7
  6
CONTINUOUS
 10
9.117312256
 20
4.2179611549
 11
9.1114526133
 21
4.2101851463
  0
LINE
  5
402
100
AcDbEntity
  8
0
100
AcDbLine
 62
7
  6
CONTINUOUS
 10
8.8464625099
 20
3.86484332
 11
8.8404680495
 21
3.8571707606
  0
LINE
  5
403
100
AcDbEntity
  8
0
100
AcDbLine
 62
7
  6
CONTINUOUS
 10
9.1326824534
 20
4.2180362717
 11
9.1264324534
 21
4.2105878118
  0
LINE
  5
404
100
AcDbEntity
  8
0
100
AcDbLine
 62
7
  6
CONTINUOUS
 10
8.843731715
 20
3.8795773704
 11
8.8373439191
 21
3.8722290518
  0
LINE
  5
405
100
AcDbEntity
  8
0
100
AcDbLine
 62
7
  6
CONTINUOUS
 10
9.1480526508
 20
4.2173060577
 11
9.1414122936
 21
4.2101851463
  0
LINE
  5
406
100
AcDbEntity
  8
0
100
AcDbLine
 62
7
  6
CONTINUOUS
 10
8.8417757833
 20
3.894434147
 11
8.8350121604
 21
3.8874302104
  0
LINE
  5
407
100
AcDbEntity
  8
0
100
AcDbLine
 62
7
  6
CONTINUOUS
 10
9.0895098952
 20
3.6329324756
 11
9.0965138318
 21
3.6396960985
  0
LINE
  5
408
100
AcDbEntity
  8
0
100
AcDbLine
 62
7
  6
CONTINUOUS
 10
9.4122648311
 20
3.9393326088
 11
9.4193857425
 21
3.945972966
  0
LINE
  5
409
100
AcDbEntity
  8
0
100
AcDbLine
 62
7
  6
CONTINUOUS
 10
9.0743087366
 20
3.6352642343
 11
9.0816570552
 21
3.6416520302
  0
LINE
  5
40A
100
AcDbEntity
  8
0
100
AcDbLine
 62
7
  6
CONTINUOUS
 10
9.4126674966
 20
3.9243527686
 11
9.4201159565
 21
3.9306027686
  0
LINE
  5
40B
100
AcDbEntity
  8
0
100
AcDbLine
 62
7
  6
CONTINUOUS
 10
9.0592504455
 20
3.6383883647
 11
9.0669230048
 21
3.6443828251
  0
LINE
  5
40C
100
AcDbEntity
  8
0
100
AcDbLine
 62
7
  6
CONTINUOUS
 10
9.4178527465
 20
3.8874302104
 11
9.4110891235
 21
3.894434147
  0
LINE
  5
40D
100
AcDbEntity
  8
0
100
AcDbLine
 62
7
  6
CONTINUOUS
 10
9.1114526133
 20
4.2101851463
 11
9.104812256
 21
4.2173060577
  0
LINE
  5
40E
100
AcDbEntity
  8
0
100
AcDbLine
 62
7
  6
CONTINUOUS
 10
9.4155209877
 20
3.8722290518
 11
9.4091331918
 21
3.8795773704
  0
LINE
  5
40F
100
AcDbEntity
  8
0
100
AcDbLine
 62
7
  6
CONTINUOUS
 10
9.1264324534
 20
4.2105878118
 11
9.1201824534
 21
4.2180362717
  0
LINE
  5
410
100
AcDbEntity
  8
0
100
AcDbLine
 62
7
  6
CONTINUOUS
 10
9.4123968573
 20
3.8571707606
 11
9.406402397
 21
3.86484332
  0
LINE
  5
411
100
AcDbEntity
  8
0
100
AcDbLine
 62
7
  6
CONTINUOUS
 10
8.8443759884
 20
4.0064089265
 11
8.8499606828
 21
3.9984331563
  0
LINE
  5
412
100
AcDbEntity
  8
0
100
AcDbLine
 62
7
  6
CONTINUOUS
 10
9.0965138318
 20
3.6396960985
 11
9.1019584793
 21
3.6316240767
  0
LINE
  5
413
100
AcDbEntity
  8
0
100
AcDbLine
 62
7
  6
CONTINUOUS
 10
8.8490542003
 20
4.0210500653
 11
8.8542067504
 21
4.0128042613
  0
LINE
  5
414
100
AcDbEntity
  8
0
100
AcDbLine
 62
7
  6
CONTINUOUS
 10
9.0816570552
 20
3.6416520302
 11
9.086671784
 21
3.63330612
  0
LINE
  5
415
100
AcDbEntity
  8
0
100
AcDbLine
 62
7
  6
CONTINUOUS
 10
8.8544983273
 20
4.0354423431
 11
8.8592187332
 21
4.0269265055
  0
LINE
  5
416
100
AcDbEntity
  8
0
100
AcDbLine
 62
7
  6
CONTINUOUS
 10
8.5389324534
 20
1.8313527686
 11
8.5389324534
 21
1.8738527686
  0
LINE
  5
417
100
AcDbEntity
  8
0
100
AcDbLine
 62
7
  6
CONTINUOUS
 10
8.8649532349
 20
3.8079347199
 11
8.8606849827
 21
3.799183506
  0
LINE
  5
418
100
AcDbEntity
  8
0
100
AcDbLine
 62
7
  6
CONTINUOUS
 10
9.0714940699
 20
4.2129196352
 11
9.0669230048
 21
4.2043227122
  0
LINE
  5
419
100
AcDbEntity
  8
0
100
AcDbLine
 62
7
  6
CONTINUOUS
 10
8.8592187332
 20
3.8217790317
 11
8.8544983273
 21
3.8132631941
  0
LINE
  5
41A
100
AcDbEntity
  8
0
100
AcDbLine
 62
7
  6
CONTINUOUS
 10
9.086671784
 20
4.2153994172
 11
9.0816570552
 21
4.207053507
  0
LINE
  5
41B
100
AcDbEntity
  8
0
100
AcDbLine
 62
7
  6
CONTINUOUS
 10
8.8542067504
 20
3.8359012759
 11
8.8490542003
 21
3.8276554719
  0
LINE
  5
41C
100
AcDbEntity
  8
0
100
AcDbLine
 62
7
  6
CONTINUOUS
 10
9.1019584793
 20
4.2170814606
 11
9.0965138318
 21
4.2090094387
  0
LINE
  5
41D
100
AcDbEntity
  8
0
100
AcDbLine
 62
7
  6
CONTINUOUS
 10
8.8499606828
 20
3.8502723809
 11
8.8443759884
 21
3.8422966107
  0
LINE
  5
41E
100
AcDbEntity
  8
0
100
AcDbLine
 62
7
  6
CONTINUOUS
 10
9.406402397
 20
3.9838622172
 11
9.4123968573
 21
3.9915347766
  0
LINE
  5
41F
100
AcDbEntity
  8
0
100
AcDbLine
 62
7
  6
CONTINUOUS
 10
9.1201824534
 20
3.6306692655
 11
9.1264324534
 21
3.6381177254
  0
LINE
  5
420
100
AcDbEntity
  8
0
100
AcDbLine
 62
7
  6
CONTINUOUS
 10
9.4091331918
 20
3.9691281668
 11
9.4155209877
 21
3.9764764854
  0
LINE
  5
421
100
AcDbEntity
  8
0
100
AcDbLine
 62
7
  6
CONTINUOUS
 10
9.104812256
 20
3.6313994796
 11
9.1114526133
 21
3.6385203909
  0
LINE
  5
422
100
AcDbEntity
  8
0
100
AcDbLine
 62
7
  6
CONTINUOUS
 10
9.4110891235
 20
3.9542713902
 11
9.4178527465
 21
3.9612753268
  0
LINE
  5
423
100
AcDbEntity
  8
0
100
AcDbLine
 62
7
  6
CONTINUOUS
 10
9.1414122936
 20
4.2101851463
 11
9.1355526508
 21
4.2179611549
  0
LINE
  5
424
100
AcDbEntity
  8
0
100
AcDbLine
 62
7
  6
CONTINUOUS
 10
9.4084889184
 20
3.8422966107
 11
9.402904224
 21
3.8502723809
  0
LINE
  5
425
100
AcDbEntity
  8
0
100
AcDbLine
 62
7
  6
CONTINUOUS
 10
9.156351075
 20
4.2090094387
 11
9.1509064276
 21
4.2170814606
  0
LINE
  5
426
100
AcDbEntity
  8
0
100
AcDbLine
 62
7
  6
CONTINUOUS
 10
9.4038107066
 20
3.8276554719
 11
9.3986581564
 21
3.8359012759
  0
LINE
  5
427
100
AcDbEntity
  8
0
100
AcDbLine
 62
7
  6
CONTINUOUS
 10
9.1712078516
 20
4.207053507
 11
9.1661931229
 21
4.2153994172
  0
LINE
  5
428
100
AcDbEntity
  8
0
100
AcDbLine
 62
7
  6
CONTINUOUS
 10
9.0669230048
 20
3.6443828251
 11
9.0714940699
 21
3.635785902
  0
LINE
  5
429
100
AcDbEntity
  8
0
100
AcDbLine
 62
7
  6
CONTINUOUS
 10
8.8606849827
 20
4.0495220312
 11
8.8649532349
 21
4.0407708173
  0
LINE
  5
42A
100
AcDbEntity
  8
0
100
AcDbLine
 62
7
  6
CONTINUOUS
 10
9.0523520658
 20
3.647880998
 11
9.0564669382
 21
3.6390566257
  0
LINE
  5
42B
100
AcDbEntity
  8
0
100
AcDbLine
 62
7
  6
CONTINUOUS
 10
8.8676000334
 20
4.0632586391
 11
8.871404433
 21
4.0542960353
  0
LINE
  5
42C
100
AcDbEntity
  8
0
100
AcDbLine
 62
7
  6
CONTINUOUS
 10
9.0379809607
 20
3.6521270656
 11
9.0416233632
 21
3.643111803
  0
LINE
  5
42D
100
AcDbEntity
  8
0
100
AcDbLine
 62
7
  6
CONTINUOUS
 10
8.8752245258
 20
4.0766145156
 11
8.8785546452
 21
4.0674650879
  0
LINE
  5
42E
100
AcDbEntity
  8
0
100
AcDbLine
 62
7
  6
CONTINUOUS
 10
9.0238587166
 20
3.6571390484
 11
9.0270286492
 21
3.6479328956
  0
LINE
  5
42F
100
AcDbEntity
  8
0
100
AcDbLine
 62
7
  6
CONTINUOUS
 10
8.9231924684
 20
4.1364437184
 11
8.9240410705
 21
4.1267441515
  0
LINE
  5
430
100
AcDbEntity
  8
0
100
AcDbLine
 62
7
  6
CONTINUOUS
 10
8.9581877164
 20
3.6927837543
 11
8.9588659777
 21
3.6830841658
  0
LINE
  5
431
100
AcDbEntity
  8
0
100
AcDbLine
 62
7
  6
CONTINUOUS
 10
8.9345709844
 20
4.1467898141
 11
8.9349107874
 21
4.1370591277
  0
LINE
  5
432
100
AcDbEntity
  8
0
100
AcDbLine
 62
7
  6
CONTINUOUS
 10
8.9463054519
 20
3.7019144466
 11
8.9464753793
 21
3.6921793119
  0
LINE
  5
433
100
AcDbEntity
  8
0
100
AcDbLine
 62
7
  6
CONTINUOUS
 10
8.8714324534
 20
2.3118527686
 11
8.8714324534
 21
2.2493527686
  0
LINE
  5
434
100
AcDbEntity
  8
0
100
AcDbLine
 62
7
  6
CONTINUOUS
 10
8.8764324534
 20
3.4993527686
 11
8.8764324534
 21
3.7701158011
  0
LINE
  5
435
100
AcDbEntity
  8
0
100
AcDbLine
 62
7
  6
CONTINUOUS
 10
8.8764324534
 20
3.7754097754
 11
8.8764324534
 21
3.781614649
  0
LINE
  5
436
100
AcDbEntity
  8
0
100
AcDbLine
 62
7
  6
CONTINUOUS
 10
8.9424324534
 20
2.1868527686
 11
8.9424324534
 21
2.1763527686
  0
LINE
  5
437
100
AcDbEntity
  8
0
100
AcDbLine
 62
7
  6
CONTINUOUS
 10
8.9464753793
 20
4.1565262253
 11
8.9463054519
 21
4.1467910906
  0
LINE
  5
438
100
AcDbEntity
  8
0
100
AcDbLine
 62
7
  6
CONTINUOUS
 10
8.9349107874
 20
3.7116464095
 11
8.9345709844
 21
3.7019157231
  0
LINE
  5
439
100
AcDbEntity
  8
0
100
AcDbLine
 62
7
  6
CONTINUOUS
 10
8.9588659777
 20
4.1656213714
 11
8.9581877164
 21
4.1559217829
  0
LINE
  5
43A
100
AcDbEntity
  8
0
100
AcDbLine
 62
7
  6
CONTINUOUS
 10
8.9240410705
 20
3.7219613857
 11
8.9231924684
 21
3.7122618188
  0
LINE
  5
43B
100
AcDbEntity
  8
0
100
AcDbLine
 62
7
  6
CONTINUOUS
 10
8.9717299376
 20
4.1740649912
 11
8.9705433424
 21
4.1644009488
  0
LINE
  5
43C
100
AcDbEntity
  8
0
100
AcDbLine
 62
7
  6
CONTINUOUS
 10
8.9137260943
 20
3.7328311026
 11
8.912371019
 21
3.7231892411
  0
LINE
  5
43D
100
AcDbEntity
  8
0
100
AcDbLine
 62
7
  6
CONTINUOUS
 10
8.98501088
 20
4.1818192734
 11
8.9833201341
 21
4.1722305769
  0
LINE
  5
43E
100
AcDbEntity
  8
0
100
AcDbLine
 62
7
  6
CONTINUOUS
 10
8.9039941314
 20
3.7442257671
 11
8.9021362972
 21
3.7346680386
  0
LINE
  5
43F
100
AcDbEntity
  8
0
100
AcDbLine
 62
7
  6
CONTINUOUS
 10
8.9986794491
 20
4.1888678577
 11
8.9964891867
 21
4.179380789
  0
LINE
  5
440
100
AcDbEntity
  8
0
100
AcDbLine
 62
7
  6
CONTINUOUS
 10
8.8948634391
 20
3.7561080315
 11
8.8925111663
 21
3.7466735804
  0
LINE
  5
441
100
AcDbEntity
  8
0
100
AcDbLine
 62
7
  6
CONTINUOUS
 10
9.0126981803
 20
4.1951914247
 11
9.0100144047
 21
4.1858319871
  0
LINE
  5
442
100
AcDbEntity
  8
0
100
AcDbLine
 62
7
  6
CONTINUOUS
 10
8.8863842732
 20
3.7684636576
 11
8.8835375617
 21
3.7591524839
  0
LINE
  5
443
100
AcDbEntity
  8
0
100
AcDbLine
 62
7
  6
CONTINUOUS
 10
9.0270286492
 20
4.2007726416
 11
9.0238587166
 21
4.1915664888
  0
LINE
  5
444
100
AcDbEntity
  8
0
100
AcDbLine
 62
7
  6
CONTINUOUS
 10
8.8785546452
 20
3.7812404493
 11
8.8752245258
 21
3.7720910216
  0
LINE
  5
445
100
AcDbEntity
  8
0
100
AcDbLine
 62
7
  6
CONTINUOUS
 10
9.0416233632
 20
4.2055937342
 11
9.0379809607
 21
4.1965784716
  0
LINE
  5
446
100
AcDbEntity
  8
0
100
AcDbLine
 62
7
  6
CONTINUOUS
 10
8.871404433
 20
3.7944095019
 11
8.8676000334
 21
3.7854468981
  0
LINE
  5
447
100
AcDbEntity
  8
0
100
AcDbLine
 62
7
  6
CONTINUOUS
 10
9.0564669382
 20
4.2096489115
 11
9.0523520658
 21
4.2008245392
  0
LINE
  5
448
100
AcDbEntity
  8
0
100
AcDbLine
 62
7
  6
CONTINUOUS
 10
9.1813708369
 20
3.635785902
 11
9.185941902
 21
3.6443828251
  0
LINE
  5
449
100
AcDbEntity
  8
0
100
AcDbLine
 62
7
  6
CONTINUOUS
 10
9.3936461736
 20
4.0269265055
 11
9.3983665795
 21
4.0354423431
  0
LINE
  5
44A
100
AcDbEntity
  8
0
100
AcDbLine
 62
7
  6
CONTINUOUS
 10
9.1661931229
 20
3.63330612
 11
9.1712078516
 21
3.6416520302
  0
LINE
  5
44B
100
AcDbEntity
  8
0
100
AcDbLine
 62
7
  6
CONTINUOUS
 10
9.3986581564
 20
4.0128042613
 11
9.4038107066
 21
4.0210500653
  0
LINE
  5
44C
100
AcDbEntity
  8
0
100
AcDbLine
 62
7
  6
CONTINUOUS
 10
9.1509064276
 20
3.6316240767
 11
9.156351075
 21
3.6396960985
  0
LINE
  5
44D
100
AcDbEntity
  8
0
100
AcDbLine
 62
7
  6
CONTINUOUS
 10
9.402904224
 20
3.9984331563
 11
9.4084889184
 21
4.0064089265
  0
LINE
  5
44E
100
AcDbEntity
  8
0
100
AcDbLine
 62
7
  6
CONTINUOUS
 10
9.1355526508
 20
3.6307443823
 11
9.1414122936
 21
3.6385203909
  0
LINE
  5
44F
100
AcDbEntity
  8
0
100
AcDbLine
 62
7
  6
CONTINUOUS
 10
9.3082446749
 20
3.701586873
 11
9.3077694638
 21
3.7009748791
  0
LINE
  5
450
100
AcDbEntity
  8
0
100
AcDbLine
 62
7
  6
CONTINUOUS
 10
9.3082562968
 20
3.7015816139
 11
9.3077766148
 21
3.7009715122
  0
LINE
  5
451
100
AcDbEntity
  8
0
100
AcDbLine
 62
7
  6
CONTINUOUS
 10
9.3983665795
 20
3.8132631941
 11
9.3936461736
 21
3.8217790317
  0
LINE
  5
452
100
AcDbEntity
  8
0
100
AcDbLine
 62
7
  6
CONTINUOUS
 10
9.185941902
 20
4.2043227122
 11
9.1813708369
 21
4.2129196352
  0
LINE
  5
453
100
AcDbEntity
  8
0
100
AcDbLine
 62
7
  6
CONTINUOUS
 10
9.3921799241
 20
3.799183506
 11
9.3879116719
 21
3.8079347199
  0
LINE
  5
454
100
AcDbEntity
  8
0
100
AcDbLine
 62
7
  6
CONTINUOUS
 10
9.2005128411
 20
4.2008245392
 11
9.1963979687
 21
4.2096489115
  0
LINE
  5
455
100
AcDbEntity
  8
0
100
AcDbLine
 62
7
  6
CONTINUOUS
 10
9.3852648734
 20
3.7854468981
 11
9.3814604738
 21
3.7944095019
  0
LINE
  5
456
100
AcDbEntity
  8
0
100
AcDbLine
 62
7
  6
CONTINUOUS
 10
9.2148839461
 20
4.1965784716
 11
9.2112415436
 21
4.2055937342
  0
LINE
  5
457
100
AcDbEntity
  8
0
100
AcDbLine
 62
7
  6
CONTINUOUS
 10
9.377640381
 20
3.7720910216
 11
9.3743102617
 21
3.7812404493
  0
LINE
  5
458
100
AcDbEntity
  8
0
100
AcDbLine
 62
7
  6
CONTINUOUS
 10
9.2290061903
 20
4.1915664888
 11
9.2258362576
 21
4.2007726416
  0
LINE
  5
459
100
AcDbEntity
  8
0
100
AcDbLine
 62
7
  6
CONTINUOUS
 10
8.8835375617
 20
4.0895530533
 11
8.8863842732
 21
4.0802418796
  0
LINE
  5
45A
100
AcDbEntity
  8
0
100
AcDbLine
 62
7
  6
CONTINUOUS
 10
9.0100144047
 20
3.6628735501
 11
9.0126981803
 21
3.6535141126
  0
LINE
  5
45B
100
AcDbEntity
  8
0
100
AcDbLine
 62
7
  6
CONTINUOUS
 10
8.8925111663
 20
4.1020319568
 11
8.8948634391
 21
4.0925975057
  0
LINE
  5
45C
100
AcDbEntity
  8
0
100
AcDbLine
 62
7
  6
CONTINUOUS
 10
8.9964891867
 20
3.6693247482
 11
8.9986794491
 21
3.6598376795
  0
LINE
  5
45D
100
AcDbEntity
  8
0
100
AcDbLine
 62
7
  6
CONTINUOUS
 10
8.9021362972
 20
4.1140374986
 11
8.9039941314
 21
4.1044797701
  0
LINE
  5
45E
100
AcDbEntity
  8
0
100
AcDbLine
 62
7
  6
CONTINUOUS
 10
8.9833201341
 20
3.6764749604
 11
8.98501088
 21
3.6668862638
  0
LINE
  5
45F
100
AcDbEntity
  8
0
100
AcDbLine
 62
7
  6
CONTINUOUS
 10
8.912371019
 20
4.1255162961
 11
8.9137260943
 21
4.1158744346
  0
LINE
  5
460
100
AcDbEntity
  8
0
100
AcDbLine
 62
7
  6
CONTINUOUS
 10
8.9705433424
 20
3.6843045884
 11
8.9717299376
 21
3.674640546
  0
LINE
  5
461
100
AcDbEntity
  8
0
100
AcDbLine
 62
7
  6
CONTINUOUS
 10
9.3296724385
 20
3.7122618188
 11
9.3288238363
 21
3.7219613857
  0
LINE
  5
462
100
AcDbEntity
  8
0
100
AcDbLine
 62
7
  6
CONTINUOUS
 10
9.2946771905
 20
4.1559217829
 11
9.2939989292
 21
4.1656213714
  0
LINE
  5
463
100
AcDbEntity
  8
0
100
AcDbLine
 62
7
  6
CONTINUOUS
 10
9.3182939225
 20
3.7019157231
 11
9.3179541194
 21
3.7116464095
  0
LINE
  5
464
100
AcDbEntity
  8
0
100
AcDbLine
 62
7
  6
CONTINUOUS
 10
9.3065594549
 20
4.1467910906
 11
9.3063895275
 21
4.1565262253
  0
LINE
  5
465
100
AcDbEntity
  8
0
100
AcDbLine
 62
7
  6
CONTINUOUS
 10
9.3104324534
 20
2.1868527686
 11
9.3104324534
 21
2.1763527686
  0
LINE
  5
466
100
AcDbEntity
  8
0
100
AcDbLine
 62
7
  6
CONTINUOUS
 10
9.3063895275
 20
3.6921793119
 11
9.3065594549
 21
3.7019144466
  0
LINE
  5
467
100
AcDbEntity
  8
0
100
AcDbLine
 62
7
  6
CONTINUOUS
 10
9.3179541194
 20
4.1370591277
 11
9.3182939225
 21
4.1467898141
  0
LINE
  5
468
100
AcDbEntity
  8
0
100
AcDbLine
 62
7
  6
CONTINUOUS
 10
9.2939989292
 20
3.6830841658
 11
9.2946771905
 21
3.6927837543
  0
LINE
  5
469
100
AcDbEntity
  8
0
100
AcDbLine
 62
7
  6
CONTINUOUS
 10
9.3288238363
 20
4.1267441515
 11
9.3296724385
 21
4.1364437184
  0
LINE
  5
46A
100
AcDbEntity
  8
0
100
AcDbLine
 62
7
  6
CONTINUOUS
 10
9.2811349692
 20
3.674640546
 11
9.2823215644
 21
3.6843045884
  0
LINE
  5
46B
100
AcDbEntity
  8
0
100
AcDbLine
 62
7
  6
CONTINUOUS
 10
9.3391388125
 20
4.1158744346
 11
9.3404938878
 21
4.1255162961
  0
LINE
  5
46C
100
AcDbEntity
  8
0
100
AcDbLine
 62
7
  6
CONTINUOUS
 10
9.2678540268
 20
3.6668862638
 11
9.2695447727
 21
3.6764749604
  0
LINE
  5
46D
100
AcDbEntity
  8
0
100
AcDbLine
 62
7
  6
CONTINUOUS
 10
9.3488707754
 20
4.1044797701
 11
9.3507286096
 21
4.1140374986
  0
LINE
  5
46E
100
AcDbEntity
  8
0
100
AcDbLine
 62
7
  6
CONTINUOUS
 10
9.2541854577
 20
3.6598376795
 11
9.2563757201
 21
3.6693247482
  0
LINE
  5
46F
100
AcDbEntity
  8
0
100
AcDbLine
 62
7
  6
CONTINUOUS
 10
9.3580014677
 20
4.0925975057
 11
9.3603537406
 21
4.1020319568
  0
LINE
  5
470
100
AcDbEntity
  8
0
100
AcDbLine
 62
7
  6
CONTINUOUS
 10
9.2401667266
 20
3.6535141126
 11
9.2428505021
 21
3.6628735501
  0
LINE
  5
471
100
AcDbEntity
  8
0
100
AcDbLine
 62
7
  6
CONTINUOUS
 10
9.3664806337
 20
4.0802418796
 11
9.3693273451
 21
4.0895530533
  0
LINE
  5
472
100
AcDbEntity
  8
0
100
AcDbLine
 62
7
  6
CONTINUOUS
 10
9.2258362576
 20
3.6479328956
 11
9.2290061903
 21
3.6571390484
  0
LINE
  5
473
100
AcDbEntity
  8
0
100
AcDbLine
 62
7
  6
CONTINUOUS
 10
9.3743102617
 20
4.0674650879
 11
9.377640381
 21
4.0766145156
  0
LINE
  5
474
100
AcDbEntity
  8
0
100
AcDbLine
 62
7
  6
CONTINUOUS
 10
9.2112415436
 20
3.643111803
 11
9.2148839461
 21
3.6521270656
  0
LINE
  5
475
100
AcDbEntity
  8
0
100
AcDbLine
 62
7
  6
CONTINUOUS
 10
9.3814604738
 20
4.0542960353
 11
9.3852648734
 21
4.0632586391
  0
LINE
  5
476
100
AcDbEntity
  8
0
100
AcDbLine
 62
7
  6
CONTINUOUS
 10
9.1963979687
 20
3.6390566257
 11
9.2005128411
 21
3.647880998
  0
LINE
  5
477
100
AcDbEntity
  8
0
100
AcDbLine
 62
7
  6
CONTINUOUS
 10
9.3879116719
 20
4.0407708173
 11
9.3921799241
 21
4.0495220312
  0
LINE
  5
478
100
AcDbEntity
  8
0
100
AcDbLine
 62
7
  6
CONTINUOUS
 10
9.3693273451
 20
3.7591524839
 11
9.3664806337
 21
3.7684636576
  0
LINE
  5
479
100
AcDbEntity
  8
0
100
AcDbLine
 62
7
  6
CONTINUOUS
 10
9.2428505021
 20
4.1858319871
 11
9.2401667266
 21
4.1951914247
  0
LINE
  5
47A
100
AcDbEntity
  8
0
100
AcDbLine
 62
7
  6
CONTINUOUS
 10
9.3603537406
 20
3.7466735804
 11
9.3580014677
 21
3.7561080315
  0
LINE
  5
47B
100
AcDbEntity
  8
0
100
AcDbLine
 62
7
  6
CONTINUOUS
 10
9.2563757201
 20
4.179380789
 11
9.2541854577
 21
4.1888678577
  0
LINE
  5
47C
100
AcDbEntity
  8
0
100
AcDbLine
 62
7
  6
CONTINUOUS
 10
9.3507286096
 20
3.7346680386
 11
9.3488707754
 21
3.7442257671
  0
LINE
  5
47D
100
AcDbEntity
  8
0
100
AcDbLine
 62
7
  6
CONTINUOUS
 10
9.2695447727
 20
4.1722305769
 11
9.2678540268
 21
4.1818192734
  0
LINE
  5
47E
100
AcDbEntity
  8
0
100
AcDbLine
 62
7
  6
CONTINUOUS
 10
9.3404938878
 20
3.7231892411
 11
9.3391388125
 21
3.7328311026
  0
LINE
  5
47F
100
AcDbEntity
  8
0
100
AcDbLine
 62
7
  6
CONTINUOUS
 10
9.2823215644
 20
4.1644009488
 11
9.2811349692
 21
4.1740649912
  0
LINE
  5
480
100
AcDbEntity
  8
0
100
AcDbLine
 62
7
  6
CONTINUOUS
 10
9.3764324534
 20
3.4993527686
 11
9.3764324534
 21
3.7701158011
  0
LINE
  5
481
100
AcDbEntity
  8
0
100
AcDbLine
 62
7
  6
CONTINUOUS
 10
9.3764324534
 20
3.7754097754
 11
9.3764324534
 21
3.781614649
  0
LINE
  5
482
100
AcDbEntity
  8
0
100
AcDbLine
 62
7
  6
CONTINUOUS
 10
9.3814324534
 20
2.3118527686
 11
9.3814324534
 21
2.2493527686
  0
LINE
  5
483
100
AcDbEntity
  8
0
100
AcDbLine
 62
7
  6
CONTINUOUS
 10
9.7139324534
 20
1.8313527686
 11
9.7139324534
 21
1.8738527686
  0
LINE
  5
484
100
AcDbEntity
  8
0
100
AcDbLine
 62
7
  6
CONTINUOUS
 10
9.7139324534
 20
1.8313527686
 11
9.7039324534
 21
1.8213527686
  0
ARC
  5
485
100
AcDbEntity
  8
0
100
AcDbCircle
 62
7
  6
CONTINUOUS
 10
2.6834324534
 20
2.5838930061
 40
0.318
100
AcDbArc
 50
345.1156903923
 51
36.549446714
  0
ARC
  5
486
100
AcDbEntity
  8
0
100
AcDbCircle
 62
7
  6
CONTINUOUS
 10
2.5694324534
 20
2.5838930061
 40
0.318
100
AcDbArc
 50
143.450553286
 51
194.8843096077
  0
ARC
  5
487
100
AcDbEntity
  8
0
100
AcDbCircle
 62
7
  6
CONTINUOUS
 10
2.0974324534
 20
2.1329329515
 40
0.254
100
AcDbArc
 50
284.6669095294
 51
14.8843096077
  0
ARC
  5
488
100
AcDbEntity
  8
0
100
AcDbCircle
 62
7
  6
CONTINUOUS
 10
3.1554324534
 20
2.1329329515
 40
0.254
100
AcDbArc
 50
165.1156903923
 51
255.3330904706
  0
ARC
  5
489
100
AcDbEntity
  8
0
100
AcDbCircle
 62
7
  6
CONTINUOUS
 10
2.1633424534
 20
2.8849264958
 40
0.1875
100
AcDbArc
 50
323.450553286
 51
360.0
  0
ARC
  5
48A
100
AcDbEntity
  8
0
100
AcDbCircle
 62
7
  6
CONTINUOUS
 10
3.0895224534
 20
2.8849264958
 40
0.1875
100
AcDbArc
 50
180.0
 51
216.549446714
  0
ARC
  5
48B
100
AcDbEntity
  8
0
100
AcDbCircle
 62
7
  6
CONTINUOUS
 10
2.1666824534
 20
1.8408527686
 40
0.0195
100
AcDbArc
 50
180.0
 51
270.0
  0
ARC
  5
48C
100
AcDbEntity
  8
0
100
AcDbCircle
 62
7
  6
CONTINUOUS
 10
3.0861824534
 20
1.8408527686
 40
0.0195
100
AcDbArc
 50
270.0
 51
360.0
  0
ARC
  5
48D
100
AcDbEntity
  8
0
100
AcDbCircle
 62
7
  6
CONTINUOUS
 10
2.1666824534
 20
1.8683451825
 40
0.0195
100
AcDbArc
 50
104.6669095294
 51
180.0
  0
ARC
  5
48E
100
AcDbEntity
  8
0
100
AcDbCircle
 62
7
  6
CONTINUOUS
 10
3.0861824534
 20
1.8683451825
 40
0.0195
100
AcDbArc
 50
0.0
 51
75.3330904706
  0
ARC
  5
48F
100
AcDbEntity
  8
0
100
AcDbCircle
 62
7
  6
CONTINUOUS
 10
2.1314517227
 20
3.2221260201
 40
0.2345
100
AcDbArc
 50
322.0339977482
 51
353.0751017558
  0
ARC
  5
490
100
AcDbEntity
  8
0
100
AcDbCircle
 62
7
  6
CONTINUOUS
 10
2.257366431
 20
3.9101297628
 40
0.68
100
AcDbArc
 50
17.6982774827
 51
21.2739720086
  0
ARC
  5
491
100
AcDbEntity
  8
0
100
AcDbCircle
 62
7
  6
CONTINUOUS
 10
1.1269428701
 20
4.0143527686
 40
0.1867604167
100
AcDbArc
 50
137.9864211385
 51
222.0135788615
  0
ARC
  5
492
100
AcDbEntity
  8
0
100
AcDbCircle
 62
7
  6
CONTINUOUS
 10
2.6264324534
 20
3.4895160726
 40
0.775336696
100
AcDbArc
 50
75.2370022574
 51
82.8689275621
  0
ARC
  5
493
100
AcDbEntity
  8
0
100
AcDbCircle
 62
7
  6
CONTINUOUS
 10
2.6264324534
 20
3.4895160726
 40
0.775336696
100
AcDbArc
 50
99.221579184
 51
104.7629977426
  0
ARC
  5
494
100
AcDbEntity
  8
0
100
AcDbCircle
 62
7
  6
CONTINUOUS
 10
2.6264324534
 20
3.4895160726
 40
0.775336696
100
AcDbArc
 50
92.9572301428
 51
94.3827253199
  0
ARC
  5
495
100
AcDbEntity
  8
0
100
AcDbCircle
 62
7
  6
CONTINUOUS
 10
2.6264324534
 20
3.4895160726
 40
0.775336696
100
AcDbArc
 50
84.2076250178
 51
87.1537590823
  0
ARC
  5
496
100
AcDbEntity
  8
0
100
AcDbCircle
 62
7
  6
CONTINUOUS
 10
2.6264324534
 20
3.4895160726
 40
0.775336696
100
AcDbArc
 50
88.473827208
 51
91.6148836456
  0
ARC
  5
497
100
AcDbEntity
  8
0
100
AcDbCircle
 62
7
  6
CONTINUOUS
 10
2.6264324534
 20
3.4895160726
 40
0.7753341165
100
AcDbArc
 50
96.0895835634
 51
97.5036217175
  0
ARC
  5
498
100
AcDbEntity
  8
0
100
AcDbCircle
 62
7
  6
CONTINUOUS
 10
2.6264324534
 20
3.4895160726
 40
0.774836696
100
AcDbArc
 50
82.8687745639
 51
84.2038744154
  0
ARC
  5
499
100
AcDbEntity
  8
0
100
AcDbCircle
 62
7
  6
CONTINUOUS
 10
2.6264324534
 20
3.4895160726
 40
0.774836696
100
AcDbArc
 50
94.3855590149
 51
95.8683848097
  0
ARC
  5
49A
100
AcDbEntity
  8
0
100
AcDbCircle
 62
7
  6
CONTINUOUS
 10
2.6264324534
 20
3.4895160726
 40
0.774836696
100
AcDbArc
 50
97.732447971
 51
99.2216419429
  0
ARC
  5
49B
100
AcDbEntity
  8
0
100
AcDbCircle
 62
7
  6
CONTINUOUS
 10
2.6264324534
 20
3.4895160726
 40
0.774836696
100
AcDbArc
 50
91.6159260019
 51
92.3356910414
  0
ARC
  5
49C
100
AcDbEntity
  8
0
100
AcDbCircle
 62
7
  6
CONTINUOUS
 10
2.6264324534
 20
3.4895160726
 40
0.774836696
100
AcDbArc
 50
87.7881546163
 51
88.4728421397
  0
ARC
  5
49D
100
AcDbEntity
  8
0
100
AcDbCircle
 62
7
  6
CONTINUOUS
 10
2.6264324534
 20
3.4895160726
 40
0.7741710032
100
AcDbArc
 50
93.7772047905
 51
96.4896726718
  0
ARC
  5
49E
100
AcDbEntity
  8
0
100
AcDbCircle
 62
7
  6
CONTINUOUS
 10
2.6264324534
 20
3.4895160726
 40
0.7741710032
100
AcDbArc
 50
97.1232192299
 51
99.8547367444
  0
ARC
  5
49F
100
AcDbEntity
  8
0
100
AcDbCircle
 62
7
  6
CONTINUOUS
 10
2.6264324534
 20
3.4895160726
 40
0.7741710032
100
AcDbArc
 50
82.1676580455
 51
84.8865797045
  0
ARC
  5
4A0
100
AcDbEntity
  8
0
100
AcDbCircle
 62
7
  6
CONTINUOUS
 10
3.1214131842
 20
3.2221260201
 40
0.2345
100
AcDbArc
 50
186.9248982442
 51
217.9660022518
  0
ARC
  5
4A1
100
AcDbEntity
  8
0
100
AcDbCircle
 62
7
  6
CONTINUOUS
 10
3.3911824534
 20
3.1001370944
 40
0.15
100
AcDbArc
 50
187.9648629668
 51
213.6282289586
  0
ARC
  5
4A2
100
AcDbEntity
  8
0
100
AcDbCircle
 62
7
  6
CONTINUOUS
 10
2.8996824534
 20
3.0491027686
 40
0.04675
100
AcDbArc
 50
271.7773055868
 51
325.9520250909
  0
ARC
  5
4A3
100
AcDbEntity
  8
0
100
AcDbCircle
 62
7
  6
CONTINUOUS
 10
2.8996824534
 20
3.0491027686
 40
0.04675
100
AcDbArc
 50
34.0479749091
 51
37.9660022518
  0
ARC
  5
4A4
100
AcDbEntity
  8
0
100
AcDbCircle
 62
7
  6
CONTINUOUS
 10
2.3531824534
 20
3.0491027686
 40
0.04675
100
AcDbArc
 50
214.0479749091
 51
268.2226944132
  0
ARC
  5
4A5
100
AcDbEntity
  8
0
100
AcDbCircle
 62
7
  6
CONTINUOUS
 10
2.3457431642
 20
3.0569089466
 40
0.032826752
100
AcDbArc
 50
34.0690246025
 51
39.6670205195
  0
ARC
  5
4A6
100
AcDbEntity
  8
0
100
AcDbCircle
 62
7
  6
CONTINUOUS
 10
2.3413467669
 20
3.0571386643
 40
0.0324441395
100
AcDbArc
 50
140.362956576
 51
146.0079158536
  0
ARC
  5
4A7
100
AcDbEntity
  8
0
100
AcDbCircle
 62
7
  6
CONTINUOUS
 10
2.9954984758
 20
3.9101297628
 40
0.68
100
AcDbArc
 50
158.7260279914
 51
162.3017225173
  0
ARC
  5
4A8
100
AcDbEntity
  8
0
100
AcDbCircle
 62
7
  6
CONTINUOUS
 10
3.1526824534
 20
4.0143527686
 40
0.125
100
AcDbArc
 50
235.0995
 51
124.9005
  0
ARC
  5
4A9
100
AcDbEntity
  8
0
100
AcDbCircle
 62
7
  6
CONTINUOUS
 10
2.9669663144
 20
3.8508527686
 40
0.093
100
AcDbArc
 50
46.6958241996
 51
131.6319105028
  0
ARC
  5
4AA
100
AcDbEntity
  8
0
100
AcDbCircle
 62
7
  6
CONTINUOUS
 10
2.8101824534
 20
3.6323527686
 40
0.025
100
AcDbArc
 50
6.9248982442
 51
90.0
  0
ARC
  5
4AB
100
AcDbEntity
  8
0
100
AcDbCircle
 62
7
  6
CONTINUOUS
 10
2.4426824534
 20
3.6323527686
 40
0.025
100
AcDbArc
 50
90.0
 51
173.0751017558
  0
ARC
  5
4AC
100
AcDbEntity
  8
0
100
AcDbCircle
 62
7
  6
CONTINUOUS
 10
3.0520030653
 20
3.9224229149
 40
0.008
100
AcDbArc
 50
55.0995
 51
166.0407512246
  0
ARC
  5
4AD
100
AcDbEntity
  8
0
100
AcDbCircle
 62
7
  6
CONTINUOUS
 10
3.036239325
 20
3.9243527686
 40
0.008
100
AcDbArc
 50
226.6958241996
 51
360.0
  0
ARC
  5
4AE
100
AcDbEntity
  8
0
100
AcDbCircle
 62
7
  6
CONTINUOUS
 10
4.0411824534
 20
3.5828527686
 40
0.7810035
100
AcDbArc
 50
90.0
 51
180.0
  0
ARC
  5
4AF
100
AcDbEntity
  8
0
100
AcDbCircle
 62
7
  6
CONTINUOUS
 10
5.2116824534
 20
3.5828527686
 40
0.7810035
100
AcDbArc
 50
0.0
 51
90.0
  0
ARC
  5
4B0
100
AcDbEntity
  8
0
100
AcDbCircle
 62
7
  6
CONTINUOUS
 10
4.0411824534
 20
3.5828527686
 40
0.3439965
100
AcDbArc
 50
90.0
 51
180.0
  0
ARC
  5
4B1
100
AcDbEntity
  8
0
100
AcDbCircle
 62
7
  6
CONTINUOUS
 10
5.2116824534
 20
3.5828527686
 40
0.3439965
100
AcDbArc
 50
0.0
 51
90.0
  0
ARC
  5
4B2
100
AcDbEntity
  8
0
100
AcDbCircle
 62
7
  6
CONTINUOUS
 10
3.5661824534
 20
3.1001370944
 40
0.15
100
AcDbArc
 50
324.9544544405
 51
352.0351370254
  0
ARC
  5
4B3
100
AcDbEntity
  8
0
100
AcDbCircle
 62
7
  6
CONTINUOUS
 10
5.6866824534
 20
3.1001370944
 40
0.15
100
AcDbArc
 50
187.9648629677
 51
215.045553016
  0
ARC
  5
4B4
100
AcDbEntity
  8
0
100
AcDbCircle
 62
7
  6
CONTINUOUS
 10
4.9982289633
 20
3.8643492686
 40
0.0625
100
AcDbArc
 50
90.0
 51
142.9180414918
  0
ARC
  5
4B5
100
AcDbEntity
  8
0
100
AcDbCircle
 62
7
  6
CONTINUOUS
 10
4.2546359435
 20
3.8643492686
 40
0.0625
100
AcDbArc
 50
37.0819585082
 51
90.0
  0
ARC
  5
4B6
100
AcDbEntity
  8
0
100
AcDbCircle
 62
7
  6
CONTINUOUS
 10
3.3976824534
 20
5.0716022718
 40
1.0
100
AcDbArc
 50
341.8050916615
 51
18.1949083385
  0
ARC
  5
4B7
100
AcDbEntity
  8
0
100
AcDbCircle
 62
7
  6
CONTINUOUS
 10
2.9905818438
 20
4.1333936764
 40
0.68
100
AcDbArc
 50
199.0137742001
 51
202.5744557109
  0
ARC
  5
4B8
100
AcDbEntity
  8
0
100
AcDbCircle
 62
7
  6
CONTINUOUS
 10
2.262283063
 20
4.1333936764
 40
0.68
100
AcDbArc
 50
337.4255442891
 51
340.9862257999
  0
ARC
  5
4B9
100
AcDbEntity
  8
0
100
AcDbCircle
 62
7
  6
CONTINUOUS
 10
4.6264324534
 20
5.8232375566
 40
0.46
100
AcDbArc
 50
114.0553549574
 51
233.6280600203
  0
ARC
  5
4BA
100
AcDbEntity
  8
0
100
AcDbCircle
 62
7
  6
CONTINUOUS
 10
4.6264324534
 20
5.8232375566
 40
0.46
100
AcDbArc
 50
306.3719399797
 51
65.9446450426
  0
ARC
  5
4BB
100
AcDbEntity
  8
0
100
AcDbCircle
 62
7
  6
CONTINUOUS
 10
2.4160845957
 20
4.6697630794
 40
0.424130571
100
AcDbArc
 50
280.5764261394
 51
280.7128726235
  0
ARC
  5
4BC
100
AcDbEntity
  8
0
100
AcDbCircle
 62
7
  6
CONTINUOUS
 10
2.4176158972
 20
4.6608422853
 40
0.4155795129
100
AcDbArc
 50
280.5947987424
 51
280.7210448829
  0
ARC
  5
4BD
100
AcDbEntity
  8
0
100
AcDbCircle
 62
7
  6
CONTINUOUS
 10
2.4870019395
 20
4.669179286
 40
0.4131602953
100
AcDbArc
 50
277.2206595633
 51
277.3494901279
  0
ARC
  5
4BE
100
AcDbEntity
  8
0
100
AcDbCircle
 62
7
  6
CONTINUOUS
 10
2.487895687
 20
4.6614265258
 40
0.4058562999
100
AcDbArc
 50
277.233174237
 51
277.35526563
  0
ARC
  5
4BF
100
AcDbEntity
  8
0
100
AcDbCircle
 62
7
  6
CONTINUOUS
 10
4.6264324534
 20
4.1453527686
 40
0.4035425
100
AcDbArc
 50
142.0506496105
 51
142.9180414918
  0
ARC
  5
4C0
100
AcDbEntity
  8
0
100
AcDbCircle
 62
7
  6
CONTINUOUS
 10
4.6264324534
 20
4.1453527686
 40
0.4035425
100
AcDbArc
 50
37.0819585082
 51
37.9493503895
  0
ARC
  5
4C1
100
AcDbEntity
  8
0
100
AcDbCircle
 62
7
  6
CONTINUOUS
 10
4.6264324534
 20
4.1453527686
 40
0.4035425
100
AcDbArc
 50
217.0819585082
 51
322.9180414918
  0
ARC
  5
4C2
100
AcDbEntity
  8
0
100
AcDbCircle
 62
7
  6
CONTINUOUS
 10
2.4856761142
 20
4.6584265081
 40
0.402639936
100
AcDbArc
 50
276.2471779586
 51
276.3820289832
  0
ARC
  5
4C3
100
AcDbEntity
  8
0
100
AcDbCircle
 62
7
  6
CONTINUOUS
 10
2.5543964337
 20
4.6593381118
 40
0.3973231938
100
AcDbArc
 50
272.8993035535
 51
273.034907003
  0
ARC
  5
4C4
100
AcDbEntity
  8
0
100
AcDbCircle
 62
7
  6
CONTINUOUS
 10
4.6264324534
 20
5.8232375566
 40
0.2595
100
AcDbArc
 50
136.2659360816
 51
223.7340639184
  0
ARC
  5
4C5
100
AcDbEntity
  8
0
100
AcDbCircle
 62
7
  6
CONTINUOUS
 10
4.6264324534
 20
5.8232375566
 40
0.2595
100
AcDbArc
 50
316.2659360816
 51
43.7340639184
  0
ARC
  5
4C6
100
AcDbEntity
  8
0
100
AcDbCircle
 62
7
  6
CONTINUOUS
 10
4.6264324534
 20
5.8232375566
 40
0.2195
100
AcDbArc
 50
148.6741619909
 51
211.3258380091
  0
ARC
  5
4C7
100
AcDbEntity
  8
0
100
AcDbCircle
 62
7
  6
CONTINUOUS
 10
4.6264324534
 20
5.8232375566
 40
0.2195
100
AcDbArc
 50
328.6741619909
 51
31.3258380091
  0
ARC
  5
4C8
100
AcDbEntity
  8
0
100
AcDbCircle
 62
7
  6
CONTINUOUS
 10
4.6264324534
 20
6.3413874387
 40
0.1875
100
AcDbArc
 50
0.0
 51
180.0
  0
ARC
  5
4C9
100
AcDbEntity
  8
0
100
AcDbCircle
 62
7
  6
CONTINUOUS
 10
2.9669663144
 20
4.1778527686
 40
0.093
100
AcDbArc
 50
228.3680894972
 51
313.3041758004
  0
ARC
  5
4CA
100
AcDbEntity
  8
0
100
AcDbCircle
 62
7
  6
CONTINUOUS
 10
4.9982289633
 20
4.4263562686
 40
0.0625
100
AcDbArc
 50
217.0819585082
 51
270.0
  0
ARC
  5
4CB
100
AcDbEntity
  8
0
100
AcDbCircle
 62
7
  6
CONTINUOUS
 10
4.2546359435
 20
4.4263562686
 40
0.0625
100
AcDbArc
 50
270.0
 51
322.9180414918
  0
ARC
  5
4CC
100
AcDbEntity
  8
0
100
AcDbCircle
 62
7
  6
CONTINUOUS
 10
4.2589324534
 20
4.4319524228
 40
0.0625
100
AcDbArc
 50
322.0506496105
 51
360.0
  0
ARC
  5
4CD
100
AcDbEntity
  8
0
100
AcDbCircle
 62
7
  6
CONTINUOUS
 10
4.9939324534
 20
4.4319524228
 40
0.0625
100
AcDbArc
 50
180.0
 51
217.9493503895
  0
ARC
  5
4CE
100
AcDbEntity
  8
0
100
AcDbCircle
 62
7
  6
CONTINUOUS
 10
4.3479324534
 20
4.7278527686
 40
0.0315
100
AcDbArc
 50
90.4550900491
 51
270.0
  0
ARC
  5
4CF
100
AcDbEntity
  8
0
100
AcDbCircle
 62
7
  6
CONTINUOUS
 10
4.9049324534
 20
4.7278527686
 40
0.0315
100
AcDbArc
 50
270.0
 51
89.5449099509
  0
ARC
  5
4D0
100
AcDbEntity
  8
0
100
AcDbCircle
 62
7
  6
CONTINUOUS
 10
4.3476824534
 20
5.4151027686
 40
0.03125
100
AcDbArc
 50
90.0
 51
269.99964029
  0
ARC
  5
4D1
100
AcDbEntity
  8
0
100
AcDbCircle
 62
7
  6
CONTINUOUS
 10
4.9051824534
 20
5.4151027686
 40
0.03125
100
AcDbArc
 50
270.00035971
 51
90.0
  0
ARC
  5
4D2
100
AcDbEntity
  8
0
100
AcDbCircle
 62
7
  6
CONTINUOUS
 10
2.4326824534
 20
4.2247526528
 40
0.015
100
AcDbArc
 50
104.7629977426
 51
170.0159621261
  0
ARC
  5
4D3
100
AcDbEntity
  8
0
100
AcDbCircle
 62
7
  6
CONTINUOUS
 10
2.8201824534
 20
4.2247526528
 40
0.015
100
AcDbArc
 50
9.9840378739
 51
75.2370022574
  0
ARC
  5
4D4
100
AcDbEntity
  8
0
100
AcDbCircle
 62
7
  6
CONTINUOUS
 10
4.3314324534
 20
4.6863527686
 40
0.01
100
AcDbArc
 50
90.0
 51
180.0
  0
ARC
  5
4D5
100
AcDbEntity
  8
0
100
AcDbCircle
 62
7
  6
CONTINUOUS
 10
4.9214324534
 20
4.6863527686
 40
0.01
100
AcDbArc
 50
0.0
 51
90.0
  0
ARC
  5
4D6
100
AcDbEntity
  8
0
100
AcDbCircle
 62
7
  6
CONTINUOUS
 10
3.0520030653
 20
4.1062826224
 40
0.008
100
AcDbArc
 50
193.9592487754
 51
304.9005
  0
ARC
  5
4D7
100
AcDbEntity
  8
0
100
AcDbCircle
 62
7
  6
CONTINUOUS
 10
3.036239325
 20
4.1043527686
 40
0.008
100
AcDbArc
 50
0.0
 51
133.3041758004
  0
ARC
  5
4D8
100
AcDbEntity
  8
0
100
AcDbCircle
 62
7
  6
CONTINUOUS
 10
7.8734324534
 20
2.8338527686
 40
1.5265
100
AcDbArc
 50
346.7644365334
 51
13.2162850744
  0
ARC
  5
4D9
100
AcDbEntity
  8
0
100
AcDbCircle
 62
7
  6
CONTINUOUS
 10
6.6834324534
 20
2.5838930061
 40
0.318
100
AcDbArc
 50
345.1156903923
 51
36.549446714
  0
ARC
  5
4DA
100
AcDbEntity
  8
0
100
AcDbCircle
 62
7
  6
CONTINUOUS
 10
6.5694324534
 20
2.5838930061
 40
0.318
100
AcDbArc
 50
143.450553286
 51
194.8843096077
  0
ARC
  5
4DB
100
AcDbEntity
  8
0
100
AcDbCircle
 62
7
  6
CONTINUOUS
 10
6.0974324534
 20
2.1329329515
 40
0.254
100
AcDbArc
 50
284.6669095294
 51
14.8843096077
  0
ARC
  5
4DC
100
AcDbEntity
  8
0
100
AcDbCircle
 62
7
  6
CONTINUOUS
 10
7.1554324534
 20
2.1329329515
 40
0.254
100
AcDbArc
 50
165.1156903923
 51
255.3330904706
  0
ARC
  5
4DD
100
AcDbEntity
  8
0
100
AcDbCircle
 62
7
  6
CONTINUOUS
 10
6.1633424534
 20
2.8849264958
 40
0.1875
100
AcDbArc
 50
323.450553286
 51
360.0
  0
ARC
  5
4DE
100
AcDbEntity
  8
0
100
AcDbCircle
 62
7
  6
CONTINUOUS
 10
7.0895224534
 20
2.8849264958
 40
0.1875
100
AcDbArc
 50
180.0
 51
216.549446714
  0
ARC
  5
4DF
100
AcDbEntity
  8
0
100
AcDbCircle
 62
7
  6
CONTINUOUS
 10
6.1666824534
 20
1.8408527686
 40
0.0195
100
AcDbArc
 50
180.0
 51
270.0
  0
ARC
  5
4E0
100
AcDbEntity
  8
0
100
AcDbCircle
 62
7
  6
CONTINUOUS
 10
7.0861824534
 20
1.8408527686
 40
0.0195
100
AcDbArc
 50
270.0
 51
360.0
  0
ARC
  5
4E1
100
AcDbEntity
  8
0
100
AcDbCircle
 62
7
  6
CONTINUOUS
 10
6.1666824534
 20
1.8683451825
 40
0.0195
100
AcDbArc
 50
104.6669095294
 51
180.0
  0
ARC
  5
4E2
100
AcDbEntity
  8
0
100
AcDbCircle
 62
7
  6
CONTINUOUS
 10
7.0861824534
 20
1.8683451825
 40
0.0195
100
AcDbArc
 50
0.0
 51
75.3330904706
  0
ARC
  5
4E3
100
AcDbEntity
  8
0
100
AcDbCircle
 62
7
  6
CONTINUOUS
 10
6.1314517227
 20
3.2221260201
 40
0.2345
100
AcDbArc
 50
322.0339977482
 51
353.0751017558
  0
ARC
  5
4E4
100
AcDbEntity
  8
0
100
AcDbCircle
 62
7
  6
CONTINUOUS
 10
5.8616824534
 20
3.1001370944
 40
0.15
100
AcDbArc
 50
326.3717521126
 51
352.0351370246
  0
ARC
  5
4E5
100
AcDbEntity
  8
0
100
AcDbCircle
 62
7
  6
CONTINUOUS
 10
6.3531824534
 20
3.0491027686
 40
0.04675
100
AcDbArc
 50
214.0479749091
 51
268.2226944132
  0
ARC
  5
4E6
100
AcDbEntity
  8
0
100
AcDbCircle
 62
7
  6
CONTINUOUS
 10
6.3531824534
 20
3.0491027686
 40
0.04675
100
AcDbArc
 50
142.0339977482
 51
145.9520250909
  0
ARC
  5
4E7
100
AcDbEntity
  8
0
100
AcDbCircle
 62
7
  6
CONTINUOUS
 10
6.257366431
 20
3.9101297628
 40
0.68
100
AcDbArc
 50
17.6982774827
 51
21.2739720086
  0
ARC
  5
4E8
100
AcDbEntity
  8
0
100
AcDbCircle
 62
7
  6
CONTINUOUS
 10
6.1001824534
 20
4.0143527686
 40
0.125
100
AcDbArc
 50
55.0995
 51
304.9005
  0
ARC
  5
4E9
100
AcDbEntity
  8
0
100
AcDbCircle
 62
7
  6
CONTINUOUS
 10
6.2858985925
 20
3.8508527686
 40
0.093
100
AcDbArc
 50
48.3680894972
 51
133.3041758004
  0
ARC
  5
4EA
100
AcDbEntity
  8
0
100
AcDbCircle
 62
7
  6
CONTINUOUS
 10
6.4426824534
 20
3.6323527686
 40
0.025
100
AcDbArc
 50
90.0
 51
173.0751017558
  0
ARC
  5
4EB
100
AcDbEntity
  8
0
100
AcDbCircle
 62
7
  6
CONTINUOUS
 10
6.2008618415
 20
3.9224229149
 40
0.008
100
AcDbArc
 50
13.9592487754
 51
124.9005
  0
ARC
  5
4EC
100
AcDbEntity
  8
0
100
AcDbCircle
 62
7
  6
CONTINUOUS
 10
6.2166255819
 20
3.9243527686
 40
0.008
100
AcDbArc
 50
180.0
 51
313.3041758004
  0
ARC
  5
4ED
100
AcDbEntity
  8
0
100
AcDbCircle
 62
7
  6
CONTINUOUS
 10
6.6264324534
 20
3.4895177609
 40
0.7753350077
100
AcDbArc
 50
78.0669933483
 51
81.2354682492
  0
ARC
  5
4EE
100
AcDbEntity
  8
0
100
AcDbCircle
 62
7
  6
CONTINUOUS
 10
6.6264324534
 20
3.4895177609
 40
0.7753350077
100
AcDbArc
 50
91.4300766046
 51
94.5754586167
  0
ARC
  5
4EF
100
AcDbEntity
  8
0
100
AcDbCircle
 62
7
  6
CONTINUOUS
 10
6.6264324534
 20
3.4895177609
 40
0.7753350077
100
AcDbArc
 50
95.9223880643
 51
101.456409806
  0
ARC
  5
4F0
100
AcDbEntity
  8
0
100
AcDbCircle
 62
7
  6
CONTINUOUS
 10
6.6264324534
 20
3.4895177609
 40
0.7753350077
100
AcDbArc
 50
88.836024953
 51
90.1108472106
  0
ARC
  5
4F1
100
AcDbEntity
  8
0
100
AcDbCircle
 62
7
  6
CONTINUOUS
 10
6.6264324534
 20
3.4895177609
 40
0.7753350077
100
AcDbArc
 50
82.589547494
 51
87.505151011
  0
ARC
  5
4F2
100
AcDbEntity
  8
0
100
AcDbCircle
 62
7
  6
CONTINUOUS
 10
6.6264324534
 20
3.4895177609
 40
0.7753350077
100
AcDbArc
 50
75.2369687319
 51
76.6139015814
  0
ARC
  5
4F3
100
AcDbEntity
  8
0
100
AcDbCircle
 62
7
  6
CONTINUOUS
 10
6.6264324534
 20
3.4895177609
 40
0.7753350077
100
AcDbArc
 50
103.0445666344
 51
104.7630312681
  0
ARC
  5
4F4
100
AcDbEntity
  8
0
100
AcDbCircle
 62
7
  6
CONTINUOUS
 10
6.6264324534
 20
3.4895177609
 40
0.7748350077
100
AcDbArc
 50
101.4639028364
 51
102.158859726
  0
ARC
  5
4F5
100
AcDbEntity
  8
0
100
AcDbCircle
 62
7
  6
CONTINUOUS
 10
6.6264324534
 20
3.4895177609
 40
0.7748350077
100
AcDbArc
 50
94.5784174525
 51
95.2987844702
  0
ARC
  5
4F6
100
AcDbEntity
  8
0
100
AcDbCircle
 62
7
  6
CONTINUOUS
 10
6.6264324534
 20
3.4895177609
 40
0.7748350077
100
AcDbArc
 50
90.7469007669
 51
91.430999623
  0
ARC
  5
4F7
100
AcDbEntity
  8
0
100
AcDbCircle
 62
7
  6
CONTINUOUS
 10
6.6264324534
 20
3.4895177609
 40
0.7748350077
100
AcDbArc
 50
77.3977552373
 51
78.0591795779
  0
ARC
  5
4F8
100
AcDbEntity
  8
0
100
AcDbCircle
 62
7
  6
CONTINUOUS
 10
6.6264324534
 20
3.4895177609
 40
0.7748350077
100
AcDbArc
 50
81.2352442586
 51
82.5847386688
  0
ARC
  5
4F9
100
AcDbEntity
  8
0
100
AcDbCircle
 62
7
  6
CONTINUOUS
 10
6.6264324534
 20
3.4895177609
 40
0.7748350077
100
AcDbArc
 50
87.503540069
 51
88.835273738
  0
ARC
  5
4FA
100
AcDbEntity
  8
0
100
AcDbCircle
 62
7
  6
CONTINUOUS
 10
6.6264324534
 20
3.4895177609
 40
0.7747348735
100
AcDbArc
 50
79.9593632588
 51
81.0040654587
  0
ARC
  5
4FB
100
AcDbEntity
  8
0
100
AcDbCircle
 62
7
  6
CONTINUOUS
 10
6.6264324534
 20
3.4895177609
 40
0.7747104305
100
AcDbArc
 50
85.5024540677
 51
86.3921798126
  0
ARC
  5
4FC
100
AcDbEntity
  8
0
100
AcDbCircle
 62
7
  6
CONTINUOUS
 10
6.6264324534
 20
3.4895177609
 40
0.7742344859
100
AcDbArc
 50
79.9528066769
 51
80.9982030894
  0
ARC
  5
4FD
100
AcDbEntity
  8
0
100
AcDbCircle
 62
7
  6
CONTINUOUS
 10
6.6264324534
 20
3.4895177609
 40
0.7742100271
100
AcDbArc
 50
85.49954113
 51
86.3898448421
  0
ARC
  5
4FE
100
AcDbEntity
  8
0
100
AcDbCircle
 62
7
  6
CONTINUOUS
 10
6.6264324534
 20
3.4895177609
 40
0.7741693124
100
AcDbArc
 50
79.7882367111
 51
82.9513441199
  0
ARC
  5
4FF
100
AcDbEntity
  8
0
100
AcDbCircle
 62
7
  6
CONTINUOUS
 10
6.6264324534
 20
3.4895177609
 40
0.7741693124
100
AcDbArc
 50
84.0880697177
 51
89.6299506004
  0
ARC
  5
500
100
AcDbEntity
  8
0
100
AcDbCircle
 62
7
  6
CONTINUOUS
 10
7.1214131842
 20
3.2221260201
 40
0.2345
100
AcDbArc
 50
186.9248982442
 51
217.9660022518
  0
ARC
  5
501
100
AcDbEntity
  8
0
100
AcDbCircle
 62
7
  6
CONTINUOUS
 10
6.8996824534
 20
3.0491027686
 40
0.04675
100
AcDbArc
 50
271.7773055868
 51
325.9520250909
  0
ARC
  5
502
100
AcDbEntity
  8
0
100
AcDbCircle
 62
7
  6
CONTINUOUS
 10
6.9111982951
 20
3.0568992706
 40
0.0328431727
100
AcDbArc
 50
34.0263912364
 51
39.6027752598
  0
ARC
  5
503
100
AcDbEntity
  8
0
100
AcDbCircle
 62
7
  6
CONTINUOUS
 10
6.9114666759
 20
3.0411049088
 40
0.0325080787
100
AcDbArc
 50
320.6628188399
 51
326.0030368154
  0
ARC
  5
504
100
AcDbEntity
  8
0
100
AcDbCircle
 62
7
  6
CONTINUOUS
 10
6.9954984758
 20
3.9101297628
 40
0.68
100
AcDbArc
 50
158.7260279914
 51
162.3017225173
  0
ARC
  5
505
100
AcDbEntity
  8
0
100
AcDbCircle
 62
7
  6
CONTINUOUS
 10
6.6069791506
 20
3.6071162841
 40
0.6561376387
100
AcDbArc
 50
96.2161845715
 51
96.9435818355
  0
ARC
  5
506
100
AcDbEntity
  8
0
100
AcDbCircle
 62
7
  6
CONTINUOUS
 10
6.6419752794
 20
3.694092668
 40
0.5701710881
100
AcDbArc
 50
83.0535751546
 51
83.4864024216
  0
ARC
  5
507
100
AcDbEntity
  8
0
100
AcDbCircle
 62
7
  6
CONTINUOUS
 10
6.6991974638
 20
3.689183156
 40
0.5652309046
100
AcDbArc
 50
81.1862287023
 51
81.3433028418
  0
ARC
  5
508
100
AcDbEntity
  8
0
100
AcDbCircle
 62
7
  6
CONTINUOUS
 10
6.6908375248
 20
4.0535309392
 40
0.207655633
100
AcDbArc
 50
85.631475316
 51
87.4669374743
  0
ARC
  5
509
100
AcDbEntity
  8
0
100
AcDbCircle
 62
7
  6
CONTINUOUS
 10
6.6908414624
 20
4.0532425197
 40
0.2074415785
100
AcDbArc
 50
86.0357858793
 51
87.465410597
  0
ARC
  5
50A
100
AcDbEntity
  8
0
100
AcDbCircle
 62
7
  6
CONTINUOUS
 10
6.8101824534
 20
3.6323527686
 40
0.025
100
AcDbArc
 50
6.9248982442
 51
90.0
  0
ARC
  5
50B
100
AcDbEntity
  8
0
100
AcDbCircle
 62
7
  6
CONTINUOUS
 10
10.3794324534
 20
2.8338527686
 40
1.5265
100
AcDbArc
 50
166.7837149256
 51
193.2355634666
  0
ARC
  5
50C
100
AcDbEntity
  8
0
100
AcDbCircle
 62
7
  6
CONTINUOUS
 10
9.5623456103
 20
2.4366156248
 40
0.2085
100
AcDbArc
 50
166.7644365334
 51
197.3749047622
  0
ARC
  5
50D
100
AcDbEntity
  8
0
100
AcDbCircle
 62
7
  6
CONTINUOUS
 10
8.6905192965
 20
2.4366156248
 40
0.2085
100
AcDbArc
 50
342.6250952378
 51
13.2355634666
  0
ARC
  5
50E
100
AcDbEntity
  8
0
100
AcDbCircle
 62
7
  6
CONTINUOUS
 10
9.351898004
 20
1.9957364824
 40
0.185
100
AcDbArc
 50
4.0656154981
 51
77.5021822312
  0
ARC
  5
50F
100
AcDbEntity
  8
0
100
AcDbCircle
 62
7
  6
CONTINUOUS
 10
8.9009669029
 20
1.9957364824
 40
0.185
100
AcDbArc
 50
102.4978177688
 51
175.9343845019
  0
ARC
  5
510
100
AcDbEntity
  8
0
100
AcDbCircle
 62
7
  6
CONTINUOUS
 10
9.6863324134
 20
2.0138527686
 40
0.125
100
AcDbArc
 50
182.292442776
 51
270.0
  0
ARC
  5
511
100
AcDbEntity
  8
0
100
AcDbCircle
 62
7
  6
CONTINUOUS
 10
8.5665324934
 20
2.0138527686
 40
0.125
100
AcDbArc
 50
270.0
 51
357.707557224
  0
ARC
  5
512
100
AcDbEntity
  8
0
100
AcDbCircle
 62
7
  6
CONTINUOUS
 10
9.3814324534
 20
2.3433527686
 40
0.0315
100
AcDbArc
 50
270.0
 51
79.7778206094
  0
ARC
  5
513
100
AcDbEntity
  8
0
100
AcDbCircle
 62
7
  6
CONTINUOUS
 10
9.3814324534
 20
2.2178527686
 40
0.0315
100
AcDbArc
 50
280.2221793906
 51
90.0
  0
ARC
  5
514
100
AcDbEntity
  8
0
100
AcDbCircle
 62
7
  6
CONTINUOUS
 10
8.8714324534
 20
2.3433527686
 40
0.0315
100
AcDbArc
 50
100.2221793906
 51
270.0
  0
ARC
  5
515
100
AcDbEntity
  8
0
100
AcDbCircle
 62
7
  6
CONTINUOUS
 10
8.8714324534
 20
2.2178527686
 40
0.0315
100
AcDbArc
 50
90.0
 51
259.7778206094
  0
ARC
  5
516
100
AcDbEntity
  8
0
100
AcDbCircle
 62
7
  6
CONTINUOUS
 10
9.6989324534
 20
1.8738527686
 40
0.015
100
AcDbArc
 50
0.0
 51
90.0
  0
ARC
  5
517
100
AcDbEntity
  8
0
100
AcDbCircle
 62
7
  6
CONTINUOUS
 10
8.5539324534
 20
1.8738527686
 40
0.015
100
AcDbArc
 50
90.0
 51
180.0
  0
ARC
  5
518
100
AcDbEntity
  8
0
100
AcDbCircle
 62
7
  6
CONTINUOUS
 10
8.4655040085
 20
3.2833345898
 40
0.4395
100
AcDbArc
 50
346.7837149256
 51
20.4446212878
  0
ARC
  5
519
100
AcDbEntity
  8
0
100
AcDbCircle
 62
7
  6
CONTINUOUS
 10
8.8711824534
 20
3.4681027686
 40
0.03125
100
AcDbArc
 50
90.0
 51
270.0
  0
ARC
  5
51A
100
AcDbEntity
  8
0
100
AcDbCircle
 62
7
  6
CONTINUOUS
 10
8.1259220367
 20
4.0143527686
 40
0.1867604167
100
AcDbArc
 50
317.9864211385
 51
42.0135788615
  0
ARC
  5
51B
100
AcDbEntity
  8
0
100
AcDbCircle
 62
7
  6
CONTINUOUS
 10
9.7873608984
 20
3.2833345898
 40
0.4395
100
AcDbArc
 50
159.5553787122
 51
193.2162850744
  0
ARC
  5
51C
100
AcDbEntity
  8
0
100
AcDbCircle
 62
7
  6
CONTINUOUS
 10
9.3816824534
 20
3.4681027686
 40
0.03125
100
AcDbArc
 50
270.0
 51
90.0
  0
ARC
  5
51D
100
AcDbEntity
  8
0
100
AcDbCircle
 62
7
  6
CONTINUOUS
 10
9.0751945902
 20
3.8843269658
 40
0.2961648536
100
AcDbArc
 50
321.3601564822
 51
321.7496095943
  0
ARC
  5
51E
100
AcDbEntity
  8
0
100
AcDbCircle
 62
7
  6
CONTINUOUS
 10
9.0829261179
 20
3.8778734511
 40
0.2860929072
100
AcDbArc
 50
317.5841937661
 51
319.3406927816
  0
ARC
  5
51F
100
AcDbEntity
  8
0
100
AcDbCircle
 62
7
  6
CONTINUOUS
 10
8.9680308551
 20
3.9243507025
 40
0.0103677498
100
AcDbArc
 50
0.0114184842
 51
168.0589075282
  0
CIRCLE
  5
520
100
AcDbEntity
  8
0
100
AcDbCircle
 62
7
  6
CONTINUOUS
 10
9.0658132108
 20
3.7780095839
 40
0.0103675264
  0
ARC
  5
521
100
AcDbEntity
  8
0
100
AcDbCircle
 62
7
  6
CONTINUOUS
 10
9.1264306881
 20
3.7659513157
 40
0.0103675264
100
AcDbArc
 50
258.0797909738
 51
79.4381406539
  0
CIRCLE
  5
522
100
AcDbEntity
  8
0
100
AcDbCircle
 62
7
  6
CONTINUOUS
 10
8.9800879165
 20
3.8637367874
 40
0.0103675262
  0
CIRCLE
  5
523
100
AcDbEntity
  8
0
100
AcDbCircle
 62
7
  6
CONTINUOUS
 10
9.0144244628
 20
3.8123472746
 40
0.0103675262
  0
ARC
  5
524
100
AcDbEntity
  8
0
100
AcDbCircle
 62
7
  6
CONTINUOUS
 10
9.1264324397
 20
3.8267634795
 40
0.0097939906
100
AcDbArc
 50
210.6274647623
 51
31.7144838671
  0
CIRCLE
  5
525
100
AcDbEntity
  8
0
100
AcDbCircle
 62
7
  6
CONTINUOUS
 10
9.0574268678
 20
3.8553471593
 40
0.0097939902
  0
ARC
  5
526
100
AcDbEntity
  8
0
100
AcDbCircle
 62
7
  6
CONTINUOUS
 10
9.028842809
 20
3.9243526538
 40
0.0097937762
100
AcDbArc
 50
0.0031039505
 51
179.9993283031
  0
ARC
  5
527
100
AcDbEntity
  8
0
100
AcDbCircle
 62
7
  6
CONTINUOUS
 10
9.1264306474
 20
4.082754406
 40
0.0103675563
100
AcDbArc
 50
259.4577309427
 51
78.0602691448
  0
CIRCLE
  5
528
100
AcDbEntity
  8
0
100
AcDbCircle
 62
7
  6
CONTINUOUS
 10
9.0144269604
 20
4.0363607581
 40
0.0103675263
  0
CIRCLE
  5
529
100
AcDbEntity
  8
0
100
AcDbCircle
 62
7
  6
CONTINUOUS
 10
9.0658164727
 20
4.0706973041
 40
0.0103675263
  0
CIRCLE
  5
52A
100
AcDbEntity
  8
0
100
AcDbCircle
 62
7
  6
CONTINUOUS
 10
8.9800892676
 20
3.9849720118
 40
0.0103675262
  0
ARC
  5
52B
100
AcDbEntity
  8
0
100
AcDbCircle
 62
7
  6
CONTINUOUS
 10
8.9680271405
 20
3.9243527759
 40
0.0103635969
100
AcDbArc
 50
168.0658731572
 51
359.9998649528
  0
ARC
  5
52C
100
AcDbEntity
  8
0
100
AcDbCircle
 62
7
  6
CONTINUOUS
 10
9.1264324356
 20
4.0219414219
 40
0.0097939906
100
AcDbArc
 50
211.7114168774
 51
30.6305711606
  0
CIRCLE
  5
52D
100
AcDbEntity
  8
0
100
AcDbCircle
 62
7
  6
CONTINUOUS
 10
9.0574268444
 20
3.9933583541
 40
0.0097939882
  0
ARC
  5
52E
100
AcDbEntity
  8
0
100
AcDbCircle
 62
7
  6
CONTINUOUS
 10
9.0288441645
 20
3.9243528768
 40
0.0097937627
100
AcDbArc
 50
180.0031707136
 51
359.9993668797
  0
ARC
  5
52F
100
AcDbEntity
  8
0
100
AcDbCircle
 62
7
  6
CONTINUOUS
 10
9.1775659642
 20
3.8842442802
 40
0.2960316986
100
AcDbArc
 50
218.2529042013
 51
218.6391833458
  0
ARC
  5
530
100
AcDbEntity
  8
0
100
AcDbCircle
 62
7
  6
CONTINUOUS
 10
9.1692255021
 20
3.8772430619
 40
0.2851410611
100
AcDbArc
 50
220.6571353926
 51
222.4232616696
  0
ARC
  5
531
100
AcDbEntity
  8
0
100
AcDbCircle
 62
7
  6
CONTINUOUS
 10
9.1264342594
 20
3.7659511309
 40
0.0103675562
100
AcDbArc
 50
79.457730932
 51
258.0602691245
  0
CIRCLE
  5
532
100
AcDbEntity
  8
0
100
AcDbCircle
 62
7
  6
CONTINUOUS
 10
9.1870484341
 20
3.7780082328
 40
0.0103675264
  0
CIRCLE
  5
533
100
AcDbEntity
  8
0
100
AcDbCircle
 62
7
  6
CONTINUOUS
 10
9.2384379466
 20
3.8123447788
 40
0.0103675264
  0
CIRCLE
  5
534
100
AcDbEntity
  8
0
100
AcDbCircle
 62
7
  6
CONTINUOUS
 10
9.2727756393
 20
3.8637335252
 40
0.0103675264
  0
ARC
  5
535
100
AcDbEntity
  8
0
100
AcDbCircle
 62
7
  6
CONTINUOUS
 10
9.2848377663
 20
3.9243527614
 40
0.0103635969
100
AcDbArc
 50
348.0658731571
 51
179.999864953
  0
CIRCLE
  5
536
100
AcDbEntity
  8
0
100
AcDbCircle
 62
7
  6
CONTINUOUS
 10
9.1954380645
 20
3.8553471823
 40
0.0097939907
  0
ARC
  5
537
100
AcDbEntity
  8
0
100
AcDbCircle
 62
7
  6
CONTINUOUS
 10
9.1264324704
 20
3.8267641161
 40
0.0097939897
100
AcDbArc
 50
31.7114103438
 51
210.6305776599
  0
ARC
  5
538
100
AcDbEntity
  8
0
100
AcDbCircle
 62
7
  6
CONTINUOUS
 10
9.2240207423
 20
3.9243526604
 40
0.0097937627
100
AcDbArc
 50
0.0031519799
 51
179.999366874
  0
ARC
  5
539
100
AcDbEntity
  8
0
100
AcDbCircle
 62
7
  6
CONTINUOUS
 10
9.1264324534
 20
3.9243527686
 40
0.29375
100
AcDbArc
 50
103.2208244843
 51
103.7791755157
  0
ARC
  5
53A
100
AcDbEntity
  8
0
100
AcDbCircle
 62
7
  6
CONTINUOUS
 10
9.1264324534
 20
3.9243527686
 40
0.29375
100
AcDbArc
 50
100.2208244843
 51
100.7791755157
  0
ARC
  5
53B
100
AcDbEntity
  8
0
100
AcDbCircle
 62
7
  6
CONTINUOUS
 10
9.1264324534
 20
3.9243527686
 40
0.29375
100
AcDbArc
 50
97.2208244843
 51
97.7791755157
  0
ARC
  5
53C
100
AcDbEntity
  8
0
100
AcDbCircle
 62
7
  6
CONTINUOUS
 10
9.1264324534
 20
3.9243527686
 40
0.29375
100
AcDbArc
 50
94.2208244843
 51
94.7791755157
  0
ARC
  5
53D
100
AcDbEntity
  8
0
100
AcDbCircle
 62
7
  6
CONTINUOUS
 10
9.1264324534
 20
3.9243527686
 40
0.29375
100
AcDbArc
 50
91.219151134
 51
91.7791755157
  0
ARC
  5
53E
100
AcDbEntity
  8
0
100
AcDbCircle
 62
7
  6
CONTINUOUS
 10
9.1264324534
 20
3.9243527686
 40
0.29375
100
AcDbArc
 50
106.2208244843
 51
106.780848866
  0
ARC
  5
53F
100
AcDbEntity
  8
0
100
AcDbCircle
 62
7
  6
CONTINUOUS
 10
9.1264324534
 20
3.9243527686
 40
0.29375
100
AcDbArc
 50
109.219151134
 51
109.7791755157
  0
ARC
  5
540
100
AcDbEntity
  8
0
100
AcDbCircle
 62
7
  6
CONTINUOUS
 10
9.1264324534
 20
3.9243527686
 40
0.29375
100
AcDbArc
 50
112.2208244843
 51
112.7791755157
  0
ARC
  5
541
100
AcDbEntity
  8
0
100
AcDbCircle
 62
7
  6
CONTINUOUS
 10
9.1264324534
 20
3.9243527686
 40
0.29375
100
AcDbArc
 50
115.2208244843
 51
115.7791755157
  0
ARC
  5
542
100
AcDbEntity
  8
0
100
AcDbCircle
 62
7
  6
CONTINUOUS
 10
9.1264324534
 20
3.9243527686
 40
0.29375
100
AcDbArc
 50
118.2208244843
 51
118.7791755157
  0
ARC
  5
543
100
AcDbEntity
  8
0
100
AcDbCircle
 62
7
  6
CONTINUOUS
 10
9.1264324534
 20
3.9243527686
 40
0.29375
100
AcDbArc
 50
121.2208244843
 51
121.7791755157
  0
ARC
  5
544
100
AcDbEntity
  8
0
100
AcDbCircle
 62
7
  6
CONTINUOUS
 10
9.1264324534
 20
3.9243527686
 40
0.29375
100
AcDbArc
 50
124.2208244843
 51
124.780848866
  0
ARC
  5
545
100
AcDbEntity
  8
0
100
AcDbCircle
 62
7
  6
CONTINUOUS
 10
9.1264324534
 20
3.9243527686
 40
0.29375
100
AcDbArc
 50
127.219151134
 51
127.7791755157
  0
ARC
  5
546
100
AcDbEntity
  8
0
100
AcDbCircle
 62
7
  6
CONTINUOUS
 10
9.1264324534
 20
3.9243527686
 40
0.29375
100
AcDbArc
 50
130.2208244843
 51
130.7791755157
  0
ARC
  5
547
100
AcDbEntity
  8
0
100
AcDbCircle
 62
7
  6
CONTINUOUS
 10
9.1264324534
 20
3.9243527686
 40
0.29375
100
AcDbArc
 50
133.2208244843
 51
133.7791755157
  0
ARC
  5
548
100
AcDbEntity
  8
0
100
AcDbCircle
 62
7
  6
CONTINUOUS
 10
9.1264324534
 20
3.9243527686
 40
0.29375
100
AcDbArc
 50
136.2208244843
 51
136.7791755157
  0
ARC
  5
549
100
AcDbEntity
  8
0
100
AcDbCircle
 62
7
  6
CONTINUOUS
 10
9.1264324534
 20
3.9243527686
 40
0.29375
100
AcDbArc
 50
139.2208244843
 51
139.7791755157
  0
ARC
  5
54A
100
AcDbEntity
  8
0
100
AcDbCircle
 62
7
  6
CONTINUOUS
 10
9.1264324534
 20
3.9243527686
 40
0.29375
100
AcDbArc
 50
142.2208244843
 51
142.780848866
  0
ARC
  5
54B
100
AcDbEntity
  8
0
100
AcDbCircle
 62
7
  6
CONTINUOUS
 10
9.1264324534
 20
3.9243527686
 40
0.29375
100
AcDbArc
 50
145.219151134
 51
145.7791755157
  0
ARC
  5
54C
100
AcDbEntity
  8
0
100
AcDbCircle
 62
7
  6
CONTINUOUS
 10
9.1264324534
 20
3.9243527686
 40
0.29375
100
AcDbArc
 50
148.2208244843
 51
148.7791755157
  0
ARC
  5
54D
100
AcDbEntity
  8
0
100
AcDbCircle
 62
7
  6
CONTINUOUS
 10
9.1264324534
 20
3.9243527686
 40
0.29375
100
AcDbArc
 50
151.2208244843
 51
151.7791755157
  0
ARC
  5
54E
100
AcDbEntity
  8
0
100
AcDbCircle
 62
7
  6
CONTINUOUS
 10
9.1264324534
 20
3.9243527686
 40
0.29375
100
AcDbArc
 50
154.2208244843
 51
154.7791755157
  0
ARC
  5
54F
100
AcDbEntity
  8
0
100
AcDbCircle
 62
7
  6
CONTINUOUS
 10
9.1264324534
 20
3.9243527686
 40
0.29375
100
AcDbArc
 50
157.2208244843
 51
157.7791755157
  0
ARC
  5
550
100
AcDbEntity
  8
0
100
AcDbCircle
 62
7
  6
CONTINUOUS
 10
9.1264324534
 20
3.9243527686
 40
0.29375
100
AcDbArc
 50
160.2208244843
 51
160.780848866
  0
ARC
  5
551
100
AcDbEntity
  8
0
100
AcDbCircle
 62
7
  6
CONTINUOUS
 10
9.1264324534
 20
3.9243527686
 40
0.29375
100
AcDbArc
 50
163.219151134
 51
163.7791755157
  0
ARC
  5
552
100
AcDbEntity
  8
0
100
AcDbCircle
 62
7
  6
CONTINUOUS
 10
9.1264324534
 20
3.9243527686
 40
0.29375
100
AcDbArc
 50
166.2208244843
 51
166.7791755157
  0
ARC
  5
553
100
AcDbEntity
  8
0
100
AcDbCircle
 62
7
  6
CONTINUOUS
 10
9.1264324534
 20
3.9243527686
 40
0.29375
100
AcDbArc
 50
169.2208244843
 51
169.7791755157
  0
ARC
  5
554
100
AcDbEntity
  8
0
100
AcDbCircle
 62
7
  6
CONTINUOUS
 10
9.1264324534
 20
3.9243527686
 40
0.29375
100
AcDbArc
 50
172.2208244843
 51
172.7791755157
  0
ARC
  5
555
100
AcDbEntity
  8
0
100
AcDbCircle
 62
7
  6
CONTINUOUS
 10
9.1264324534
 20
3.9243527686
 40
0.29375
100
AcDbArc
 50
175.2208244843
 51
175.7791755157
  0
ARC
  5
556
100
AcDbEntity
  8
0
100
AcDbCircle
 62
7
  6
CONTINUOUS
 10
9.1264324534
 20
3.9243527686
 40
0.29375
100
AcDbArc
 50
178.2208244843
 51
178.780848866
  0
ARC
  5
557
100
AcDbEntity
  8
0
100
AcDbCircle
 62
7
  6
CONTINUOUS
 10
9.1264324534
 20
3.9243527686
 40
0.29375
100
AcDbArc
 50
181.219151134
 51
181.7791755157
  0
ARC
  5
558
100
AcDbEntity
  8
0
100
AcDbCircle
 62
7
  6
CONTINUOUS
 10
9.1264324534
 20
3.9243527686
 40
0.29375
100
AcDbArc
 50
184.2208244843
 51
184.7791755157
  0
ARC
  5
559
100
AcDbEntity
  8
0
100
AcDbCircle
 62
7
  6
CONTINUOUS
 10
9.1264324534
 20
3.9243527686
 40
0.29375
100
AcDbArc
 50
187.2208244843
 51
187.7791755157
  0
ARC
  5
55A
100
AcDbEntity
  8
0
100
AcDbCircle
 62
7
  6
CONTINUOUS
 10
9.1264324534
 20
3.9243527686
 40
0.29375
100
AcDbArc
 50
190.2208244843
 51
190.7791755157
  0
ARC
  5
55B
100
AcDbEntity
  8
0
100
AcDbCircle
 62
7
  6
CONTINUOUS
 10
9.1264324534
 20
3.9243527686
 40
0.29375
100
AcDbArc
 50
193.2208244843
 51
193.7791755157
  0
ARC
  5
55C
100
AcDbEntity
  8
0
100
AcDbCircle
 62
7
  6
CONTINUOUS
 10
9.1264324534
 20
3.9243527686
 40
0.29375
100
AcDbArc
 50
196.2208244843
 51
196.780848866
  0
ARC
  5
55D
100
AcDbEntity
  8
0
100
AcDbCircle
 62
7
  6
CONTINUOUS
 10
9.1264324534
 20
3.9243527686
 40
0.29375
100
AcDbArc
 50
199.219151134
 51
199.7791755157
  0
ARC
  5
55E
100
AcDbEntity
  8
0
100
AcDbCircle
 62
7
  6
CONTINUOUS
 10
9.1264324534
 20
3.9243527686
 40
0.29375
100
AcDbArc
 50
202.2208244843
 51
202.7791755157
  0
ARC
  5
55F
100
AcDbEntity
  8
0
100
AcDbCircle
 62
7
  6
CONTINUOUS
 10
9.1264324534
 20
3.9243527686
 40
0.29375
100
AcDbArc
 50
205.2208244843
 51
205.7791755157
  0
ARC
  5
560
100
AcDbEntity
  8
0
100
AcDbCircle
 62
7
  6
CONTINUOUS
 10
9.1264324534
 20
3.9243527686
 40
0.29375
100
AcDbArc
 50
208.2208244843
 51
208.7791755157
  0
ARC
  5
561
100
AcDbEntity
  8
0
100
AcDbCircle
 62
7
  6
CONTINUOUS
 10
9.1264324534
 20
3.9243527686
 40
0.29375
100
AcDbArc
 50
211.2208244843
 51
211.7791755157
  0
ARC
  5
562
100
AcDbEntity
  8
0
100
AcDbCircle
 62
7
  6
CONTINUOUS
 10
9.1264324534
 20
3.9243527686
 40
0.29375
100
AcDbArc
 50
214.2208244843
 51
214.780848866
  0
ARC
  5
563
100
AcDbEntity
  8
0
100
AcDbCircle
 62
7
  6
CONTINUOUS
 10
9.1264324534
 20
3.9243527686
 40
0.29375
100
AcDbArc
 50
217.219151134
 51
217.7791755157
  0
ARC
  5
564
100
AcDbEntity
  8
0
100
AcDbCircle
 62
7
  6
CONTINUOUS
 10
9.1264324534
 20
3.9243527686
 40
0.29375
100
AcDbArc
 50
220.2208244843
 51
220.7791755157
  0
ARC
  5
565
100
AcDbEntity
  8
0
100
AcDbCircle
 62
7
  6
CONTINUOUS
 10
9.1264324534
 20
3.9243527686
 40
0.29375
100
AcDbArc
 50
223.2208244843
 51
223.7791755157
  0
ARC
  5
566
100
AcDbEntity
  8
0
100
AcDbCircle
 62
7
  6
CONTINUOUS
 10
9.1264324534
 20
3.9243527686
 40
0.29375
100
AcDbArc
 50
226.2208244843
 51
226.7791755157
  0
ARC
  5
567
100
AcDbEntity
  8
0
100
AcDbCircle
 62
7
  6
CONTINUOUS
 10
9.1264324534
 20
3.9243527686
 40
0.29375
100
AcDbArc
 50
229.2208244843
 51
229.7791755157
  0
ARC
  5
568
100
AcDbEntity
  8
0
100
AcDbCircle
 62
7
  6
CONTINUOUS
 10
9.1264324534
 20
3.9243527686
 40
0.29375
100
AcDbArc
 50
232.2208244843
 51
232.780848866
  0
ARC
  5
569
100
AcDbEntity
  8
0
100
AcDbCircle
 62
7
  6
CONTINUOUS
 10
9.1264324534
 20
3.9243527686
 40
0.29375
100
AcDbArc
 50
235.219151134
 51
235.7791755157
  0
ARC
  5
56A
100
AcDbEntity
  8
0
100
AcDbCircle
 62
7
  6
CONTINUOUS
 10
9.1264324534
 20
3.9243527686
 40
0.29375
100
AcDbArc
 50
238.2208244843
 51
238.7791755157
  0
ARC
  5
56B
100
AcDbEntity
  8
0
100
AcDbCircle
 62
7
  6
CONTINUOUS
 10
9.1264324534
 20
3.9243527686
 40
0.29375
100
AcDbArc
 50
241.2208244843
 51
241.7791755157
  0
ARC
  5
56C
100
AcDbEntity
  8
0
100
AcDbCircle
 62
7
  6
CONTINUOUS
 10
9.1264324534
 20
3.9243527686
 40
0.29375
100
AcDbArc
 50
244.2208244843
 51
244.7791755157
  0
ARC
  5
56D
100
AcDbEntity
  8
0
100
AcDbCircle
 62
7
  6
CONTINUOUS
 10
9.1264324534
 20
3.9243527686
 40
0.29375
100
AcDbArc
 50
247.2208244843
 51
247.7791755157
  0
ARC
  5
56E
100
AcDbEntity
  8
0
100
AcDbCircle
 62
7
  6
CONTINUOUS
 10
9.1264324534
 20
3.9243527686
 40
0.29375
100
AcDbArc
 50
250.2208244843
 51
250.780848866
  0
ARC
  5
56F
100
AcDbEntity
  8
0
100
AcDbCircle
 62
7
  6
CONTINUOUS
 10
9.1264324534
 20
3.9243527686
 40
0.29375
100
AcDbArc
 50
253.219151134
 51
253.7791755157
  0
ARC
  5
570
100
AcDbEntity
  8
0
100
AcDbCircle
 62
7
  6
CONTINUOUS
 10
9.1264324534
 20
3.9243527686
 40
0.29375
100
AcDbArc
 50
256.2208244843
 51
256.7791755157
  0
ARC
  5
571
100
AcDbEntity
  8
0
100
AcDbCircle
 62
7
  6
CONTINUOUS
 10
9.1264324534
 20
3.9243527686
 40
0.29375
100
AcDbArc
 50
259.2208244843
 51
259.7791755157
  0
ARC
  5
572
100
AcDbEntity
  8
0
100
AcDbCircle
 62
7
  6
CONTINUOUS
 10
9.1264324534
 20
3.9243527686
 40
0.29375
100
AcDbArc
 50
262.2208244843
 51
262.7791755157
  0
ARC
  5
573
100
AcDbEntity
  8
0
100
AcDbCircle
 62
7
  6
CONTINUOUS
 10
9.1264324534
 20
3.9243527686
 40
0.29375
100
AcDbArc
 50
265.2208244843
 51
265.7791755157
  0
ARC
  5
574
100
AcDbEntity
  8
0
100
AcDbCircle
 62
7
  6
CONTINUOUS
 10
9.1264324534
 20
3.9243527686
 40
0.29375
100
AcDbArc
 50
268.2208244843
 51
268.780848866
  0
ARC
  5
575
100
AcDbEntity
  8
0
100
AcDbCircle
 62
7
  6
CONTINUOUS
 10
9.1264324534
 20
3.9243527686
 40
0.29375
100
AcDbArc
 50
271.219151134
 51
271.7791755157
  0
ARC
  5
576
100
AcDbEntity
  8
0
100
AcDbCircle
 62
7
  6
CONTINUOUS
 10
9.1264324534
 20
3.9243527686
 40
0.29375
100
AcDbArc
 50
274.2208244843
 51
274.7791755157
  0
ARC
  5
577
100
AcDbEntity
  8
0
100
AcDbCircle
 62
7
  6
CONTINUOUS
 10
9.1264324534
 20
3.9243527686
 40
0.29375
100
AcDbArc
 50
277.2208244843
 51
277.7791755157
  0
ARC
  5
578
100
AcDbEntity
  8
0
100
AcDbCircle
 62
7
  6
CONTINUOUS
 10
9.1264324534
 20
3.9243527686
 40
0.29375
100
AcDbArc
 50
280.2208244843
 51
280.7791755157
  0
ARC
  5
579
100
AcDbEntity
  8
0
100
AcDbCircle
 62
7
  6
CONTINUOUS
 10
9.1264324534
 20
3.9243527686
 40
0.29375
100
AcDbArc
 50
283.2208244843
 51
283.7791755157
  0
ARC
  5
57A
100
AcDbEntity
  8
0
100
AcDbCircle
 62
7
  6
CONTINUOUS
 10
9.1264324534
 20
3.9243527686
 40
0.29375
100
AcDbArc
 50
286.2208244843
 51
286.780848866
  0
ARC
  5
57B
100
AcDbEntity
  8
0
100
AcDbCircle
 62
7
  6
CONTINUOUS
 10
9.1264324534
 20
3.9243527686
 40
0.29375
100
AcDbArc
 50
289.219151134
 51
289.7791755157
  0
ARC
  5
57C
100
AcDbEntity
  8
0
100
AcDbCircle
 62
7
  6
CONTINUOUS
 10
9.1264324534
 20
3.9243527686
 40
0.29375
100
AcDbArc
 50
292.2208244843
 51
292.7791755157
  0
ARC
  5
57D
100
AcDbEntity
  8
0
100
AcDbCircle
 62
7
  6
CONTINUOUS
 10
9.1264324534
 20
3.9243527686
 40
0.29375
100
AcDbArc
 50
295.2208244843
 51
295.7791755157
  0
ARC
  5
57E
100
AcDbEntity
  8
0
100
AcDbCircle
 62
7
  6
CONTINUOUS
 10
9.1264324534
 20
3.9243527686
 40
0.29375
100
AcDbArc
 50
298.2208244843
 51
298.7791755157
  0
ARC
  5
57F
100
AcDbEntity
  8
0
100
AcDbCircle
 62
7
  6
CONTINUOUS
 10
9.1264324534
 20
3.9243527686
 40
0.29375
100
AcDbArc
 50
301.2208244843
 51
301.7791755157
  0
ARC
  5
580
100
AcDbEntity
  8
0
100
AcDbCircle
 62
7
  6
CONTINUOUS
 10
9.1264324534
 20
3.9243527686
 40
0.29375
100
AcDbArc
 50
304.2208244843
 51
304.780848866
  0
ARC
  5
581
100
AcDbEntity
  8
0
100
AcDbCircle
 62
7
  6
CONTINUOUS
 10
9.1264324534
 20
3.9243527686
 40
0.29375
100
AcDbArc
 50
307.219151134
 51
307.7791755157
  0
ARC
  5
582
100
AcDbEntity
  8
0
100
AcDbCircle
 62
7
  6
CONTINUOUS
 10
9.1264324534
 20
3.9243527686
 40
0.29375
100
AcDbArc
 50
310.2208244843
 51
310.7791755157
  0
ARC
  5
583
100
AcDbEntity
  8
0
100
AcDbCircle
 62
7
  6
CONTINUOUS
 10
9.1264324534
 20
3.9243527686
 40
0.29375
100
AcDbArc
 50
313.2208244843
 51
313.7791755157
  0
ARC
  5
584
100
AcDbEntity
  8
0
100
AcDbCircle
 62
7
  6
CONTINUOUS
 10
9.1264324534
 20
3.9243527686
 40
0.29375
100
AcDbArc
 50
316.2208244843
 51
316.7791755157
  0
ARC
  5
585
100
AcDbEntity
  8
0
100
AcDbCircle
 62
7
  6
CONTINUOUS
 10
9.1264324534
 20
3.9243527686
 40
0.29375
100
AcDbArc
 50
319.2208244843
 51
319.7791755157
  0
ARC
  5
586
100
AcDbEntity
  8
0
100
AcDbCircle
 62
7
  6
CONTINUOUS
 10
9.1264324534
 20
3.9243527686
 40
0.29375
100
AcDbArc
 50
322.2208244843
 51
322.780848866
  0
ARC
  5
587
100
AcDbEntity
  8
0
100
AcDbCircle
 62
7
  6
CONTINUOUS
 10
9.1264324534
 20
3.9243527686
 40
0.29375
100
AcDbArc
 50
325.219151134
 51
325.7791755157
  0
ARC
  5
588
100
AcDbEntity
  8
0
100
AcDbCircle
 62
7
  6
CONTINUOUS
 10
9.1264324534
 20
3.9243527686
 40
0.29375
100
AcDbArc
 50
328.2208244843
 51
328.7791755157
  0
ARC
  5
589
100
AcDbEntity
  8
0
100
AcDbCircle
 62
7
  6
CONTINUOUS
 10
9.1264324534
 20
3.9243527686
 40
0.29375
100
AcDbArc
 50
331.2208244843
 51
331.7791755157
  0
ARC
  5
58A
100
AcDbEntity
  8
0
100
AcDbCircle
 62
7
  6
CONTINUOUS
 10
9.1264324534
 20
3.9243527686
 40
0.29375
100
AcDbArc
 50
334.2208244843
 51
334.7791755157
  0
ARC
  5
58B
100
AcDbEntity
  8
0
100
AcDbCircle
 62
7
  6
CONTINUOUS
 10
9.1264324534
 20
3.9243527686
 40
0.29375
100
AcDbArc
 50
337.2208244843
 51
337.7791755157
  0
ARC
  5
58C
100
AcDbEntity
  8
0
100
AcDbCircle
 62
7
  6
CONTINUOUS
 10
9.1264324534
 20
3.9243527686
 40
0.29375
100
AcDbArc
 50
340.2208244843
 51
340.780848866
  0
ARC
  5
58D
100
AcDbEntity
  8
0
100
AcDbCircle
 62
7
  6
CONTINUOUS
 10
9.1264324534
 20
3.9243527686
 40
0.29375
100
AcDbArc
 50
343.219151134
 51
343.7791755157
  0
ARC
  5
58E
100
AcDbEntity
  8
0
100
AcDbCircle
 62
7
  6
CONTINUOUS
 10
9.1264324534
 20
3.9243527686
 40
0.29375
100
AcDbArc
 50
346.2208244843
 51
346.7791755157
  0
ARC
  5
58F
100
AcDbEntity
  8
0
100
AcDbCircle
 62
7
  6
CONTINUOUS
 10
9.1264324534
 20
3.9243527686
 40
0.29375
100
AcDbArc
 50
349.2208244843
 51
349.7791755157
  0
ARC
  5
590
100
AcDbEntity
  8
0
100
AcDbCircle
 62
7
  6
CONTINUOUS
 10
9.1264324534
 20
3.9243527686
 40
0.29375
100
AcDbArc
 50
352.2208244843
 51
352.7791755157
  0
ARC
  5
591
100
AcDbEntity
  8
0
100
AcDbCircle
 62
7
  6
CONTINUOUS
 10
9.1264324534
 20
3.9243527686
 40
0.29375
100
AcDbArc
 50
355.2208244843
 51
355.7791755157
  0
ARC
  5
592
100
AcDbEntity
  8
0
100
AcDbCircle
 62
7
  6
CONTINUOUS
 10
9.1264324534
 20
3.9243527686
 40
0.29375
100
AcDbArc
 50
358.2208244843
 51
358.780848866
  0
ARC
  5
593
100
AcDbEntity
  8
0
100
AcDbCircle
 62
7
  6
CONTINUOUS
 10
9.1264324534
 20
3.9243527686
 40
0.29375
100
AcDbArc
 50
1.219151134
 51
1.7791755157
  0
ARC
  5
594
100
AcDbEntity
  8
0
100
AcDbCircle
 62
7
  6
CONTINUOUS
 10
9.1264324534
 20
3.9243527686
 40
0.29375
100
AcDbArc
 50
4.2208244843
 51
4.7791755157
  0
ARC
  5
595
100
AcDbEntity
  8
0
100
AcDbCircle
 62
7
  6
CONTINUOUS
 10
9.1264324534
 20
3.9243527686
 40
0.29375
100
AcDbArc
 50
7.2208244843
 51
7.7791755157
  0
ARC
  5
596
100
AcDbEntity
  8
0
100
AcDbCircle
 62
7
  6
CONTINUOUS
 10
9.1264324534
 20
3.9243527686
 40
0.29375
100
AcDbArc
 50
10.2208244843
 51
10.7791755157
  0
ARC
  5
597
100
AcDbEntity
  8
0
100
AcDbCircle
 62
7
  6
CONTINUOUS
 10
9.1264324534
 20
3.9243527686
 40
0.29375
100
AcDbArc
 50
13.2208244843
 51
13.7791755157
  0
ARC
  5
598
100
AcDbEntity
  8
0
100
AcDbCircle
 62
7
  6
CONTINUOUS
 10
9.1264324534
 20
3.9243527686
 40
0.29375
100
AcDbArc
 50
16.2208244843
 51
16.780848866
  0
ARC
  5
599
100
AcDbEntity
  8
0
100
AcDbCircle
 62
7
  6
CONTINUOUS
 10
9.1264324534
 20
3.9243527686
 40
0.29375
100
AcDbArc
 50
19.219151134
 51
19.7791755157
  0
ARC
  5
59A
100
AcDbEntity
  8
0
100
AcDbCircle
 62
7
  6
CONTINUOUS
 10
9.1264324534
 20
3.9243527686
 40
0.29375
100
AcDbArc
 50
22.2208244843
 51
22.7791755157
  0
ARC
  5
59B
100
AcDbEntity
  8
0
100
AcDbCircle
 62
7
  6
CONTINUOUS
 10
9.1264324534
 20
3.9243527686
 40
0.29375
100
AcDbArc
 50
25.2208244843
 51
25.7791755157
  0
ARC
  5
59C
100
AcDbEntity
  8
0
100
AcDbCircle
 62
7
  6
CONTINUOUS
 10
9.1264324534
 20
3.9243527686
 40
0.29375
100
AcDbArc
 50
28.2208244843
 51
28.7791755157
  0
ARC
  5
59D
100
AcDbEntity
  8
0
100
AcDbCircle
 62
7
  6
CONTINUOUS
 10
9.1264324534
 20
3.9243527686
 40
0.29375
100
AcDbArc
 50
31.2208244843
 51
31.7791755157
  0
ARC
  5
59E
100
AcDbEntity
  8
0
100
AcDbCircle
 62
7
  6
CONTINUOUS
 10
9.1264324534
 20
3.9243527686
 40
0.29375
100
AcDbArc
 50
34.2208244843
 51
34.780848866
  0
ARC
  5
59F
100
AcDbEntity
  8
0
100
AcDbCircle
 62
7
  6
CONTINUOUS
 10
9.1264324534
 20
3.9243527686
 40
0.29375
100
AcDbArc
 50
37.219151134
 51
37.7791755157
  0
ARC
  5
5A0
100
AcDbEntity
  8
0
100
AcDbCircle
 62
7
  6
CONTINUOUS
 10
9.1264324534
 20
3.9243527686
 40
0.29375
100
AcDbArc
 50
40.2208244843
 51
40.7791755157
  0
ARC
  5
5A1
100
AcDbEntity
  8
0
100
AcDbCircle
 62
7
  6
CONTINUOUS
 10
9.1264324534
 20
3.9243527686
 40
0.29375
100
AcDbArc
 50
43.2208244843
 51
43.7791755157
  0
ARC
  5
5A2
100
AcDbEntity
  8
0
100
AcDbCircle
 62
7
  6
CONTINUOUS
 10
9.1264324534
 20
3.9243527686
 40
0.29375
100
AcDbArc
 50
46.2208244843
 51
46.7791755157
  0
ARC
  5
5A3
100
AcDbEntity
  8
0
100
AcDbCircle
 62
7
  6
CONTINUOUS
 10
9.1264324534
 20
3.9243527686
 40
0.29375
100
AcDbArc
 50
49.2208244843
 51
49.7791755157
  0
ARC
  5
5A4
100
AcDbEntity
  8
0
100
AcDbCircle
 62
7
  6
CONTINUOUS
 10
9.1264324534
 20
3.9243527686
 40
0.29375
100
AcDbArc
 50
52.2208244843
 51
52.780848866
  0
ARC
  5
5A5
100
AcDbEntity
  8
0
100
AcDbCircle
 62
7
  6
CONTINUOUS
 10
9.1264324534
 20
3.9243527686
 40
0.29375
100
AcDbArc
 50
55.219151134
 51
55.7791755157
  0
ARC
  5
5A6
100
AcDbEntity
  8
0
100
AcDbCircle
 62
7
  6
CONTINUOUS
 10
9.1264324534
 20
3.9243527686
 40
0.29375
100
AcDbArc
 50
58.2208244843
 51
58.7791755157
  0
ARC
  5
5A7
100
AcDbEntity
  8
0
100
AcDbCircle
 62
7
  6
CONTINUOUS
 10
9.1264324534
 20
3.9243527686
 40
0.29375
100
AcDbArc
 50
61.2208244843
 51
61.7791755157
  0
ARC
  5
5A8
100
AcDbEntity
  8
0
100
AcDbCircle
 62
7
  6
CONTINUOUS
 10
9.1264324534
 20
3.9243527686
 40
0.29375
100
AcDbArc
 50
64.2208244843
 51
64.7791755157
  0
ARC
  5
5A9
100
AcDbEntity
  8
0
100
AcDbCircle
 62
7
  6
CONTINUOUS
 10
9.1264324534
 20
3.9243527686
 40
0.29375
100
AcDbArc
 50
67.2208244843
 51
67.7791755157
  0
ARC
  5
5AA
100
AcDbEntity
  8
0
100
AcDbCircle
 62
7
  6
CONTINUOUS
 10
9.1264324534
 20
3.9243527686
 40
0.29375
100
AcDbArc
 50
70.2208244843
 51
70.780848866
  0
ARC
  5
5AB
100
AcDbEntity
  8
0
100
AcDbCircle
 62
7
  6
CONTINUOUS
 10
9.1264324534
 20
3.9243527686
 40
0.29375
100
AcDbArc
 50
73.219151134
 51
73.7791755157
  0
ARC
  5
5AC
100
AcDbEntity
  8
0
100
AcDbCircle
 62
7
  6
CONTINUOUS
 10
9.1264324534
 20
3.9243527686
 40
0.29375
100
AcDbArc
 50
76.2208244843
 51
76.7791755157
  0
ARC
  5
5AD
100
AcDbEntity
  8
0
100
AcDbCircle
 62
7
  6
CONTINUOUS
 10
9.1264324534
 20
3.9243527686
 40
0.29375
100
AcDbArc
 50
79.2208244843
 51
79.7791755157
  0
ARC
  5
5AE
100
AcDbEntity
  8
0
100
AcDbCircle
 62
7
  6
CONTINUOUS
 10
9.1264324534
 20
3.9243527686
 40
0.29375
100
AcDbArc
 50
82.2208244843
 51
82.7791755157
  0
ARC
  5
5AF
100
AcDbEntity
  8
0
100
AcDbCircle
 62
7
  6
CONTINUOUS
 10
9.1264324534
 20
3.9243527686
 40
0.29375
100
AcDbArc
 50
85.2208244843
 51
85.7791755157
  0
ARC
  5
5B0
100
AcDbEntity
  8
0
100
AcDbCircle
 62
7
  6
CONTINUOUS
 10
9.1264324534
 20
3.9243527686
 40
0.29375
100
AcDbArc
 50
88.2208244843
 51
88.780848866
  0
CIRCLE
  5
5B1
100
AcDbEntity
  8
0
100
AcDbCircle
 62
7
  6
CONTINUOUS
 10
9.1264324534
 20
3.9243527686
 40
0.2775
  0
CIRCLE
  5
5B2
100
AcDbEntity
  8
0
100
AcDbCircle
 62
7
  6
CONTINUOUS
 10
9.1264324534
 20
3.9243527686
 40
0.2766395935
  0
CIRCLE
  5
5B3
100
AcDbEntity
  8
0
100
AcDbCircle
 62
7
  6
CONTINUOUS
 10
9.1264324534
 20
3.9243527686
 40
0.2264874498
  0
CIRCLE
  5
5B4
100
AcDbEntity
  8
0
100
AcDbCircle
 62
7
  6
CONTINUOUS
 10
9.1264324534
 20
3.9243527686
 40
0.2223478564
  0
CIRCLE
  5
5B5
100
AcDbEntity
  8
0
100
AcDbCircle
 62
7
  6
CONTINUOUS
 10
9.1264324534
 20
3.9243527686
 40
0.2067928977
  0
CIRCLE
  5
5B6
100
AcDbEntity
  8
0
100
AcDbCircle
 62
7
  6
CONTINUOUS
 10
9.1264324534
 20
3.9243527686
 40
0.2037155146
  0
CIRCLE
  5
5B7
100
AcDbEntity
  8
0
100
AcDbCircle
 62
7
  6
CONTINUOUS
 10
9.195438039
 20
3.9933583791
 40
0.0097939912
  0
CIRCLE
  5
5B8
100
AcDbEntity
  8
0
100
AcDbCircle
 62
7
  6
CONTINUOUS
 10
9.1870516959
 20
4.070695953
 40
0.0103675263
  0
ARC
  5
5B9
100
AcDbEntity
  8
0
100
AcDbCircle
 62
7
  6
CONTINUOUS
 10
9.1264342187
 20
4.0827542212
 40
0.0103675263
100
AcDbArc
 50
78.0797910013
 51
259.4381406599
  0
ARC
  5
5BA
100
AcDbEntity
  8
0
100
AcDbCircle
 62
7
  6
CONTINUOUS
 10
9.1264324679
 20
4.0219420558
 40
0.0097939933
100
AcDbArc
 50
30.627476723
 51
211.7144719415
  0
ARC
  5
5BB
100
AcDbEntity
  8
0
100
AcDbCircle
 62
7
  6
CONTINUOUS
 10
9.2848340516
 20
3.9243548347
 40
0.0103677498
100
AcDbArc
 50
180.0114185462
 51
348.0589076266
  0
CIRCLE
  5
5BC
100
AcDbEntity
  8
0
100
AcDbCircle
 62
7
  6
CONTINUOUS
 10
9.2727769906
 20
3.9849687496
 40
0.0103675264
  0
ARC
  5
5BD
100
AcDbEntity
  8
0
100
AcDbCircle
 62
7
  6
CONTINUOUS
 10
9.2240220978
 20
3.9243528834
 40
0.0097937762
100
AcDbArc
 50
180.0031246525
 51
359.9993283188
  0
CIRCLE
  5
5BE
100
AcDbEntity
  8
0
100
AcDbCircle
 62
7
  6
CONTINUOUS
 10
9.2384404444
 20
4.0363582626
 40
0.0103675264
  0
ARC
  5
5BF
100
AcDbEntity
  8
0
100
AcDbCircle
 62
7
  6
CONTINUOUS
 10
5.8551824534
 20
5.0716022718
 40
1.0
100
AcDbArc
 50
161.8050916615
 51
198.1949083385
  0
ARC
  5
5C0
100
AcDbEntity
  8
0
100
AcDbCircle
 62
7
  6
CONTINUOUS
 10
6.262283063
 20
4.1333936764
 40
0.68
100
AcDbArc
 50
337.4255442891
 51
340.9862257999
  0
ARC
  5
5C1
100
AcDbEntity
  8
0
100
AcDbCircle
 62
7
  6
CONTINUOUS
 10
6.9905818438
 20
4.1333936764
 40
0.68
100
AcDbArc
 50
199.0137742001
 51
202.5744557109
  0
ARC
  5
5C2
100
AcDbEntity
  8
0
100
AcDbCircle
 62
7
  6
CONTINUOUS
 10
6.7426769662
 20
4.4628293243
 40
0.2055242683
100
AcDbArc
 50
264.0668853801
 51
264.3695528181
  0
ARC
  5
5C3
100
AcDbEntity
  8
0
100
AcDbCircle
 62
7
  6
CONTINUOUS
 10
6.7418436478
 20
4.4539664949
 40
0.1971242743
100
AcDbArc
 50
264.0566670352
 51
264.372245457
  0
ARC
  5
5C4
100
AcDbEntity
  8
0
100
AcDbCircle
 62
7
  6
CONTINUOUS
 10
6.2858985925
 20
4.1778527686
 40
0.093
100
AcDbArc
 50
226.6958241996
 51
311.6319105028
  0
ARC
  5
5C5
100
AcDbEntity
  8
0
100
AcDbCircle
 62
7
  6
CONTINUOUS
 10
6.7110563163
 20
4.2363982139
 40
0.023680624
100
AcDbArc
 50
90.2996903336
 51
101.9040740022
  0
ARC
  5
5C6
100
AcDbEntity
  8
0
100
AcDbCircle
 62
7
  6
CONTINUOUS
 10
6.4326824534
 20
4.2247525951
 40
0.015
100
AcDbArc
 50
104.7630312681
 51
170.0167770169
  0
ARC
  5
5C7
100
AcDbEntity
  8
0
100
AcDbCircle
 62
7
  6
CONTINUOUS
 10
6.8201824534
 20
4.2247525951
 40
0.015
100
AcDbArc
 50
9.9832229831
 51
75.2369687319
  0
ARC
  5
5C8
100
AcDbEntity
  8
0
100
AcDbCircle
 62
7
  6
CONTINUOUS
 10
6.2008618415
 20
4.1062826224
 40
0.008
100
AcDbArc
 50
235.0995
 51
346.0407512246
  0
ARC
  5
5C9
100
AcDbEntity
  8
0
100
AcDbCircle
 62
7
  6
CONTINUOUS
 10
6.2166255819
 20
4.1043527686
 40
0.008
100
AcDbArc
 50
46.6958241996
 51
180.0
  0
SPLINE
  5
5CA
100
AcDbEntity
  8
0
100
AcDbSpline
 62
7
  6
CONTINUOUS
 70
0
 71
3
 72
89
 73
85
 74
0
 42
0.0000001
 43
0.0000001
 44
0.0000000001
 40
0.0
 40
0.0
 40
0.0
 40
0.0
 40
0.062501603
 40
0.1250032089
 40
0.1875048107
 40
0.2500064164
 40
0.3125080242
 40
0.3437593717
 40
0.3750107186
 40
0.4062620661
 40
0.437513414
 40
0.4687647615
 40
0.5000161089
 40
0.5312674566
 40
0.5625188043
 40
0.5781445463
 40
0.5937702882
 40
0.6093960299
 40
0.6250217715
 40
0.6406475134
 40
0.6562732559
 40
0.6640861356
 40
0.6718990147
 40
0.6797118931
 40
0.6875247719
 40
0.6953376525
 40
0.7031505342
 40
0.7109634083
 40
0.7148698462
 40
0.7187762912
 40
0.7226827422
 40
0.7265891617
 40
0.7285423674
 40
0.7304956019
 40
0.7324488835
 40
0.7344021549
 40
0.7353787575
 40
0.7363553242
 40
0.7373318488
 40
0.7383083795
 40
0.7392850254
 40
0.7397734374
 40
0.7402619233
 40
0.7407504217
 40
0.7412388546
 40
0.7417271645
 40
0.7422153388
 40
0.7427034338
 40
0.7431915829
 40
0.7441682517
 40
0.7446566546
 40
0.7451450034
 40
0.7461216043
 40
0.7470981925
 40
0.7480747971
 40
0.7490514071
 40
0.7500280148
 40
0.7519812168
 40
0.7539344248
 40
0.7558876474
 40
0.7578408816
 40
0.7617472965
 40
0.7656536713
 40
0.7695600469
 40
0.7734664416
 40
0.7773728389
 40
0.7812792305
 40
0.7890916901
 40
0.7969041513
 40
0.8047166215
 40
0.8125290887
 40
0.8203415552
 40
0.8281540227
 40
0.8437764663
 40
0.8593989406
 40
0.8750212939
 40
0.8906436767
 40
0.9062662111
 40
0.9218888219
 40
0.9375110522
 40
0.9531331248
 40
0.968755491
 40
0.9843778139
 40
1.0
 40
1.0
 40
1.0
 40
1.0
 10
2.1826824534
 20
3.8736027686
 30
0.0
 10
2.1581124008
 20
3.874727369
 30
0.0
 10
2.1089437486
 20
3.8763962151
 30
0.0
 10
2.0351538448
 20
3.8771577437
 30
0.0
 10
1.9613660356
 20
3.8761772585
 30
0.0
 10
1.8876222849
 20
3.8734544907
 30
0.0
 10
1.8262389616
 20
3.8697351679
 30
0.0
 10
1.7771964826
 20
3.86589091
 30
0.0
 10
1.7404507048
 20
3.8625736528
 30
0.0
 10
1.7037467093
 20
3.8588227653
 30
0.0
 10
1.6670895373
 20
3.8546388351
 30
0.0
 10
1.6304843199
 20
3.8500224305
 30
0.0
 10
1.5939361522
 20
3.8449741479
 30
0.0
 10
1.5574501536
 20
3.8394947661
 30
0.0
 10
1.5271010706
 20
3.8345699697
 30
0.0
 10
1.5028581121
 20
3.8304153699
 30
0.0
 10
1.48469454
 20
3.8271921308
 30
0.0
 10
1.466550319
 20
3.8238617238
 30
0.0
 10
1.4484260716
 20
3.8204242655
 30
0.0
 10
1.4303224338
 20
3.8168798854
 30
0.0
 10
1.4152537511
 20
3.8138372406
 30
0.0
 10
1.4032097586
 20
3.8113497863
 30
0.0
 10
1.3941823048
 20
3.8094575301
 30
0.0
 10
1.3851604813
 20
3.807538615
 30
0.0
 10
1.3761443579
 20
3.8055930902
 30
0.0
 10
1.3671340088
 20
3.8036209901
 30
0.0
 10
1.3581294946
 20
3.8016224261
 30
0.0
 10
1.3506307427
 20
3.7999345418
 30
0.0
 10
1.344634755
 20
3.7985709469
 30
0.0
 10
1.3401392376
 20
3.797541765
 30
0.0
 10
1.3356451083
 20
3.7965065685
 30
0.0
 10
1.3319015676
 20
3.7956371611
 30
0.0
 10
1.3289075938
 20
3.7949379577
 30
0.0
 10
1.3266622528
 20
3.7944128262
 30
0.0
 10
1.3244167664
 20
3.7938882036
 30
0.0
 10
1.3225458584
 20
3.7934496012
 30
0.0
 10
1.3210498062
 20
3.7930960014
 30
0.0
 10
1.319928209
 20
3.7928291682
 30
0.0
 10
1.3188072448
 20
3.7925598104
 30
0.0
 10
1.3176864202
 20
3.7922897427
 30
0.0
 10
1.3167515188
 20
3.7920680571
 30
0.0
 10
1.3160025292
 20
3.7918948074
 30
0.0
 10
1.3154401065
 20
3.7917674278
 30
0.0
 10
1.3148776153
 20
3.7916403186
 30
0.0
 10
1.3143156406
 20
3.791511241
 30
0.0
 10
1.3137547787
 20
3.7913779355
 30
0.0
 10
1.3131956186
 20
3.7912381761
 30
0.0
 10
1.3126387799
 20
3.7910896201
 30
0.0
 10
1.3119001441
 20
3.7908772742
 30
0.0
 10
1.3111654391
 20
3.790651336
 30
0.0
 10
1.3104304751
 20
3.7904260638
 30
0.0
 10
1.3096939036
 20
3.7902061633
 30
0.0
 10
1.3087707658
 20
3.7899397439
 30
0.0
 10
1.307661271
 20
3.7896262299
 30
0.0
 10
1.3065510518
 20
3.7893152727
 30
0.0
 10
1.3054397341
 20
3.7890082314
 30
0.0
 10
1.3039564241
 20
3.788604523
 30
0.0
 10
1.3020988468
 20
3.7881126046
 30
0.0
 10
1.2998641993
 20
3.7875436925
 30
0.0
 10
1.2976243869
 20
3.7869954118
 30
0.0
 10
1.2946314779
 20
3.7862914981
 30
0.0
 10
1.2908789187
 20
3.7854609897
 30
0.0
 10
1.2863590294
 20
3.7845439003
 30
0.0
 10
1.2818234305
 20
3.7837079297
 30
0.0
 10
1.2772735775
 20
3.7829533792
 30
0.0
 10
1.2727109584
 20
3.7822801709
 30
0.0
 10
1.2666126266
 20
3.7814912487
 30
0.0
 10
1.2589647104
 20
3.7807092633
 30
0.0
 10
1.2497598483
 20
3.7800993158
 30
0.0
 10
1.2405390076
 20
3.7798183698
 30
0.0
 10
1.2313140616
 20
3.7798668743
 30
0.0
 10
1.2220966035
 20
3.7802446464
 30
0.0
 10
1.2098340469
 20
3.7811865389
 30
0.0
 10
1.1945801129
 20
3.783184559
 30
0.0
 10
1.1764956415
 20
3.7868820873
 30
0.0
 10
1.1587203293
 20
3.7918597013
 30
0.0
 10
1.1413462547
 20
3.7980946975
 30
0.0
 10
1.1244604334
 20
3.8055517011
 30
0.0
 10
1.1081500908
 20
3.814195129
 30
0.0
 10
1.0924984408
 20
3.8239808261
 30
0.0
 10
1.0775886997
 20
3.8348631712
 30
0.0
 10
1.0634908098
 20
3.8467786435
 30
0.0
 10
1.050275611
 20
3.8596648771
 30
0.0
 10
1.0420987812
 20
3.8688639572
 30
0.0
 10
1.0381824534
 20
3.8736027686
 30
0.0
  0
SPLINE
  5
5CB
100
AcDbEntity
  8
0
100
AcDbSpline
 62
7
  6
CONTINUOUS
 70
0
 71
3
 72
89
 73
85
 74
0
 42
0.0000001
 43
0.0000001
 44
0.0000000001
 40
0.0
 40
0.0
 40
0.0
 40
0.0
 40
0.062501603
 40
0.1250032089
 40
0.1875048107
 40
0.2500064164
 40
0.3125080242
 40
0.3437593717
 40
0.3750107186
 40
0.4062620661
 40
0.437513414
 40
0.4687647615
 40
0.5000161089
 40
0.5312674566
 40
0.5625188043
 40
0.5781445463
 40
0.5937702882
 40
0.6093960299
 40
0.6250217715
 40
0.6406475134
 40
0.6562732559
 40
0.6640861356
 40
0.6718990147
 40
0.6797118931
 40
0.6875247719
 40
0.6953376525
 40
0.7031505342
 40
0.7109634083
 40
0.7148698462
 40
0.7187762912
 40
0.7226827422
 40
0.7265891617
 40
0.7285423674
 40
0.7304956019
 40
0.7324488835
 40
0.7344021549
 40
0.7353787575
 40
0.7363553242
 40
0.7373318488
 40
0.7383083795
 40
0.7392850254
 40
0.7397734374
 40
0.7402619233
 40
0.7407504217
 40
0.7412388546
 40
0.7417271645
 40
0.7422153388
 40
0.7427034338
 40
0.7431915829
 40
0.7441682517
 40
0.7446566546
 40
0.7451450034
 40
0.7461216043
 40
0.7470981925
 40
0.7480747971
 40
0.7490514071
 40
0.7500280148
 40
0.7519812168
 40
0.7539344248
 40
0.7558876474
 40
0.7578408816
 40
0.7617472965
 40
0.7656536713
 40
0.7695600469
 40
0.7734664416
 40
0.7773728389
 40
0.7812792305
 40
0.7890916901
 40
0.7969041513
 40
0.8047166215
 40
0.8125290887
 40
0.8203415552
 40
0.8281540227
 40
0.8437764663
 40
0.8593989406
 40
0.8750212939
 40
0.8906436767
 40
0.9062662111
 40
0.9218888219
 40
0.9375110522
 40
0.9531331248
 40
0.968755491
 40
0.9843778139
 40
1.0
 40
1.0
 40
1.0
 40
1.0
 10
2.1826824534
 20
4.1551027686
 30
0.0
 10
2.1581124008
 20
4.1539781682
 30
0.0
 10
2.1089437486
 20
4.1523093221
 30
0.0
 10
2.0351538448
 20
4.1515477936
 30
0.0
 10
1.9613660356
 20
4.1525282787
 30
0.0
 10
1.8876222849
 20
4.1552510465
 30
0.0
 10
1.8262389616
 20
4.1589703693
 30
0.0
 10
1.7771964826
 20
4.1628146273
 30
0.0
 10
1.7404507048
 20
4.1661318844
 30
0.0
 10
1.7037467093
 20
4.1698827719
 30
0.0
 10
1.6670895373
 20
4.1740667021
 30
0.0
 10
1.6304843199
 20
4.1786831067
 30
0.0
 10
1.5939361522
 20
4.1837313893
 30
0.0
 10
1.5574501536
 20
4.1892107711
 30
0.0
 10
1.5271010706
 20
4.1941355675
 30
0.0
 10
1.5028581121
 20
4.1982901674
 30
0.0
 10
1.48469454
 20
4.2015134064
 30
0.0
 10
1.466550319
 20
4.2048438134
 30
0.0
 10
1.4484260716
 20
4.2082812717
 30
0.0
 10
1.4303224338
 20
4.2118256519
 30
0.0
 10
1.4152537511
 20
4.2148682966
 30
0.0
 10
1.4032097586
 20
4.2173557509
 30
0.0
 10
1.3941823048
 20
4.2192480071
 30
0.0
 10
1.3851604813
 20
4.2211669222
 30
0.0
 10
1.3761443579
 20
4.2231124471
 30
0.0
 10
1.3671340088
 20
4.2250845471
 30
0.0
 10
1.3581294946
 20
4.2270831111
 30
0.0
 10
1.3506307427
 20
4.2287709954
 30
0.0
 10
1.344634755
 20
4.2301345903
 30
0.0
 10
1.3401392376
 20
4.2311637722
 30
0.0
 10
1.3356451083
 20
4.2321989687
 30
0.0
 10
1.3319015676
 20
4.2330683761
 30
0.0
 10
1.3289075938
 20
4.2337675795
 30
0.0
 10
1.3266622528
 20
4.234292711
 30
0.0
 10
1.3244167664
 20
4.2348173336
 30
0.0
 10
1.3225458584
 20
4.235255936
 30
0.0
 10
1.3210498062
 20
4.2356095358
 30
0.0
 10
1.319928209
 20
4.2358763691
 30
0.0
 10
1.3188072448
 20
4.2361457268
 30
0.0
 10
1.3176864202
 20
4.2364157945
 30
0.0
 10
1.3167515188
 20
4.2366374801
 30
0.0
 10
1.3160025292
 20
4.2368107298
 30
0.0
 10
1.3154401065
 20
4.2369381094
 30
0.0
 10
1.3148776153
 20
4.2370652186
 30
0.0
 10
1.3143156406
 20
4.2371942962
 30
0.0
 10
1.3137547787
 20
4.2373276017
 30
0.0
 10
1.3131956186
 20
4.2374673611
 30
0.0
 10
1.3126387799
 20
4.2376159171
 30
0.0
 10
1.3119001441
 20
4.237828263
 30
0.0
 10
1.3111654391
 20
4.2380542012
 30
0.0
 10
1.3104304751
 20
4.2382794734
 30
0.0
 10
1.3096939036
 20
4.2384993739
 30
0.0
 10
1.3087707658
 20
4.2387657933
 30
0.0
 10
1.307661271
 20
4.2390793073
 30
0.0
 10
1.3065510518
 20
4.2393902645
 30
0.0
 10
1.3054397341
 20
4.2396973058
 30
0.0
 10
1.3039564241
 20
4.2401010142
 30
0.0
 10
1.3020988468
 20
4.2405929327
 30
0.0
 10
1.2998641993
 20
4.2411618448
 30
0.0
 10
1.2976243869
 20
4.2417101254
 30
0.0
 10
1.2946314779
 20
4.2424140391
 30
0.0
 10
1.2908789187
 20
4.2432445475
 30
0.0
 10
1.2863590294
 20
4.244161637
 30
0.0
 10
1.2818234305
 20
4.2449976076
 30
0.0
 10
1.2772735775
 20
4.245752158
 30
0.0
 10
1.2727109584
 20
4.2464253663
 30
0.0
 10
1.2666126266
 20
4.2472142886
 30
0.0
 10
1.2589647104
 20
4.2479962739
 30
0.0
 10
1.2497598483
 20
4.2486062214
 30
0.0
 10
1.2405390076
 20
4.2488871674
 30
0.0
 10
1.2313140616
 20
4.2488386629
 30
0.0
 10
1.2220966035
 20
4.2484608908
 30
0.0
 10
1.2098340469
 20
4.2475189983
 30
0.0
 10
1.1945801129
 20
4.2455209782
 30
0.0
 10
1.1764956415
 20
4.24182345
 30
0.0
 10
1.1587203293
 20
4.2368458359
 30
0.0
 10
1.1413462547
 20
4.2306108397
 30
0.0
 10
1.1244604334
 20
4.2231538361
 30
0.0
 10
1.1081500908
 20
4.2145104082
 30
0.0
 10
1.0924984408
 20
4.2047247111
 30
0.0
 10
1.0775886997
 20
4.193842366
 30
0.0
 10
1.0634908098
 20
4.1819268937
 30
0.0
 10
1.050275611
 20
4.1690406601
 30
0.0
 10
1.0420987812
 20
4.15984158
 30
0.0
 10
1.0381824534
 20
4.1551027686
 30
0.0
  0
SPLINE
  5
5CC
100
AcDbEntity
  8
0
100
AcDbSpline
 62
7
  6
CONTINUOUS
 70
0
 71
3
 72
89
 73
85
 74
0
 42
0.0000001
 43
0.0000001
 44
0.0000000001
 40
0.0
 40
0.0
 40
0.0
 40
0.0
 40
0.062501603
 40
0.1250032089
 40
0.1875048107
 40
0.2500064164
 40
0.3125080242
 40
0.3437593717
 40
0.3750107186
 40
0.4062620661
 40
0.437513414
 40
0.4687647615
 40
0.5000161089
 40
0.5312674566
 40
0.5625188043
 40
0.5781445463
 40
0.5937702882
 40
0.6093960299
 40
0.6250217715
 40
0.6406475134
 40
0.6562732559
 40
0.6640861356
 40
0.6718990147
 40
0.6797118931
 40
0.6875247719
 40
0.6953376525
 40
0.7031505342
 40
0.7109634083
 40
0.7148698462
 40
0.7187762912
 40
0.7226827422
 40
0.7265891617
 40
0.7285423674
 40
0.7304956019
 40
0.7324488835
 40
0.7344021549
 40
0.7353787575
 40
0.7363553242
 40
0.7373318488
 40
0.7383083795
 40
0.7392850254
 40
0.7397734374
 40
0.7402619233
 40
0.7407504217
 40
0.7412388546
 40
0.7417271645
 40
0.7422153388
 40
0.7427034338
 40
0.7431915829
 40
0.7441682517
 40
0.7446566546
 40
0.7451450034
 40
0.7461216043
 40
0.7470981925
 40
0.7480747971
 40
0.7490514071
 40
0.7500280148
 40
0.7519812168
 40
0.7539344248
 40
0.7558876474
 40
0.7578408816
 40
0.7617472965
 40
0.7656536713
 40
0.7695600469
 40
0.7734664416
 40
0.7773728389
 40
0.7812792305
 40
0.7890916901
 40
0.7969041513
 40
0.8047166215
 40
0.8125290887
 40
0.8203415552
 40
0.8281540227
 40
0.8437764663
 40
0.8593989406
 40
0.8750212939
 40
0.8906436767
 40
0.9062662111
 40
0.9218888219
 40
0.9375110522
 40
0.9531331248
 40
0.968755491
 40
0.9843778139
 40
1.0
 40
1.0
 40
1.0
 40
1.0
 10
7.0701824534
 20
3.8736027686
 30
0.0
 10
7.094752506
 20
3.874727369
 30
0.0
 10
7.1439211583
 20
3.8763962151
 30
0.0
 10
7.217711062
 20
3.8771577437
 30
0.0
 10
7.2914988713
 20
3.8761772585
 30
0.0
 10
7.3652426219
 20
3.8734544907
 30
0.0
 10
7.4266259453
 20
3.8697351679
 30
0.0
 10
7.4756684242
 20
3.86589091
 30
0.0
 10
7.512414202
 20
3.8625736528
 30
0.0
 10
7.5491181975
 20
3.8588227653
 30
0.0
 10
7.5857753696
 20
3.8546388351
 30
0.0
 10
7.6223805869
 20
3.8500224305
 30
0.0
 10
7.6589287546
 20
3.8449741479
 30
0.0
 10
7.6954147532
 20
3.8394947661
 30
0.0
 10
7.7257638362
 20
3.8345699697
 30
0.0
 10
7.7500067947
 20
3.8304153699
 30
0.0
 10
7.7681703669
 20
3.8271921308
 30
0.0
 10
7.7863145878
 20
3.8238617238
 30
0.0
 10
7.8044388352
 20
3.8204242655
 30
0.0
 10
7.822542473
 20
3.8168798854
 30
0.0
 10
7.8376111557
 20
3.8138372406
 30
0.0
 10
7.8496551483
 20
3.8113497863
 30
0.0
 10
7.858682602
 20
3.8094575301
 30
0.0
 10
7.8677044255
 20
3.807538615
 30
0.0
 10
7.8767205489
 20
3.8055930902
 30
0.0
 10
7.885730898
 20
3.8036209901
 30
0.0
 10
7.8947354122
 20
3.8016224261
 30
0.0
 10
7.9022341641
 20
3.7999345418
 30
0.0
 10
7.9082301518
 20
3.7985709469
 30
0.0
 10
7.9127256693
 20
3.797541765
 30
0.0
 10
7.9172197985
 20
3.7965065685
 30
0.0
 10
7.9209633392
 20
3.7956371611
 30
0.0
 10
7.923957313
 20
3.7949379577
 30
0.0
 10
7.9262026541
 20
3.7944128262
 30
0.0
 10
7.9284481404
 20
3.7938882036
 30
0.0
 10
7.9303190484
 20
3.7934496012
 30
0.0
 10
7.9318151007
 20
3.7930960014
 30
0.0
 10
7.9329366978
 20
3.7928291682
 30
0.0
 10
7.9340576621
 20
3.7925598104
 30
0.0
 10
7.9351784867
 20
3.7922897427
 30
0.0
 10
7.936113388
 20
3.7920680571
 30
0.0
 10
7.9368623776
 20
3.7918948074
 30
0.0
 10
7.9374248003
 20
3.7917674278
 30
0.0
 10
7.9379872915
 20
3.7916403186
 30
0.0
 10
7.9385492663
 20
3.791511241
 30
0.0
 10
7.9391101282
 20
3.7913779355
 30
0.0
 10
7.9396692882
 20
3.7912381761
 30
0.0
 10
7.9402261269
 20
3.7910896201
 30
0.0
 10
7.9409647627
 20
3.7908772742
 30
0.0
 10
7.9416994677
 20
3.790651336
 30
0.0
 10
7.9424344317
 20
3.7904260638
 30
0.0
 10
7.9431710033
 20
3.7902061633
 30
0.0
 10
7.944094141
 20
3.7899397439
 30
0.0
 10
7.9452036358
 20
3.7896262299
 30
0.0
 10
7.946313855
 20
3.7893152727
 30
0.0
 10
7.9474251727
 20
3.7890082314
 30
0.0
 10
7.9489084828
 20
3.788604523
 30
0.0
 10
7.95076606
 20
3.7881126046
 30
0.0
 10
7.9530007075
 20
3.7875436925
 30
0.0
 10
7.9552405199
 20
3.7869954118
 30
0.0
 10
7.9582334289
 20
3.7862914981
 30
0.0
 10
7.9619859881
 20
3.7854609897
 30
0.0
 10
7.9665058774
 20
3.7845439003
 30
0.0
 10
7.9710414763
 20
3.7837079297
 30
0.0
 10
7.9755913294
 20
3.7829533792
 30
0.0
 10
7.9801539485
 20
3.7822801709
 30
0.0
 10
7.9862522802
 20
3.7814912487
 30
0.0
 10
7.9939001964
 20
3.7807092633
 30
0.0
 10
8.0031050585
 20
3.7800993158
 30
0.0
 10
8.0123258992
 20
3.7798183698
 30
0.0
 10
8.0215508452
 20
3.7798668743
 30
0.0
 10
8.0307683034
 20
3.7802446464
 30
0.0
 10
8.0430308599
 20
3.7811865389
 30
0.0
 10
8.0582847939
 20
3.783184559
 30
0.0
 10
8.0763692653
 20
3.7868820873
 30
0.0
 10
8.0941445776
 20
3.7918597013
 30
0.0
 10
8.1115186521
 20
3.7980946975
 30
0.0
 10
8.1284044734
 20
3.8055517011
 30
0.0
 10
8.144714816
 20
3.814195129
 30
0.0
 10
8.1603664661
 20
3.8239808261
 30
0.0
 10
8.1752762071
 20
3.8348631712
 30
0.0
 10
8.189374097
 20
3.8467786435
 30
0.0
 10
8.2025892958
 20
3.8596648771
 30
0.0
 10
8.2107661256
 20
3.8688639572
 30
0.0
 10
8.2146824534
 20
3.8736027686
 30
0.0
  0
SPLINE
  5
5CD
100
AcDbEntity
  8
0
100
AcDbSpline
 62
7
  6
CONTINUOUS
 70
0
 71
3
 72
89
 73
85
 74
0
 42
0.0000001
 43
0.0000001
 44
0.0000000001
 40
0.0
 40
0.0
 40
0.0
 40
0.0
 40
0.062501603
 40
0.1250032089
 40
0.1875048107
 40
0.2500064164
 40
0.3125080242
 40
0.3437593717
 40
0.3750107186
 40
0.4062620661
 40
0.437513414
 40
0.4687647615
 40
0.5000161089
 40
0.5312674566
 40
0.5625188043
 40
0.5781445463
 40
0.5937702882
 40
0.6093960299
 40
0.6250217715
 40
0.6406475134
 40
0.6562732559
 40
0.6640861356
 40
0.6718990147
 40
0.6797118931
 40
0.6875247719
 40
0.6953376525
 40
0.7031505342
 40
0.7109634083
 40
0.7148698462
 40
0.7187762912
 40
0.7226827422
 40
0.7265891617
 40
0.7285423674
 40
0.7304956019
 40
0.7324488835
 40
0.7344021549
 40
0.7353787575
 40
0.7363553242
 40
0.7373318488
 40
0.7383083795
 40
0.7392850254
 40
0.7397734374
 40
0.7402619233
 40
0.7407504217
 40
0.7412388546
 40
0.7417271645
 40
0.7422153388
 40
0.7427034338
 40
0.7431915829
 40
0.7441682517
 40
0.7446566546
 40
0.7451450034
 40
0.7461216043
 40
0.7470981925
 40
0.7480747971
 40
0.7490514071
 40
0.7500280148
 40
0.7519812168
 40
0.7539344248
 40
0.7558876474
 40
0.7578408816
 40
0.7617472965
 40
0.7656536713
 40
0.7695600469
 40
0.7734664416
 40
0.7773728389
 40
0.7812792305
 40
0.7890916901
 40
0.7969041513
 40
0.8047166215
 40
0.8125290887
 40
0.8203415552
 40
0.8281540227
 40
0.8437764663
 40
0.8593989406
 40
0.8750212939
 40
0.8906436767
 40
0.9062662111
 40
0.9218888219
 40
0.9375110522
 40
0.9531331248
 40
0.968755491
 40
0.9843778139
 40
1.0
 40
1.0
 40
1.0
 40
1.0
 10
7.0701824534
 20
4.1551027686
 30
0.0
 10
7.094752506
 20
4.1539781682
 30
0.0
 10
7.1439211583
 20
4.1523093221
 30
0.0
 10
7.217711062
 20
4.1515477936
 30
0.0
 10
7.2914988713
 20
4.1525282787
 30
0.0
 10
7.3652426219
 20
4.1552510465
 30
0.0
 10
7.4266259453
 20
4.1589703693
 30
0.0
 10
7.4756684242
 20
4.1628146273
 30
0.0
 10
7.512414202
 20
4.1661318844
 30
0.0
 10
7.5491181975
 20
4.1698827719
 30
0.0
 10
7.5857753696
 20
4.1740667021
 30
0.0
 10
7.6223805869
 20
4.1786831067
 30
0.0
 10
7.6589287546
 20
4.1837313893
 30
0.0
 10
7.6954147532
 20
4.1892107711
 30
0.0
 10
7.7257638362
 20
4.1941355675
 30
0.0
 10
7.7500067947
 20
4.1982901674
 30
0.0
 10
7.7681703669
 20
4.2015134064
 30
0.0
 10
7.7863145878
 20
4.2048438134
 30
0.0
 10
7.8044388352
 20
4.2082812717
 30
0.0
 10
7.822542473
 20
4.2118256519
 30
0.0
 10
7.8376111557
 20
4.2148682966
 30
0.0
 10
7.8496551483
 20
4.2173557509
 30
0.0
 10
7.858682602
 20
4.2192480071
 30
0.0
 10
7.8677044255
 20
4.2211669222
 30
0.0
 10
7.8767205489
 20
4.2231124471
 30
0.0
 10
7.885730898
 20
4.2250845471
 30
0.0
 10
7.8947354122
 20
4.2270831111
 30
0.0
 10
7.9022341641
 20
4.2287709954
 30
0.0
 10
7.9082301518
 20
4.2301345903
 30
0.0
 10
7.9127256693
 20
4.2311637722
 30
0.0
 10
7.9172197985
 20
4.2321989687
 30
0.0
 10
7.9209633392
 20
4.2330683761
 30
0.0
 10
7.923957313
 20
4.2337675795
 30
0.0
 10
7.9262026541
 20
4.234292711
 30
0.0
 10
7.9284481404
 20
4.2348173336
 30
0.0
 10
7.9303190484
 20
4.235255936
 30
0.0
 10
7.9318151007
 20
4.2356095358
 30
0.0
 10
7.9329366978
 20
4.2358763691
 30
0.0
 10
7.9340576621
 20
4.2361457268
 30
0.0
 10
7.9351784867
 20
4.2364157945
 30
0.0
 10
7.936113388
 20
4.2366374801
 30
0.0
 10
7.9368623776
 20
4.2368107298
 30
0.0
 10
7.9374248003
 20
4.2369381094
 30
0.0
 10
7.9379872915
 20
4.2370652186
 30
0.0
 10
7.9385492663
 20
4.2371942962
 30
0.0
 10
7.9391101282
 20
4.2373276017
 30
0.0
 10
7.9396692882
 20
4.2374673611
 30
0.0
 10
7.9402261269
 20
4.2376159171
 30
0.0
 10
7.9409647627
 20
4.237828263
 30
0.0
 10
7.9416994677
 20
4.2380542012
 30
0.0
 10
7.9424344317
 20
4.2382794734
 30
0.0
 10
7.9431710033
 20
4.2384993739
 30
0.0
 10
7.944094141
 20
4.2387657933
 30
0.0
 10
7.9452036358
 20
4.2390793073
 30
0.0
 10
7.946313855
 20
4.2393902645
 30
0.0
 10
7.9474251727
 20
4.2396973058
 30
0.0
 10
7.9489084828
 20
4.2401010142
 30
0.0
 10
7.95076606
 20
4.2405929327
 30
0.0
 10
7.9530007075
 20
4.2411618448
 30
0.0
 10
7.9552405199
 20
4.2417101254
 30
0.0
 10
7.9582334289
 20
4.2424140391
 30
0.0
 10
7.9619859881
 20
4.2432445475
 30
0.0
 10
7.9665058774
 20
4.244161637
 30
0.0
 10
7.9710414763
 20
4.2449976076
 30
0.0
 10
7.9755913294
 20
4.245752158
 30
0.0
 10
7.9801539485
 20
4.2464253663
 30
0.0
 10
7.9862522802
 20
4.2472142886
 30
0.0
 10
7.9939001964
 20
4.2479962739
 30
0.0
 10
8.0031050585
 20
4.2486062214
 30
0.0
 10
8.0123258992
 20
4.2488871674
 30
0.0
 10
8.0215508452
 20
4.2488386629
 30
0.0
 10
8.0307683034
 20
4.2484608908
 30
0.0
 10
8.0430308599
 20
4.2475189983
 30
0.0
 10
8.0582847939
 20
4.2455209782
 30
0.0
 10
8.0763692653
 20
4.24182345
 30
0.0
 10
8.0941445776
 20
4.2368458359
 30
0.0
 10
8.1115186521
 20
4.2306108397
 30
0.0
 10
8.1284044734
 20
4.2231538361
 30
0.0
 10
8.144714816
 20
4.2145104082
 30
0.0
 10
8.1603664661
 20
4.2047247111
 30
0.0
 10
8.1752762071
 20
4.193842366
 30
0.0
 10
8.189374097
 20
4.1819268937
 30
0.0
 10
8.2025892958
 20
4.1690406601
 30
0.0
 10
8.2107661256
 20
4.15984158
 30
0.0
 10
8.2146824534
 20
4.1551027686
 30
0.0
  0
SPLINE
  5
5CE
100
AcDbEntity
  8
0
100
AcDbSpline
 62
7
  6
CONTINUOUS
 70
0
 71
3
 72
54
 73
50
 74
0
 42
0.0000001
 43
0.0000001
 44
0.0000000001
 40
0.0
 40
0.0
 40
0.0
 40
0.0
 40
0.0833374869
 40
0.1651094447
 40
0.2437886739
 40
0.2815118093
 40
0.31792724
 40
0.3528736708
 40
0.3862009778
 40
0.417772548
 40
0.4474683791
 40
0.4751894569
 40
0.5008645174
 40
0.5244608608
 40
0.5460035878
 40
0.5560371562
 40
0.5656138957
 40
0.5747761196
 40
0.583586126
 40
0.5921361508
 40
0.600561997
 40
0.6090661525
 40
0.6179519258
 40
0.6276648117
 40
0.6388049077
 40
0.6519970796
 40
0.6675170805
 40
0.6850133759
 40
0.7038088999
 40
0.7233428336
 40
0.743275803
 40
0.7634241348
 40
0.7836805943
 40
0.8039768304
 40
0.8242560977
 40
0.8444575546
 40
0.86448999
 40
0.8842080635
 40
0.8938763439
 40
0.9033499743
 40
0.9214182849
 40
0.9377510027
 40
0.9450824417
 40
0.9518218697
 40
0.9636648244
 40
0.9738344127
 40
0.9829683255
 40
0.9915729616
 40
1.0
 40
1.0
 40
1.0
 40
1.0
 10
4.6264324534
 20
5.4586602664
 30
0.0
 10
4.6161696229
 20
5.4586602664
 30
0.0
 10
4.5958366704
 20
5.4585869017
 30
0.0
 10
4.5658161714
 20
5.4582577374
 30
0.0
 10
4.5414154129
 20
5.4578003384
 30
0.0
 10
4.5226022004
 20
5.4573242919
 30
0.0
 10
4.5091745832
 20
5.4569222882
 30
0.0
 10
4.4962901462
 20
5.4564720272
 30
0.0
 10
4.484004385
 20
5.455975243
 30
0.0
 10
4.4723677662
 20
5.455433695
 30
0.0
 10
4.4614245388
 20
5.4548489937
 30
0.0
 10
4.4512110277
 20
5.4542223456
 30
0.0
 10
4.4417529806
 20
5.4535541282
 30
0.0
 10
4.433061228
 20
5.4528428842
 30
0.0
 10
4.4262973755
 20
5.4521961065
 30
0.0
 10
4.4212593822
 20
5.451645631
 30
0.0
 10
4.4177411097
 20
5.4512248444
 30
0.0
 10
4.4143774356
 20
5.4507820958
 30
0.0
 10
4.4111453475
 20
5.450310701
 30
0.0
 10
4.4080110557
 20
5.4497998355
 30
0.0
 10
4.4049248259
 20
5.4492317608
 30
0.0
 10
4.4018134937
 20
5.4485764955
 30
0.0
 10
4.3985709798
 20
5.4477821085
 30
0.0
 10
4.3950531652
 20
5.4467585281
 30
0.0
 10
4.3910983731
 20
5.445357651
 30
0.0
 10
4.3866057903
 20
5.443366798
 30
0.0
 10
4.3816471501
 20
5.4405514986
 30
0.0
 10
4.3765031704
 20
5.4367460857
 30
0.0
 10
4.3715672738
 20
5.4319270878
 30
0.0
 10
4.367203312
 20
5.4261979664
 30
0.0
 10
4.3636764798
 20
5.4197259637
 30
0.0
 10
4.3611614722
 20
5.4127019002
 30
0.0
 10
4.3597653235
 20
5.4053267973
 30
0.0
 10
4.3595428282
 20
5.3978076311
 30
0.0
 10
4.3605025113
 20
5.3903536177
 30
0.0
 10
4.3626077015
 20
5.383173064
 30
0.0
 10
4.3657715709
 20
5.3764702732
 30
0.0
 10
4.3691946047
 20
5.3714077243
 30
0.0
 10
4.3723059769
 20
5.36776684
 30
0.0
 10
4.3755312259
 20
5.3645067787
 30
0.0
 10
4.3797238739
 20
5.3610702775
 30
0.0
 10
4.3840911746
 20
5.3583376866
 30
0.0
 10
4.3874211517
 20
5.3566231249
 30
0.0
 10
4.3903261879
 20
5.3552997783
 30
0.0
 10
4.3936349237
 20
5.3540292584
 30
0.0
 10
4.3972979846
 20
5.3528857508
 30
0.0
 10
4.4006247427
 20
5.3520190555
 30
0.0
 10
4.4037706306
 20
5.3513194632
 30
0.0
 10
4.4058301861
 20
5.3509214642
 30
0.0
 10
4.4068512236
 20
5.3507358518
 30
0.0
  0
SPLINE
  5
5CF
100
AcDbEntity
  8
0
100
AcDbSpline
 62
7
  6
CONTINUOUS
 70
0
 71
3
 72
42
 73
38
 74
0
 42
0.0000001
 43
0.0000001
 44
0.0000000001
 40
0.0
 40
0.0
 40
0.0
 40
0.0
 40
0.0095283711
 40
0.0142513889
 40
0.0189346502
 40
0.0281197161
 40
0.0369794569
 40
0.0453984177
 40
0.0532625143
 40
0.0604833664
 40
0.0670224521
 40
0.0728983672
 40
0.0781789873
 40
0.0873152732
 40
0.095166067
 40
0.1023045469
 40
0.1091199094
 40
0.1158670057
 40
0.1297670802
 40
0.1447904487
 40
0.1613104538
 40
0.1795126266
 40
0.1994864314
 40
0.2212672444
 40
0.2448565765
 40
0.2702337687
 40
0.2973628437
 40
0.3261959766
 40
0.3566757676
 40
0.4223074292
 40
0.4936616515
 40
0.5700590385
 40
0.6507543775
 40
0.7349497423
 40
0.8218057969
 40
0.9104522666
 40
1.0
 40
1.0
 40
1.0
 40
1.0
 10
4.4244698755
 20
5.0934847446
 30
0.0
 10
4.424515606
 20
5.0928170221
 30
0.0
 10
4.4246468483
 20
5.0918211275
 30
0.0
 10
4.4249437148
 20
5.090524069
 30
0.0
 10
4.425312726
 20
5.0892706341
 30
0.0
 10
4.4259025364
 20
5.0877826311
 30
0.0
 10
4.4267872497
 20
5.0861432631
 30
0.0
 10
4.4277959976
 20
5.0846894081
 30
0.0
 10
4.4288742421
 20
5.083435615
 30
0.0
 10
4.4299704463
 20
5.0823812902
 30
0.0
 10
4.4310424755
 20
5.0815112471
 30
0.0
 10
4.4320630516
 20
5.0808000369
 30
0.0
 10
4.4332823469
 20
5.0800603534
 30
0.0
 10
4.4346804952
 20
5.0793536766
 30
0.0
 10
4.4362499403
 20
5.0787113814
 30
0.0
 10
4.4376994794
 20
5.0782148016
 30
0.0
 10
4.439094883
 20
5.0778047028
 30
0.0
 10
4.4409634978
 20
5.0773246452
 30
0.0
 10
4.4434148804
 20
5.0768017845
 30
0.0
 10
4.446559395
 20
5.0762507209
 30
0.0
 10
4.4500162841
 20
5.0757392411
 30
0.0
 10
4.4538275909
 20
5.075253635
 30
0.0
 10
4.458013351
 20
5.0747878576
 30
0.0
 10
4.4625813259
 20
5.0743391764
 30
0.0
 10
4.4675319325
 20
5.0739065303
 30
0.0
 10
4.4728607823
 20
5.073489691
 30
0.0
 10
4.4785601547
 20
5.0730888875
 30
0.0
 10
4.4846198345
 20
5.0727045803
 30
0.0
 10
4.4933817994
 20
5.072202586
 30
0.0
 10
4.5051309971
 20
5.0716277804
 30
0.0
 10
4.5201075627
 20
5.0710295461
 30
0.0
 10
4.5361458298
 20
5.0705128657
 30
0.0
 10
4.5530889145
 20
5.0700827824
 30
0.0
 10
4.5707688238
 20
5.0697436531
 30
0.0
 10
4.5890088342
 20
5.0694989122
 30
0.0
 10
4.6076258465
 20
5.0693510599
 30
0.0
 10
4.620142491
 20
5.0693181466
 30
0.0
 10
4.6264324534
 20
5.0693181466
 30
0.0
  0
SPLINE
  5
5D0
100
AcDbEntity
  8
0
100
AcDbSpline
 62
7
  6
CONTINUOUS
 70
0
 71
3
 72
63
 73
59
 74
0
 42
0.0000001
 43
0.0000001
 44
0.0000000001
 40
0.0
 40
0.0
 40
0.0
 40
0.0
 40
0.008425546
 40
0.017028769
 40
0.0261612169
 40
0.0363287344
 40
0.0481689077
 40
0.0622291854
 40
0.0701360449
 40
0.0785628391
 40
0.0874247647
 40
0.096631704
 40
0.1061008266
 40
0.1157652376
 40
0.1255745759
 40
0.1354894715
 40
0.1454814094
 40
0.1555307571
 40
0.1656217282
 40
0.1757420144
 40
0.1858814784
 40
0.1960327622
 40
0.2061885692
 40
0.2163419805
 40
0.2264858169
 40
0.236612676
 40
0.2467136698
 40
0.2567765609
 40
0.266786198
 40
0.2767249066
 40
0.2865670013
 40
0.2962747495
 40
0.3150735688
 40
0.3325736237
 40
0.3480945608
 40
0.3612887851
 40
0.3724279942
 40
0.3821397316
 40
0.391024196
 40
0.399526889
 40
0.4079515078
 40
0.4165006695
 40
0.4253094778
 40
0.4344700413
 40
0.4540776218
 40
0.4756174564
 40
0.4992104042
 40
0.5248816839
 40
0.5525986792
 40
0.5822901145
 40
0.6138569968
 40
0.64717934
 40
0.6821205527
 40
0.7185305343
 40
0.7562480145
 40
0.8349154234
 40
0.9166750717
 40
1.0
 40
1.0
 40
1.0
 40
1.0
 10
4.846014205
 20
5.3507359943
 30
0.0
 10
4.8470352046
 20
5.3509216435
 30
0.0
 10
4.8490947195
 20
5.3513195813
 30
0.0
 10
4.8522405558
 20
5.3520191599
 30
0.0
 10
4.8555671604
 20
5.352885903
 30
0.0
 10
4.8592301663
 20
5.3540293579
 30
0.0
 10
4.8633808354
 20
5.3556230012
 30
0.0
 10
4.8671338925
 20
5.3574430688
 30
0.0
 10
4.8703666262
 20
5.3593341505
 30
0.0
 10
4.872949606
 20
5.3610577852
 30
0.0
 10
4.8755447753
 20
5.363040209
 30
0.0
 10
4.8780967745
 20
5.3652784471
 30
0.0
 10
4.8805541697
 20
5.3677616714
 30
0.0
 10
4.8828724879
 20
5.3704739018
 30
0.0
 10
4.8850147747
 20
5.3733957996
 30
0.0
 10
4.8869509687
 20
5.3765059433
 30
0.0
 10
4.8886565064
 20
5.3797817969
 30
0.0
 10
4.8901120209
 20
5.3831998045
 30
0.0
 10
4.8913019054
 20
5.3867358494
 30
0.0
 10
4.8922141914
 20
5.3903649565
 30
0.0
 10
4.8928399637
 20
5.3940618411
 30
0.0
 10
4.8931733794
 20
5.3978008681
 30
0.0
 10
4.8932113159
 20
5.4015562652
 30
0.0
 10
4.8929534015
 20
5.4053020629
 30
0.0
 10
4.8924020576
 20
5.4090124117
 30
0.0
 10
4.8915623449
 20
5.4126616529
 30
0.0
 10
4.8904424076
 20
5.4162243782
 30
0.0
 10
4.8890532636
 20
5.4196753882
 30
0.0
 10
4.8874097765
 20
5.422990418
 30
0.0
 10
4.8855299813
 20
5.4261456117
 30
0.0
 10
4.8834372147
 20
5.4291184755
 30
0.0
 10
4.8804344575
 20
5.4327690388
 30
0.0
 10
4.8763655501
 20
5.4367431229
 30
0.0
 10
4.8712206288
 20
5.4405496356
 30
0.0
 10
4.8662606254
 20
5.4433661658
 30
0.0
 10
4.8617671718
 20
5.445357439
 30
0.0
 10
4.857811795
 20
5.446758539
 30
0.0
 10
4.8542938413
 20
5.4477820964
 30
0.0
 10
4.8510513234
 20
5.4485765053
 30
0.0
 10
4.8479400055
 20
5.449231724
 30
0.0
 10
4.8448537562
 20
5.4497998272
 30
0.0
 10
4.8417194108
 20
5.4503107553
 30
0.0
 10
4.8384872986
 20
5.450782156
 30
0.0
 10
4.8338985378
 20
5.4513860071
 30
0.0
 10
4.8277412176
 20
5.4520837188
 30
0.0
 10
4.8198033568
 20
5.4528429611
 30
0.0
 10
4.8111115245
 20
5.4535541441
 30
0.0
 10
4.8016534764
 20
5.4542223763
 30
0.0
 10
4.7914399635
 20
5.4548490155
 30
0.0
 10
4.7804967429
 20
5.4554337151
 30
0.0
 10
4.7688601365
 20
5.4559752595
 30
0.0
 10
4.7565743941
 20
5.456472041
 30
0.0
 10
4.7436899817
 20
5.4569222992
 30
0.0
 10
4.7302623944
 20
5.4573243005
 30
0.0
 10
4.711449231
 20
5.4578003439
 30
0.0
 10
4.6870485433
 20
5.45825774
 30
0.0
 10
4.6570281371
 20
5.4585869022
 30
0.0
 10
4.6366952501
 20
5.4586602664
 30
0.0
 10
4.6264324534
 20
5.4586602664
 30
0.0
  0
SPLINE
  5
5D1
100
AcDbEntity
  8
0
100
AcDbSpline
 62
7
  6
CONTINUOUS
 70
0
 71
3
 72
42
 73
38
 74
0
 42
0.0000001
 43
0.0000001
 44
0.0000000001
 40
0.0
 40
0.0
 40
0.0
 40
0.0
 40
0.089549442
 40
0.1781975422
 40
0.2650551614
 40
0.3492519691
 40
0.4299485762
 40
0.5063470493
 40
0.5777021031
 40
0.6433343774
 40
0.6738143577
 40
0.7026475889
 40
0.7297767196
 40
0.755153953
 40
0.7787431861
 40
0.8005234858
 40
0.8204968697
 40
0.8386986727
 40
0.8552183891
 40
0.8702415393
 40
0.877296845
 40
0.8841421175
 40
0.890889332
 40
0.8977054066
 40
0.9048444972
 40
0.9126956432
 40
0.9218324357
 40
0.9329834249
 40
0.9395220972
 40
0.9467420167
 40
0.9546050586
 40
0.9630229137
 40
0.9718818517
 40
0.9810655691
 40
0.9857481574
 40
0.9904717646
 40
1.0
 40
1.0
 40
1.0
 40
1.0
 10
4.6264324534
 20
5.0693181466
 30
0.0
 10
4.6327225066
 20
5.0693181466
 30
0.0
 10
4.6452393273
 20
5.0693510609
 30
0.0
 10
4.6638565973
 20
5.0694989173
 30
0.0
 10
4.6820968484
 20
5.0697436652
 30
0.0
 10
4.6997769755
 20
5.0700828036
 30
0.0
 10
4.7167202478
 20
5.070512899
 30
0.0
 10
4.7327586636
 20
5.0710295926
 30
0.0
 10
4.7477353365
 20
5.0716278432
 30
0.0
 10
4.7594845935
 20
5.0722026633
 30
0.0
 10
4.7682465801
 20
5.0727046711
 30
0.0
 10
4.7743062551
 20
5.0730889877
 30
0.0
 10
4.7800056138
 20
5.0734898011
 30
0.0
 10
4.7853344379
 20
5.0739066504
 30
0.0
 10
4.7902849794
 20
5.0743393085
 30
0.0
 10
4.7948528617
 20
5.0747879901
 30
0.0
 10
4.7990385026
 20
5.0752537814
 30
0.0
 10
4.8028497346
 20
5.0757393793
 30
0.0
 10
4.8063064751
 20
5.0762509313
 30
0.0
 10
4.8089774922
 20
5.0767188579
 30
0.0
 10
4.8109680885
 20
5.0771258051
 30
0.0
 10
4.8123822984
 20
5.0774481043
 30
0.0
 10
4.8137709275
 20
5.0778049191
 30
0.0
 10
4.8151663995
 20
5.0782151352
 30
0.0
 10
4.8166159872
 20
5.0787118408
 30
0.0
 10
4.8181855635
 20
5.0793543541
 30
0.0
 10
4.8199519651
 20
5.0802468952
 30
0.0
 10
4.8215357054
 20
5.0812782651
 30
0.0
 10
4.8228952884
 20
5.0823821001
 30
0.0
 10
4.8239913493
 20
5.0834363784
 30
0.0
 10
4.8250694904
 20
5.0846899508
 30
0.0
 10
4.8260779421
 20
5.0861437546
 30
0.0
 10
4.8269625298
 20
5.0877829141
 30
0.0
 10
4.8275522011
 20
5.0892707484
 30
0.0
 10
4.8279212397
 20
5.0905240643
 30
0.0
 10
4.8282180199
 20
5.0918211213
 30
0.0
 10
4.8283493017
 20
5.0928170347
 30
0.0
 10
4.8283950313
 20
5.0934847446
 30
0.0
  0
SPLINE
  5
5D2
100
AcDbEntity
  8
0
100
AcDbSpline
 62
7
  6
CONTINUOUS
 70
0
 71
3
 72
21
 73
17
 74
0
 42
0.0000001
 43
0.0000001
 44
0.0000000001
 40
0.0
 40
0.0
 40
0.0
 40
0.0
 40
0.0912386862
 40
0.1434917491
 40
0.201357912
 40
0.2658268496
 40
0.33763358
 40
0.4164944545
 40
0.4999996694
 40
0.5835048193
 40
0.6623657379
 40
0.7341726836
 40
0.7986417733
 40
0.8565080854
 40
0.908761084
 40
1.0
 40
1.0
 40
1.0
 40
1.0
 10
2.9384180569
 20
3.0752774806
 30
0.0
 10
2.9393557852
 20
3.0738897915
 30
0.0
 10
2.9406706053
 20
3.0715948176
 30
0.0
 10
2.9421744323
 20
3.0682162301
 30
0.0
 10
2.9432654075
 20
3.0651995363
 30
0.0
 10
2.944228971
 20
3.0617651957
 30
0.0
 10
2.9450067452
 20
3.0578894197
 30
0.0
 10
2.9455227617
 20
3.0536173899
 30
0.0
 10
2.945704997
 20
3.0491027855
 30
0.0
 10
2.9455227604
 20
3.0445881807
 30
0.0
 10
2.9450067523
 20
3.0403161463
 30
0.0
 10
2.9442289738
 20
3.0364403632
 30
0.0
 10
2.9432654088
 20
3.0330060136
 30
0.0
 10
2.9421744358
 20
3.0299893134
 30
0.0
 10
2.9406705904
 20
3.0266107304
 30
0.0
 10
2.9393558211
 20
3.0243157198
 30
0.0
 10
2.9384180578
 20
3.0229280492
 30
0.0
  0
SPLINE
  5
5D3
100
AcDbEntity
  8
0
100
AcDbSpline
 62
7
  6
CONTINUOUS
 70
0
 71
3
 72
21
 73
17
 74
0
 42
0.0000001
 43
0.0000001
 44
0.0000000001
 40
0.0
 40
0.0
 40
0.0
 40
0.0
 40
0.0912386862
 40
0.1434917491
 40
0.201357912
 40
0.2658268496
 40
0.33763358
 40
0.4164944545
 40
0.4999996694
 40
0.5835048193
 40
0.6623657379
 40
0.7341726836
 40
0.7986417733
 40
0.8565080854
 40
0.908761084
 40
1.0
 40
1.0
 40
1.0
 40
1.0
 10
2.3144468499
 20
3.0752774806
 30
0.0
 10
2.3135091216
 20
3.0738897915
 30
0.0
 10
2.3121943016
 20
3.0715948176
 30
0.0
 10
2.3106904745
 20
3.0682162301
 30
0.0
 10
2.3095994993
 20
3.0651995363
 30
0.0
 10
2.3086359358
 20
3.0617651957
 30
0.0
 10
2.3078581616
 20
3.0578894197
 30
0.0
 10
2.3073421451
 20
3.0536173899
 30
0.0
 10
2.3071599098
 20
3.0491027855
 30
0.0
 10
2.3073421465
 20
3.0445881807
 30
0.0
 10
2.3078581545
 20
3.0403161463
 30
0.0
 10
2.3086359331
 20
3.0364403632
 30
0.0
 10
2.3095994981
 20
3.0330060136
 30
0.0
 10
2.3106904711
 20
3.0299893134
 30
0.0
 10
2.3121943165
 20
3.0266107304
 30
0.0
 10
2.3135090857
 20
3.0243157198
 30
0.0
 10
2.3144468491
 20
3.0229280492
 30
0.0
  0
LINE
  5
5D4
100
AcDbEntity
  8
0
100
AcDbLine
 62
7
  6
CONTINUOUS
 10
3.1847901349
 20
2.7838900697
 11
3.1853805032
 21
2.7840363615
  0
SPLINE
  5
5D5
100
AcDbEntity
  8
0
100
AcDbSpline
 62
7
  6
CONTINUOUS
 70
0
 71
3
 72
34
 73
30
 74
0
 42
0.0000001
 43
0.0000001
 44
0.0000000001
 40
0.0
 40
0.0
 40
0.0
 40
0.0
 40
0.0030450142
 40
0.0074403657
 40
0.0133665102
 40
0.0209971667
 40
0.0304807414
 40
0.0419471607
 40
0.0555030182
 40
0.0712288137
 40
0.0891805223
 40
0.1093887221
 40
0.1318594082
 40
0.1565757005
 40
0.1835008524
 40
0.2125808387
 40
0.2437471954
 40
0.276919898
 40
0.3120099795
 40
0.3489220312
 40
0.3875562864
 40
0.427810202
 40
0.4695798991
 40
0.5127612554
 40
0.6029349497
 40
0.6975252548
 40
0.7957400471
 40
0.8968127351
 40
1.0
 40
1.0
 40
1.0
 40
1.0
 10
3.1853805032
 20
2.7840363615
 30
0.0
 10
3.185595102
 20
2.7840980714
 30
0.0
 10
3.186114648
 20
2.7842656328
 30
0.0
 10
3.1870318156
 20
2.784612494
 30
0.0
 10
3.1882385248
 20
2.7851401346
 30
0.0
 10
3.1897521746
 20
2.7858923357
 30
0.0
 10
3.191581975
 20
2.7869160178
 30
0.0
 10
3.19372953
 20
2.7882559913
 30
0.0
 10
3.1961885019
 20
2.7899556186
 30
0.0
 10
3.1989453933
 20
2.7920544137
 30
0.0
 10
3.2019800792
 20
2.794587274
 30
0.0
 10
3.2052668006
 20
2.7975835715
 30
0.0
 10
3.2087751906
 20
2.8010664942
 30
0.0
 10
3.2124714804
 20
2.8050527622
 30
0.0
 10
3.2163196228
 20
2.8095527244
 30
0.0
 10
3.2202824039
 20
2.8145706369
 30
0.0
 10
3.224322384
 20
2.8201051152
 30
0.0
 10
3.2284027015
 20
2.8261497064
 30
0.0
 10
3.2324877264
 20
2.8326935335
 30
0.0
 10
3.2365435386
 20
2.8397219636
 30
0.0
 10
3.2405382455
 20
2.8472172657
 30
0.0
 10
3.2444421734
 20
2.8551591663
 30
0.0
 10
3.2482280416
 20
2.8635254875
 30
0.0
 10
3.2531562668
 20
2.8753862645
 30
0.0
 10
3.2588546296
 20
2.8911121036
 30
0.0
 10
3.2647849782
 20
2.9110091686
 30
0.0
 10
3.2697808014
 20
2.9319839804
 30
0.0
 10
3.2737470402
 20
2.953817607
 30
0.0
 10
3.275643352
 20
2.9686839238
 30
0.0
 10
3.2764070003
 20
2.9762121606
 30
0.0
  0
SPLINE
  5
5D6
100
AcDbEntity
  8
0
100
AcDbSpline
 62
7
  6
CONTINUOUS
 70
0
 71
3
 72
33
 73
29
 74
0
 42
0.0000001
 43
0.0000001
 44
0.0000000001
 40
0.0
 40
0.0
 40
0.0
 40
0.0
 40
0.0295978986
 40
0.059200913
 40
0.0888138477
 40
0.1184431133
 40
0.1480959443
 40
0.1777811612
 40
0.2075092251
 40
0.2372923226
 40
0.2671443334
 40
0.2970806355
 40
0.327117686
 40
0.3572728047
 40
0.3875637581
 40
0.4180080877
 40
0.4486224588
 40
0.4794223054
 40
0.5104214013
 40
0.5416313515
 40
0.6047019204
 40
0.6686847164
 40
0.7335633204
 40
0.7992694234
 40
0.8656863373
 40
0.8991184746
 40
0.9326663044
 40
1.0
 40
1.0
 40
1.0
 40
1.0
 10
3.1849767622
 20
2.3838930061
 30
0.0
 10
3.1933977722
 20
2.3838930061
 30
0.0
 10
3.2102461559
 20
2.3844292147
 30
0.0
 10
3.2354161657
 20
2.3868366188
 30
0.0
 10
3.2603933872
 20
2.3908313099
 30
0.0
 10
3.2850842287
 20
2.3963873309
 30
0.0
 10
3.3094023099
 20
2.4034699536
 30
0.0
 10
3.3332674417
 20
2.4120366612
 30
0.0
 10
3.3566072132
 20
2.4220387967
 30
0.0
 10
3.3793574047
 20
2.43342298
 30
0.0
 10
3.4014621514
 20
2.4461327455
 30
0.0
 10
3.4228737464
 20
2.4601098497
 30
0.0
 10
3.4435521115
 20
2.4752955733
 30
0.0
 10
3.463464115
 20
2.491631674
 30
0.0
 10
3.482582672
 20
2.509061171
 30
0.0
 10
3.500885748
 20
2.5275287201
 30
0.0
 10
3.5183553848
 20
2.546980883
 30
0.0
 10
3.5349767259
 20
2.5673659219
 30
0.0
 10
3.5507376583
 20
2.5886344578
 30
0.0
 10
3.5706573853
 20
2.6182045332
 30
0.0
 10
3.5933404318
 20
2.6571708697
 30
0.0
 10
3.6168573878
 20
2.7065176576
 30
0.0
 10
3.6367117633
 20
2.7582503547
 30
0.0
 10
3.6528417828
 20
2.8119801917
 30
0.0
 10
3.6631129158
 20
2.8579930884
 30
0.0
 10
3.6694329486
 20
2.8954232326
 30
0.0
 10
3.6744888207
 20
2.9333069548
 30
0.0
 10
3.6768195833
 20
2.9619437128
 30
0.0
 10
3.6777273324
 20
2.9810795586
 30
0.0
  0
SPLINE
  5
5D7
100
AcDbEntity
  8
0
100
AcDbSpline
 62
7
  6
CONTINUOUS
 70
0
 71
3
 72
22
 73
18
 74
0
 42
0.0000001
 43
0.0000001
 44
0.0000000001
 40
0.0
 40
0.0
 40
0.0
 40
0.0
 40
0.0437098824
 40
0.0912859494
 40
0.1435349887
 40
0.2013972623
 40
0.2658628563
 40
0.3376646835
 40
0.4165248311
 40
0.5000274413
 40
0.5835302227
 40
0.662390112
 40
0.7341923161
 40
0.7986577115
 40
0.856519892
 40
0.9087689651
 40
1.0
 40
1.0
 40
1.0
 40
1.0
 10
6.3144468488
 20
3.0229280504
 30
0.0
 10
6.3139976188
 20
3.0235929124
 30
0.0
 10
6.3131082447
 20
3.0250150401
 30
0.0
 10
6.311868696
 20
3.0273425295
 30
0.0
 10
6.3106904262
 20
3.0299893138
 30
0.0
 10
6.3095996065
 20
3.0330057213
 30
0.0
 10
6.308635975
 20
3.0364401072
 30
0.0
 10
6.307858187
 20
3.0403159055
 30
0.0
 10
6.3073421594
 20
3.044588028
 30
0.0
 10
6.3071599356
 20
3.0491027726
 30
0.0
 10
6.3073421547
 20
3.0536175159
 30
0.0
 10
6.3078581893
 20
3.0578896346
 30
0.0
 10
6.3086359891
 20
3.0617654566
 30
0.0
 10
6.3095995677
 20
3.0651997664
 30
0.0
 10
6.3106905499
 20
3.0682164184
 30
0.0
 10
6.3121943384
 20
3.0715949327
 30
0.0
 10
6.3135091694
 20
3.0738898169
 30
0.0
 10
6.3144468499
 20
3.0752774795
 30
0.0
  0
SPLINE
  5
5D8
100
AcDbEntity
  8
0
100
AcDbSpline
 62
7
  6
CONTINUOUS
 70
0
 71
3
 72
22
 73
18
 74
0
 42
0.0000001
 43
0.0000001
 44
0.0000000001
 40
0.0
 40
0.0
 40
0.0
 40
0.0
 40
0.0437098824
 40
0.0912859494
 40
0.1435349887
 40
0.2013972623
 40
0.2658628563
 40
0.3376646835
 40
0.4165248311
 40
0.5000274413
 40
0.5835302227
 40
0.662390112
 40
0.7341923161
 40
0.7986577115
 40
0.856519892
 40
0.9087689651
 40
1.0
 40
1.0
 40
1.0
 40
1.0
 10
6.9384180581
 20
3.0229280504
 30
0.0
 10
6.938867288
 20
3.0235929124
 30
0.0
 10
6.9397566622
 20
3.0250150401
 30
0.0
 10
6.9409962108
 20
3.0273425295
 30
0.0
 10
6.9421744807
 20
3.0299893138
 30
0.0
 10
6.9432653003
 20
3.0330057213
 30
0.0
 10
6.9442289319
 20
3.0364401072
 30
0.0
 10
6.9450067199
 20
3.0403159055
 30
0.0
 10
6.9455227475
 20
3.044588028
 30
0.0
 10
6.9457049712
 20
3.0491027726
 30
0.0
 10
6.9455227522
 20
3.0536175159
 30
0.0
 10
6.9450067175
 20
3.0578896346
 30
0.0
 10
6.9442289177
 20
3.0617654566
 30
0.0
 10
6.9432653391
 20
3.0651997664
 30
0.0
 10
6.9421743569
 20
3.0682164184
 30
0.0
 10
6.9406705684
 20
3.0715949327
 30
0.0
 10
6.9393557374
 20
3.0738898169
 30
0.0
 10
6.9384180569
 20
3.0752774795
 30
0.0
  0
SPLINE
  5
5D9
100
AcDbEntity
  8
0
100
AcDbSpline
 62
7
  6
CONTINUOUS
 70
0
 71
3
 72
33
 73
29
 74
0
 42
0.0000001
 43
0.0000001
 44
0.0000000001
 40
0.0
 40
0.0
 40
0.0
 40
0.0
 40
0.0295978987
 40
0.0592009131
 40
0.0888138478
 40
0.1184431135
 40
0.1480959445
 40
0.1777811614
 40
0.2075092254
 40
0.2372923229
 40
0.2671443338
 40
0.297080636
 40
0.3271176864
 40
0.3572728052
 40
0.3875637585
 40
0.4180080882
 40
0.4486224593
 40
0.4794223059
 40
0.5104214018
 40
0.5416313519
 40
0.6047019208
 40
0.6686847167
 40
0.7335633206
 40
0.7992694235
 40
0.8656863373
 40
0.8991184745
 40
0.9326663044
 40
1.0
 40
1.0
 40
1.0
 40
1.0
 10
6.0678881446
 20
2.3838930061
 30
0.0
 10
6.0594671348
 20
2.3838930061
 30
0.0
 10
6.0426187515
 20
2.3844292147
 30
0.0
 10
6.0174487422
 20
2.3868366187
 30
0.0
 10
5.9924715212
 20
2.3908313097
 30
0.0
 10
5.9677806802
 20
2.3963873304
 30
0.0
 10
5.9434625995
 20
2.4034699527
 30
0.0
 10
5.9195974681
 20
2.41203666
 30
0.0
 10
5.896257697
 20
2.4220387952
 30
0.0
 10
5.8735075059
 20
2.433422978
 30
0.0
 10
5.8514027596
 20
2.446132743
 30
0.0
 10
5.8299911649
 20
2.4601098466
 30
0.0
 10
5.8093128
 20
2.4752955696
 30
0.0
 10
5.7894007967
 20
2.4916316697
 30
0.0
 10
5.7702822399
 20
2.5090611662
 30
0.0
 10
5.7519791641
 20
2.5275287145
 30
0.0
 10
5.7345095274
 20
2.5469808767
 30
0.0
 10
5.7178881863
 20
2.5673659149
 30
0.0
 10
5.702127254
 20
2.5886344501
 30
0.0
 10
5.682207527
 20
2.6182045244
 30
0.0
 10
5.6595244804
 20
2.6571708596
 30
0.0
 10
5.6360075241
 20
2.7065176459
 30
0.0
 10
5.6161531481
 20
2.7582503414
 30
0.0
 10
5.600023128
 20
2.8119801768
 30
0.0
 10
5.5897519942
 20
2.8579930722
 30
0.0
 10
5.5834319609
 20
2.8954232154
 30
0.0
 10
5.578376088
 20
2.9333069366
 30
0.0
 10
5.5760453248
 20
2.9619436939
 30
0.0
 10
5.5751375753
 20
2.9810795393
 30
0.0
  0
LINE
  5
5DA
100
AcDbEntity
  8
0
100
AcDbLine
 62
7
  6
CONTINUOUS
 10
6.0680747719
 20
2.7838900697
 11
6.0674844037
 21
2.7840363615
  0
SPLINE
  5
5DB
100
AcDbEntity
  8
0
100
AcDbSpline
 62
7
  6
CONTINUOUS
 70
0
 71
3
 72
34
 73
30
 74
0
 42
0.0000001
 43
0.0000001
 44
0.0000000001
 40
0.0
 40
0.0
 40
0.0
 40
0.0
 40
0.0030450138
 40
0.007440365
 40
0.0133665096
 40
0.0209971664
 40
0.030480742
 40
0.0419471624
 40
0.0555030215
 40
0.071228819
 40
0.08918053
 40
0.1093887325
 40
0.1318594215
 40
0.1565757169
 40
0.1835008719
 40
0.2125808613
 40
0.2437472209
 40
0.2769199264
 40
0.3120100103
 40
0.3489220643
 40
0.3875563212
 40
0.427810238
 40
0.4695799359
 40
0.5127612924
 40
0.6029349852
 40
0.6975252861
 40
0.7957400712
 40
0.8968127489
 40
1.0
 40
1.0
 40
1.0
 40
1.0
 10
6.0674844037
 20
2.7840363615
 30
0.0
 10
6.0672698048
 20
2.7840980714
 30
0.0
 10
6.0667502585
 20
2.7842656329
 30
0.0
 10
6.0658330905
 20
2.7846124943
 30
0.0
 10
6.0646263806
 20
2.7851401353
 30
0.0
 10
6.0631127299
 20
2.7858923369
 30
0.0
 10
6.0612829285
 20
2.7869160197
 30
0.0
 10
6.0591353721
 20
2.7882559944
 30
0.0
 10
6.0566763988
 20
2.789955623
 30
0.0
 10
6.0539195058
 20
2.7920544199
 30
0.0
 10
6.0508848181
 20
2.7945872823
 30
0.0
 10
6.0475980949
 20
2.7975835823
 30
0.0
 10
6.044089703
 20
2.8010665079
 30
0.0
 10
6.0403934113
 20
2.8050527792
 30
0.0
 10
6.036545267
 20
2.809552745
 30
0.0
 10
6.0325824843
 20
2.8145706614
 30
0.0
 10
6.0285425026
 20
2.8201051441
 30
0.0
 10
6.0244621836
 20
2.8261497399
 30
0.0
 10
6.0203771573
 20
2.8326935718
 30
0.0
 10
6.0163213442
 20
2.839722007
 30
0.0
 10
6.0123266364
 20
2.8472173144
 30
0.0
 10
6.0084227078
 20
2.8551592204
 30
0.0
 10
6.0046368393
 20
2.8635255472
 30
0.0
 10
5.999708614
 20
2.8753863318
 30
0.0
 10
5.9940102518
 20
2.8911121805
 30
0.0
 10
5.9880799048
 20
2.911009257
 30
0.0
 10
5.9830840844
 20
2.93198408
 30
0.0
 10
5.9791178494
 20
2.9538177175
 30
0.0
 10
5.9772215409
 20
2.9686840412
 30
0.0
 10
5.9764578943
 20
2.9762122814
 30
0.0
  0
LINE
  5
5DC
100
AcDbEntity
  8
0
100
AcDbLine
 62
7
  6
CONTINUOUS
 10
2.6638195761
 20
4.263872623
 11
2.6480804482
 21
4.2637357921
  0
LINE
  5
5DD
100
AcDbEntity
  8
0
100
AcDbLine
 62
7
  6
CONTINUOUS
 10
2.6480804482
 20
4.2637357921
 11
2.6470620195
 21
4.2637333249
  0
LINE
  5
5DE
100
AcDbEntity
  8
0
100
AcDbLine
 62
7
  6
CONTINUOUS
 10
2.6470620195
 20
4.2637333249
 11
2.6041390488
 21
4.2636854788
  0
LINE
  5
5DF
100
AcDbEntity
  8
0
100
AcDbLine
 62
7
  6
CONTINUOUS
 10
2.6041390488
 20
4.2636854788
 11
2.5875537668
 21
4.2637961963
  0
LINE
  5
5E0
100
AcDbEntity
  8
0
100
AcDbLine
 62
7
  6
CONTINUOUS
 10
2.5471824534
 20
4.2607757109
 11
2.546694653
 21
4.2607343194
  0
LINE
  5
5E1
100
AcDbEntity
  8
0
100
AcDbLine
 62
7
  6
CONTINUOUS
 10
2.546694653
 20
4.2607343194
 11
2.5441824534
 21
4.2604751699
  0
LINE
  5
5E2
100
AcDbEntity
  8
0
100
AcDbLine
 62
7
  6
CONTINUOUS
 10
2.5251824534
 20
4.2582106997
 11
2.5221824534
 21
4.2577959237
  0
LINE
  5
5E3
100
AcDbEntity
  8
0
100
AcDbLine
 62
7
  6
CONTINUOUS
 10
6.6238114273
 20
4.2647696693
 11
6.6081982318
 21
4.2638273139
  0
LINE
  5
5E4
100
AcDbEntity
  8
0
100
AcDbLine
 62
7
  6
CONTINUOUS
 10
6.6081982318
 20
4.2638273139
 11
6.6071012666
 21
4.2637679664
  0
LINE
  5
5E5
100
AcDbEntity
  8
0
100
AcDbLine
 62
7
  6
CONTINUOUS
 10
6.6071012666
 20
4.2637679664
 11
6.6060631999
 21
4.2637120465
  0
LINE
  5
5E6
100
AcDbEntity
  8
0
100
AcDbLine
 62
7
  6
CONTINUOUS
 10
6.5651344086
 20
4.2615487099
 11
6.5640609869
 21
4.2614931165
  0
LINE
  5
5E7
100
AcDbEntity
  8
0
100
AcDbLine
 62
7
  6
CONTINUOUS
 10
6.5640609869
 20
4.2614931165
 11
6.5473167315
 21
4.2607408776
  0
LINE
  5
5E8
100
AcDbEntity
  8
0
100
AcDbLine
 62
7
  6
CONTINUOUS
 10
6.5359324534
 20
4.2593961074
 11
6.4632437906
 21
4.24692727
  0
SPLINE
  5
5E9
100
AcDbEntity
  8
0
100
AcDbSpline
 62
7
  6
CONTINUOUS
 70
0
 71
3
 72
23
 73
19
 74
0
 42
0.0000001
 43
0.0000001
 44
0.0000000001
 40
0.0
 40
0.0
 40
0.0
 40
0.0
 40
0.0622984659
 40
0.0935794787
 40
0.1249382792
 40
0.1878592883
 40
0.2510259564
 40
0.282689437
 40
0.314391513
 40
0.3778653983
 40
0.441383776
 40
0.504865574
 40
0.5682250076
 40
0.6313719453
 40
0.7565749859
 40
0.818496683
 40
0.8797979432
 40
1.0
 40
1.0
 40
1.0
 40
1.0
 10
6.2187075431
 20
2.5163078414
 30
0.0
 10
6.2172853925
 20
2.5213170117
 30
0.0
 10
6.2154632266
 20
2.5289356382
 30
0.0
 10
6.2136631262
 20
2.5392241672
 30
0.0
 10
6.212275704
 20
2.5496295914
 30
0.0
 10
6.2113262697
 20
2.5627701052
 30
0.0
 10
6.2114122668
 20
2.5759692637
 30
0.0
 10
6.2120885151
 20
2.5865258686
 30
0.0
 10
6.2131665192
 20
2.5970748416
 30
0.0
 10
6.2152548394
 20
2.6101870084
 30
0.0
 10
6.2189014073
 20
2.6256981642
 30
0.0
 10
6.2236401788
 20
2.640900768
 30
0.0
 10
6.2294160783
 20
2.6557073892
 30
0.0
 10
6.2383889473
 20
2.6747504316
 30
0.0
 10
6.2491968761
 20
2.6927465482
 30
0.0
 10
6.261605511
 20
2.7094110017
 30
0.0
 10
6.2748104794
 20
2.7249036736
 30
0.0
 10
6.2857810438
 20
2.7354679704
 30
0.0
 10
6.2934805707
 20
2.7419222912
 30
0.0
  0
SPLINE
  5
5EA
100
AcDbEntity
  8
0
100
AcDbSpline
 62
7
  6
CONTINUOUS
 70
0
 71
3
 72
41
 73
37
 74
0
 42
0.0000001
 43
0.0000001
 44
0.0000000001
 40
0.0
 40
0.0
 40
0.0
 40
0.0
 40
0.0975064169
 40
0.1940750576
 40
0.2887806517
 40
0.3807131745
 40
0.468990417
 40
0.5527656565
 40
0.6312362962
 40
0.7036515224
 40
0.7373700417
 40
0.769320618
 40
0.799427527
 40
0.8276196302
 40
0.8538305871
 40
0.8779994079
 40
0.9000706118
 40
0.9199944606
 40
0.9377277326
 40
0.9532346532
 40
0.9601445389
 40
0.9664886085
 40
0.9722651972
 40
0.9774740432
 40
0.9821161939
 40
0.9861946708
 40
0.9897159833
 40
0.9926917012
 40
0.9939814906
 40
0.9951441533
 40
0.9961854169
 40
0.9971133216
 40
0.9979392946
 40
0.9986795833
 40
0.9993567356
 40
1.0
 40
1.0
 40
1.0
 40
1.0
 10
4.6264324534
 20
5.7589104032
 30
0.0
 10
4.6203063221
 20
5.7589104032
 30
0.0
 10
4.6081129544
 20
5.7588792029
 30
0.0
 10
4.5899699117
 20
5.758739039
 30
0.0
 10
4.5721780276
 20
5.7585069796
 30
0.0
 10
4.5549085503
 20
5.7581853285
 30
0.0
 10
4.5383278185
 20
5.7577772932
 30
0.0
 10
4.5225954669
 20
5.7572869822
 30
0.0
 10
4.5078629747
 20
5.7567193012
 30
0.0
 10
4.496277263
 20
5.7561745738
 30
0.0
 10
4.4876146752
 20
5.7556996411
 30
0.0
 10
4.48160821
 20
5.7553362228
 30
0.0
 10
4.4759505965
 20
5.7549580036
 30
0.0
 10
4.47065545
 20
5.7545659227
 30
0.0
 10
4.4657355102
 20
5.754160981
 30
0.0
 10
4.4612025962
 20
5.7537442362
 30
0.0
 10
4.4570675842
 20
5.7533167945
 30
0.0
 10
4.4533403453
 20
5.7528798712
 30
0.0
 10
4.450029783
 20
5.7524346525
 30
0.0
 10
4.4475372698
 20
5.7520445219
 30
0.0
 10
4.4457587178
 20
5.7517248036
 30
0.0
 10
4.4445856996
 20
5.7514929008
 30
0.0
 10
4.4435220855
 20
5.7512597463
 30
0.0
 10
4.4425684503
 20
5.7510255262
 30
0.0
 10
4.4417252789
 20
5.7507904489
 30
0.0
 10
4.4409928606
 20
5.7505547347
 30
0.0
 10
4.4403714587
 20
5.7503185868
 30
0.0
 10
4.4399267563
 20
5.7501129764
 30
0.0
 10
4.4396294242
 20
5.7499455718
 30
0.0
 10
4.4394451872
 20
5.7498259199
 30
0.0
 10
4.4392888098
 20
5.749706088
 30
0.0
 10
4.4391602491
 20
5.7495859428
 30
0.0
 10
4.4390595003
 20
5.7494652739
 30
0.0
 10
4.4389867382
 20
5.7493437155
 30
0.0
 10
4.4389424871
 20
5.7492210762
 30
0.0
 10
4.438932465
 20
5.7491378264
 30
0.0
 10
4.438932465
 20
5.7490974114
 30
0.0
  0
SPLINE
  5
5EB
100
AcDbEntity
  8
0
100
AcDbSpline
 62
7
  6
CONTINUOUS
 70
0
 71
3
 72
49
 73
45
 74
0
 42
0.0000001
 43
0.0000001
 44
0.0000000001
 40
0.0
 40
0.0
 40
0.0
 40
0.0
 40
0.0000047574
 40
0.0000190283
 40
0.0000428111
 40
0.000076104
 40
0.0001712135
 40
0.0003043431
 40
0.0004754792
 40
0.0006846081
 40
0.0009317163
 40
0.00121679
 40
0.0019007795
 40
0.0027364677
 40
0.003723741
 40
0.0048623838
 40
0.0061520781
 40
0.0075925015
 40
0.0109242462
 40
0.0148550096
 40
0.0193814402
 40
0.0244994187
 40
0.0302047926
 40
0.0364930068
 40
0.0433586337
 40
0.0507961389
 40
0.0587998515
 40
0.0764799047
 40
0.0963450821
 40
0.1183370171
 40
0.1423942328
 40
0.1684519011
 40
0.1964432907
 40
0.226299913
 40
0.2579520276
 40
0.2913292375
 40
0.3629733905
 40
0.4406603853
 40
0.5238114579
 40
0.6118367983
 40
0.7041270694
 40
0.8000436805
 40
0.8989073066
 40
1.0
 40
1.0
 40
1.0
 40
1.0
 10
2.3476824534
 20
3.9158527686
 30
0.0
 10
2.3476825677
 20
3.9158528393
 30
0.0
 10
2.3476825778
 20
3.9158534823
 30
0.0
 10
2.3476831442
 20
3.9158544905
 30
0.0
 10
2.3476837236
 20
3.9158564647
 30
0.0
 10
2.3476852127
 20
3.9158604715
 30
0.0
 10
2.3476876327
 20
3.9158674692
 30
0.0
 10
2.3476914116
 20
3.9158780874
 30
0.0
 10
2.3476962343
 20
3.9158917649
 30
0.0
 10
2.3477021387
 20
3.9159084692
 30
0.0
 10
2.3477091096
 20
3.9159282113
 30
0.0
 10
2.3477205451
 20
3.9159605989
 30
0.0
 10
2.3477375078
 20
3.9160086638
 30
0.0
 10
2.3477610598
 20
3.9160754335
 30
0.0
 10
2.3477888706
 20
3.9161543169
 30
0.0
 10
2.3478209258
 20
3.9162452994
 30
0.0
 10
2.3478572048
 20
3.9163483629
 30
0.0
 10
2.3479139973
 20
3.9165098688
 30
0.0
 10
2.3479954021
 20
3.9167417868
 30
0.0
 10
2.3481054256
 20
3.917056028
 30
0.0
 10
2.3482317821
 20
3.9174180004
 30
0.0
 10
2.3483741992
 20
3.9178274509
 30
0.0
 10
2.3485324051
 20
3.9182840899
 30
0.0
 10
2.3487060976
 20
3.9187875987
 30
0.0
 10
2.348894911
 20
3.9193376389
 30
0.0
 10
2.3490984758
 20
3.9199338389
 30
0.0
 10
2.3493991833
 20
3.920819605
 30
0.0
 10
2.3498090995
 20
3.9220389527
 30
0.0
 10
2.3503379726
 20
3.9236350798
 30
0.0
 10
2.3509147871
 20
3.925405035
 30
0.0
 10
2.351535225
 20
3.9273446872
 30
0.0
 10
2.3521946101
 20
3.9294497377
 30
0.0
 10
2.3528880696
 20
3.9317157007
 30
0.0
 10
2.3536104946
 20
3.9341379689
 30
0.0
 10
2.3543565822
 20
3.9367118329
 30
0.0
 10
2.3554005681
 20
3.9404279683
 30
0.0
 10
2.3567287428
 20
3.9454145308
 30
0.0
 10
2.3582920317
 20
3.9517920091
 30
0.0
 10
2.3598137037
 20
3.9586544125
 30
0.0
 10
2.3612470631
 20
3.9659567493
 30
0.0
 10
2.3625464792
 20
3.973650171
 30
0.0
 10
2.3636687503
 20
3.9816808204
 30
0.0
 10
2.364574878
 20
3.9899889212
 30
0.0
 10
2.3650092021
 20
3.9956205704
 30
0.0
 10
2.3651824534
 20
3.9984703884
 30
0.0
  0
SPLINE
  5
5EC
100
AcDbEntity
  8
0
100
AcDbSpline
 62
7
  6
CONTINUOUS
 70
0
 71
3
 72
75
 73
71
 74
0
 42
0.0000001
 43
0.0000001
 44
0.0000000001
 40
0.0
 40
0.0
 40
0.0
 40
0.0
 40
0.0487531189
 40
0.0970374426
 40
0.1443902541
 40
0.1903565185
 40
0.2344951474
 40
0.2763827774
 40
0.3156181052
 40
0.3518257259
 40
0.3686849898
 40
0.3846602817
 40
0.3997137393
 40
0.4138097943
 40
0.4269152762
 40
0.4389996893
 40
0.4500352938
 40
0.4599972209
 40
0.468863859
 40
0.476617321
 40
0.4800722649
 40
0.4832443004
 40
0.4861325954
 40
0.4887370192
 40
0.491058095
 40
0.4930973339
 40
0.4948579907
 40
0.4963458499
 40
0.4969907447
 40
0.4975720762
 40
0.4980927081
 40
0.4985566606
 40
0.4989696472
 40
0.4993397916
 40
0.4996783678
 40
0.5
 40
0.5003216322
 40
0.5006602084
 40
0.5010303528
 40
0.5014433394
 40
0.5019072919
 40
0.5024279238
 40
0.5030092553
 40
0.5036541501
 40
0.5051420093
 40
0.5069026661
 40
0.508941905
 40
0.5112629808
 40
0.5138674046
 40
0.5167556996
 40
0.5199277351
 40
0.523382679
 40
0.531136141
 40
0.5400027791
 40
0.5499647062
 40
0.5610003107
 40
0.5730847238
 40
0.5861902057
 40
0.6002862607
 40
0.6153397183
 40
0.6313150102
 40
0.6481742741
 40
0.6843818948
 40
0.7236172226
 40
0.7655048526
 40
0.8096434815
 40
0.8556097459
 40
0.9029625574
 40
0.9512468811
 40
1.0
 40
1.0
 40
1.0
 40
1.0
 10
4.6264324534
 20
5.0693393888
 30
0.0
 10
4.6325259009
 20
5.0693393888
 30
0.0
 10
4.6446542264
 20
5.0693704226
 30
0.0
 10
4.6627004973
 20
5.0695098386
 30
0.0
 10
4.6803974939
 20
5.0697406603
 30
0.0
 10
4.6975748706
 20
5.0700605958
 30
0.0
 10
4.7140671744
 20
5.0704664549
 30
0.0
 10
4.7297156233
 20
5.0709541508
 30
0.0
 10
4.7443695454
 20
5.0715188041
 30
0.0
 10
4.7558934691
 20
5.0720606264
 30
0.0
 10
4.7645098585
 20
5.0725330261
 30
0.0
 10
4.7704842905
 20
5.0728945061
 30
0.0
 10
4.7761117315
 20
5.0732707082
 30
0.0
 10
4.7813786383
 20
5.0736606981
 30
0.0
 10
4.7862723397
 20
5.0740634801
 30
0.0
 10
4.7907810792
 20
5.0744780023
 30
0.0
 10
4.7948940388
 20
5.0749031644
 30
0.0
 10
4.7986014
 20
5.0753377574
 30
0.0
 10
4.8018943068
 20
5.0757806017
 30
0.0
 10
4.8043735273
 20
5.0761686517
 30
0.0
 10
4.806142594
 20
5.0764866648
 30
0.0
 10
4.8073093564
 20
5.0767173308
 30
0.0
 10
4.8083672982
 20
5.0769492419
 30
0.0
 10
4.8093158476
 20
5.0771822128
 30
0.0
 10
4.8101545223
 20
5.0774160364
 30
0.0
 10
4.8108830345
 20
5.0776504935
 30
0.0
 10
4.8115011224
 20
5.0778853819
 30
0.0
 10
4.8119434532
 20
5.0780898958
 30
0.0
 10
4.8122391996
 20
5.0782564076
 30
0.0
 10
4.8124224541
 20
5.0783754212
 30
0.0
 10
4.8125779975
 20
5.0784946146
 30
0.0
 10
4.8127058726
 20
5.0786141174
 30
0.0
 10
4.8128060841
 20
5.0787341477
 30
0.0
 10
4.8128784581
 20
5.0788550421
 30
0.0
 10
4.8129224732
 20
5.0789770792
 30
0.0
 10
4.8129372983
 20
5.0791000446
 30
0.0
 10
4.8129224732
 20
5.0792230101
 30
0.0
 10
4.8128784581
 20
5.0793450472
 30
0.0
 10
4.8128060841
 20
5.0794659416
 30
0.0
 10
4.8127058726
 20
5.0795859718
 30
0.0
 10
4.8125779975
 20
5.0797054747
 30
0.0
 10
4.8124224541
 20
5.079824668
 30
0.0
 10
4.8122391996
 20
5.0799436816
 30
0.0
 10
4.8119434532
 20
5.0801101935
 30
0.0
 10
4.8115011224
 20
5.0803147073
 30
0.0
 10
4.8108830345
 20
5.0805495958
 30
0.0
 10
4.8101545223
 20
5.0807840529
 30
0.0
 10
4.8093158476
 20
5.0810178764
 30
0.0
 10
4.8083672982
 20
5.0812508474
 30
0.0
 10
4.8073093564
 20
5.0814827584
 30
0.0
 10
4.806142594
 20
5.0817134244
 30
0.0
 10
4.8043735273
 20
5.0820314375
 30
0.0
 10
4.8018943068
 20
5.0824194875
 30
0.0
 10
4.7986014
 20
5.0828623318
 30
0.0
 10
4.7948940388
 20
5.0832969249
 30
0.0
 10
4.7907810792
 20
5.0837220869
 30
0.0
 10
4.7862723397
 20
5.0841366092
 30
0.0
 10
4.7813786383
 20
5.0845393911
 30
0.0
 10
4.7761117315
 20
5.084929381
 30
0.0
 10
4.7704842905
 20
5.0853055831
 30
0.0
 10
4.7645098585
 20
5.0856670632
 30
0.0
 10
4.7558934691
 20
5.0861394629
 30
0.0
 10
4.7443695454
 20
5.0866812851
 30
0.0
 10
4.7297156233
 20
5.0872459384
 30
0.0
 10
4.7140671744
 20
5.0877336344
 30
0.0
 10
4.6975748706
 20
5.0881394934
 30
0.0
 10
4.6803974939
 20
5.088459429
 30
0.0
 10
4.6627004973
 20
5.0886902506
 30
0.0
 10
4.6446542264
 20
5.0888296667
 30
0.0
 10
4.6325259009
 20
5.0888607005
 30
0.0
 10
4.6264324534
 20
5.0888607005
 30
0.0
  0
SPLINE
  5
5ED
100
AcDbEntity
  8
0
100
AcDbSpline
 62
7
  6
CONTINUOUS
 70
0
 71
3
 72
32
 73
28
 74
0
 42
0.0000001
 43
0.0000001
 44
0.0000000001
 40
0.0
 40
0.0
 40
0.0
 40
0.0
 40
0.2255555703
 40
0.3287858725
 40
0.4252844906
 40
0.5148095669
 40
0.5971528571
 40
0.6721349816
 40
0.7396008192
 40
0.7994210732
 40
0.851487367
 40
0.874584848
 40
0.8957130182
 40
0.9148651013
 40
0.932035359
 40
0.9472211407
 40
0.9604228174
 40
0.9716445415
 40
0.980899259
 40
0.984797691
 40
0.9882172571
 40
0.991167191
 40
0.9936623264
 40
0.9957275771
 40
0.9974071437
 40
0.9987829617
 40
1.0
 40
1.0
 40
1.0
 40
1.0
 10
5.9118838231
 20
2.9723532663
 30
0.0
 10
5.9167696753
 20
2.97235331
 30
0.0
 10
5.9238918079
 20
2.9723939164
 30
0.0
 10
5.9331028546
 20
2.9725477008
 30
0.0
 10
5.939366712
 20
2.9727005012
 30
0.0
 10
5.9451768614
 20
2.9728913159
 30
0.0
 10
5.9505193724
 20
2.9731154268
 30
0.0
 10
5.955382227
 20
2.9733675095
 30
0.0
 10
5.959755053
 20
2.9736434417
 30
0.0
 10
5.963629035
 20
2.9739376202
 30
0.0
 10
5.9665410958
 20
2.974202796
 30
0.0
 10
5.9686152768
 20
2.9744231726
 30
0.0
 10
5.9699787572
 20
2.9745835951
 30
0.0
 10
5.971212708
 20
2.974745301
 30
0.0
 10
5.9723166123
 20
2.9749077732
 30
0.0
 10
5.9732900257
 20
2.975070474
 30
0.0
 10
5.9741326495
 20
2.9752327991
 30
0.0
 10
5.9748442223
 20
2.9753942007
 30
0.0
 10
5.975353681
 20
2.975534183
 30
0.0
 10
5.9756941577
 20
2.9756482688
 30
0.0
 10
5.9759016994
 20
2.9757285172
 30
0.0
 10
5.9760764942
 20
2.9758083683
 30
0.0
 10
5.9762187217
 20
2.975887837
 30
0.0
 10
5.9763287508
 20
2.9759670677
 30
0.0
 10
5.9764070464
 20
2.9760467077
 30
0.0
 10
5.9764535205
 20
2.9761285718
 30
0.0
 10
5.9764605314
 20
2.9761862606
 30
0.0
 10
5.9764578721
 20
2.9762124889
 30
0.0
  0
SPLINE
  5
5EE
100
AcDbEntity
  8
0
100
AcDbSpline
 62
7
  6
CONTINUOUS
 70
0
 71
3
 72
39
 73
35
 74
0
 42
0.0000001
 43
0.0000001
 44
0.0000000001
 40
0.0
 40
0.0
 40
0.0
 40
0.0
 40
0.116360151
 40
0.2266483129
 40
0.3305327232
 40
0.4277265732
 40
0.5179670424
 40
0.6010120283
 40
0.6766394822
 40
0.7446500896
 40
0.7757451276
 40
0.8048737842
 40
0.8320177037
 40
0.8571593969
 40
0.8802819127
 40
0.9013720714
 40
0.9204187393
 40
0.9374112935
 40
0.9523412594
 40
0.9652015942
 40
0.970853905
 40
0.9759872819
 40
0.9806019652
 40
0.9846985121
 40
0.9882779792
 40
0.9913422589
 40
0.9938948315
 40
0.9959425146
 40
0.997499014
 40
0.9981026537
 40
0.9985993305
 40
0.9993339449
 40
0.9996515747
 40
1.0
 40
1.0
 40
1.0
 40
1.0
 10
5.9176393566
 20
3.0190462943
 30
0.0
 10
5.9203198972
 20
3.019046108
 30
0.0
 10
5.9255411028
 20
3.0190384337
 30
0.0
 10
5.9331553905
 20
3.0190065078
 30
0.0
 10
5.9403280372
 20
3.018954777
 30
0.0
 10
5.9470386434
 20
3.018881623
 30
0.0
 10
5.9532689062
 20
3.0187900537
 30
0.0
 10
5.9590020083
 20
3.0186818686
 30
0.0
 10
5.9642225784
 20
3.0185586239
 30
0.0
 10
5.9682461572
 20
3.0184415837
 30
0.0
 10
5.9711985358
 20
3.0183411753
 30
0.0
 10
5.9732097803
 20
3.0182658112
 30
0.0
 10
5.975083691
 20
3.0181883229
 30
0.0
 10
5.9768190236
 20
3.0181088268
 30
0.0
 10
5.9784146446
 20
3.0180274245
 30
0.0
 10
5.979869568
 20
3.0179444123
 30
0.0
 10
5.9811829463
 20
3.01786015
 30
0.0
 10
5.9823540308
 20
3.0177750217
 30
0.0
 10
5.9833821237
 20
3.0176892393
 30
0.0
 10
5.9841489418
 20
3.0176145786
 30
0.0
 10
5.9846902615
 20
3.0175536896
 30
0.0
 10
5.9850423347
 20
3.0175099362
 30
0.0
 10
5.9853582601
 20
3.0174661481
 30
0.0
 10
5.985638007
 20
3.0174223596
 30
0.0
 10
5.9858815603
 20
3.0173786298
 30
0.0
 10
5.9860889085
 20
3.0173350015
 30
0.0
 10
5.9862601459
 20
3.0172916308
 30
0.0
 10
5.9863953522
 20
3.0172484618
 30
0.0
 10
5.9864848475
 20
3.0172105573
 30
0.0
 10
5.986537394
 20
3.0171785875
 30
0.0
 10
5.9865701243
 20
3.0171523463
 30
0.0
 10
5.9865925385
 20
3.0171208353
 30
0.0
 10
5.9865910943
 20
3.0170875266
 30
0.0
 10
5.9865841332
 20
3.0170734411
 30
0.0
 10
5.9865796878
 20
3.017066758
 30
0.0
  0
SPLINE
  5
5EF
100
AcDbEntity
  8
0
100
AcDbSpline
 62
7
  6
CONTINUOUS
 70
0
 71
3
 72
75
 73
71
 74
0
 42
0.0000001
 43
0.0000001
 44
0.0000000001
 40
0.0
 40
0.0
 40
0.0
 40
0.0
 40
0.0487531189
 40
0.0970374426
 40
0.1443902541
 40
0.1903565185
 40
0.2344951474
 40
0.2763827774
 40
0.3156181052
 40
0.3518257259
 40
0.3686849898
 40
0.3846602817
 40
0.3997137393
 40
0.4138097943
 40
0.4269152762
 40
0.4389996893
 40
0.4500352938
 40
0.4599972209
 40
0.468863859
 40
0.476617321
 40
0.4800722649
 40
0.4832443004
 40
0.4861325954
 40
0.4887370192
 40
0.491058095
 40
0.4930973339
 40
0.4948579907
 40
0.4963458499
 40
0.4969907447
 40
0.4975720762
 40
0.4980927081
 40
0.4985566606
 40
0.4989696472
 40
0.4993397916
 40
0.4996783678
 40
0.5
 40
0.5003216322
 40
0.5006602084
 40
0.5010303528
 40
0.5014433394
 40
0.5019072919
 40
0.5024279238
 40
0.5030092553
 40
0.5036541501
 40
0.5051420093
 40
0.5069026661
 40
0.508941905
 40
0.5112629808
 40
0.5138674046
 40
0.5167556996
 40
0.5199277351
 40
0.523382679
 40
0.531136141
 40
0.5400027791
 40
0.5499647062
 40
0.5610003107
 40
0.5730847238
 40
0.5861902057
 40
0.6002862607
 40
0.6153397183
 40
0.6313150102
 40
0.6481742741
 40
0.6843818948
 40
0.7236172226
 40
0.7655048526
 40
0.8096434815
 40
0.8556097459
 40
0.9029625574
 40
0.9512468811
 40
1.0
 40
1.0
 40
1.0
 40
1.0
 10
4.6264324534
 20
5.0693393888
 30
0.0
 10
4.620339006
 20
5.0693393888
 30
0.0
 10
4.6082106804
 20
5.0693704226
 30
0.0
 10
4.5901644095
 20
5.0695098386
 30
0.0
 10
4.5724674129
 20
5.0697406603
 30
0.0
 10
4.5552900363
 20
5.0700605958
 30
0.0
 10
4.5387977325
 20
5.0704664549
 30
0.0
 10
4.5231492835
 20
5.0709541508
 30
0.0
 10
4.5084953614
 20
5.0715188041
 30
0.0
 10
4.4969714377
 20
5.0720606264
 30
0.0
 10
4.4883550484
 20
5.0725330261
 30
0.0
 10
4.4823806163
 20
5.0728945061
 30
0.0
 10
4.4767531754
 20
5.0732707082
 30
0.0
 10
4.4714862685
 20
5.0736606981
 30
0.0
 10
4.4665925671
 20
5.0740634801
 30
0.0
 10
4.4620838276
 20
5.0744780023
 30
0.0
 10
4.457970868
 20
5.0749031644
 30
0.0
 10
4.4542635068
 20
5.0753377574
 30
0.0
 10
4.4509706
 20
5.0757806017
 30
0.0
 10
4.4484913796
 20
5.0761686517
 30
0.0
 10
4.4467223128
 20
5.0764866648
 30
0.0
 10
4.4455555504
 20
5.0767173308
 30
0.0
 10
4.4444976086
 20
5.0769492419
 30
0.0
 10
4.4435490592
 20
5.0771822128
 30
0.0
 10
4.4427103846
 20
5.0774160364
 30
0.0
 10
4.4419818723
 20
5.0776504935
 30
0.0
 10
4.4413637844
 20
5.0778853819
 30
0.0
 10
4.4409214536
 20
5.0780898958
 30
0.0
 10
4.4406257072
 20
5.0782564076
 30
0.0
 10
4.4404424528
 20
5.0783754212
 30
0.0
 10
4.4402869094
 20
5.0784946146
 30
0.0
 10
4.4401590342
 20
5.0786141174
 30
0.0
 10
4.4400588227
 20
5.0787341477
 30
0.0
 10
4.4399864487
 20
5.0788550421
 30
0.0
 10
4.4399424336
 20
5.0789770792
 30
0.0
 10
4.4399276086
 20
5.0791000446
 30
0.0
 10
4.4399424336
 20
5.0792230101
 30
0.0
 10
4.4399864487
 20
5.0793450472
 30
0.0
 10
4.4400588227
 20
5.0794659416
 30
0.0
 10
4.4401590342
 20
5.0795859718
 30
0.0
 10
4.4402869094
 20
5.0797054747
 30
0.0
 10
4.4404424528
 20
5.079824668
 30
0.0
 10
4.4406257072
 20
5.0799436816
 30
0.0
 10
4.4409214536
 20
5.0801101935
 30
0.0
 10
4.4413637844
 20
5.0803147073
 30
0.0
 10
4.4419818723
 20
5.0805495958
 30
0.0
 10
4.4427103846
 20
5.0807840529
 30
0.0
 10
4.4435490592
 20
5.0810178764
 30
0.0
 10
4.4444976086
 20
5.0812508474
 30
0.0
 10
4.4455555504
 20
5.0814827584
 30
0.0
 10
4.4467223128
 20
5.0817134244
 30
0.0
 10
4.4484913796
 20
5.0820314375
 30
0.0
 10
4.4509706
 20
5.0824194875
 30
0.0
 10
4.4542635068
 20
5.0828623318
 30
0.0
 10
4.457970868
 20
5.0832969249
 30
0.0
 10
4.4620838276
 20
5.0837220869
 30
0.0
 10
4.4665925671
 20
5.0841366092
 30
0.0
 10
4.4714862685
 20
5.0845393911
 30
0.0
 10
4.4767531754
 20
5.084929381
 30
0.0
 10
4.4823806163
 20
5.0853055831
 30
0.0
 10
4.4883550484
 20
5.0856670632
 30
0.0
 10
4.4969714377
 20
5.0861394629
 30
0.0
 10
4.5084953614
 20
5.0866812851
 30
0.0
 10
4.5231492835
 20
5.0872459384
 30
0.0
 10
4.5387977325
 20
5.0877336344
 30
0.0
 10
4.5552900363
 20
5.0881394934
 30
0.0
 10
4.5724674129
 20
5.088459429
 30
0.0
 10
4.5901644095
 20
5.0886902506
 30
0.0
 10
4.6082106804
 20
5.0888296667
 30
0.0
 10
4.620339006
 20
5.0888607005
 30
0.0
 10
4.6264324534
 20
5.0888607005
 30
0.0
  0
SPLINE
  5
5F0
100
AcDbEntity
  8
0
100
AcDbSpline
 62
7
  6
CONTINUOUS
 70
0
 71
3
 72
39
 73
35
 74
0
 42
0.0000001
 43
0.0000001
 44
0.0000000001
 40
0.0
 40
0.0
 40
0.0
 40
0.0
 40
0.0553341396
 40
0.0830136885
 40
0.1107067056
 40
0.1661550192
 40
0.2217476737
 40
0.277587081
 40
0.3338411925
 40
0.3907922946
 40
0.4196800814
 40
0.4489523932
 40
0.4787326538
 40
0.5091893667
 40
0.5405536045
 40
0.5731407263
 40
0.6073652911
 40
0.6252543351
 40
0.6437303171
 40
0.662824801
 40
0.6825212557
 40
0.7027265008
 40
0.7232540949
 40
0.7438417504
 40
0.7642119728
 40
0.7841411167
 40
0.8034970514
 40
0.8222341458
 40
0.8403665765
 40
0.8579419744
 40
0.8750211034
 40
0.9079176318
 40
0.939511671
 40
1.0
 40
1.0
 40
1.0
 40
1.0
 10
6.4063076292
 20
3.0088349154
 30
0.0
 10
6.4088019987
 20
3.0088349154
 30
0.0
 10
6.4125445363
 20
3.0088957719
 30
0.0
 10
6.4175308112
 20
3.0091049907
 30
0.0
 10
6.4225178281
 20
3.0094017223
 30
0.0
 10
6.4287495738
 20
3.0099479421
 30
0.0
 10
6.4362113221
 20
3.0109238153
 30
0.0
 10
6.4436507547
 20
3.0122858222
 30
0.0
 10
6.4510513716
 20
3.0141259143
 30
0.0
 10
6.4571359587
 20
3.016157829
 30
0.0
 10
6.461922561
 20
3.0181673166
 30
0.0
 10
6.4654855532
 20
3.0199109234
 30
0.0
 10
6.4689875347
 20
3.0219218774
 30
0.0
 10
6.4724046805
 20
3.0242482102
 30
0.0
 10
6.4757005719
 20
3.0269510363
 30
0.0
 10
6.4788167777
 20
3.0301062881
 30
0.0
 10
6.4811499739
 20
3.0331451172
 30
0.0
 10
6.4828020625
 20
3.0358679419
 30
0.0
 10
6.4839240211
 20
3.038105452
 30
0.0
 10
6.4848759031
 20
3.0405088708
 30
0.0
 10
6.4856184677
 20
3.0430669797
 30
0.0
 10
6.4861117486
 20
3.0457509416
 30
0.0
 10
6.4863232747
 20
3.0485123556
 30
0.0
 10
6.4862373615
 20
3.051288045
 30
0.0
 10
6.4858605347
 20
3.0540118613
 30
0.0
 10
6.485219164
 20
3.056628079
 30
0.0
 10
6.4843511806
 20
3.0590994912
 30
0.0
 10
6.4832969281
 20
3.0614079067
 30
0.0
 10
6.4820931828
 20
3.0635497034
 30
0.0
 10
6.4807705749
 20
3.0655304701
 30
0.0
 10
6.4789046061
 20
3.0679393638
 30
0.0
 10
6.476379452
 20
3.0706257292
 30
0.0
 10
6.4720928313
 20
3.0742929221
 30
0.0
 10
6.4685818023
 20
3.0765506722
 30
0.0
 10
6.4661917086
 20
3.077863078
 30
0.0
  0
SPLINE
  5
5F1
100
AcDbEntity
  8
0
100
AcDbSpline
 62
7
  6
CONTINUOUS
 70
0
 71
3
 72
63
 73
59
 74
0
 42
0.0000001
 43
0.0000001
 44
0.0000000001
 40
0.0
 40
0.0
 40
0.0
 40
0.0
 40
0.0156118187
 40
0.0312368192
 40
0.046875625
 40
0.0625338688
 40
0.0703730033
 40
0.078219692
 40
0.0860737948
 40
0.0939376664
 40
0.1096886668
 40
0.1175857695
 40
0.1254964318
 40
0.1334205295
 40
0.1413574004
 40
0.1493058783
 40
0.1572630327
 40
0.1652244805
 40
0.1731855072
 40
0.181141492
 40
0.1890884555
 40
0.1970234475
 40
0.20494525
 40
0.2128539601
 40
0.2207490954
 40
0.2364969093
 40
0.2522071809
 40
0.2600527367
 40
0.2678906893
 40
0.283547371
 40
0.2991852179
 40
0.3148081827
 40
0.33041993
 40
0.3460219611
 40
0.3616168897
 40
0.377205484
 40
0.3927895077
 40
0.4083691952
 40
0.4239459582
 40
0.4395197808
 40
0.4706603924
 40
0.5017950555
 40
0.5173613277
 40
0.5329265701
 40
0.5640549386
 40
0.6263045119
 40
0.6885524874
 40
0.7196780233
 40
0.750804101
 40
0.7819317665
 40
0.8130613524
 40
0.8441944552
 40
0.8597630134
 40
0.8753333762
 40
0.9064783593
 40
0.9376339444
 40
0.9688052473
 40
1.0
 40
1.0
 40
1.0
 40
1.0
 10
6.6018438852
 20
3.077863078
 30
0.0
 10
6.6005577054
 20
3.0773780575
 30
0.0
 10
6.5980033217
 20
3.0763558661
 30
0.0
 10
6.5942448354
 20
3.0746464029
 30
0.0
 10
6.5905792219
 20
3.0727359571
 30
0.0
 10
6.5876269536
 20
3.0709529259
 30
0.0
 10
6.5853484182
 20
3.0693946324
 30
0.0
 10
6.5836867509
 20
3.0681547298
 30
0.0
 10
6.5820817732
 20
3.0668383932
 30
0.0
 10
6.5800300776
 20
3.0649751595
 30
0.0
 10
6.5781343529
 20
3.0629371744
 30
0.0
 10
6.5764632685
 20
3.0607143833
 30
0.0
 10
6.5753403317
 20
3.0589493414
 30
0.0
 10
6.5743730883
 20
3.0570899248
 30
0.0
 10
6.5735869169
 20
3.0551427386
 30
0.0
 10
6.573007537
 20
3.0531206824
 30
0.0
 10
6.5726575075
 20
3.0510438841
 30
0.0
 10
6.5725520732
 20
3.048939056
 30
0.0
 10
6.5726961368
 20
3.0468366468
 30
0.0
 10
6.5730829852
 20
3.0447667394
 30
0.0
 10
6.573696003
 20
3.0427551383
 30
0.0
 10
6.5745120541
 20
3.0408209317
 30
0.0
 10
6.5755051107
 20
3.0389758838
 30
0.0
 10
6.5766499561
 20
3.037225748
 30
0.0
 10
6.5783458912
 20
3.0350226043
 30
0.0
 10
6.5807369383
 20
3.0325012927
 30
0.0
 10
6.5833840405
 20
3.0302635725
 30
0.0
 10
6.5856108808
 20
3.028624857
 30
0.0
 10
6.5878985768
 20
3.0270806128
 30
0.0
 10
6.590859837
 20
3.0253133817
 30
0.0
 10
6.5945336079
 20
3.0234196823
 30
0.0
 10
6.5982983115
 20
3.0217245825
 30
0.0
 10
6.6021332416
 20
3.020204744
 30
0.0
 10
6.6060228008
 20
3.0188389954
 30
0.0
 10
6.6099557169
 20
3.0176111614
 30
0.0
 10
6.6139229983
 20
3.0165058351
 30
0.0
 10
6.6179180229
 20
3.0155114304
 30
0.0
 10
6.6219352755
 20
3.014616213
 30
0.0
 10
6.6259707367
 20
3.013811908
 30
0.0
 10
6.631370421
 20
3.0128486357
 30
0.0
 10
6.6381506192
 20
3.0118324831
 30
0.0
 10
6.6449577491
 20
3.0110260055
 30
0.0
 10
6.6504139823
 20
3.0104895671
 30
0.0
 10
6.6558758189
 20
3.0100198475
 30
0.0
 10
6.6654463632
 20
3.0093639436
 30
0.0
 10
6.6791424007
 20
3.0088422558
 30
0.0
 10
6.692847383
 20
3.0087951364
 30
0.0
 10
6.7038071224
 20
3.0090386831
 30
0.0
 10
6.7120227826
 20
3.0093707102
 30
0.0
 10
6.7202308646
 20
3.009862717
 30
0.0
 10
6.728426931
 20
3.0105345174
 30
0.0
 10
6.7352418668
 20
3.0112634857
 30
0.0
 10
6.740679868
 20
3.0119655932
 30
0.0
 10
6.7461072213
 20
3.0127529542
 30
0.0
 10
6.7528665724
 20
3.0139123186
 30
0.0
 10
6.7609168738
 20
3.0156367353
 30
0.0
 10
6.7688751624
 20
3.0177660017
 30
0.0
 10
6.7740853322
 20
3.0195183411
 30
0.0
 10
6.7766510984
 20
3.0204985857
 30
0.0
  0
SPLINE
  5
5F2
100
AcDbEntity
  8
0
100
AcDbSpline
 62
7
  6
CONTINUOUS
 70
0
 71
3
 72
42
 73
38
 74
0
 42
0.0000001
 43
0.0000001
 44
0.0000000001
 40
0.0
 40
0.0
 40
0.0
 40
0.0
 40
0.0327192651
 40
0.0704741238
 40
0.1153169201
 40
0.1412014461
 40
0.1697606697
 40
0.2009987708
 40
0.2343471394
 40
0.2684779536
 40
0.3017009734
 40
0.3327417009
 40
0.3610882825
 40
0.4100474858
 40
0.4507771217
 40
0.4856050798
 40
0.516248073
 40
0.5439164125
 40
0.5694683534
 40
0.5935185112
 40
0.6165092032
 40
0.6387592062
 40
0.6818603615
 40
0.7240242245
 40
0.7658971915
 40
0.8079589801
 40
0.8292430739
 40
0.85082208
 40
0.8728393843
 40
0.89549539
 40
0.9190682747
 40
0.9313177219
 40
0.9439529924
 40
0.9570451535
 40
0.9706806301
 40
0.9849587805
 40
1.0
 40
1.0
 40
1.0
 40
1.0
 10
6.8818527889
 20
3.077863078
 30
0.0
 10
6.8809955644
 20
3.0768310868
 30
0.0
 10
6.8792898803
 20
3.0744880335
 30
0.0
 10
6.8770005726
 20
3.0703374376
 30
0.0
 10
6.8753648881
 20
3.0661862392
 30
0.0
 10
6.8742380445
 20
3.0622718727
 30
0.0
 10
6.8734974805
 20
3.0588345729
 30
0.0
 10
6.8729559445
 20
3.0550507196
 30
0.0
 10
6.8726715894
 20
3.0510094124
 30
0.0
 10
6.8726833765
 20
3.0468765997
 30
0.0
 10
6.8729894461
 20
3.0428502433
 30
0.0
 10
6.8735486592
 20
3.0390909294
 30
0.0
 10
6.8745081638
 20
3.0347505266
 30
0.0
 10
6.8760103721
 20
3.0301336134
 30
0.0
 10
6.8782147321
 20
3.0255133666
 30
0.0
 10
6.88057776
 20
3.0218423107
 30
0.0
 10
6.8830292199
 20
3.0189020113
 30
0.0
 10
6.8855324974
 20
3.0165335284
 30
0.0
 10
6.8880668407
 20
3.0146220007
 30
0.0
 10
6.8906197933
 20
3.0130822488
 30
0.0
 10
6.8931840072
 20
3.0118497873
 30
0.0
 10
6.8965740515
 20
3.0105636481
 30
0.0
 10
6.9008628127
 20
3.0094769652
 30
0.0
 10
6.9060483652
 20
3.0088426476
 30
0.0
 10
6.911228201
 20
3.0087855511
 30
0.0
 10
6.9155319071
 20
3.0092104756
 30
0.0
 10
6.9189537997
 20
3.0098665722
 30
0.0
 10
6.9215292146
 20
3.0105419746
 30
0.0
 10
6.9241016888
 20
3.0114232947
 30
0.0
 10
6.9266687787
 20
3.0125455013
 30
0.0
 10
6.9287728931
 20
3.0137035721
 30
0.0
 10
6.930438969
 20
3.0147874702
 30
0.0
 10
6.9316988106
 20
3.0157039225
 30
0.0
 10
6.9329518646
 20
3.0167224471
 30
0.0
 10
6.9341957663
 20
3.0178550214
 30
0.0
 10
6.9354288571
 20
3.0191139363
 30
0.0
 10
6.9362183399
 20
3.0200216703
 30
0.0
 10
6.9366093676
 20
3.0204985933
 30
0.0
  0
SPLINE
  5
5F3
100
AcDbEntity
  8
0
100
AcDbSpline
 62
7
  6
CONTINUOUS
 70
0
 71
3
 72
53
 73
49
 74
0
 42
0.0000001
 43
0.0000001
 44
0.0000000001
 40
0.0
 40
0.0
 40
0.0
 40
0.0
 40
0.000040929
 40
0.0000760464
 40
0.0001223924
 40
0.0002500954
 40
0.000425454
 40
0.0006489134
 40
0.0009206687
 40
0.0016093866
 40
0.0024919415
 40
0.0035682743
 40
0.0048380515
 40
0.0063008702
 40
0.007956301
 40
0.0098038548
 40
0.0118428529
 40
0.0140725656
 40
0.0191011756
 40
0.0248829292
 40
0.0314098861
 40
0.0386733371
 40
0.0466632946
 40
0.0553691498
 40
0.064779018
 40
0.0748804717
 40
0.0856598069
 40
0.0971028027
 40
0.1219176422
 40
0.1491933327
 40
0.1787858788
 40
0.210539816
 40
0.24428925
 40
0.2798588455
 40
0.3170649379
 40
0.3557165645
 40
0.3956166759
 40
0.4365630724
 40
0.4783494702
 40
0.5207664151
 40
0.6066418446
 40
0.6496705726
 40
0.6924705524
 40
0.7765043095
 40
0.8569623696
 40
0.9320446158
 40
0.9670175242
 40
1.0
 40
1.0
 40
1.0
 40
1.0
 10
5.5751375786
 20
2.9810794839
 30
0.0
 10
5.5751378054
 20
2.9810748935
 30
0.0
 10
5.5751459079
 20
2.9810684726
 30
0.0
 10
5.5751577923
 20
2.9810627962
 30
0.0
 10
5.5751801808
 20
2.9810547234
 30
0.0
 10
5.5752181826
 20
2.9810454879
 30
0.0
 10
5.5752763997
 20
2.9810346508
 30
0.0
 10
5.5753508771
 20
2.9810236648
 30
0.0
 10
5.5754828401
 20
2.9810073507
 30
0.0
 10
5.5756888503
 20
2.9809873663
 30
0.0
 10
5.5759852405
 20
2.980963936
 30
0.0
 10
5.5763469948
 20
2.980939763
 30
0.0
 10
5.576773985
 20
2.9809148344
 30
0.0
 10
5.5772660621
 20
2.9808891957
 30
0.0
 10
5.577823063
 20
2.9808628489
 30
0.0
 10
5.5784447988
 20
2.9808358006
 30
0.0
 10
5.5791310489
 20
2.9808080487
 30
0.0
 10
5.5801743191
 20
2.9807685016
 30
0.0
 10
5.5816377463
 20
2.9807177961
 30
0.0
 10
5.5835836217
 20
2.9806561579
 30
0.0
 10
5.5857804733
 20
2.9805913687
 30
0.0
 10
5.5882252969
 20
2.9805233088
 30
0.0
 10
5.5909147961
 20
2.980452004
 30
0.0
 10
5.5938453178
 20
2.9803774265
 30
0.0
 10
5.5970129316
 20
2.9802993756
 30
0.0
 10
5.6004133617
 20
2.9802176783
 30
0.0
 10
5.6040420714
 20
2.9801322143
 30
0.0
 10
5.6093225686
 20
2.98000972
 30
0.0
 10
5.6164550545
 20
2.979847366
 30
0.0
 10
5.6256251107
 20
2.9796404578
 30
0.0
 10
5.6355741546
 20
2.979414995
 30
0.0
 10
5.6462499156
 20
2.9791709212
 30
0.0
 10
5.6575965538
 20
2.9789060856
 30
0.0
 10
5.6695550921
 20
2.978619816
 30
0.0
 10
5.6820637559
 20
2.9783122691
 30
0.0
 10
5.6950582579
 20
2.9779808181
 30
0.0
 10
5.7084723375
 20
2.9776273297
 30
0.0
 10
5.7222379396
 20
2.9772508922
 30
0.0
 10
5.736285644
 20
2.976851916
 30
0.0
 10
5.7553760107
 20
2.9762925609
 30
0.0
 10
5.7746049794
 20
2.9757008832
 30
0.0
 10
5.7938765032
 20
2.9750941396
 30
0.0
 10
5.8129411971
 20
2.9744899489
 30
0.0
 10
5.836207194
 20
2.9737642408
 30
0.0
 10
5.8630991471
 20
2.9730136892
 30
0.0
 10
5.8844881648
 20
2.9725715469
 30
0.0
 10
5.9005492449
 20
2.9723864313
 30
0.0
 10
5.9081801412
 20
2.9723532928
 30
0.0
 10
5.9118838231
 20
2.9723532663
 30
0.0
  0
SPLINE
  5
5F4
100
AcDbEntity
  8
0
100
AcDbSpline
 62
7
  6
CONTINUOUS
 70
0
 71
3
 72
61
 73
57
 74
0
 42
0.0000001
 43
0.0000001
 44
0.0000000001
 40
0.0
 40
0.0
 40
0.0
 40
0.0
 40
0.0000112852
 40
0.0000266717
 40
0.0000520393
 40
0.0000887492
 40
0.0001372144
 40
0.0001976063
 40
0.0002700108
 40
0.0003544767
 40
0.0005596968
 40
0.0008134094
 40
0.0011156775
 40
0.001466533
 40
0.0018659917
 40
0.0023140604
 40
0.0033559283
 40
0.0045917248
 40
0.0060209501
 40
0.0076430875
 40
0.0094575972
 40
0.0114638523
 40
0.013661193
 40
0.0186264682
 40
0.0243471667
 40
0.0308154736
 40
0.0380228001
 40
0.0459591233
 40
0.0546139884
 40
0.0639761938
 40
0.0740339523
 40
0.0961800947
 40
0.1209348413
 40
0.1481696928
 40
0.1777410445
 40
0.2094947085
 40
0.2432662737
 40
0.2788790308
 40
0.31614981
 40
0.3548854846
 40
0.3948862766
 40
0.4359468323
 40
0.4778556199
 40
0.520397548
 40
0.5633539449
 40
0.6065035764
 40
0.6496236737
 40
0.692490749
 40
0.7348811771
 40
0.7765724253
 40
0.8173443818
 40
0.8569793139
 40
0.8952647439
 40
0.931994213
 40
0.9669682395
 40
1.0
 40
1.0
 40
1.0
 40
1.0
 10
5.5638780783
 20
3.0140029886
 30
0.0
 10
5.5638773147
 20
3.0140040787
 30
0.0
 10
5.5638768184
 20
3.0140078028
 30
0.0
 10
5.5638822347
 20
3.0140118678
 30
0.0
 10
5.5638903085
 20
3.0140156053
 30
0.0
 10
5.5639029019
 20
3.014019507
 30
0.0
 10
5.5639195603
 20
3.0140234656
 30
0.0
 10
5.5639405789
 20
3.0140274972
 30
0.0
 10
5.5639658713
 20
3.0140315745
 30
0.0
 10
5.5640081737
 20
3.0140374557
 30
0.0
 10
5.5640718594
 20
3.0140446731
 30
0.0
 10
5.5641612453
 20
3.0140530451
 30
0.0
 10
5.5642678587
 20
3.0140615492
 30
0.0
 10
5.5643916984
 20
3.0140701759
 30
0.0
 10
5.564532763
 20
3.0140789098
 30
0.0
 10
5.5647552479
 20
3.0140913159
 30
0.0
 10
5.5650763451
 20
3.0141067659
 30
0.0
 10
5.5655131472
 20
3.0141249612
 30
0.0
 10
5.5660184182
 20
3.0141436323
 30
0.0
 10
5.5665919641
 20
3.0141628218
 30
0.0
 10
5.56723358
 20
3.0141825699
 30
0.0
 10
5.5679430475
 20
3.0142028537
 30
0.0
 10
5.5690240097
 20
3.0142317688
 30
0.0
 10
5.570542981
 20
3.0142687176
 30
0.0
 10
5.5725656143
 20
3.0143132833
 30
0.0
 10
5.5748526864
 20
3.0143597779
 30
0.0
 10
5.577401073
 20
3.0144082828
 30
0.0
 10
5.5802073381
 20
3.0144590316
 30
0.0
 10
5.5832677401
 20
3.0145121845
 30
0.0
 10
5.5865783382
 20
3.0145674457
 30
0.0
 10
5.5914798869
 20
3.0146460518
 30
0.0
 10
5.5981966151
 20
3.0147497106
 30
0.0
 10
5.6069389753
 20
3.0148806973
 30
0.0
 10
5.616557007
 20
3.0150204952
 30
0.0
 10
5.6270004001
 20
3.0151710521
 30
0.0
 10
5.638214638
 20
3.0153323741
 30
0.0
 10
5.6501413194
 20
3.0155030829
 30
0.0
 10
5.6627185628
 20
3.0156860764
 30
0.0
 10
5.6758811826
 20
3.0158785082
 30
0.0
 10
5.6895612122
 20
3.0160816552
 30
0.0
 10
5.7036880887
 20
3.0162953291
 30
0.0
 10
5.7181891149
 20
3.0165169504
 30
0.0
 10
5.7329897316
 20
3.0167475703
 30
0.0
 10
5.7480138742
 20
3.0169840075
 30
0.0
 10
5.7631843121
 20
3.0172245152
 30
0.0
 10
5.7784229115
 20
3.0174672
 30
0.0
 10
5.7936510111
 20
3.017707626
 30
0.0
 10
5.8087896436
 20
3.0179428309
 30
0.0
 10
5.8237598941
 20
3.0181681656
 30
0.0
 10
5.8384832556
 20
3.0183778962
 30
0.0
 10
5.8528818721
 20
3.0185688024
 30
0.0
 10
5.8668791131
 20
3.0187338154
 30
0.0
 10
5.8803998998
 20
3.0188683853
 30
0.0
 10
5.8933712766
 20
3.0189694735
 30
0.0
 10
5.905723298
 20
3.0190299143
 30
0.0
 10
5.9137436924
 20
3.0190460824
 30
0.0
 10
5.9176393566
 20
3.0190462943
 30
0.0
  0
SPLINE
  5
5F5
100
AcDbEntity
  8
0
100
AcDbSpline
 62
7
  6
CONTINUOUS
 70
0
 71
3
 72
33
 73
29
 74
0
 42
0.0000001
 43
0.0000001
 44
0.0000000001
 40
0.0
 40
0.0
 40
0.0
 40
0.0
 40
0.0743016809
 40
0.1457113956
 40
0.2137304502
 40
0.2463439957
 40
0.2779756669
 40
0.3086099369
 40
0.3382560411
 40
0.3669520308
 40
0.3947687869
 40
0.4218171601
 40
0.4482447603
 40
0.474235315
 40
0.4999999879
 40
0.5257646571
 40
0.5517552034
 40
0.5781828009
 40
0.6052311702
 40
0.6330479335
 40
0.6617439396
 40
0.6913900582
 40
0.7220243375
 40
0.7536560168
 40
0.7862695731
 40
0.8542886231
 40
0.9256983435
 40
1.0
 40
1.0
 40
1.0
 40
1.0
 10
6.8818527889
 20
3.077863078
 30
0.0
 10
6.8829309275
 20
3.0791610222
 30
0.0
 10
6.8850858153
 20
3.0816733486
 30
0.0
 10
6.8884038387
 20
3.0852180999
 30
0.0
 10
6.8912357599
 20
3.087914478
 30
0.0
 10
6.8935286681
 20
3.0898558504
 30
0.0
 10
6.8952335963
 20
3.0911745967
 30
0.0
 10
6.8969478345
 20
3.0923671372
 30
0.0
 10
6.8986713781
 20
3.0934241044
 30
0.0
 10
6.9004036438
 20
3.0943371031
 30
0.0
 10
6.9021443958
 20
3.0950972264
 30
0.0
 10
6.9038924951
 20
3.0956974636
 30
0.0
 10
6.905646775
 20
3.0961313437
 30
0.0
 10
6.9074055589
 20
3.0963934421
 30
0.0
 10
6.9091666525
 20
3.0964816222
 30
0.0
 10
6.9109277459
 20
3.0963934427
 30
0.0
 10
6.9126865297
 20
3.0961313453
 30
0.0
 10
6.9144408086
 20
3.0956974631
 30
0.0
 10
6.9161889087
 20
3.0950972285
 30
0.0
 10
6.9179296607
 20
3.0943371036
 30
0.0
 10
6.919661927
 20
3.0934241043
 30
0.0
 10
6.9213854718
 20
3.0923671374
 30
0.0
 10
6.9230997109
 20
3.0911745969
 30
0.0
 10
6.9248046393
 20
3.0898558498
 30
0.0
 10
6.9270975476
 20
3.087914477
 30
0.0
 10
6.9299294698
 20
3.0852180995
 30
0.0
 10
6.9332474911
 20
3.081673347
 30
0.0
 10
6.9354023796
 20
3.0791610218
 30
0.0
 10
6.9364805179
 20
3.077863078
 30
0.0
  0
SPLINE
  5
5F6
100
AcDbEntity
  8
0
100
AcDbSpline
 62
7
  6
CONTINUOUS
 70
0
 71
3
 72
27
 73
23
 74
0
 42
0.0000001
 43
0.0000001
 44
0.0000000001
 40
0.0
 40
0.0
 40
0.0
 40
0.0
 40
0.0271720585
 40
0.0541261858
 40
0.080918776
 40
0.1076062807
 40
0.1342471384
 40
0.1608983043
 40
0.214438656
 40
0.2686692279
 40
0.3239779448
 40
0.3807154118
 40
0.4392027001
 40
0.499740921
 40
0.5626186668
 40
0.6281145113
 40
0.6964813288
 40
0.7679057325
 40
0.8047904725
 40
0.8424479673
 40
0.9199452307
 40
1.0
 40
1.0
 40
1.0
 40
1.0
 10
6.2919428808
 20
2.3899244518
 30
0.0
 10
6.2906621449
 20
2.3904285611
 30
0.0
 10
6.2881363094
 20
2.3914986825
 30
0.0
 10
6.2844491779
 20
2.3932932107
 30
0.0
 10
6.2808821932
 20
2.3952660408
 30
0.0
 10
6.2774364238
 20
2.3974136762
 30
0.0
 10
6.2741119688
 20
2.3997322848
 30
0.0
 10
6.2698351533
 20
2.4030510482
 30
0.0
 10
6.2647755591
 20
2.4076255094
 30
0.0
 10
6.2591934354
 20
2.4137299368
 30
0.0
 10
6.2540732594
 20
2.4204302505
 30
0.0
 10
6.2493930859
 20
2.4277006934
 30
0.0
 10
6.2451224958
 20
2.4355204165
 30
0.0
 10
6.241221674
 20
2.4438738332
 30
0.0
 10
6.2376395306
 20
2.4527512099
 30
0.0
 10
6.234312312
 20
2.462147599
 30
0.0
 10
6.2311638373
 20
2.4720594709
 30
0.0
 10
6.2286463444
 20
2.4806479025
 30
0.0
 10
6.2266333962
 20
2.4877624275
 30
0.0
 10
6.2245674755
 20
2.495181609
 30
0.0
 10
6.2219494228
 20
2.5047168661
 30
0.0
 10
6.2198149005
 20
2.5124068662
 30
0.0
 10
6.2187075431
 20
2.5163078414
 30
0.0
  0
SPLINE
  5
5F7
100
AcDbEntity
  8
0
100
AcDbSpline
 62
7
  6
CONTINUOUS
 70
0
 71
3
 72
21
 73
17
 74
0
 42
0.0000001
 43
0.0000001
 44
0.0000000001
 40
0.0
 40
0.0
 40
0.0
 40
0.0
 40
0.0369046072
 40
0.0769940161
 40
0.1204041424
 40
0.1672285771
 40
0.2175295989
 40
0.2713443427
 40
0.3286889825
 40
0.3895647643
 40
0.4539577806
 40
0.5218443987
 40
0.5931883353
 40
0.6679457135
 40
0.8274939921
 40
1.0
 40
1.0
 40
1.0
 40
1.0
 10
6.2599566101
 20
2.5108197172
 30
0.0
 10
6.2595089957
 20
2.5110774333
 30
0.0
 10
6.2585511738
 20
2.5115740314
 30
0.0
 10
6.2570025892
 20
2.5122413219
 30
0.0
 10
6.2552858549
 20
2.5128604174
 30
0.0
 10
6.253402698
 20
2.5134307803
 30
0.0
 10
6.2513548389
 20
2.513951896
 30
0.0
 10
6.2491442855
 20
2.5144232311
 30
0.0
 10
6.24677323
 20
2.5148443328
 30
0.0
 10
6.2442440636
 20
2.5152147023
 30
0.0
 10
6.2415593541
 20
2.5155339941
 30
0.0
 10
6.2387218695
 20
2.5158017956
 30
0.0
 10
6.2357345547
 20
2.5160178792
 30
0.0
 10
6.2314623982
 20
2.5162414556
 30
0.0
 10
6.2257693603
 20
2.5163812568
 30
0.0
 10
6.2211214495
 20
2.5163532339
 30
0.0
 10
6.2187075431
 20
2.5163078414
 30
0.0
  0
SPLINE
  5
5F8
100
AcDbEntity
  8
0
100
AcDbSpline
 62
7
  6
CONTINUOUS
 70
0
 71
3
 72
25
 73
21
 74
0
 42
0.0000001
 43
0.0000001
 44
0.0000000001
 40
0.0
 40
0.0
 40
0.0
 40
0.0
 40
0.0625861898
 40
0.1251503106
 40
0.1876867676
 40
0.2501958463
 40
0.3126766846
 40
0.3439098925
 40
0.375137949
 40
0.4375741118
 40
0.5000000147
 40
0.5624259305
 40
0.6248620984
 40
0.6560901502
 40
0.6873233424
 40
0.7498041475
 40
0.8123132119
 40
0.8748496693
 40
0.9374137962
 40
1.0
 40
1.0
 40
1.0
 40
1.0
 10
6.6018438852
 20
3.077863078
 30
0.0
 10
6.6053440955
 20
3.0791830128
 30
0.0
 10
6.6123724241
 20
3.0817463156
 30
0.0
 10
6.6230145758
 20
3.0853000157
 30
0.0
 10
6.6337659623
 20
3.0884950444
 30
0.0
 10
6.644632168
 20
3.0912577378
 30
0.0
 10
6.6537830231
 20
3.0931367518
 30
0.0
 10
6.6611525258
 20
3.0943500329
 30
0.0
 10
6.6685500644
 20
3.0953587942
 30
0.0
 10
6.6778458398
 20
3.0962195656
 30
0.0
 10
6.6890418325
 20
3.0965686798
 30
0.0
 10
6.7002378256
 20
3.0962195645
 30
0.0
 10
6.7095336017
 20
3.0953587924
 30
0.0
 10
6.7169311395
 20
3.0943500323
 30
0.0
 10
6.7243006391
 20
3.0931367523
 30
0.0
 10
6.7334514901
 20
3.0912577367
 30
0.0
 10
6.7443176935
 20
3.0884950459
 30
0.0
 10
6.755069079
 20
3.0853000155
 30
0.0
 10
6.7657112328
 20
3.081746318
 30
0.0
 10
6.772739562
 20
3.0791830131
 30
0.0
 10
6.7762397731
 20
3.077863078
 30
0.0
  0
SPLINE
  5
5F9
100
AcDbEntity
  8
0
100
AcDbSpline
 62
7
  6
CONTINUOUS
 70
0
 71
3
 72
17
 73
13
 74
0
 42
0.0000001
 43
0.0000001
 44
0.0000000001
 40
0.0
 40
0.0
 40
0.0
 40
0.0
 40
0.1213499562
 40
0.2432268153
 40
0.3045138225
 40
0.3660841936
 40
0.4901718832
 40
0.5527407223
 40
0.6156613373
 40
0.7425266994
 40
0.8706917043
 40
1.0
 40
1.0
 40
1.0
 40
1.0
 10
6.4063076292
 20
3.0964523146
 30
0.0
 10
6.4088714367
 20
3.0964523146
 30
0.0
 10
6.4140130008
 20
3.0962184062
 30
0.0
 10
6.4203966599
 20
3.0953559175
 30
0.0
 10
6.4254693086
 20
3.0943481801
 30
0.0
 10
6.4305438529
 20
3.0931311996
 30
0.0
 10
6.435572682
 20
3.0916257006
 30
0.0
 10
6.4405463631
 20
3.089873087
 30
0.0
 10
6.4455213371
 20
3.0879539262
 30
0.0
 10
6.4516884217
 20
3.0852833841
 30
0.0
 10
6.4589921195
 20
3.0817304709
 30
0.0
 10
6.4637970264
 20
3.0791780033
 30
0.0
 10
6.4661917086
 20
3.077863078
 30
0.0
  0
SPLINE
  5
5FA
100
AcDbEntity
  8
0
100
AcDbSpline
 62
7
  6
CONTINUOUS
 70
0
 71
3
 72
41
 73
37
 74
0
 42
0.0000001
 43
0.0000001
 44
0.0000000001
 40
0.0
 40
0.0
 40
0.0
 40
0.0
 40
0.0006410071
 40
0.0013064966
 40
0.002027609
 40
0.0028290149
 40
0.0037287366
 40
0.0047394891
 40
0.0058701989
 40
0.0071271956
 40
0.0100362622
 40
0.0134911308
 40
0.0175044495
 40
0.0220832864
 40
0.0272310072
 40
0.0329489656
 40
0.0392369665
 40
0.0460934806
 40
0.0615021538
 40
0.0791487572
 40
0.098997628
 40
0.1210057313
 40
0.1451233585
 40
0.171294826
 40
0.1994589626
 40
0.2295493707
 40
0.2614945814
 40
0.2952184211
 40
0.3676752151
 40
0.4462254472
 40
0.5301142871
 40
0.6185342226
 40
0.7106334324
 40
0.8055239459
 40
0.9022900899
 40
1.0
 40
1.0
 40
1.0
 40
1.0
 10
4.4066838761
 20
5.3531826292
 30
0.0
 10
4.406680651
 20
5.3532297279
 30
0.0
 10
4.4066855413
 20
5.3533268884
 30
0.0
 10
4.4067276853
 20
5.3534713483
 30
0.0
 10
4.4068036641
 20
5.3536145131
 30
0.0
 10
4.4069127183
 20
5.3537565084
 30
0.0
 10
4.407054541
 20
5.3538977829
 30
0.0
 10
4.4072291006
 20
5.3540386283
 30
0.0
 10
4.4074364419
 20
5.3541792332
 30
0.0
 10
4.4077734551
 20
5.3543761519
 30
0.0
 10
4.4082809867
 20
5.3546178963
 30
0.0
 10
4.4089935499
 20
5.3548953265
 30
0.0
 10
4.4098368222
 20
5.3551722789
 30
0.0
 10
4.410810517
 20
5.3554485201
 30
0.0
 10
4.4119143273
 20
5.3557237895
 30
0.0
 10
4.4131476977
 20
5.3559978286
 30
0.0
 10
4.414509963
 20
5.3562704269
 30
0.0
 10
4.4165790456
 20
5.3566464672
 30
0.0
 10
4.4194828327
 20
5.357105245
 30
0.0
 10
4.4233440133
 20
5.3576287022
 30
0.0
 10
4.4276962987
 20
5.3581424849
 30
0.0
 10
4.4325292526
 20
5.3586451835
 30
0.0
 10
4.4378312918
 20
5.3591353555
 30
0.0
 10
4.4435896308
 20
5.3596116957
 30
0.0
 10
4.4497903754
 20
5.3600729539
 30
0.0
 10
4.4564185459
 20
5.3605179394
 30
0.0
 10
4.463458116
 20
5.3609455443
 30
0.0
 10
4.4736155001
 20
5.3615044856
 30
0.0
 10
4.4872056895
 20
5.3621455725
 30
0.0
 10
4.5044925853
 20
5.3628136815
 30
0.0
 10
4.5229590105
 20
5.3633907854
 30
0.0
 10
4.5424263578
 20
5.3638710954
 30
0.0
 10
4.562706334
 20
5.3642497394
 30
0.0
 10
4.583602733
 20
5.3645229338
 30
0.0
 10
4.6049134847
 20
5.364687946
 30
0.0
 10
4.6192363043
 20
5.3647246783
 30
0.0
 10
4.6264324534
 20
5.3647246783
 30
0.0
  0
SPLINE
  5
5FB
100
AcDbEntity
  8
0
100
AcDbSpline
 62
7
  6
CONTINUOUS
 70
0
 71
3
 72
41
 73
37
 74
0
 42
0.0000001
 43
0.0000001
 44
0.0000000001
 40
0.0
 40
0.0
 40
0.0
 40
0.0
 40
0.0006410078
 40
0.0013065125
 40
0.0020276407
 40
0.0028290284
 40
0.0037287109
 40
0.0047394473
 40
0.0058701923
 40
0.0071272346
 40
0.0100362585
 40
0.0134910984
 40
0.0175045009
 40
0.0220832578
 40
0.0272309983
 40
0.0329490066
 40
0.0392369223
 40
0.0460935015
 40
0.0615021071
 40
0.0791487536
 40
0.0989976732
 40
0.121005723
 40
0.145123324
 40
0.1712948422
 40
0.1994589922
 40
0.2295493481
 40
0.2614945656
 40
0.2952184412
 40
0.3676751925
 40
0.4462254649
 40
0.5301142773
 40
0.6185342272
 40
0.710633431
 40
0.8055239678
 40
0.9022900402
 40
1.0
 40
1.0
 40
1.0
 40
1.0
 10
4.424469876
 20
5.0934847446
 30
0.0
 10
4.4244669104
 20
5.0935280311
 30
0.0
 10
4.4244714082
 20
5.0936173295
 30
0.0
 10
4.4245101551
 20
5.0937500953
 30
0.0
 10
4.4245799906
 20
5.0938816693
 30
0.0
 10
4.4246802099
 20
5.0940121739
 30
0.0
 10
4.4248105438
 20
5.0941420173
 30
0.0
 10
4.4249709725
 20
5.0942714641
 30
0.0
 10
4.4251615397
 20
5.0944006856
 30
0.0
 10
4.4254712822
 20
5.0945816594
 30
0.0
 10
4.4259377286
 20
5.0948038465
 30
0.0
 10
4.4265926191
 20
5.0950588241
 30
0.0
 10
4.4273676404
 20
5.0953133489
 30
0.0
 10
4.4282625245
 20
5.0955672434
 30
0.0
 10
4.4292769952
 20
5.0958202286
 30
0.0
 10
4.4304105388
 20
5.0960720834
 30
0.0
 10
4.4316625455
 20
5.0963226266
 30
0.0
 10
4.4335641565
 20
5.0966682211
 30
0.0
 10
4.436232918
 20
5.0970898757
 30
0.0
 10
4.4397815849
 20
5.0975709605
 30
0.0
 10
4.4437816076
 20
5.098043158
 30
0.0
 10
4.4482233895
 20
5.0985051711
 30
0.0
 10
4.4530962903
 20
5.0989556703
 30
0.0
 10
4.4583885636
 20
5.0993934548
 30
0.0
 10
4.4640874332
 20
5.0998173792
 30
0.0
 10
4.4701791305
 20
5.1002263503
 30
0.0
 10
4.4766489313
 20
5.1006193453
 30
0.0
 10
4.4859841972
 20
5.1011330453
 30
0.0
 10
4.4984744259
 20
5.1017222466
 30
0.0
 10
4.5143621531
 20
5.1023362776
 30
0.0
 10
4.5313339447
 20
5.1028666739
 30
0.0
 10
4.5492256426
 20
5.103308107
 30
0.0
 10
4.5678642002
 20
5.1036561054
 30
0.0
 10
4.5870692828
 20
5.1039071873
 30
0.0
 10
4.6066551851
 20
5.1040588442
 30
0.0
 10
4.6198187428
 20
5.1040926033
 30
0.0
 10
4.6264324534
 20
5.1040926033
 30
0.0
  0
SPLINE
  5
5FC
100
AcDbEntity
  8
0
100
AcDbSpline
 62
7
  6
CONTINUOUS
 70
0
 71
3
 72
39
 73
35
 74
0
 42
0.0000001
 43
0.0000001
 44
0.0000000001
 40
0.0
 40
0.0
 40
0.0
 40
0.0
 40
0.0604883219
 40
0.092082357
 40
0.1249788811
 40
0.1420580065
 40
0.1596334032
 40
0.1777658283
 40
0.1965029158
 40
0.2158588538
 40
0.2357879927
 40
0.2561582143
 40
0.2767458647
 40
0.2972734559
 40
0.3174787009
 40
0.337175157
 40
0.3562696437
 40
0.3747456295
 40
0.3926346698
 40
0.4268592352
 40
0.4594463556
 40
0.4908105938
 40
0.5212673072
 40
0.5510475674
 40
0.5803198797
 40
0.6092076701
 40
0.6661587755
 40
0.7224128921
 40
0.7782523051
 40
0.8338449648
 40
0.8892932827
 40
0.916986304
 40
0.9446658563
 40
1.0
 40
1.0
 40
1.0
 40
1.0
 10
6.3464235497
 20
3.077863078
 30
0.0
 10
6.3440334564
 20
3.0765506723
 30
0.0
 10
6.3405224279
 20
3.0742929224
 30
0.0
 10
6.3362358076
 20
3.0706257301
 30
0.0
 10
6.3337106538
 20
3.0679393652
 30
0.0
 10
6.3318446849
 20
3.0655304721
 30
0.0
 10
6.3305220769
 20
3.0635497059
 30
0.0
 10
6.3293183321
 20
3.0614079098
 30
0.0
 10
6.3282640791
 20
3.0590994949
 30
0.0
 10
6.3273960956
 20
3.0566280831
 30
0.0
 10
6.3267547242
 20
3.0540118657
 30
0.0
 10
6.3263778971
 20
3.05128805
 30
0.0
 10
6.3262919834
 20
3.048512361
 30
0.0
 10
6.3265035092
 20
3.0457509473
 30
0.0
 10
6.3269967894
 20
3.0430669854
 30
0.0
 10
6.3277393535
 20
3.0405088761
 30
0.0
 10
6.3286912349
 20
3.0381054567
 30
0.0
 10
6.3298131934
 20
3.0358679464
 30
0.0
 10
6.3314652817
 20
3.0331451215
 30
0.0
 10
6.3337984776
 20
3.0301062924
 30
0.0
 10
6.3369146826
 20
3.0269510399
 30
0.0
 10
6.3402105739
 20
3.0242482136
 30
0.0
 10
6.3436277198
 20
3.0219218809
 30
0.0
 10
6.3471297009
 20
3.0199109263
 30
0.0
 10
6.3506926922
 20
3.0181673174
 30
0.0
 10
6.3554792958
 20
3.0161578318
 30
0.0
 10
6.3615638824
 20
3.0141259142
 30
0.0
 10
6.3689645001
 20
3.0122858224
 30
0.0
 10
6.3764039333
 20
3.0109238149
 30
0.0
 10
6.3838656825
 20
3.0099479428
 30
0.0
 10
6.3900974287
 20
3.0094017228
 30
0.0
 10
6.3950844461
 20
3.0091049906
 30
0.0
 10
6.4000707215
 20
3.0088957705
 30
0.0
 10
6.4038132595
 20
3.0088349154
 30
0.0
 10
6.4063076292
 20
3.0088349154
 30
0.0
  0
SPLINE
  5
5FD
100
AcDbEntity
  8
0
100
AcDbSpline
 62
7
  6
CONTINUOUS
 70
0
 71
3
 72
17
 73
13
 74
0
 42
0.0000001
 43
0.0000001
 44
0.0000000001
 40
0.0
 40
0.0
 40
0.0
 40
0.0
 40
0.1293082957
 40
0.2574733005
 40
0.3843386626
 40
0.4472592776
 40
0.5098281167
 40
0.6339158062
 40
0.6954861772
 40
0.7567731845
 40
0.8786500437
 40
1.0
 40
1.0
 40
1.0
 40
1.0
 10
6.3464235497
 20
3.077863078
 30
0.0
 10
6.3488182319
 20
3.0791780033
 30
0.0
 10
6.3536231388
 20
3.0817304709
 30
0.0
 10
6.3609268366
 20
3.0852833841
 30
0.0
 10
6.3670939212
 20
3.0879539262
 30
0.0
 10
6.3720688952
 20
3.089873087
 30
0.0
 10
6.3770425763
 20
3.0916257006
 30
0.0
 10
6.3820714054
 20
3.0931311996
 30
0.0
 10
6.3871459498
 20
3.0943481801
 30
0.0
 10
6.3922185985
 20
3.0953559175
 30
0.0
 10
6.3986022576
 20
3.0962184061
 30
0.0
 10
6.4037438216
 20
3.0964523146
 30
0.0
 10
6.4063076292
 20
3.0964523146
 30
0.0
  0
SPLINE
  5
5FE
100
AcDbEntity
  8
0
100
AcDbSpline
 62
7
  6
CONTINUOUS
 70
0
 71
3
 72
41
 73
37
 74
0
 42
0.0000001
 43
0.0000001
 44
0.0000000001
 40
0.0
 40
0.0
 40
0.0
 40
0.0
 40
0.0006410071
 40
0.0013064966
 40
0.002027609
 40
0.0028290149
 40
0.0037287366
 40
0.0047394891
 40
0.0058701989
 40
0.0071271956
 40
0.0100362622
 40
0.0134911308
 40
0.0175044495
 40
0.0220832864
 40
0.0272310072
 40
0.0329489656
 40
0.0392369665
 40
0.0460934806
 40
0.0615021538
 40
0.0791487572
 40
0.098997628
 40
0.1210057313
 40
0.1451233585
 40
0.171294826
 40
0.1994589626
 40
0.2295493707
 40
0.2614945814
 40
0.2952184211
 40
0.3676752151
 40
0.4462254472
 40
0.5301142871
 40
0.6185342226
 40
0.7106334324
 40
0.8055239459
 40
0.9022900899
 40
1.0
 40
1.0
 40
1.0
 40
1.0
 10
4.8461810307
 20
5.3531826292
 30
0.0
 10
4.8461842558
 20
5.3532297279
 30
0.0
 10
4.8461793655
 20
5.3533268884
 30
0.0
 10
4.8461372216
 20
5.3534713483
 30
0.0
 10
4.8460612427
 20
5.3536145131
 30
0.0
 10
4.8459521885
 20
5.3537565084
 30
0.0
 10
4.8458103659
 20
5.3538977829
 30
0.0
 10
4.8456358062
 20
5.3540386283
 30
0.0
 10
4.8454284649
 20
5.3541792332
 30
0.0
 10
4.8450914518
 20
5.3543761519
 30
0.0
 10
4.8445839201
 20
5.3546178963
 30
0.0
 10
4.8438713569
 20
5.3548953265
 30
0.0
 10
4.8430280846
 20
5.3551722789
 30
0.0
 10
4.8420543898
 20
5.3554485201
 30
0.0
 10
4.8409505795
 20
5.3557237895
 30
0.0
 10
4.8397172091
 20
5.3559978286
 30
0.0
 10
4.8383549438
 20
5.3562704269
 30
0.0
 10
4.8362858612
 20
5.3566464672
 30
0.0
 10
4.8333820742
 20
5.357105245
 30
0.0
 10
4.8295208935
 20
5.3576287022
 30
0.0
 10
4.8251686082
 20
5.3581424849
 30
0.0
 10
4.8203356543
 20
5.3586451835
 30
0.0
 10
4.8150336151
 20
5.3591353555
 30
0.0
 10
4.809275276
 20
5.3596116957
 30
0.0
 10
4.8030745314
 20
5.3600729539
 30
0.0
 10
4.796446361
 20
5.3605179394
 30
0.0
 10
4.7894067908
 20
5.3609455443
 30
0.0
 10
4.7792494067
 20
5.3615044856
 30
0.0
 10
4.7656592174
 20
5.3621455725
 30
0.0
 10
4.7483723216
 20
5.3628136815
 30
0.0
 10
4.7299058963
 20
5.3633907854
 30
0.0
 10
4.710438549
 20
5.3638710954
 30
0.0
 10
4.6901585729
 20
5.3642497394
 30
0.0
 10
4.6692621739
 20
5.3645229338
 30
0.0
 10
4.6479514221
 20
5.364687946
 30
0.0
 10
4.6336286026
 20
5.3647246783
 30
0.0
 10
4.6264324534
 20
5.3647246783
 30
0.0
  0
SPLINE
  5
5FF
100
AcDbEntity
  8
0
100
AcDbSpline
 62
7
  6
CONTINUOUS
 70
0
 71
3
 72
41
 73
37
 74
0
 42
0.0000001
 43
0.0000001
 44
0.0000000001
 40
0.0
 40
0.0
 40
0.0
 40
0.0
 40
0.0006410078
 40
0.0013065125
 40
0.0020276407
 40
0.0028290284
 40
0.0037287109
 40
0.0047394473
 40
0.0058701923
 40
0.0071272346
 40
0.0100362585
 40
0.0134910984
 40
0.0175045009
 40
0.0220832578
 40
0.0272309983
 40
0.0329490066
 40
0.0392369223
 40
0.0460935015
 40
0.0615021071
 40
0.0791487536
 40
0.0989976732
 40
0.121005723
 40
0.145123324
 40
0.1712948422
 40
0.1994589922
 40
0.2295493481
 40
0.2614945656
 40
0.2952184412
 40
0.3676751925
 40
0.4462254649
 40
0.5301142773
 40
0.6185342272
 40
0.710633431
 40
0.8055239678
 40
0.9022900402
 40
1.0
 40
1.0
 40
1.0
 40
1.0
 10
4.8283950309
 20
5.0934847446
 30
0.0
 10
4.8283979964
 20
5.0935280311
 30
0.0
 10
4.8283934986
 20
5.0936173295
 30
0.0
 10
4.8283547517
 20
5.0937500953
 30
0.0
 10
4.8282849163
 20
5.0938816693
 30
0.0
 10
4.8281846969
 20
5.0940121739
 30
0.0
 10
4.8280543631
 20
5.0941420173
 30
0.0
 10
4.8278939343
 20
5.0942714641
 30
0.0
 10
4.8277033672
 20
5.0944006856
 30
0.0
 10
4.8273936246
 20
5.0945816594
 30
0.0
 10
4.8269271783
 20
5.0948038465
 30
0.0
 10
4.8262722878
 20
5.0950588241
 30
0.0
 10
4.8254972664
 20
5.0953133489
 30
0.0
 10
4.8246023823
 20
5.0955672434
 30
0.0
 10
4.8235879116
 20
5.0958202286
 30
0.0
 10
4.822454368
 20
5.0960720834
 30
0.0
 10
4.8212023613
 20
5.0963226266
 30
0.0
 10
4.8193007503
 20
5.0966682211
 30
0.0
 10
4.8166319889
 20
5.0970898757
 30
0.0
 10
4.813083322
 20
5.0975709605
 30
0.0
 10
4.8090832993
 20
5.098043158
 30
0.0
 10
4.8046415173
 20
5.0985051711
 30
0.0
 10
4.7997686166
 20
5.0989556703
 30
0.0
 10
4.7944763433
 20
5.0993934548
 30
0.0
 10
4.7887774736
 20
5.0998173792
 30
0.0
 10
4.7826857763
 20
5.1002263503
 30
0.0
 10
4.7762159755
 20
5.1006193453
 30
0.0
 10
4.7668807097
 20
5.1011330453
 30
0.0
 10
4.7543904809
 20
5.1017222466
 30
0.0
 10
4.7385027537
 20
5.1023362776
 30
0.0
 10
4.7215309622
 20
5.1028666739
 30
0.0
 10
4.7036392643
 20
5.103308107
 30
0.0
 10
4.6850007066
 20
5.1036561054
 30
0.0
 10
4.665795624
 20
5.1039071873
 30
0.0
 10
4.6462097217
 20
5.1040588442
 30
0.0
 10
4.633046164
 20
5.1040926033
 30
0.0
 10
4.6264324534
 20
5.1040926033
 30
0.0
  0
SPLINE
  5
600
100
AcDbEntity
  8
0
100
AcDbSpline
 62
7
  6
CONTINUOUS
 70
0
 71
3
 72
47
 73
43
 74
0
 42
0.0000001
 43
0.0000001
 44
0.0000000001
 40
0.0
 40
0.0
 40
0.0
 40
0.0
 40
0.0000190079
 40
0.0000427678
 40
0.0000760318
 40
0.0001710715
 40
0.0003041271
 40
0.0004751987
 40
0.0006842862
 40
0.0009313895
 40
0.0012164981
 40
0.0019006241
 40
0.0027364426
 40
0.0037237308
 40
0.0048622656
 40
0.0061518243
 40
0.0075921841
 40
0.0109241443
 40
0.0148549652
 40
0.019381175
 40
0.0244992411
 40
0.0302047861
 40
0.0364928359
 40
0.0433584072
 40
0.0587997678
 40
0.0764798117
 40
0.0963449318
 40
0.1183369823
 40
0.1423940894
 40
0.1684518487
 40
0.196443215
 40
0.2262998645
 40
0.2579519876
 40
0.2913291396
 40
0.3629732874
 40
0.4406602781
 40
0.5238113563
 40
0.6118367299
 40
0.7041269743
 40
0.8000436198
 40
0.8989072607
 40
1.0
 40
1.0
 40
1.0
 40
1.0
 10
6.9051824421
 20
4.112852757
 30
0.0
 10
6.9051828207
 20
4.1128531376
 30
0.0
 10
6.9051815392
 20
4.1128505996
 30
0.0
 10
6.9051812791
 20
4.1128492987
 30
0.0
 10
6.9051795895
 20
4.1128448363
 30
0.0
 10
6.9051773246
 20
4.1128381835
 30
0.0
 10
6.9051734775
 20
4.1128274053
 30
0.0
 10
6.9051686873
 20
4.112813796
 30
0.0
 10
6.905162775
 20
4.1127970709
 30
0.0
 10
6.9051558079
 20
4.1127773369
 30
0.0
 10
6.9051443673
 20
4.1127449422
 30
0.0
 10
6.9051273976
 20
4.1126968732
 30
0.0
 10
6.9051038373
 20
4.112630097
 30
0.0
 10
6.9050760263
 20
4.112551213
 30
0.0
 10
6.9050439782
 20
4.1124602347
 30
0.0
 10
6.9050077077
 20
4.1123571775
 30
0.0
 10
6.9049509188
 20
4.1121956698
 30
0.0
 10
6.9048694985
 20
4.1119637511
 30
0.0
 10
6.9047594736
 20
4.1116495088
 30
0.0
 10
6.904633133
 20
4.1112875332
 30
0.0
 10
6.9044907079
 20
4.1108780844
 30
0.0
 10
6.9043324907
 20
4.1104214467
 30
0.0
 10
6.9041588122
 20
4.1099179345
 30
0.0
 10
6.9038966116
 20
4.1091540991
 30
0.0
 10
6.9035326568
 20
4.1080850314
 30
0.0
 10
6.9030558017
 20
4.1066665814
 30
0.0
 10
6.9025269396
 20
4.1050704494
 30
0.0
 10
6.9019501083
 20
4.1033005015
 30
0.0
 10
6.9013296891
 20
4.1013608409
 30
0.0
 10
6.9006702886
 20
4.0992557969
 30
0.0
 10
6.8999768383
 20
4.0969898287
 30
0.0
 10
6.8992544097
 20
4.0945675617
 30
0.0
 10
6.8985083211
 20
4.0919936991
 30
0.0
 10
6.8974643403
 20
4.0882775646
 30
0.0
 10
6.8961361638
 20
4.0832910056
 30
0.0
 10
6.8945728756
 20
4.0769135283
 30
0.0
 10
6.8930512047
 20
4.070051125
 30
0.0
 10
6.8916178465
 20
4.062748789
 30
0.0
 10
6.8903184289
 20
4.0550553679
 30
0.0
 10
6.8891961566
 20
4.0470247195
 30
0.0
 10
6.8882900279
 20
4.0387166175
 30
0.0
 10
6.8878557047
 20
4.0330849676
 30
0.0
 10
6.8876824534
 20
4.0302351488
 30
0.0
  0
SPLINE
  5
601
100
AcDbEntity
  8
0
100
AcDbSpline
 62
7
  6
CONTINUOUS
 70
0
 71
3
 72
41
 73
37
 74
0
 42
0.0000001
 43
0.0000001
 44
0.0000000001
 40
0.0
 40
0.0
 40
0.0
 40
0.0
 40
0.0006432644
 40
0.0013204167
 40
0.0020607054
 40
0.0028866784
 40
0.0038145831
 40
0.0048558467
 40
0.0060185094
 40
0.0073082988
 40
0.0102840167
 40
0.0138053292
 40
0.0178838061
 40
0.0225259568
 40
0.0277348028
 40
0.0335113915
 40
0.0398554611
 40
0.0467653468
 40
0.0622722674
 40
0.0800055394
 40
0.0999293882
 40
0.1220005921
 40
0.1461694129
 40
0.1723803698
 40
0.200572473
 40
0.230679382
 40
0.2626299583
 40
0.2963484776
 40
0.3687637038
 40
0.4472343435
 40
0.531009583
 40
0.6192868255
 40
0.7112193483
 40
0.8059249424
 40
0.9024935831
 40
1.0
 40
1.0
 40
1.0
 40
1.0
 10
4.8139324418
 20
5.7490974114
 30
0.0
 10
4.8139324418
 20
5.7491378264
 30
0.0
 10
4.8139224197
 20
5.7492210762
 30
0.0
 10
4.8138781687
 20
5.7493437155
 30
0.0
 10
4.8138054066
 20
5.7494652739
 30
0.0
 10
4.8137046577
 20
5.7495859428
 30
0.0
 10
4.813576097
 20
5.749706088
 30
0.0
 10
4.8134197196
 20
5.7498259199
 30
0.0
 10
4.8132354826
 20
5.7499455718
 30
0.0
 10
4.8129381505
 20
5.7501129764
 30
0.0
 10
4.8124934481
 20
5.7503185868
 30
0.0
 10
4.8118720462
 20
5.7505547347
 30
0.0
 10
4.8111396279
 20
5.7507904489
 30
0.0
 10
4.8102964565
 20
5.7510255262
 30
0.0
 10
4.8093428214
 20
5.7512597463
 30
0.0
 10
4.8082792072
 20
5.7514929008
 30
0.0
 10
4.807106189
 20
5.7517248036
 30
0.0
 10
4.8053276371
 20
5.7520445219
 30
0.0
 10
4.8028351238
 20
5.7524346525
 30
0.0
 10
4.7995245615
 20
5.7528798712
 30
0.0
 10
4.7957973226
 20
5.7533167945
 30
0.0
 10
4.7916623106
 20
5.7537442362
 30
0.0
 10
4.7871293967
 20
5.754160981
 30
0.0
 10
4.7822094568
 20
5.7545659227
 30
0.0
 10
4.7769143104
 20
5.7549580036
 30
0.0
 10
4.7712566968
 20
5.7553362228
 30
0.0
 10
4.7652502316
 20
5.7556996411
 30
0.0
 10
4.7565876438
 20
5.7561745738
 30
0.0
 10
4.7450019321
 20
5.7567193012
 30
0.0
 10
4.73026944
 20
5.7572869822
 30
0.0
 10
4.7145370883
 20
5.7577772932
 30
0.0
 10
4.6979563566
 20
5.7581853285
 30
0.0
 10
4.6806868792
 20
5.7585069796
 30
0.0
 10
4.6628949951
 20
5.758739039
 30
0.0
 10
4.6447519524
 20
5.7588792029
 30
0.0
 10
4.6325585847
 20
5.7589104032
 30
0.0
 10
4.6264324534
 20
5.7589104032
 30
0.0
  0
SPLINE
  5
602
100
AcDbEntity
  8
0
100
AcDbSpline
 62
7
  6
CONTINUOUS
 70
0
 71
3
 72
23
 73
19
 74
0
 42
0.0000001
 43
0.0000001
 44
0.0000000001
 40
0.0
 40
0.0
 40
0.0
 40
0.0
 40
0.0639534201
 40
0.1274857479
 40
0.1905684719
 40
0.2531932216
 40
0.315375322
 40
0.3771670594
 40
0.438663525
 40
0.5000000001
 40
0.5613364752
 40
0.6228329408
 40
0.6846246781
 40
0.7468067785
 40
0.8094315282
 40
0.8725142521
 40
0.9360465799
 40
1.0
 40
1.0
 40
1.0
 40
1.0
 10
3.4304043167
 20
3.1378094834
 30
0.0
 10
3.4266485503
 20
3.1350823259
 30
0.0
 10
3.4190342505
 20
3.1298182262
 30
0.0
 10
3.4072474124
 20
3.1225684797
 30
0.0
 10
3.3951203485
 20
3.1161004251
 30
0.0
 10
3.3826558558
 20
3.1105389749
 30
0.0
 10
3.369873532
 20
3.106017175
 30
0.0
 10
3.3568164821
 20
3.1026667164
 30
0.0
 10
3.3435545387
 20
3.100602673
 30
0.0
 10
3.3301824534
 20
3.099905034
 30
0.0
 10
3.3168103681
 20
3.100602673
 30
0.0
 10
3.3035484247
 20
3.1026667164
 30
0.0
 10
3.2904913748
 20
3.106017175
 30
0.0
 10
3.277709051
 20
3.1105389749
 30
0.0
 10
3.2652445583
 20
3.1161004251
 30
0.0
 10
3.2531174944
 20
3.1225684797
 30
0.0
 10
3.2413306563
 20
3.1298182262
 30
0.0
 10
3.2337163566
 20
3.1350823259
 30
0.0
 10
3.2299605902
 20
3.1378094834
 30
0.0
  0
LINE
  5
603
100
AcDbEntity
  8
0
100
AcDbLine
 62
7
  6
CONTINUOUS
 10
6.7858040405
 20
4.2477395779
 11
6.7867117687
 21
4.247593533
  0
SPLINE
  5
604
100
AcDbEntity
  8
0
100
AcDbSpline
 62
7
  6
CONTINUOUS
 70
0
 71
3
 72
9
 73
5
 74
0
 42
0.0000001
 43
0.0000001
 44
0.0000000001
 40
0.0
 40
0.0
 40
0.0
 40
0.0
 40
0.3022491204
 40
1.0
 40
1.0
 40
1.0
 40
1.0
 10
6.7867117687
 20
4.247593533
 30
0.0
 10
6.7867153046
 20
4.2475928845
 30
0.0
 10
6.7867269986
 20
4.2475907147
 30
0.0
 10
6.7867386806
 20
4.2475884718
 30
0.0
 10
6.7867468
 20
4.2475867546
 30
0.0
  0
SPLINE
  5
605
100
AcDbEntity
  8
0
100
AcDbSpline
 62
7
  6
CONTINUOUS
 70
0
 71
3
 72
23
 73
19
 74
0
 42
0.0000001
 43
0.0000001
 44
0.0000000001
 40
0.0
 40
0.0
 40
0.0
 40
0.0
 40
0.0639534201
 40
0.1274857479
 40
0.1905684719
 40
0.2531932216
 40
0.315375322
 40
0.3771670594
 40
0.438663525
 40
0.5000000001
 40
0.5613364752
 40
0.6228329408
 40
0.6846246781
 40
0.7468067785
 40
0.8094315282
 40
0.8725142521
 40
0.9360465799
 40
1.0
 40
1.0
 40
1.0
 40
1.0
 10
3.4304043167
 20
3.3108960538
 30
0.0
 10
3.4266485503
 20
3.3136232113
 30
0.0
 10
3.4190342505
 20
3.318887311
 30
0.0
 10
3.4072474124
 20
3.3261370575
 30
0.0
 10
3.3951203485
 20
3.3326051122
 30
0.0
 10
3.3826558558
 20
3.3381665623
 30
0.0
 10
3.369873532
 20
3.3426883622
 30
0.0
 10
3.3568164821
 20
3.3460388208
 30
0.0
 10
3.3435545387
 20
3.3481028642
 30
0.0
 10
3.3301824534
 20
3.3488005033
 30
0.0
 10
3.3168103681
 20
3.3481028642
 30
0.0
 10
3.3035484247
 20
3.3460388208
 30
0.0
 10
3.2904913748
 20
3.3426883622
 30
0.0
 10
3.277709051
 20
3.3381665623
 30
0.0
 10
3.2652445583
 20
3.3326051122
 30
0.0
 10
3.2531174944
 20
3.3261370575
 30
0.0
 10
3.2413306563
 20
3.318887311
 30
0.0
 10
3.2337163566
 20
3.3136232113
 30
0.0
 10
3.2299605902
 20
3.3108960538
 30
0.0
  0
LINE
  5
606
100
AcDbEntity
  8
0
100
AcDbLine
 62
7
  6
CONTINUOUS
 10
6.7445733936
 20
4.2553054876
 11
6.7475733936
 21
4.25472296
  0
LINE
  5
607
100
AcDbEntity
  8
0
100
AcDbLine
 62
7
  6
CONTINUOUS
 10
6.7615048475
 20
4.2523870633
 11
6.7633309691
 21
4.2520642578
  0
LINE
  5
608
100
AcDbEntity
  8
0
100
AcDbLine
 62
7
  6
CONTINUOUS
 10
6.7633309691
 20
4.2520642578
 11
6.7642406317
 21
4.2519038497
  0
LINE
  5
609
100
AcDbEntity
  8
0
100
AcDbLine
 62
7
  6
CONTINUOUS
 10
6.7642406317
 20
4.2519038497
 11
6.7842724564
 21
4.2484856968
  0
SPLINE
  5
60A
100
AcDbEntity
  8
0
100
AcDbSpline
 62
7
  6
CONTINUOUS
 70
0
 71
3
 72
49
 73
45
 74
0
 42
0.0000001
 43
0.0000001
 44
0.0000000001
 40
0.0
 40
0.0
 40
0.0
 40
0.0
 40
0.0132339586
 40
0.0264952927
 40
0.0398074184
 40
0.0531963083
 40
0.066685642
 40
0.0802974943
 40
0.0940524327
 40
0.1079689437
 40
0.1220633606
 40
0.1363497406
 40
0.1655318519
 40
0.1955916395
 40
0.2265559496
 40
0.2584160613
 40
0.2911309558
 40
0.3246310991
 40
0.3588225199
 40
0.3935910163
 40
0.4288062904
 40
0.4643260358
 40
0.5
 40
0.5356739642
 40
0.5711937096
 40
0.6064089837
 40
0.6411774801
 40
0.6753689009
 40
0.7088690442
 40
0.7415839387
 40
0.7734440504
 40
0.8044083605
 40
0.8344681481
 40
0.8636502594
 40
0.8779366394
 40
0.8920310563
 40
0.9059475673
 40
0.9197025057
 40
0.933314358
 40
0.9468036917
 40
0.9601925816
 40
0.9735047073
 40
0.9867660414
 40
1.0
 40
1.0
 40
1.0
 40
1.0
 10
3.1849767622
 20
2.7838930061
 30
0.0
 10
3.1874024608
 20
2.7838930061
 30
0.0
 10
3.1922604044
 20
2.7837319081
 30
0.0
 10
3.1995259222
 20
2.7830081523
 30
0.0
 10
3.2067564388
 20
2.7818037197
 30
0.0
 10
3.2139337443
 20
2.7801217436
 30
0.0
 10
3.2210407185
 20
2.7779664405
 30
0.0
 10
3.2280600736
 20
2.7753430881
 30
0.0
 10
3.2349748317
 20
2.7722581331
 30
0.0
 10
3.2417683073
 20
2.7687192821
 30
0.0
 10
3.2484243156
 20
2.7647349945
 30
0.0
 10
3.2571543299
 20
2.7588010941
 30
0.0
 10
3.2676432069
 20
2.7502914757
 30
0.0
 10
3.2793324361
 20
2.7385581843
 30
0.0
 10
3.2901081379
 20
2.7253427572
 30
0.0
 10
3.2998680644
 20
2.7107738532
 30
0.0
 10
3.3085210298
 20
2.6949913056
 30
0.0
 10
3.3159856304
 20
2.6781464381
 30
0.0
 10
3.3221916594
 20
2.6604004311
 30
0.0
 10
3.3270805295
 20
2.6419229607
 30
0.0
 10
3.3306059982
 20
2.6228906635
 30
0.0
 10
3.3327347447
 20
2.6034855027
 30
0.0
 10
3.3334465919
 20
2.5838930061
 30
0.0
 10
3.3327347447
 20
2.5643005095
 30
0.0
 10
3.3306059982
 20
2.5448953487
 30
0.0
 10
3.3270805295
 20
2.5258630515
 30
0.0
 10
3.3221916594
 20
2.5073855811
 30
0.0
 10
3.3159856304
 20
2.4896395741
 30
0.0
 10
3.3085210298
 20
2.4727947066
 30
0.0
 10
3.2998680644
 20
2.4570121589
 30
0.0
 10
3.2901081379
 20
2.442443255
 30
0.0
 10
3.2793324361
 20
2.4292278279
 30
0.0
 10
3.2676432069
 20
2.4174945365
 30
0.0
 10
3.2571543299
 20
2.4089849181
 30
0.0
 10
3.2484243156
 20
2.4030510176
 30
0.0
 10
3.2417683073
 20
2.3990667301
 30
0.0
 10
3.2349748317
 20
2.3955278791
 30
0.0
 10
3.2280600736
 20
2.3924429241
 30
0.0
 10
3.2210407185
 20
2.3898195717
 30
0.0
 10
3.2139337443
 20
2.3876642686
 30
0.0
 10
3.2067564388
 20
2.3859822925
 30
0.0
 10
3.1995259222
 20
2.3847778598
 30
0.0
 10
3.1922604044
 20
2.3840541041
 30
0.0
 10
3.1874024608
 20
2.3838930061
 30
0.0
 10
3.1849767622
 20
2.3838930061
 30
0.0
  0
SPLINE
  5
60B
100
AcDbEntity
  8
0
100
AcDbSpline
 62
7
  6
CONTINUOUS
 70
0
 71
3
 72
23
 73
19
 74
0
 42
0.0000001
 43
0.0000001
 44
0.0000000001
 40
0.0
 40
0.0
 40
0.0
 40
0.0
 40
0.0639534201
 40
0.1274857479
 40
0.1905684719
 40
0.2531932216
 40
0.315375322
 40
0.3771670594
 40
0.438663525
 40
0.5000000001
 40
0.5613364752
 40
0.6228329408
 40
0.6846246781
 40
0.7468067785
 40
0.8094315282
 40
0.8725142521
 40
0.9360465799
 40
1.0
 40
1.0
 40
1.0
 40
1.0
 10
3.7274043167
 20
3.1378094834
 30
0.0
 10
3.7236485503
 20
3.1350823259
 30
0.0
 10
3.7160342505
 20
3.1298182262
 30
0.0
 10
3.7042474124
 20
3.1225684797
 30
0.0
 10
3.6921203485
 20
3.1161004251
 30
0.0
 10
3.6796558558
 20
3.1105389749
 30
0.0
 10
3.666873532
 20
3.106017175
 30
0.0
 10
3.6538164821
 20
3.1026667164
 30
0.0
 10
3.6405545387
 20
3.100602673
 30
0.0
 10
3.6271824534
 20
3.099905034
 30
0.0
 10
3.6138103681
 20
3.100602673
 30
0.0
 10
3.6005484247
 20
3.1026667164
 30
0.0
 10
3.5874913748
 20
3.106017175
 30
0.0
 10
3.574709051
 20
3.1105389749
 30
0.0
 10
3.5622445583
 20
3.1161004251
 30
0.0
 10
3.5501174944
 20
3.1225684797
 30
0.0
 10
3.5383306563
 20
3.1298182262
 30
0.0
 10
3.5307163566
 20
3.1350823259
 30
0.0
 10
3.5269605902
 20
3.1378094834
 30
0.0
  0
SPLINE
  5
60C
100
AcDbEntity
  8
0
100
AcDbSpline
 62
7
  6
CONTINUOUS
 70
0
 71
3
 72
23
 73
19
 74
0
 42
0.0000001
 43
0.0000001
 44
0.0000000001
 40
0.0
 40
0.0
 40
0.0
 40
0.0
 40
0.0639534201
 40
0.1274857479
 40
0.1905684719
 40
0.2531932216
 40
0.315375322
 40
0.3771670594
 40
0.438663525
 40
0.5000000001
 40
0.5613364752
 40
0.6228329408
 40
0.6846246781
 40
0.7468067785
 40
0.8094315282
 40
0.8725142521
 40
0.9360465799
 40
1.0
 40
1.0
 40
1.0
 40
1.0
 10
3.7274043167
 20
3.3108960538
 30
0.0
 10
3.7236485503
 20
3.3136232113
 30
0.0
 10
3.7160342505
 20
3.318887311
 30
0.0
 10
3.7042474124
 20
3.3261370575
 30
0.0
 10
3.6921203485
 20
3.3326051122
 30
0.0
 10
3.6796558558
 20
3.3381665623
 30
0.0
 10
3.666873532
 20
3.3426883622
 30
0.0
 10
3.6538164821
 20
3.3460388208
 30
0.0
 10
3.6405545387
 20
3.3481028642
 30
0.0
 10
3.6271824534
 20
3.3488005033
 30
0.0
 10
3.6138103681
 20
3.3481028642
 30
0.0
 10
3.6005484247
 20
3.3460388208
 30
0.0
 10
3.5874913748
 20
3.3426883622
 30
0.0
 10
3.574709051
 20
3.3381665623
 30
0.0
 10
3.5622445583
 20
3.3326051122
 30
0.0
 10
3.5501174944
 20
3.3261370575
 30
0.0
 10
3.5383306563
 20
3.318887311
 30
0.0
 10
3.5307163566
 20
3.3136232113
 30
0.0
 10
3.5269605902
 20
3.3108960538
 30
0.0
  0
SPLINE
  5
60D
100
AcDbEntity
  8
0
100
AcDbSpline
 62
7
  6
CONTINUOUS
 70
0
 71
3
 72
23
 73
19
 74
0
 42
0.0000001
 43
0.0000001
 44
0.0000000001
 40
0.0
 40
0.0
 40
0.0
 40
0.0
 40
0.0639534201
 40
0.1274857479
 40
0.1905684719
 40
0.2531932216
 40
0.315375322
 40
0.3771670594
 40
0.438663525
 40
0.5000000001
 40
0.5613364752
 40
0.6228329408
 40
0.6846246781
 40
0.7468067785
 40
0.8094315282
 40
0.8725142521
 40
0.9360465799
 40
1.0
 40
1.0
 40
1.0
 40
1.0
 10
5.7259043167
 20
3.1378094834
 30
0.0
 10
5.7221485503
 20
3.1350823259
 30
0.0
 10
5.7145342505
 20
3.1298182262
 30
0.0
 10
5.7027474124
 20
3.1225684797
 30
0.0
 10
5.6906203485
 20
3.1161004251
 30
0.0
 10
5.6781558558
 20
3.1105389749
 30
0.0
 10
5.665373532
 20
3.106017175
 30
0.0
 10
5.6523164821
 20
3.1026667164
 30
0.0
 10
5.6390545387
 20
3.100602673
 30
0.0
 10
5.6256824534
 20
3.099905034
 30
0.0
 10
5.6123103681
 20
3.100602673
 30
0.0
 10
5.5990484247
 20
3.1026667164
 30
0.0
 10
5.5859913748
 20
3.106017175
 30
0.0
 10
5.573209051
 20
3.1105389749
 30
0.0
 10
5.5607445583
 20
3.1161004251
 30
0.0
 10
5.5486174944
 20
3.1225684797
 30
0.0
 10
5.5368306563
 20
3.1298182262
 30
0.0
 10
5.5292163566
 20
3.1350823259
 30
0.0
 10
5.5254605902
 20
3.1378094834
 30
0.0
  0
SPLINE
  5
60E
100
AcDbEntity
  8
0
100
AcDbSpline
 62
7
  6
CONTINUOUS
 70
0
 71
3
 72
23
 73
19
 74
0
 42
0.0000001
 43
0.0000001
 44
0.0000000001
 40
0.0
 40
0.0
 40
0.0
 40
0.0
 40
0.0639534201
 40
0.1274857479
 40
0.1905684719
 40
0.2531932216
 40
0.315375322
 40
0.3771670594
 40
0.438663525
 40
0.5000000001
 40
0.5613364752
 40
0.6228329408
 40
0.6846246781
 40
0.7468067785
 40
0.8094315282
 40
0.8725142521
 40
0.9360465799
 40
1.0
 40
1.0
 40
1.0
 40
1.0
 10
5.7259043167
 20
3.3108960538
 30
0.0
 10
5.7221485503
 20
3.3136232113
 30
0.0
 10
5.7145342505
 20
3.318887311
 30
0.0
 10
5.7027474124
 20
3.3261370575
 30
0.0
 10
5.6906203485
 20
3.3326051122
 30
0.0
 10
5.6781558558
 20
3.3381665623
 30
0.0
 10
5.665373532
 20
3.3426883622
 30
0.0
 10
5.6523164821
 20
3.3460388208
 30
0.0
 10
5.6390545387
 20
3.3481028642
 30
0.0
 10
5.6256824534
 20
3.3488005033
 30
0.0
 10
5.6123103681
 20
3.3481028642
 30
0.0
 10
5.5990484247
 20
3.3460388208
 30
0.0
 10
5.5859913748
 20
3.3426883622
 30
0.0
 10
5.573209051
 20
3.3381665623
 30
0.0
 10
5.5607445583
 20
3.3326051122
 30
0.0
 10
5.5486174944
 20
3.3261370575
 30
0.0
 10
5.5368306563
 20
3.318887311
 30
0.0
 10
5.5292163566
 20
3.3136232113
 30
0.0
 10
5.5254605902
 20
3.3108960538
 30
0.0
  0
SPLINE
  5
60F
100
AcDbEntity
  8
0
100
AcDbSpline
 62
7
  6
CONTINUOUS
 70
0
 71
3
 72
20
 73
16
 74
0
 42
0.0000001
 43
0.0000001
 44
0.0000000001
 40
0.0
 40
0.0
 40
0.0
 40
0.0
 40
0.0666701029
 40
0.1331768318
 40
0.1993686829
 40
0.2651096587
 40
0.3302883198
 40
0.3948189134
 40
0.4586414837
 40
0.5217195965
 40
0.5840368553
 40
0.6455929057
 40
0.7664460024
 40
0.8845007297
 40
1.0
 40
1.0
 40
1.0
 40
1.0
 10
9.1264324534
 20
3.6061027686
 30
0.0
 10
9.1222868122
 20
3.6061028275
 30
0.0
 10
9.1140035158
 20
3.6063572269
 30
0.0
 10
9.1016509924
 20
3.6074885844
 30
0.0
 10
9.0894460919
 20
3.609354906
 30
0.0
 10
9.0774547672
 20
3.611925249
 30
0.0
 10
9.0657329171
 20
3.6151602819
 30
0.0
 10
9.0543265853
 20
3.6190158509
 30
0.0
 10
9.0432711822
 20
3.6234441177
 30
0.0
 10
9.0325925639
 20
3.6283966326
 30
0.0
 10
9.0223074934
 20
3.6338257346
 30
0.0
 10
9.0092139478
 20
3.6415899376
 30
0.0
 10
8.993838113
 20
3.6522550194
 30
0.0
 10
8.9768917368
 20
3.6663816245
 30
0.0
 10
8.9665229958
 20
3.6765756016
 30
0.0
 10
8.961599172
 20
3.6818039628
 30
0.0
  0
SPLINE
  5
610
100
AcDbEntity
  8
0
100
AcDbSpline
 62
7
  6
CONTINUOUS
 70
0
 71
3
 72
23
 73
19
 74
0
 42
0.0000001
 43
0.0000001
 44
0.0000000001
 40
0.0
 40
0.0
 40
0.0
 40
0.0
 40
0.0639534201
 40
0.1274857479
 40
0.1905684719
 40
0.2531932216
 40
0.315375322
 40
0.3771670594
 40
0.438663525
 40
0.5000000001
 40
0.5613364752
 40
0.6228329408
 40
0.6846246781
 40
0.7468067785
 40
0.8094315282
 40
0.8725142521
 40
0.9360465799
 40
1.0
 40
1.0
 40
1.0
 40
1.0
 10
6.0229043167
 20
3.1378094834
 30
0.0
 10
6.0191485503
 20
3.1350823259
 30
0.0
 10
6.0115342505
 20
3.1298182262
 30
0.0
 10
5.9997474124
 20
3.1225684797
 30
0.0
 10
5.9876203485
 20
3.1161004251
 30
0.0
 10
5.9751558558
 20
3.1105389749
 30
0.0
 10
5.962373532
 20
3.106017175
 30
0.0
 10
5.9493164821
 20
3.1026667164
 30
0.0
 10
5.9360545387
 20
3.100602673
 30
0.0
 10
5.9226824534
 20
3.099905034
 30
0.0
 10
5.9093103681
 20
3.100602673
 30
0.0
 10
5.8960484247
 20
3.1026667164
 30
0.0
 10
5.8829913748
 20
3.106017175
 30
0.0
 10
5.870209051
 20
3.1105389749
 30
0.0
 10
5.8577445583
 20
3.1161004251
 30
0.0
 10
5.8456174944
 20
3.1225684797
 30
0.0
 10
5.8338306563
 20
3.1298182262
 30
0.0
 10
5.8262163566
 20
3.1350823259
 30
0.0
 10
5.8224605902
 20
3.1378094834
 30
0.0
  0
SPLINE
  5
611
100
AcDbEntity
  8
0
100
AcDbSpline
 62
7
  6
CONTINUOUS
 70
0
 71
3
 72
31
 73
27
 74
0
 42
0.0000001
 43
0.0000001
 44
0.0000000001
 40
0.0
 40
0.0
 40
0.0
 40
0.0
 40
0.040330391
 40
0.0800780164
 40
0.119168731
 40
0.1575602595
 40
0.1952115881
 40
0.2320884359
 40
0.3034734285
 40
0.3717354652
 40
0.437033417
 40
0.4996123605
 40
0.5597688577
 40
0.6178350884
 40
0.6741766307
 40
0.7291945495
 40
0.7563482718
 40
0.7833360456
 40
0.8102137275
 40
0.8370398024
 40
0.8638707029
 40
0.8907634345
 40
0.9177721573
 40
0.9449491617
 40
0.9723433542
 40
1.0
 40
1.0
 40
1.0
 40
1.0
 10
3.0339982528
 20
2.5162850043
 30
0.0
 10
3.0334517074
 20
2.5143114602
 30
0.0
 10
3.0323779365
 20
2.5103897243
 30
0.0
 10
3.0308006808
 20
2.5045479646
 30
0.0
 10
3.0292554764
 20
2.4987995305
 30
0.0
 10
3.027728529
 20
2.4931564139
 30
0.0
 10
3.0262133365
 20
2.4876265851
 30
0.0
 10
3.0242223666
 20
2.4804901788
 30
0.0
 10
3.0217297786
 20
2.4718800634
 30
0.0
 10
3.018619511
 20
2.4619481697
 30
0.0
 10
3.0153458696
 20
2.4525400794
 30
0.0
 10
3.0118337977
 20
2.4436581243
 30
0.0
 10
3.0080139827
 20
2.4353045786
 30
0.0
 10
3.0038243621
 20
2.4274856449
 30
0.0
 10
2.9992109968
 20
2.4202143729
 30
0.0
 10
2.9949550015
 20
2.4146024613
 30
0.0
 10
2.9913066698
 20
2.4104274323
 30
0.0
 10
2.9884535015
 20
2.407461465
 30
0.0
 10
2.9854694464
 20
2.4046513916
 30
0.0
 10
2.9823525899
 20
2.4020015152
 30
0.0
 10
2.9791022176
 20
2.3995158705
 30
0.0
 10
2.9757181725
 20
2.3971989831
 30
0.0
 10
2.9722014403
 20
2.3950549426
 30
0.0
 10
2.9685536622
 20
2.3930880283
 30
0.0
 10
2.9647776159
 20
2.391302185
 30
0.0
 10
2.9621902918
 20
2.3902402871
 30
0.0
 10
2.9608778883
 20
2.3897406311
 30
0.0
  0
SPLINE
  5
612
100
AcDbEntity
  8
0
100
AcDbSpline
 62
7
  6
CONTINUOUS
 70
0
 71
3
 72
23
 73
19
 74
0
 42
0.0000001
 43
0.0000001
 44
0.0000000001
 40
0.0
 40
0.0
 40
0.0
 40
0.0
 40
0.0639534201
 40
0.1274857479
 40
0.1905684719
 40
0.2531932216
 40
0.315375322
 40
0.3771670594
 40
0.438663525
 40
0.5000000001
 40
0.5613364752
 40
0.6228329408
 40
0.6846246781
 40
0.7468067785
 40
0.8094315282
 40
0.8725142521
 40
0.9360465799
 40
1.0
 40
1.0
 40
1.0
 40
1.0
 10
6.0229043167
 20
3.3108960538
 30
0.0
 10
6.0191485503
 20
3.3136232113
 30
0.0
 10
6.0115342505
 20
3.318887311
 30
0.0
 10
5.9997474124
 20
3.3261370575
 30
0.0
 10
5.9876203485
 20
3.3326051122
 30
0.0
 10
5.9751558558
 20
3.3381665623
 30
0.0
 10
5.962373532
 20
3.3426883622
 30
0.0
 10
5.9493164821
 20
3.3460388208
 30
0.0
 10
5.9360545387
 20
3.3481028642
 30
0.0
 10
5.9226824534
 20
3.3488005033
 30
0.0
 10
5.9093103681
 20
3.3481028642
 30
0.0
 10
5.8960484247
 20
3.3460388208
 30
0.0
 10
5.8829913748
 20
3.3426883622
 30
0.0
 10
5.870209051
 20
3.3381665623
 30
0.0
 10
5.8577445583
 20
3.3326051122
 30
0.0
 10
5.8456174944
 20
3.3261370575
 30
0.0
 10
5.8338306563
 20
3.318887311
 30
0.0
 10
5.8262163566
 20
3.3136232113
 30
0.0
 10
5.8224605902
 20
3.3108960538
 30
0.0
  0
SPLINE
  5
613
100
AcDbEntity
  8
0
100
AcDbSpline
 62
7
  6
CONTINUOUS
 70
0
 71
3
 72
22
 73
18
 74
0
 42
0.0000001
 43
0.0000001
 44
0.0000000001
 40
0.0
 40
0.0
 40
0.0
 40
0.0
 40
0.1201177339
 40
0.1814102821
 40
0.2433391595
 40
0.305790716
 40
0.3686571617
 40
0.4318355813
 40
0.4952275529
 40
0.5587391649
 40
0.6222816736
 40
0.6857716157
 40
0.7491312304
 40
0.812289731
 40
0.875185771
 40
0.9377679021
 40
1.0
 40
1.0
 40
1.0
 40
1.0
 10
2.959692955
 20
2.7413783394
 30
0.0
 10
2.9673087781
 20
2.7348984572
 30
0.0
 10
2.9781567447
 20
2.7243078438
 30
0.0
 10
2.991211238
 20
2.708805965
 30
0.0
 10
3.0003833056
 20
2.6963497286
 30
0.0
 10
3.0087931029
 20
2.6832122677
 30
0.0
 10
3.0163731328
 20
2.6694595644
 30
0.0
 10
3.0230569904
 20
2.6551629537
 30
0.0
 10
3.0287816242
 20
2.6403978145
 30
0.0
 10
3.0334866423
 20
2.6252445189
 30
0.0
 10
3.0371161244
 20
2.6097892728
 30
0.0
 10
3.0396222314
 20
2.5941248143
 30
0.0
 10
3.040964508
 20
2.5783494306
 30
0.0
 10
3.0411112604
 20
2.5625665484
 30
0.0
 10
3.0400401808
 20
2.5468832387
 30
0.0
 10
3.0377406088
 20
2.5314108764
 30
0.0
 10
3.0353813729
 20
2.5212776169
 30
0.0
 10
3.0339982528
 20
2.5162850043
 30
0.0
  0
SPLINE
  5
614
100
AcDbEntity
  8
0
100
AcDbSpline
 62
7
  6
CONTINUOUS
 70
0
 71
3
 72
48
 73
44
 74
0
 42
0.0000001
 43
0.0000001
 44
0.0000000001
 40
0.0
 40
0.0
 40
0.0
 40
0.0
 40
0.0164768698
 40
0.0319670555
 40
0.0466258146
 40
0.060582412
 40
0.0868013288
 40
0.11132533
 40
0.1346504695
 40
0.1571336187
 40
0.1790313139
 40
0.2005286668
 40
0.2217587109
 40
0.2428193445
 40
0.2533111973
 40
0.2637876032
 40
0.2847210162
 40
0.3056789344
 40
0.3267215958
 40
0.3372980535
 40
0.3479242592
 40
0.3693754958
 40
0.3912051508
 40
0.4135895608
 40
0.4367730957
 40
0.4610962419
 40
0.4870320106
 40
0.5152374346
 40
0.5466308896
 40
0.5825090119
 40
0.6247077984
 40
0.6489350231
 40
0.6756697711
 40
0.7051181229
 40
0.7371337396
 40
0.7709058645
 40
0.8049168572
 40
0.8375371064
 40
0.8677363976
 40
0.8952143148
 40
0.9201084928
 40
0.9633675208
 40
1.0
 40
1.0
 40
1.0
 40
1.0
 10
2.3144468491
 20
3.0229280492
 30
0.0
 10
2.314824623
 20
3.0223690321
 30
0.0
 10
2.3155899505
 20
3.0213058908
 30
0.0
 10
2.3167983121
 20
3.01982631
 30
0.0
 10
2.3180224785
 20
3.0184969659
 30
0.0
 10
2.3196377504
 20
3.0169358632
 30
0.0
 10
2.3216939003
 20
3.0152559671
 30
0.0
 10
2.324237433
 20
3.013594585
 30
0.0
 10
2.3267943579
 20
3.0122602625
 30
0.0
 10
2.3293591447
 20
3.0111989855
 30
0.0
 10
2.3319286688
 20
3.01036932
 30
0.0
 10
2.3345007629
 20
3.0097384476
 30
0.0
 10
2.3370744415
 20
3.0092830841
 30
0.0
 10
2.3392227642
 20
3.0090345341
 30
0.0
 10
2.3409394339
 20
3.0089099349
 30
0.0
 10
2.3426536623
 20
3.0088325421
 30
0.0
 10
2.3447991726
 20
3.0088241247
 30
0.0
 10
2.3473741008
 20
3.0089547584
 30
0.0
 10
2.3495161259
 20
3.0091838724
 30
0.0
 10
2.3512264248
 20
3.0094448793
 30
0.0
 10
2.3529443993
 20
3.0097610413
 30
0.0
 10
2.355095064
 20
3.0102661492
 30
0.0
 10
2.3576650252
 20
3.0110651652
 30
0.0
 10
2.3602306382
 20
3.0120906403
 30
0.0
 10
2.3627889893
 20
3.013382233
 30
0.0
 10
2.3653349964
 20
3.0149923281
 30
0.0
 10
2.3678602525
 20
3.0169890941
 30
0.0
 10
2.3703510245
 20
3.0194626133
 30
0.0
 10
2.3727841349
 20
3.0225351036
 30
0.0
 10
2.3751183237
 20
3.026375406
 30
0.0
 10
2.3768269081
 20
3.0302139525
 30
0.0
 10
2.3780457411
 20
3.0338309753
 30
0.0
 10
2.3788871449
 20
3.0370170597
 30
0.0
 10
2.3795682448
 20
3.0405667418
 30
0.0
 10
2.3800316138
 20
3.0444422314
 30
0.0
 10
2.3802225579
 20
3.0485279939
 30
0.0
 10
2.3801138938
 20
3.0526415823
 30
0.0
 10
2.3797215177
 20
3.0565906236
 30
0.0
 10
2.379094903
 20
3.0602376852
 30
0.0
 10
2.3782928322
 20
3.0635251534
 30
0.0
 10
2.3771102202
 20
3.06726061
 30
0.0
 10
2.3754314957
 20
3.0712227424
 30
0.0
 10
2.3737764139
 20
3.074055957
 30
0.0
 10
2.3729356411
 20
3.0752982056
 30
0.0
  0
SPLINE
  5
615
100
AcDbEntity
  8
0
100
AcDbSpline
 62
7
  6
CONTINUOUS
 70
0
 71
3
 72
55
 73
51
 74
0
 42
0.0000001
 43
0.0000001
 44
0.0000000001
 40
0.0
 40
0.0
 40
0.0
 40
0.0
 40
0.0329823988
 40
0.0679551102
 40
0.1430369973
 40
0.2234947344
 40
0.2651765799
 40
0.3075281756
 40
0.350327992
 40
0.3933565657
 40
0.4792317101
 40
0.5216485332
 40
0.5634348246
 40
0.6043811241
 40
0.6442811553
 40
0.6829327242
 40
0.7201387785
 40
0.7557083737
 40
0.7894578284
 40
0.82121182
 40
0.8508044445
 40
0.8780802501
 40
0.9028952196
 40
0.9143382245
 40
0.9251177162
 40
0.9352191738
 40
0.9446292248
 40
0.9533350986
 40
0.9613252526
 40
0.9685887373
 40
0.9751159059
 40
0.9808977206
 40
0.983506706
 40
0.9859265306
 40
0.9881563114
 40
0.9901953311
 40
0.9920429454
 40
0.9936985157
 40
0.9951614273
 40
0.9964312361
 40
0.9975076202
 40
0.9983903085
 40
0.9990791425
 40
0.9993509271
 40
0.9995744075
 40
0.999749788
 40
0.9998775218
 40
0.9999238887
 40
0.9999590306
 40
1.0
 40
1.0
 40
1.0
 40
1.0
 10
3.3409810837
 20
2.9723532663
 30
0.0
 10
3.3446847569
 20
2.9723532994
 30
0.0
 10
3.3523156222
 20
2.9723864663
 30
0.0
 10
3.368376629
 20
2.9725717137
 30
0.0
 10
3.3897655506
 20
2.9730136136
 30
0.0
 10
3.4119034745
 20
2.973631255
 30
0.0
 10
3.4303660653
 20
2.9741923048
 30
0.0
 10
3.4446015052
 20
2.9746379648
 30
0.0
 10
3.4589879115
 20
2.9750942451
 30
0.0
 10
3.4782593761
 20
2.9757006846
 30
0.0
 10
3.4974882737
 20
2.9762926082
 30
0.0
 10
3.5165785818
 20
2.9768519785
 30
0.0
 10
3.5306262534
 20
2.9772508073
 30
0.0
 10
3.5443918225
 20
2.9776272692
 30
0.0
 10
3.5578058736
 20
2.9779808213
 30
0.0
 10
3.5708003586
 20
2.9783121463
 30
0.0
 10
3.5833090036
 20
2.9786200044
 30
0.0
 10
3.5952675476
 20
2.9789059388
 30
0.0
 10
3.60661419
 20
2.9791709387
 30
0.0
 10
3.6172899693
 20
2.9794149528
 30
0.0
 10
3.6272390415
 20
2.979640382
 30
0.0
 10
3.6364091297
 20
2.9798474655
 30
0.0
 10
3.6435416474
 20
2.9800096681
 30
0.0
 10
3.6488221772
 20
2.9801321822
 30
0.0
 10
3.652450905
 20
2.9802176817
 30
0.0
 10
3.6558513744
 20
2.9802993408
 30
0.0
 10
3.6590190115
 20
2.9803773811
 30
0.0
 10
3.6619495767
 20
2.980452002
 30
0.0
 10
3.6646391043
 20
2.9805232877
 30
0.0
 10
3.667083978
 20
2.9805913308
 30
0.0
 10
3.6692808622
 20
2.9806561698
 30
0.0
 10
3.6709551992
 20
2.9807092092
 30
0.0
 10
3.6721684504
 20
2.9807504438
 30
0.0
 10
3.6729830146
 20
2.9807795814
 30
0.0
 10
3.6737335584
 20
2.9808080251
 30
0.0
 10
3.6744198253
 20
2.9808357773
 30
0.0
 10
3.6750415857
 20
2.9808628325
 30
0.0
 10
3.6755986191
 20
2.9808891861
 30
0.0
 10
3.6760907259
 20
2.9809148255
 30
0.0
 10
3.6765177361
 20
2.9809397493
 30
0.0
 10
3.6768795151
 20
2.9809639175
 30
0.0
 10
3.6771759393
 20
2.9809873454
 30
0.0
 10
3.6773819808
 20
2.9810073324
 30
0.0
 10
3.677513962
 20
2.9810236515
 30
0.0
 10
3.6775884471
 20
2.9810346411
 30
0.0
 10
3.6776466721
 20
2.9810454804
 30
0.0
 10
3.6776846818
 20
2.9810547188
 30
0.0
 10
3.6777070796
 20
2.9810627897
 30
0.0
 10
3.677718974
 20
2.9810684691
 30
0.0
 10
3.6777270888
 20
2.98107488
 30
0.0
 10
3.6777273273
 20
2.9810794743
 30
0.0
  0
SPLINE
  5
616
100
AcDbEntity
  8
0
100
AcDbSpline
 62
7
  6
CONTINUOUS
 70
0
 71
3
 72
62
 73
58
 74
0
 42
0.0000001
 43
0.0000001
 44
0.0000000001
 40
0.0
 40
0.0
 40
0.0
 40
0.0
 40
0.0330320955
 40
0.0680056891
 40
0.1047348011
 40
0.1430202096
 40
0.1826549323
 40
0.2234268483
 40
0.265117934
 40
0.3075082281
 40
0.3503751548
 40
0.3934951368
 40
0.4366446325
 40
0.479600915
 40
0.5221427596
 40
0.5640514173
 40
0.6051119397
 40
0.6451126436
 40
0.6838482471
 40
0.7211190104
 40
0.7567317722
 40
0.7905032859
 40
0.822257095
 40
0.8518283771
 40
0.8790634327
 40
0.9038182281
 40
0.9152249141
 40
0.9259644284
 40
0.9360221703
 40
0.9453846124
 40
0.9540396161
 40
0.9619758937
 40
0.9691832199
 40
0.9756518587
 40
0.9813727058
 40
0.9863379334
 40
0.9885353344
 40
0.9905416426
 40
0.992356207
 40
0.9939784247
 40
0.9954076993
 40
0.9966434535
 40
0.9976852879
 40
0.9981334117
 40
0.9985329727
 40
0.9988839525
 40
0.9991863421
 40
0.9994401489
 40
0.9996454198
 40
0.9997298975
 40
0.9998023078
 40
0.9998627015
 40
0.9999111673
 40
0.9999478799
 40
0.9999732577
 40
0.9999886704
 40
1.0
 40
1.0
 40
1.0
 40
1.0
 10
3.3352255503
 20
3.0190462943
 30
0.0
 10
3.3391212544
 20
3.0190460236
 30
0.0
 10
3.3471416373
 20
3.0190294919
 30
0.0
 10
3.3594936066
 20
3.0189692665
 30
0.0
 10
3.3724648941
 20
3.018868749
 30
0.0
 10
3.3859856076
 20
3.0187336398
 30
0.0
 10
3.3999828228
 20
3.0185690383
 30
0.0
 10
3.4143813877
 20
3.0183777706
 30
0.0
 10
3.4291047119
 20
3.0181681137
 30
0.0
 10
3.4440749138
 20
3.0179429217
 30
0.0
 10
3.4592134978
 20
3.017707513
 30
0.0
 10
3.4744415563
 20
3.017467359
 30
0.0
 10
3.4896801105
 20
3.0172244414
 30
0.0
 10
3.5048505122
 20
3.016984029
 30
0.0
 10
3.5198746177
 20
3.0167475879
 30
0.0
 10
3.5346752063
 20
3.0165169217
 30
0.0
 10
3.5491762055
 20
3.0162953706
 30
0.0
 10
3.5633030607
 20
3.0160816919
 30
0.0
 10
3.5769830704
 20
3.0158784914
 30
0.0
 10
3.5901456822
 20
3.0156860767
 30
0.0
 10
3.6027229206
 20
3.015503153
 30
0.0
 10
3.6146496125
 20
3.0153322773
 30
0.0
 10
3.6258638578
 20
3.0151711867
 30
0.0
 10
3.6363072816
 20
3.0150203962
 30
0.0
 10
3.6459253384
 20
3.0148807674
 30
0.0
 10
3.6534012933
 20
3.0147687699
 30
0.0
 10
3.6589320004
 20
3.0146837966
 30
0.0
 10
3.6627295718
 20
3.014624497
 30
0.0
 10
3.6662860554
 20
3.0145673595
 30
0.0
 10
3.6695966977
 20
3.014512198
 30
0.0
 10
3.6726571408
 20
3.0144591437
 30
0.0
 10
3.6754634148
 20
3.0144082633
 30
0.0
 10
3.6780118338
 20
3.0143596745
 30
0.0
 10
3.6802989661
 20
3.0143133538
 30
0.0
 10
3.6823216522
 20
3.0142688462
 30
0.0
 10
3.6838406398
 20
3.0142317793
 30
0.0
 10
3.684921609
 20
3.0142028289
 30
0.0
 10
3.6856310968
 20
3.0141825633
 30
0.0
 10
3.6862727361
 20
3.0141628503
 30
0.0
 10
3.6868463036
 20
3.0141436519
 30
0.0
 10
3.6873515837
 20
3.0141249478
 30
0.0
 10
3.6877883808
 20
3.0141067046
 30
0.0
 10
3.688109474
 20
3.0140912238
 30
0.0
 10
3.6883319744
 20
3.0140788329
 30
0.0
 10
3.6884730738
 20
3.0140701242
 30
0.0
 10
3.6885969569
 20
3.0140615305
 30
0.0
 10
3.6887036133
 20
3.0140530619
 30
0.0
 10
3.6887930339
 20
3.0140447224
 30
0.0
 10
3.6888567406
 20
3.0140375256
 30
0.0
 10
3.6888990526
 20
3.0140316548
 30
0.0
 10
3.6889243481
 20
3.0140275819
 30
0.0
 10
3.6889453677
 20
3.0140235516
 30
0.0
 10
3.688962027
 20
3.0140195913
 30
0.0
 10
3.6889746189
 20
3.0140156833
 30
0.0
 10
3.6889826971
 20
3.0140119375
 30
0.0
 10
3.6889881082
 20
3.0140078534
 30
0.0
 10
3.688987611
 20
3.0140041225
 30
0.0
 10
3.6889868466
 20
3.0140030266
 30
0.0
  0
LINE
  5
617
100
AcDbEntity
  8
0
100
AcDbLine
 62
7
  6
CONTINUOUS
 10
2.5671824534
 20
4.2623495488
 11
2.5744933589
 21
4.2625235028
  0
SPLINE
  5
618
100
AcDbEntity
  8
0
100
AcDbSpline
 62
7
  6
CONTINUOUS
 70
0
 71
3
 72
64
 73
60
 74
0
 42
0.0000001
 43
0.0000001
 44
0.0000000001
 40
0.0
 40
0.0
 40
0.0
 40
0.0
 40
0.0156118702
 40
0.0312368548
 40
0.0468757131
 40
0.0625340831
 40
0.0782168544
 40
0.0860714225
 40
0.0939354851
 40
0.1096871612
 40
0.1175852275
 40
0.1254962251
 40
0.1334210536
 40
0.1413587696
 40
0.1493076368
 40
0.1572647165
 40
0.1652257918
 40
0.1731860072
 40
0.1811404965
 40
0.1890853431
 40
0.1970181549
 40
0.2049379243
 40
0.2128440245
 40
0.2207370424
 40
0.2286184372
 40
0.2364883004
 40
0.2443489156
 40
0.2522001893
 40
0.2600442326
 40
0.2678810653
 40
0.2835355691
 40
0.2991715488
 40
0.3147932119
 40
0.3304037821
 40
0.3460048713
 40
0.3615990491
 40
0.377187013
 40
0.3927705293
 40
0.4083498218
 40
0.4239262461
 40
0.4394998235
 40
0.4706401071
 40
0.501774636
 40
0.5173408597
 40
0.5329060963
 40
0.5640345529
 40
0.6262844839
 40
0.6885329678
 40
0.7507826535
 40
0.7819108081
 40
0.81304108
 40
0.8441749011
 40
0.8753140263
 40
0.8908867251
 40
0.906462137
 40
0.9376199786
 40
0.9687945918
 40
0.9843930449
 40
1.0
 40
1.0
 40
1.0
 40
1.0
 10
2.4766251337
 20
3.077863078
 30
0.0
 10
2.4753320077
 20
3.0773754381
 30
0.0
 10
2.4727639342
 20
3.076347421
 30
0.0
 10
2.4689858383
 20
3.0746272876
 30
0.0
 10
2.4653017132
 20
3.0727036137
 30
0.0
 10
2.4617419777
 20
3.0705472
 30
0.0
 10
2.4589152804
 20
3.0685272947
 30
0.0
 10
2.4567697601
 20
3.0667580854
 30
0.0
 10
2.4547131053
 20
3.0648778393
 30
0.0
 10
2.4528158021
 20
3.0628203267
 30
0.0
 10
2.4511484547
 20
3.0605757003
 30
0.0
 10
2.4500316288
 20
3.0587931543
 30
0.0
 10
2.4490742042
 20
3.056915671
 30
0.0
 10
2.4483023363
 20
3.0549502915
 30
0.0
 10
2.4477418828
 20
3.0529109242
 30
0.0
 10
2.4474150892
 20
3.0508187522
 30
0.0
 10
2.4473366037
 20
3.0487014088
 30
0.0
 10
2.447510145
 20
3.0465900202
 30
0.0
 10
2.4479276508
 20
3.044514887
 30
0.0
 10
2.4485711041
 20
3.0425014719
 30
0.0
 10
2.4494163509
 20
3.0405681388
 30
0.0
 10
2.4504370899
 20
3.038726051
 30
0.0
 10
2.4516078033
 20
3.0369803389
 30
0.0
 10
2.4529051209
 20
3.0353314271
 30
0.0
 10
2.4543092124
 20
3.0337772408
 30
0.0
 10
2.4558027955
 20
3.0323133465
 30
0.0
 10
2.457372119
 20
3.0309353321
 30
0.0
 10
2.4590050992
 20
3.02963734
 30
0.0
 10
2.4606925504
 20
3.0284147793
 30
0.0
 10
2.4630029072
 20
3.0268784791
 30
0.0
 10
2.4659908697
 20
3.025120782
 30
0.0
 10
2.4696946322
 20
3.0232378655
 30
0.0
 10
2.473487951
 20
3.0215531848
 30
0.0
 10
2.4773503241
 20
3.0200431754
 30
0.0
 10
2.4812664425
 20
3.0186868378
 30
0.0
 10
2.485225225
 20
3.0174680808
 30
0.0
 10
2.4892177905
 20
3.01637145
 30
0.0
 10
2.493237638
 20
3.0153854712
 30
0.0
 10
2.497279327
 20
3.0144984141
 30
0.0
 10
2.5013388949
 20
3.0137020043
 30
0.0
 10
2.506770374
 20
3.0127490086
 30
0.0
 10
2.5135897233
 20
3.0117451665
 30
0.0
 10
2.5204354387
 20
3.0109505791
 30
0.0
 10
2.5259222809
 20
3.010423372
 30
0.0
 10
2.5314145948
 20
3.0099628331
 30
0.0
 10
2.5410381236
 20
3.0093228654
 30
0.0
 10
2.5548092229
 20
3.00882408
 30
0.0
 10
2.5713436275
 20
3.0087988862
 30
0.0
 10
2.5851161872
 20
3.0092524868
 30
0.0
 10
2.5961171918
 20
3.0099419392
 30
0.0
 10
2.6043555649
 20
3.0106437338
 30
0.0
 10
2.6125745013
 20
3.0115554022
 30
0.0
 10
2.619399353
 20
3.0125188328
 30
0.0
 10
2.6248369385
 20
3.0134347247
 30
0.0
 10
2.6302573723
 20
3.014456155
 30
0.0
 10
2.6369926895
 20
3.0159507993
 30
0.0
 10
2.643644397
 20
3.0177972166
 30
0.0
 10
2.6488865301
 20
3.0195362417
 30
0.0
 10
2.6514747326
 20
3.020504302
 30
0.0
 10
2.6527580953
 20
3.0210159124
 30
0.0
  0
SPLINE
  5
619
100
AcDbEntity
  8
0
100
AcDbSpline
 62
7
  6
CONTINUOUS
 70
0
 71
3
 72
39
 73
35
 74
0
 42
0.0000001
 43
0.0000001
 44
0.0000000001
 40
0.0
 40
0.0
 40
0.0
 40
0.0
 40
0.0604888919
 40
0.0920831672
 40
0.1249798706
 40
0.1420590119
 40
0.159634372
 40
0.1777666882
 40
0.1965035456
 40
0.2158592032
 40
0.235788025
 40
0.2561579366
 40
0.2767452664
 40
0.2972725146
 40
0.317477456
 40
0.337173676
 40
0.356268093
 40
0.3747443619
 40
0.3926334235
 40
0.4099906784
 40
0.4268779739
 40
0.4594653519
 40
0.4908300039
 40
0.5212871185
 40
0.5510676646
 40
0.6092041255
 40
0.6661557985
 40
0.7224104848
 40
0.7782504481
 40
0.8338436185
 40
0.8892924161
 40
0.9169857029
 40
0.9446654809
 40
1.0
 40
1.0
 40
1.0
 40
1.0
 10
2.7866731982
 20
3.077863078
 30
0.0
 10
2.7842830933
 20
3.076550666
 30
0.0
 10
2.7807720475
 20
3.0742929097
 30
0.0
 10
2.7764854195
 20
3.0706256978
 30
0.0
 10
2.7739602653
 20
3.0679393291
 30
0.0
 10
2.7720943105
 20
3.0655304339
 30
0.0
 10
2.7707717109
 20
3.0635496826
 30
0.0
 10
2.7695679826
 20
3.0614079094
 30
0.0
 10
2.768513745
 20
3.0590995314
 30
0.0
 10
2.7676457693
 20
3.0566281695
 30
0.0
 10
2.7670043969
 20
3.0540120075
 30
0.0
 10
2.7666275567
 20
3.0512882496
 30
0.0
 10
2.7665416293
 20
3.0485126177
 30
0.0
 10
2.766753127
 20
3.0457512593
 30
0.0
 10
2.7672463646
 20
3.0430673417
 30
0.0
 10
2.7679888733
 20
3.0405092638
 30
0.0
 10
2.7689407181
 20
3.0381058221
 30
0.0
 10
2.7700625871
 20
3.0358683506
 30
0.0
 10
2.7713201286
 20
3.0337959499
 30
0.0
 10
2.7726855002
 20
3.0318807161
 30
0.0
 10
2.7745976285
 20
3.0295502607
 30
0.0
 10
2.777164224
 20
3.0269509861
 30
0.0
 10
2.7804598859
 20
3.0242484902
 30
0.0
 10
2.7838771844
 20
3.0219220257
 30
0.0
 10
2.7885081518
 20
3.0192628086
 30
0.0
 10
2.794478052
 20
3.0165755511
 30
0.0
 10
2.801812875
 20
3.0141260873
 30
0.0
 10
2.8092141173
 20
3.0122857868
 30
0.0
 10
2.8166534322
 20
3.0109238133
 30
0.0
 10
2.8241152628
 20
3.0099479664
 30
0.0
 10
2.8303470238
 20
3.0094017176
 30
0.0
 10
2.8353340638
 20
3.0091049914
 30
0.0
 10
2.8403203541
 20
3.0088957513
 30
0.0
 10
2.8440629025
 20
3.0088349154
 30
0.0
 10
2.8465572777
 20
3.0088349154
 30
0.0
  0
LINE
  5
61A
100
AcDbEntity
  8
0
100
AcDbLine
 62
7
  6
CONTINUOUS
 10
2.5398539521
 20
4.2594133841
 11
2.5471824534
 21
4.2605553595
  0
SPLINE
  5
61B
100
AcDbEntity
  8
0
100
AcDbSpline
 62
7
  6
CONTINUOUS
 70
0
 71
3
 72
17
 73
13
 74
0
 42
0.0000001
 43
0.0000001
 44
0.0000000001
 40
0.0
 40
0.0
 40
0.0
 40
0.0
 40
0.1293103159
 40
0.2574762721
 40
0.384342229
 40
0.4472626355
 40
0.5098307143
 40
0.633916874
 40
0.7567504382
 40
0.8177955471
 40
0.8786513158
 40
1.0
 40
1.0
 40
1.0
 40
1.0
 10
2.7866731982
 20
3.077863078
 30
0.0
 10
2.7890679288
 20
3.0791780299
 30
0.0
 10
2.7938729755
 20
3.081730419
 30
0.0
 10
2.8011766782
 20
3.0852835736
 30
0.0
 10
2.8073439012
 20
3.0879539776
 30
0.0
 10
2.8123188158
 20
3.0898732608
 30
0.0
 10
2.81729263
 20
3.091625753
 30
0.0
 10
2.8235616152
 20
3.0935029585
 30
0.0
 10
2.8299227222
 20
3.0949050744
 30
0.0
 10
2.8350329765
 20
3.0957025744
 30
0.0
 10
2.8401411288
 20
3.096276988
 30
0.0
 10
2.8439934852
 20
3.0964523146
 30
0.0
 10
2.8465572777
 20
3.0964523146
 30
0.0
  0
SPLINE
  5
61C
100
AcDbEntity
  8
0
100
AcDbSpline
 62
7
  6
CONTINUOUS
 70
0
 71
3
 72
39
 73
35
 74
0
 42
0.0000001
 43
0.0000001
 44
0.0000000001
 40
0.0
 40
0.0
 40
0.0
 40
0.0
 40
0.0003481824
 40
0.0006655328
 40
0.0013996952
 40
0.0018962561
 40
0.0024998607
 40
0.0040565006
 40
0.006104375
 40
0.0086569386
 40
0.0117208871
 40
0.0152999472
 40
0.0193963493
 40
0.0240112748
 40
0.029145033
 40
0.0347975742
 40
0.0476576898
 40
0.0625877831
 40
0.0795805246
 40
0.0986271389
 40
0.1197177159
 40
0.1428398431
 40
0.1679804856
 40
0.1951245812
 40
0.2242537724
 40
0.2553492742
 40
0.3233596424
 40
0.3989875047
 40
0.4820332614
 40
0.5722738203
 40
0.6694668877
 40
0.7733497594
 40
0.8836371405
 40
1.0
 40
1.0
 40
1.0
 40
1.0
 10
3.2662851883
 20
3.0170668267
 30
0.0
 10
3.2662807466
 20
3.0170735055
 30
0.0
 10
3.266273791
 20
3.0170875802
 30
0.0
 10
3.2662723574
 20
3.0171208678
 30
0.0
 10
3.2662947859
 20
3.0171523459
 30
0.0
 10
3.2663275183
 20
3.01717856
 30
0.0
 10
3.2663800767
 20
3.0172105098
 30
0.0
 10
3.2664695804
 20
3.0172484072
 30
0.0
 10
3.2666047901
 20
3.0172915894
 30
0.0
 10
3.2667760169
 20
3.0173349862
 30
0.0
 10
3.2669833407
 20
3.0173786464
 30
0.0
 10
3.2672268685
 20
3.0174224019
 30
0.0
 10
3.2675066067
 20
3.017466199
 30
0.0
 10
3.2678225446
 20
3.0175099751
 30
0.0
 10
3.2681746399
 20
3.0175537077
 30
0.0
 10
3.2687159716
 20
3.0176145652
 30
0.0
 10
3.2694827936
 20
3.0176892074
 30
0.0
 10
3.2705108854
 20
3.0177750149
 30
0.0
 10
3.2716819746
 20
3.0178601469
 30
0.0
 10
3.272995368
 20
3.0179443502
 30
0.0
 10
3.2744502899
 20
3.0180273465
 30
0.0
 10
3.276045882
 20
3.0181088171
 30
0.0
 10
3.2777811782
 20
3.0181884311
 30
0.0
 10
3.2796550788
 20
3.0182659302
 30
0.0
 10
3.2816663515
 20
3.0183412077
 30
0.0
 10
3.2846187485
 20
3.0184414879
 30
0.0
 10
3.2886423328
 20
3.0185586828
 30
0.0
 10
3.2938629208
 20
3.0186818662
 30
0.0
 10
3.299596048
 20
3.0187899331
 30
0.0
 10
3.3058263066
 20
3.0188814306
 30
0.0
 10
3.3125368512
 20
3.0189548023
 30
0.0
 10
3.3197094162
 20
3.0190069093
 30
0.0
 10
3.3273237058
 20
3.01903864
 30
0.0
 10
3.3325449502
 20
3.0190461485
 30
0.0
 10
3.3352255503
 20
3.0190462943
 30
0.0
  0
SPLINE
  5
61D
100
AcDbEntity
  8
0
100
AcDbSpline
 62
7
  6
CONTINUOUS
 70
0
 71
3
 72
27
 73
23
 74
0
 42
0.0000001
 43
0.0000001
 44
0.0000000001
 40
0.0
 40
0.0
 40
0.0
 40
0.0
 40
0.0625859334
 40
0.1251494161
 40
0.1876851175
 40
0.2501929262
 40
0.3126726197
 40
0.3751267761
 40
0.4063492605
 40
0.4375683864
 40
0.4687847674
 40
0.4999999883
 40
0.5312152052
 40
0.5624315765
 40
0.5936506925
 40
0.624873177
 40
0.6873273589
 40
0.7498070801
 40
0.8123148979
 40
0.8748506024
 40
0.9374140785
 40
1.0
 40
1.0
 40
1.0
 40
1.0
 10
2.4766251337
 20
3.077863078
 30
0.0
 10
2.4801253886
 20
3.0791830296
 30
0.0
 10
2.4871538084
 20
3.0817462839
 30
0.0
 10
2.4977960209
 20
3.085300124
 30
0.0
 10
2.5085474152
 20
3.0884950779
 30
0.0
 10
2.5194137916
 20
3.0912577715
 30
0.0
 10
2.5303927723
 20
3.0935125367
 30
0.0
 10
2.5396269246
 20
3.0949078427
 30
0.0
 10
2.5470505536
 20
3.0957034806
 30
0.0
 10
2.5526329518
 20
3.0961339142
 30
0.0
 10
2.5582254229
 20
3.0963943757
 30
0.0
 10
2.5638230753
 20
3.096481125
 30
0.0
 10
2.5694207272
 20
3.0963943759
 30
0.0
 10
2.5750131969
 20
3.096133915
 30
0.0
 10
2.5805955941
 20
3.0957034824
 30
0.0
 10
2.5880192237
 20
3.0949078416
 30
0.0
 10
2.5972533794
 20
3.0935125377
 30
0.0
 10
2.6082323639
 20
3.0912577716
 30
0.0
 10
2.6190987424
 20
3.0884950768
 30
0.0
 10
2.6298501374
 20
3.0853001241
 30
0.0
 10
2.6404923483
 20
3.0817462819
 30
0.0
 10
2.6475207674
 20
3.0791830293
 30
0.0
 10
2.6510210217
 20
3.077863078
 30
0.0
  0
LINE
  5
61E
100
AcDbEntity
  8
0
100
AcDbLine
 62
7
  6
CONTINUOUS
 10
2.5221824534
 20
4.2575747175
 11
2.529490552
 21
4.2581775692
  0
SPLINE
  5
61F
100
AcDbEntity
  8
0
100
AcDbSpline
 62
7
  6
CONTINUOUS
 70
0
 71
3
 72
20
 73
16
 74
0
 42
0.0000001
 43
0.0000001
 44
0.0000000001
 40
0.0
 40
0.0
 40
0.0
 40
0.0
 40
0.0368228352
 40
0.0768651346
 40
0.1202543891
 40
0.1670771593
 40
0.2173901553
 40
0.2712258227
 40
0.3285966266
 40
0.3895006891
 40
0.4539215591
 40
0.5218334896
 40
0.667964054
 40
0.827520996
 40
1.0
 40
1.0
 40
1.0
 40
1.0
 10
2.9928714997
 20
2.5106736903
 30
0.0
 10
2.9933184544
 20
2.510927137
 30
0.0
 10
2.9942745315
 20
2.5114159918
 30
0.0
 10
2.9958191206
 20
2.5120743134
 30
0.0
 10
2.9975312394
 20
2.5126870358
 30
0.0
 10
2.9994091742
 20
2.5132536226
 30
0.0
 10
3.0014512093
 20
2.5137735461
 30
0.0
 10
3.0036553438
 20
2.5142462752
 30
0.0
 10
3.0060193946
 20
2.514671349
 30
0.0
 10
3.0085409796
 20
2.5150482608
 30
0.0
 10
3.0112175477
 20
2.5153766814
 30
0.0
 10
3.0150846085
 20
2.5157586402
 30
0.0
 10
3.0202878513
 20
2.5161020093
 30
0.0
 10
3.0269578806
 20
2.5163077476
 30
0.0
 10
3.0315916983
 20
2.5163124711
 30
0.0
 10
3.0339982528
 20
2.5162850043
 30
0.0
  0
SPLINE
  5
620
100
AcDbEntity
  8
0
100
AcDbSpline
 62
7
  6
CONTINUOUS
 70
0
 71
3
 72
35
 73
31
 74
0
 42
0.0000001
 43
0.0000001
 44
0.0000000001
 40
0.0
 40
0.0
 40
0.0
 40
0.0
 40
0.0743055302
 40
0.1104082284
 40
0.1457250313
 40
0.1801927865
 40
0.213756725
 40
0.2463720782
 40
0.2780048231
 40
0.3086404489
 40
0.338288053
 40
0.3947651012
 40
0.4218143996
 40
0.4482428462
 40
0.474234503
 40
0.5000000094
 40
0.5257655192
 40
0.5517571853
 40
0.5781856413
 40
0.6052349345
 40
0.6617119653
 40
0.6913595556
 40
0.7219951709
 40
0.7536279108
 40
0.7862432576
 40
0.8198071906
 40
0.8542749514
 40
0.8895917523
 40
0.9256944496
 40
1.0
 40
1.0
 40
1.0
 40
1.0
 10
2.3163843889
 20
3.077863078
 30
0.0
 10
2.3174625353
 20
3.0791610315
 30
0.0
 10
2.3190952789
 20
3.0810647238
 30
0.0
 10
2.3213315029
 20
3.0835042535
 30
0.0
 10
2.323000604
 20
3.0852354701
 30
0.0
 10
2.3246782171
 20
3.0868771282
 30
0.0
 10
2.3263647224
 20
3.0884203079
 30
0.0
 10
2.3280603626
 20
3.0898559282
 30
0.0
 10
2.3297652161
 20
3.0911746764
 30
0.0
 10
2.3314796962
 20
3.0923671804
 30
0.0
 10
2.3337404112
 20
3.093753999
 30
0.0
 10
2.3360600522
 20
3.0948857624
 30
0.0
 10
2.3384240736
 20
3.0956975829
 30
0.0
 10
2.340178456
 20
3.0961311603
 30
0.0
 10
2.3419371465
 20
3.0963937726
 30
0.0
 10
2.3436982542
 20
3.0964812994
 30
0.0
 10
2.3454593621
 20
3.0963937724
 30
0.0
 10
2.3472180531
 20
3.0961311594
 30
0.0
 10
2.3489724355
 20
3.0956975812
 30
0.0
 10
2.3513364575
 20
3.0948857634
 30
0.0
 10
2.3536560968
 20
3.093753998
 30
0.0
 10
2.3559168113
 20
3.0923671806
 30
0.0
 10
2.3576312905
 20
3.0911746764
 30
0.0
 10
2.3593361436
 20
3.0898559286
 30
0.0
 10
2.3610317838
 20
3.0884203088
 30
0.0
 10
2.3627182889
 20
3.0868771291
 30
0.0
 10
2.3643959017
 20
3.0852354707
 30
0.0
 10
2.3660650032
 20
3.0835042546
 30
0.0
 10
2.368301228
 20
3.081064725
 30
0.0
 10
2.3699339714
 20
3.0791610318
 30
0.0
 10
2.371012118
 20
3.077863078
 30
0.0
  0
LINE
  5
621
100
AcDbEntity
  8
0
100
AcDbLine
 62
7
  6
CONTINUOUS
 10
2.4949251138
 20
4.2530246555
 11
2.5021824534
 21
4.2545939
  0
SPLINE
  5
622
100
AcDbEntity
  8
0
100
AcDbSpline
 62
7
  6
CONTINUOUS
 70
0
 71
3
 72
32
 73
28
 74
0
 42
0.0000001
 43
0.0000001
 44
0.0000000001
 40
0.0
 40
0.0
 40
0.0
 40
0.0
 40
0.0012164205
 40
0.0025918972
 40
0.0042714652
 40
0.0063369041
 40
0.0088322579
 40
0.0117823081
 40
0.0152019059
 40
0.0191004299
 40
0.0283553906
 40
0.0395769885
 40
0.052778469
 40
0.0679644352
 40
0.085134646
 40
0.1042866457
 40
0.1254149911
 40
0.1485123775
 40
0.2005787871
 40
0.2603990284
 40
0.3278648448
 40
0.4028471557
 40
0.4851904537
 40
0.5747152057
 40
0.6712139476
 40
0.7744444261
 40
1.0
 40
1.0
 40
1.0
 40
1.0
 10
3.2764070405
 20
2.976212495
 30
0.0
 10
3.276404379
 20
2.9761862804
 30
0.0
 10
3.2764113863
 20
2.9761286107
 30
0.0
 10
3.276457868
 20
2.9760467743
 30
0.0
 10
3.2765361671
 20
2.9759671448
 30
0.0
 10
3.2766461992
 20
2.9758879041
 30
0.0
 10
3.276788424
 20
2.9758084086
 30
0.0
 10
3.2769632067
 20
2.9757285124
 30
0.0
 10
3.2771707351
 20
2.9756482147
 30
0.0
 10
3.2775112074
 20
2.9755340893
 30
0.0
 10
3.278020672
 20
2.9753941068
 30
0.0
 10
3.2787322612
 20
2.9752327847
 30
0.0
 10
3.2795748955
 20
2.9750705349
 30
0.0
 10
3.280548305
 20
2.9749078237
 30
0.0
 10
3.2816522052
 20
2.9747453179
 30
0.0
 10
3.2828861531
 20
2.9745835849
 30
0.0
 10
3.2842496313
 20
2.9744231487
 30
0.0
 10
3.2863238144
 20
2.9742027579
 30
0.0
 10
3.2892358736
 20
2.9739375676
 30
0.0
 10
3.2931098659
 20
2.9736435201
 30
0.0
 10
3.2974826887
 20
2.9733675176
 30
0.0
 10
3.3023455466
 20
2.9731154461
 30
0.0
 10
3.3076880558
 20
2.9728914121
 30
0.0
 10
3.3134981947
 20
2.9727004752
 30
0.0
 10
3.3197620477
 20
2.9725475898
 30
0.0
 10
3.328973099
 20
2.972393858
 30
0.0
 10
3.3360952331
 20
2.9723533013
 30
0.0
 10
3.3409810837
 20
2.9723532663
 30
0.0
  0
LINE
  5
623
100
AcDbEntity
  8
0
100
AcDbLine
 62
7
  6
CONTINUOUS
 10
2.7226824534
 20
4.2587135642
 11
2.7313238023
 21
4.2571331883
  0
LINE
  5
624
100
AcDbEntity
  8
0
100
AcDbLine
 62
7
  6
CONTINUOUS
 10
2.7313238023
 20
4.2571331883
 11
2.7319324534
 21
4.2570357741
  0
LINE
  5
625
100
AcDbEntity
  8
0
100
AcDbLine
 62
7
  6
CONTINUOUS
 10
2.6954324534
 20
4.2611738609
 11
2.6960459007
 21
4.2611328009
  0
LINE
  5
626
100
AcDbEntity
  8
0
100
AcDbLine
 62
7
  6
CONTINUOUS
 10
2.6960459007
 20
4.2611328009
 11
2.7046824534
 21
4.2607525999
  0
SPLINE
  5
627
100
AcDbEntity
  8
0
100
AcDbSpline
 62
7
  6
CONTINUOUS
 70
0
 71
3
 72
39
 73
35
 74
0
 42
0.0000001
 43
0.0000001
 44
0.0000000001
 40
0.0
 40
0.0
 40
0.0
 40
0.0
 40
0.0553345233
 40
0.0830143037
 40
0.110707591
 40
0.1661563831
 40
0.2217495486
 40
0.2775895073
 40
0.3338441885
 40
0.3907958573
 40
0.4489323151
 40
0.4787128603
 40
0.5091699728
 40
0.5405346227
 40
0.5731219999
 40
0.5900092922
 40
0.6073665493
 40
0.6252556099
 40
0.6437318763
 40
0.662826292
 40
0.682522512
 40
0.7027274533
 40
0.7232547049
 40
0.7438420398
 40
0.7642119531
 40
0.7841407799
 40
0.8034964342
 40
0.8222332967
 40
0.8403656157
 40
0.8579409759
 40
0.8750201189
 40
0.9079168242
 40
0.9395111024
 40
1.0
 40
1.0
 40
1.0
 40
1.0
 10
2.8465572777
 20
3.0088349154
 30
0.0
 10
2.849051653
 20
3.0088349154
 30
0.0
 10
2.8527942018
 20
3.0088957489
 30
0.0
 10
2.8577804924
 20
3.0091049906
 30
0.0
 10
2.862767532
 20
3.0094017203
 30
0.0
 10
2.8689992928
 20
3.0099479656
 30
0.0
 10
2.8764611227
 20
3.0109238136
 30
0.0
 10
2.8839004369
 20
3.0122857869
 30
0.0
 10
2.8913016786
 20
3.0141260872
 30
0.0
 10
2.8986365011
 20
3.0165755506
 30
0.0
 10
2.9046064014
 20
3.019262807
 30
0.0
 10
2.9092373686
 20
3.0219220239
 30
0.0
 10
2.9126546667
 20
3.0242484887
 30
0.0
 10
2.9159503286
 20
3.0269509841
 30
0.0
 10
2.9185169244
 20
3.029550258
 30
0.0
 10
2.9204290527
 20
3.0318807133
 30
0.0
 10
2.9217944249
 20
3.0337959466
 30
0.0
 10
2.9230519662
 20
3.0358683474
 30
0.0
 10
2.9241738355
 20
3.0381058184
 30
0.0
 10
2.9251256807
 20
3.0405092598
 30
0.0
 10
2.9258681898
 20
3.0430673375
 30
0.0
 10
2.9263614279
 20
3.0457512551
 30
0.0
 10
2.926572926
 20
3.0485126139
 30
0.0
 10
2.9264869989
 20
3.0512882463
 30
0.0
 10
2.9261101588
 20
3.0540120047
 30
0.0
 10
2.9254687868
 20
3.056628167
 30
0.0
 10
2.9246008112
 20
3.0590995292
 30
0.0
 10
2.9235465738
 20
3.0614079076
 30
0.0
 10
2.9223428453
 20
3.063549681
 30
0.0
 10
2.9210202457
 20
3.0655304327
 30
0.0
 10
2.919154291
 20
3.0679393282
 30
0.0
 10
2.9166291367
 20
3.0706256972
 30
0.0
 10
2.9123425084
 20
3.0742929095
 30
0.0
 10
2.9088314622
 20
3.0765506659
 30
0.0
 10
2.9064413571
 20
3.077863078
 30
0.0
  0
LINE
  5
628
100
AcDbEntity
  8
0
100
AcDbLine
 62
7
  6
CONTINUOUS
 10
2.7318527408
 20
4.2565434107
 11
2.7313234558
 21
4.2566282124
  0
LINE
  5
629
100
AcDbEntity
  8
0
100
AcDbLine
 62
7
  6
CONTINUOUS
 10
2.7313234558
 20
4.2566282124
 11
2.7226824534
 21
4.2582095709
  0
SPLINE
  5
62A
100
AcDbEntity
  8
0
100
AcDbSpline
 62
7
  6
CONTINUOUS
 70
0
 71
3
 72
17
 73
13
 74
0
 42
0.0000001
 43
0.0000001
 44
0.0000000001
 40
0.0
 40
0.0
 40
0.0
 40
0.0
 40
0.1213486841
 40
0.1822044527
 40
0.2432495616
 40
0.3660831258
 40
0.4901692856
 40
0.5527373644
 40
0.615657771
 40
0.7425237279
 40
0.8706896841
 40
1.0
 40
1.0
 40
1.0
 40
1.0
 10
2.8465572777
 20
3.0964523146
 30
0.0
 10
2.8491210701
 20
3.0964523146
 30
0.0
 10
2.8529734265
 20
3.096276988
 30
0.0
 10
2.8580815788
 20
3.0957025744
 30
0.0
 10
2.8631918331
 20
3.0949050744
 30
0.0
 10
2.8695529401
 20
3.0935029585
 30
0.0
 10
2.8758219253
 20
3.091625753
 30
0.0
 10
2.8807957395
 20
3.0898732608
 30
0.0
 10
2.8857706541
 20
3.0879539776
 30
0.0
 10
2.8919378771
 20
3.0852835736
 30
0.0
 10
2.8992415798
 20
3.081730419
 30
0.0
 10
2.9040466265
 20
3.0791780299
 30
0.0
 10
2.9064413571
 20
3.077863078
 30
0.0
  0
LINE
  5
62B
100
AcDbEntity
  8
0
100
AcDbLine
 62
7
  6
CONTINUOUS
 10
2.7046824534
 20
4.26024994
 11
2.7041830963
 21
4.2602082893
  0
LINE
  5
62C
100
AcDbEntity
  8
0
100
AcDbLine
 62
7
  6
CONTINUOUS
 10
2.7041830963
 20
4.2602082893
 11
2.6960459026
 21
4.2606303887
  0
LINE
  5
62D
100
AcDbEntity
  8
0
100
AcDbLine
 62
7
  6
CONTINUOUS
 10
2.6960459026
 20
4.2606303887
 11
2.6954324534
 21
4.2606714755
  0
LINE
  5
62E
100
AcDbEntity
  8
0
100
AcDbLine
 62
7
  6
CONTINUOUS
 10
6.7867468
 20
4.2480978056
 11
6.7864843103
 21
4.2481429946
  0
LINE
  5
62F
100
AcDbEntity
  8
0
100
AcDbLine
 62
7
  6
CONTINUOUS
 10
6.7864843103
 20
4.2481429946
 11
6.7842724564
 21
4.2484856968
  0
LINE
  5
630
100
AcDbEntity
  8
0
100
AcDbLine
 62
7
  6
CONTINUOUS
 10
2.5754324534
 20
4.262070702
 11
2.5749593051
 21
4.2620458853
  0
LINE
  5
631
100
AcDbEntity
  8
0
100
AcDbLine
 62
7
  6
CONTINUOUS
 10
2.5749593051
 20
4.2620458853
 11
2.5744935964
 21
4.2620220072
  0
LINE
  5
632
100
AcDbEntity
  8
0
100
AcDbLine
 62
7
  6
CONTINUOUS
 10
2.5744935964
 20
4.2620220072
 11
2.5671824534
 21
4.2618479283
  0
LINE
  5
633
100
AcDbEntity
  8
0
100
AcDbLine
 62
7
  6
CONTINUOUS
 10
2.5471824534
 20
4.2600525709
 11
2.5470510895
 21
4.2599931169
  0
LINE
  5
634
100
AcDbEntity
  8
0
100
AcDbLine
 62
7
  6
CONTINUOUS
 10
2.5470510895
 20
4.2599931169
 11
2.5398539374
 21
4.2589098474
  0
LINE
  5
635
100
AcDbEntity
  8
0
100
AcDbLine
 62
7
  6
CONTINUOUS
 10
2.5304324534
 20
4.2577775225
 11
2.5299576903
 21
4.2577246728
  0
LINE
  5
636
100
AcDbEntity
  8
0
100
AcDbLine
 62
7
  6
CONTINUOUS
 10
2.5299576903
 20
4.2577246728
 11
2.5294905655
 21
4.2576732257
  0
LINE
  5
637
100
AcDbEntity
  8
0
100
AcDbLine
 62
7
  6
CONTINUOUS
 10
2.5294905655
 20
4.2576732257
 11
2.5221824534
 21
4.2570699764
  0
LINE
  5
638
100
AcDbEntity
  8
0
100
AcDbLine
 62
7
  6
CONTINUOUS
 10
2.5021824534
 20
4.2540871911
 11
2.5020912838
 21
4.2540340581
  0
LINE
  5
639
100
AcDbEntity
  8
0
100
AcDbLine
 62
7
  6
CONTINUOUS
 10
2.5020912838
 20
4.2540340581
 11
2.4949251229
 21
4.2525169062
  0
SPLINE
  5
63A
100
AcDbEntity
  8
0
100
AcDbSpline
 62
7
  6
CONTINUOUS
 70
0
 71
3
 72
8
 73
4
 74
0
 42
0.0000001
 43
0.0000001
 44
0.0000000001
 40
0.0
 40
0.0
 40
0.0
 40
0.0
 40
1.0
 40
1.0
 40
1.0
 40
1.0
 10
2.4940252274
 20
4.2523475536
 30
0.0
 10
2.4939943034
 20
4.2523417685
 30
0.0
 10
2.4939633787
 20
4.2523359867
 30
0.0
 10
2.4939324534
 20
4.2523302082
 30
0.0
  0
LINE
  5
63B
100
AcDbEntity
  8
0
100
AcDbLine
 62
7
  6
CONTINUOUS
 10
2.6470824534
 20
4.2640775505
 11
2.6461318447
 21
4.2640229188
  0
SPLINE
  5
63C
100
AcDbEntity
  8
0
100
AcDbSpline
 62
7
  6
CONTINUOUS
 70
0
 71
3
 72
22
 73
18
 74
0
 42
0.0000001
 43
0.0000001
 44
0.0000000001
 40
0.0
 40
0.0
 40
0.0
 40
0.0
 40
0.023230498
 40
0.0575938087
 40
0.1047331916
 40
0.1649069516
 40
0.2361859311
 40
0.3162468289
 40
0.4031187825
 40
0.4943339078
 40
0.6744258129
 40
0.7564996855
 40
0.8301530504
 40
0.892821669
 40
0.941778544
 40
0.9768655172
 40
1.0
 40
1.0
 40
1.0
 40
1.0
 10
2.6461318447
 20
4.2640229188
 30
0.0
 10
2.6458176086
 20
4.2640087372
 30
0.0
 10
2.645038301
 20
4.2639789949
 30
0.0
 10
2.6436207195
 20
4.2639381475
 30
0.0
 10
2.6417027432
 20
4.2638975104
 30
0.0
 10
2.6392847632
 20
4.2638606182
 30
0.0
 10
2.6364209264
 20
4.2638269448
 30
0.0
 10
2.6331955208
 20
4.2637969051
 30
0.0
 10
2.6297001065
 20
4.2637731868
 30
0.0
 10
2.6248501534
 20
4.2637552421
 30
0.0
 10
2.6200651158
 20
4.2637669634
 30
0.0
 10
2.6155179982
 20
4.2637958459
 30
0.0
 10
2.6125608903
 20
4.2638221916
 30
0.0
 10
2.6100522766
 20
4.2638530996
 30
0.0
 10
2.6080660249
 20
4.2638905746
 30
0.0
 10
2.6066153147
 20
4.2639314337
 30
0.0
 10
2.6058275632
 20
4.2639631557
 30
0.0
 10
2.6055147026
 20
4.2639788872
 30
0.0
  0
LINE
  5
63D
100
AcDbEntity
  8
0
100
AcDbLine
 62
7
  6
CONTINUOUS
 10
2.6055147026
 20
4.2639788872
 11
2.6045824534
 21
4.2640446279
  0
LINE
  5
63E
100
AcDbEntity
  8
0
100
AcDbLine
 62
7
  6
CONTINUOUS
 10
2.6045824534
 20
4.2645448267
 11
2.6051289676
 21
4.2645005222
  0
SPLINE
  5
63F
100
AcDbEntity
  8
0
100
AcDbSpline
 62
7
  6
CONTINUOUS
 70
0
 71
3
 72
23
 73
19
 74
0
 42
0.0000001
 43
0.0000001
 44
0.0000000001
 40
0.0
 40
0.0
 40
0.0
 40
0.0
 40
0.0210020817
 40
0.0573026322
 40
0.112608739
 40
0.1870385565
 40
0.2761545788
 40
0.375879455
 40
0.4821363202
 40
0.5887290717
 40
0.6892137434
 40
0.7795025909
 40
0.8561141873
 40
0.9152062231
 40
0.956178607
 40
0.9816428904
 40
0.9951555568
 40
1.0
 40
1.0
 40
1.0
 40
1.0
 10
2.6051289676
 20
4.2645005222
 30
0.0
 10
2.6054221074
 20
4.264482441
 30
0.0
 10
2.60622263
 20
4.2644450275
 30
0.0
 10
2.6077966462
 20
4.2643961941
 30
0.0
 10
2.6101181423
 20
4.2643513952
 30
0.0
 10
2.6131784107
 20
4.2643157647
 30
0.0
 10
2.616859922
 20
4.26428611
 30
0.0
 10
2.6209865748
 20
4.2642650942
 30
0.0
 10
2.6253576821
 20
4.2642580267
 30
0.0
 10
2.6297393962
 20
4.2642729313
 30
0.0
 10
2.6338977209
 20
4.2643025567
 30
0.0
 10
2.6376366985
 20
4.2643401544
 30
0.0
 10
2.640796752
 20
4.2643817429
 30
0.0
 10
2.6432669984
 20
4.2644289071
 30
0.0
 10
2.6450217491
 20
4.2644779701
 30
0.0
 10
2.6461389744
 20
4.2645213919
 30
0.0
 10
2.6467509181
 20
4.2645540046
 30
0.0
 10
2.647007075
 20
4.2645712011
 30
0.0
 10
2.6470745695
 20
4.264577029
 30
0.0
  0
SPLINE
  5
640
100
AcDbEntity
  8
0
100
AcDbSpline
 62
7
  6
CONTINUOUS
 70
0
 71
3
 72
48
 73
44
 74
0
 42
0.0000001
 43
0.0000001
 44
0.0000000001
 40
0.0
 40
0.0
 40
0.0
 40
0.0
 40
0.1010926941
 40
0.1999563185
 40
0.2958729329
 40
0.3881632028
 40
0.4761885467
 40
0.5593396203
 40
0.6370266148
 40
0.7086707679
 40
0.7420479777
 40
0.7737000915
 40
0.8035567132
 40
0.8315481033
 40
0.8576057724
 40
0.8816629887
 40
0.9036549242
 40
0.9235201014
 40
0.9412001536
 40
0.9566413639
 40
0.9635069905
 40
0.9697952044
 40
0.9755005779
 40
0.980618557
 40
0.9851449882
 40
0.9890757516
 40
0.992407497
 40
0.9938479209
 40
0.9951376155
 40
0.9962762585
 40
0.9972635316
 40
0.9980992198
 40
0.9987832095
 40
0.9990682833
 40
0.9993153916
 40
0.9995245206
 40
0.9996956568
 40
0.9998287865
 40
0.999923896
 40
0.999957189
 40
0.9999809718
 40
0.9999952427
 40
1.0
 40
1.0
 40
1.0
 40
1.0
 10
2.3651824534
 20
4.0302351488
 30
0.0
 10
2.3650092021
 20
4.0330849668
 30
0.0
 10
2.3645748781
 20
4.0387166159
 30
0.0
 10
2.3636687503
 20
4.0470247168
 30
0.0
 10
2.3625464792
 20
4.0550553662
 30
0.0
 10
2.3612470631
 20
4.0627487879
 30
0.0
 10
2.3598137037
 20
4.0700511248
 30
0.0
 10
2.3582920316
 20
4.0769135282
 30
0.0
 10
2.3567287427
 20
4.0832910066
 30
0.0
 10
2.3554005681
 20
4.088277569
 30
0.0
 10
2.3543565822
 20
4.0919937044
 30
0.0
 10
2.3536104946
 20
4.0945675683
 30
0.0
 10
2.3528880696
 20
4.0969898365
 30
0.0
 10
2.3521946101
 20
4.0992557995
 30
0.0
 10
2.351535225
 20
4.10136085
 30
0.0
 10
2.3509147872
 20
4.1033005023
 30
0.0
 10
2.3503379721
 20
4.1050704573
 30
0.0
 10
2.3498091009
 20
4.1066665851
 30
0.0
 10
2.3493322454
 20
4.1080850327
 30
0.0
 10
2.3489682995
 20
4.109154101
 30
0.0
 10
2.348706098
 20
4.1099179384
 30
0.0
 10
2.3485324051
 20
4.110421447
 30
0.0
 10
2.3483741993
 20
4.1108780861
 30
0.0
 10
2.3482317822
 20
4.1112875366
 30
0.0
 10
2.3481054257
 20
4.111649509
 30
0.0
 10
2.3479954022
 20
4.1119637503
 30
0.0
 10
2.3479139973
 20
4.1121956683
 30
0.0
 10
2.3478572048
 20
4.1123571742
 30
0.0
 10
2.3478209258
 20
4.1124602377
 30
0.0
 10
2.3477888706
 20
4.1125512203
 30
0.0
 10
2.3477610597
 20
4.1126301037
 30
0.0
 10
2.347737508
 20
4.1126968732
 30
0.0
 10
2.3477205445
 20
4.1127449386
 30
0.0
 10
2.3477091103
 20
4.1127773253
 30
0.0
 10
2.3477021365
 20
4.1127970696
 30
0.0
 10
2.3476962408
 20
4.1128137675
 30
0.0
 10
2.3476913936
 20
4.1128274629
 30
0.0
 10
2.3476876777
 20
4.1128380352
 30
0.0
 10
2.3476851273
 20
4.112845128
 30
0.0
 10
2.3476838134
 20
4.1128490069
 30
0.0
 10
2.347682946
 20
4.1128511915
 30
0.0
 10
2.3476828882
 20
4.1128518282
 30
0.0
 10
2.3476823513
 20
4.1128528559
 30
0.0
 10
2.3476824534
 20
4.1128527686
 30
0.0
  0
SPLINE
  5
641
100
AcDbEntity
  8
0
100
AcDbSpline
 62
7
  6
CONTINUOUS
 70
0
 71
3
 72
14
 73
10
 74
0
 42
0.0000001
 43
0.0000001
 44
0.0000000001
 40
0.0
 40
0.0
 40
0.0
 40
0.0
 40
0.2193231714
 40
0.4143101208
 40
0.5824216977
 40
0.7220689815
 40
0.8327493569
 40
0.9150165192
 40
1.0
 40
1.0
 40
1.0
 40
1.0
 10
2.8947773263
 20
3.9518115159
 30
0.0
 10
2.8953244419
 20
3.9494640146
 30
0.0
 10
2.8964290529
 20
3.9450456226
 30
0.0
 10
2.8981855983
 20
3.9388892777
 30
0.0
 10
2.899871658
 20
3.9336265269
 30
0.0
 10
2.9014103418
 20
3.9292920837
 30
0.0
 10
2.9027352844
 20
3.9258847791
 30
0.0
 10
2.903921296
 20
3.9230696007
 30
0.0
 10
2.9046848758
 20
3.9213970678
 30
0.0
 10
2.9050900389
 20
3.9205555346
 30
0.0
  0
SPLINE
  5
642
100
AcDbEntity
  8
0
100
AcDbSpline
 62
7
  6
CONTINUOUS
 70
0
 71
3
 72
11
 73
7
 74
0
 42
0.0000001
 43
0.0000001
 44
0.0000000001
 40
0.0
 40
0.0
 40
0.0
 40
0.0
 40
0.2699518585
 40
0.529733605
 40
0.7745420373
 40
1.0
 40
1.0
 40
1.0
 40
1.0
 10
2.8876824534
 20
4.001943095
 30
0.0
 10
2.8878989041
 20
3.9973863473
 30
0.0
 10
2.8885570394
 20
3.9884539093
 30
0.0
 10
2.8901709069
 20
3.9754600207
 30
0.0
 10
2.892252611
 20
3.9632960134
 30
0.0
 10
2.8939125355
 20
3.9555220614
 30
0.0
 10
2.8947773263
 20
3.9518115159
 30
0.0
  0
SPLINE
  5
643
100
AcDbEntity
  8
0
100
AcDbSpline
 62
7
  6
CONTINUOUS
 70
0
 71
3
 72
11
 73
7
 74
0
 42
0.0000001
 43
0.0000001
 44
0.0000000001
 40
0.0
 40
0.0
 40
0.0
 40
0.0
 40
0.225457964
 40
0.470266391
 40
0.7300481369
 40
1.0
 40
1.0
 40
1.0
 40
1.0
 10
2.8947773263
 20
4.0768940213
 30
0.0
 10
2.8939125355
 20
4.0731834758
 30
0.0
 10
2.892252611
 20
4.0654095239
 30
0.0
 10
2.890170907
 20
4.0532455167
 30
0.0
 10
2.8885570394
 20
4.0402516281
 30
0.0
 10
2.8878989041
 20
4.03131919
 30
0.0
 10
2.8876824534
 20
4.0267624423
 30
0.0
  0
SPLINE
  5
644
100
AcDbEntity
  8
0
100
AcDbSpline
 62
7
  6
CONTINUOUS
 70
0
 71
3
 72
14
 73
10
 74
0
 42
0.0000001
 43
0.0000001
 44
0.0000000001
 40
0.0
 40
0.0
 40
0.0
 40
0.0
 40
0.0849834921
 40
0.1672506595
 40
0.2779310304
 40
0.4175783106
 40
0.5856898973
 40
0.7806768461
 40
1.0
 40
1.0
 40
1.0
 40
1.0
 10
2.9050900389
 20
4.1081500026
 30
0.0
 10
2.9046848757
 20
4.1073084693
 30
0.0
 10
2.9039212959
 20
4.1056359362
 30
0.0
 10
2.9027352842
 20
4.1028207577
 30
0.0
 10
2.9014103416
 20
4.0994134532
 30
0.0
 10
2.8998716579
 20
4.0950790099
 30
0.0
 10
2.8981855982
 20
4.0898162591
 30
0.0
 10
2.8964290528
 20
4.0836599142
 30
0.0
 10
2.8953244419
 20
4.0792415224
 30
0.0
 10
2.8947773263
 20
4.0768940213
 30
0.0
  0
LINE
  5
645
100
AcDbEntity
  8
0
100
AcDbLine
 62
7
  6
CONTINUOUS
 10
6.4920763361
 20
4.2520321806
 11
6.4754169622
 21
4.2493390874
  0
LINE
  5
646
100
AcDbEntity
  8
0
100
AcDbLine
 62
7
  6
CONTINUOUS
 10
6.7475733936
 20
4.2542163367
 11
6.7445733936
 21
4.2547992499
  0
LINE
  5
647
100
AcDbEntity
  8
0
100
AcDbLine
 62
7
  6
CONTINUOUS
 10
6.7842724564
 20
4.2479749072
 11
6.7642406662
 21
4.2513953456
  0
LINE
  5
648
100
AcDbEntity
  8
0
100
AcDbLine
 62
7
  6
CONTINUOUS
 10
6.7642406662
 20
4.2513953456
 11
6.7633309928
 21
4.2515558627
  0
LINE
  5
649
100
AcDbEntity
  8
0
100
AcDbLine
 62
7
  6
CONTINUOUS
 10
6.7633309928
 20
4.2515558627
 11
6.7615048475
 21
4.2518788876
  0
SPLINE
  5
64A
100
AcDbEntity
  8
0
100
AcDbSpline
 62
7
  6
CONTINUOUS
 70
0
 71
3
 72
23
 73
19
 74
0
 42
0.0000001
 43
0.0000001
 44
0.0000000001
 40
0.0
 40
0.0
 40
0.0
 40
0.0
 40
0.1155062271
 40
0.2335664856
 40
0.2936465377
 40
0.3544542207
 40
0.4160103072
 40
0.4783264154
 40
0.5414021343
 40
0.6052206796
 40
0.6697458453
 40
0.7022587093
 40
0.7349240254
 40
0.7677299562
 40
0.8006635273
 40
0.8668454224
 40
0.9333413118
 40
1.0
 40
1.0
 40
1.0
 40
1.0
 10
9.2910928955
 20
3.6816205447
 30
0.0
 10
9.2861704855
 20
3.6764031369
 30
0.0
 10
9.2758064177
 20
3.6662315139
 30
0.0
 10
9.2617716976
 20
3.6545518611
 30
0.0
 10
9.2497621383
 20
3.645829012
 30
0.0
 10
9.2402957237
 20
3.6395961762
 30
0.0
 10
9.2304232964
 20
3.6337507956
 30
0.0
 10
9.2201484777
 20
3.6283357049
 30
0.0
 10
9.2094813954
 20
3.6233957523
 30
0.0
 10
9.1984388183
 20
3.6189797338
 30
0.0
 10
9.1889688424
 20
3.6157832235
 30
0.0
 10
9.1812341628
 20
3.6135323972
 30
0.0
 10
9.175344328
 20
3.6120008146
 30
0.0
 10
9.1693870888
 20
3.6106347283
 30
0.0
 10
9.161350895
 20
3.6090378952
 30
0.0
 10
9.1511774658
 20
3.6074846481
 30
0.0
 10
9.1388431094
 20
3.6063566649
 30
0.0
 10
9.1305719758
 20
3.606102866
 30
0.0
 10
9.1264324534
 20
3.6061027686
 30
0.0
  0
LINE
  5
64B
100
AcDbEntity
  8
0
100
AcDbLine
 62
7
  6
CONTINUOUS
 10
6.7264324534
 20
4.257544998
 11
6.7259660422
 21
4.257516716
  0
LINE
  5
64C
100
AcDbEntity
  8
0
100
AcDbLine
 62
7
  6
CONTINUOUS
 10
6.7259660422
 20
4.257516716
 11
6.7225126588
 21
4.257792357
  0
SPLINE
  5
64D
100
AcDbEntity
  8
0
100
AcDbSpline
 62
7
  6
CONTINUOUS
 70
0
 71
3
 72
28
 73
24
 74
0
 42
0.0000001
 43
0.0000001
 44
0.0000000001
 40
0.0
 40
0.0
 40
0.0
 40
0.0
 40
0.19458672
 40
0.2895421687
 40
0.3817307036
 40
0.4702633433
 40
0.5542928926
 40
0.6330124512
 40
0.7056643256
 40
0.77154863
 40
0.8300304358
 40
0.8805460478
 40
0.9026612336
 40
0.9226092174
 40
0.940341257
 40
0.9558158914
 40
0.9689959124
 40
0.9798523782
 40
0.9883624272
 40
0.994516272
 40
0.998327619
 40
0.9993921613
 40
1.0
 40
1.0
 40
1.0
 40
1.0
 10
6.6751824534
 20
4.262191433
 30
0.0
 10
6.6742073063
 20
4.2622529575
 30
0.0
 10
6.6727564819
 20
4.2623474
 30
0.0
 10
6.6708441319
 20
4.2624779466
 30
0.0
 10
6.66946329
 20
4.2625752689
 30
0.0
 10
6.6681373993
 20
4.2626718635
 30
0.0
 10
6.6668792031
 20
4.2627667984
 30
0.0
 10
6.6657007865
 20
4.2628591547
 30
0.0
 10
6.6646134959
 20
4.2629480348
 30
0.0
 10
6.663627816
 20
4.2630325622
 30
0.0
 10
6.6627532636
 20
4.2631119076
 30
0.0
 10
6.6620979775
 20
4.263175538
 30
0.0
 10
6.6616356043
 20
4.2632236695
 30
0.0
 10
6.661337139
 20
4.263256386
 30
0.0
 10
6.6610720183
 20
4.2632872624
 30
0.0
 10
6.6608409038
 20
4.2633162046
 30
0.0
 10
6.6606443133
 20
4.2633431369
 30
0.0
 10
6.6604828269
 20
4.2633679081
 30
0.0
 10
6.6603565009
 20
4.2633904816
 30
0.0
 10
6.660266223
 20
4.263410344
 30
0.0
 10
6.6602125149
 20
4.2634267409
 30
0.0
 10
6.6601884392
 20
4.2634391776
 30
0.0
 10
6.6601824534
 20
4.2634465816
 30
0.0
 10
6.6601824534
 20
4.2634496338
 30
0.0
  0
LINE
  5
64E
100
AcDbEntity
  8
0
100
AcDbLine
 62
7
  6
CONTINUOUS
 10
6.7000150484
 20
4.2604811594
 11
6.6871824534
 21
4.2613406703
  0
LINE
  5
64F
100
AcDbEntity
  8
0
100
AcDbLine
 62
7
  6
CONTINUOUS
 10
6.6421824534
 20
4.2640250519
 11
6.6417758684
 21
4.2639532702
  0
LINE
  5
650
100
AcDbEntity
  8
0
100
AcDbLine
 62
7
  6
CONTINUOUS
 10
6.6417758684
 20
4.2639532702
 11
6.6325375252
 21
4.2637428114
  0
LINE
  5
651
100
AcDbEntity
  8
0
100
AcDbLine
 62
7
  6
CONTINUOUS
 10
6.6325375252
 20
4.2637428114
 11
6.6314324534
 21
4.2637361017
  0
LINE
  5
652
100
AcDbEntity
  8
0
100
AcDbLine
 62
7
  6
CONTINUOUS
 10
6.6070824534
 20
4.2641111166
 11
6.6060569205
 21
4.2640001843
  0
SPLINE
  5
653
100
AcDbEntity
  8
0
100
AcDbSpline
 62
7
  6
CONTINUOUS
 70
0
 71
3
 72
22
 73
18
 74
0
 42
0.0000001
 43
0.0000001
 44
0.0000000001
 40
0.0
 40
0.0
 40
0.0
 40
0.0
 40
0.0240488837
 40
0.0592047086
 40
0.1069822348
 40
0.1674843365
 40
0.2387275034
 40
0.3184858348
 40
0.4048409737
 40
0.4953804503
 40
0.6740688548
 40
0.7556201737
 40
0.8289594742
 40
0.8916043996
 40
0.9408329597
 40
0.9763682969
 40
1.0
 40
1.0
 40
1.0
 40
1.0
 10
6.6060569205
 20
4.2640001843
 30
0.0
 10
6.6057333312
 20
4.2639692351
 30
0.0
 10
6.6049361951
 20
4.2638983693
 30
0.0
 10
6.6034946978
 20
4.2637833331
 30
0.0
 10
6.6015609424
 20
4.2636433536
 30
0.0
 10
6.5991397195
 20
4.2634819564
 30
0.0
 10
6.5962865635
 20
4.2633012596
 30
0.0
 10
6.5930841767
 20
4.2631061527
 30
0.0
 10
6.5896209319
 20
4.2629037963
 30
0.0
 10
6.5848218982
 20
4.2626380743
 30
0.0
 10
6.5800861629
 20
4.2624046372
 30
0.0
 10
6.5755818611
 20
4.2621999724
 30
0.0
 10
6.5726441584
 20
4.2620739121
 30
0.0
 10
6.5701426109
 20
4.2619748672
 30
0.0
 10
6.5681511792
 20
4.2619087237
 30
0.0
 10
6.5666864139
 20
4.2618733759
 30
0.0
 10
6.5658866876
 20
4.2618635671
 30
0.0
 10
6.5655672617
 20
4.261862747
 30
0.0
  0
LINE
  5
654
100
AcDbEntity
  8
0
100
AcDbLine
 62
7
  6
CONTINUOUS
 10
6.5655672617
 20
4.261862747
 11
6.5645824534
 21
4.2618802837
  0
SPLINE
  5
655
100
AcDbEntity
  8
0
100
AcDbSpline
 62
7
  6
CONTINUOUS
 70
0
 71
3
 72
49
 73
45
 74
0
 42
0.0000001
 43
0.0000001
 44
0.0000000001
 40
0.0
 40
0.0
 40
0.0
 40
0.0
 40
0.013233892
 40
0.0264953008
 40
0.0398074389
 40
0.0531962993
 40
0.0666856398
 40
0.0802974987
 40
0.094052432
 40
0.1079689412
 40
0.1220633639
 40
0.1363497399
 40
0.1655318555
 40
0.195591636
 40
0.2265559457
 40
0.2584160655
 40
0.2911309571
 40
0.3246310935
 40
0.3588225208
 40
0.3935910196
 40
0.4288062885
 40
0.4643260346
 40
0.5
 40
0.5356739654
 40
0.5711937115
 40
0.6064089804
 40
0.6411774792
 40
0.6753689065
 40
0.7088690429
 40
0.7415839345
 40
0.7734440543
 40
0.804408364
 40
0.8344681445
 40
0.8636502601
 40
0.8779366361
 40
0.8920310588
 40
0.905947568
 40
0.9197025013
 40
0.9333143602
 40
0.9468037007
 40
0.9601925611
 40
0.9735046992
 40
0.986766108
 40
1.0
 40
1.0
 40
1.0
 40
1.0
 10
6.0678881446
 20
2.3838930061
 30
0.0
 10
6.0654624583
 20
2.3838930061
 30
0.0
 10
6.0606045136
 20
2.3840541116
 30
0.0
 10
6.0533389911
 20
2.3847778557
 30
0.0
 10
6.0461084637
 20
2.3859822903
 30
0.0
 10
6.0389311633
 20
2.3876642782
 30
0.0
 10
6.0318241869
 20
2.3898195636
 30
0.0
 10
6.0248048347
 20
2.3924429294
 30
0.0
 10
6.0178900777
 20
2.3955278846
 30
0.0
 10
6.0110965929
 20
2.3990667189
 30
0.0
 10
6.0044405987
 20
2.4030510297
 30
0.0
 10
5.9957105709
 20
2.4089849117
 30
0.0
 10
5.9852217124
 20
2.4174945519
 30
0.0
 10
5.9735324634
 20
2.4292278203
 30
0.0
 10
5.9627567616
 20
2.4424432498
 30
0.0
 10
5.9529968554
 20
2.4570121677
 30
0.0
 10
5.9443438815
 20
2.4727947089
 30
0.0
 10
5.9368792586
 20
2.4896395667
 30
0.0
 10
5.9306732551
 20
2.5073855837
 30
0.0
 10
5.9257843949
 20
2.5258630559
 30
0.0
 10
5.9222588905
 20
2.544895346
 30
0.0
 10
5.920130157
 20
2.5643005089
 30
0.0
 10
5.9194183375
 20
2.5838930061
 30
0.0
 10
5.920130157
 20
2.6034855033
 30
0.0
 10
5.9222588905
 20
2.6228906662
 30
0.0
 10
5.9257843949
 20
2.6419229563
 30
0.0
 10
5.9306732551
 20
2.6604004285
 30
0.0
 10
5.9368792586
 20
2.6781464455
 30
0.0
 10
5.9443438815
 20
2.6949913033
 30
0.0
 10
5.9529968554
 20
2.7107738445
 30
0.0
 10
5.9627567616
 20
2.7253427623
 30
0.0
 10
5.9735324634
 20
2.7385581919
 30
0.0
 10
5.9852217124
 20
2.7502914603
 30
0.0
 10
5.9957105709
 20
2.7588011005
 30
0.0
 10
6.0044405987
 20
2.7647349825
 30
0.0
 10
6.0110965929
 20
2.7687192933
 30
0.0
 10
6.0178900777
 20
2.7722581275
 30
0.0
 10
6.0248048347
 20
2.7753430828
 30
0.0
 10
6.0318241869
 20
2.7779664486
 30
0.0
 10
6.0389311633
 20
2.780121734
 30
0.0
 10
6.0461084637
 20
2.7818037219
 30
0.0
 10
6.0533389911
 20
2.7830081565
 30
0.0
 10
6.0606045136
 20
2.7837319006
 30
0.0
 10
6.0654624583
 20
2.7838930061
 30
0.0
 10
6.0678881446
 20
2.7838930061
 30
0.0
  0
LINE
  5
656
100
AcDbEntity
  8
0
100
AcDbLine
 62
7
  6
CONTINUOUS
 10
6.7071134571
 20
4.2600279338
 11
6.7081846915
 21
4.2599036384
  0
SPLINE
  5
657
100
AcDbEntity
  8
0
100
AcDbSpline
 62
7
  6
CONTINUOUS
 70
0
 71
3
 72
11
 73
7
 74
0
 42
0.0000001
 43
0.0000001
 44
0.0000000001
 40
0.0
 40
0.0
 40
0.0
 40
0.0
 40
0.2699518587
 40
0.5297336051
 40
0.7745420373
 40
1.0
 40
1.0
 40
1.0
 40
1.0
 10
6.3651824534
 20
4.0267624423
 30
0.0
 10
6.3649660027
 20
4.0313191899
 30
0.0
 10
6.3643078674
 20
4.0402516279
 30
0.0
 10
6.3626939999
 20
4.0532455166
 30
0.0
 10
6.3606122958
 20
4.0654095238
 30
0.0
 10
6.3589523713
 20
4.0731834758
 30
0.0
 10
6.3580875805
 20
4.0768940213
 30
0.0
  0
SPLINE
  5
658
100
AcDbEntity
  8
0
100
AcDbSpline
 62
7
  6
CONTINUOUS
 70
0
 71
3
 72
14
 73
10
 74
0
 42
0.0000001
 43
0.0000001
 44
0.0000000001
 40
0.0
 40
0.0
 40
0.0
 40
0.0
 40
0.2193234164
 40
0.4143096203
 40
0.5824209473
 40
0.7220684755
 40
0.8327489125
 40
0.9150163564
 40
1.0
 40
1.0
 40
1.0
 40
1.0
 10
6.3580875805
 20
4.0768940213
 30
0.0
 10
6.3575404643
 20
4.0792415253
 30
0.0
 10
6.3564358548
 20
4.0836599119
 30
0.0
 10
6.3546793116
 20
4.0898162489
 30
0.0
 10
6.3529932548
 20
4.0950789919
 30
0.0
 10
6.3514545716
 20
4.099413436
 30
0.0
 10
6.3501296273
 20
4.1028207469
 30
0.0
 10
6.3489436135
 20
4.1056359304
 30
0.0
 10
6.3481800318
 20
4.1073084678
 30
0.0
 10
6.347774868
 20
4.1081500026
 30
0.0
  0
SPLINE
  5
659
100
AcDbEntity
  8
0
100
AcDbSpline
 62
7
  6
CONTINUOUS
 70
0
 71
3
 72
23
 73
19
 74
0
 42
0.0000001
 43
0.0000001
 44
0.0000000001
 40
0.0
 40
0.0
 40
0.0
 40
0.0
 40
0.0185168615
 40
0.0518570751
 40
0.1042261156
 40
0.1766784089
 40
0.2650218658
 40
0.3647957082
 40
0.4718677049
 40
0.5800637058
 40
0.6825034574
 40
0.7747577315
 40
0.8532071301
 40
0.9137978461
 40
0.9557306372
 40
0.9816563993
 40
0.99527318
 40
1.0
 40
1.0
 40
1.0
 40
1.0
 10
6.5650018811
 20
4.2623673745
 30
0.0
 10
6.565261959
 20
4.2623632765
 30
0.0
 10
6.5659904786
 20
4.2623640196
 30
0.0
 10
6.5674543615
 20
4.2623902708
 30
0.0
 10
6.5696750999
 20
4.2624582908
 30
0.0
 10
6.5726671856
 20
4.2625755693
 30
0.0
 10
6.5763240485
 20
4.2627337154
 30
0.0
 10
6.5804662146
 20
4.2629252096
 30
0.0
 10
6.5848862527
 20
4.2631444486
 30
0.0
 10
6.589342533
 20
4.2633878637
 30
0.0
 10
6.5935900234
 20
4.263636577
 30
0.0
 10
6.5974196873
 20
4.2638722235
 30
0.0
 10
6.6006619792
 20
4.2640816233
 30
0.0
 10
6.6031978899
 20
4.2642602193
 30
0.0
 10
6.6049966093
 20
4.2644029492
 30
0.0
 10
6.6061365143
 20
4.2645059234
 30
0.0
 10
6.6067549749
 20
4.2645709087
 30
0.0
 10
6.6070108757
 20
4.2646013221
 30
0.0
 10
6.6070766433
 20
4.2646104541
 30
0.0
  0
SPLINE
  5
65A
100
AcDbEntity
  8
0
100
AcDbSpline
 62
7
  6
CONTINUOUS
 70
0
 71
3
 72
14
 73
10
 74
0
 42
0.0000001
 43
0.0000001
 44
0.0000000001
 40
0.0
 40
0.0
 40
0.0
 40
0.0
 40
0.0849836601
 40
0.1672511138
 40
0.2779315465
 40
0.41757908
 40
0.5856904069
 40
0.7806766014
 40
1.0
 40
1.0
 40
1.0
 40
1.0
 10
6.347774868
 20
3.9205555346
 30
0.0
 10
6.3481800319
 20
3.9213970696
 30
0.0
 10
6.3489436137
 20
3.9230696073
 30
0.0
 10
6.3501296276
 20
3.925884791
 30
0.0
 10
6.3514545719
 20
3.929292102
 30
0.0
 10
6.3529932551
 20
3.9336265461
 30
0.0
 10
6.3546793119
 20
3.938889289
 30
0.0
 10
6.3564358549
 20
3.9450456258
 30
0.0
 10
6.3575404644
 20
3.9494640121
 30
0.0
 10
6.3580875805
 20
3.9518115159
 30
0.0
  0
SPLINE
  5
65B
100
AcDbEntity
  8
0
100
AcDbSpline
 62
7
  6
CONTINUOUS
 70
0
 71
3
 72
11
 73
7
 74
0
 42
0.0000001
 43
0.0000001
 44
0.0000000001
 40
0.0
 40
0.0
 40
0.0
 40
0.0
 40
0.2254579641
 40
0.4702663912
 40
0.7300481371
 40
1.0
 40
1.0
 40
1.0
 40
1.0
 10
6.3580875805
 20
3.9518115159
 30
0.0
 10
6.3589523713
 20
3.9555220614
 30
0.0
 10
6.3606122958
 20
3.9632960133
 30
0.0
 10
6.3626939999
 20
3.9754600205
 30
0.0
 10
6.3643078674
 20
3.9884539092
 30
0.0
 10
6.3649660027
 20
3.9973863472
 30
0.0
 10
6.3651824534
 20
4.001943095
 30
0.0
  0
SPLINE
  5
65C
100
AcDbEntity
  8
0
100
AcDbSpline
 62
7
  6
CONTINUOUS
 70
0
 71
3
 72
46
 73
42
 74
0
 42
0.0000001
 43
0.0000001
 44
0.0000000001
 40
0.0
 40
0.0
 40
0.0
 40
0.0
 40
0.101092795
 40
0.1999564879
 40
0.2958731895
 40
0.3881634849
 40
0.4761889086
 40
0.5593400322
 40
0.6370270677
 40
0.708671254
 40
0.7737000114
 40
0.8035566771
 40
0.8315480584
 40
0.8576058325
 40
0.8816629542
 40
0.9036550174
 40
0.9235201473
 40
0.9412001992
 40
0.9566415671
 40
0.9635071416
 40
0.9697951948
 40
0.9755007429
 40
0.9806188114
 40
0.9851450242
 40
0.9890758482
 40
0.9924078105
 40
0.993848171
 40
0.9951377306
 40
0.9962762664
 40
0.9972635555
 40
0.9980993748
 40
0.9987835012
 40
0.99906861
 40
0.9993157133
 40
0.9995248009
 40
0.9996958725
 40
0.9998289283
 40
0.9999239681
 40
0.999957232
 40
0.999980992
 40
1.0
 40
1.0
 40
1.0
 40
1.0
 10
6.8876824534
 20
3.9984703884
 30
0.0
 10
6.8878557047
 20
3.9956205696
 30
0.0
 10
6.8882900279
 20
3.9899889198
 30
0.0
 10
6.8891961566
 20
3.9816808179
 30
0.0
 10
6.8903184289
 20
3.9736501694
 30
0.0
 10
6.8916178465
 20
3.9659567484
 30
0.0
 10
6.8930512048
 20
3.9586544115
 30
0.0
 10
6.8945728752
 20
3.9517920111
 30
0.0
 10
6.8961361652
 20
3.945414524
 30
0.0
 10
6.897694423
 20
3.9395641485
 30
0.0
 10
6.8989850025
 20
3.935041288
 30
0.0
 10
6.8999768379
 20
3.9317157092
 30
0.0
 10
6.9006702887
 20
3.9294497401
 30
0.0
 10
6.9013296891
 20
3.9273446963
 30
0.0
 10
6.9019501084
 20
3.9254050355
 30
0.0
 10
6.9025269397
 20
3.9236350876
 30
0.0
 10
6.9030558018
 20
3.9220389558
 30
0.0
 10
6.9035326568
 20
3.9206205058
 30
0.0
 10
6.9038966115
 20
3.9195514383
 30
0.0
 10
6.9041588122
 20
3.9187876029
 30
0.0
 10
6.9043324906
 20
3.9182840907
 30
0.0
 10
6.9044907079
 20
3.917827453
 30
0.0
 10
6.9046331329
 20
3.9174180042
 30
0.0
 10
6.9047594735
 20
3.9170560285
 30
0.0
 10
6.9048694984
 20
3.9167417862
 30
0.0
 10
6.9049509188
 20
3.9165098675
 30
0.0
 10
6.9050077076
 20
3.9163483598
 30
0.0
 10
6.9050439781
 20
3.9162453026
 30
0.0
 10
6.9050760262
 20
3.9161543243
 30
0.0
 10
6.9051038375
 20
3.9160754401
 30
0.0
 10
6.9051273971
 20
3.9160086645
 30
0.0
 10
6.9051443684
 20
3.9159605939
 30
0.0
 10
6.9051558064
 20
3.9159282018
 30
0.0
 10
6.9051627796
 20
3.9159084617
 30
0.0
 10
6.905168674
 20
3.9158917546
 30
0.0
 10
6.9051735136
 20
3.9158780957
 30
0.0
 10
6.9051772341
 20
3.9158674446
 30
0.0
 10
6.9051797615
 20
3.9158605282
 30
0.0
 10
6.9051810983
 20
3.91585642
 30
0.0
 10
6.9051819768
 20
3.9158544982
 30
0.0
 10
6.905182063
 20
3.9158531604
 30
0.0
 10
6.9051824421
 20
3.9158527802
 30
0.0
  0
LINE
  5
65D
100
AcDbEntity
  8
0
100
AcDbLine
 62
7
  6
CONTINUOUS
 10
6.7225126199
 20
4.2582966277
 11
6.7264324534
 21
4.2580494271
  0
SPLINE
  5
65E
100
AcDbEntity
  8
0
100
AcDbSpline
 62
7
  6
CONTINUOUS
 70
0
 71
3
 72
28
 73
24
 74
0
 42
0.0000001
 43
0.0000001
 44
0.0000000001
 40
0.0
 40
0.0
 40
0.0
 40
0.0
 40
0.0006075553
 40
0.0016719453
 40
0.0054831272
 40
0.0116369297
 40
0.0201469793
 40
0.0310034768
 40
0.0441835206
 40
0.0596581574
 40
0.0773901811
 40
0.0973381392
 40
0.1194532183
 40
0.1699681263
 40
0.2284484186
 40
0.2943312346
 40
0.3669819483
 40
0.4457010355
 40
0.5297309242
 40
0.6182646031
 40
0.7104544399
 40
0.8054109208
 40
1.0
 40
1.0
 40
1.0
 40
1.0
 10
6.6601824534
 20
4.2639502169
 30
0.0
 10
6.6601824534
 20
4.2639471661
 30
0.0
 10
6.6601884415
 20
4.263939766
 30
0.0
 10
6.6602125169
 20
4.2639273389
 30
0.0
 10
6.6602662266
 20
4.2639109512
 30
0.0
 10
6.6603565053
 20
4.2638911022
 30
0.0
 10
6.6604828332
 20
4.2638685429
 30
0.0
 10
6.6606443213
 20
4.2638437878
 30
0.0
 10
6.6608409135
 20
4.2638168727
 30
0.0
 10
6.661072029
 20
4.2637879491
 30
0.0
 10
6.6613371504
 20
4.2637570928
 30
0.0
 10
6.6616356157
 20
4.2637243975
 30
0.0
 10
6.6620979855
 20
4.2636762975
 30
0.0
 10
6.6627532603
 20
4.2636127094
 30
0.0
 10
6.6636277941
 20
4.263533417
 30
0.0
 10
6.6646134526
 20
4.2634489459
 30
0.0
 10
6.6657007263
 20
4.2633601246
 30
0.0
 10
6.6668791348
 20
4.2632678286
 30
0.0
 10
6.6681373333
 20
4.2631729547
 30
0.0
 10
6.6694632349
 20
4.2630764218
 30
0.0
 10
6.6708440907
 20
4.2629791614
 30
0.0
 10
6.6727564596
 20
4.262848698
 30
0.0
 10
6.6742072972
 20
4.2627543159
 30
0.0
 10
6.6751824534
 20
4.2626928307
 30
0.0
  0
LINE
  5
65F
100
AcDbEntity
  8
0
100
AcDbLine
 62
7
  6
CONTINUOUS
 10
6.6871824534
 20
4.2618426203
 11
6.7000150484
 21
4.2609836687
  0
LINE
  5
660
100
AcDbEntity
  8
0
100
AcDbLine
 62
7
  6
CONTINUOUS
 10
6.6314324534
 20
4.2642364997
 11
6.632537522
 21
4.2642432051
  0
LINE
  5
661
100
AcDbEntity
  8
0
100
AcDbLine
 62
7
  6
CONTINUOUS
 10
6.632537522
 20
4.2642432051
 11
6.6421824534
 21
4.2645252633
  0
LINE
  5
662
100
AcDbEntity
  8
0
100
AcDbLine
 62
7
  6
CONTINUOUS
 10
6.4754169622
 20
4.2498489606
 11
6.4920763361
 21
4.2525402542
  0
SPLINE
  5
663
100
AcDbEntity
  8
0
100
AcDbSpline
 62
7
  6
CONTINUOUS
 70
0
 71
3
 72
44
 73
40
 74
0
 42
0.0000001
 43
0.0000001
 44
0.0000000001
 40
0.0
 40
0.0
 40
0.0
 40
0.0
 40
0.0620139811
 40
0.0930487821
 40
0.1241035786
 40
0.1551811502
 40
0.1862871273
 40
0.2174243981
 40
0.2486002328
 40
0.2798205018
 40
0.3110909156
 40
0.3424213984
 40
0.3581149072
 40
0.3738267979
 40
0.4052888614
 40
0.4210523225
 40
0.4368326261
 40
0.4526260523
 40
0.4684312701
 40
0.4842436675
 40
0.5000598341
 40
0.5158751728
 40
0.5316856372
 40
0.5474873485
 40
0.5632767266
 40
0.5947929419
 40
0.6262438076
 40
0.6419501239
 40
0.657637713
 40
0.6889582786
 40
0.7202198195
 40
0.7514320929
 40
0.7826014326
 40
0.813733017
 40
0.8448342005
 40
0.8759070958
 40
0.9069583631
 40
0.9379917654
 40
1.0
 40
1.0
 40
1.0
 40
1.0
 10
6.7766510984
 20
3.0204985857
 30
0.0
 10
6.7783219179
 20
3.0211369181
 30
0.0
 10
6.780804582
 20
3.0221613989
 30
0.0
 10
6.7840447962
 20
3.0236835044
 30
0.0
 10
6.7864358186
 20
3.024911148
 30
0.0
 10
6.788778764
 20
3.0262326321
 30
0.0
 10
6.791064194
 20
3.0276561601
 30
0.0
 10
6.7932793969
 20
3.0291921209
 30
0.0
 10
6.795409041
 20
3.0308505898
 30
0.0
 10
6.7974328659
 20
3.0326432495
 30
0.0
 10
6.7993250822
 20
3.034581273
 30
0.0
 10
6.8007647208
 20
3.0363253807
 30
0.0
 10
6.8018131093
 20
3.0378010439
 30
0.0
 10
6.8027858313
 20
3.0393319483
 30
0.0
 10
6.8036306225
 20
3.0409443934
 30
0.0
 10
6.8043185847
 20
3.0426274979
 30
0.0
 10
6.8047497533
 20
3.0439240965
 30
0.0
 10
6.8050894507
 20
3.0452489039
 30
0.0
 10
6.8053313113
 20
3.0465960536
 30
0.0
 10
6.8054715901
 20
3.0479582539
 30
0.0
 10
6.8055068269
 20
3.0493275269
 30
0.0
 10
6.8054370543
 20
3.0506954142
 30
0.0
 10
6.805262976
 20
3.052053502
 30
0.0
 10
6.804988488
 20
3.0533941117
 30
0.0
 10
6.8044950782
 20
3.0551474842
 30
0.0
 10
6.80365414
 20
3.0572652841
 30
0.0
 10
6.8025598122
 20
3.0592590291
 30
0.0
 10
6.8015609754
 20
3.0607723397
 30
0.0
 10
6.8004892026
 20
3.0622302663
 30
0.0
 10
6.7990249437
 20
3.0639526337
 30
0.0
 10
6.7971090966
 20
3.0658660328
 30
0.0
 10
6.7950663514
 20
3.0676359363
 30
0.0
 10
6.7929213852
 20
3.0692734743
 30
0.0
 10
6.7906937276
 20
3.0707903596
 30
0.0
 10
6.7883980656
 20
3.0721964222
 30
0.0
 10
6.786046676
 20
3.0735019941
 30
0.0
 10
6.7836485566
 20
3.074715056
 30
0.0
 10
6.780400388
 20
3.076219338
 30
0.0
 10
6.7779131814
 20
3.0772320331
 30
0.0
 10
6.7762397731
 20
3.077863078
 30
0.0
  0
SPLINE
  5
664
100
AcDbEntity
  8
0
100
AcDbSpline
 62
7
  6
CONTINUOUS
 70
0
 71
3
 72
38
 73
34
 74
0
 42
0.0000001
 43
0.0000001
 44
0.0000000001
 40
0.0
 40
0.0
 40
0.0
 40
0.0
 40
0.0620274644
 40
0.1241246445
 40
0.1863158276
 40
0.2486338312
 40
0.2798713
 40
0.3111629266
 40
0.3425135499
 40
0.3739289138
 40
0.405410678
 40
0.4369528453
 40
0.4527525158
 40
0.4685608929
 40
0.4843748121
 40
0.5001896666
 40
0.5160019019
 40
0.5318068976
 40
0.547602069
 40
0.5633833462
 40
0.5948837781
 40
0.6263189935
 40
0.6420171908
 40
0.6576978683
 40
0.6890061418
 40
0.7202579581
 40
0.7514626814
 40
0.7826257982
 40
0.8137529765
 40
0.8448505386
 40
0.8759209839
 40
0.9379931462
 40
1.0
 40
1.0
 40
1.0
 40
1.0
 10
2.6527580953
 20
3.0210159124
 30
0.0
 10
2.6543924365
 20
3.0216674399
 30
0.0
 10
2.6576282474
 20
3.0230611481
 30
0.0
 10
2.6623386108
 20
3.0254675718
 30
0.0
 10
2.6668488066
 20
3.0282505062
 30
0.0
 10
2.6703638632
 20
3.0309448071
 30
0.0
 10
2.6729522304
 20
3.0333655678
 30
0.0
 10
2.6747569988
 20
3.0353275806
 30
0.0
 10
2.6763891091
 20
3.0374428752
 30
0.0
 10
2.677806352
 20
3.0397156798
 30
0.0
 10
2.6789585379
 20
3.0421410834
 30
0.0
 10
2.6796523293
 20
3.0442745655
 30
0.0
 10
2.6800227222
 20
3.0460284898
 30
0.0
 10
2.6802037835
 20
3.0473626674
 30
0.0
 10
2.6802846577
 20
3.0487070681
 30
0.0
 10
2.6802635078
 20
3.0500538613
 30
0.0
 10
2.6801411788
 20
3.0513949786
 30
0.0
 10
2.6799194524
 20
3.0527226543
 30
0.0
 10
2.6796028264
 20
3.0540300059
 30
0.0
 10
2.679061096
 20
3.0557364877
 30
0.0
 10
2.6781746956
 20
3.0577928718
 30
0.0
 10
2.6770531874
 20
3.0597263096
 30
0.0
 10
2.676041652
 20
3.0611937849
 30
0.0
 10
2.6749625391
 20
3.0626078029
 30
0.0
 10
2.6734979848
 20
3.0642791295
 30
0.0
 10
2.6715925559
 20
3.0661379185
 30
0.0
 10
2.6695682753
 20
3.0678595048
 30
0.0
 10
2.667447905
 20
3.0694546359
 30
0.0
 10
2.6652493614
 20
3.0709342095
 30
0.0
 10
2.6629863349
 20
3.0723076788
 30
0.0
 10
2.659899402
 20
3.0740094382
 30
0.0
 10
2.6559287619
 20
3.0759157765
 30
0.0
 10
2.6526667308
 20
3.0772424784
 30
0.0
 10
2.6510210217
 20
3.077863078
 30
0.0
  0
ENDSEC
  0
SECTION
  2
OBJECTS
  0
DICTIONARY
  5
C
100
AcDbDictionary
280
0
281
1
  3
ACAD_GROUP
350
D
  3
ACAD_MLINESTYLE
350
17
  3
ACAD_LAYOUT
350
1A
  3
ACAD_PLOTSETTINGS
350
19
  3
ACAD_PLOTSTYLENAME
350
E
  0
DICTIONARY
  5
D
102
{ACAD_REACTORS
330
C
102
}
100
AcDbDictionary
280
0
281
1
  0
ACDBDICTIONARYWDFLT
  5
E
102
{ACAD_REACTORS
330
C
102
}
100
AcDbDictionary
281
1
  3
Normal
350
F
100
AcDbDictionaryWithDefault
340
F
  0
DICTIONARY
  5
17
102
{ACAD_REACTORS
330
C
102
}
100
AcDbDictionary
280
0
281
1
  3
Standard
350
18
  0
DICTIONARY
  5
19
102
{ACAD_REACTORS
330
C
102
}
100
AcDbDictionary
281
1
  0
DICTIONARY
  5
1A
102
{ACAD_REACTORS
330
C
102
}
100
AcDbDictionary
281
1
  3
Model
350
665
  3
Layout1
350
666
  0
ACDBPLACEHOLDER
  5
F
102
{ACAD_REACTORS
330
E
102
}
  0
MLINESTYLE
  5
18
102
{ACAD_REACTORS
330
17
102
}
100
AcDbMlineStyle
  2
STANDARD
 70
0
  3

 62
256
 51
90.0
 52
90.0
 71
2
 49
0.5
 62
256
  6
BYLAYER
 49
-0.5
 62
256
  6
BYLAYER
  0
LAYOUT
  5
665
102
{ACAD_REACTORS
330
1A
102
}
100
AcDbPlotSettings
  1

  2
none_device
  4
ANSI_A_(11.00_x_8.50_Inches)
  6

 40
0.0
 41
0.0
 42
0.0
 43
0.0
 44
279.4
 45
215.9
 46
0.0
 47
0.0
 48
0.0
 49
0.0
140
0.0
141
0.0
142
1.0
143
1.0
 70
1024
 72
0
 73
0
 74
0
  7

 75
0
147
1.0
148
0.0
149
0.0
100
AcDbLayout
  1
Model
 70
0
 71
0
 10
0.0
 20
0.0
 11
11.0
 21
8.5
 12
0.0
 22
0.0
 32
0.0
 14
0.0
 24
0.0
 34
0.0
 15
0.0
 25
0.0
 35
0.0
146
0.0
 13
0.0
 23
0.0
 33
0.0
 16
1.0
 26
0.0
 36
0.0
 17
0.0
 27
1.0
 37
0.0
 76
0
330
202
345
0
346
0
  0
LAYOUT
  5
666
102
{ACAD_REACTORS
330
1A
102
}
100
AcDbPlotSettings
  1

  2
none_device
  4
ANSI_A_(11.00_x_8.50_Inches)
  6

 40
0.0
 41
0.0
 42
0.0
 43
0.0
 44
279.4
 45
215.9
 46
0.0
 47
0.0
 48
0.0
 49
0.0
140
0.0
141
0.0
142
1.0
143
1.0
 70
0
 72
0
 73
0
 74
0
  7

 75
0
147
1.0
148
0.0
149
0.0
100
AcDbLayout
  1
Layout1
 70
0
 71
1
 10
0.0
 20
0.0
 11
11.0
 21
8.5
 12
0.0
 22
0.0
 32
0.0
 14
0.0
 24
0.0
 34
0.0
 15
0.0
 25
0.0
 35
0.0
146
0.0
 13
0.0
 23
0.0
 33
0.0
 16
1.0
 26
0.0
 36
0.0
 17
0.0
 27
1.0
 37
0.0
 76
0
330
203
345
0
346
0
  0
ENDSEC
  0
EOF
