999
DXF file: E:\BT Custom\CADOUTPUT\_FRONT.dxf
999
Pro/ENGINEER 2018400 by Parametric Technology Corporation
  0
SECTION
  2
HEADER
  9
$ACADVER
  1
AC1018
  9
$DWGCODEPAGE
  3
ANSI_1252
  9
$EXTMAX
 10
22.0
 20
17.0
 30
0.0
  9
$EXTMIN
 10
0.0
 20
0.0
 30
0.0
  9
$LIMMIN
 10
0.0
 20
0.0
  9
$LIMMAX
 10
22.0
 20
17.0
  9
$VIEWCTR
 10
11.0
 20
8.5
  9
$VIEWSIZE
 40
17.0
  9
$CLAYER
  8
0
  9
$LTSCALE
 40
1.21
  9
$CELTYPE
  6
BYLAYER
  9
$DIMSCALE
 40
1.0
  9
$DIMASZ
 40
0.1
  9
$DIMEXO
 40
0.0625
  9
$DIMDLI
 40
0.836
  9
$DIMEXE
 40
0.125
  9
$DIMCEN
 40
0.198
  9
$DIMLFAC
 40
1.0
  9
$DIMBLK
  1
_FILLED
  9
$DIMALT
 70
1
  9
$DIMALTD
 70
2
  9
$DIMALTTD
 70
2
  9
$DIMALTF
 40
25.4
  9
$DIMTXT
 40
0.08
  9
$DIMTOL
 70
1
  9
$DIMLIM
 70
0
  9
$DIMTFAC
 40
1.0
  9
$DIMTP
 40
0.001
  9
$DIMTM
 40
0.001
  9
$DIMGAP
 40
0.09
  9
$DIMDSEP
 70
46
  9
$AUNITS
 70
0
  9
$PDMODE
 70
3
  9
$PDSIZE
 40
0.06
  9
$HANDSEED
  5
30C
  9
$TILEMODE
 70
1
  9
$MEASUREMENT
 70
0
  9
$INSUNITS
 70
1
  0
ENDSEC
  0
SECTION
  2
CLASSES
  0
CLASS
  1
ACDBDICTIONARYWDFLT
  2
AcDbDictionaryWithDefault
  3
AutoCAD 2000
 90
0
 91
1
280
0
281
0
  0
CLASS
  1
ACDBPLACEHOLDER
  2
AcDbPlaceHolder
  3
AutoCAD 2000
 90
0
 91
1
280
0
281
0
  0
CLASS
  1
LAYOUT
  2
AcDbLayout
  3
AutoCAD 2000
 90
0
 91
0
280
0
281
0
  0
ENDSEC
  0
SECTION
  2
TABLES
  0
TABLE
  2
VPORT
  5
8
100
AcDbSymbolTable
 70
2
  0
VPORT
  5
1F4
100
AcDbSymbolTableRecord
100
AcDbViewportTableRecord
  2
*ACTIVE
 70
0
 10
0.0
 20
0.0
 11
1.0
 21
1.0
 12
11.0
 22
8.5
 13
0.0
 23
0.0
 14
1.0
 24
1.0
 15
0.0
 25
0.0
 16
0.0
 26
0.0
 36
1.0
 17
0.0
 27
0.0
 37
0.0
 40
17.0
 41
1.2941176471
 42
50.0
 43
0.0
 44
0.0
 50
0.0
 51
0.0
 71
0
 72
100
 73
1
 74
1
 75
0
 76
0
 77
0
 78
0
  0
ENDTAB
  0
TABLE
  2
LTYPE
  5
5
100
AcDbSymbolTable
 70
6
  0
LTYPE
  5
14
100
AcDbSymbolTableRecord
100
AcDbLinetypeTableRecord
  2
BYBLOCK
 70
0
  3

 72
65
 73
0
 40
0.0
  0
LTYPE
  5
15
100
AcDbSymbolTableRecord
100
AcDbLinetypeTableRecord
  2
BYLAYER
 70
0
  3

 72
65
 73
0
 40
0.0
  0
LTYPE
  5
16
100
AcDbSymbolTableRecord
100
AcDbLinetypeTableRecord
  2
CONTINUOUS
 70
64
  3
Solid line
 72
65
 73
0
 40
0.0
  0
LTYPE
  5
1F5
100
AcDbSymbolTableRecord
100
AcDbLinetypeTableRecord
  2
CENTER
 70
64
  3
____ _ ____ _ ____ _ ____ _ ____ _ ____ _ ____
 72
65
 73
4
 40
0.6
 49
0.375
 74
0
 49
-0.075
 74
0
 49
0.075
 74
0
 49
-0.075
 74
0
  0
LTYPE
  5
1F6
100
AcDbSymbolTableRecord
100
AcDbLinetypeTableRecord
  2
HIDDEN
 70
64
  3
- - - - - - - - - - - - - - - - - - - -
 72
65
 73
2
 40
0.2
 49
0.1
 74
0
 49
-0.1
 74
0
  0
LTYPE
  5
1F7
100
AcDbSymbolTableRecord
100
AcDbLinetypeTableRecord
  2
PHANTOM
 70
64
  3
_____ _ _ _____ _ _ _____ _ _ _____
 72
65
 73
6
 40
0.8
 49
0.45
 74
0
 49
-0.05
 74
0
 49
0.1
 74
0
 49
-0.05
 74
0
 49
0.1
 74
0
 49
-0.05
 74
0
  0
LTYPE
  5
1F8
100
AcDbSymbolTableRecord
100
AcDbLinetypeTableRecord
  2
DOT
 70
64
  3
. . . . . . . . . . . . . . . . . . . .
 72
65
 73
2
 40
0.2
 49
0.1
 74
0
 49
-0.1
 74
0
  0
LTYPE
  5
1F9
100
AcDbSymbolTableRecord
100
AcDbLinetypeTableRecord
  2
DASHED
 70
64
  3
- - - - - - - - - - - - - - - - - - - -
 72
65
 73
2
 40
0.2
 49
0.1
 74
0
 49
-0.1
 74
0
  0
ENDTAB
  0
TABLE
  2
LAYER
  5
2
100
AcDbSymbolTable
 70
36
  0
LAYER
  5
10
100
AcDbSymbolTableRecord
100
AcDbLayerTableRecord
  2
0
 70
0
 62
7
  6
CONTINUOUS
370
-3
390
F
  0
LAYER
  5
1FA
100
AcDbSymbolTableRecord
100
AcDbLayerTableRecord
  2
DEFAULT_1
 70
0
 62
7
  6
CENTER
370
-3
390
F
  0
LAYER
  5
1FB
100
AcDbSymbolTableRecord
100
AcDbLayerTableRecord
  2
DEFAULT_2
 70
0
 62
8
  6
HIDDEN
370
-3
390
F
  0
LAYER
  5
1FC
100
AcDbSymbolTableRecord
100
AcDbLayerTableRecord
  2
DEFAULT_3
 70
0
 62
7
  6
PHANTOM
370
-3
390
F
  0
LAYER
  5
1FD
100
AcDbSymbolTableRecord
100
AcDbLayerTableRecord
  2
ALL_FEATURES
 70
0
 62
7
  6
CONTINUOUS
370
-3
390
F
  0
LAYER
  5
1FE
100
AcDbSymbolTableRecord
100
AcDbLayerTableRecord
  2
AXES_FEATURES
 70
0
 62
7
  6
CONTINUOUS
370
-3
390
F
  0
LAYER
  5
1FF
100
AcDbSymbolTableRecord
100
AcDbLayerTableRecord
  2
DIMENSIONS
 70
0
 62
7
  6
CONTINUOUS
370
-3
390
F
  0
ENDTAB
  0
TABLE
  2
STYLE
  5
3
100
AcDbSymbolTable
 70
1
  0
STYLE
  5
11
100
AcDbSymbolTableRecord
100
AcDbTextStyleTableRecord
  2
STANDARD
 70
0
 40
0.0
 41
0.8
 50
0.0
 71
0
 42
0.2
  3
txt
  4

  0
STYLE
  5
200
100
AcDbSymbolTableRecord
100
AcDbTextStyleTableRecord
  2
TEXTSTYLE_1
 70
0
 40
0.0
 41
0.8
 50
0.0
 71
0
 42
0.2
  3
gdt
  4

  0
ENDTAB
  0
TABLE
  2
VIEW
  5
6
100
AcDbSymbolTable
 70
0
  0
ENDTAB
  0
TABLE
  2
UCS
  5
7
100
AcDbSymbolTable
 70
0
  0
ENDTAB
  0
TABLE
  2
APPID
  5
9
100
AcDbSymbolTable
 70
1
  0
APPID
  5
201
100
AcDbSymbolTableRecord
100
AcDbRegAppTableRecord
  2
ACAD
 70
0
  0
ENDTAB
  0
TABLE
  2
BLOCK_RECORD
  5
1
100
AcDbSymbolTable
 70
0
  0
BLOCK_RECORD
  5
202
100
AcDbSymbolTableRecord
100
AcDbBlockTableRecord
  2
*Model_Space
  0
BLOCK_RECORD
  5
203
100
AcDbSymbolTableRecord
100
AcDbBlockTableRecord
  2
*Paper_Space
  0
BLOCK_RECORD
  5
204
100
AcDbSymbolTableRecord
100
AcDbBlockTableRecord
  2
_FILLED
  0
ENDTAB
  0
TABLE
  2
DIMSTYLE
  5
A
100
AcDbSymbolTable
 70
1
100
AcDbDimStyleTable
 71
0
  0
DIMSTYLE
105
205
100
AcDbSymbolTableRecord
100
AcDbDimStyleTableRecord
  2
STANDARD
 70
0
  3

  4

 40
1.0
 41
0.1
 42
0.0625
 43
0.38
 44
0.125
 45
0.0
 46
0.0
 47
0.001
 48
0.001
140
0.08
141
0.09
142
0.0
143
25.4
144
1.0
145
0.0
146
1.0
147
0.09
 71
1.0
 72
0.0
 73
1
 74
1
 75
0
 76
0
 77
0
 78
4
 79
1
170
1
171
2
172
0
173
0
174
0
175
0
176
0
177
0
178
0
270
2
179
3
271
3
272
3
273
2
274
2
275
0
280
0
281
0
282
0
283
1
284
4
285
0
286
0
287
3
288
0
340
11
278
46
341
204
342
204
343
204
344
204
  0
ENDTAB
  0
ENDSEC
  0
SECTION
  2
BLOCKS
  0
BLOCK
  5
20
100
AcDbEntity
  8
0
100
AcDbBlockBegin
  2
*Model_Space
 70
0
 10
0.0
 20
0.0
 30
0.0
  3
*Model_Space
  1

  0
ENDBLK
  5
21
100
AcDbEntity
  8
0
100
AcDbBlockEnd
  0
BLOCK
  5
1C
100
AcDbEntity
  8
0
100
AcDbBlockBegin
  2
*Paper_Space
 70
0
 10
0.0
 20
0.0
 30
0.0
  3
*Paper_Space
  1

  0
ENDBLK
  5
1D
100
AcDbEntity
  8
0
100
AcDbBlockEnd
  0
BLOCK
  5
206
100
AcDbEntity
  8
0
100
AcDbBlockBegin
  2
_FILLED
 70
64
 10
0.0
 20
0.0
  3
_FILLED
  1

  0
SOLID
  5
207
100
AcDbEntity
  8
0
  6
BYBLOCK
 62
0
100
AcDbTrace
 10
0.0
 20
0.0
 11
-1.0
 21
0.2
 12
-1.0
 22
-0.2
 13
-1.0
 23
-0.2
  0
ENDBLK
  5
208
100
AcDbEntity
  8
0
  6
BYBLOCK
 62
0
100
AcDbBlockEnd
  0
ENDSEC
  0
SECTION
  2
ENTITIES
  0
LINE
  5
209
100
AcDbEntity
  8
0
100
AcDbLine
 62
9
  6
CONTINUOUS
 10
10.7641923427
 20
5.0510443947
 11
11.1111923427
 21
5.0510443947
  0
LINE
  5
20A
100
AcDbEntity
  8
0
100
AcDbLine
 62
9
  6
CONTINUOUS
 10
10.7826923427
 20
5.0980443947
 11
11.0926923427
 21
5.0980443947
  0
LINE
  5
20B
100
AcDbEntity
  8
0
100
AcDbLine
 62
7
  6
CONTINUOUS
 10
10.7401923427
 20
5.1910443947
 11
11.1351923427
 21
5.1910443947
  0
LINE
  5
20C
100
AcDbEntity
  8
0
100
AcDbLine
 62
7
  6
CONTINUOUS
 10
10.7326923427
 20
5.2210443947
 11
11.1426923427
 21
5.2210443947
  0
LINE
  5
20D
100
AcDbEntity
  8
0
100
AcDbLine
 62
7
  6
CONTINUOUS
 10
10.7226923427
 20
5.3190443947
 11
11.1526923427
 21
5.3190443947
  0
LINE
  5
20E
100
AcDbEntity
  8
0
100
AcDbLine
 62
7
  6
CONTINUOUS
 10
11.1476923427
 20
5.4110443947
 11
10.7276923427
 21
5.4110443947
  0
LINE
  5
20F
100
AcDbEntity
  8
0
100
AcDbLine
 62
7
  6
CONTINUOUS
 10
10.7626923427
 20
6.9835847277
 11
11.1126923427
 21
6.9835847277
  0
LINE
  5
210
100
AcDbEntity
  8
0
100
AcDbLine
 62
7
  6
CONTINUOUS
 10
11.4376923427
 20
12.3075667341
 11
11.4670067068
 21
12.3321121401
  0
LINE
  5
211
100
AcDbEntity
  8
0
100
AcDbLine
 62
7
  6
CONTINUOUS
 10
11.1126923427
 20
7.0610443947
 11
10.7626923427
 21
7.0610443947
  0
LINE
  5
212
100
AcDbEntity
  8
0
100
AcDbLine
 62
7
  6
CONTINUOUS
 10
10.4402486132
 20
7.0844001214
 11
10.7464147735
 21
6.9076350064
  0
LINE
  5
213
100
AcDbEntity
  8
0
100
AcDbLine
 62
7
  6
CONTINUOUS
 10
10.4376923427
 20
11.1425667341
 11
10.4083779943
 21
11.1180213412
  0
LINE
  5
214
100
AcDbEntity
  8
0
100
AcDbLine
 62
7
  6
CONTINUOUS
 10
10.3976923427
 20
8.2230929701
 11
11.4776923427
 21
8.2230929701
  0
LINE
  5
215
100
AcDbEntity
  8
0
100
AcDbLine
 62
7
  6
CONTINUOUS
 10
11.0342486209
 20
8.1132382967
 11
11.4351360722
 21
7.8817858187
  0
LINE
  5
216
100
AcDbEntity
  8
0
100
AcDbLine
 62
7
  6
CONTINUOUS
 10
10.3526923427
 20
8.4849187448
 11
10.3998227236
 21
8.4849187448
  0
LINE
  5
217
100
AcDbEntity
  8
0
100
AcDbLine
 62
7
  6
CONTINUOUS
 10
10.8905619619
 20
8.4849187448
 11
10.9848227236
 21
8.4849187448
  0
LINE
  5
218
100
AcDbEntity
  8
0
100
AcDbLine
 62
7
  6
CONTINUOUS
 10
11.4755619619
 20
8.4849187448
 11
11.5226923427
 21
8.4849187448
  0
LINE
  5
219
100
AcDbEntity
  8
0
100
AcDbLine
 62
7
  6
CONTINUOUS
 10
10.3436923427
 20
7.2516395321
 11
10.3436923427
 21
7.7145461392
  0
LINE
  5
21A
100
AcDbEntity
  8
0
100
AcDbLine
 62
7
  6
CONTINUOUS
 10
10.3526923427
 20
8.4019052668
 11
10.3526923427
 21
9.0382543024
  0
LINE
  5
21B
100
AcDbEntity
  8
0
100
AcDbLine
 62
7
  6
CONTINUOUS
 10
10.3526923427
 20
11.3413790308
 11
10.3526923427
 21
11.9777280664
  0
LINE
  5
21C
100
AcDbEntity
  8
0
100
AcDbLine
 62
7
  6
CONTINUOUS
 10
10.3998227236
 20
11.88188829
 11
10.3998227236
 21
11.4243925089
  0
LINE
  5
21D
100
AcDbEntity
  8
0
100
AcDbLine
 62
7
  6
CONTINUOUS
 10
10.3998227236
 20
8.942414526
 11
10.3998227236
 21
8.4849187448
  0
LINE
  5
21E
100
AcDbEntity
  8
0
100
AcDbLine
 62
7
  6
CONTINUOUS
 10
10.4326923427
 20
8.2230929701
 11
10.4326923427
 21
8.1494077588
  0
LINE
  5
21F
100
AcDbEntity
  8
0
100
AcDbLine
 62
7
  6
CONTINUOUS
 10
10.4376923427
 20
11.1625667341
 11
10.4376923427
 21
11.1425667341
  0
LINE
  5
220
100
AcDbEntity
  8
0
100
AcDbLine
 62
7
  6
CONTINUOUS
 10
10.4676923427
 20
12.3075667341
 11
10.4676923427
 21
12.2875667341
  0
LINE
  5
221
100
AcDbEntity
  8
0
100
AcDbLine
 62
7
  6
CONTINUOUS
 10
10.4676923427
 20
9.3680929701
 11
10.4676923427
 21
9.3480929701
  0
LINE
  5
222
100
AcDbEntity
  8
0
100
AcDbLine
 62
7
  6
CONTINUOUS
 10
10.4969572085
 20
11.1589548889
 11
10.4969572085
 21
11.1625667341
  0
LINE
  5
223
100
AcDbEntity
  8
0
100
AcDbLine
 62
7
  6
CONTINUOUS
 10
10.5351923427
 20
12.3548036161
 11
10.5351923427
 21
12.1039448034
  0
LINE
  5
224
100
AcDbEntity
  8
0
100
AcDbLine
 62
7
  6
CONTINUOUS
 10
10.5606923427
 20
12.4048036161
 11
10.5606923427
 21
12.3548036161
  0
LWPOLYLINE
  5
225
100
AcDbEntity
  8
0
100
AcDbPolyline
 62
7
  6
CONTINUOUS
 90
5
 70
0
 10
10.4326939625
 20
8.1494077588
 10
10.4308743939
 20
8.1304183353
 10
10.4228111443
 20
8.1060619542
 10
10.4088216131
 20
8.0845658135
 10
10.3999129645
 20
8.0753709178
  0
LINE
  5
226
100
AcDbEntity
  8
0
100
AcDbLine
 62
7
  6
CONTINUOUS
 10
11.5226923427
 20
8.942414526
 11
11.4755619619
 21
8.942414526
  0
LINE
  5
227
100
AcDbEntity
  8
0
100
AcDbLine
 62
7
  6
CONTINUOUS
 10
10.9848227236
 20
8.942414526
 11
10.8905619619
 21
8.942414526
  0
LINE
  5
228
100
AcDbEntity
  8
0
100
AcDbLine
 62
7
  6
CONTINUOUS
 10
10.3998227236
 20
8.942414526
 11
10.3526923427
 21
8.942414526
  0
LWPOLYLINE
  5
229
100
AcDbEntity
  8
0
100
AcDbPolyline
 62
7
  6
CONTINUOUS
 90
5
 70
0
 10
11.4754725489
 20
8.0753701654
 10
11.4665535628
 20
8.0845769754
 10
11.4525670619
 20
8.1060754136
 10
11.4445083752
 20
8.1304282066
 10
11.442690715
 20
8.1494077598
  0
LINE
  5
22A
100
AcDbEntity
  8
0
100
AcDbLine
 62
7
  6
CONTINUOUS
 10
10.8905619619
 20
8.4849187448
 11
10.8905619619
 21
8.942414526
  0
LINE
  5
22B
100
AcDbEntity
  8
0
100
AcDbLine
 62
9
  6
CONTINUOUS
 10
10.9375251391
 20
8.2230929701
 11
10.9375140162
 21
8.1618908354
  0
LINE
  5
22C
100
AcDbEntity
  8
0
100
AcDbLine
 62
7
  6
CONTINUOUS
 10
10.4376923427
 20
9.3680929701
 11
10.4083779787
 21
9.392638376
  0
LINE
  5
22D
100
AcDbEntity
  8
0
100
AcDbLine
 62
7
  6
CONTINUOUS
 10
10.9848227236
 20
8.942414526
 11
10.9848227236
 21
8.4849187448
  0
LINE
  5
22E
100
AcDbEntity
  8
0
100
AcDbLine
 62
7
  6
CONTINUOUS
 10
11.4376923427
 20
9.3680929701
 11
11.4670067068
 21
9.392638376
  0
LINE
  5
22F
100
AcDbEntity
  8
0
100
AcDbLine
 62
7
  6
CONTINUOUS
 10
11.4426923427
 20
9.3480929701
 11
10.4326923427
 21
9.3480929701
  0
LINE
  5
230
100
AcDbEntity
  8
0
100
AcDbLine
 62
7
  6
CONTINUOUS
 10
10.4376928793
 20
9.3680929701
 11
11.4376918061
 21
9.3680929701
  0
LINE
  5
231
100
AcDbEntity
  8
0
100
AcDbLine
 62
9
  6
CONTINUOUS
 10
11.4670067069
 20
9.3926383762
 11
10.4083779786
 21
9.3926383762
  0
LINE
  5
232
100
AcDbEntity
  8
0
100
AcDbLine
 62
7
  6
CONTINUOUS
 10
10.9221062051
 20
9.4660723326
 11
10.9530416919
 21
9.4660723326
  0
LINE
  5
233
100
AcDbEntity
  8
0
100
AcDbLine
 62
9
  6
CONTINUOUS
 10
11.4699083687
 20
9.466680479
 11
10.969840903
 21
9.466680479
  0
LINE
  5
234
100
AcDbEntity
  8
0
100
AcDbLine
 62
9
  6
CONTINUOUS
 10
10.9055437825
 20
9.466680479
 11
10.4054763168
 21
9.466680479
  0
LINE
  5
235
100
AcDbEntity
  8
0
100
AcDbLine
 62
9
  6
CONTINUOUS
 10
10.5685155204
 20
9.4932726709
 11
11.306869165
 21
9.4932726709
  0
LINE
  5
236
100
AcDbEntity
  8
0
100
AcDbLine
 62
7
  6
CONTINUOUS
 10
10.5054496663
 20
9.5525667341
 11
11.3699350192
 21
9.5525667341
  0
LINE
  5
237
100
AcDbEntity
  8
0
100
AcDbLine
 62
9
  6
CONTINUOUS
 10
11.4472286349
 20
9.5756446393
 11
11.43322558
 21
9.5756446393
  0
LINE
  5
238
100
AcDbEntity
  8
0
100
AcDbLine
 62
9
  6
CONTINUOUS
 10
10.4421591472
 20
9.5756446393
 11
10.4281560506
 21
9.5756446393
  0
LINE
  5
239
100
AcDbEntity
  8
0
100
AcDbLine
 62
9
  6
CONTINUOUS
 10
11.463516385
 20
9.6173172237
 11
10.4118682232
 21
9.617317429
  0
LINE
  5
23A
100
AcDbEntity
  8
0
100
AcDbLine
 62
7
  6
CONTINUOUS
 10
11.3146923427
 20
12.4048036161
 11
11.3146923427
 21
12.3548036161
  0
LINE
  5
23B
100
AcDbEntity
  8
0
100
AcDbLine
 62
7
  6
CONTINUOUS
 10
11.3401923427
 20
12.3548036161
 11
11.3401923427
 21
12.1039448034
  0
LINE
  5
23C
100
AcDbEntity
  8
0
100
AcDbLine
 62
7
  6
CONTINUOUS
 10
11.4076923427
 20
12.3075667341
 11
11.4076923427
 21
12.2875667341
  0
LINE
  5
23D
100
AcDbEntity
  8
0
100
AcDbLine
 62
7
  6
CONTINUOUS
 10
11.4076923427
 20
9.3680929701
 11
11.4076923427
 21
9.3480929701
  0
LINE
  5
23E
100
AcDbEntity
  8
0
100
AcDbLine
 62
7
  6
CONTINUOUS
 10
11.4376923427
 20
11.1625667341
 11
11.4376923427
 21
11.1425667341
  0
LINE
  5
23F
100
AcDbEntity
  8
0
100
AcDbLine
 62
7
  6
CONTINUOUS
 10
11.4426923427
 20
8.2230929701
 11
11.4426923427
 21
8.1494077598
  0
LINE
  5
240
100
AcDbEntity
  8
0
100
AcDbLine
 62
7
  6
CONTINUOUS
 10
11.4755619619
 20
8.4849187448
 11
11.4755619619
 21
8.942414526
  0
LINE
  5
241
100
AcDbEntity
  8
0
100
AcDbLine
 62
7
  6
CONTINUOUS
 10
11.4755619619
 20
11.4243925089
 11
11.4755619619
 21
11.88188829
  0
LINE
  5
242
100
AcDbEntity
  8
0
100
AcDbLine
 62
7
  6
CONTINUOUS
 10
11.5226923427
 20
8.4019052668
 11
11.5226923427
 21
9.0382543024
  0
LINE
  5
243
100
AcDbEntity
  8
0
100
AcDbLine
 62
7
  6
CONTINUOUS
 10
11.5226923427
 20
11.3413790308
 11
11.5226923427
 21
11.9777280664
  0
LINE
  5
244
100
AcDbEntity
  8
0
100
AcDbLine
 62
7
  6
CONTINUOUS
 10
11.5316923427
 20
7.251639801
 11
11.5316923427
 21
7.714546408
  0
LINE
  5
245
100
AcDbEntity
  8
0
100
AcDbLine
 62
7
  6
CONTINUOUS
 10
10.4402486209
 20
7.8817858232
 11
10.8411360722
 21
8.1132383011
  0
LINE
  5
246
100
AcDbEntity
  8
0
100
AcDbLine
 62
9
  6
CONTINUOUS
 10
10.7641923427
 20
10.7627550407
 11
11.1111923427
 21
10.7627550407
  0
LINE
  5
247
100
AcDbEntity
  8
0
100
AcDbLine
 62
9
  6
CONTINUOUS
 10
10.7826923427
 20
10.8097550407
 11
11.0926923427
 21
10.8097550407
  0
LINE
  5
248
100
AcDbEntity
  8
0
100
AcDbLine
 62
7
  6
CONTINUOUS
 10
10.7401923427
 20
10.9027550407
 11
11.1351923427
 21
10.9027550407
  0
LINE
  5
249
100
AcDbEntity
  8
0
100
AcDbLine
 62
7
  6
CONTINUOUS
 10
10.7326923427
 20
10.9327550407
 11
11.1426923427
 21
10.9327550407
  0
LINE
  5
24A
100
AcDbEntity
  8
0
100
AcDbLine
 62
9
  6
CONTINUOUS
 10
10.4281560506
 20
10.9350150649
 11
10.7213205241
 21
10.9350150649
  0
LINE
  5
24B
100
AcDbEntity
  8
0
100
AcDbLine
 62
9
  6
CONTINUOUS
 10
11.1540641614
 20
10.9350150649
 11
11.4472286349
 21
10.9350150649
  0
LINE
  5
24C
100
AcDbEntity
  8
0
100
AcDbLine
 62
7
  6
CONTINUOUS
 10
10.7226923427
 20
11.0307550407
 11
11.1526923427
 21
11.0307550407
  0
LINE
  5
24D
100
AcDbEntity
  8
0
100
AcDbLine
 62
9
  6
CONTINUOUS
 10
10.4054763261
 20
11.0439792161
 11
10.7065817488
 21
11.0439792161
  0
LINE
  5
24E
100
AcDbEntity
  8
0
100
AcDbLine
 62
9
  6
CONTINUOUS
 10
11.1688029367
 20
11.0439792161
 11
11.4699083593
 21
11.0439792161
  0
LINE
  5
24F
100
AcDbEntity
  8
0
100
AcDbLine
 62
9
  6
CONTINUOUS
 10
10.4083779943
 20
11.1180213412
 11
10.7183160875
 21
11.1180213412
  0
LINE
  5
250
100
AcDbEntity
  8
0
100
AcDbLine
 62
9
  6
CONTINUOUS
 10
11.157068598
 20
11.1180213412
 11
11.4670066912
 21
11.1180213412
  0
LINE
  5
251
100
AcDbEntity
  8
0
100
AcDbLine
 62
7
  6
CONTINUOUS
 10
11.1476923427
 20
11.1227550407
 11
10.7276923427
 21
11.1227550407
  0
LINE
  5
252
100
AcDbEntity
  8
0
100
AcDbLine
 62
7
  6
CONTINUOUS
 10
10.4376923427
 20
11.1425667341
 11
10.7243626082
 21
11.1425667341
  0
LINE
  5
253
100
AcDbEntity
  8
0
100
AcDbLine
 62
7
  6
CONTINUOUS
 10
11.1510220773
 20
11.1425667341
 11
11.4376923427
 21
11.1425667341
  0
LINE
  5
254
100
AcDbEntity
  8
0
100
AcDbLine
 62
7
  6
CONTINUOUS
 10
11.3244440673
 20
11.1589548889
 11
11.1537764207
 21
11.1589548889
  0
LINE
  5
255
100
AcDbEntity
  8
0
100
AcDbLine
 62
7
  6
CONTINUOUS
 10
10.7216082648
 20
11.1589548889
 11
10.4969572085
 21
11.1589548889
  0
LINE
  5
256
100
AcDbEntity
  8
0
100
AcDbLine
 62
7
  6
CONTINUOUS
 10
10.3976923427
 20
11.1625667341
 11
10.721001225
 21
11.1625667341
  0
LINE
  5
257
100
AcDbEntity
  8
0
100
AcDbLine
 62
7
  6
CONTINUOUS
 10
11.1543834604
 20
11.1625667341
 11
11.4776923427
 21
11.1625667341
  0
LINE
  5
258
100
AcDbEntity
  8
0
100
AcDbLine
 62
9
  6
CONTINUOUS
 10
11.3244440673
 20
11.1589548889
 11
11.3196051075
 21
11.1625667341
  0
LINE
  5
259
100
AcDbEntity
  8
0
100
AcDbLine
 62
7
  6
CONTINUOUS
 10
11.4376923427
 20
11.1425667341
 11
11.4670066912
 21
11.1180213412
  0
LINE
  5
25A
100
AcDbEntity
  8
0
100
AcDbLine
 62
7
  6
CONTINUOUS
 10
10.4376923427
 20
12.3075667341
 11
10.4083779787
 21
12.3321121401
  0
LINE
  5
25B
100
AcDbEntity
  8
0
100
AcDbLine
 62
7
  6
CONTINUOUS
 10
11.4351360646
 20
7.084400117
 11
11.128969912
 21
6.9076350064
  0
LINE
  5
25C
100
AcDbEntity
  8
0
100
AcDbLine
 62
7
  6
CONTINUOUS
 10
10.3526923427
 20
11.4243925089
 11
10.3998227236
 21
11.4243925089
  0
LINE
  5
25D
100
AcDbEntity
  8
0
100
AcDbLine
 62
7
  6
CONTINUOUS
 10
11.4755619619
 20
11.4243925089
 11
11.5226923427
 21
11.4243925089
  0
LINE
  5
25E
100
AcDbEntity
  8
0
100
AcDbLine
 62
7
  6
CONTINUOUS
 10
11.5226923427
 20
11.88188829
 11
11.4755619619
 21
11.88188829
  0
LINE
  5
25F
100
AcDbEntity
  8
0
100
AcDbLine
 62
7
  6
CONTINUOUS
 10
10.3998227236
 20
11.88188829
 11
10.3526923427
 21
11.88188829
  0
LINE
  5
260
100
AcDbEntity
  8
0
100
AcDbLine
 62
7
  6
CONTINUOUS
 10
10.541471416
 20
12.0548036161
 11
10.6643455743
 21
12.0548036161
  0
LINE
  5
261
100
AcDbEntity
  8
0
100
AcDbLine
 62
7
  6
CONTINUOUS
 10
11.2110391111
 20
12.0548036161
 11
11.3339132695
 21
12.0548036161
  0
LINE
  5
262
100
AcDbEntity
  8
0
100
AcDbLine
 62
9
  6
CONTINUOUS
 10
10.5351923427
 20
12.1039448034
 11
10.6673133937
 21
12.1039448034
  0
LINE
  5
263
100
AcDbEntity
  8
0
100
AcDbLine
 62
9
  6
CONTINUOUS
 10
11.2080712918
 20
12.1039448034
 11
11.3401923427
 21
12.1039448034
  0
LINE
  5
264
100
AcDbEntity
  8
0
100
AcDbLine
 62
7
  6
CONTINUOUS
 10
11.4426923427
 20
12.2875667341
 11
11.3401923427
 21
12.2875667341
  0
LINE
  5
265
100
AcDbEntity
  8
0
100
AcDbLine
 62
7
  6
CONTINUOUS
 10
10.5351923427
 20
12.2875667341
 11
10.4326923427
 21
12.2875667341
  0
LINE
  5
266
100
AcDbEntity
  8
0
100
AcDbLine
 62
7
  6
CONTINUOUS
 10
10.4376928793
 20
12.3075667341
 11
10.5351923427
 21
12.3075667341
  0
LINE
  5
267
100
AcDbEntity
  8
0
100
AcDbLine
 62
7
  6
CONTINUOUS
 10
11.3401923427
 20
12.3075667341
 11
11.4376918061
 21
12.3075667341
  0
LINE
  5
268
100
AcDbEntity
  8
0
100
AcDbLine
 62
9
  6
CONTINUOUS
 10
11.4670067069
 20
12.3321121402
 11
11.3401923427
 21
12.3321121402
  0
LINE
  5
269
100
AcDbEntity
  8
0
100
AcDbLine
 62
9
  6
CONTINUOUS
 10
10.5351923427
 20
12.3321121402
 11
10.4083779786
 21
12.3321121402
  0
LINE
  5
26A
100
AcDbEntity
  8
0
100
AcDbLine
 62
7
  6
CONTINUOUS
 10
11.3401923427
 20
12.3548036161
 11
11.1792836895
 21
12.3548036161
  0
LINE
  5
26B
100
AcDbEntity
  8
0
100
AcDbLine
 62
7
  6
CONTINUOUS
 10
10.696100996
 20
12.3548036161
 11
10.5351923427
 21
12.3548036161
  0
LINE
  5
26C
100
AcDbEntity
  8
0
100
AcDbLine
 62
7
  6
CONTINUOUS
 10
10.4879790451
 20
12.4048036161
 11
10.7029277397
 21
12.4048036161
  0
LINE
  5
26D
100
AcDbEntity
  8
0
100
AcDbLine
 62
7
  6
CONTINUOUS
 10
11.1724569457
 20
12.4048036161
 11
11.3874056403
 21
12.4048036161
  0
LINE
  5
26E
100
AcDbEntity
  8
0
100
AcDbLine
 62
9
  6
CONTINUOUS
 10
11.4699083687
 20
12.406154243
 11
11.3943155948
 21
12.406154243
  0
LINE
  5
26F
100
AcDbEntity
  8
0
100
AcDbLine
 62
9
  6
CONTINUOUS
 10
10.4810690907
 20
12.406154243
 11
10.4054763168
 21
12.406154243
  0
LINE
  5
270
100
AcDbEntity
  8
0
100
AcDbLine
 62
9
  6
CONTINUOUS
 10
10.4693112541
 20
12.4319809121
 11
10.7066383884
 21
12.4319809121
  0
LINE
  5
271
100
AcDbEntity
  8
0
100
AcDbLine
 62
9
  6
CONTINUOUS
 10
11.168746297
 20
12.4319809121
 11
11.4060734314
 21
12.4319809121
  0
LINE
  5
272
100
AcDbEntity
  8
0
100
AcDbLine
 62
9
  6
CONTINUOUS
 10
11.4472286349
 20
12.5151184033
 11
11.3845707897
 21
12.5151184033
  0
LINE
  5
273
100
AcDbEntity
  8
0
100
AcDbLine
 62
9
  6
CONTINUOUS
 10
10.4908138958
 20
12.5151184033
 11
10.4281560506
 21
12.5151184033
  0
LINE
  5
274
100
AcDbEntity
  8
0
100
AcDbLine
 62
7
  6
CONTINUOUS
 10
10.7626923427
 20
12.6952953738
 11
11.1126923427
 21
12.6952953738
  0
LINE
  5
275
100
AcDbEntity
  8
0
100
AcDbLine
 62
7
  6
CONTINUOUS
 10
11.1126923427
 20
12.7727550407
 11
10.7626923427
 21
12.7727550407
  0
LINE
  5
276
100
AcDbEntity
  8
0
100
AcDbLine
 62
9
  6
CONTINUOUS
 10
10.5858113028
 20
12.8125699473
 11
10.4181519933
 21
12.8125696238
  0
LINE
  5
277
100
AcDbEntity
  8
0
100
AcDbLine
 62
9
  6
CONTINUOUS
 10
11.4572326917
 20
12.8125696232
 11
11.2895739815
 21
12.8125704986
  0
LINE
  5
278
100
AcDbEntity
  8
0
100
AcDbLine
 62
9
  6
CONTINUOUS
 10
10.4118682232
 20
13.8328160392
 11
10.8504437142
 21
13.8328160392
  0
LINE
  5
279
100
AcDbEntity
  8
0
100
AcDbLine
 62
9
  6
CONTINUOUS
 10
11.0249416785
 20
13.8328160392
 11
11.4635164623
 21
13.8328160392
  0
LINE
  5
27A
100
AcDbEntity
  8
0
100
AcDbLine
 62
7
  6
CONTINUOUS
 10
11.3699350192
 20
13.8975667341
 11
10.5054496663
 21
13.8975667341
  0
LINE
  5
27B
100
AcDbEntity
  8
0
100
AcDbLine
 62
9
  6
CONTINUOUS
 10
11.3068730818
 20
13.956860191
 11
10.5685116037
 21
13.956860191
  0
LINE
  5
27C
100
AcDbEntity
  8
0
100
AcDbLine
 62
7
  6
CONTINUOUS
 10
10.9534146295
 20
13.9840621004
 11
10.921970056
 21
13.9840621004
  0
ARC
  5
27D
100
AcDbEntity
  8
0
100
AcDbCircle
 62
7
  6
CONTINUOUS
 10
7.7205422275
 20
6.1214260441
 40
3.5
100
AcDbArc
 50
348.2895326719
 51
14.2605084388
  0
ARC
  5
27E
100
AcDbEntity
  8
0
100
AcDbCircle
 62
7
  6
CONTINUOUS
 10
9.7926923427
 20
9.3480929701
 40
0.64
100
AcDbArc
 50
331.0449756281
 51
360.0
  0
ARC
  5
27F
100
AcDbEntity
  8
0
100
AcDbCircle
 62
7
  6
CONTINUOUS
 10
10.0477624491
 20
8.230097933
 40
0.35
100
AcDbArc
 50
358.85319539
 51
29.3983126613
  0
ARC
  5
280
100
AcDbEntity
  8
0
100
AcDbCircle
 62
7
  6
CONTINUOUS
 10
10.5973426312
 20
5.069552591
 40
0.187526794
100
AcDbArc
 50
8.7390546672
 51
40.3807274203
  0
ARC
  5
281
100
AcDbEntity
  8
0
100
AcDbCircle
 62
7
  6
CONTINUOUS
 10
10.7331049814
 20
5.0904218667
 40
0.050169805
100
AcDbArc
 50
308.2900586986
 51
8.7390546671
  0
ARC
  5
282
100
AcDbEntity
  8
0
100
AcDbCircle
 62
7
  6
CONTINUOUS
 10
10.7445994943
 20
5.3639896582
 40
0.05
100
AcDbArc
 50
109.7637777934
 51
244.0145408994
  0
ARC
  5
283
100
AcDbEntity
  8
0
100
AcDbCircle
 62
7
  6
CONTINUOUS
 10
10.7362502296
 20
5.2709176484
 40
0.05
100
AcDbArc
 50
105.7331705959
 51
265.9195134631
  0
ARC
  5
284
100
AcDbEntity
  8
0
100
AcDbCircle
 62
7
  6
CONTINUOUS
 10
10.7726923427
 20
7.0223145612
 40
0.04
100
AcDbArc
 50
104.4775121859
 51
255.5224878141
  0
ARC
  5
285
100
AcDbEntity
  8
0
100
AcDbCircle
 62
7
  6
CONTINUOUS
 10
10.7613834498
 20
5.2122796714
 40
0.03
100
AcDbArc
 50
163.01283691
 51
225.0596500266
  0
ARC
  5
286
100
AcDbEntity
  8
0
100
AcDbCircle
 62
7
  6
CONTINUOUS
 10
7.7205422275
 20
11.8331366901
 40
3.5
100
AcDbArc
 50
348.2895326719
 51
14.2605084388
  0
ARC
  5
287
100
AcDbEntity
  8
0
100
AcDbCircle
 62
7
  6
CONTINUOUS
 10
10.9221062051
 20
11.7779228188
 40
2.3118504862
100
AcDbArc
 50
261.2022494378
 51
270.0
  0
ARC
  5
288
100
AcDbEntity
  8
0
100
AcDbCircle
 62
7
  6
CONTINUOUS
 10
10.921970056
 20
11.6740621004
 40
2.31
100
AcDbArc
 50
90.0000000001
 51
98.8015353094
  0
ARC
  5
289
100
AcDbEntity
  8
0
100
AcDbCircle
 62
7
  6
CONTINUOUS
 10
9.7696923427
 20
10.2553298521
 40
1.81
100
AcDbArc
 50
337.9437488383
 51
339.3595724997
  0
ARC
  5
28A
100
AcDbEntity
  8
0
100
AcDbCircle
 62
7
  6
CONTINUOUS
 10
9.7696923427
 20
13.1948036161
 40
1.81
100
AcDbArc
 50
2.0770383032
 51
20.6398773044
  0
ARC
  5
28B
100
AcDbEntity
  8
0
100
AcDbCircle
 62
7
  6
CONTINUOUS
 10
9.7696923427
 20
13.1948036161
 40
1.81
100
AcDbArc
 50
337.9437488383
 51
357.6460560441
  0
ARC
  5
28C
100
AcDbEntity
  8
0
100
AcDbCircle
 62
7
  6
CONTINUOUS
 10
9.7696923427
 20
10.2553298521
 40
1.81
100
AcDbArc
 50
339.3601226957
 51
22.0562511617
  0
ARC
  5
28D
100
AcDbEntity
  8
0
100
AcDbCircle
 62
7
  6
CONTINUOUS
 10
9.7926923427
 20
12.2875667341
 40
0.64
100
AcDbArc
 50
331.0449756281
 51
360.0
  0
ARC
  5
28E
100
AcDbEntity
  8
0
100
AcDbCircle
 62
7
  6
CONTINUOUS
 10
10.0959553844
 20
12.5755267047
 40
0.4
100
AcDbArc
 50
338.9695236741
 51
36.3424046392
  0
ARC
  5
28F
100
AcDbEntity
  8
0
100
AcDbCircle
 62
7
  6
CONTINUOUS
 10
10.0477624491
 20
11.1695716971
 40
0.35
100
AcDbArc
 50
358.85319539
 51
29.3983126613
  0
ARC
  5
290
100
AcDbEntity
  8
0
100
AcDbCircle
 62
7
  6
CONTINUOUS
 10
10.7306258857
 20
12.1039448034
 40
0.1954335429
100
AcDbArc
 50
180.0
 51
194.5631575117
  0
ARC
  5
291
100
AcDbEntity
  8
0
100
AcDbCircle
 62
7
  6
CONTINUOUS
 10
10.5973426312
 20
10.781263237
 40
0.187526794
100
AcDbArc
 50
8.7390546672
 51
40.3807274203
  0
ARC
  5
292
100
AcDbEntity
  8
0
100
AcDbCircle
 62
7
  6
CONTINUOUS
 10
10.3354744875
 20
9.5380929701
 40
0.1
100
AcDbArc
 50
314.428471752
 51
22.0562511617
  0
ARC
  5
293
100
AcDbEntity
  8
0
100
AcDbCircle
 62
7
  6
CONTINUOUS
 10
10.5054496663
 20
13.7975667341
 40
0.1
100
AcDbArc
 50
90.0
 51
159.3601226956
  0
ARC
  5
294
100
AcDbEntity
  8
0
100
AcDbCircle
 62
7
  6
CONTINUOUS
 10
10.3354744875
 20
12.4775667341
 40
0.1
100
AcDbArc
 50
314.428471752
 51
22.0562511617
  0
ARC
  5
295
100
AcDbEntity
  8
0
100
AcDbCircle
 62
7
  6
CONTINUOUS
 10
10.5054496663
 20
9.6525667341
 40
0.1
100
AcDbArc
 50
200.6398773043
 51
270.0
  0
ARC
  5
296
100
AcDbEntity
  8
0
100
AcDbCircle
 62
7
  6
CONTINUOUS
 10
10.3354744875
 20
10.9725667341
 40
0.1
100
AcDbArc
 50
337.9437488383
 51
45.5715208257
  0
ARC
  5
297
100
AcDbEntity
  8
0
100
AcDbCircle
 62
7
  6
CONTINUOUS
 10
10.5776923427
 20
13.8975667341
 40
0.06
100
AcDbArc
 50
98.8015353094
 51
180.0
  0
ARC
  5
298
100
AcDbEntity
  8
0
100
AcDbCircle
 62
7
  6
CONTINUOUS
 10
10.5776923427
 20
9.5525667341
 40
0.06
100
AcDbArc
 50
180.0
 51
261.2022494378
  0
ARC
  5
299
100
AcDbEntity
  8
0
100
AcDbCircle
 62
7
  6
CONTINUOUS
 10
10.7331049814
 20
10.8021325127
 40
0.050169805
100
AcDbArc
 50
308.2900586986
 51
8.7390546671
  0
ARC
  5
29A
100
AcDbEntity
  8
0
100
AcDbCircle
 62
7
  6
CONTINUOUS
 10
10.4404772316
 20
9.4309742335
 40
0.05
100
AcDbArc
 50
134.4284718477
 51
230.0599998062
  0
ARC
  5
29B
100
AcDbEntity
  8
0
100
AcDbCircle
 62
7
  6
CONTINUOUS
 10
10.7445994943
 20
11.0757003042
 40
0.05
100
AcDbArc
 50
109.7637777934
 51
244.0145408994
  0
ARC
  5
29C
100
AcDbEntity
  8
0
100
AcDbCircle
 62
7
  6
CONTINUOUS
 10
10.7362502296
 20
10.9826282945
 40
0.05
100
AcDbArc
 50
105.7331705959
 51
265.9195134631
  0
ARC
  5
29D
100
AcDbEntity
  8
0
100
AcDbCircle
 62
7
  6
CONTINUOUS
 10
10.4404772316
 20
12.3704479975
 40
0.05
100
AcDbArc
 50
134.4284718478
 51
230.0599998062
  0
ARC
  5
29E
100
AcDbEntity
  8
0
100
AcDbCircle
 62
7
  6
CONTINUOUS
 10
10.4404772316
 20
11.0796854707
 40
0.05
100
AcDbArc
 50
129.94
 51
225.571528248
  0
ARC
  5
29F
100
AcDbEntity
  8
0
100
AcDbCircle
 62
7
  6
CONTINUOUS
 10
10.7726923427
 20
12.7340252073
 40
0.04
100
AcDbArc
 50
104.4775121859
 51
255.5224878141
  0
ARC
  5
2A0
100
AcDbEntity
  8
0
100
AcDbCircle
 62
7
  6
CONTINUOUS
 10
10.7613834498
 20
10.9239903175
 40
0.03
100
AcDbArc
 50
163.01283691
 51
225.0596500266
  0
ARC
  5
2A1
100
AcDbEntity
  8
0
100
AcDbCircle
 62
7
  6
CONTINUOUS
 10
10.4879790451
 20
12.4248036161
 40
0.02
100
AcDbArc
 50
158.969504339
 51
270.0
  0
ARC
  5
2A2
100
AcDbEntity
  8
0
100
AcDbCircle
 62
7
  6
CONTINUOUS
 10
10.9376923427
 20
4.8312769039
 40
0.28
100
AcDbArc
 50
128.2900586987
 51
51.7099413013
  0
ARC
  5
2A3
100
AcDbEntity
  8
0
100
AcDbCircle
 62
7
  6
CONTINUOUS
 10
11.2780420543
 20
5.069552591
 40
0.187526794
100
AcDbArc
 50
139.6192725797
 51
171.2609453328
  0
ARC
  5
2A4
100
AcDbEntity
  8
0
100
AcDbCircle
 62
7
  6
CONTINUOUS
 10
11.1422797041
 20
5.0904218667
 40
0.050169805
100
AcDbArc
 50
171.2609453329
 51
231.7099413014
  0
ARC
  5
2A5
100
AcDbEntity
  8
0
100
AcDbCircle
 62
7
  6
CONTINUOUS
 10
11.1307851912
 20
5.3639896582
 40
0.05
100
AcDbArc
 50
295.9854591006
 51
70.2362222066
  0
ARC
  5
2A6
100
AcDbEntity
  8
0
100
AcDbCircle
 62
7
  6
CONTINUOUS
 10
11.1391344559
 20
5.2709176484
 40
0.05
100
AcDbArc
 50
274.0804865369
 51
74.2668294041
  0
ARC
  5
2A7
100
AcDbEntity
  8
0
100
AcDbCircle
 62
7
  6
CONTINUOUS
 10
11.1026923427
 20
7.0223145612
 40
0.04
100
AcDbArc
 50
284.4775121859
 51
75.5224878141
  0
ARC
  5
2A8
100
AcDbEntity
  8
0
100
AcDbCircle
 62
7
  6
CONTINUOUS
 10
11.1140012356
 20
5.2122796714
 40
0.03
100
AcDbArc
 50
314.9403499734
 51
16.98716309
  0
ARC
  5
2A9
100
AcDbEntity
  8
0
100
AcDbCircle
 62
7
  6
CONTINUOUS
 10
10.9376923427
 20
7.4830929701
 40
1.46
100
AcDbArc
 50
113.6791000499
 51
258.9489687791
  0
ARC
  5
2AA
100
AcDbEntity
  8
0
100
AcDbCircle
 62
7
  6
CONTINUOUS
 10
10.9376923427
 20
7.4830929701
 40
1.46
100
AcDbArc
 50
281.0510312209
 51
66.3208999501
  0
ARC
  5
2AB
100
AcDbEntity
  8
0
100
AcDbCircle
 62
9
  6
CONTINUOUS
 10
10.9376923427
 20
7.4830929701
 40
1.43
100
AcDbArc
 50
114.2070509253
 51
258.6963970974
  0
ARC
  5
2AC
100
AcDbEntity
  8
0
100
AcDbCircle
 62
9
  6
CONTINUOUS
 10
10.9376923427
 20
7.4830929701
 40
1.43
100
AcDbArc
 50
281.3032776298
 51
65.7934758236
  0
ARC
  5
2AD
100
AcDbEntity
  8
0
100
AcDbCircle
 62
7
  6
CONTINUOUS
 10
10.9376923427
 20
7.4830929701
 40
1.415
100
AcDbArc
 50
114.4779743158
 51
258.5673479301
  0
ARC
  5
2AE
100
AcDbEntity
  8
0
100
AcDbCircle
 62
7
  6
CONTINUOUS
 10
10.9376923427
 20
7.4830929701
 40
1.415
100
AcDbArc
 50
281.4329111069
 51
65.5214826514
  0
ARC
  5
2AF
100
AcDbEntity
  8
0
100
AcDbCircle
 62
7
  6
CONTINUOUS
 10
10.9376923427
 20
7.4830929701
 40
1.145
100
AcDbArc
 50
283.7494522631
 51
59.2126629613
  0
ARC
  5
2B0
100
AcDbEntity
  8
0
100
AcDbCircle
 62
7
  6
CONTINUOUS
 10
10.9376923427
 20
7.4830929701
 40
1.145
100
AcDbArc
 50
120.7878099084
 51
256.2508135226
  0
ARC
  5
2B1
100
AcDbEntity
  8
0
100
AcDbCircle
 62
7
  6
CONTINUOUS
 10
10.9376923427
 20
7.4830929701
 40
1.095
100
AcDbArc
 50
284.2215171049
 51
57.6893680353
  0
ARC
  5
2B2
100
AcDbEntity
  8
0
100
AcDbCircle
 62
7
  6
CONTINUOUS
 10
10.9376923427
 20
7.4830929701
 40
1.095
100
AcDbArc
 50
122.3091592933
 51
255.7780454601
  0
ARC
  5
2B3
100
AcDbEntity
  8
0
100
AcDbCircle
 62
7
  6
CONTINUOUS
 10
10.9376923427
 20
7.4830929701
 40
0.8
100
AcDbArc
 50
132.2400215027
 51
253.1650921812
  0
ARC
  5
2B4
100
AcDbEntity
  8
0
100
AcDbCircle
 62
7
  6
CONTINUOUS
 10
10.9376923427
 20
7.4830929701
 40
0.8
100
AcDbArc
 50
286.8349072027
 51
47.7600369078
  0
ARC
  5
2B5
100
AcDbEntity
  8
0
100
AcDbCircle
 62
7
  6
CONTINUOUS
 10
10.9376923427
 20
7.4830929701
 40
0.6375
100
AcDbArc
 50
201.2884072271
 51
218.7115927728
  0
ARC
  5
2B6
100
AcDbEntity
  8
0
100
AcDbCircle
 62
7
  6
CONTINUOUS
 10
10.9376923427
 20
7.4830929701
 40
0.6375
100
AcDbArc
 50
321.2884072271
 51
338.7115927729
  0
ARC
  5
2B7
100
AcDbEntity
  8
0
100
AcDbCircle
 62
7
  6
CONTINUOUS
 10
10.9376923427
 20
7.4830929701
 40
0.6375
100
AcDbArc
 50
21.2884072271
 51
38.7115927728
  0
ARC
  5
2B8
100
AcDbEntity
  8
0
100
AcDbCircle
 62
7
  6
CONTINUOUS
 10
10.9376923427
 20
7.4830929701
 40
0.6375
100
AcDbArc
 50
81.2884072272
 51
98.7115927729
  0
ARC
  5
2B9
100
AcDbEntity
  8
0
100
AcDbCircle
 62
7
  6
CONTINUOUS
 10
10.9376923427
 20
7.4830929701
 40
0.6375
100
AcDbArc
 50
141.2884072271
 51
158.7115927729
  0
ARC
  5
2BA
100
AcDbEntity
  8
0
100
AcDbCircle
 62
9
  6
CONTINUOUS
 10
10.9376923427
 20
7.4830929701
 40
0.614370293
100
AcDbArc
 50
134.7954607876
 51
165.2045392124
  0
ARC
  5
2BB
100
AcDbEntity
  8
0
100
AcDbCircle
 62
9
  6
CONTINUOUS
 10
10.9376923427
 20
7.4830929701
 40
0.614370293
100
AcDbArc
 50
74.7954607876
 51
105.2045392124
  0
ARC
  5
2BC
100
AcDbEntity
  8
0
100
AcDbCircle
 62
9
  6
CONTINUOUS
 10
10.9376923427
 20
7.4830929701
 40
0.614370293
100
AcDbArc
 50
314.7954607876
 51
345.2045392124
  0
ARC
  5
2BD
100
AcDbEntity
  8
0
100
AcDbCircle
 62
9
  6
CONTINUOUS
 10
10.9376923427
 20
7.4830929701
 40
0.614370293
100
AcDbArc
 50
14.7954607876
 51
45.2045392124
  0
ARC
  5
2BE
100
AcDbEntity
  8
0
100
AcDbCircle
 62
9
  6
CONTINUOUS
 10
10.9376923427
 20
7.4830929701
 40
0.614370293
100
AcDbArc
 50
194.7954607876
 51
225.2045392124
  0
ARC
  5
2BF
100
AcDbEntity
  8
0
100
AcDbCircle
 62
9
  6
CONTINUOUS
 10
10.9376923427
 20
7.4830929701
 40
0.6055083642
100
AcDbArc
 50
109.047039416
 51
131.1495506193
  0
ARC
  5
2C0
100
AcDbEntity
  8
0
100
AcDbCircle
 62
9
  6
CONTINUOUS
 10
10.9376923427
 20
7.4830929701
 40
0.6055083642
100
AcDbArc
 50
169.1014226486
 51
190.9478504078
  0
ARC
  5
2C1
100
AcDbEntity
  8
0
100
AcDbCircle
 62
9
  6
CONTINUOUS
 10
10.9376923427
 20
7.4830929701
 40
0.6055083642
100
AcDbArc
 50
228.9445013248
 51
250.9033094645
  0
ARC
  5
2C2
100
AcDbEntity
  8
0
100
AcDbCircle
 62
9
  6
CONTINUOUS
 10
10.9376923427
 20
7.4830929701
 40
0.6055083642
100
AcDbArc
 50
289.047039416
 51
311.1495506193
  0
ARC
  5
2C3
100
AcDbEntity
  8
0
100
AcDbCircle
 62
9
  6
CONTINUOUS
 10
10.9376923427
 20
7.4830929701
 40
0.6055083642
100
AcDbArc
 50
349.1014226486
 51
10.9478504078
  0
ARC
  5
2C4
100
AcDbEntity
  8
0
100
AcDbCircle
 62
9
  6
CONTINUOUS
 10
10.9376923427
 20
7.4830929701
 40
0.6055083642
100
AcDbArc
 50
48.9445013248
 51
70.9033094645
  0
ARC
  5
2C5
100
AcDbEntity
  8
0
100
AcDbCircle
 62
9
  6
CONTINUOUS
 10
10.9376923427
 20
7.4830929701
 40
0.5053770761
100
AcDbArc
 50
293.9340150111
 51
246.0659849889
  0
ARC
  5
2C6
100
AcDbEntity
  8
0
100
AcDbCircle
 62
7
  6
CONTINUOUS
 10
10.9376923427
 20
7.4830929701
 40
0.455
100
AcDbArc
 50
291.9394397587
 51
248.0605602413
  0
CIRCLE
  5
2C7
100
AcDbEntity
  8
0
100
AcDbCircle
 62
7
  6
CONTINUOUS
 10
10.9376923427
 20
7.4830929701
 40
0.3305
  0
CIRCLE
  5
2C8
100
AcDbEntity
  8
0
100
AcDbCircle
 62
9
  6
CONTINUOUS
 10
10.9376923427
 20
7.4830929701
 40
0.2835
  0
CIRCLE
  5
2C9
100
AcDbEntity
  8
0
100
AcDbCircle
 62
7
  6
CONTINUOUS
 10
10.9376923427
 20
7.4830929701
 40
0.272
  0
CIRCLE
  5
2CA
100
AcDbEntity
  8
0
100
AcDbCircle
 62
9
  6
CONTINUOUS
 10
10.9376923427
 20
7.4830929701
 40
0.236
  0
CIRCLE
  5
2CB
100
AcDbEntity
  8
0
100
AcDbCircle
 62
7
  6
CONTINUOUS
 10
10.9376923427
 20
7.4830929701
 40
0.18
  0
CIRCLE
  5
2CC
100
AcDbEntity
  8
0
100
AcDbCircle
 62
7
  6
CONTINUOUS
 10
10.9376923427
 20
7.4830929701
 40
0.17
  0
ARC
  5
2CD
100
AcDbEntity
  8
0
100
AcDbCircle
 62
7
  6
CONTINUOUS
 10
11.8276222364
 20
8.230097933
 40
0.35
100
AcDbArc
 50
150.6016873387
 51
181.14680461
  0
ARC
  5
2CE
100
AcDbEntity
  8
0
100
AcDbCircle
 62
7
  6
CONTINUOUS
 10
12.0826923427
 20
9.3480929701
 40
0.64
100
AcDbArc
 50
180.0
 51
208.9550243719
  0
ARC
  5
2CF
100
AcDbEntity
  8
0
100
AcDbCircle
 62
7
  6
CONTINUOUS
 10
14.154842458
 20
6.1214260441
 40
3.5
100
AcDbArc
 50
165.7394915612
 51
191.7104673281
  0
ARC
  5
2D0
100
AcDbEntity
  8
0
100
AcDbCircle
 62
7
  6
CONTINUOUS
 10
12.1056923427
 20
10.2553298521
 40
1.81
100
AcDbArc
 50
200.6404275003
 51
202.0562511617
  0
ARC
  5
2D1
100
AcDbEntity
  8
0
100
AcDbCircle
 62
7
  6
CONTINUOUS
 10
12.1056923427
 20
10.2553298521
 40
1.81
100
AcDbArc
 50
157.9437488383
 51
200.6398773043
  0
ARC
  5
2D2
100
AcDbEntity
  8
0
100
AcDbCircle
 62
7
  6
CONTINUOUS
 10
11.8276222364
 20
11.1695716971
 40
0.35
100
AcDbArc
 50
150.6016873387
 51
181.14680461
  0
ARC
  5
2D3
100
AcDbEntity
  8
0
100
AcDbCircle
 62
7
  6
CONTINUOUS
 10
10.9376923427
 20
10.5429875499
 40
0.28
100
AcDbArc
 50
128.2900586987
 51
51.7099413013
  0
ARC
  5
2D4
100
AcDbEntity
  8
0
100
AcDbCircle
 62
7
  6
CONTINUOUS
 10
11.2780420543
 20
10.781263237
 40
0.187526794
100
AcDbArc
 50
139.6192725797
 51
171.2609453328
  0
ARC
  5
2D5
100
AcDbEntity
  8
0
100
AcDbCircle
 62
7
  6
CONTINUOUS
 10
11.539910198
 20
9.5380929701
 40
0.1
100
AcDbArc
 50
157.9437488383
 51
225.571528248
  0
ARC
  5
2D6
100
AcDbEntity
  8
0
100
AcDbCircle
 62
7
  6
CONTINUOUS
 10
11.3699350192
 20
9.6525667341
 40
0.1
100
AcDbArc
 50
270.0
 51
339.3599970517
  0
ARC
  5
2D7
100
AcDbEntity
  8
0
100
AcDbCircle
 62
7
  6
CONTINUOUS
 10
11.539910198
 20
10.9725667341
 40
0.1
100
AcDbArc
 50
134.4284791743
 51
202.0562511617
  0
ARC
  5
2D8
100
AcDbEntity
  8
0
100
AcDbCircle
 62
7
  6
CONTINUOUS
 10
11.2976923427
 20
9.5525667341
 40
0.06
100
AcDbArc
 50
278.7977505622
 51
360.0
  0
ARC
  5
2D9
100
AcDbEntity
  8
0
100
AcDbCircle
 62
7
  6
CONTINUOUS
 10
11.1422797041
 20
10.8021325127
 40
0.050169805
100
AcDbArc
 50
171.2609453329
 51
231.7099413014
  0
ARC
  5
2DA
100
AcDbEntity
  8
0
100
AcDbCircle
 62
7
  6
CONTINUOUS
 10
11.4349074539
 20
9.4309742335
 40
0.05
100
AcDbArc
 50
309.9400001938
 51
45.5715281523
  0
ARC
  5
2DB
100
AcDbEntity
  8
0
100
AcDbCircle
 62
7
  6
CONTINUOUS
 10
11.1307851912
 20
11.0757003042
 40
0.05
100
AcDbArc
 50
295.9854591006
 51
70.2362222066
  0
ARC
  5
2DC
100
AcDbEntity
  8
0
100
AcDbCircle
 62
7
  6
CONTINUOUS
 10
11.1391344559
 20
10.9826282945
 40
0.05
100
AcDbArc
 50
274.0804865369
 51
74.2668294041
  0
ARC
  5
2DD
100
AcDbEntity
  8
0
100
AcDbCircle
 62
7
  6
CONTINUOUS
 10
11.4349074539
 20
11.0796854707
 40
0.05
100
AcDbArc
 50
314.428471752
 51
50.06
  0
ARC
  5
2DE
100
AcDbEntity
  8
0
100
AcDbCircle
 62
7
  6
CONTINUOUS
 10
11.1140012356
 20
10.9239903175
 40
0.03
100
AcDbArc
 50
314.9403499734
 51
16.98716309
  0
ARC
  5
2DF
100
AcDbEntity
  8
0
100
AcDbCircle
 62
7
  6
CONTINUOUS
 10
10.9532784803
 20
11.7779228188
 40
2.3118504862
100
AcDbArc
 50
270.0
 51
278.7977505622
  0
ARC
  5
2E0
100
AcDbEntity
  8
0
100
AcDbCircle
 62
7
  6
CONTINUOUS
 10
10.9534146295
 20
11.6740621004
 40
2.31
100
AcDbArc
 50
81.1984646906
 51
89.9999999999
  0
ARC
  5
2E1
100
AcDbEntity
  8
0
100
AcDbCircle
 62
7
  6
CONTINUOUS
 10
11.1447587998
 20
12.1039448034
 40
0.1954335429
100
AcDbArc
 50
345.4368424883
 51
360.0
  0
ARC
  5
2E2
100
AcDbEntity
  8
0
100
AcDbCircle
 62
7
  6
CONTINUOUS
 10
11.4349074539
 20
12.3704479975
 40
0.05
100
AcDbArc
 50
309.9400001938
 51
45.5715281522
  0
ARC
  5
2E3
100
AcDbEntity
  8
0
100
AcDbCircle
 62
7
  6
CONTINUOUS
 10
11.1026923427
 20
12.7340252073
 40
0.04
100
AcDbArc
 50
284.4775121859
 51
75.5224878141
  0
ARC
  5
2E4
100
AcDbEntity
  8
0
100
AcDbCircle
 62
7
  6
CONTINUOUS
 10
11.3874056403
 20
12.4248036161
 40
0.02
100
AcDbArc
 50
270.0
 51
21.0304956613
  0
ARC
  5
2E5
100
AcDbEntity
  8
0
100
AcDbCircle
 62
7
  6
CONTINUOUS
 10
10.9376923427
 20
13.1948036161
 40
0.645
100
AcDbArc
 50
323.6575953608
 51
216.3424046392
  0
ARC
  5
2E6
100
AcDbEntity
  8
0
100
AcDbCircle
 62
9
  6
CONTINUOUS
 10
10.9376923427
 20
13.1948036161
 40
0.5195409934
100
AcDbArc
 50
312.6324930437
 51
227.3675069561
  0
ARC
  5
2E7
100
AcDbEntity
  8
0
100
AcDbCircle
 62
7
  6
CONTINUOUS
 10
10.9376923427
 20
13.1948036161
 40
0.47
100
AcDbArc
 50
293.7670036502
 51
246.2329963498
  0
ARC
  5
2E8
100
AcDbEntity
  8
0
100
AcDbCircle
 62
7
  6
CONTINUOUS
 10
10.9376923427
 20
13.1948036161
 40
0.455
100
AcDbArc
 50
291.9394397587
 51
248.0605602413
  0
CIRCLE
  5
2E9
100
AcDbEntity
  8
0
100
AcDbCircle
 62
7
  6
CONTINUOUS
 10
10.9376923427
 20
13.1948036161
 40
0.3305
  0
CIRCLE
  5
2EA
100
AcDbEntity
  8
0
100
AcDbCircle
 62
9
  6
CONTINUOUS
 10
10.9376923427
 20
13.1948036161
 40
0.2835
  0
CIRCLE
  5
2EB
100
AcDbEntity
  8
0
100
AcDbCircle
 62
7
  6
CONTINUOUS
 10
10.9376923427
 20
13.1948036161
 40
0.272
  0
CIRCLE
  5
2EC
100
AcDbEntity
  8
0
100
AcDbCircle
 62
9
  6
CONTINUOUS
 10
10.9376923427
 20
13.1948036161
 40
0.236
  0
CIRCLE
  5
2ED
100
AcDbEntity
  8
0
100
AcDbCircle
 62
7
  6
CONTINUOUS
 10
10.9376923427
 20
13.1948036161
 40
0.18
  0
CIRCLE
  5
2EE
100
AcDbEntity
  8
0
100
AcDbCircle
 62
7
  6
CONTINUOUS
 10
10.9376923427
 20
13.1948036161
 40
0.17
  0
ARC
  5
2EF
100
AcDbEntity
  8
0
100
AcDbCircle
 62
7
  6
CONTINUOUS
 10
11.3699350192
 20
13.7975667341
 40
0.1
100
AcDbArc
 50
20.6398773044
 51
90.0
  0
ARC
  5
2F0
100
AcDbEntity
  8
0
100
AcDbCircle
 62
7
  6
CONTINUOUS
 10
11.2976923427
 20
13.8975667341
 40
0.06
100
AcDbArc
 50
0.0
 51
81.1984646906
  0
ARC
  5
2F1
100
AcDbEntity
  8
0
100
AcDbCircle
 62
7
  6
CONTINUOUS
 10
12.0826923427
 20
12.2875667341
 40
0.64
100
AcDbArc
 50
180.0
 51
208.9550243719
  0
ARC
  5
2F2
100
AcDbEntity
  8
0
100
AcDbCircle
 62
7
  6
CONTINUOUS
 10
11.7794293011
 20
12.5755267047
 40
0.4
100
AcDbArc
 50
143.6579063375
 51
201.0304763259
  0
ARC
  5
2F3
100
AcDbEntity
  8
0
100
AcDbCircle
 62
7
  6
CONTINUOUS
 10
11.539910198
 20
12.4775667341
 40
0.1
100
AcDbArc
 50
157.9437488383
 51
225.571528248
  0
ARC
  5
2F4
100
AcDbEntity
  8
0
100
AcDbCircle
 62
7
  6
CONTINUOUS
 10
12.1056923427
 20
13.1948036161
 40
1.81
100
AcDbArc
 50
159.3601226956
 51
177.9229371601
  0
ARC
  5
2F5
100
AcDbEntity
  8
0
100
AcDbCircle
 62
7
  6
CONTINUOUS
 10
12.1056923427
 20
13.1948036161
 40
1.81
100
AcDbArc
 50
182.3539411493
 51
202.0562511617
  0
ARC
  5
2F6
100
AcDbEntity
  8
0
100
AcDbCircle
 62
7
  6
CONTINUOUS
 10
14.154842458
 20
11.8331366901
 40
3.5
100
AcDbArc
 50
165.7394915612
 51
191.7104673281
  0
SPLINE
  5
2F7
100
AcDbEntity
  8
0
100
AcDbSpline
 62
7
  6
CONTINUOUS
 70
0
 71
3
 72
35
 73
31
 74
0
 42
0.0000001
 43
0.0000001
 44
0.0000000001
 40
0.0
 40
0.0
 40
0.0
 40
0.0
 40
0.0630542679
 40
0.0945808789
 40
0.1260959143
 40
0.157589043
 40
0.1890510625
 40
0.2204698016
 40
0.2518345079
 40
0.2831332245
 40
0.3143559118
 40
0.3765294186
 40
0.407491671
 40
0.4383770083
 40
0.4692043346
 40
0.4999999965
 40
0.530795659
 40
0.5616229874
 40
0.5925083227
 40
0.6234705702
 40
0.685644082
 40
0.7168667651
 40
0.7481654885
 40
0.7795301918
 40
0.8109489355
 40
0.8424109558
 40
0.8739040848
 40
0.9054191215
 40
0.9369457322
 40
1.0
 40
1.0
 40
1.0
 40
1.0
 10
11.4755619619
 20
8.4849187448
 30
0.0
 10
11.4656379111
 20
8.4802156405
 30
0.0
 10
11.4507796834
 20
8.473102601
 30
0.0
 10
11.4309569821
 20
8.4636480896
 30
0.0
 10
11.4160708844
 20
8.4566122927
 30
0.0
 10
11.4011465821
 20
8.4496842988
 30
0.0
 10
11.3861682625
 20
8.4429140348
 30
0.0
 10
11.371115373
 20
8.4363661676
 30
0.0
 10
11.355969307
 20
8.4301101503
 30
0.0
 10
11.3407102595
 20
8.4242256496
 30
0.0
 10
11.3202253417
 20
8.417007932
 30
0.0
 10
11.2994139484
 20
8.4108959126
 30
0.0
 10
11.2782898689
 20
8.4063415337
 30
0.0
 10
11.2623387821
 20
8.40381276
 30
0.0
 10
11.2462915616
 20
8.4022561713
 30
0.0
 10
11.2301923445
 20
8.4017304244
 30
0.0
 10
11.2140931272
 20
8.4022561746
 30
0.0
 10
11.1980459063
 20
8.403812759
 30
0.0
 10
11.1820948198
 20
8.4063415302
 30
0.0
 10
11.1609707418
 20
8.4108959148
 30
0.0
 10
11.1401593496
 20
8.417007934
 30
0.0
 10
11.1196744277
 20
8.4242256441
 30
0.0
 10
11.1044153841
 20
8.4301101547
 30
0.0
 10
11.0892693115
 20
8.4363661599
 30
0.0
 10
11.074216426
 20
8.4429140376
 30
0.0
 10
11.0592381026
 20
8.4496842953
 30
0.0
 10
11.0443138007
 20
8.4566122911
 30
0.0
 10
11.0294277041
 20
8.463648091
 30
0.0
 10
11.0096050006
 20
8.4731025982
 30
0.0
 10
10.9947467744
 20
8.4802156405
 30
0.0
 10
10.9848227236
 20
8.4849187448
 30
0.0
  0
SPLINE
  5
2F8
100
AcDbEntity
  8
0
100
AcDbSpline
 62
7
  6
CONTINUOUS
 70
0
 71
3
 72
35
 73
31
 74
0
 42
0.0000001
 43
0.0000001
 44
0.0000000001
 40
0.0
 40
0.0
 40
0.0
 40
0.0
 40
0.0634332973
 40
0.0951015967
 40
0.1267274122
 40
0.1582987315
 40
0.1898045853
 40
0.2212392448
 40
0.252589891
 40
0.314990409
 40
0.346048144
 40
0.3769945369
 40
0.4078421376
 40
0.438616954
 40
0.469329344
 40
0.5000012535
 40
0.5306725843
 40
0.5613842887
 40
0.5921592638
 40
0.6230072276
 40
0.6539529136
 40
0.6850099244
 40
0.7474103058
 40
0.7787608057
 40
0.8101954866
 40
0.8417013313
 40
0.8732726048
 40
0.9048984237
 40
0.9365667293
 40
1.0
 40
1.0
 40
1.0
 40
1.0
 10
10.9848227236
 20
8.942414526
 30
0.0
 10
10.9944385724
 20
8.9483200313
 30
0.0
 10
11.0088974575
 20
8.9571058761
 30
0.0
 10
11.0283302844
 20
8.9685349909
 30
0.0
 10
11.0429784197
 20
8.9769166397
 30
0.0
 10
11.0577271645
 20
8.9850610366
 30
0.0
 10
11.0725965783
 20
8.9929108957
 30
0.0
 10
11.0876024341
 20
9.0004113555
 30
0.0
 10
11.1077818042
 20
9.0098348582
 30
0.0
 10
11.1283449276
 20
9.0182733691
 30
0.0
 10
11.1493158931
 20
9.0253654352
 30
0.0
 10
11.1652069512
 20
9.0298995158
 30
0.0
 10
11.1812736056
 20
9.0335521184
 30
0.0
 10
11.1974909417
 20
9.0362264789
 30
0.0
 10
11.2138137645
 20
9.0378751045
 30
0.0
 10
11.23019291
 20
9.0384434947
 30
0.0
 10
11.2465720165
 20
9.0378761977
 30
0.0
 10
11.2628945317
 20
9.0362261944
 30
0.0
 10
11.2791116778
 20
9.0335511191
 30
0.0
 10
11.2951785115
 20
9.0298994844
 30
0.0
 10
11.3110694336
 20
9.0253655603
 30
0.0
 10
11.3320400802
 20
9.0182734233
 30
0.0
 10
11.3526029424
 20
9.0098347577
 30
0.0
 10
11.3727822867
 20
9.0004113103
 30
0.0
 10
11.3877880631
 20
8.9929107442
 30
0.0
 10
11.4026574983
 20
8.9850609416
 30
0.0
 10
11.4174062891
 20
8.9769166457
 30
0.0
 10
11.4320544071
 20
8.9685349789
 30
0.0
 10
11.4514872182
 20
8.9571058437
 30
0.0
 10
11.4659461171
 20
8.9483200288
 30
0.0
 10
11.4755619619
 20
8.942414526
 30
0.0
  0
SPLINE
  5
2F9
100
AcDbEntity
  8
0
100
AcDbSpline
 62
7
  6
CONTINUOUS
 70
0
 71
3
 72
35
 73
31
 74
0
 42
0.0000001
 43
0.0000001
 44
0.0000000001
 40
0.0
 40
0.0
 40
0.0
 40
0.0
 40
0.0630542679
 40
0.0945808789
 40
0.1260959143
 40
0.1575890429
 40
0.1890510624
 40
0.2204698013
 40
0.2518345076
 40
0.2831332239
 40
0.3143559114
 40
0.376529418
 40
0.4074916704
 40
0.4383770075
 40
0.4692043337
 40
0.4999999956
 40
0.5307956579
 40
0.5616229865
 40
0.5925083221
 40
0.6234705695
 40
0.6856440816
 40
0.7168667645
 40
0.7481654882
 40
0.7795301915
 40
0.8109489354
 40
0.8424109557
 40
0.8739040848
 40
0.9054191215
 40
0.9369457322
 40
1.0
 40
1.0
 40
1.0
 40
1.0
 10
10.8905619619
 20
8.4849187448
 30
0.0
 10
10.8806379111
 20
8.4802156405
 30
0.0
 10
10.8657796834
 20
8.473102601
 30
0.0
 10
10.8459569822
 20
8.4636480896
 30
0.0
 10
10.8310708844
 20
8.4566122928
 30
0.0
 10
10.816146582
 20
8.4496842989
 30
0.0
 10
10.8011682626
 20
8.4429140347
 30
0.0
 10
10.786115373
 20
8.436366168
 30
0.0
 10
10.7709693073
 20
8.4301101501
 30
0.0
 10
10.7557102596
 20
8.4242256498
 30
0.0
 10
10.7352253421
 20
8.4170079319
 30
0.0
 10
10.7144139487
 20
8.4108959126
 30
0.0
 10
10.6932898692
 20
8.4063415338
 30
0.0
 10
10.6773387825
 20
8.4038127601
 30
0.0
 10
10.6612915621
 20
8.4022561712
 30
0.0
 10
10.645192345
 20
8.4017304243
 30
0.0
 10
10.6290931277
 20
8.4022561748
 30
0.0
 10
10.6130459068
 20
8.4038127589
 30
0.0
 10
10.5970948201
 20
8.4063415301
 30
0.0
 10
10.5759707421
 20
8.4108959148
 30
0.0
 10
10.55515935
 20
8.4170079341
 30
0.0
 10
10.5346744278
 20
8.4242256438
 30
0.0
 10
10.5194153843
 20
8.4301101549
 30
0.0
 10
10.5042693114
 20
8.4363661596
 30
0.0
 10
10.4892164261
 20
8.4429140377
 30
0.0
 10
10.4742381026
 20
8.4496842952
 30
0.0
 10
10.4593138007
 20
8.456612291
 30
0.0
 10
10.4444277041
 20
8.463648091
 30
0.0
 10
10.4246050006
 20
8.4731025981
 30
0.0
 10
10.4097467744
 20
8.4802156405
 30
0.0
 10
10.3998227236
 20
8.4849187448
 30
0.0
  0
SPLINE
  5
2FA
100
AcDbEntity
  8
0
100
AcDbSpline
 62
7
  6
CONTINUOUS
 70
0
 71
3
 72
35
 73
31
 74
0
 42
0.0000001
 43
0.0000001
 44
0.0000000001
 40
0.0
 40
0.0
 40
0.0
 40
0.0
 40
0.0634333046
 40
0.0951016182
 40
0.1267274273
 40
0.1582986908
 40
0.189804566
 40
0.2212393062
 40
0.2525897966
 40
0.3149905809
 40
0.3460480753
 40
0.3769941474
 40
0.4078421832
 40
0.4386174618
 40
0.4693297833
 40
0.500001466
 40
0.5306728622
 40
0.5613844167
 40
0.592158633
 40
0.6230059827
 40
0.6539521584
 40
0.6850096442
 40
0.7474099128
 40
0.7787606229
 40
0.810195257
 40
0.8417011161
 40
0.8732724817
 40
0.9048983388
 40
0.9365666647
 40
1.0
 40
1.0
 40
1.0
 40
1.0
 10
10.3998227236
 20
8.942414526
 30
0.0
 10
10.4094385761
 20
8.9483200335
 30
0.0
 10
10.4238975023
 20
8.9571058268
 30
0.0
 10
10.4433303276
 20
8.9685349607
 30
0.0
 10
10.4579784306
 20
8.9769166583
 30
0.0
 10
10.4727271961
 20
8.9850610131
 30
0.0
 10
10.4875965987
 20
8.9929109163
 30
0.0
 10
10.5026023265
 20
9.0004116229
 30
0.0
 10
10.5227817655
 20
9.009835078
 30
0.0
 10
10.5433448058
 20
9.0182737217
 30
0.0
 10
10.5643156199
 20
9.0253660873
 30
0.0
 10
10.5802066766
 20
9.0299001574
 30
0.0
 10
10.5962736147
 20
9.0335519975
 30
0.0
 10
10.6124910624
 20
9.0362264649
 30
0.0
 10
10.6288138656
 20
9.0378757193
 30
0.0
 10
10.6451930079
 20
9.0384437054
 30
0.0
 10
10.661572029
 20
9.0378760611
 30
0.0
 10
10.6778944695
 20
9.036226863
 30
0.0
 10
10.6941113949
 20
9.0335518912
 30
0.0
 10
10.7101778228
 20
9.0298991582
 30
0.0
 10
10.726068749
 20
9.02536507
 30
0.0
 10
10.7470396322
 20
9.0182731422
 30
0.0
 10
10.7676026982
 20
9.0098346725
 30
0.0
 10
10.7877820554
 20
9.0004112211
 30
0.0
 10
10.8027880051
 20
8.9929109222
 30
0.0
 10
10.8176574684
 20
8.9850611354
 30
0.0
 10
10.8324062452
 20
8.9769167526
 30
0.0
 10
10.8470544052
 20
8.9685350966
 30
0.0
 10
10.8664872328
 20
8.9571059334
 30
0.0
 10
10.8809461047
 20
8.9483200364
 30
0.0
 10
10.8905619619
 20
8.942414526
 30
0.0
  0
SPLINE
  5
2FB
100
AcDbEntity
  8
0
100
AcDbSpline
 62
7
  6
CONTINUOUS
 70
0
 71
3
 72
22
 73
18
 74
0
 42
0.0000001
 43
0.0000001
 44
0.0000000001
 40
0.0
 40
0.0
 40
0.0
 40
0.0
 40
0.126363157
 40
0.1895351603
 40
0.2526669805
 40
0.3157318329
 40
0.3786984085
 40
0.4415360134
 40
0.5042112327
 40
0.5666989895
 40
0.6289796538
 40
0.6910524783
 40
0.752941852
 40
0.8147003365
 40
0.8764051253
 40
0.9381445915
 40
1.0
 40
1.0
 40
1.0
 40
1.0
 10
11.4755619619
 20
11.4243925089
 30
0.0
 10
11.4638936168
 20
11.4188627665
 30
0.0
 10
11.4464301434
 20
11.4104883479
 30
0.0
 10
11.423115018
 20
11.3993974801
 30
0.0
 10
11.4055894737
 20
11.3911934659
 30
0.0
 10
11.3879958165
 20
11.3831863016
 30
0.0
 10
11.3703030867
 20
11.3754739818
 30
0.0
 10
11.3524798759
 20
11.3681701035
 30
0.0
 10
11.3344949416
 20
11.3614079288
 30
0.0
 10
11.3163226968
 20
11.3553376789
 30
0.0
 10
11.2979459599
 20
11.3501298017
 30
0.0
 10
11.2793652028
 20
11.3459617362
 30
0.0
 10
11.2606040003
 20
11.3430063027
 30
0.0
 10
11.2417139919
 20
11.3414066299
 30
0.0
 10
11.2227709304
 20
11.3412486931
 30
0.0
 10
11.2038630478
 20
11.3425410364
 30
0.0
 10
11.1913475056
 20
11.3443206209
 30
0.0
 10
11.1851226112
 20
11.3454166764
 30
0.0
  0
SPLINE
  5
2FC
100
AcDbEntity
  8
0
100
AcDbSpline
 62
7
  6
CONTINUOUS
 70
0
 71
3
 72
21
 73
17
 74
0
 42
0.0000001
 43
0.0000001
 44
0.0000000001
 40
0.0
 40
0.0
 40
0.0
 40
0.0
 40
0.0613969347
 40
0.1228092071
 40
0.184320969
 40
0.2459729401
 40
0.3077932657
 40
0.3698379328
 40
0.4321119427
 40
0.494587686
 40
0.6201305779
 40
0.6831613808
 40
0.7463344699
 40
0.8096287594
 40
0.8730163219
 40
1.0
 40
1.0
 40
1.0
 40
1.0
 10
11.2157374979
 20
11.9772912149
 30
0.0
 10
11.2214842077
 20
11.9776360542
 30
0.0
 10
11.233008048
 20
11.9779218273
 30
0.0
 10
11.250285333
 20
11.9770881721
 30
0.0
 10
11.2674871575
 20
11.9750657495
 30
0.0
 10
11.2845563763
 20
11.9719163513
 30
0.0
 10
11.3014452147
 20
11.9677072507
 30
0.0
 10
11.3181319586
 20
11.9625639864
 30
0.0
 10
11.3346088434
 20
11.9566054488
 30
0.0
 10
11.356333595
 20
11.9477116846
 30
0.0
 10
11.3776235919
 20
11.9376269402
 30
0.0
 10
11.3985688957
 20
11.9267388498
 30
0.0
 10
11.4141615976
 20
11.9182156063
 30
0.0
 10
11.4296365719
 20
11.909414141
 30
0.0
 10
11.4501572224
 20
11.8973856778
 30
0.0
 10
11.4654156791
 20
11.8881195575
 30
0.0
 10
11.4755619619
 20
11.88188829
 30
0.0
  0
SPLINE
  5
2FD
100
AcDbEntity
  8
0
100
AcDbSpline
 62
7
  6
CONTINUOUS
 70
0
 71
3
 72
22
 73
18
 74
0
 42
0.0000001
 43
0.0000001
 44
0.0000000001
 40
0.0
 40
0.0
 40
0.0
 40
0.0
 40
0.0618554112
 40
0.1235948686
 40
0.185299656
 40
0.2470581472
 40
0.3089475157
 40
0.3710203356
 40
0.4333009973
 40
0.4957887585
 40
0.5584639816
 40
0.6213015838
 40
0.6842681682
 40
0.7473330195
 40
0.8104648415
 40
0.8736368446
 40
1.0
 40
1.0
 40
1.0
 40
1.0
 10
10.6902620566
 20
11.3454166743
 30
0.0
 10
10.6840371626
 20
11.3443206171
 30
0.0
 10
10.671521621
 20
11.3425410366
 30
0.0
 10
10.6526137404
 20
11.3412486953
 30
0.0
 10
10.6336706803
 20
11.3414066313
 30
0.0
 10
10.614780673
 20
11.3430063029
 30
0.0
 10
10.5960194717
 20
11.3459617353
 30
0.0
 10
10.577438718
 20
11.3501298055
 30
0.0
 10
10.5590619823
 20
11.3553376812
 30
0.0
 10
10.5408897369
 20
11.3614079283
 30
0.0
 10
10.5229048061
 20
11.3681701104
 30
0.0
 10
10.5050815906
 20
11.3754739769
 30
0.0
 10
10.4873888665
 20
11.3831863083
 30
0.0
 10
10.469795205
 20
11.3911934627
 30
0.0
 10
10.4522696648
 20
11.3993974834
 30
0.0
 10
10.4289545388
 20
11.4104883463
 30
0.0
 10
10.4114910678
 20
11.4188627669
 30
0.0
 10
10.3998227236
 20
11.4243925089
 30
0.0
  0
SPLINE
  5
2FE
100
AcDbEntity
  8
0
100
AcDbSpline
 62
7
  6
CONTINUOUS
 70
0
 71
3
 72
20
 73
16
 74
0
 42
0.0000001
 43
0.0000001
 44
0.0000000001
 40
0.0
 40
0.0
 40
0.0
 40
0.0
 40
0.1269890926
 40
0.190379337
 40
0.2536762675
 40
0.3168520111
 40
0.379885572
 40
0.5054338218
 40
0.5679125592
 40
0.6301900725
 40
0.7540151138
 40
0.8156699818
 40
0.8771854919
 40
0.9386012839
 40
1.0
 40
1.0
 40
1.0
 40
1.0
 10
10.3998227236
 20
11.88188829
 30
0.0
 10
10.4099689914
 20
11.8881195484
 30
0.0
 10
10.4252274435
 20
11.897385623
 30
0.0
 10
10.4457480563
 20
11.9094140635
 30
0.0
 10
10.4612229788
 20
11.9182155521
 30
0.0
 10
10.4768156068
 20
11.9267388398
 30
0.0
 10
10.4977608533
 20
11.9376271288
 30
0.0
 10
10.5190504281
 20
11.9477117552
 30
0.0
 10
10.5407762562
 20
11.9566058078
 30
0.0
 10
10.5626983122
 20
11.9645337855
 30
0.0
 10
10.5851089612
 20
11.970861928
 30
0.0
 10
10.6078975662
 20
11.9750661428
 30
0.0
 10
10.6251000281
 20
11.9770877764
 30
0.0
 10
10.6423772495
 20
11.9779216741
 30
0.0
 10
10.6539011332
 20
11.9776367846
 30
0.0
 10
10.6596477582
 20
11.9772919824
 30
0.0
  0
SPLINE
  5
2FF
100
AcDbEntity
  8
0
100
AcDbSpline
 62
9
  6
CONTINUOUS
 70
0
 71
3
 72
31
 73
27
 74
0
 42
0.0000001
 43
0.0000001
 44
0.0000000001
 40
0.0
 40
0.0
 40
0.0
 40
0.0
 40
0.2146621876
 40
0.4091680649
 40
0.4980000787
 40
0.5807363202
 40
0.6570133617
 40
0.7264923534
 40
0.788836001
 40
0.8437007362
 40
0.8907373697
 40
0.9112135198
 40
0.9296231701
 40
0.9459455502
 40
0.9601598217
 40
0.9722450797
 40
0.9821803542
 40
0.986335178
 40
0.9899446129
 40
0.9930060199
 40
0.9955167561
 40
0.9974741745
 40
0.9988756248
 40
0.9993670326
 40
0.9997184527
 40
1.0
 40
1.0
 40
1.0
 40
1.0
 10
10.665264916
 20
8.2234123458
 30
0.0
 10
10.648180216
 20
8.2196788843
 30
0.0
 10
10.6157548218
 20
8.2119042985
 30
0.0
 10
10.5766864716
 20
8.2009335212
 30
0.0
 10
10.5481924227
 20
8.1921265387
 30
0.0
 10
10.5289969434
 20
8.1858615072
 30
0.0
 10
10.511385992
 20
8.1798300312
 30
0.0
 10
10.4954221355
 20
8.1741218025
 30
0.0
 10
10.4811649632
 20
8.1688253299
 30
0.0
 10
10.4686733665
 20
8.1640289753
 30
0.0
 10
10.4593993433
 20
8.160369735
 30
0.0
 10
10.4529014013
 20
8.1577669292
 30
0.0
 10
10.4487315653
 20
8.1560813064
 30
0.0
 10
10.4450394269
 20
8.1545751961
 30
0.0
 10
10.4418284603
 20
8.1532536669
 30
0.0
 10
10.4391021564
 20
8.1521217496
 30
0.0
 10
10.4371352206
 20
8.1512980864
 30
0.0
 10
10.4358065434
 20
8.1507379327
 30
0.0
 10
10.4349943883
 20
8.1503941141
 30
0.0
 10
10.4343060348
 20
8.150101421
 30
0.0
 10
10.4337418306
 20
8.1498607139
 30
0.0
 10
10.4333024473
 20
8.1496720055
 30
0.0
 10
10.433014069
 20
8.1495486815
 30
0.0
 10
10.4328465556
 20
8.1494753072
 30
0.0
 10
10.4327618833
 20
8.1494405168
 30
0.0
 10
10.4327157398
 20
8.1494169464
 30
0.0
 10
10.4326939625
 20
8.1494097461
 30
0.0
  0
SPLINE
  5
300
100
AcDbEntity
  8
0
100
AcDbSpline
 62
9
  6
CONTINUOUS
 70
0
 71
3
 72
45
 73
41
 74
0
 42
0.0000001
 43
0.0000001
 44
0.0000000001
 40
0.0
 40
0.0
 40
0.0
 40
0.0
 40
0.0991797603
 40
0.1484523199
 40
0.1972833623
 40
0.2931023661
 40
0.3857017716
 40
0.4742081121
 40
0.5578455954
 40
0.6359601185
 40
0.7079217491
 40
0.7731514814
 40
0.8030829098
 40
0.8311395855
 40
0.8572564801
 40
0.8813676518
 40
0.9034076702
 40
0.923317354
 40
0.9410391457
 40
0.95651502
 40
0.9633941158
 40
0.9696944723
 40
0.9754118848
 40
0.9805421376
 40
0.9850810039
 40
0.9890242467
 40
0.9923676192
 40
0.9938130772
 40
0.9951073298
 40
0.9962502274
 40
0.9972416202
 40
0.9980813582
 40
0.9987692918
 40
0.9993052711
 40
0.9995162311
 40
0.9996891465
 40
0.9998239987
 40
0.9999207692
 40
0.9999794403
 40
1.0
 40
1.0
 40
1.0
 40
1.0
 10
10.9376923427
 20
8.1618920653
 30
0.0
 10
10.9557768914
 20
8.1619664251
 30
0.0
 10
10.9828505658
 20
8.161529752
 30
0.0
 10
11.0187944168
 20
8.1600605609
 30
0.0
 10
11.0541013335
 20
8.1580968072
 30
0.0
 10
11.0972401833
 20
8.1547602209
 30
0.0
 10
11.1474499465
 20
8.1493286696
 30
0.0
 10
11.1952803508
 20
8.1427532339
 30
0.0
 10
11.2403074982
 20
8.1353098188
 30
0.0
 10
11.2821606806
 20
8.1272586905
 30
0.0
 10
11.3205273598
 20
8.1189180732
 30
0.0
 10
11.3501588839
 20
8.1117932534
 30
0.0
 10
11.3719198562
 20
8.1062005203
 30
0.0
 10
11.386735962
 20
8.1022406092
 30
0.0
 10
11.4004929751
 20
8.0984307221
 30
0.0
 10
11.4131628274
 20
8.0948076734
 30
0.0
 10
11.4247190076
 20
8.0914081865
 30
0.0
 10
11.4351357195
 20
8.0882645197
 30
0.0
 10
11.4443885796
 20
8.0854078785
 30
0.0
 10
11.4513593086
 20
8.08321427
 30
0.0
 10
11.4563380624
 20
8.0816288384
 30
0.0
 10
11.4596190438
 20
8.0805761939
 30
0.0
 10
11.4625943961
 20
8.0796148042
 30
0.0
 10
11.465262412
 20
8.0787469273
 30
0.0
 10
11.4676213868
 20
8.0779748291
 30
0.0
 10
11.4696696163
 20
8.0773007778
 30
0.0
 10
11.4711813914
 20
8.0768010463
 30
0.0
 10
11.4722343278
 20
8.0764522452
 30
0.0
 10
11.4729062901
 20
8.0762293528
 30
0.0
 10
11.4734995836
 20
8.0760322728
 30
0.0
 10
11.4740141407
 20
8.0758610699
 30
0.0
 10
11.4744499141
 20
8.0757158391
 30
0.0
 10
11.4748067978
 20
8.0755965869
 30
0.0
 10
11.4750549433
 20
8.0755135701
 30
0.0
 10
11.475213852
 20
8.0754600154
 30
0.0
 10
11.4753036551
 20
8.0754300611
 30
0.0
 10
11.4753730832
 20
8.0754057513
 30
0.0
 10
11.4754241992
 20
8.0753901937
 30
0.0
 10
11.4754527397
 20
8.0753770416
 30
0.0
 10
11.4754682711
 20
8.0753750717
 30
0.0
 10
11.4754709277
 20
8.0753724265
 30
0.0
  0
SPLINE
  5
301
100
AcDbEntity
  8
0
100
AcDbSpline
 62
9
  6
CONTINUOUS
 70
0
 71
3
 72
45
 73
41
 74
0
 42
0.0000001
 43
0.0000001
 44
0.0000000001
 40
0.0
 40
0.0
 40
0.0
 40
0.0
 40
0.0000180359
 40
0.0000741926
 40
0.0001684965
 40
0.0003009669
 40
0.0004716226
 40
0.000680482
 40
0.001212886
 40
0.0018983259
 40
0.0027369199
 40
0.0037284228
 40
0.004872341
 40
0.0061681762
 40
0.0076154303
 40
0.0109622048
 40
0.014908688
 40
0.0194509109
 40
0.0245849124
 40
0.0303067398
 40
0.0366122973
 40
0.0434960556
 40
0.0589729255
 40
0.0766870826
 40
0.0965886477
 40
0.1186247073
 40
0.142732307
 40
0.1688472229
 40
0.1969059905
 40
0.2268436739
 40
0.2585932906
 40
0.2920887208
 40
0.3640462852
 40
0.4421512958
 40
0.5257970552
 40
0.6143104386
 40
0.7069091091
 40
0.8027308251
 40
0.9008247923
 40
1.0
 40
1.0
 40
1.0
 40
1.0
 10
10.3999147936
 20
8.0753733936
 30
0.0
 10
10.3999128254
 20
8.0753707596
 30
0.0
 10
10.3999386139
 20
8.0753832805
 30
0.0
 10
10.3999551609
 20
8.075384271
 30
0.0
 10
10.400011533
 20
8.0754050725
 30
0.0
 10
10.4000771363
 20
8.0754254786
 30
0.0
 10
10.4001670666
 20
8.0754554838
 30
0.0
 10
10.4003243447
 20
8.0755071763
 30
0.0
 10
10.4005716667
 20
8.0755891876
 30
0.0
 10
10.4009273152
 20
8.0757071886
 30
0.0
 10
10.401362541
 20
8.0758520053
 30
0.0
 10
10.4018769515
 20
8.0760232812
 30
0.0
 10
10.4024705047
 20
8.0762208445
 30
0.0
 10
10.4031429575
 20
8.0764444247
 30
0.0
 10
10.404196676
 20
8.0767942139
 30
0.0
 10
10.405709497
 20
8.0772948411
 30
0.0
 10
10.4077589992
 20
8.0779697145
 30
0.0
 10
10.4101192675
 20
8.0787426018
 30
0.0
 10
10.4127886761
 20
8.0796114836
 30
0.0
 10
10.4157655799
 20
8.0805743096
 30
0.0
 10
10.4190480266
 20
8.0816290371
 30
0.0
 10
10.4240271525
 20
8.083216972
 30
0.0
 10
10.43099641
 20
8.0854100446
 30
0.0
 10
10.4402460457
 20
8.0882625753
 30
0.0
 10
10.4506583221
 20
8.0914022399
 30
0.0
 10
10.4622098655
 20
8.0948002988
 30
0.0
 10
10.4748762088
 20
8.0984213766
 30
0.0
 10
10.4886304813
 20
8.1022299327
 30
0.0
 10
10.5034450732
 20
8.1061901033
 30
0.0
 10
10.5192915305
 20
8.1102653363
 30
0.0
 10
10.5361406358
 20
8.1144181028
 30
0.0
 10
10.5604900524
 20
8.1201463817
 30
0.0
 10
10.5931947338
 20
8.1272542432
 30
0.0
 10
10.6350411233
 20
8.1352971369
 30
0.0
 10
10.6800603892
 20
8.1427483249
 30
0.0
 10
10.7278858123
 20
8.1493214103
 30
0.0
 10
10.7780888696
 20
8.1547518263
 30
0.0
 10
10.8301749911
 20
8.1587992021
 30
0.0
 10
10.8835557788
 20
8.1613504793
 30
0.0
 10
10.9195240246
 20
8.1619258339
 30
0.0
 10
10.9376048655
 20
8.1618907695
 30
0.0
  0
SPLINE
  5
302
100
AcDbEntity
  8
0
100
AcDbSpline
 62
9
  6
CONTINUOUS
 70
0
 71
3
 72
27
 73
23
 74
0
 42
0.0000001
 43
0.0000001
 44
0.0000000001
 40
0.0
 40
0.0
 40
0.0
 40
0.0
 40
0.0002815512
 40
0.0011243911
 40
0.0025258615
 40
0.0044833079
 40
0.0069940797
 40
0.0100555297
 40
0.0178198938
 40
0.0277553031
 40
0.0398407218
 40
0.0540551781
 40
0.0703777657
 40
0.109263993
 40
0.156301154
 40
0.2111664349
 40
0.2735106345
 40
0.3429901728
 40
0.4192677451
 40
0.5908316213
 40
0.7853379835
 40
1.0
 40
1.0
 40
1.0
 40
1.0
 10
11.4426907151
 20
8.1494097565
 30
0.0
 10
11.4426692025
 20
8.1494177186
 30
0.0
 10
11.4425863065
 20
8.149457024
 30
0.0
 10
11.4423962802
 20
8.1495358691
 30
0.0
 10
11.4420824659
 20
8.1496727649
 30
0.0
 10
11.4416426432
 20
8.1498604731
 30
0.0
 10
11.4410785465
 20
8.1501015937
 30
0.0
 10
11.4400785386
 20
8.1505265748
 30
0.0
 10
11.4385203367
 20
8.1511846811
 30
0.0
 10
11.4362819738
 20
8.152121978
 30
0.0
 10
11.4335554414
 20
8.1532539934
 30
0.0
 10
11.4303442057
 20
8.1545756337
 30
0.0
 10
11.4251070479
 20
8.1567119329
 30
0.0
 10
11.4173782724
 20
8.1598200173
 30
0.0
 10
11.4067083161
 20
8.1640301811
 30
0.0
 10
11.3942156728
 20
8.1688268432
 30
0.0
 10
11.3799573594
 20
8.1741236999
 30
0.0
 10
11.3639921875
 20
8.1798322988
 30
0.0
 10
11.3395332034
 20
8.1882090442
 30
0.0
 10
11.3051767908
 20
8.19911468
 30
0.0
 10
11.259615549
 20
8.2119080274
 30
0.0
 10
11.2271875116
 20
8.2196828365
 30
0.0
 10
11.2101015583
 20
8.2234163024
 30
0.0
  0
SPLINE
  5
303
100
AcDbEntity
  8
0
100
AcDbSpline
 62
9
  6
CONTINUOUS
 70
0
 71
3
 72
11
 73
7
 74
0
 42
0.0000001
 43
0.0000001
 44
0.0000000001
 40
0.0
 40
0.0
 40
0.0
 40
0.0
 40
0.2491814559
 40
0.4986797298
 40
0.7488289571
 40
1.0
 40
1.0
 40
1.0
 40
1.0
 10
11.2895739815
 20
12.8125704986
 30
0.0
 10
11.2776572805
 20
12.8055174559
 30
0.0
 10
11.253787499
 20
12.7914379552
 30
0.0
 10
11.2176610507
 20
12.770778523
 30
0.0
 10
11.1809253575
 20
12.7509820784
 30
0.0
 10
11.1559033126
 20
12.7387065931
 30
0.0
 10
11.143216689
 20
12.7328861909
 30
0.0
  0
LINE
  5
304
100
AcDbEntity
  8
0
100
AcDbLine
 62
9
  6
CONTINUOUS
 10
10.7327372509
 20
12.7326252751
 11
10.7321667447
 21
12.732886746
  0
SPLINE
  5
305
100
AcDbEntity
  8
0
100
AcDbSpline
 62
9
  6
CONTINUOUS
 70
0
 71
3
 72
11
 73
7
 74
0
 42
0.0000001
 43
0.0000001
 44
0.0000000001
 40
0.0
 40
0.0
 40
0.0
 40
0.0
 40
0.2511713265
 40
0.5013203575
 40
0.7508185356
 40
1.0
 40
1.0
 40
1.0
 40
1.0
 10
10.7321667447
 20
12.732886746
 30
0.0
 10
10.7194802287
 20
12.7387071456
 30
0.0
 10
10.6944584029
 20
12.7509825672
 30
0.0
 10
10.6577230388
 20
12.770778898
 30
0.0
 10
10.621596886
 20
12.791438126
 30
0.0
 10
10.5977273086
 20
12.8055175154
 30
0.0
 10
10.585810704
 20
12.8125704986
 30
0.0
  0
SPLINE
  5
306
100
AcDbEntity
  8
0
100
AcDbSpline
 62
9
  6
CONTINUOUS
 70
0
 71
3
 72
11
 73
7
 74
0
 42
0.0000001
 43
0.0000001
 44
0.0000000001
 40
0.0
 40
0.0
 40
0.0
 40
0.0
 40
0.248197674
 40
0.4965323536
 40
0.7466933866
 40
1.0
 40
1.0
 40
1.0
 40
1.0
 10
11.2895739795
 20
12.8125704871
 30
0.0
 10
11.2763700393
 20
12.8082266864
 30
0.0
 10
11.2499521096
 20
12.7995448664
 30
0.0
 10
11.2101056994
 20
12.7868523012
 30
0.0
 10
11.1697701656
 20
12.7747676535
 30
0.0
 10
11.1425412056
 20
12.7674220285
 30
0.0
 10
11.1287785766
 20
12.7639812746
 30
0.0
  0
SPLINE
  5
307
100
AcDbEntity
  8
0
100
AcDbSpline
 62
9
  6
CONTINUOUS
 70
0
 71
3
 72
11
 73
7
 74
0
 42
0.0000001
 43
0.0000001
 44
0.0000000001
 40
0.0
 40
0.0
 40
0.0
 40
0.0
 40
0.2533065612
 40
0.5034677192
 40
0.7518025867
 40
1.0
 40
1.0
 40
1.0
 40
1.0
 10
10.7466060448
 20
12.7639812868
 30
0.0
 10
10.7328434244
 20
12.7674220407
 30
0.0
 10
10.7056144723
 20
12.7747676689
 30
0.0
 10
10.6652789405
 20
12.7868523166
 30
0.0
 10
10.625432539
 20
12.7995448656
 30
0.0
 10
10.5990146243
 20
12.8082266838
 30
0.0
 10
10.5858107059
 20
12.8125704871
 30
0.0
  0
SPLINE
  5
308
100
AcDbEntity
  8
0
100
AcDbSpline
 62
7
  6
CONTINUOUS
 70
0
 71
3
 72
13
 73
9
 74
0
 42
0.0000001
 43
0.0000001
 44
0.0000000001
 40
0.0
 40
0.0
 40
0.0
 40
0.0
 40
0.3218624559
 40
0.5977654467
 40
0.7174455917
 40
0.8245534267
 40
0.9188140742
 40
1.0
 40
1.0
 40
1.0
 40
1.0
 10
11.3244440673
 20
11.1589548889
 30
0.0
 10
11.3345387597
 20
11.1592365706
 30
0.0
 10
11.3532858866
 20
11.1597895721
 30
0.0
 10
11.3757831529
 20
11.1605592847
 30
0.0
 10
11.3915428962
 20
11.1611875867
 30
0.0
 10
11.401606076
 20
11.1616353525
 30
0.0
 10
11.4104601742
 20
11.1620821407
 30
0.0
 10
11.4159556556
 20
11.1624030222
 30
0.0
 10
11.418497638
 20
11.1625668423
 30
0.0
  0
SPLINE
  5
309
100
AcDbEntity
  8
0
100
AcDbSpline
 62
7
  6
CONTINUOUS
 70
0
 71
3
 72
11
 73
7
 74
0
 42
0.0000001
 43
0.0000001
 44
0.0000000001
 40
0.0
 40
0.0
 40
0.0
 40
0.0
 40
0.2054953695
 40
0.4423549266
 40
0.7080616059
 40
1.0
 40
1.0
 40
1.0
 40
1.0
 10
10.4969572085
 20
11.1589548889
 30
0.0
 10
10.5061259103
 20
11.1592796847
 30
0.0
 10
10.5258649534
 20
11.1599154495
 30
0.0
 10
10.5574642605
 20
11.1608056423
 30
0.0
 10
10.5929241
 20
11.1617006342
 30
0.0
 10
10.617813853
 20
11.1622751837
 30
0.0
 10
10.6308443586
 20
11.1625659233
 30
0.0
  0
ENDSEC
  0
SECTION
  2
OBJECTS
  0
DICTIONARY
  5
C
100
AcDbDictionary
280
0
281
1
  3
ACAD_GROUP
350
D
  3
ACAD_MLINESTYLE
350
17
  3
ACAD_LAYOUT
350
1A
  3
ACAD_PLOTSETTINGS
350
19
  3
ACAD_PLOTSTYLENAME
350
E
  0
DICTIONARY
  5
D
102
{ACAD_REACTORS
330
C
102
}
100
AcDbDictionary
280
0
281
1
  0
ACDBDICTIONARYWDFLT
  5
E
102
{ACAD_REACTORS
330
C
102
}
100
AcDbDictionary
281
1
  3
Normal
350
F
100
AcDbDictionaryWithDefault
340
F
  0
DICTIONARY
  5
17
102
{ACAD_REACTORS
330
C
102
}
100
AcDbDictionary
280
0
281
1
  3
Standard
350
18
  0
DICTIONARY
  5
19
102
{ACAD_REACTORS
330
C
102
}
100
AcDbDictionary
281
1
  0
DICTIONARY
  5
1A
102
{ACAD_REACTORS
330
C
102
}
100
AcDbDictionary
281
1
  3
Model
350
30A
  3
Layout1
350
30B
  0
ACDBPLACEHOLDER
  5
F
102
{ACAD_REACTORS
330
E
102
}
  0
MLINESTYLE
  5
18
102
{ACAD_REACTORS
330
17
102
}
100
AcDbMlineStyle
  2
STANDARD
 70
0
  3

 62
256
 51
90.0
 52
90.0
 71
2
 49
0.5
 62
256
  6
BYLAYER
 49
-0.5
 62
256
  6
BYLAYER
  0
LAYOUT
  5
30A
102
{ACAD_REACTORS
330
1A
102
}
100
AcDbPlotSettings
  1

  2
none_device
  4
ANSI_C_(22.00_x_17.00_Inches)
  6

 40
0.0
 41
0.0
 42
0.0
 43
0.0
 44
558.8
 45
431.8
 46
0.0
 47
0.0
 48
0.0
 49
0.0
140
0.0
141
0.0
142
1.0
143
1.0
 70
1024
 72
0
 73
0
 74
0
  7

 75
0
147
1.0
148
0.0
149
0.0
100
AcDbLayout
  1
Model
 70
0
 71
0
 10
0.0
 20
0.0
 11
22.0
 21
17.0
 12
0.0
 22
0.0
 32
0.0
 14
0.0
 24
0.0
 34
0.0
 15
0.0
 25
0.0
 35
0.0
146
0.0
 13
0.0
 23
0.0
 33
0.0
 16
1.0
 26
0.0
 36
0.0
 17
0.0
 27
1.0
 37
0.0
 76
0
330
202
345
0
346
0
  0
LAYOUT
  5
30B
102
{ACAD_REACTORS
330
1A
102
}
100
AcDbPlotSettings
  1

  2
none_device
  4
ANSI_C_(22.00_x_17.00_Inches)
  6

 40
0.0
 41
0.0
 42
0.0
 43
0.0
 44
558.8
 45
431.8
 46
0.0
 47
0.0
 48
0.0
 49
0.0
140
0.0
141
0.0
142
1.0
143
1.0
 70
0
 72
0
 73
0
 74
0
  7

 75
0
147
1.0
148
0.0
149
0.0
100
AcDbLayout
  1
Layout1
 70
0
 71
1
 10
0.0
 20
0.0
 11
22.0
 21
17.0
 12
0.0
 22
0.0
 32
0.0
 14
0.0
 24
0.0
 34
0.0
 15
0.0
 25
0.0
 35
0.0
146
0.0
 13
0.0
 23
0.0
 33
0.0
 16
1.0
 26
0.0
 36
0.0
 17
0.0
 27
1.0
 37
0.0
 76
0
330
203
345
0
346
0
  0
ENDSEC
  0
EOF
