999
DXF file: E:\BT Custom\CADOUTPUT\_RIGHT.dxf
999
Pro/ENGINEER 2018400 by Parametric Technology Corporation
  0
SECTION
  2
HEADER
  9
$ACADVER
  1
AC1018
  9
$DWGCODEPAGE
  3
ANSI_1252
  9
$EXTMAX
 10
22.0
 20
17.0
 30
0.0
  9
$EXTMIN
 10
0.0
 20
0.0
 30
0.0
  9
$LIMMIN
 10
0.0
 20
0.0
  9
$LIMMAX
 10
22.0
 20
17.0
  9
$VIEWCTR
 10
11.0
 20
8.5
  9
$VIEWSIZE
 40
17.0
  9
$CLAYER
  8
0
  9
$LTSCALE
 40
1.21
  9
$CELTYPE
  6
BYLAYER
  9
$DIMSCALE
 40
1.0
  9
$DIMASZ
 40
0.1
  9
$DIMEXO
 40
0.0625
  9
$DIMDLI
 40
0.836
  9
$DIMEXE
 40
0.125
  9
$DIMCEN
 40
0.198
  9
$DIMLFAC
 40
1.0
  9
$DIMBLK
  1
_FILLED
  9
$DIMALT
 70
1
  9
$DIMALTD
 70
2
  9
$DIMALTTD
 70
2
  9
$DIMALTF
 40
25.4
  9
$DIMTXT
 40
0.08
  9
$DIMTOL
 70
1
  9
$DIMLIM
 70
0
  9
$DIMTFAC
 40
1.0
  9
$DIMTP
 40
0.001
  9
$DIMTM
 40
0.001
  9
$DIMGAP
 40
0.09
  9
$DIMDSEP
 70
46
  9
$AUNITS
 70
0
  9
$PDMODE
 70
3
  9
$PDSIZE
 40
0.06
  9
$HANDSEED
  5
3C1
  9
$TILEMODE
 70
1
  9
$MEASUREMENT
 70
0
  9
$INSUNITS
 70
1
  0
ENDSEC
  0
SECTION
  2
CLASSES
  0
CLASS
  1
ACDBDICTIONARYWDFLT
  2
AcDbDictionaryWithDefault
  3
AutoCAD 2000
 90
0
 91
1
280
0
281
0
  0
CLASS
  1
ACDBPLACEHOLDER
  2
AcDbPlaceHolder
  3
AutoCAD 2000
 90
0
 91
1
280
0
281
0
  0
CLASS
  1
LAYOUT
  2
AcDbLayout
  3
AutoCAD 2000
 90
0
 91
0
280
0
281
0
  0
ENDSEC
  0
SECTION
  2
TABLES
  0
TABLE
  2
VPORT
  5
8
100
AcDbSymbolTable
 70
2
  0
VPORT
  5
1F4
100
AcDbSymbolTableRecord
100
AcDbViewportTableRecord
  2
*ACTIVE
 70
0
 10
0.0
 20
0.0
 11
1.0
 21
1.0
 12
11.0
 22
8.5
 13
0.0
 23
0.0
 14
1.0
 24
1.0
 15
0.0
 25
0.0
 16
0.0
 26
0.0
 36
1.0
 17
0.0
 27
0.0
 37
0.0
 40
17.0
 41
1.2941176471
 42
50.0
 43
0.0
 44
0.0
 50
0.0
 51
0.0
 71
0
 72
100
 73
1
 74
1
 75
0
 76
0
 77
0
 78
0
  0
ENDTAB
  0
TABLE
  2
LTYPE
  5
5
100
AcDbSymbolTable
 70
6
  0
LTYPE
  5
14
100
AcDbSymbolTableRecord
100
AcDbLinetypeTableRecord
  2
BYBLOCK
 70
0
  3

 72
65
 73
0
 40
0.0
  0
LTYPE
  5
15
100
AcDbSymbolTableRecord
100
AcDbLinetypeTableRecord
  2
BYLAYER
 70
0
  3

 72
65
 73
0
 40
0.0
  0
LTYPE
  5
16
100
AcDbSymbolTableRecord
100
AcDbLinetypeTableRecord
  2
CONTINUOUS
 70
64
  3
Solid line
 72
65
 73
0
 40
0.0
  0
LTYPE
  5
1F5
100
AcDbSymbolTableRecord
100
AcDbLinetypeTableRecord
  2
CENTER
 70
64
  3
____ _ ____ _ ____ _ ____ _ ____ _ ____ _ ____
 72
65
 73
4
 40
0.6
 49
0.375
 74
0
 49
-0.075
 74
0
 49
0.075
 74
0
 49
-0.075
 74
0
  0
LTYPE
  5
1F6
100
AcDbSymbolTableRecord
100
AcDbLinetypeTableRecord
  2
HIDDEN
 70
64
  3
- - - - - - - - - - - - - - - - - - - -
 72
65
 73
2
 40
0.2
 49
0.1
 74
0
 49
-0.1
 74
0
  0
LTYPE
  5
1F7
100
AcDbSymbolTableRecord
100
AcDbLinetypeTableRecord
  2
PHANTOM
 70
64
  3
_____ _ _ _____ _ _ _____ _ _ _____
 72
65
 73
6
 40
0.8
 49
0.45
 74
0
 49
-0.05
 74
0
 49
0.1
 74
0
 49
-0.05
 74
0
 49
0.1
 74
0
 49
-0.05
 74
0
  0
LTYPE
  5
1F8
100
AcDbSymbolTableRecord
100
AcDbLinetypeTableRecord
  2
DOT
 70
64
  3
. . . . . . . . . . . . . . . . . . . .
 72
65
 73
2
 40
0.2
 49
0.1
 74
0
 49
-0.1
 74
0
  0
LTYPE
  5
1F9
100
AcDbSymbolTableRecord
100
AcDbLinetypeTableRecord
  2
DASHED
 70
64
  3
- - - - - - - - - - - - - - - - - - - -
 72
65
 73
2
 40
0.2
 49
0.1
 74
0
 49
-0.1
 74
0
  0
ENDTAB
  0
TABLE
  2
LAYER
  5
2
100
AcDbSymbolTable
 70
36
  0
LAYER
  5
10
100
AcDbSymbolTableRecord
100
AcDbLayerTableRecord
  2
0
 70
0
 62
7
  6
CONTINUOUS
370
-3
390
F
  0
LAYER
  5
1FA
100
AcDbSymbolTableRecord
100
AcDbLayerTableRecord
  2
DEFAULT_1
 70
0
 62
7
  6
CENTER
370
-3
390
F
  0
LAYER
  5
1FB
100
AcDbSymbolTableRecord
100
AcDbLayerTableRecord
  2
DEFAULT_2
 70
0
 62
8
  6
HIDDEN
370
-3
390
F
  0
LAYER
  5
1FC
100
AcDbSymbolTableRecord
100
AcDbLayerTableRecord
  2
DEFAULT_3
 70
0
 62
7
  6
PHANTOM
370
-3
390
F
  0
LAYER
  5
1FD
100
AcDbSymbolTableRecord
100
AcDbLayerTableRecord
  2
ALL_FEATURES
 70
0
 62
7
  6
CONTINUOUS
370
-3
390
F
  0
LAYER
  5
1FE
100
AcDbSymbolTableRecord
100
AcDbLayerTableRecord
  2
AXES_FEATURES
 70
0
 62
7
  6
CONTINUOUS
370
-3
390
F
  0
LAYER
  5
1FF
100
AcDbSymbolTableRecord
100
AcDbLayerTableRecord
  2
DIMENSIONS
 70
0
 62
7
  6
CONTINUOUS
370
-3
390
F
  0
ENDTAB
  0
TABLE
  2
STYLE
  5
3
100
AcDbSymbolTable
 70
1
  0
STYLE
  5
11
100
AcDbSymbolTableRecord
100
AcDbTextStyleTableRecord
  2
STANDARD
 70
0
 40
0.0
 41
0.8
 50
0.0
 71
0
 42
0.2
  3
txt
  4

  0
STYLE
  5
200
100
AcDbSymbolTableRecord
100
AcDbTextStyleTableRecord
  2
TEXTSTYLE_1
 70
0
 40
0.0
 41
0.8
 50
0.0
 71
0
 42
0.2
  3
gdt
  4

  0
ENDTAB
  0
TABLE
  2
VIEW
  5
6
100
AcDbSymbolTable
 70
0
  0
ENDTAB
  0
TABLE
  2
UCS
  5
7
100
AcDbSymbolTable
 70
0
  0
ENDTAB
  0
TABLE
  2
APPID
  5
9
100
AcDbSymbolTable
 70
1
  0
APPID
  5
201
100
AcDbSymbolTableRecord
100
AcDbRegAppTableRecord
  2
ACAD
 70
0
  0
ENDTAB
  0
TABLE
  2
BLOCK_RECORD
  5
1
100
AcDbSymbolTable
 70
0
  0
BLOCK_RECORD
  5
202
100
AcDbSymbolTableRecord
100
AcDbBlockTableRecord
  2
*Model_Space
  0
BLOCK_RECORD
  5
203
100
AcDbSymbolTableRecord
100
AcDbBlockTableRecord
  2
*Paper_Space
  0
BLOCK_RECORD
  5
204
100
AcDbSymbolTableRecord
100
AcDbBlockTableRecord
  2
_FILLED
  0
ENDTAB
  0
TABLE
  2
DIMSTYLE
  5
A
100
AcDbSymbolTable
 70
1
100
AcDbDimStyleTable
 71
0
  0
DIMSTYLE
105
205
100
AcDbSymbolTableRecord
100
AcDbDimStyleTableRecord
  2
STANDARD
 70
0
  3

  4

 40
1.0
 41
0.1
 42
0.0625
 43
0.38
 44
0.125
 45
0.0
 46
0.0
 47
0.001
 48
0.001
140
0.08
141
0.09
142
0.0
143
25.4
144
1.0
145
0.0
146
1.0
147
0.09
 71
1.0
 72
0.0
 73
1
 74
1
 75
0
 76
0
 77
0
 78
4
 79
1
170
1
171
2
172
0
173
0
174
0
175
0
176
0
177
0
178
0
270
2
179
3
271
3
272
3
273
2
274
2
275
0
280
0
281
0
282
0
283
1
284
4
285
0
286
0
287
3
288
0
340
11
278
46
341
204
342
204
343
204
344
204
  0
ENDTAB
  0
ENDSEC
  0
SECTION
  2
BLOCKS
  0
BLOCK
  5
20
100
AcDbEntity
  8
0
100
AcDbBlockBegin
  2
*Model_Space
 70
0
 10
0.0
 20
0.0
 30
0.0
  3
*Model_Space
  1

  0
ENDBLK
  5
21
100
AcDbEntity
  8
0
100
AcDbBlockEnd
  0
BLOCK
  5
1C
100
AcDbEntity
  8
0
100
AcDbBlockBegin
  2
*Paper_Space
 70
0
 10
0.0
 20
0.0
 30
0.0
  3
*Paper_Space
  1

  0
ENDBLK
  5
1D
100
AcDbEntity
  8
0
100
AcDbBlockEnd
  0
BLOCK
  5
206
100
AcDbEntity
  8
0
100
AcDbBlockBegin
  2
_FILLED
 70
64
 10
0.0
 20
0.0
  3
_FILLED
  1

  0
SOLID
  5
207
100
AcDbEntity
  8
0
  6
BYBLOCK
 62
0
100
AcDbTrace
 10
0.0
 20
0.0
 11
-1.0
 21
0.2
 12
-1.0
 22
-0.2
 13
-1.0
 23
-0.2
  0
ENDBLK
  5
208
100
AcDbEntity
  8
0
  6
BYBLOCK
 62
0
100
AcDbBlockEnd
  0
ENDSEC
  0
SECTION
  2
ENTITIES
  0
LINE
  5
209
100
AcDbEntity
  8
0
100
AcDbLine
 62
7
  6
CONTINUOUS
 10
-2.8150165109
 20
13.1070255914
 11
-2.8150165109
 21
12.7670262447
  0
LINE
  5
20A
100
AcDbEntity
  8
0
100
AcDbLine
 62
7
  6
CONTINUOUS
 10
-2.8050165109
 20
12.757025918
 11
-2.8050165109
 21
13.117025918
  0
LINE
  5
20B
100
AcDbEntity
  8
0
100
AcDbLine
 62
7
  6
CONTINUOUS
 10
-2.7490165109
 20
13.2090255425
 11
-2.7490165109
 21
12.6650262936
  0
LINE
  5
20C
100
AcDbEntity
  8
0
100
AcDbLine
 62
7
  6
CONTINUOUS
 10
-2.7250165109
 20
13.220525522
 11
-2.7250165109
 21
12.653525918
  0
LINE
  5
20D
100
AcDbEntity
  8
0
100
AcDbLine
 62
9
  6
CONTINUOUS
 10
-2.6780165109
 20
13.267525918
 11
-2.6780165109
 21
12.606525918
  0
LINE
  5
20E
100
AcDbEntity
  8
0
100
AcDbLine
 62
7
  6
CONTINUOUS
 10
-2.6070165109
 20
12.606525918
 11
-2.6070165109
 21
13.267525918
  0
LINE
  5
20F
100
AcDbEntity
  8
0
100
AcDbLine
 62
9
  6
CONTINUOUS
 10
-2.1030163288
 20
13.31707113
 11
-2.1030163288
 21
12.556980706
  0
LINE
  5
210
100
AcDbEntity
  8
0
100
AcDbLine
 62
7
  6
CONTINUOUS
 10
-1.6950165109
 20
13.289525918
 11
-1.6950165109
 21
12.584525918
  0
LINE
  5
211
100
AcDbEntity
  8
0
100
AcDbLine
 62
7
  6
CONTINUOUS
 10
-1.6450165109
 20
13.289525918
 11
-1.6450165109
 21
12.584525918
  0
LINE
  5
212
100
AcDbEntity
  8
0
100
AcDbLine
 62
9
  6
CONTINUOUS
 10
-1.6173780905
 20
13.3261874358
 11
-1.6173780905
 21
12.5478644002
  0
LINE
  5
213
100
AcDbEntity
  8
0
100
AcDbLine
 62
7
  6
CONTINUOUS
 10
-2.8150165109
 20
13.107025918
 11
-2.8050165109
 21
13.117025918
  0
LINE
  5
214
100
AcDbEntity
  8
0
100
AcDbLine
 62
7
  6
CONTINUOUS
 10
-1.3350165109
 20
13.407025918
 11
-1.3350165109
 21
12.467025918
  0
LINE
  5
215
100
AcDbEntity
  8
0
100
AcDbLine
 62
9
  6
CONTINUOUS
 10
-1.3100165109
 20
12.467025918
 11
-1.3100165109
 21
13.407025918
  0
LINE
  5
216
100
AcDbEntity
  8
0
100
AcDbLine
 62
7
  6
CONTINUOUS
 10
-1.2850165109
 20
12.4920262567
 11
-1.2850165109
 21
13.3820255793
  0
LINE
  5
217
100
AcDbEntity
  8
0
100
AcDbLine
 62
7
  6
CONTINUOUS
 10
-1.2650165109
 20
13.3867377646
 11
-1.2650165109
 21
12.4873126204
  0
LINE
  5
218
100
AcDbEntity
  8
0
100
AcDbLine
 62
9
  6
CONTINUOUS
 10
-1.2378392149
 20
13.4054070067
 11
-1.2378392149
 21
12.4686448294
  0
LINE
  5
219
100
AcDbEntity
  8
0
100
AcDbLine
 62
7
  6
CONTINUOUS
 10
-0.8775165109
 20
11.8461671053
 11
-0.8775165109
 21
12.097025918
  0
LINE
  5
21A
100
AcDbEntity
  8
0
100
AcDbLine
 62
9
  6
CONTINUOUS
 10
-0.8572496284
 20
13.4565669114
 11
-0.8572496284
 21
12.5547928005
  0
LINE
  5
21B
100
AcDbEntity
  8
0
100
AcDbLine
 62
7
  6
CONTINUOUS
 10
-0.8520165109
 20
12.097025918
 11
-0.8520165109
 21
12.147025918
  0
LINE
  5
21C
100
AcDbEntity
  8
0
100
AcDbLine
 62
7
  6
CONTINUOUS
 10
-0.0980165109
 20
12.097025918
 11
-0.0980165109
 21
12.147025918
  0
LINE
  5
21D
100
AcDbEntity
  8
0
100
AcDbLine
 62
9
  6
CONTINUOUS
 10
-0.0934080728
 20
13.457025918
 11
-0.0934080728
 21
12.5547913408
  0
LINE
  5
21E
100
AcDbEntity
  8
0
100
AcDbLine
 62
7
  6
CONTINUOUS
 10
-0.0725165109
 20
11.8461671053
 11
-0.0725165109
 21
12.097025918
  0
LINE
  5
21F
100
AcDbEntity
  8
0
100
AcDbLine
 62
9
  6
CONTINUOUS
 10
-0.0111197728
 20
13.4370623711
 11
-0.0111197728
 21
12.5183570024
  0
LINE
  5
220
100
AcDbEntity
  8
0
100
AcDbLine
 62
9
  6
CONTINUOUS
 10
0.2943190576
 20
12.3886127067
 11
0.2943190576
 21
13.4854391293
  0
LINE
  5
221
100
AcDbEntity
  8
0
100
AcDbLine
 62
9
  6
CONTINUOUS
 10
0.3171204829
 20
12.4047631998
 11
0.3171204829
 21
13.4692886362
  0
LWPOLYLINE
  5
222
100
AcDbEntity
  8
0
100
AcDbPolyline
 62
7
  6
CONTINUOUS
 90
8
 70
0
 10
-0.0316508584
 20
12.3538429999
 10
-0.0287927886
 20
12.3689707604
 10
-0.0208957662
 20
12.387247348
 10
-0.0087225541
 20
12.4030156671
 10
0.0069696893
 20
12.4152880546
 10
0.025206684
 20
12.423302638
 10
0.0448479229
 20
12.426562726
 10
0.0605399132
 20
12.4256409024
  0
LINE
  5
223
100
AcDbEntity
  8
0
100
AcDbLine
 62
9
  6
CONTINUOUS
 10
0.3822035571
 20
12.4465279733
 11
0.3822035571
 21
13.4275238627
  0
LINE
  5
224
100
AcDbEntity
  8
0
100
AcDbLine
 62
9
  6
CONTINUOUS
 10
1.2677634211
 20
12.4465279733
 11
1.2677634211
 21
13.4275238627
  0
LINE
  5
225
100
AcDbEntity
  8
0
100
AcDbLine
 62
9
  6
CONTINUOUS
 10
1.350207163
 20
13.4724835082
 11
1.350207163
 21
12.4015683279
  0
LINE
  5
226
100
AcDbEntity
  8
0
100
AcDbLine
 62
9
  6
CONTINUOUS
 10
1.3822810347
 20
13.4829303604
 11
1.3822810347
 21
12.3911214756
  0
LINE
  5
227
100
AcDbEntity
  8
0
100
AcDbLine
 62
7
  6
CONTINUOUS
 10
1.4620678047
 20
13.4172760796
 11
1.4620678047
 21
12.4567757564
  0
LINE
  5
228
100
AcDbEntity
  8
0
100
AcDbLine
 62
9
  6
CONTINUOUS
 10
1.5349834891
 20
12.4567757564
 11
1.5349834891
 21
13.4172760796
  0
LINE
  5
229
100
AcDbEntity
  8
0
100
AcDbLine
 62
7
  6
CONTINUOUS
 10
1.5549834891
 20
12.4767757564
 11
1.5549834891
 21
13.3972760796
  0
LINE
  5
22A
100
AcDbEntity
  8
0
100
AcDbLine
 62
7
  6
CONTINUOUS
 10
1.4620678047
 20
12.4567757564
 11
1.3822810347
 21
12.3911214756
  0
LINE
  5
22B
100
AcDbEntity
  8
0
100
AcDbLine
 62
7
  6
CONTINUOUS
 10
-1.6173780905
 20
13.3261874358
 11
-1.3350165109
 21
13.407025918
  0
LINE
  5
22C
100
AcDbEntity
  8
0
100
AcDbLine
 62
7
  6
CONTINUOUS
 10
-2.8150165109
 20
12.767025918
 11
-2.8050165109
 21
12.757025918
  0
LINE
  5
22D
100
AcDbEntity
  8
0
100
AcDbLine
 62
9
  6
CONTINUOUS
 10
18.1434834891
 20
4.7932666966
 11
18.4904834891
 21
4.7932666966
  0
LINE
  5
22E
100
AcDbEntity
  8
0
100
AcDbLine
 62
9
  6
CONTINUOUS
 10
18.1619834891
 20
4.8402666966
 11
18.4719834891
 21
4.8402666966
  0
LINE
  5
22F
100
AcDbEntity
  8
0
100
AcDbLine
 62
7
  6
CONTINUOUS
 10
18.1194834891
 20
4.9332666966
 11
18.5144834891
 21
4.9332666966
  0
LINE
  5
230
100
AcDbEntity
  8
0
100
AcDbLine
 62
7
  6
CONTINUOUS
 10
18.1119834891
 20
4.9632666966
 11
18.5219834891
 21
4.9632666966
  0
LINE
  5
231
100
AcDbEntity
  8
0
100
AcDbLine
 62
7
  6
CONTINUOUS
 10
18.1019834891
 20
5.0612666966
 11
18.5319834891
 21
5.0612666966
  0
LINE
  5
232
100
AcDbEntity
  8
0
100
AcDbLine
 62
7
  6
CONTINUOUS
 10
18.5269834891
 20
5.1532666966
 11
18.1069834891
 21
5.1532666966
  0
LINE
  5
233
100
AcDbEntity
  8
0
100
AcDbLine
 62
7
  6
CONTINUOUS
 10
19.0588783662
 20
7.6391111355
 11
19.5819834891
 21
7.7306923481
  0
LINE
  5
234
100
AcDbEntity
  8
0
100
AcDbLine
 62
7
  6
CONTINUOUS
 10
24.1449834891
 20
5.765315272
 11
24.2249834891
 21
5.765315272
  0
LINE
  5
235
100
AcDbEntity
  8
0
100
AcDbLine
 62
7
  6
CONTINUOUS
 10
23.8649834891
 20
6.080315272
 11
23.8749834891
 21
6.080315272
  0
LINE
  5
236
100
AcDbEntity
  8
0
100
AcDbLine
 62
9
  6
CONTINUOUS
 10
9.8330874437
 20
10.9011771908
 11
9.8370523833
 21
10.904789036
  0
LINE
  5
237
100
AcDbEntity
  8
0
100
AcDbLine
 62
7
  6
CONTINUOUS
 10
10.6792978533
 20
12.0743344421
 11
10.6499834891
 21
12.049789036
  0
LINE
  5
238
100
AcDbEntity
  8
0
100
AcDbLine
 62
7
  6
CONTINUOUS
 10
9.6206691407
 20
10.8602436431
 11
9.6499834891
 21
10.884789036
  0
LINE
  5
239
100
AcDbEntity
  8
0
100
AcDbLine
 62
7
  6
CONTINUOUS
 10
9.6562393885
 20
10.904789036
 11
9.6499834891
 21
10.9011771908
  0
LINE
  5
23A
100
AcDbEntity
  8
0
100
AcDbLine
 62
7
  6
CONTINUOUS
 10
22.6649834891
 20
6.684315272
 11
23.5349834891
 21
6.684315272
  0
LINE
  5
23B
100
AcDbEntity
  8
0
100
AcDbLine
 62
7
  6
CONTINUOUS
 10
18.1419834891
 20
6.7258070297
 11
18.4919834891
 21
6.7258070297
  0
LINE
  5
23C
100
AcDbEntity
  8
0
100
AcDbLine
 62
7
  6
CONTINUOUS
 10
18.4919831644
 20
6.8032666966
 11
18.1419838139
 21
6.8032666966
  0
LINE
  5
23D
100
AcDbEntity
  8
0
100
AcDbLine
 62
7
  6
CONTINUOUS
 10
18.9499834891
 20
6.872815272
 11
18.9999834891
 21
6.872815272
  0
LINE
  5
23E
100
AcDbEntity
  8
0
100
AcDbLine
 62
7
  6
CONTINUOUS
 10
17.9669834891
 20
6.894815272
 11
18.0379834891
 21
6.894815272
  0
LINE
  5
23F
100
AcDbEntity
  8
0
100
AcDbLine
 62
7
  6
CONTINUOUS
 10
17.8959834891
 20
6.953315272
 11
17.9199834891
 21
6.953315272
  0
LINE
  5
240
100
AcDbEntity
  8
0
100
AcDbLine
 62
7
  6
CONTINUOUS
 10
19.0199834891
 20
7.005315272
 11
18.9999834891
 21
7.005315272
  0
LINE
  5
241
100
AcDbEntity
  8
0
100
AcDbLine
 62
7
  6
CONTINUOUS
 10
1.4620678047
 20
13.4172760796
 11
1.3822810347
 21
13.4829303604
  0
LINE
  5
242
100
AcDbEntity
  8
0
100
AcDbLine
 62
7
  6
CONTINUOUS
 10
9.0899834891
 20
12.487025918
 11
9.0899834891
 21
13.387025918
  0
LINE
  5
243
100
AcDbEntity
  8
0
100
AcDbLine
 62
9
  6
CONTINUOUS
 10
9.1099834891
 20
13.407025918
 11
9.1099834891
 21
12.467025918
  0
LINE
  5
244
100
AcDbEntity
  8
0
100
AcDbLine
 62
7
  6
CONTINUOUS
 10
9.4999834891
 20
11.1666148108
 11
9.4999834891
 21
11.6241105919
  0
LINE
  5
245
100
AcDbEntity
  8
0
100
AcDbLine
 62
7
  6
CONTINUOUS
 10
9.5016944123
 20
11.6241105919
 11
9.5016944123
 21
11.1666148108
  0
LINE
  5
246
100
AcDbEntity
  8
0
100
AcDbLine
 62
7
  6
CONTINUOUS
 10
9.6499834891
 20
10.884789036
 11
9.6499834891
 21
10.9011771908
  0
LINE
  5
247
100
AcDbEntity
  8
0
100
AcDbLine
 62
7
  6
CONTINUOUS
 10
9.6799834891
 20
12.029789036
 11
9.6799834891
 21
12.049789036
  0
LINE
  5
248
100
AcDbEntity
  8
0
100
AcDbLine
 62
7
  6
CONTINUOUS
 10
9.7850228436
 20
11.1666148108
 11
9.7850228436
 21
11.6241105919
  0
LINE
  5
249
100
AcDbEntity
  8
0
100
AcDbLine
 62
7
  6
CONTINUOUS
 10
9.8666550578
 20
11.6241105919
 11
9.8666550578
 21
11.1666148108
  0
LINE
  5
24A
100
AcDbEntity
  8
0
100
AcDbLine
 62
7
  6
CONTINUOUS
 10
19.0199834891
 20
7.445315272
 11
18.9999834891
 21
7.445315272
  0
LINE
  5
24B
100
AcDbEntity
  8
0
100
AcDbLine
 62
7
  6
CONTINUOUS
 10
17.8959834891
 20
7.497315272
 11
17.9199834891
 21
7.497315272
  0
LINE
  5
24C
100
AcDbEntity
  8
0
100
AcDbLine
 62
7
  6
CONTINUOUS
 10
17.9669834891
 20
7.555815272
 11
18.0379834891
 21
7.555815272
  0
LINE
  5
24D
100
AcDbEntity
  8
0
100
AcDbLine
 62
7
  6
CONTINUOUS
 10
18.9499834891
 20
7.577815272
 11
18.9999834891
 21
7.577815272
  0
LINE
  5
24E
100
AcDbEntity
  8
0
100
AcDbLine
 62
7
  6
CONTINUOUS
 10
22.6649834891
 20
7.766315272
 11
23.5349834891
 21
7.766315272
  0
LINE
  5
24F
100
AcDbEntity
  8
0
100
AcDbLine
 62
7
  6
CONTINUOUS
 10
20.177983788
 20
7.965315272
 11
21.2579831902
 21
7.965315272
  0
LINE
  5
250
100
AcDbEntity
  8
0
100
AcDbLine
 62
7
  6
CONTINUOUS
 10
10.4333119205
 20
11.1666148108
 11
10.4333119205
 21
11.6241105919
  0
LINE
  5
251
100
AcDbEntity
  8
0
100
AcDbLine
 62
7
  6
CONTINUOUS
 10
10.5149441347
 20
11.6241105919
 11
10.5149441347
 21
11.1666148108
  0
LINE
  5
252
100
AcDbEntity
  8
0
100
AcDbLine
 62
7
  6
CONTINUOUS
 10
10.6199834891
 20
12.029789036
 11
10.6199834891
 21
12.049789036
  0
LINE
  5
253
100
AcDbEntity
  8
0
100
AcDbLine
 62
7
  6
CONTINUOUS
 10
10.6499834891
 20
10.884789036
 11
10.6499834891
 21
10.904789036
  0
LINE
  5
254
100
AcDbEntity
  8
0
100
AcDbLine
 62
7
  6
CONTINUOUS
 10
10.798272566
 20
11.1666148108
 11
10.798272566
 21
11.6241105919
  0
LINE
  5
255
100
AcDbEntity
  8
0
100
AcDbLine
 62
7
  6
CONTINUOUS
 10
10.7999834891
 20
11.1666148108
 11
10.7999834891
 21
11.6241105919
  0
LINE
  5
256
100
AcDbEntity
  8
0
100
AcDbLine
 62
7
  6
CONTINUOUS
 10
20.0679834891
 20
8.2271410467
 11
20.0696944123
 21
8.2271410467
  0
LINE
  5
257
100
AcDbEntity
  8
0
100
AcDbLine
 62
7
  6
CONTINUOUS
 10
20.3530228436
 20
8.2271410467
 11
20.4346550578
 21
8.2271410467
  0
LINE
  5
258
100
AcDbEntity
  8
0
100
AcDbLine
 62
7
  6
CONTINUOUS
 10
21.0013119205
 20
8.2271410467
 11
21.0829441347
 21
8.2271410467
  0
LINE
  5
259
100
AcDbEntity
  8
0
100
AcDbLine
 62
7
  6
CONTINUOUS
 10
21.366272566
 20
8.2271410467
 11
21.3679834891
 21
8.2271410467
  0
LINE
  5
25A
100
AcDbEntity
  8
0
100
AcDbLine
 62
7
  6
CONTINUOUS
 10
23.8649834891
 20
8.370315272
 11
23.8749834891
 21
8.370315272
  0
LINE
  5
25B
100
AcDbEntity
  8
0
100
AcDbLine
 62
7
  6
CONTINUOUS
 10
21.3679834891
 20
8.6846368279
 11
21.366272566
 21
8.6846368279
  0
LINE
  5
25C
100
AcDbEntity
  8
0
100
AcDbLine
 62
7
  6
CONTINUOUS
 10
21.0829441347
 20
8.6846368279
 11
21.0013119205
 21
8.6846368279
  0
LINE
  5
25D
100
AcDbEntity
  8
0
100
AcDbLine
 62
7
  6
CONTINUOUS
 10
20.4346550578
 20
8.6846368279
 11
20.3530228436
 21
8.6846368279
  0
LINE
  5
25E
100
AcDbEntity
  8
0
100
AcDbLine
 62
7
  6
CONTINUOUS
 10
20.0696944123
 20
8.6846368279
 11
20.0679834891
 21
8.6846368279
  0
LINE
  5
25F
100
AcDbEntity
  8
0
100
AcDbLine
 62
7
  6
CONTINUOUS
 10
24.1449834891
 20
8.685315272
 11
24.2249834891
 21
8.685315272
  0
LINE
  5
260
100
AcDbEntity
  8
0
100
AcDbLine
 62
7
  6
CONTINUOUS
 10
21.2229770098
 20
9.090315272
 11
20.2129899685
 21
9.090315272
  0
LINE
  5
261
100
AcDbEntity
  8
0
100
AcDbLine
 62
7
  6
CONTINUOUS
 10
20.2179834891
 20
9.110315272
 11
21.2179834891
 21
9.110315272
  0
LINE
  5
262
100
AcDbEntity
  8
0
100
AcDbLine
 62
9
  6
CONTINUOUS
 10
21.2472978533
 20
9.1348606781
 11
20.188669125
 21
9.1348606781
  0
LINE
  5
263
100
AcDbEntity
  8
0
100
AcDbLine
 62
7
  6
CONTINUOUS
 10
19.0588783662
 20
6.8115194084
 11
19.5819834891
 21
6.7199381959
  0
LINE
  5
264
100
AcDbEntity
  8
0
100
AcDbLine
 62
7
  6
CONTINUOUS
 10
-1.6173780905
 20
12.5478644002
 11
-1.3350165109
 21
12.467025918
  0
LWPOLYLINE
  5
265
100
AcDbEntity
  8
0
100
AcDbPolyline
 62
7
  6
CONTINUOUS
 90
6
 70
0
 10
-0.9870210542
 20
12.4806363871
 10
-0.9745640949
 20
12.4760238871
 10
-0.9589381175
 20
12.4663844549
 10
-0.9459218508
 20
12.4534371083
 10
-0.9361995649
 20
12.4378624584
 10
-0.9314060421
 20
12.4250213749
  0
LINE
  5
266
100
AcDbEntity
  8
0
100
AcDbLine
 62
7
  6
CONTINUOUS
 10
11.2079834891
 20
9.527552154
 11
11.2079834891
 21
10.467552154
  0
LINE
  5
267
100
AcDbEntity
  8
0
100
AcDbLine
 62
7
  6
CONTINUOUS
 10
10.1343973515
 20
9.2082946345
 11
10.1655696267
 21
9.2082946345
  0
LINE
  5
268
100
AcDbEntity
  8
0
100
AcDbLine
 62
9
  6
CONTINUOUS
 10
21.250199515
 20
9.2089027809
 11
20.1857674632
 21
9.2089027809
  0
LINE
  5
269
100
AcDbEntity
  8
0
100
AcDbLine
 62
9
  6
CONTINUOUS
 10
9.7808066668
 20
9.2354949728
 11
10.5191603114
 21
9.2354949728
  0
LINE
  5
26A
100
AcDbEntity
  8
0
100
AcDbLine
 62
7
  6
CONTINUOUS
 10
9.7177410304
 20
9.294789036
 11
10.5822261581
 21
9.294789036
  0
LINE
  5
26B
100
AcDbEntity
  8
0
100
AcDbLine
 62
9
  6
CONTINUOUS
 10
21.2275197813
 20
9.3178669412
 11
20.208447197
 21
9.3178669412
  0
LINE
  5
26C
100
AcDbEntity
  8
0
100
AcDbLine
 62
9
  6
CONTINUOUS
 10
10.6758076085
 20
9.3595397304
 11
9.6241594469
 21
9.3595395256
  0
LINE
  5
26D
100
AcDbEntity
  8
0
100
AcDbLine
 62
7
  6
CONTINUOUS
 10
20.0630188707
 20
9.527552154
 11
19.6779834891
 21
9.527552154
  0
LINE
  5
26E
100
AcDbEntity
  8
0
100
AcDbLine
 62
7
  6
CONTINUOUS
 10
10.8049481076
 20
9.527552154
 11
11.2079834891
 21
9.527552154
  0
LINE
  5
26F
100
AcDbEntity
  8
0
100
AcDbLine
 62
7
  6
CONTINUOUS
 10
19.6579834891
 20
9.622552154
 11
11.2079834891
 21
9.622552154
  0
LINE
  5
270
100
AcDbEntity
  8
0
100
AcDbLine
 62
7
  6
CONTINUOUS
 10
19.6579834891
 20
10.372552154
 11
11.2079834891
 21
10.372552154
  0
LINE
  5
271
100
AcDbEntity
  8
0
100
AcDbLine
 62
7
  6
CONTINUOUS
 10
20.0630188707
 20
10.467552154
 11
19.6779834891
 21
10.467552154
  0
LINE
  5
272
100
AcDbEntity
  8
0
100
AcDbLine
 62
7
  6
CONTINUOUS
 10
10.8049481076
 20
10.467552154
 11
11.2079834891
 21
10.467552154
  0
LINE
  5
273
100
AcDbEntity
  8
0
100
AcDbLine
 62
9
  6
CONTINUOUS
 10
-2.1545165109
 20
10.5049773426
 11
-2.5015165109
 21
10.5049773426
  0
LINE
  5
274
100
AcDbEntity
  8
0
100
AcDbLine
 62
9
  6
CONTINUOUS
 10
-2.1730165109
 20
10.5519773426
 11
-2.4830165109
 21
10.5519773426
  0
LINE
  5
275
100
AcDbEntity
  8
0
100
AcDbLine
 62
9
  6
CONTINUOUS
 10
20.1921593698
 20
10.6355645775
 11
21.2438076085
 21
10.6355645775
  0
LINE
  5
276
100
AcDbEntity
  8
0
100
AcDbLine
 62
7
  6
CONTINUOUS
 10
-2.1305165109
 20
10.6449773426
 11
-2.5255165109
 21
10.6449773426
  0
LINE
  5
277
100
AcDbEntity
  8
0
100
AcDbLine
 62
7
  6
CONTINUOUS
 10
-2.1230165109
 20
10.6749773426
 11
-2.5330165109
 21
10.6749773426
  0
LINE
  5
278
100
AcDbEntity
  8
0
100
AcDbLine
 62
9
  6
CONTINUOUS
 10
9.640447197
 20
10.6772373668
 11
10.6595197813
 21
10.6772373668
  0
LINE
  5
279
100
AcDbEntity
  8
0
100
AcDbLine
 62
7
  6
CONTINUOUS
 10
21.1502261653
 20
10.700315272
 11
20.2857408129
 21
10.700315272
  0
LINE
  5
27A
100
AcDbEntity
  8
0
100
AcDbLine
 62
9
  6
CONTINUOUS
 10
21.0871642282
 20
10.7596087289
 11
20.3488027501
 21
10.7596087289
  0
LINE
  5
27B
100
AcDbEntity
  8
0
100
AcDbLine
 62
7
  6
CONTINUOUS
 10
-2.1130165109
 20
10.7729773426
 11
-2.5430165109
 21
10.7729773426
  0
LINE
  5
27C
100
AcDbEntity
  8
0
100
AcDbLine
 62
9
  6
CONTINUOUS
 10
9.6177674725
 20
10.786201518
 11
10.6821995057
 21
10.786201518
  0
LINE
  5
27D
100
AcDbEntity
  8
0
100
AcDbLine
 62
7
  6
CONTINUOUS
 10
20.7337057759
 20
10.7868106383
 11
20.7022612024
 21
10.7868106383
  0
LINE
  5
27E
100
AcDbEntity
  8
0
100
AcDbLine
 62
9
  6
CONTINUOUS
 10
9.6206691407
 20
10.8602436431
 11
10.6792978376
 21
10.8602436431
  0
LINE
  5
27F
100
AcDbEntity
  8
0
100
AcDbLine
 62
7
  6
CONTINUOUS
 10
-2.1180165109
 20
10.8649773426
 11
-2.5380165109
 21
10.8649773426
  0
LINE
  5
280
100
AcDbEntity
  8
0
100
AcDbLine
 62
7
  6
CONTINUOUS
 10
9.6499834891
 20
10.884789036
 11
10.6499834891
 21
10.884789036
  0
LINE
  5
281
100
AcDbEntity
  8
0
100
AcDbLine
 62
7
  6
CONTINUOUS
 10
9.8330874437
 20
10.9011771908
 11
9.6499834891
 21
10.9011771908
  0
LINE
  5
282
100
AcDbEntity
  8
0
100
AcDbLine
 62
7
  6
CONTINUOUS
 10
9.609983788
 20
10.904789036
 11
10.6899831902
 21
10.904789036
  0
LINE
  5
283
100
AcDbEntity
  8
0
100
AcDbLine
 62
7
  6
CONTINUOUS
 10
0.0605397252
 20
12.4256397155
 11
0.2943190576
 21
12.3886127067
  0
LINE
  5
284
100
AcDbEntity
  8
0
100
AcDbLine
 62
7
  6
CONTINUOUS
 10
10.6792978376
 20
10.8602436431
 11
10.6499834891
 21
10.884789036
  0
LINE
  5
285
100
AcDbEntity
  8
0
100
AcDbLine
 62
7
  6
CONTINUOUS
 10
9.620669125
 20
12.0743344421
 11
9.6499834891
 21
12.049789036
  0
LINE
  5
286
100
AcDbEntity
  8
0
100
AcDbLine
 62
7
  6
CONTINUOUS
 10
9.4999834891
 20
11.1666148108
 11
9.5016944123
 21
11.1666148108
  0
LINE
  5
287
100
AcDbEntity
  8
0
100
AcDbLine
 62
7
  6
CONTINUOUS
 10
9.7850228436
 20
11.1666148108
 11
9.8666550578
 21
11.1666148108
  0
LINE
  5
288
100
AcDbEntity
  8
0
100
AcDbLine
 62
7
  6
CONTINUOUS
 10
10.4333119205
 20
11.1666148108
 11
10.5149441347
 21
11.1666148108
  0
LINE
  5
289
100
AcDbEntity
  8
0
100
AcDbLine
 62
7
  6
CONTINUOUS
 10
10.798272566
 20
11.1666148108
 11
10.7999834891
 21
11.1666148108
  0
LINE
  5
28A
100
AcDbEntity
  8
0
100
AcDbLine
 62
7
  6
CONTINUOUS
 10
10.7999834891
 20
11.6241105919
 11
10.798272566
 21
11.6241105919
  0
LINE
  5
28B
100
AcDbEntity
  8
0
100
AcDbLine
 62
7
  6
CONTINUOUS
 10
10.5149441347
 20
11.6241105919
 11
10.4333119205
 21
11.6241105919
  0
LINE
  5
28C
100
AcDbEntity
  8
0
100
AcDbLine
 62
7
  6
CONTINUOUS
 10
9.8666550578
 20
11.6241105919
 11
9.7850228436
 21
11.6241105919
  0
LINE
  5
28D
100
AcDbEntity
  8
0
100
AcDbLine
 62
7
  6
CONTINUOUS
 10
9.5016944123
 20
11.6241105919
 11
9.4999834891
 21
11.6241105919
  0
LINE
  5
28E
100
AcDbEntity
  8
0
100
AcDbLine
 62
7
  6
CONTINUOUS
 10
-0.8712340194
 20
11.797025918
 11
-0.0787990023
 21
11.797025918
  0
LINE
  5
28F
100
AcDbEntity
  8
0
100
AcDbLine
 62
9
  6
CONTINUOUS
 10
-0.8775165109
 20
11.8461671053
 11
-0.0725165109
 21
11.8461671053
  0
LINE
  5
290
100
AcDbEntity
  8
0
100
AcDbLine
 62
7
  6
CONTINUOUS
 10
10.6549770098
 20
12.029789036
 11
9.6449899685
 21
12.029789036
  0
LINE
  5
291
100
AcDbEntity
  8
0
100
AcDbLine
 62
7
  6
CONTINUOUS
 10
9.6499834891
 20
12.049789036
 11
10.6499834891
 21
12.049789036
  0
LINE
  5
292
100
AcDbEntity
  8
0
100
AcDbLine
 62
9
  6
CONTINUOUS
 10
10.6792978533
 20
12.0743344421
 11
9.620669125
 21
12.0743344421
  0
LINE
  5
293
100
AcDbEntity
  8
0
100
AcDbLine
 62
7
  6
CONTINUOUS
 10
-0.0725200014
 20
12.097025918
 11
-0.8775130203
 21
12.097025918
  0
LINE
  5
294
100
AcDbEntity
  8
0
100
AcDbLine
 62
7
  6
CONTINUOUS
 10
-0.9247283575
 20
12.147025918
 11
-0.0253032133
 21
12.147025918
  0
LINE
  5
295
100
AcDbEntity
  8
0
100
AcDbLine
 62
9
  6
CONTINUOUS
 10
10.682199515
 20
12.1483765449
 11
9.6177674632
 21
12.1483765449
  0
LINE
  5
296
100
AcDbEntity
  8
0
100
AcDbLine
 62
9
  6
CONTINUOUS
 10
-0.9433975995
 20
12.174203214
 11
-0.0066354222
 21
12.174203214
  0
LINE
  5
297
100
AcDbEntity
  8
0
100
AcDbLine
 62
9
  6
CONTINUOUS
 10
10.6595197813
 20
12.2573407052
 11
9.640447197
 21
12.2573407052
  0
LINE
  5
298
100
AcDbEntity
  8
0
100
AcDbLine
 62
7
  6
CONTINUOUS
 10
-2.5030165109
 20
12.4375176757
 11
-2.1530165109
 21
12.4375176757
  0
LINE
  5
299
100
AcDbEntity
  8
0
100
AcDbLine
 62
7
  6
CONTINUOUS
 10
1.5349834891
 20
12.4567757564
 11
1.4620678047
 21
12.4567757564
  0
LINE
  5
29A
100
AcDbEntity
  8
0
100
AcDbLine
 62
7
  6
CONTINUOUS
 10
9.4950188707
 20
12.467025918
 11
9.1099834891
 21
12.467025918
  0
LINE
  5
29B
100
AcDbEntity
  8
0
100
AcDbLine
 62
7
  6
CONTINUOUS
 10
-1.3350165109
 20
12.467025918
 11
-1.3100165109
 21
12.467025918
  0
LINE
  5
29C
100
AcDbEntity
  8
0
100
AcDbLine
 62
7
  6
CONTINUOUS
 10
-2.1530168356
 20
12.5149773426
 11
-2.5030161861
 21
12.5149773426
  0
LINE
  5
29D
100
AcDbEntity
  8
0
100
AcDbLine
 62
9
  6
CONTINUOUS
 10
-0.0934080728
 20
12.5547913408
 11
-0.8572496284
 21
12.5547928005
  0
LINE
  5
29E
100
AcDbEntity
  8
0
100
AcDbLine
 62
7
  6
CONTINUOUS
 10
1.5549834891
 20
12.562025918
 11
9.0899834891
 21
12.562025918
  0
LINE
  5
29F
100
AcDbEntity
  8
0
100
AcDbLine
 62
7
  6
CONTINUOUS
 10
-1.6950165109
 20
12.584525918
 11
-1.6450165109
 21
12.584525918
  0
LINE
  5
2A0
100
AcDbEntity
  8
0
100
AcDbLine
 62
7
  6
CONTINUOUS
 10
-2.6780165109
 20
12.606525918
 11
-2.6070165109
 21
12.606525918
  0
LINE
  5
2A1
100
AcDbEntity
  8
0
100
AcDbLine
 62
7
  6
CONTINUOUS
 10
-2.7490165109
 20
12.665025918
 11
-2.7250165109
 21
12.665025918
  0
LINE
  5
2A2
100
AcDbEntity
  8
0
100
AcDbLine
 62
7
  6
CONTINUOUS
 10
17.8299834891
 20
7.055315272
 11
17.8399834891
 21
7.045315272
  0
LINE
  5
2A3
100
AcDbEntity
  8
0
100
AcDbLine
 62
7
  6
CONTINUOUS
 10
-2.7490165109
 20
13.209025918
 11
-2.7250165109
 21
13.209025918
  0
LINE
  5
2A4
100
AcDbEntity
  8
0
100
AcDbLine
 62
7
  6
CONTINUOUS
 10
-2.6780165109
 20
13.267525918
 11
-2.6070165109
 21
13.267525918
  0
LINE
  5
2A5
100
AcDbEntity
  8
0
100
AcDbLine
 62
7
  6
CONTINUOUS
 10
-1.6950165109
 20
13.289525918
 11
-1.6450165109
 21
13.289525918
  0
LINE
  5
2A6
100
AcDbEntity
  8
0
100
AcDbLine
 62
7
  6
CONTINUOUS
 10
1.5549834891
 20
13.312025918
 11
9.0899834891
 21
13.312025918
  0
LINE
  5
2A7
100
AcDbEntity
  8
0
100
AcDbLine
 62
7
  6
CONTINUOUS
 10
9.4950188707
 20
13.407025918
 11
9.1099834891
 21
13.407025918
  0
LINE
  5
2A8
100
AcDbEntity
  8
0
100
AcDbLine
 62
7
  6
CONTINUOUS
 10
-1.3350165109
 20
13.407025918
 11
-1.3100165109
 21
13.407025918
  0
LINE
  5
2A9
100
AcDbEntity
  8
0
100
AcDbLine
 62
7
  6
CONTINUOUS
 10
1.5349834891
 20
13.4172760796
 11
1.4620678047
 21
13.4172760796
  0
LINE
  5
2AA
100
AcDbEntity
  8
0
100
AcDbLine
 62
9
  6
CONTINUOUS
 10
9.6241593698
 20
13.5750383416
 11
10.6758076085
 21
13.5750383416
  0
LINE
  5
2AB
100
AcDbEntity
  8
0
100
AcDbLine
 62
7
  6
CONTINUOUS
 10
10.5822261653
 20
13.639789036
 11
9.7177408129
 21
13.639789036
  0
LINE
  5
2AC
100
AcDbEntity
  8
0
100
AcDbLine
 62
9
  6
CONTINUOUS
 10
10.5191642282
 20
13.6990824929
 11
9.7808027501
 21
13.6990824929
  0
LINE
  5
2AD
100
AcDbEntity
  8
0
100
AcDbLine
 62
7
  6
CONTINUOUS
 10
10.1657057759
 20
13.7262844023
 11
10.1342612024
 21
13.7262844023
  0
LINE
  5
2AE
100
AcDbEntity
  8
0
100
AcDbLine
 62
7
  6
CONTINUOUS
 10
17.8299834891
 20
7.395315272
 11
17.8399834891
 21
7.405315272
  0
LINE
  5
2AF
100
AcDbEntity
  8
0
100
AcDbLine
 62
7
  6
CONTINUOUS
 10
21.2472978533
 20
9.1348606781
 11
21.2179834891
 21
9.110315272
  0
LINE
  5
2B0
100
AcDbEntity
  8
0
100
AcDbLine
 62
7
  6
CONTINUOUS
 10
-0.0111197728
 20
13.4370623711
 11
0.2943190576
 21
13.4854391293
  0
LINE
  5
2B1
100
AcDbEntity
  8
0
100
AcDbLine
 62
7
  6
CONTINUOUS
 10
20.188669125
 20
9.1348606781
 11
20.2179834891
 21
9.110315272
  0
LINE
  5
2B2
100
AcDbEntity
  8
0
100
AcDbLine
 62
7
  6
CONTINUOUS
 10
17.8299834891
 20
7.3953108361
 11
17.8299834891
 21
7.0553197078
  0
LINE
  5
2B3
100
AcDbEntity
  8
0
100
AcDbLine
 62
7
  6
CONTINUOUS
 10
17.8399834891
 20
7.045315272
 11
17.8399834891
 21
7.405315272
  0
LINE
  5
2B4
100
AcDbEntity
  8
0
100
AcDbLine
 62
7
  6
CONTINUOUS
 10
17.8959834891
 20
7.4973107642
 11
17.8959834891
 21
6.9533197797
  0
LINE
  5
2B5
100
AcDbEntity
  8
0
100
AcDbLine
 62
7
  6
CONTINUOUS
 10
17.9199834891
 20
7.5088104862
 11
17.9199834891
 21
6.9418200578
  0
LINE
  5
2B6
100
AcDbEntity
  8
0
100
AcDbLine
 62
9
  6
CONTINUOUS
 10
17.9669834891
 20
7.555815272
 11
17.9669834891
 21
6.894815272
  0
LINE
  5
2B7
100
AcDbEntity
  8
0
100
AcDbLine
 62
7
  6
CONTINUOUS
 10
18.0379834891
 20
6.894815272
 11
18.0379834891
 21
7.555815272
  0
LINE
  5
2B8
100
AcDbEntity
  8
0
100
AcDbLine
 62
9
  6
CONTINUOUS
 10
18.5419836712
 20
7.605360484
 11
18.5419836712
 21
6.84527006
  0
LINE
  5
2B9
100
AcDbEntity
  8
0
100
AcDbLine
 62
7
  6
CONTINUOUS
 10
18.9499834891
 20
7.577815272
 11
18.9499834891
 21
6.872815272
  0
LINE
  5
2BA
100
AcDbEntity
  8
0
100
AcDbLine
 62
7
  6
CONTINUOUS
 10
18.9999834891
 20
6.8728156619
 11
18.9999834891
 21
7.5778148821
  0
LINE
  5
2BB
100
AcDbEntity
  8
0
100
AcDbLine
 62
7
  6
CONTINUOUS
 10
19.0199834891
 20
7.5928148796
 11
19.0199834891
 21
6.857815272
  0
LINE
  5
2BC
100
AcDbEntity
  8
0
100
AcDbLine
 62
9
  6
CONTINUOUS
 10
19.0588783662
 20
7.6391111355
 11
19.0588783662
 21
6.8115194084
  0
LINE
  5
2BD
100
AcDbEntity
  8
0
100
AcDbLine
 62
9
  6
CONTINUOUS
 10
19.5819834891
 20
6.7199381959
 11
19.5819834891
 21
7.7306923481
  0
LINE
  5
2BE
100
AcDbEntity
  8
0
100
AcDbLine
 62
7
  6
CONTINUOUS
 10
19.6579834891
 20
9.547552154
 11
19.6579834891
 21
10.447552154
  0
LINE
  5
2BF
100
AcDbEntity
  8
0
100
AcDbLine
 62
9
  6
CONTINUOUS
 10
19.6779834891
 20
10.467552154
 11
19.6779834891
 21
9.527552154
  0
LINE
  5
2C0
100
AcDbEntity
  8
0
100
AcDbLine
 62
9
  6
CONTINUOUS
 10
19.8099183053
 20
7.0684240455
 11
19.8099183053
 21
6.7893417954
  0
LINE
  5
2C1
100
AcDbEntity
  8
0
100
AcDbLine
 62
9
  6
CONTINUOUS
 10
19.8099183053
 20
6.6324505689
 11
19.8099183053
 21
6.610944979
  0
LINE
  5
2C2
100
AcDbEntity
  8
0
100
AcDbLine
 62
9
  6
CONTINUOUS
 10
19.8099183053
 20
7.3822064984
 11
19.8099183053
 21
7.6612887486
  0
LINE
  5
2C3
100
AcDbEntity
  8
0
100
AcDbLine
 62
9
  6
CONTINUOUS
 10
19.8099183053
 20
7.8181799751
 11
19.8099183053
 21
7.839685565
  0
LINE
  5
2C4
100
AcDbEntity
  8
0
100
AcDbLine
 62
7
  6
CONTINUOUS
 10
19.9649834891
 20
7.769315272
 11
19.9649834891
 21
6.6813155722
  0
LINE
  5
2C5
100
AcDbEntity
  8
0
100
AcDbLine
 62
9
  6
CONTINUOUS
 10
20.0136679803
 20
6.6198069131
 11
20.0136679803
 21
7.8308236309
  0
LINE
  5
2C6
100
AcDbEntity
  8
0
100
AcDbLine
 62
7
  6
CONTINUOUS
 10
20.0679834891
 20
8.2271410467
 11
20.0679834891
 21
8.6846368279
  0
LINE
  5
2C7
100
AcDbEntity
  8
0
100
AcDbLine
 62
7
  6
CONTINUOUS
 10
20.0696944123
 20
8.6846368279
 11
20.0696944123
 21
8.2271410467
  0
LINE
  5
2C8
100
AcDbEntity
  8
0
100
AcDbLine
 62
7
  6
CONTINUOUS
 10
20.2479834891
 20
9.090315272
 11
20.2479834891
 21
9.110315272
  0
LINE
  5
2C9
100
AcDbEntity
  8
0
100
AcDbLine
 62
7
  6
CONTINUOUS
 10
20.3530228436
 20
8.2271410467
 11
20.3530228436
 21
8.6846368279
  0
LINE
  5
2CA
100
AcDbEntity
  8
0
100
AcDbLine
 62
7
  6
CONTINUOUS
 10
20.4346550578
 20
8.6846368279
 11
20.4346550578
 21
8.2271410467
  0
LINE
  5
2CB
100
AcDbEntity
  8
0
100
AcDbLine
 62
7
  6
CONTINUOUS
 10
21.0013119205
 20
8.2271410467
 11
21.0013119205
 21
8.6846368279
  0
LINE
  5
2CC
100
AcDbEntity
  8
0
100
AcDbLine
 62
7
  6
CONTINUOUS
 10
21.0829441347
 20
8.6846368279
 11
21.0829441347
 21
8.2271410467
  0
LINE
  5
2CD
100
AcDbEntity
  8
0
100
AcDbLine
 62
7
  6
CONTINUOUS
 10
21.1879834891
 20
9.090315272
 11
21.1879834891
 21
9.110315272
  0
LINE
  5
2CE
100
AcDbEntity
  8
0
100
AcDbLine
 62
7
  6
CONTINUOUS
 10
21.366272566
 20
8.2271410467
 11
21.366272566
 21
8.6846368279
  0
LINE
  5
2CF
100
AcDbEntity
  8
0
100
AcDbLine
 62
7
  6
CONTINUOUS
 10
21.3679834891
 20
8.2271410467
 11
21.3679834891
 21
8.6846368279
  0
LINE
  5
2D0
100
AcDbEntity
  8
0
100
AcDbLine
 62
9
  6
CONTINUOUS
 10
21.3852601099
 20
7.8521922295
 11
21.3852601099
 21
6.5984383144
  0
LINE
  5
2D1
100
AcDbEntity
  8
0
100
AcDbLine
 62
7
  6
CONTINUOUS
 10
21.4149834891
 20
7.885315272
 11
21.4149834891
 21
6.565315272
  0
LINE
  5
2D2
100
AcDbEntity
  8
0
100
AcDbLine
 62
9
  6
CONTINUOUS
 10
21.4713912828
 20
6.5376258088
 11
21.4713912828
 21
7.9130047352
  0
LINE
  5
2D3
100
AcDbEntity
  8
0
100
AcDbLine
 62
9
  6
CONTINUOUS
 10
22.6269053398
 20
7.8507596122
 11
22.6269053398
 21
6.5998709318
  0
LINE
  5
2D4
100
AcDbEntity
  8
0
100
AcDbLine
 62
7
  6
CONTINUOUS
 10
22.6649834891
 20
6.621177332
 11
22.6649834891
 21
7.8294532119
  0
LINE
  5
2D5
100
AcDbEntity
  8
0
100
AcDbLine
 62
7
  6
CONTINUOUS
 10
23.5349834891
 20
7.9603145042
 11
23.5349834891
 21
6.4903160397
  0
LINE
  5
2D6
100
AcDbEntity
  8
0
100
AcDbLine
 62
7
  6
CONTINUOUS
 10
23.8649834891
 20
8.37031464
 11
23.8649834891
 21
6.080315904
  0
LINE
  5
2D7
100
AcDbEntity
  8
0
100
AcDbLine
 62
7
  6
CONTINUOUS
 10
23.8749834891
 20
6.080315272
 11
23.8749834891
 21
8.370315272
  0
LINE
  5
2D8
100
AcDbEntity
  8
0
100
AcDbLine
 62
7
  6
CONTINUOUS
 10
24.1149834891
 20
8.6553032248
 11
24.1149834891
 21
5.795315272
  0
LINE
  5
2D9
100
AcDbEntity
  8
0
100
AcDbLine
 62
9
  6
CONTINUOUS
 10
24.1449834891
 20
8.685315272
 11
24.1449834891
 21
5.765315272
  0
LINE
  5
2DA
100
AcDbEntity
  8
0
100
AcDbLine
 62
7
  6
CONTINUOUS
 10
24.2249834891
 20
5.7653274143
 11
24.2249834891
 21
8.6853031297
  0
LINE
  5
2DB
100
AcDbEntity
  8
0
100
AcDbLine
 62
7
  6
CONTINUOUS
 10
24.2349834891
 20
8.567315272
 11
24.2349834891
 21
5.883315272
  0
ARC
  5
2DC
100
AcDbEntity
  8
0
100
AcDbCircle
 62
7
  6
CONTINUOUS
 10
0.8891336043
 20
11.575358992
 40
3.5
100
AcDbArc
 50
165.7394915612
 51
191.7104673281
  0
ARC
  5
2DD
100
AcDbEntity
  8
0
100
AcDbCircle
 62
7
  6
CONTINUOUS
 10
-5.5451666261
 20
11.575358992
 40
3.5
100
AcDbArc
 50
348.2895326719
 51
14.2605084388
  0
ARC
  5
2DE
100
AcDbEntity
  8
0
100
AcDbCircle
 62
7
  6
CONTINUOUS
 10
-2.3280165109
 20
10.2852098518
 40
0.28
100
AcDbArc
 50
128.2900586987
 51
51.7099413013
  0
ARC
  5
2DF
100
AcDbEntity
  8
0
100
AcDbCircle
 62
7
  6
CONTINUOUS
 10
-0.2679500538
 20
11.8461671053
 40
0.1954335429
100
AcDbArc
 50
345.4368424883
 51
360.0
  0
ARC
  5
2E0
100
AcDbEntity
  8
0
100
AcDbCircle
 62
7
  6
CONTINUOUS
 10
-0.6820829679
 20
11.8461671053
 40
0.1954335429
100
AcDbArc
 50
180.0
 51
194.5631575117
  0
ARC
  5
2E1
100
AcDbEntity
  8
0
100
AcDbCircle
 62
7
  6
CONTINUOUS
 10
-2.6683662224
 20
10.5234855389
 40
0.187526794
100
AcDbArc
 50
8.7390546673
 51
40.3807274203
  0
ARC
  5
2E2
100
AcDbEntity
  8
0
100
AcDbCircle
 62
7
  6
CONTINUOUS
 10
-1.9876667993
 20
10.5234855389
 40
0.187526794
100
AcDbArc
 50
139.6192725797
 51
171.2609453327
  0
ARC
  5
2E3
100
AcDbEntity
  8
0
100
AcDbCircle
 62
7
  6
CONTINUOUS
 10
-2.1234291495
 20
10.5443548146
 40
0.050169805
100
AcDbArc
 50
171.2609453329
 51
231.7099413013
  0
ARC
  5
2E4
100
AcDbEntity
  8
0
100
AcDbCircle
 62
7
  6
CONTINUOUS
 10
-2.5326038722
 20
10.5443548146
 40
0.050169805
100
AcDbArc
 50
308.2900586987
 51
8.7390546671
  0
ARC
  5
2E5
100
AcDbEntity
  8
0
100
AcDbCircle
 62
7
  6
CONTINUOUS
 10
-2.1349236624
 20
10.8179226061
 40
0.05
100
AcDbArc
 50
295.9854591006
 51
70.2362222065
  0
ARC
  5
2E6
100
AcDbEntity
  8
0
100
AcDbCircle
 62
7
  6
CONTINUOUS
 10
-2.5211093593
 20
10.8179226061
 40
0.05
100
AcDbArc
 50
109.7637777935
 51
244.0145408994
  0
ARC
  5
2E7
100
AcDbEntity
  8
0
100
AcDbCircle
 62
7
  6
CONTINUOUS
 10
-2.529458624
 20
10.7248505964
 40
0.05
100
AcDbArc
 50
105.7331705959
 51
265.9195134629
  0
ARC
  5
2E8
100
AcDbEntity
  8
0
100
AcDbCircle
 62
7
  6
CONTINUOUS
 10
-2.1265743977
 20
10.7248505964
 40
0.05
100
AcDbArc
 50
274.0804865371
 51
74.2668294041
  0
ARC
  5
2E9
100
AcDbEntity
  8
0
100
AcDbCircle
 62
7
  6
CONTINUOUS
 10
-2.151707618
 20
10.6662126194
 40
0.03
100
AcDbArc
 50
314.9403499806
 51
16.9871630893
  0
ARC
  5
2EA
100
AcDbEntity
  8
0
100
AcDbCircle
 62
7
  6
CONTINUOUS
 10
-2.5043254038
 20
10.6662126194
 40
0.03
100
AcDbArc
 50
163.0128369107
 51
225.0596500194
  0
ARC
  5
2EB
100
AcDbEntity
  8
0
100
AcDbCircle
 62
7
  6
CONTINUOUS
 10
0.8249834891
 20
12.377025918
 40
1.14
100
AcDbArc
 50
67.1448062399
 51
112.8551937601
  0
ARC
  5
2EC
100
AcDbEntity
  8
0
100
AcDbCircle
 62
7
  6
CONTINUOUS
 10
0.8249834891
 20
13.497025918
 40
1.14
100
AcDbArc
 50
247.1448062399
 51
292.8551937601
  0
ARC
  5
2ED
100
AcDbEntity
  8
0
100
AcDbCircle
 62
7
  6
CONTINUOUS
 10
-0.4750165109
 20
12.937025918
 40
0.645
100
AcDbArc
 50
53.7264555496
 51
126.3424046392
  0
ARC
  5
2EE
100
AcDbEntity
  8
0
100
AcDbCircle
 62
7
  6
CONTINUOUS
 10
-1.0942934223
 20
13.7787628763
 40
0.4
100
AcDbArc
 50
248.9695236741
 51
306.3424046392
  0
ARC
  5
2EF
100
AcDbEntity
  8
0
100
AcDbCircle
 62
7
  6
CONTINUOUS
 10
-1.0942934223
 20
12.0952889597
 40
0.4
100
AcDbArc
 50
74.4439504133
 51
111.0304763259
  0
ARC
  5
2F0
100
AcDbEntity
  8
0
100
AcDbCircle
 62
7
  6
CONTINUOUS
 10
-1.3167534692
 20
12.3177490066
 40
0.4
100
AcDbArc
 50
338.9695236741
 51
15.5560496423
  0
ARC
  5
2F1
100
AcDbEntity
  8
0
100
AcDbCircle
 62
7
  6
CONTINUOUS
 10
0.3667204475
 20
12.3177490066
 40
0.4
100
AcDbArc
 50
174.8229144869
 51
201.0304763259
  0
ARC
  5
2F2
100
AcDbEntity
  8
0
100
AcDbCircle
 62
7
  6
CONTINUOUS
 10
-1.8778052613
 20
12.2565735255
 40
0.3754523925
100
AcDbArc
 50
60.866292493
 51
126.8583829672
  0
ARC
  5
2F3
100
AcDbEntity
  8
0
100
AcDbCircle
 62
7
  6
CONTINUOUS
 10
-1.8778052613
 20
13.6174783105
 40
0.3754523925
100
AcDbArc
 50
233.1416170328
 51
299.133707507
  0
ARC
  5
2F4
100
AcDbEntity
  8
0
100
AcDbCircle
 62
7
  6
CONTINUOUS
 10
-2.3279560336
 20
13.017025918
 40
0.375
100
AcDbArc
 50
53.1416170328
 51
138.0871091166
  0
ARC
  5
2F5
100
AcDbEntity
  8
0
100
AcDbCircle
 62
7
  6
CONTINUOUS
 10
-2.3279560336
 20
12.857025918
 40
0.375
100
AcDbArc
 50
294.1986835602
 51
306.8583829672
  0
ARC
  5
2F6
100
AcDbEntity
  8
0
100
AcDbCircle
 62
7
  6
CONTINUOUS
 10
-2.3279560336
 20
12.857025918
 40
0.375
100
AcDbArc
 50
221.9128908834
 51
245.8013164398
  0
ARC
  5
2F7
100
AcDbEntity
  8
0
100
AcDbCircle
 62
9
  6
CONTINUOUS
 10
-0.1544216235
 20
12.3007644575
 40
0.2605416209
100
AcDbArc
 50
56.6319445166
 51
61.0550559035
  0
ARC
  5
2F8
100
AcDbEntity
  8
0
100
AcDbCircle
 62
7
  6
CONTINUOUS
 10
-0.028327564
 20
13.5457080886
 40
0.11
100
AcDbArc
 50
233.7264555496
 51
279.0
  0
ARC
  5
2F9
100
AcDbEntity
  8
0
100
AcDbCircle
 62
7
  6
CONTINUOUS
 10
-2.8050165109
 20
13.173025918
 40
0.056
100
AcDbArc
 50
270.0
 51
360.0
  0
ARC
  5
2FA
100
AcDbEntity
  8
0
100
AcDbCircle
 62
7
  6
CONTINUOUS
 10
-2.8050165109
 20
12.701025918
 40
0.056
100
AcDbArc
 50
0.0
 51
90.0
  0
ARC
  5
2FB
100
AcDbEntity
  8
0
100
AcDbCircle
 62
7
  6
CONTINUOUS
 10
-2.6780165109
 20
13.220525918
 40
0.047
100
AcDbArc
 50
90.0
 51
180.0
  0
ARC
  5
2FC
100
AcDbEntity
  8
0
100
AcDbCircle
 62
7
  6
CONTINUOUS
 10
-2.6780165109
 20
12.653525918
 40
0.047
100
AcDbArc
 50
180.0
 51
270.0
  0
ARC
  5
2FD
100
AcDbEntity
  8
0
100
AcDbCircle
 62
7
  6
CONTINUOUS
 10
-2.1630165109
 20
12.4762475092
 40
0.04
100
AcDbArc
 50
284.477512186
 51
75.522487814
  0
ARC
  5
2FE
100
AcDbEntity
  8
0
100
AcDbCircle
 62
7
  6
CONTINUOUS
 10
-2.4930165109
 20
12.4762475092
 40
0.04
100
AcDbArc
 50
104.477512186
 51
255.522487814
  0
ARC
  5
2FF
100
AcDbEntity
  8
0
100
AcDbCircle
 62
7
  6
CONTINUOUS
 10
-1.6068821106
 20
12.584525918
 40
0.0381344002
100
AcDbArc
 50
180.0
 51
254.0238899016
  0
ARC
  5
300
100
AcDbEntity
  8
0
100
AcDbCircle
 62
7
  6
CONTINUOUS
 10
-1.6068821106
 20
13.289525918
 40
0.0381344002
100
AcDbArc
 50
105.9761100984
 51
180.0
  0
ARC
  5
301
100
AcDbEntity
  8
0
100
AcDbCircle
 62
7
  6
CONTINUOUS
 10
-1.2600165109
 20
12.517025918
 40
0.025
100
AcDbArc
 50
101.649844719
 51
180.0
  0
ARC
  5
302
100
AcDbEntity
  8
0
100
AcDbCircle
 62
7
  6
CONTINUOUS
 10
-1.3100165109
 20
12.492025918
 40
0.025
100
AcDbArc
 50
270.0
 51
360.0
  0
ARC
  5
303
100
AcDbEntity
  8
0
100
AcDbCircle
 62
7
  6
CONTINUOUS
 10
-1.3100165109
 20
13.382025918
 40
0.025
100
AcDbArc
 50
0.0
 51
90.0
  0
ARC
  5
304
100
AcDbEntity
  8
0
100
AcDbCircle
 62
7
  6
CONTINUOUS
 10
-1.2600165109
 20
13.357025918
 40
0.025
100
AcDbArc
 50
180.0
 51
258.350155281
  0
ARC
  5
305
100
AcDbEntity
  8
0
100
AcDbCircle
 62
7
  6
CONTINUOUS
 10
-1.2450165109
 20
13.3867392156
 40
0.02
100
AcDbArc
 50
68.9695227533
 51
180.0
  0
ARC
  5
306
100
AcDbEntity
  8
0
100
AcDbCircle
 62
7
  6
CONTINUOUS
 10
-1.2450165109
 20
12.4873126204
 40
0.02
100
AcDbArc
 50
180.0
 51
291.0304772467
  0
ARC
  5
307
100
AcDbEntity
  8
0
100
AcDbCircle
 62
7
  6
CONTINUOUS
 10
-0.0253032133
 20
12.167025918
 40
0.02
100
AcDbArc
 50
270.0
 51
21.0304772467
  0
ARC
  5
308
100
AcDbEntity
  8
0
100
AcDbCircle
 62
7
  6
CONTINUOUS
 10
-0.9247298085
 20
12.167025918
 40
0.02
100
AcDbArc
 50
158.9695227533
 51
270.0
  0
ARC
  5
309
100
AcDbEntity
  8
0
100
AcDbCircle
 62
7
  6
CONTINUOUS
 10
1.5349834891
 20
13.3972760796
 40
0.02
100
AcDbArc
 50
0.0
 51
90.0
  0
ARC
  5
30A
100
AcDbEntity
  8
0
100
AcDbCircle
 62
7
  6
CONTINUOUS
 10
1.5349834891
 20
12.4767757564
 40
0.02
100
AcDbArc
 50
270.0
 51
360.0
  0
ARC
  5
30B
100
AcDbEntity
  8
0
100
AcDbCircle
 62
7
  6
CONTINUOUS
 10
1.3695729259
 20
12.4065650494
 40
0.02
100
AcDbArc
 50
194.467889245
 51
309.45
  0
ARC
  5
30C
100
AcDbEntity
  8
0
100
AcDbCircle
 62
7
  6
CONTINUOUS
 10
1.3695729259
 20
13.4674867866
 40
0.02
100
AcDbArc
 50
50.55
 51
165.532110755
  0
ARC
  5
30D
100
AcDbEntity
  8
0
100
AcDbCircle
 62
7
  6
CONTINUOUS
 10
0.2974477499
 20
12.4083664731
 40
0.02
100
AcDbArc
 50
261.0
 51
349.6206593896
  0
ARC
  5
30E
100
AcDbEntity
  8
0
100
AcDbCircle
 62
7
  6
CONTINUOUS
 10
0.2974477499
 20
13.465685363
 40
0.02
100
AcDbArc
 50
10.3793406104
 51
99.0
  0
ARC
  5
30F
100
AcDbEntity
  8
0
100
AcDbCircle
 62
7
  6
CONTINUOUS
 10
8.9819834891
 20
9.997552154
 40
1.81
100
AcDbArc
 50
17.3632888069
 51
22.0562511617
  0
ARC
  5
310
100
AcDbEntity
  8
0
100
AcDbCircle
 62
7
  6
CONTINUOUS
 10
8.9819834891
 20
9.997552154
 40
1.81
100
AcDbArc
 50
339.3601226786
 51
342.6367111931
  0
ARC
  5
311
100
AcDbEntity
  8
0
100
AcDbCircle
 62
7
  6
CONTINUOUS
 10
9.2600535954
 20
10.911793999
 40
0.35
100
AcDbArc
 50
358.85319539
 51
46.7239576672
  0
ARC
  5
312
100
AcDbEntity
  8
0
100
AcDbCircle
 62
7
  6
CONTINUOUS
 10
8.9819834891
 20
12.937025918
 40
1.81
100
AcDbArc
 50
337.9437488383
 51
20.6398773184
  0
ARC
  5
313
100
AcDbEntity
  8
0
100
AcDbCircle
 62
9
  6
CONTINUOUS
 10
8.3949104431
 20
12.6345791561
 40
1.3434193864
100
AcDbArc
 50
27.9279191529
 51
30.4338938356
  0
ARC
  5
314
100
AcDbEntity
  8
0
100
AcDbCircle
 62
9
  6
CONTINUOUS
 10
8.4857012531
 20
13.1900403902
 40
1.2400507198
100
AcDbArc
 50
331.5513690264
 51
332.1332734117
  0
ARC
  5
315
100
AcDbEntity
  8
0
100
AcDbCircle
 62
7
  6
CONTINUOUS
 10
9.0049834891
 20
12.029789036
 40
0.64
100
AcDbArc
 50
320.6635849213
 51
360.0
  0
ARC
  5
316
100
AcDbEntity
  8
0
100
AcDbCircle
 62
7
  6
CONTINUOUS
 10
9.1099834891
 20
13.387025918
 40
0.02
100
AcDbArc
 50
90.0
 51
180.0
  0
ARC
  5
317
100
AcDbEntity
  8
0
100
AcDbCircle
 62
7
  6
CONTINUOUS
 10
9.1099834891
 20
12.487025918
 40
0.02
100
AcDbArc
 50
180.0
 51
270.0
  0
ARC
  5
318
100
AcDbEntity
  8
0
100
AcDbCircle
 62
7
  6
CONTINUOUS
 10
10.7583361617
 20
-30.6575453686
 40
41.5690209887
100
AcDbArc
 50
91.027678323
 51
91.2754022963
  0
ARC
  5
319
100
AcDbEntity
  8
0
100
AcDbCircle
 62
7
  6
CONTINUOUS
 10
15.0998333739
 20
5.863648346
 40
3.5
100
AcDbArc
 50
348.2895326719
 51
14.2605084388
  0
ARC
  5
31A
100
AcDbEntity
  8
0
100
AcDbCircle
 62
7
  6
CONTINUOUS
 10
10.1342612024
 20
11.4162844023
 40
2.31
100
AcDbArc
 50
90.0
 51
98.8015353093
  0
ARC
  5
31B
100
AcDbEntity
  8
0
100
AcDbCircle
 62
7
  6
CONTINUOUS
 10
10.1657057759
 20
11.4162844023
 40
2.31
100
AcDbArc
 50
81.1984646907
 51
90.0
  0
ARC
  5
31C
100
AcDbEntity
  8
0
100
AcDbCircle
 62
7
  6
CONTINUOUS
 10
10.5822261656
 20
9.394789036
 40
0.1
100
AcDbArc
 50
269.9997651526
 51
339.3599970517
  0
ARC
  5
31D
100
AcDbEntity
  8
0
100
AcDbCircle
 62
7
  6
CONTINUOUS
 10
9.7177408127
 20
9.394789036
 40
0.1
100
AcDbArc
 50
200.6398776134
 51
270.0000001415
  0
ARC
  5
31E
100
AcDbEntity
  8
0
100
AcDbCircle
 62
7
  6
CONTINUOUS
 10
9.5477656339
 20
10.714789036
 40
0.1
100
AcDbArc
 50
337.9437488383
 51
45.5715208257
  0
ARC
  5
31F
100
AcDbEntity
  8
0
100
AcDbCircle
 62
7
  6
CONTINUOUS
 10
10.7522013444
 20
10.714789036
 40
0.1
100
AcDbArc
 50
134.4284791743
 51
202.0562511617
  0
ARC
  5
320
100
AcDbEntity
  8
0
100
AcDbCircle
 62
7
  6
CONTINUOUS
 10
10.5099834891
 20
9.294789036
 40
0.06
100
AcDbArc
 50
278.7977505622
 51
360.0
  0
ARC
  5
321
100
AcDbEntity
  8
0
100
AcDbCircle
 62
7
  6
CONTINUOUS
 10
9.7899834891
 20
9.294789036
 40
0.06
100
AcDbArc
 50
180.0
 51
261.2022494378
  0
ARC
  5
322
100
AcDbEntity
  8
0
100
AcDbCircle
 62
7
  6
CONTINUOUS
 10
10.6471986003
 20
10.8219077726
 40
0.05
100
AcDbArc
 50
314.4284569072
 51
50.0600232456
  0
ARC
  5
323
100
AcDbEntity
  8
0
100
AcDbCircle
 62
7
  6
CONTINUOUS
 10
9.652768378
 20
10.8219077726
 40
0.05
100
AcDbArc
 50
129.9399767544
 51
225.5715430928
  0
ARC
  5
324
100
AcDbEntity
  8
0
100
AcDbCircle
 62
7
  6
CONTINUOUS
 10
10.1655696267
 20
11.5201451207
 40
2.3118504862
100
AcDbArc
 50
270.0
 51
278.7977505622
  0
ARC
  5
325
100
AcDbEntity
  8
0
100
AcDbCircle
 62
7
  6
CONTINUOUS
 10
10.1343973515
 20
11.5201451207
 40
2.3118504862
100
AcDbArc
 50
261.2022494378
 51
270.0
  0
ARC
  5
326
100
AcDbEntity
  8
0
100
AcDbCircle
 62
7
  6
CONTINUOUS
 10
9.7177408127
 20
13.539789036
 40
0.1
100
AcDbArc
 50
89.9999998498
 51
159.3601224411
  0
ARC
  5
327
100
AcDbEntity
  8
0
100
AcDbCircle
 62
7
  6
CONTINUOUS
 10
10.5822261656
 20
13.539789036
 40
0.1
100
AcDbArc
 50
20.6398775589
 51
90.0000001502
  0
ARC
  5
328
100
AcDbEntity
  8
0
100
AcDbCircle
 62
7
  6
CONTINUOUS
 10
10.7522013444
 20
12.219789036
 40
0.1
100
AcDbArc
 50
157.9437488383
 51
225.5715282959
  0
ARC
  5
329
100
AcDbEntity
  8
0
100
AcDbCircle
 62
7
  6
CONTINUOUS
 10
9.5477656339
 20
12.219789036
 40
0.1
100
AcDbArc
 50
314.4284717041
 51
22.0562511617
  0
ARC
  5
32A
100
AcDbEntity
  8
0
100
AcDbCircle
 62
7
  6
CONTINUOUS
 10
9.7899834891
 20
13.639789036
 40
0.06
100
AcDbArc
 50
98.8015353092
 51
180.0
  0
ARC
  5
32B
100
AcDbEntity
  8
0
100
AcDbCircle
 62
7
  6
CONTINUOUS
 10
10.5099834891
 20
13.639789036
 40
0.06
100
AcDbArc
 50
0.0
 51
81.1984646908
  0
ARC
  5
32C
100
AcDbEntity
  8
0
100
AcDbCircle
 62
7
  6
CONTINUOUS
 10
9.652768378
 20
12.1126702994
 40
0.05
100
AcDbArc
 50
134.4284718478
 51
230.0599998062
  0
ARC
  5
32D
100
AcDbEntity
  8
0
100
AcDbCircle
 62
7
  6
CONTINUOUS
 10
10.6471986003
 20
12.1126702994
 40
0.05
100
AcDbArc
 50
309.9400001938
 51
45.5715281522
  0
ARC
  5
32E
100
AcDbEntity
  8
0
100
AcDbCircle
 62
7
  6
CONTINUOUS
 10
11.3179834891
 20
9.997552154
 40
1.81
100
AcDbArc
 50
157.9437488383
 51
200.639884246
  0
ARC
  5
32F
100
AcDbEntity
  8
0
100
AcDbCircle
 62
9
  6
CONTINUOUS
 10
12.018638867
 20
9.6289122854
 40
1.4748815166
100
AcDbArc
 50
149.3542029833
 51
149.5741011072
  0
ARC
  5
330
100
AcDbEntity
  8
0
100
AcDbCircle
 62
9
  6
CONTINUOUS
 10
11.9555375018
 20
9.6657808027
 40
1.4017989171
100
AcDbArc
 50
149.6388684042
 51
150.2709060853
  0
ARC
  5
331
100
AcDbEntity
  8
0
100
AcDbCircle
 62
9
  6
CONTINUOUS
 10
11.8666502147
 20
9.7161762275
 40
1.2996199546
100
AcDbArc
 50
150.2569391226
 51
151.6643806816
  0
ARC
  5
332
100
AcDbEntity
  8
0
100
AcDbCircle
 62
9
  6
CONTINUOUS
 10
11.8092226441
 20
9.7472231219
 40
1.2343372586
100
AcDbArc
 50
151.667619223
 51
152.1780635836
  0
ARC
  5
333
100
AcDbEntity
  8
0
100
AcDbCircle
 62
7
  6
CONTINUOUS
 10
11.0399133828
 20
10.911793999
 40
0.35
100
AcDbArc
 50
133.2760423328
 51
181.14680461
  0
ARC
  5
334
100
AcDbEntity
  8
0
100
AcDbCircle
 62
7
  6
CONTINUOUS
 10
11.3179834891
 20
12.937025918
 40
1.81
100
AcDbArc
 50
197.3632888069
 51
202.0562511617
  0
ARC
  5
335
100
AcDbEntity
  8
0
100
AcDbCircle
 62
7
  6
CONTINUOUS
 10
11.3179834891
 20
12.937025918
 40
1.81
100
AcDbArc
 50
159.3601226816
 51
162.6367111931
  0
ARC
  5
336
100
AcDbEntity
  8
0
100
AcDbCircle
 62
7
  6
CONTINUOUS
 10
11.2949834891
 20
12.029789036
 40
0.64
100
AcDbArc
 50
180.0
 51
219.3364150787
  0
ARC
  5
337
100
AcDbEntity
  8
0
100
AcDbCircle
 62
7
  6
CONTINUOUS
 10
20.7179834891
 20
6.652795272
 40
1.37252
100
AcDbArc
 50
60.9109121001
 51
65.7406771287
  0
ARC
  5
338
100
AcDbEntity
  8
0
100
AcDbCircle
 62
7
  6
CONTINUOUS
 10
20.7179834891
 20
6.652795272
 40
1.37252
100
AcDbArc
 50
114.2594044275
 51
120.8742125682
  0
ARC
  5
339
100
AcDbEntity
  8
0
100
AcDbCircle
 62
7
  6
CONTINUOUS
 10
19.5011047094
 20
6.2579645787
 40
0.469
100
AcDbArc
 50
48.8181435397
 51
80.0697356271
  0
ARC
  5
33A
100
AcDbEntity
  8
0
100
AcDbCircle
 62
7
  6
CONTINUOUS
 10
18.7671947387
 20
6.5448628795
 40
0.3754523925
100
AcDbArc
 50
60.866292493
 51
126.8583829672
  0
ARC
  5
33B
100
AcDbEntity
  8
0
100
AcDbCircle
 62
7
  6
CONTINUOUS
 10
18.3169834891
 20
4.5734992058
 40
0.28
100
AcDbArc
 50
128.2900586987
 51
51.7099413013
  0
ARC
  5
33C
100
AcDbEntity
  8
0
100
AcDbCircle
 62
7
  6
CONTINUOUS
 10
17.9766337776
 20
4.8117748929
 40
0.187526794
100
AcDbArc
 50
8.7390546673
 51
40.3807274203
  0
ARC
  5
33D
100
AcDbEntity
  8
0
100
AcDbCircle
 62
7
  6
CONTINUOUS
 10
18.6573332007
 20
4.8117748929
 40
0.187526794
100
AcDbArc
 50
139.6192725797
 51
171.2609453327
  0
ARC
  5
33E
100
AcDbEntity
  8
0
100
AcDbCircle
 62
7
  6
CONTINUOUS
 10
20.0649834891
 20
6.7056365033
 40
0.1
100
AcDbArc
 50
180.0
 51
239.1257819437
  0
ARC
  5
33F
100
AcDbEntity
  8
0
100
AcDbCircle
 62
7
  6
CONTINUOUS
 10
19.8714834891
 20
6.681315272
 40
0.0935
100
AcDbArc
 50
228.8181435397
 51
360.0
  0
ARC
  5
340
100
AcDbEntity
  8
0
100
AcDbCircle
 62
7
  6
CONTINUOUS
 10
18.5215708505
 20
4.8326441686
 40
0.050169805
100
AcDbArc
 50
171.2609453329
 51
231.7099413013
  0
ARC
  5
341
100
AcDbEntity
  8
0
100
AcDbCircle
 62
7
  6
CONTINUOUS
 10
18.1123961278
 20
4.8326441686
 40
0.050169805
100
AcDbArc
 50
308.2900586987
 51
8.7390546671
  0
ARC
  5
342
100
AcDbEntity
  8
0
100
AcDbCircle
 62
7
  6
CONTINUOUS
 10
18.5100763376
 20
5.1062119601
 40
0.05
100
AcDbArc
 50
295.9854591006
 51
70.2362222065
  0
ARC
  5
343
100
AcDbEntity
  8
0
100
AcDbCircle
 62
7
  6
CONTINUOUS
 10
18.1238906407
 20
5.1062119601
 40
0.05
100
AcDbArc
 50
109.7637777935
 51
244.0145408994
  0
ARC
  5
344
100
AcDbEntity
  8
0
100
AcDbCircle
 62
7
  6
CONTINUOUS
 10
18.115541376
 20
5.0131399503
 40
0.05
100
AcDbArc
 50
105.7331705959
 51
265.9195134629
  0
ARC
  5
345
100
AcDbEntity
  8
0
100
AcDbCircle
 62
7
  6
CONTINUOUS
 10
18.5184256023
 20
5.0131399503
 40
0.05
100
AcDbArc
 50
274.0804865371
 51
74.2668294041
  0
ARC
  5
346
100
AcDbEntity
  8
0
100
AcDbCircle
 62
7
  6
CONTINUOUS
 10
18.4819834891
 20
6.7645368631
 40
0.04
100
AcDbArc
 50
284.477512186
 51
75.522487814
  0
ARC
  5
347
100
AcDbEntity
  8
0
100
AcDbCircle
 62
7
  6
CONTINUOUS
 10
18.1519834891
 20
6.7645368631
 40
0.04
100
AcDbArc
 50
104.477512186
 51
255.522487814
  0
ARC
  5
348
100
AcDbEntity
  8
0
100
AcDbCircle
 62
7
  6
CONTINUOUS
 10
18.493292382
 20
4.9545019734
 40
0.03
100
AcDbArc
 50
314.9403499806
 51
16.9871630893
  0
ARC
  5
349
100
AcDbEntity
  8
0
100
AcDbCircle
 62
7
  6
CONTINUOUS
 10
18.1406745962
 20
4.9545019734
 40
0.03
100
AcDbArc
 50
163.0128369107
 51
225.0596500194
  0
ARC
  5
34A
100
AcDbEntity
  8
0
100
AcDbCircle
 62
7
  6
CONTINUOUS
 10
20.7022612024
 20
8.4768106383
 40
2.31
100
AcDbArc
 50
90.0
 51
98.8015353093
  0
ARC
  5
34B
100
AcDbEntity
  8
0
100
AcDbCircle
 62
7
  6
CONTINUOUS
 10
20.7337057759
 20
8.4768106383
 40
2.31
100
AcDbArc
 50
81.1984646907
 51
90.0
  0
ARC
  5
34C
100
AcDbEntity
  8
0
100
AcDbCircle
 62
7
  6
CONTINUOUS
 10
20.7179834891
 20
7.797835272
 40
1.37252
100
AcDbArc
 50
239.1257874318
 51
299.0890878999
  0
ARC
  5
34D
100
AcDbEntity
  8
0
100
AcDbCircle
 62
7
  6
CONTINUOUS
 10
19.5729834891
 20
9.090315272
 40
0.64
100
AcDbArc
 50
320.6635849213
 51
360.0
  0
ARC
  5
34E
100
AcDbEntity
  8
0
100
AcDbCircle
 62
7
  6
CONTINUOUS
 10
19.5011047094
 20
8.1926659653
 40
0.469
100
AcDbArc
 50
279.9302643729
 51
311.1818564603
  0
ARC
  5
34F
100
AcDbEntity
  8
0
100
AcDbCircle
 62
7
  6
CONTINUOUS
 10
18.7671947387
 20
7.9057676645
 40
0.3754523925
100
AcDbArc
 50
233.1416170328
 51
299.133707507
  0
ARC
  5
350
100
AcDbEntity
  8
0
100
AcDbCircle
 62
7
  6
CONTINUOUS
 10
18.3170439664
 20
7.305315272
 40
0.375
100
AcDbArc
 50
53.1416170328
 51
138.0871091166
  0
ARC
  5
351
100
AcDbEntity
  8
0
100
AcDbCircle
 62
7
  6
CONTINUOUS
 10
18.3170439664
 20
7.145315272
 40
0.375
100
AcDbArc
 50
294.1986835602
 51
306.8583829672
  0
ARC
  5
352
100
AcDbEntity
  8
0
100
AcDbCircle
 62
7
  6
CONTINUOUS
 10
18.3170439664
 20
7.145315272
 40
0.375
100
AcDbArc
 50
221.9128908834
 51
245.8013164398
  0
ARC
  5
353
100
AcDbEntity
  8
0
100
AcDbCircle
 62
7
  6
CONTINUOUS
 10
19.8280535954
 20
7.9723202349
 40
0.35
100
AcDbArc
 50
358.85319539
 51
46.7239576672
  0
ARC
  5
354
100
AcDbEntity
  8
0
100
AcDbCircle
 62
7
  6
CONTINUOUS
 10
20.1129681198
 20
7.9953013655
 40
0.1000174805
100
AcDbArc
 50
294.2557369672
 51
342.4533138656
  0
ARC
  5
355
100
AcDbEntity
  8
0
100
AcDbCircle
 62
7
  6
CONTINUOUS
 10
20.0649834891
 20
7.7449940407
 40
0.1
100
AcDbArc
 50
120.8742180563
 51
180.0
  0
ARC
  5
356
100
AcDbEntity
  8
0
100
AcDbCircle
 62
7
  6
CONTINUOUS
 10
19.8714834891
 20
7.769315272
 40
0.0935
100
AcDbArc
 50
0.0
 51
131.1818564603
  0
ARC
  5
357
100
AcDbEntity
  8
0
100
AcDbCircle
 62
7
  6
CONTINUOUS
 10
17.8399834891
 20
7.461315272
 40
0.056
100
AcDbArc
 50
270.0
 51
360.0
  0
ARC
  5
358
100
AcDbEntity
  8
0
100
AcDbCircle
 62
7
  6
CONTINUOUS
 10
17.8399834891
 20
6.989315272
 40
0.056
100
AcDbArc
 50
0.0
 51
90.0
  0
ARC
  5
359
100
AcDbEntity
  8
0
100
AcDbCircle
 62
7
  6
CONTINUOUS
 10
17.9669834891
 20
7.508815272
 40
0.047
100
AcDbArc
 50
90.0
 51
180.0
  0
ARC
  5
35A
100
AcDbEntity
  8
0
100
AcDbCircle
 62
7
  6
CONTINUOUS
 10
17.9669834891
 20
6.941815272
 40
0.047
100
AcDbArc
 50
180.0
 51
270.0
  0
ARC
  5
35B
100
AcDbEntity
  8
0
100
AcDbCircle
 62
7
  6
CONTINUOUS
 10
19.0669834891
 20
6.857815272
 40
0.047
100
AcDbArc
 50
180.0
 51
260.0697356271
  0
ARC
  5
35C
100
AcDbEntity
  8
0
100
AcDbCircle
 62
7
  6
CONTINUOUS
 10
19.0669834891
 20
7.592815272
 40
0.047
100
AcDbArc
 50
99.9302643729
 51
180.0
  0
ARC
  5
35D
100
AcDbEntity
  8
0
100
AcDbCircle
 62
7
  6
CONTINUOUS
 10
21.5341336043
 20
5.863648346
 40
3.5
100
AcDbArc
 50
165.7394915612
 51
191.7104673281
  0
ARC
  5
35E
100
AcDbEntity
  8
0
100
AcDbCircle
 62
7
  6
CONTINUOUS
 10
22.0942199832
 20
5.7320410441
 40
1.0182742278
100
AcDbArc
 50
58.4578522728
 51
127.708994818
  0
ARC
  5
35F
100
AcDbEntity
  8
0
100
AcDbCircle
 62
7
  6
CONTINUOUS
 10
23.3436322411
 20
5.3663363849
 40
0.89
100
AcDbArc
 50
29.9241230472
 51
53.3429556259
  0
ARC
  5
360
100
AcDbEntity
  8
0
100
AcDbCircle
 62
7
  6
CONTINUOUS
 10
23.9960176534
 20
6.5816799226
 40
0.47
100
AcDbArc
 50
191.2092591463
 51
253.8116350097
  0
ARC
  5
361
100
AcDbEntity
  8
0
100
AcDbCircle
 62
7
  6
CONTINUOUS
 10
24.1999834891
 20
5.883315272
 40
0.035
100
AcDbArc
 50
316.1484090249
 51
360.0
  0
ARC
  5
362
100
AcDbEntity
  8
0
100
AcDbCircle
 62
7
  6
CONTINUOUS
 10
21.4499834891
 20
6.565315272
 40
0.035
100
AcDbArc
 50
180.0
 51
307.7089948184
  0
ARC
  5
363
100
AcDbEntity
  8
0
100
AcDbCircle
 62
7
  6
CONTINUOUS
 10
24.1449834891
 20
5.795315272
 40
0.03
100
AcDbArc
 50
180.0
 51
270.0
  0
ARC
  5
364
100
AcDbEntity
  8
0
100
AcDbCircle
 62
7
  6
CONTINUOUS
 10
22.6399834891
 20
6.621177316
 40
0.025
100
AcDbArc
 50
238.457829964
 51
0.00003659
  0
ARC
  5
365
100
AcDbEntity
  8
0
100
AcDbCircle
 62
7
  6
CONTINUOUS
 10
21.3949834891
 20
6.5809610178
 40
0.02
100
AcDbArc
 50
0.0
 51
119.0890878988
  0
ARC
  5
366
100
AcDbEntity
  8
0
100
AcDbCircle
 62
7
  6
CONTINUOUS
 10
22.0942199832
 20
8.7185894998
 40
1.0182742278
100
AcDbArc
 50
232.291005182
 51
301.5421477272
  0
ARC
  5
367
100
AcDbEntity
  8
0
100
AcDbCircle
 62
7
  6
CONTINUOUS
 10
23.3436322411
 20
9.0842941591
 40
0.89
100
AcDbArc
 50
306.6570443741
 51
330.0758769528
  0
ARC
  5
368
100
AcDbEntity
  8
0
100
AcDbCircle
 62
7
  6
CONTINUOUS
 10
21.8629834891
 20
9.090315272
 40
0.64
100
AcDbArc
 50
180.0
 51
219.3364150787
  0
ARC
  5
369
100
AcDbEntity
  8
0
100
AcDbCircle
 62
7
  6
CONTINUOUS
 10
23.9960176534
 20
7.8689506214
 40
0.47
100
AcDbArc
 50
106.1883649903
 51
168.7907408537
  0
ARC
  5
36A
100
AcDbEntity
  8
0
100
AcDbCircle
 62
7
  6
CONTINUOUS
 10
21.6079133828
 20
7.9723202349
 40
0.35
100
AcDbArc
 50
133.2760423328
 51
181.14680461
  0
ARC
  5
36B
100
AcDbEntity
  8
0
100
AcDbCircle
 62
7
  6
CONTINUOUS
 10
21.3229988043
 20
7.9953013445
 40
0.1000174556
100
AcDbArc
 50
197.5466424308
 51
245.744324296
  0
ARC
  5
36C
100
AcDbEntity
  8
0
100
AcDbCircle
 62
7
  6
CONTINUOUS
 10
24.1999834891
 20
8.567315272
 40
0.035
100
AcDbArc
 50
0.0
 51
43.8515909751
  0
ARC
  5
36D
100
AcDbEntity
  8
0
100
AcDbCircle
 62
7
  6
CONTINUOUS
 10
21.4499834891
 20
7.885315272
 40
0.035
100
AcDbArc
 50
52.2910051816
 51
180.0
  0
ARC
  5
36E
100
AcDbEntity
  8
0
100
AcDbCircle
 62
7
  6
CONTINUOUS
 10
24.1449834891
 20
8.655315272
 40
0.03
100
AcDbArc
 50
90.0
 51
180.0
  0
ARC
  5
36F
100
AcDbEntity
  8
0
100
AcDbCircle
 62
7
  6
CONTINUOUS
 10
22.6399834891
 20
7.8294532279
 40
0.025
100
AcDbArc
 50
359.99996341
 51
121.542170036
  0
ARC
  5
370
100
AcDbEntity
  8
0
100
AcDbCircle
 62
7
  6
CONTINUOUS
 10
21.3949834891
 20
7.8696695261
 40
0.02
100
AcDbArc
 50
240.9109121012
 51
360.0
  0
ARC
  5
371
100
AcDbEntity
  8
0
100
AcDbCircle
 62
7
  6
CONTINUOUS
 10
21.8859834891
 20
9.997552154
 40
1.81
100
AcDbArc
 50
197.3632888069
 51
202.0562511617
  0
ARC
  5
372
100
AcDbEntity
  8
0
100
AcDbCircle
 62
7
  6
CONTINUOUS
 10
21.8859834891
 20
9.997552154
 40
1.81
100
AcDbArc
 50
159.3601226816
 51
162.6367111931
  0
ARC
  5
373
100
AcDbEntity
  8
0
100
AcDbCircle
 62
7
  6
CONTINUOUS
 10
19.5499834891
 20
9.997552154
 40
1.81
100
AcDbArc
 50
337.9437488383
 51
20.6398773184
  0
ARC
  5
374
100
AcDbEntity
  8
0
100
AcDbCircle
 62
9
  6
CONTINUOUS
 10
18.97444921
 20
9.7014916469
 40
1.3302334054
100
AcDbArc
 50
27.9176596573
 51
30.2146293627
  0
ARC
  5
375
100
AcDbEntity
  8
0
100
AcDbCircle
 62
9
  6
CONTINUOUS
 10
19.0537012533
 20
10.2505666261
 40
1.2400507195
100
AcDbArc
 50
331.5513690264
 51
332.1332734118
  0
ARC
  5
376
100
AcDbEntity
  8
0
100
AcDbCircle
 62
7
  6
CONTINUOUS
 10
20.2857408127
 20
10.600315272
 40
0.1
100
AcDbArc
 50
89.9999998498
 51
159.3601224411
  0
ARC
  5
377
100
AcDbEntity
  8
0
100
AcDbCircle
 62
7
  6
CONTINUOUS
 10
21.1502261656
 20
10.600315272
 40
0.1
100
AcDbArc
 50
20.6398775589
 51
90.0000001502
  0
ARC
  5
378
100
AcDbEntity
  8
0
100
AcDbCircle
 62
7
  6
CONTINUOUS
 10
21.3202013444
 20
9.280315272
 40
0.1
100
AcDbArc
 50
157.9437488383
 51
225.5715282959
  0
ARC
  5
379
100
AcDbEntity
  8
0
100
AcDbCircle
 62
7
  6
CONTINUOUS
 10
20.1157656339
 20
9.280315272
 40
0.1
100
AcDbArc
 50
314.4284717041
 51
22.0562511617
  0
ARC
  5
37A
100
AcDbEntity
  8
0
100
AcDbCircle
 62
7
  6
CONTINUOUS
 10
20.3579834891
 20
10.700315272
 40
0.06
100
AcDbArc
 50
98.8015353092
 51
180.0
  0
ARC
  5
37B
100
AcDbEntity
  8
0
100
AcDbCircle
 62
7
  6
CONTINUOUS
 10
21.0779834891
 20
10.700315272
 40
0.06
100
AcDbArc
 50
0.0
 51
81.1984646908
  0
ARC
  5
37C
100
AcDbEntity
  8
0
100
AcDbCircle
 62
7
  6
CONTINUOUS
 10
20.220768378
 20
9.1731965354
 40
0.05
100
AcDbArc
 50
134.4284718477
 51
230.0599998062
  0
ARC
  5
37D
100
AcDbEntity
  8
0
100
AcDbCircle
 62
7
  6
CONTINUOUS
 10
21.2151986003
 20
9.1731965354
 40
0.05
100
AcDbArc
 50
309.9400001938
 51
45.5715281523
  0
ARC
  5
37E
100
AcDbEntity
  8
0
100
AcDbCircle
 62
7
  6
CONTINUOUS
 10
19.6779834891
 20
10.447552154
 40
0.02
100
AcDbArc
 50
90.0
 51
180.0
  0
ARC
  5
37F
100
AcDbEntity
  8
0
100
AcDbCircle
 62
7
  6
CONTINUOUS
 10
19.6779834891
 20
9.547552154
 40
0.02
100
AcDbArc
 50
180.0
 51
270.0
  0
SPLINE
  5
380
100
AcDbEntity
  8
0
100
AcDbSpline
 62
7
  6
CONTINUOUS
 70
0
 71
3
 72
41
 73
37
 74
0
 42
0.0000001
 43
0.0000001
 44
0.0000000001
 40
0.0
 40
0.0
 40
0.0
 40
0.0
 40
0.0258807233
 40
0.0507767882
 40
0.0741341493
 40
0.0958483787
 40
0.1160602895
 40
0.1349902738
 40
0.1528579359
 40
0.1698550918
 40
0.2018294843
 40
0.2318842228
 40
0.2606409807
 40
0.288511967
 40
0.3157745442
 40
0.3426179279
 40
0.3955131742
 40
0.4478632569
 40
0.5000002885
 40
0.552137312
 40
0.6044873542
 40
0.6573825759
 40
0.6842259247
 40
0.7114884772
 40
0.7393594386
 40
0.768116163
 40
0.7981708484
 40
0.8301451585
 40
0.8471422624
 40
0.8650098617
 40
0.8839397267
 40
0.9041515408
 40
0.9258656683
 40
0.9492230586
 40
0.9741192063
 40
1.0
 40
1.0
 40
1.0
 40
1.0
 10
19.8714834891
 20
7.8554605986
 30
0.0
 10
19.8741865356
 20
7.8554605986
 30
0.0
 10
19.8794953394
 20
7.8551430947
 30
0.0
 10
19.8871330239
 20
7.8537763449
 30
0.0
 10
19.8941521078
 20
7.8516919104
 30
0.0
 10
19.9004616099
 20
7.8490774824
 30
0.0
 10
19.906080135
 20
7.8460865102
 30
0.0
 10
19.9110728189
 20
7.842829026
 30
0.0
 10
19.915515396
 20
7.8393796909
 30
0.0
 10
19.9206935797
 20
7.8346900209
 30
0.0
 10
19.9262253843
 20
7.8285298846
 30
0.0
 10
19.9316781296
 20
7.8207499685
 30
0.0
 10
19.936092729
 20
7.8128301895
 30
0.0
 10
19.9396730017
 20
7.8048228938
 30
0.0
 10
19.9425702481
 20
7.7967585831
 30
0.0
 10
19.9456578128
 20
7.7860116014
 30
0.0
 10
19.9483430361
 20
7.7724536615
 30
0.0
 10
19.950115252
 20
7.7560962106
 30
0.0
 10
19.9506790946
 20
7.7397342723
 30
0.0
 10
19.9501152956
 20
7.723372333
 30
0.0
 10
19.9483429685
 20
7.7070149015
 30
0.0
 10
19.945657741
 20
7.6934569751
 30
0.0
 10
19.9425701767
 20
7.6827100034
 30
0.0
 10
19.9396729835
 20
7.6746456824
 30
0.0
 10
19.9360926806
 20
7.6666384081
 30
0.0
 10
19.931678075
 20
7.6587186476
 30
0.0
 10
19.9262253344
 20
7.6509387478
 30
0.0
 10
19.9206935122
 20
7.6447786555
 30
0.0
 10
19.9155153549
 20
7.6400889872
 30
0.0
 10
19.9110727855
 20
7.6366396813
 30
0.0
 10
19.9060801267
 20
7.6333822131
 30
0.0
 10
19.9004616329
 20
7.6303912528
 30
0.0
 10
19.8941521491
 20
7.6277768273
 30
0.0
 10
19.8871330654
 20
7.6256923871
 30
0.0
 10
19.8794953622
 20
7.6243256356
 30
0.0
 10
19.874186543
 20
7.6240081206
 30
0.0
 10
19.8714834891
 20
7.6240081206
 30
0.0
  0
SPLINE
  5
381
100
AcDbEntity
  8
0
100
AcDbSpline
 62
7
  6
CONTINUOUS
 70
0
 71
3
 72
17
 73
13
 74
0
 42
0.0000001
 43
0.0000001
 44
0.0000000001
 40
0.0
 40
0.0
 40
0.0
 40
0.0
 40
0.0849554428
 40
0.167801427
 40
0.2470828592
 40
0.322153146
 40
0.4598223158
 40
0.5836660214
 40
0.6971622634
 40
0.8031139099
 40
0.9035708585
 40
1.0
 40
1.0
 40
1.0
 40
1.0
 10
19.8714834891
 20
7.6240081206
 30
0.0
 10
19.8693476511
 20
7.6240081206
 30
0.0
 10
19.8651262472
 20
7.6242075074
 30
0.0
 10
19.8589674268
 20
7.6250785121
 30
0.0
 10
19.8531541488
 20
7.6264439363
 30
0.0
 10
19.84617058
 20
7.6287316163
 30
0.0
 10
19.8384634844
 20
7.6323121148
 30
0.0
 10
19.8305482194
 20
7.6374845693
 30
0.0
 10
19.8239619305
 20
7.6430934638
 30
0.0
 10
19.8184485787
 20
7.6489691938
 30
0.0
 10
19.8138050785
 20
7.655016014
 30
0.0
 10
19.811140542
 20
7.6591951053
 30
0.0
 10
19.8099183053
 20
7.6612887486
 30
0.0
  0
SPLINE
  5
382
100
AcDbEntity
  8
0
100
AcDbSpline
 62
7
  6
CONTINUOUS
 70
0
 71
3
 72
28
 73
24
 74
0
 42
0.0000001
 43
0.0000001
 44
0.0000000001
 40
0.0
 40
0.0
 40
0.0
 40
0.0
 40
0.0156280446
 40
0.0312587448
 40
0.046887362
 40
0.0625182576
 40
0.0937502839
 40
0.1249938184
 40
0.1562433268
 40
0.187495772
 40
0.2187496214
 40
0.2500036231
 40
0.2812569622
 40
0.3125109372
 40
0.3750065887
 40
0.4375053481
 40
0.5000054745
 40
0.5625060235
 40
0.6250064732
 40
0.6875073543
 40
0.7500081598
 40
0.875003178
 40
1.0
 40
1.0
 40
1.0
 40
1.0
 10
19.871483489
 20
7.4567687099
 30
0.0
 10
19.8728444884
 20
7.4567687099
 30
0.0
 10
19.8755694637
 20
7.4566030017
 30
0.0
 10
19.8795959654
 20
7.4558740211
 30
0.0
 10
19.8835143146
 20
7.4546945704
 30
0.0
 10
19.8885392936
 20
7.4525830895
 30
0.0
 10
19.8943992369
 20
7.4490539263
 30
0.0
 10
19.9006750453
 20
7.4437972414
 30
0.0
 10
19.9062529765
 20
7.4378129689
 30
0.0
 10
19.911207863
 20
7.4313099662
 30
0.0
 10
19.9156192603
 20
7.424430177
 30
0.0
 10
19.919557691
 20
7.4172715964
 30
0.0
 10
19.9230844871
 20
7.4099029622
 30
0.0
 10
19.9273031106
 20
7.3998638107
 30
0.0
 10
19.9317836933
 20
7.3870007283
 30
0.0
 10
19.9361532181
 20
7.371259441
 30
0.0
 10
19.9397076588
 20
7.3553161418
 30
0.0
 10
19.9425897388
 20
7.3392396465
 30
0.0
 10
19.9449088726
 20
7.323073394
 30
0.0
 10
19.9467486722
 20
7.3068462963
 30
0.0
 10
19.948648271
 20
7.2851559726
 30
0.0
 10
19.9501167911
 20
7.2579736118
 30
0.0
 10
19.9504914001
 20
7.2362008687
 30
0.0
 10
19.9504914001
 20
7.225315272
 30
0.0
  0
SPLINE
  5
383
100
AcDbEntity
  8
0
100
AcDbSpline
 62
7
  6
CONTINUOUS
 70
0
 71
3
 72
28
 73
24
 74
0
 42
0.0000001
 43
0.0000001
 44
0.0000000001
 40
0.0
 40
0.0
 40
0.0
 40
0.0
 40
0.1249968198
 40
0.2499918348
 40
0.3124926389
 40
0.3749935163
 40
0.4374939617
 40
0.4999945061
 40
0.5624946279
 40
0.6249933719
 40
0.6874890017
 40
0.7187429627
 40
0.7499962864
 40
0.7812502531
 40
0.812504078
 40
0.843756468
 40
0.8750059309
 40
0.9062494468
 40
0.9374815421
 40
0.9531124739
 40
0.9687411731
 40
0.9843719152
 40
1.0
 40
1.0
 40
1.0
 40
1.0
 10
19.9504914001
 20
7.225315272
 30
0.0
 10
19.9504914001
 20
7.2144296762
 30
0.0
 10
19.9501167919
 20
7.1926569352
 30
0.0
 10
19.9486482706
 20
7.1654745773
 30
0.0
 10
19.9467486739
 20
7.1437842557
 30
0.0
 10
19.9449088731
 20
7.1275571603
 30
0.0
 10
19.9425897408
 20
7.1113909099
 30
0.0
 10
19.9397076618
 20
7.0953144169
 30
0.0
 10
19.9361532228
 20
7.0793711207
 30
0.0
 10
19.9317836992
 20
7.0636298382
 30
0.0
 10
19.9273031195
 20
7.0507667606
 30
0.0
 10
19.9230845001
 20
7.0407276132
 30
0.0
 10
19.9195577114
 20
7.0333589822
 30
0.0
 10
19.9156192807
 20
7.0262004099
 30
0.0
 10
19.911207895
 20
7.0193206259
 30
0.0
 10
19.9062530198
 20
7.0128176296
 30
0.0
 10
19.900675106
 20
7.0068333546
 30
0.0
 10
19.8943992998
 20
7.0015766715
 30
0.0
 10
19.8885393673
 20
6.9980474694
 30
0.0
 10
19.8835143592
 20
6.9959360192
 30
0.0
 10
19.8795960233
 20
6.9947564918
 30
0.0
 10
19.8755694869
 20
6.9940275263
 30
0.0
 10
19.8728444918
 20
6.9938621029
 30
0.0
 10
19.8714834891
 20
6.9938621029
 30
0.0
  0
SPLINE
  5
384
100
AcDbEntity
  8
0
100
AcDbSpline
 62
7
  6
CONTINUOUS
 70
0
 71
3
 72
19
 73
15
 74
0
 42
0.0000001
 43
0.0000001
 44
0.0000000001
 40
0.0
 40
0.0
 40
0.0
 40
0.0
 40
0.0624644127
 40
0.1249351915
 40
0.1874241877
 40
0.2499251152
 40
0.3124343305
 40
0.3749482822
 40
0.4374655239
 40
0.4999830159
 40
0.6249723553
 40
0.7499758651
 40
0.8749877546
 40
1.0
 40
1.0
 40
1.0
 40
1.0
 10
19.8714834891
 20
6.9938621029
 30
0.0
 10
19.8693405182
 20
6.9938621029
 30
0.0
 10
19.8650439251
 20
6.9942744419
 30
0.0
 10
19.8588324634
 20
6.9960529194
 30
0.0
 10
19.8529993694
 20
6.9988211945
 30
0.0
 10
19.8476175993
 20
7.0023766834
 30
0.0
 10
19.8426955425
 20
7.0065386947
 30
0.0
 10
19.8382099625
 20
7.0111633073
 30
0.0
 10
19.8341243999
 20
7.0161421395
 30
0.0
 10
19.8291599677
 20
7.0231439284
 30
0.0
 10
19.8237581336
 20
7.0324306377
 30
0.0
 10
19.8183163515
 20
7.0441021069
 30
0.0
 10
19.8137191259
 20
7.0561281137
 30
0.0
 10
19.8111200264
 20
7.0643070438
 30
0.0
 10
19.8099183053
 20
7.0684240455
 30
0.0
  0
SPLINE
  5
385
100
AcDbEntity
  8
0
100
AcDbSpline
 62
7
  6
CONTINUOUS
 70
0
 71
3
 72
17
 73
13
 74
0
 42
0.0000001
 43
0.0000001
 44
0.0000000001
 40
0.0
 40
0.0
 40
0.0
 40
0.0
 40
0.0849554469
 40
0.1678014297
 40
0.2470828592
 40
0.322153145
 40
0.4598223161
 40
0.5836660227
 40
0.6971622649
 40
0.803113911
 40
0.9035708591
 40
1.0
 40
1.0
 40
1.0
 40
1.0
 10
19.8714834891
 20
6.8266224189
 30
0.0
 10
19.869347651
 20
6.8266224189
 30
0.0
 10
19.8651262466
 20
6.8264230398
 30
0.0
 10
19.8589674267
 20
6.8255520307
 30
0.0
 10
19.8531541486
 20
6.8241866079
 30
0.0
 10
19.8461705799
 20
6.8218989274
 30
0.0
 10
19.8384634843
 20
6.8183184292
 30
0.0
 10
19.8305482193
 20
6.8131459746
 30
0.0
 10
19.8239619304
 20
6.80753708
 30
0.0
 10
19.8184485786
 20
6.80166135
 30
0.0
 10
19.8138050785
 20
6.7956145299
 30
0.0
 10
19.811140542
 20
6.7914354386
 30
0.0
 10
19.8099183053
 20
6.7893417954
 30
0.0
  0
SPLINE
  5
386
100
AcDbEntity
  8
0
100
AcDbSpline
 62
7
  6
CONTINUOUS
 70
0
 71
3
 72
15
 73
11
 74
0
 42
0.0000001
 43
0.0000001
 44
0.0000000001
 40
0.0
 40
0.0
 40
0.0
 40
0.0
 40
0.1249856248
 40
0.2500127839
 40
0.3125286335
 40
0.3750363036
 40
0.5000396162
 40
0.6250467907
 40
0.7500445703
 40
1.0
 40
1.0
 40
1.0
 40
1.0
 10
19.7849537182
 20
7.225315272
 30
0.0
 10
19.7849537182
 20
7.2186740528
 30
0.0
 10
19.7852512235
 20
7.2053877383
 30
0.0
 10
19.7863424305
 20
7.1888119645
 30
0.0
 10
19.7876332148
 20
7.1755873016
 30
0.0
 10
19.7891974043
 20
7.1623934786
 30
0.0
 10
19.7916435517
 20
7.1459642686
 30
0.0
 10
19.7952959695
 20
7.126371341
 30
0.0
 10
19.8010331683
 20
7.1004285884
 30
0.0
 10
19.8061968069
 20
7.0811736059
 30
0.0
 10
19.8099183053
 20
7.0684240455
 30
0.0
  0
SPLINE
  5
387
100
AcDbEntity
  8
0
100
AcDbSpline
 62
7
  6
CONTINUOUS
 70
0
 71
3
 72
25
 73
21
 74
0
 42
0.0000001
 43
0.0000001
 44
0.0000000001
 40
0.0
 40
0.0
 40
0.0
 40
0.0
 40
0.0659500418
 40
0.1308625136
 40
0.1946768552
 40
0.2574028752
 40
0.3191092254
 40
0.3799384157
 40
0.4101007728
 40
0.4401403002
 40
0.4999997059
 40
0.5598589864
 40
0.5898984228
 40
0.6200607568
 40
0.6808902433
 40
0.7425972684
 40
0.805323894
 40
0.8691382031
 40
0.9340502424
 40
1.0
 40
1.0
 40
1.0
 40
1.0
 10
19.8099183053
 20
6.7893417954
 30
0.0
 10
19.8080717681
 20
6.7861787498
 30
0.0
 10
19.8045179744
 20
6.7798369069
 30
0.0
 10
19.7996407141
 20
6.7701837164
 30
0.0
 10
19.7953329523
 20
6.7604570366
 30
0.0
 10
19.791675128
 20
6.750655777
 30
0.0
 10
19.7887332327
 20
6.7407879401
 30
0.0
 10
19.7869260183
 20
6.7324925051
 30
0.0
 10
19.7859086236
 20
6.7258465114
 30
0.0
 10
19.7851851669
 20
6.7192163618
 30
0.0
 10
19.7848213581
 20
6.7108962005
 30
0.0
 10
19.7851847506
 20
6.7025760208
 30
0.0
 10
19.7859080347
 20
6.6959458636
 30
0.0
 10
19.7869254247
 20
6.6892998567
 30
0.0
 10
19.7887328864
 20
6.6810044147
 30
0.0
 10
19.7916751892
 20
6.6711366099
 30
0.0
 10
19.7953332252
 20
6.6613353619
 30
0.0
 10
19.7996409242
 20
6.6516086493
 30
0.0
 10
19.8045180491
 20
6.6419554367
 30
0.0
 10
19.808071776
 20
6.6356136008
 30
0.0
 10
19.8099183053
 20
6.6324505689
 30
0.0
  0
SPLINE
  5
388
100
AcDbEntity
  8
0
100
AcDbSpline
 62
7
  6
CONTINUOUS
 70
0
 71
3
 72
17
 73
13
 74
0
 42
0.0000001
 43
0.0000001
 44
0.0000000001
 40
0.0
 40
0.0
 40
0.0
 40
0.0
 40
0.0849554469
 40
0.1678014297
 40
0.2470828592
 40
0.322153145
 40
0.4598223161
 40
0.5836660227
 40
0.6971622649
 40
0.803113911
 40
0.9035708591
 40
1.0
 40
1.0
 40
1.0
 40
1.0
 10
19.8714834891
 20
7.8554605986
 30
0.0
 10
19.869347651
 20
7.8554605986
 30
0.0
 10
19.8651262466
 20
7.8552612195
 30
0.0
 10
19.8589674267
 20
7.8543902104
 30
0.0
 10
19.8531541486
 20
7.8530247876
 30
0.0
 10
19.8461705799
 20
7.8507371071
 30
0.0
 10
19.8384634843
 20
7.8471566089
 30
0.0
 10
19.8305482193
 20
7.8419841543
 30
0.0
 10
19.8239619304
 20
7.8363752597
 30
0.0
 10
19.8184485786
 20
7.8304995297
 30
0.0
 10
19.8138050785
 20
7.8244527096
 30
0.0
 10
19.811140542
 20
7.8202736183
 30
0.0
 10
19.8099183053
 20
7.8181799751
 30
0.0
  0
SPLINE
  5
389
100
AcDbEntity
  8
0
100
AcDbSpline
 62
7
  6
CONTINUOUS
 70
0
 71
3
 72
19
 73
15
 74
0
 42
0.0000001
 43
0.0000001
 44
0.0000000001
 40
0.0
 40
0.0
 40
0.0
 40
0.0
 40
0.0624644812
 40
0.1249351671
 40
0.187424195
 40
0.2499251097
 40
0.3124343296
 40
0.3749482797
 40
0.4374655234
 40
0.4999830162
 40
0.6249723559
 40
0.7499758658
 40
0.8749877552
 40
1.0
 40
1.0
 40
1.0
 40
1.0
 10
19.871483489
 20
7.4567687099
 30
0.0
 10
19.8693405154
 20
7.4567687099
 30
0.0
 10
19.8650439699
 20
7.4563559086
 30
0.0
 10
19.8588324646
 20
7.4545776959
 30
0.0
 10
19.852999389
 20
7.4518093381
 30
0.0
 10
19.8476176093
 20
7.4482538754
 30
0.0
 10
19.8426955533
 20
7.444091857
 30
0.0
 10
19.8382099704
 20
7.4394672466
 30
0.0
 10
19.8341244067
 20
7.4344884133
 30
0.0
 10
19.8291599727
 20
7.4274866237
 30
0.0
 10
19.8237581369
 20
7.4181999128
 30
0.0
 10
19.8183163533
 20
7.4065284416
 30
0.0
 10
19.8137191267
 20
7.3945024325
 30
0.0
 10
19.8111200266
 20
7.3863235009
 30
0.0
 10
19.8099183053
 20
7.3822064984
 30
0.0
  0
SPLINE
  5
38A
100
AcDbEntity
  8
0
100
AcDbSpline
 62
7
  6
CONTINUOUS
 70
0
 71
3
 72
41
 73
37
 74
0
 42
0.0000001
 43
0.0000001
 44
0.0000000001
 40
0.0
 40
0.0
 40
0.0
 40
0.0
 40
0.0258807233
 40
0.0507767882
 40
0.0741341493
 40
0.0958483787
 40
0.1160602895
 40
0.1349902738
 40
0.1528579359
 40
0.1698550918
 40
0.2018294843
 40
0.2318842228
 40
0.2606409807
 40
0.288511967
 40
0.3157745442
 40
0.3426179279
 40
0.3955131742
 40
0.4478632569
 40
0.5000002885
 40
0.552137312
 40
0.6044873542
 40
0.6573825759
 40
0.6842259247
 40
0.7114884772
 40
0.7393594386
 40
0.768116163
 40
0.7981708484
 40
0.8301451585
 40
0.8471422624
 40
0.8650098617
 40
0.8839397267
 40
0.9041515408
 40
0.9258656683
 40
0.9492230586
 40
0.9741192063
 40
1.0
 40
1.0
 40
1.0
 40
1.0
 10
19.8714834891
 20
6.8266224189
 30
0.0
 10
19.8741865356
 20
6.8266224189
 30
0.0
 10
19.8794953394
 20
6.826304915
 30
0.0
 10
19.8871330239
 20
6.8249381652
 30
0.0
 10
19.8941521078
 20
6.8228537307
 30
0.0
 10
19.9004616099
 20
6.8202393027
 30
0.0
 10
19.906080135
 20
6.8172483305
 30
0.0
 10
19.9110728189
 20
6.8139908463
 30
0.0
 10
19.915515396
 20
6.8105415112
 30
0.0
 10
19.9206935797
 20
6.8058518412
 30
0.0
 10
19.9262253843
 20
6.7996917049
 30
0.0
 10
19.9316781296
 20
6.7919117888
 30
0.0
 10
19.936092729
 20
6.7839920099
 30
0.0
 10
19.9396730017
 20
6.7759847142
 30
0.0
 10
19.9425702481
 20
6.7679204034
 30
0.0
 10
19.9456578128
 20
6.7571734217
 30
0.0
 10
19.9483430361
 20
6.7436154818
 30
0.0
 10
19.950115252
 20
6.7272580309
 30
0.0
 10
19.9506790946
 20
6.7108960926
 30
0.0
 10
19.9501152956
 20
6.6945341533
 30
0.0
 10
19.9483429685
 20
6.6781767218
 30
0.0
 10
19.945657741
 20
6.6646187954
 30
0.0
 10
19.9425701767
 20
6.6538718238
 30
0.0
 10
19.9396729835
 20
6.6458075027
 30
0.0
 10
19.9360926806
 20
6.6378002284
 30
0.0
 10
19.931678075
 20
6.6298804679
 30
0.0
 10
19.9262253344
 20
6.6221005681
 30
0.0
 10
19.9206935122
 20
6.6159404758
 30
0.0
 10
19.9155153549
 20
6.6112508075
 30
0.0
 10
19.9110727855
 20
6.6078015016
 30
0.0
 10
19.9060801267
 20
6.6045440334
 30
0.0
 10
19.9004616329
 20
6.6015530731
 30
0.0
 10
19.8941521491
 20
6.5989386476
 30
0.0
 10
19.8871330654
 20
6.5968542074
 30
0.0
 10
19.8794953622
 20
6.5954874559
 30
0.0
 10
19.874186543
 20
6.5951699409
 30
0.0
 10
19.8714834891
 20
6.5951699409
 30
0.0
  0
SPLINE
  5
38B
100
AcDbEntity
  8
0
100
AcDbSpline
 62
7
  6
CONTINUOUS
 70
0
 71
3
 72
17
 73
13
 74
0
 42
0.0000001
 43
0.0000001
 44
0.0000000001
 40
0.0
 40
0.0
 40
0.0
 40
0.0
 40
0.0849554428
 40
0.167801427
 40
0.2470828592
 40
0.322153146
 40
0.4598223158
 40
0.5836660214
 40
0.6971622634
 40
0.8031139099
 40
0.9035708585
 40
1.0
 40
1.0
 40
1.0
 40
1.0
 10
19.8714834891
 20
6.5951699409
 30
0.0
 10
19.8693476511
 20
6.5951699409
 30
0.0
 10
19.8651262472
 20
6.5953693277
 30
0.0
 10
19.8589674268
 20
6.5962403324
 30
0.0
 10
19.8531541488
 20
6.5976057566
 30
0.0
 10
19.84617058
 20
6.5998934366
 30
0.0
 10
19.8384634844
 20
6.6034739351
 30
0.0
 10
19.8305482194
 20
6.6086463896
 30
0.0
 10
19.8239619305
 20
6.6142552841
 30
0.0
 10
19.8184485787
 20
6.6201310141
 30
0.0
 10
19.8138050785
 20
6.6261778343
 30
0.0
 10
19.811140542
 20
6.6303569256
 30
0.0
 10
19.8099183053
 20
6.6324505689
 30
0.0
  0
SPLINE
  5
38C
100
AcDbEntity
  8
0
100
AcDbSpline
 62
7
  6
CONTINUOUS
 70
0
 71
3
 72
25
 73
21
 74
0
 42
0.0000001
 43
0.0000001
 44
0.0000000001
 40
0.0
 40
0.0
 40
0.0
 40
0.0
 40
0.0659497555
 40
0.1308617907
 40
0.1946760966
 40
0.2574027212
 40
0.3191097448
 40
0.3799392306
 40
0.4101015656
 40
0.4401410039
 40
0.5000002884
 40
0.5598596955
 40
0.5898992231
 40
0.6200615809
 40
0.6808907739
 40
0.7425971279
 40
0.8053231506
 40
0.8691374911
 40
0.9340499599
 40
1.0
 40
1.0
 40
1.0
 40
1.0
 10
19.8099183053
 20
7.8181799751
 30
0.0
 10
19.8080717761
 20
7.8150169433
 30
0.0
 10
19.8045180495
 20
7.8086751077
 30
0.0
 10
19.7996409256
 20
7.7990218953
 30
0.0
 10
19.7953332282
 20
7.7892951827
 30
0.0
 10
19.7916751934
 20
7.7794939348
 30
0.0
 10
19.7887328904
 20
7.7696261305
 30
0.0
 10
19.7869254288
 20
7.7613306886
 30
0.0
 10
19.7859080403
 20
7.7546846814
 30
0.0
 10
19.7851847564
 20
7.7480545239
 30
0.0
 10
19.7848213616
 20
7.7397343442
 30
0.0
 10
19.7851851676
 20
7.7314141825
 30
0.0
 10
19.7859086235
 20
7.7247840327
 30
0.0
 10
19.7869260186
 20
7.718138039
 30
0.0
 10
19.7887332341
 20
7.7098426039
 30
0.0
 10
19.7916751307
 20
7.6999747671
 30
0.0
 10
19.7953329552
 20
7.6901735075
 30
0.0
 10
19.7996407159
 20
7.6804468275
 30
0.0
 10
19.804517975
 20
7.6707936368
 30
0.0
 10
19.8080717681
 20
7.664451794
 30
0.0
 10
19.8099183053
 20
7.6612887486
 30
0.0
  0
SPLINE
  5
38D
100
AcDbEntity
  8
0
100
AcDbSpline
 62
7
  6
CONTINUOUS
 70
0
 71
3
 72
14
 73
10
 74
0
 42
0.0000001
 43
0.0000001
 44
0.0000000001
 40
0.0
 40
0.0
 40
0.0
 40
0.0
 40
0.2499587403
 40
0.3749579882
 40
0.4999667946
 40
0.6249713375
 40
0.7499874132
 40
0.8750139457
 40
1.0
 40
1.0
 40
1.0
 40
1.0
 10
19.8099183053
 20
7.3822064984
 30
0.0
 10
19.8061967823
 20
7.369456854
 30
0.0
 10
19.801033234
 20
7.3502017083
 30
0.0
 10
19.7952958959
 20
7.3242588594
 30
0.0
 10
19.7916437204
 20
7.3046656583
 30
0.0
 10
19.788707772
 20
7.2849509183
 30
0.0
 10
19.7865597764
 20
7.2651328896
 30
0.0
 10
19.7852512546
 20
7.245242773
 30
0.0
 10
19.7849537182
 20
7.2319564698
 30
0.0
 10
19.7849537182
 20
7.225315272
 30
0.0
  0
SPLINE
  5
38E
100
AcDbEntity
  8
0
100
AcDbSpline
 62
7
  6
CONTINUOUS
 70
0
 71
3
 72
22
 73
18
 74
0
 42
0.0000001
 43
0.0000001
 44
0.0000000001
 40
0.0
 40
0.0
 40
0.0
 40
0.0
 40
0.0624977506
 40
0.1250362546
 40
0.1563095789
 40
0.1875752741
 40
0.2500924313
 40
0.3126129646
 40
0.3751216706
 40
0.4376203603
 40
0.5001254823
 40
0.5626260316
 40
0.6251127615
 40
0.6875984283
 40
0.7500853981
 40
0.8750442299
 40
1.0
 40
1.0
 40
1.0
 40
1.0
 10
10.1499834891
 20
11.7199503683
 30
0.0
 10
10.1562790923
 20
11.7199503683
 30
0.0
 10
10.1688771485
 20
11.7195752108
 30
0.0
 10
10.1845716557
 20
11.7182071216
 30
0.0
 10
10.1970689731
 20
11.7165951837
 30
0.0
 10
10.2095157668
 20
11.7146448404
 30
0.0
 10
10.2249708871
 20
11.7116004954
 30
0.0
 10
10.2433194757
 20
11.7070755582
 30
0.0
 10
10.2614555849
 20
11.7017726521
 30
0.0
 10
10.2793743553
 20
11.695784934
 30
0.0
 10
10.2970824591
 20
11.6892054566
 30
0.0
 10
10.3145944977
 20
11.6821260757
 30
0.0
 10
10.3319283396
 20
11.6746273232
 30
0.0
 10
10.3491013756
 20
11.6667715821
 30
0.0
 10
10.3718131811
 20
11.6559054496
 30
0.0
 10
10.3999205361
 20
11.6417463233
 30
0.0
 10
10.4221987881
 20
11.6300212598
 30
0.0
 10
10.4333119205
 20
11.6241105919
 30
0.0
  0
SPLINE
  5
38F
100
AcDbEntity
  8
0
100
AcDbSpline
 62
7
  6
CONTINUOUS
 70
0
 71
3
 72
21
 73
17
 74
0
 42
0.0000001
 43
0.0000001
 44
0.0000000001
 40
0.0
 40
0.0
 40
0.0
 40
0.0
 40
0.1249972989
 40
0.187496389
 40
0.2499955165
 40
0.3124946291
 40
0.3749950351
 40
0.4374951117
 40
0.4999970101
 40
0.5624984169
 40
0.6250016827
 40
0.7499862341
 40
0.8124903309
 40
0.8749928236
 40
0.9374976386
 40
1.0
 40
1.0
 40
1.0
 40
1.0
 10
10.4333119205
 20
11.1666148108
 30
0.0
 10
10.4218551698
 20
11.1619127555
 30
0.0
 10
10.4046950402
 20
11.1547988265
 30
0.0
 10
10.3818029724
 20
11.1453424249
 30
0.0
 10
10.3646108472
 20
11.1383058778
 30
0.0
 10
10.3473748808
 20
11.1313767814
 30
0.0
 10
10.3300762355
 20
11.1246049176
 30
0.0
 10
10.3126910202
 20
11.1180567747
 30
0.0
 10
10.2951987677
 20
11.1117990183
 30
0.0
 10
10.2775757822
 20
11.1059148474
 30
0.0
 10
10.2538851142
 20
11.0986860363
 30
0.0
 10
10.2298531757
 20
11.0925795709
 30
0.0
 10
10.2054981642
 20
11.0880336661
 30
0.0
 10
10.1870847666
 20
11.0855072346
 30
0.0
 10
10.1685638077
 20
11.0839517998
 30
0.0
 10
10.1561759175
 20
11.0836013327
 30
0.0
 10
10.1499834891
 20
11.0836013327
 30
0.0
  0
SPLINE
  5
390
100
AcDbEntity
  8
0
100
AcDbSpline
 62
7
  6
CONTINUOUS
 70
0
 71
3
 72
39
 73
35
 74
0
 42
0.0000001
 43
0.0000001
 44
0.0000000001
 40
0.0
 40
0.0
 40
0.0
 40
0.0
 40
0.0665555395
 40
0.0998282259
 40
0.1330198418
 40
0.1660597732
 40
0.1988775011
 40
0.2313905483
 40
0.2635150892
 40
0.295163945
 40
0.3262541909
 40
0.3567154794
 40
0.3865056174
 40
0.4156255407
 40
0.4441410438
 40
0.4721921123
 40
0.4861123628
 40
0.4999999966
 40
0.5138876301
 40
0.5278078821
 40
0.5558589517
 40
0.5843744521
 40
0.6134943727
 40
0.6432845099
 40
0.6737458038
 40
0.7048360428
 40
0.7364849093
 40
0.7686094412
 40
0.8011224977
 40
0.8339402232
 40
0.8669801556
 40
0.9001717751
 40
0.9334444592
 40
1.0
 40
1.0
 40
1.0
 40
1.0
 10
9.7850228436
 20
11.1666148108
 30
0.0
 10
9.7792857285
 20
11.1619055816
 30
0.0
 10
9.770715657
 20
11.1547993819
 30
0.0
 10
9.7592789231
 20
11.1453513985
 30
0.0
 10
9.7506923852
 20
11.1383219758
 30
0.0
 10
9.7420838111
 20
11.1314000416
 30
0.0
 10
9.7334457584
 20
11.1246366361
 30
0.0
 10
9.7247653654
 20
11.1180952848
 30
0.0
 10
9.7160320454
 20
11.1118452214
 30
0.0
 10
9.7072343463
 20
11.1059655386
 30
0.0
 10
9.6983611468
 20
11.1005459105
 30
0.0
 10
9.6894033948
 20
11.095684323
 30
0.0
 10
9.6803545586
 20
11.0914874555
 30
0.0
 10
9.6712131365
 20
11.088065243
 30
0.0
 10
9.6619868648
 20
11.0855232918
 30
0.0
 10
9.6542193235
 20
11.0842139233
 30
0.0
 10
9.6480092507
 20
11.0836888728
 30
0.0
 10
9.6433586291
 20
11.0835581354
 30
0.0
 10
9.6387080069
 20
11.083688869
 30
0.0
 10
9.6324979348
 20
11.084213929
 30
0.0
 10
9.6247303927
 20
11.0855232898
 30
0.0
 10
9.6155041205
 20
11.0880652397
 30
0.0
 10
9.6063627013
 20
11.0914874573
 30
0.0
 10
9.5973138623
 20
11.0956843193
 30
0.0
 10
9.5883561132
 20
11.1005459117
 30
0.0
 10
9.5794829089
 20
11.1059655338
 30
0.0
 10
9.5706852158
 20
11.1118452245
 30
0.0
 10
9.5619518876
 20
11.1180952786
 30
0.0
 10
9.5532715008
 20
11.1246366377
 30
0.0
 10
9.5446334435
 20
11.1314000387
 30
0.0
 10
9.5360248702
 20
11.1383219744
 30
0.0
 10
9.5274383339
 20
11.1453513994
 30
0.0
 10
9.5160015972
 20
11.1547993798
 30
0.0
 10
9.5074315275
 20
11.1619055815
 30
0.0
 10
9.5016944123
 20
11.1666148108
 30
0.0
  0
SPLINE
  5
391
100
AcDbEntity
  8
0
100
AcDbSpline
 62
7
  6
CONTINUOUS
 70
0
 71
3
 72
35
 73
31
 74
0
 42
0.0000001
 43
0.0000001
 44
0.0000000001
 40
0.0
 40
0.0
 40
0.0
 40
0.0
 40
0.0690372408
 40
0.1032427633
 40
0.1371650491
 40
0.2038652897
 40
0.2365061306
 40
0.2685689231
 40
0.2999704131
 40
0.3306545252
 40
0.3605766116
 40
0.389707823
 40
0.4180816838
 40
0.4458048715
 40
0.4730390778
 40
0.5000010556
 40
0.5269624494
 40
0.5541963302
 40
0.5819199475
 40
0.6102937713
 40
0.6394241428
 40
0.669345614
 40
0.7000298904
 40
0.731431317
 40
0.7634939824
 40
0.7961349255
 40
0.862834976
 40
0.8967572664
 40
0.9309628124
 40
1.0
 40
1.0
 40
1.0
 40
1.0
 10
9.5016944123
 20
11.6241105919
 30
0.0
 10
9.507225837
 20
11.6299945162
 30
0.0
 10
9.5155443381
 20
11.6387507694
 30
0.0
 10
9.5267843088
 20
11.6502016827
 30
0.0
 10
9.5379859385
 20
11.6613044672
 30
0.0
 10
9.5493475781
 20
11.6719870014
 30
0.0
 10
9.5609681662
 20
11.6820517811
 30
0.0
 10
9.5697086584
 20
11.6891260228
 30
0.0
 10
9.5785497885
 20
11.6956991014
 30
0.0
 10
9.5874985113
 20
11.7016881572
 30
0.0
 10
9.5965586207
 20
11.7070039381
 30
0.0
 10
9.6057318848
 20
11.7115477482
 30
0.0
 10
9.6150172524
 20
11.7152151221
 30
0.0
 10
9.6244037172
 20
11.7179059727
 30
0.0
 10
9.63386051
 20
11.7195671672
 30
0.0
 10
9.6433589306
 20
11.7201407269
 30
0.0
 10
9.652857457
 20
11.7195682545
 30
0.0
 10
9.6623139969
 20
11.717905669
 30
0.0
 10
9.6717002135
 20
11.7152141733
 30
0.0
 10
9.6809858736
 20
11.7115477069
 30
0.0
 10
9.6901590386
 20
11.7070040364
 30
0.0
 10
9.699218969
 20
11.7016882515
 30
0.0
 10
9.7081675161
 20
11.6956990407
 30
0.0
 10
9.7170086332
 20
11.6891259555
 30
0.0
 10
9.7257491201
 20
11.6820517208
 30
0.0
 10
9.7373695957
 20
11.6719868515
 30
0.0
 10
9.7487313526
 20
11.6613044599
 30
0.0
 10
9.7599329516
 20
11.6502016695
 30
0.0
 10
9.7711729051
 20
11.6387507441
 30
0.0
 10
9.7794914231
 20
11.6299945116
 30
0.0
 10
9.7850228436
 20
11.6241105919
 30
0.0
  0
SPLINE
  5
392
100
AcDbEntity
  8
0
100
AcDbSpline
 62
7
  6
CONTINUOUS
 70
0
 71
3
 72
39
 73
35
 74
0
 42
0.0000001
 43
0.0000001
 44
0.0000000001
 40
0.0
 40
0.0
 40
0.0
 40
0.0
 40
0.0665555395
 40
0.0998282259
 40
0.1330198417
 40
0.1660597731
 40
0.198877501
 40
0.2313905478
 40
0.263515089
 40
0.2951639443
 40
0.3262541905
 40
0.3567154788
 40
0.3865056168
 40
0.4156255402
 40
0.4441410431
 40
0.4721921115
 40
0.4861123618
 40
0.4999999957
 40
0.5138876291
 40
0.5278078812
 40
0.5558589508
 40
0.5843744515
 40
0.6134943721
 40
0.6432845093
 40
0.6737458034
 40
0.7048360421
 40
0.7364849092
 40
0.7686094408
 40
0.8011224976
 40
0.8339402231
 40
0.8669801555
 40
0.9001717751
 40
0.9334444592
 40
1.0
 40
1.0
 40
1.0
 40
1.0
 10
10.798272566
 20
11.1666148108
 30
0.0
 10
10.7925354509
 20
11.1619055816
 30
0.0
 10
10.7839653794
 20
11.154799382
 30
0.0
 10
10.7725286455
 20
11.1453513985
 30
0.0
 10
10.7639421076
 20
11.1383219759
 30
0.0
 10
10.7553335335
 20
11.1314000417
 30
0.0
 10
10.7466954809
 20
11.124636636
 30
0.0
 10
10.7380150878
 20
11.1180952851
 30
0.0
 10
10.729281768
 20
11.1118452213
 30
0.0
 10
10.7204840687
 20
11.1059655389
 30
0.0
 10
10.7116108695
 20
11.1005459105
 30
0.0
 10
10.7026531174
 20
11.0956843231
 30
0.0
 10
10.6936042812
 20
11.0914874555
 30
0.0
 10
10.6844628591
 20
11.0880652431
 30
0.0
 10
10.6752365874
 20
11.085523292
 30
0.0
 10
10.6674690462
 20
11.084213923
 30
0.0
 10
10.6612589735
 20
11.083688873
 30
0.0
 10
10.6566083518
 20
11.0835581354
 30
0.0
 10
10.6519577297
 20
11.0836888687
 30
0.0
 10
10.6457476575
 20
11.0842139293
 30
0.0
 10
10.6379801154
 20
11.0855232896
 30
0.0
 10
10.6287538432
 20
11.0880652395
 30
0.0
 10
10.619612424
 20
11.0914874573
 30
0.0
 10
10.6105635848
 20
11.0956843191
 30
0.0
 10
10.6016058359
 20
11.1005459117
 30
0.0
 10
10.5927326313
 20
11.1059655335
 30
0.0
 10
10.5839349385
 20
11.1118452246
 30
0.0
 10
10.57520161
 20
11.1180952783
 30
0.0
 10
10.5665212233
 20
11.1246366378
 30
0.0
 10
10.5578831659
 20
11.1314000386
 30
0.0
 10
10.5492745926
 20
11.1383219744
 30
0.0
 10
10.5406880564
 20
11.1453513994
 30
0.0
 10
10.5292513196
 20
11.1547993798
 30
0.0
 10
10.5206812499
 20
11.1619055815
 30
0.0
 10
10.5149441347
 20
11.1666148108
 30
0.0
  0
SPLINE
  5
393
100
AcDbEntity
  8
0
100
AcDbSpline
 62
7
  6
CONTINUOUS
 70
0
 71
3
 72
35
 73
31
 74
0
 42
0.0000001
 43
0.0000001
 44
0.0000000001
 40
0.0
 40
0.0
 40
0.0
 40
0.0
 40
0.0690371613
 40
0.1032427003
 40
0.137165005
 40
0.2038652474
 40
0.2365063637
 40
0.2685690067
 40
0.2999704583
 40
0.3306550561
 40
0.3605770717
 40
0.3897078907
 40
0.418081788
 40
0.4458053959
 40
0.4730396489
 40
0.5000013923
 40
0.5269628525
 40
0.554196435
 40
0.5819193672
 40
0.6102931465
 40
0.6394241793
 40
0.6693459682
 40
0.700029786
 40
0.731431237
 40
0.7634940236
 40
0.7961346665
 40
0.8628347899
 40
0.8967571036
 40
0.9309626737
 40
1.0
 40
1.0
 40
1.0
 40
1.0
 10
10.5149441347
 20
11.6241105919
 30
0.0
 10
10.5204755566
 20
11.6299945132
 30
0.0
 10
10.5287940963
 20
11.6387507304
 30
0.0
 10
10.5400340603
 20
11.6502016566
 30
0.0
 10
10.5512356574
 20
11.6613044964
 30
0.0
 10
10.5625973931
 20
11.6719869867
 30
0.0
 10
10.5742177973
 20
11.6820520162
 30
0.0
 10
10.5829583181
 20
11.6891262554
 30
0.0
 10
10.5917995016
 20
11.6956993266
 30
0.0
 10
10.6007481371
 20
11.701688601
 30
0.0
 10
10.6098081509
 20
11.7070045614
 30
0.0
 10
10.6189813878
 20
11.7115483728
 30
0.0
 10
10.6282670543
 20
11.7152150334
 30
0.0
 10
10.637653526
 20
11.7179059546
 30
0.0
 10
10.6471102576
 20
11.7195677789
 30
0.0
 10
10.6566087276
 20
11.7201409373
 30
0.0
 10
10.6661071461
 20
11.7195681224
 30
0.0
 10
10.6755637095
 20
11.7179063416
 30
0.0
 10
10.6849498763
 20
11.7152149004
 30
0.0
 10
10.6942351249
 20
11.7115473987
 30
0.0
 10
10.7034083185
 20
11.7070035822
 30
0.0
 10
10.7124683889
 20
11.7016879024
 30
0.0
 10
10.721417085
 20
11.6956989249
 30
0.0
 10
10.7302581879
 20
11.689125864
 30
0.0
 10
10.7389986835
 20
11.6820516624
 30
0.0
 10
10.7506193874
 20
11.671987059
 30
0.0
 10
10.7619810386
 20
11.6613045669
 30
0.0
 10
10.7731826765
 20
11.6502017837
 30
0.0
 10
10.7844226436
 20
11.6387508255
 30
0.0
 10
10.7927411308
 20
11.6299945272
 30
0.0
 10
10.798272566
 20
11.6241105919
 30
0.0
  0
SPLINE
  5
394
100
AcDbEntity
  8
0
100
AcDbSpline
 62
7
  6
CONTINUOUS
 70
0
 71
3
 72
21
 73
17
 74
0
 42
0.0000001
 43
0.0000001
 44
0.0000000001
 40
0.0
 40
0.0
 40
0.0
 40
0.0
 40
0.0625023633
 40
0.1250071786
 40
0.1875096689
 40
0.2500137629
 40
0.3749983128
 40
0.43750158
 40
0.5000029876
 40
0.5625048871
 40
0.6250049641
 40
0.6875053704
 40
0.7500044832
 40
0.8125036107
 40
0.8750027008
 40
1.0
 40
1.0
 40
1.0
 40
1.0
 10
10.1499834891
 20
11.0836013327
 30
0.0
 10
10.1437910605
 20
11.0836013327
 30
0.0
 10
10.1314031702
 20
11.0839518002
 30
0.0
 10
10.1128822112
 20
11.0855072344
 30
0.0
 10
10.0944688142
 20
11.0880336661
 30
0.0
 10
10.0701138033
 20
11.0925795708
 30
0.0
 10
10.0460818651
 20
11.0986860361
 30
0.0
 10
10.022391197
 20
11.1059148471
 30
0.0
 10
10.0047682112
 20
11.1117990179
 30
0.0
 10
9.9872759585
 20
11.1180567746
 30
0.0
 10
9.9698907429
 20
11.1246049173
 30
0.0
 10
9.9525920976
 20
11.1313767814
 30
0.0
 10
9.9353561312
 20
11.1383058778
 30
0.0
 10
9.9181640059
 20
11.1453424247
 30
0.0
 10
9.8952719383
 20
11.1547988268
 30
0.0
 10
9.8781118085
 20
11.1619127555
 30
0.0
 10
9.8666550578
 20
11.1666148108
 30
0.0
  0
SPLINE
  5
395
100
AcDbEntity
  8
0
100
AcDbSpline
 62
7
  6
CONTINUOUS
 70
0
 71
3
 72
22
 73
18
 74
0
 42
0.0000001
 43
0.0000001
 44
0.0000000001
 40
0.0
 40
0.0
 40
0.0
 40
0.0
 40
0.1249558822
 40
0.249914818
 40
0.3124019029
 40
0.3748876956
 40
0.4373744323
 40
0.4998749019
 40
0.562380168
 40
0.6248790063
 40
0.687387731
 40
0.7499085607
 40
0.8124258375
 40
0.8436912987
 40
0.8749643091
 40
0.9375023766
 40
1.0
 40
1.0
 40
1.0
 40
1.0
 10
9.8666550578
 20
11.6241105919
 30
0.0
 10
9.877768199
 20
11.6300212645
 30
0.0
 10
9.9000464715
 20
11.6417463317
 30
0.0
 10
9.9281539073
 20
11.6559053632
 30
0.0
 10
9.9508657193
 20
11.6667715548
 30
0.0
 10
9.9680387235
 20
11.67462742
 30
0.0
 10
9.9853725326
 20
11.682126259
 30
0.0
 10
10.0028845854
 20
11.6892056192
 30
0.0
 10
10.0205926956
 20
11.6957851343
 30
0.0
 10
10.0385115013
 20
11.7017728442
 30
0.0
 10
10.0566477045
 20
11.7070755965
 30
0.0
 10
10.0749964079
 20
11.7116002459
 30
0.0
 10
10.0904515635
 20
11.7146444701
 30
0.0
 10
10.1028982913
 20
11.7165949404
 30
0.0
 10
10.1153954894
 20
11.7182070202
 30
0.0
 10
10.1310899011
 20
11.7195751933
 30
0.0
 10
10.1436878995
 20
11.7199503683
 30
0.0
 10
10.1499834891
 20
11.7199503683
 30
0.0
  0
SPLINE
  5
396
100
AcDbEntity
  8
0
100
AcDbSpline
 62
7
  6
CONTINUOUS
 70
0
 71
3
 72
22
 73
18
 74
0
 42
0.0000001
 43
0.0000001
 44
0.0000000001
 40
0.0
 40
0.0
 40
0.0
 40
0.0
 40
0.0624977506
 40
0.1250362546
 40
0.1563095789
 40
0.1875752741
 40
0.2500924313
 40
0.3126129646
 40
0.3751216706
 40
0.4376203603
 40
0.5001254823
 40
0.5626260316
 40
0.6251127615
 40
0.6875984283
 40
0.7500853981
 40
0.8750442299
 40
1.0
 40
1.0
 40
1.0
 40
1.0
 10
20.7179834891
 20
8.7804766043
 30
0.0
 10
20.7242790923
 20
8.7804766043
 30
0.0
 10
20.7368771485
 20
8.7801014468
 30
0.0
 10
20.7525716557
 20
8.7787333576
 30
0.0
 10
20.7650689731
 20
8.7771214197
 30
0.0
 10
20.7775157668
 20
8.7751710763
 30
0.0
 10
20.7929708871
 20
8.7721267314
 30
0.0
 10
20.8113194757
 20
8.7676017942
 30
0.0
 10
20.8294555849
 20
8.7622988881
 30
0.0
 10
20.8473743553
 20
8.7563111699
 30
0.0
 10
20.8650824591
 20
8.7497316926
 30
0.0
 10
20.8825944977
 20
8.7426523117
 30
0.0
 10
20.8999283396
 20
8.7351535592
 30
0.0
 10
20.9171013756
 20
8.7272978181
 30
0.0
 10
20.9398131811
 20
8.7164316856
 30
0.0
 10
20.9679205361
 20
8.7022725593
 30
0.0
 10
20.9901987881
 20
8.6905474957
 30
0.0
 10
21.0013119205
 20
8.6846368279
 30
0.0
  0
SPLINE
  5
397
100
AcDbEntity
  8
0
100
AcDbSpline
 62
7
  6
CONTINUOUS
 70
0
 71
3
 72
21
 73
17
 74
0
 42
0.0000001
 43
0.0000001
 44
0.0000000001
 40
0.0
 40
0.0
 40
0.0
 40
0.0
 40
0.1249972989
 40
0.187496389
 40
0.2499955165
 40
0.3124946291
 40
0.3749950351
 40
0.4374951117
 40
0.4999970101
 40
0.5624984169
 40
0.6250016827
 40
0.7499862341
 40
0.8124903309
 40
0.8749928236
 40
0.9374976386
 40
1.0
 40
1.0
 40
1.0
 40
1.0
 10
21.0013119205
 20
8.2271410467
 30
0.0
 10
20.9898551698
 20
8.2224389915
 30
0.0
 10
20.9726950402
 20
8.2153250624
 30
0.0
 10
20.9498029724
 20
8.2058686609
 30
0.0
 10
20.9326108472
 20
8.1988321137
 30
0.0
 10
20.9153748808
 20
8.1919030174
 30
0.0
 10
20.8980762355
 20
8.1851311535
 30
0.0
 10
20.8806910202
 20
8.1785830107
 30
0.0
 10
20.8631987677
 20
8.1723252543
 30
0.0
 10
20.8455757822
 20
8.1664410834
 30
0.0
 10
20.8218851142
 20
8.1592122723
 30
0.0
 10
20.7978531757
 20
8.1531058069
 30
0.0
 10
20.7734981642
 20
8.1485599021
 30
0.0
 10
20.7550847666
 20
8.1460334706
 30
0.0
 10
20.7365638077
 20
8.1444780358
 30
0.0
 10
20.7241759175
 20
8.1441275687
 30
0.0
 10
20.7179834891
 20
8.1441275687
 30
0.0
  0
SPLINE
  5
398
100
AcDbEntity
  8
0
100
AcDbSpline
 62
7
  6
CONTINUOUS
 70
0
 71
3
 72
39
 73
35
 74
0
 42
0.0000001
 43
0.0000001
 44
0.0000000001
 40
0.0
 40
0.0
 40
0.0
 40
0.0
 40
0.0665555395
 40
0.0998282259
 40
0.1330198418
 40
0.1660597732
 40
0.1988775011
 40
0.2313905483
 40
0.2635150892
 40
0.295163945
 40
0.3262541909
 40
0.3567154794
 40
0.3865056174
 40
0.4156255407
 40
0.4441410438
 40
0.4721921123
 40
0.4861123628
 40
0.4999999966
 40
0.5138876301
 40
0.5278078821
 40
0.5558589517
 40
0.5843744521
 40
0.6134943727
 40
0.6432845099
 40
0.6737458038
 40
0.7048360428
 40
0.7364849093
 40
0.7686094412
 40
0.8011224977
 40
0.8339402232
 40
0.8669801556
 40
0.9001717751
 40
0.9334444592
 40
1.0
 40
1.0
 40
1.0
 40
1.0
 10
20.3530228436
 20
8.2271410467
 30
0.0
 10
20.3472857285
 20
8.2224318176
 30
0.0
 10
20.338715657
 20
8.2153256179
 30
0.0
 10
20.3272789231
 20
8.2058776345
 30
0.0
 10
20.3186923852
 20
8.1988482118
 30
0.0
 10
20.3100838111
 20
8.1919262776
 30
0.0
 10
20.3014457584
 20
8.185162872
 30
0.0
 10
20.2927653654
 20
8.1786215208
 30
0.0
 10
20.2840320454
 20
8.1723714574
 30
0.0
 10
20.2752343463
 20
8.1664917746
 30
0.0
 10
20.2663611468
 20
8.1610721465
 30
0.0
 10
20.2574033948
 20
8.1562105589
 30
0.0
 10
20.2483545586
 20
8.1520136915
 30
0.0
 10
20.2392131365
 20
8.148591479
 30
0.0
 10
20.2299868648
 20
8.1460495278
 30
0.0
 10
20.2222193235
 20
8.1447401593
 30
0.0
 10
20.2160092507
 20
8.1442151088
 30
0.0
 10
20.2113586291
 20
8.1440843713
 30
0.0
 10
20.2067080069
 20
8.1442151049
 30
0.0
 10
20.2004979348
 20
8.144740165
 30
0.0
 10
20.1927303927
 20
8.1460495257
 30
0.0
 10
20.1835041205
 20
8.1485914756
 30
0.0
 10
20.1743627013
 20
8.1520136933
 30
0.0
 10
20.1653138623
 20
8.1562105552
 30
0.0
 10
20.1563561132
 20
8.1610721476
 30
0.0
 10
20.1474829089
 20
8.1664917697
 30
0.0
 10
20.1386852158
 20
8.1723714605
 30
0.0
 10
20.1299518876
 20
8.1786215146
 30
0.0
 10
20.1212715008
 20
8.1851628737
 30
0.0
 10
20.1126334435
 20
8.1919262747
 30
0.0
 10
20.1040248702
 20
8.1988482104
 30
0.0
 10
20.0954383339
 20
8.2058776354
 30
0.0
 10
20.0840015972
 20
8.2153256158
 30
0.0
 10
20.0754315275
 20
8.2224318175
 30
0.0
 10
20.0696944123
 20
8.2271410467
 30
0.0
  0
SPLINE
  5
399
100
AcDbEntity
  8
0
100
AcDbSpline
 62
7
  6
CONTINUOUS
 70
0
 71
3
 72
35
 73
31
 74
0
 42
0.0000001
 43
0.0000001
 44
0.0000000001
 40
0.0
 40
0.0
 40
0.0
 40
0.0
 40
0.0690372408
 40
0.1032427633
 40
0.1371650491
 40
0.2038652897
 40
0.2365061306
 40
0.2685689231
 40
0.2999704131
 40
0.3306545252
 40
0.3605766116
 40
0.389707823
 40
0.4180816838
 40
0.4458048715
 40
0.4730390778
 40
0.5000010556
 40
0.5269624494
 40
0.5541963302
 40
0.5819199475
 40
0.6102937713
 40
0.6394241428
 40
0.669345614
 40
0.7000298904
 40
0.731431317
 40
0.7634939824
 40
0.7961349255
 40
0.862834976
 40
0.8967572664
 40
0.9309628124
 40
1.0
 40
1.0
 40
1.0
 40
1.0
 10
20.0696944123
 20
8.6846368279
 30
0.0
 10
20.075225837
 20
8.6905207521
 30
0.0
 10
20.0835443381
 20
8.6992770054
 30
0.0
 10
20.0947843088
 20
8.7107279187
 30
0.0
 10
20.1059859385
 20
8.7218307031
 30
0.0
 10
20.1173475781
 20
8.7325132374
 30
0.0
 10
20.1289681662
 20
8.7425780171
 30
0.0
 10
20.1377086584
 20
8.7496522588
 30
0.0
 10
20.1465497885
 20
8.7562253373
 30
0.0
 10
20.1554985113
 20
8.7622143931
 30
0.0
 10
20.1645586207
 20
8.7675301741
 30
0.0
 10
20.1737318848
 20
8.7720739842
 30
0.0
 10
20.1830172524
 20
8.775741358
 30
0.0
 10
20.1924037172
 20
8.7784322087
 30
0.0
 10
20.20186051
 20
8.7800934032
 30
0.0
 10
20.2113589306
 20
8.7806669629
 30
0.0
 10
20.220857457
 20
8.7800944905
 30
0.0
 10
20.2303139969
 20
8.778431905
 30
0.0
 10
20.2397002135
 20
8.7757404093
 30
0.0
 10
20.2489858736
 20
8.7720739428
 30
0.0
 10
20.2581590386
 20
8.7675302723
 30
0.0
 10
20.267218969
 20
8.7622144875
 30
0.0
 10
20.2761675161
 20
8.7562252767
 30
0.0
 10
20.2850086332
 20
8.7496521915
 30
0.0
 10
20.2937491201
 20
8.7425779568
 30
0.0
 10
20.3053695957
 20
8.7325130874
 30
0.0
 10
20.3167313526
 20
8.7218306958
 30
0.0
 10
20.3279329516
 20
8.7107279055
 30
0.0
 10
20.3391729051
 20
8.69927698
 30
0.0
 10
20.3474914231
 20
8.6905207476
 30
0.0
 10
20.3530228436
 20
8.6846368279
 30
0.0
  0
SPLINE
  5
39A
100
AcDbEntity
  8
0
100
AcDbSpline
 62
7
  6
CONTINUOUS
 70
0
 71
3
 72
39
 73
35
 74
0
 42
0.0000001
 43
0.0000001
 44
0.0000000001
 40
0.0
 40
0.0
 40
0.0
 40
0.0
 40
0.0665555395
 40
0.0998282259
 40
0.1330198417
 40
0.1660597731
 40
0.198877501
 40
0.2313905478
 40
0.263515089
 40
0.2951639443
 40
0.3262541905
 40
0.3567154788
 40
0.3865056168
 40
0.4156255402
 40
0.4441410431
 40
0.4721921115
 40
0.4861123618
 40
0.4999999957
 40
0.5138876291
 40
0.5278078812
 40
0.5558589508
 40
0.5843744515
 40
0.6134943721
 40
0.6432845093
 40
0.6737458034
 40
0.7048360421
 40
0.7364849092
 40
0.7686094408
 40
0.8011224976
 40
0.8339402231
 40
0.8669801555
 40
0.9001717751
 40
0.9334444592
 40
1.0
 40
1.0
 40
1.0
 40
1.0
 10
21.366272566
 20
8.2271410467
 30
0.0
 10
21.3605354509
 20
8.2224318176
 30
0.0
 10
21.3519653794
 20
8.2153256179
 30
0.0
 10
21.3405286455
 20
8.2058776345
 30
0.0
 10
21.3319421076
 20
8.1988482119
 30
0.0
 10
21.3233335335
 20
8.1919262777
 30
0.0
 10
21.3146954809
 20
8.185162872
 30
0.0
 10
21.3060150878
 20
8.178621521
 30
0.0
 10
21.2972817681
 20
8.1723714573
 30
0.0
 10
21.2884840687
 20
8.1664917748
 30
0.0
 10
21.2796108695
 20
8.1610721465
 30
0.0
 10
21.2706531174
 20
8.1562105591
 30
0.0
 10
21.2616042812
 20
8.1520136915
 30
0.0
 10
21.2524628591
 20
8.1485914791
 30
0.0
 10
21.2432365874
 20
8.146049528
 30
0.0
 10
21.2354690462
 20
8.144740159
 30
0.0
 10
21.2292589735
 20
8.144215109
 30
0.0
 10
21.2246083518
 20
8.1440843713
 30
0.0
 10
21.2199577297
 20
8.1442151047
 30
0.0
 10
21.2137476575
 20
8.1447401653
 30
0.0
 10
21.2059801154
 20
8.1460495255
 30
0.0
 10
21.1967538432
 20
8.1485914755
 30
0.0
 10
21.187612424
 20
8.1520136933
 30
0.0
 10
21.1785635848
 20
8.156210555
 30
0.0
 10
21.1696058359
 20
8.1610721477
 30
0.0
 10
21.1607326313
 20
8.1664917695
 30
0.0
 10
21.1519349385
 20
8.1723714606
 30
0.0
 10
21.14320161
 20
8.1786215143
 30
0.0
 10
21.1345212233
 20
8.1851628737
 30
0.0
 10
21.1258831659
 20
8.1919262746
 30
0.0
 10
21.1172745926
 20
8.1988482103
 30
0.0
 10
21.1086880564
 20
8.2058776354
 30
0.0
 10
21.0972513196
 20
8.2153256157
 30
0.0
 10
21.0886812499
 20
8.2224318175
 30
0.0
 10
21.0829441347
 20
8.2271410467
 30
0.0
  0
SPLINE
  5
39B
100
AcDbEntity
  8
0
100
AcDbSpline
 62
7
  6
CONTINUOUS
 70
0
 71
3
 72
35
 73
31
 74
0
 42
0.0000001
 43
0.0000001
 44
0.0000000001
 40
0.0
 40
0.0
 40
0.0
 40
0.0
 40
0.0690371613
 40
0.1032427003
 40
0.137165005
 40
0.2038652474
 40
0.2365063637
 40
0.2685690067
 40
0.2999704583
 40
0.3306550561
 40
0.3605770717
 40
0.3897078907
 40
0.418081788
 40
0.4458053959
 40
0.4730396489
 40
0.5000013923
 40
0.5269628525
 40
0.554196435
 40
0.5819193672
 40
0.6102931465
 40
0.6394241793
 40
0.6693459682
 40
0.700029786
 40
0.731431237
 40
0.7634940236
 40
0.7961346665
 40
0.8628347899
 40
0.8967571036
 40
0.9309626737
 40
1.0
 40
1.0
 40
1.0
 40
1.0
 10
21.0829441347
 20
8.6846368279
 30
0.0
 10
21.0884755566
 20
8.6905207491
 30
0.0
 10
21.0967940963
 20
8.6992769664
 30
0.0
 10
21.1080340603
 20
8.7107278926
 30
0.0
 10
21.1192356574
 20
8.7218307324
 30
0.0
 10
21.1305973931
 20
8.7325132227
 30
0.0
 10
21.1422177973
 20
8.7425782522
 30
0.0
 10
21.1509583181
 20
8.7496524914
 30
0.0
 10
21.1597995016
 20
8.7562255626
 30
0.0
 10
21.1687481371
 20
8.762214837
 30
0.0
 10
21.1778081509
 20
8.7675307974
 30
0.0
 10
21.1869813878
 20
8.7720746087
 30
0.0
 10
21.1962670543
 20
8.7757412693
 30
0.0
 10
21.205653526
 20
8.7784321905
 30
0.0
 10
21.2151102576
 20
8.7800940149
 30
0.0
 10
21.2246087276
 20
8.7806671733
 30
0.0
 10
21.2341071461
 20
8.7800943584
 30
0.0
 10
21.2435637095
 20
8.7784325775
 30
0.0
 10
21.2529498763
 20
8.7757411364
 30
0.0
 10
21.2622351249
 20
8.7720736347
 30
0.0
 10
21.2714083185
 20
8.7675298181
 30
0.0
 10
21.2804683889
 20
8.7622141384
 30
0.0
 10
21.289417085
 20
8.7562251608
 30
0.0
 10
21.2982581879
 20
8.7496520999
 30
0.0
 10
21.3069986835
 20
8.7425778984
 30
0.0
 10
21.3186193874
 20
8.732513295
 30
0.0
 10
21.3299810386
 20
8.7218308028
 30
0.0
 10
21.3411826765
 20
8.7107280197
 30
0.0
 10
21.3524226436
 20
8.6992770615
 30
0.0
 10
21.3607411308
 20
8.6905207632
 30
0.0
 10
21.366272566
 20
8.6846368279
 30
0.0
  0
SPLINE
  5
39C
100
AcDbEntity
  8
0
100
AcDbSpline
 62
7
  6
CONTINUOUS
 70
0
 71
3
 72
21
 73
17
 74
0
 42
0.0000001
 43
0.0000001
 44
0.0000000001
 40
0.0
 40
0.0
 40
0.0
 40
0.0
 40
0.0625023633
 40
0.1250071786
 40
0.1875096689
 40
0.2500137629
 40
0.3749983128
 40
0.43750158
 40
0.5000029876
 40
0.5625048871
 40
0.6250049641
 40
0.6875053704
 40
0.7500044832
 40
0.8125036107
 40
0.8750027008
 40
1.0
 40
1.0
 40
1.0
 40
1.0
 10
20.7179834891
 20
8.1441275687
 30
0.0
 10
20.7117910605
 20
8.1441275687
 30
0.0
 10
20.6994031702
 20
8.1444780362
 30
0.0
 10
20.6808822112
 20
8.1460334704
 30
0.0
 10
20.6624688142
 20
8.1485599021
 30
0.0
 10
20.6381138033
 20
8.1531058067
 30
0.0
 10
20.6140818651
 20
8.159212272
 30
0.0
 10
20.590391197
 20
8.1664410831
 30
0.0
 10
20.5727682112
 20
8.1723252539
 30
0.0
 10
20.5552759585
 20
8.1785830106
 30
0.0
 10
20.5378907429
 20
8.1851311533
 30
0.0
 10
20.5205920976
 20
8.1919030174
 30
0.0
 10
20.5033561312
 20
8.1988321137
 30
0.0
 10
20.4861640059
 20
8.2058686607
 30
0.0
 10
20.4632719383
 20
8.2153250627
 30
0.0
 10
20.4461118085
 20
8.2224389914
 30
0.0
 10
20.4346550578
 20
8.2271410467
 30
0.0
  0
SPLINE
  5
39D
100
AcDbEntity
  8
0
100
AcDbSpline
 62
7
  6
CONTINUOUS
 70
0
 71
3
 72
22
 73
18
 74
0
 42
0.0000001
 43
0.0000001
 44
0.0000000001
 40
0.0
 40
0.0
 40
0.0
 40
0.0
 40
0.1249558822
 40
0.249914818
 40
0.3124019029
 40
0.3748876956
 40
0.4373744323
 40
0.4998749019
 40
0.562380168
 40
0.6248790063
 40
0.687387731
 40
0.7499085607
 40
0.8124258375
 40
0.8436912987
 40
0.8749643091
 40
0.9375023766
 40
1.0
 40
1.0
 40
1.0
 40
1.0
 10
20.4346550578
 20
8.6846368279
 30
0.0
 10
20.445768199
 20
8.6905475004
 30
0.0
 10
20.4680464715
 20
8.7022725677
 30
0.0
 10
20.4961539073
 20
8.7164315991
 30
0.0
 10
20.5188657193
 20
8.7272977907
 30
0.0
 10
20.5360387235
 20
8.7351536559
 30
0.0
 10
20.5533725326
 20
8.742652495
 30
0.0
 10
20.5708845854
 20
8.7497318552
 30
0.0
 10
20.5885926956
 20
8.7563113702
 30
0.0
 10
20.6065115013
 20
8.7622990801
 30
0.0
 10
20.6246477045
 20
8.7676018325
 30
0.0
 10
20.6429964079
 20
8.7721264819
 30
0.0
 10
20.6584515635
 20
8.7751707061
 30
0.0
 10
20.6708982913
 20
8.7771211763
 30
0.0
 10
20.6833954894
 20
8.7787332561
 30
0.0
 10
20.6990899011
 20
8.7801014292
 30
0.0
 10
20.7116878995
 20
8.7804766043
 30
0.0
 10
20.7179834891
 20
8.7804766043
 30
0.0
  0
SPLINE
  5
39E
100
AcDbEntity
  8
0
100
AcDbSpline
 62
7
  6
CONTINUOUS
 70
0
 71
3
 72
17
 73
13
 74
0
 42
0.0000001
 43
0.0000001
 44
0.0000000001
 40
0.0
 40
0.0
 40
0.0
 40
0.0
 40
0.1195161703
 40
0.2435286196
 40
0.3069347665
 40
0.3709903571
 40
0.4999999592
 40
0.6290095676
 40
0.6930651657
 40
0.7564713227
 40
0.8804837984
 40
1.0
 40
1.0
 40
1.0
 40
1.0
 10
9.4950188707
 20
12.4670260786
 30
0.0
 10
9.5000649805
 20
12.4670260853
 30
0.0
 10
9.5103612112
 20
12.4662357654
 30
0.0
 10
9.5230364404
 20
12.4632802155
 30
0.0
 10
9.5330193944
 20
12.4596332872
 30
0.0
 10
9.5428695798
 20
12.4551126515
 30
0.0
 10
9.5545170931
 20
12.4479685905
 30
0.0
 10
9.5648115664
 20
12.4389838255
 30
0.0
 10
9.572065785
 20
12.4309315816
 30
0.0
 10
9.5785257322
 20
12.422491879
 30
0.0
 10
9.5851292592
 20
12.4112762553
 30
0.0
 10
9.5889562601
 20
12.4016850569
 30
0.0
 10
9.5904621596
 20
12.3968688859
 30
0.0
  0
SPLINE
  5
39F
100
AcDbEntity
  8
0
100
AcDbSpline
 62
7
  6
CONTINUOUS
 70
0
 71
3
 72
17
 73
13
 74
0
 42
0.0000001
 43
0.0000001
 44
0.0000000001
 40
0.0
 40
0.0
 40
0.0
 40
0.0
 40
0.119516179
 40
0.2435286338
 40
0.306934782
 40
0.3709903732
 40
0.4999999744
 40
0.6290095797
 40
0.6930651756
 40
0.7564713304
 40
0.8804838018
 40
1.0
 40
1.0
 40
1.0
 40
1.0
 10
9.4950188707
 20
13.4070257761
 30
0.0
 10
9.5000649799
 20
13.4070257702
 30
0.0
 10
9.510361209
 20
13.4078160914
 30
0.0
 10
9.5230364361
 20
13.4107716422
 30
0.0
 10
9.5330193882
 20
13.4144185704
 30
0.0
 10
9.5428695716
 20
13.4189392055
 30
0.0
 10
9.5545170824
 20
13.426083265
 30
0.0
 10
9.564811554
 20
13.4350680274
 30
0.0
 10
9.5720657718
 20
13.4431202689
 30
0.0
 10
9.5785257184
 20
13.4515599687
 30
0.0
 10
9.5851292456
 20
13.4627755889
 30
0.0
 10
9.5889562474
 20
13.4723667843
 30
0.0
 10
9.5904621476
 20
13.477182954
 30
0.0
  0
SPLINE
  5
3A0
100
AcDbEntity
  8
0
100
AcDbSpline
 62
9
  6
CONTINUOUS
 70
0
 71
3
 72
31
 73
27
 74
0
 42
0.0000001
 43
0.0000001
 44
0.0000000001
 40
0.0
 40
0.0
 40
0.0
 40
0.0
 40
0.0002754822
 40
0.000616903
 40
0.001093805
 40
0.0024531372
 40
0.0043516476
 40
0.0067875055
 40
0.0097588804
 40
0.0132639421
 40
0.0173008609
 40
0.0269629512
 40
0.0387305192
 40
0.0525889374
 40
0.068523584
 40
0.0865198422
 40
0.1065631007
 40
0.1527119689
 40
0.2067264095
 40
0.2683279361
 40
0.3372386377
 40
0.4131812695
 40
0.4958762558
 40
0.5850234546
 40
0.7814432457
 40
1.0
 40
1.0
 40
1.0
 40
1.0
 10
9.4950190155
 20
13.4070257761
 30
0.0
 10
9.4950255351
 20
13.4070184292
 30
0.0
 10
9.4950363979
 20
13.4069990618
 30
0.0
 10
9.4950591244
 20
13.4069674319
 30
0.0
 10
9.4951023441
 20
13.4069028792
 30
0.0
 10
9.4951775035
 20
13.4067929845
 30
0.0
 10
9.4952913414
 20
13.4066248748
 30
0.0
 10
9.4954375717
 20
13.4064093056
 30
0.0
 10
9.495615739
 20
13.4061461734
 30
0.0
 10
9.495825805
 20
13.4058357006
 30
0.0
 10
9.4961693103
 20
13.4053274738
 30
0.0
 10
9.4966772571
 20
13.4045748049
 30
0.0
 10
9.4973801615
 20
13.4035312271
 30
0.0
 10
9.4982069019
 20
13.4023014054
 30
0.0
 10
9.4991562635
 20
13.4008864091
 30
0.0
 10
9.500227034
 20
13.3992873093
 30
0.0
 10
9.5018949191
 20
13.3967915155
 30
0.0
 10
9.5042712358
 20
13.3932245183
 30
0.0
 10
9.5074557005
 20
13.3884154193
 30
0.0
 10
9.5110693801
 20
13.382917182
 30
0.0
 10
9.5150883782
 20
13.3767497772
 30
0.0
 10
9.5194886557
 20
13.3699332161
 30
0.0
 10
9.5242459572
 20
13.3624883962
 30
0.0
 10
9.5312577019
 20
13.3513865241
 30
0.0
 10
9.5407156533
 20
13.3361004722
 30
0.0
 10
9.5483231993
 20
13.3234088754
 30
0.0
 10
9.5522770415
 20
13.3166935872
 30
0.0
  0
LINE
  5
3A1
100
AcDbEntity
  8
0
100
AcDbLine
 62
9
  6
CONTINUOUS
 10
9.5522770415
 20
13.3166935872
 11
9.5532256736
 21
13.3150800559
  0
SPLINE
  5
3A2
100
AcDbEntity
  8
0
100
AcDbSpline
 62
9
  6
CONTINUOUS
 70
0
 71
3
 72
24
 73
20
 74
0
 42
0.0000001
 43
0.0000001
 44
0.0000000001
 40
0.0
 40
0.0
 40
0.0
 40
0.0
 40
0.0545789397
 40
0.1123594428
 40
0.1728368659
 40
0.2355431343
 40
0.3000586656
 40
0.3659218536
 40
0.3992440793
 40
0.432743955
 40
0.5000062345
 40
0.5672689987
 40
0.6007698485
 40
0.6340938296
 40
0.7644055851
 40
0.8271215113
 40
0.8876103353
 40
0.9454046413
 40
1.0
 40
1.0
 40
1.0
 40
1.0
 10
9.581871865
 20
13.2637835987
 30
0.0
 10
9.5877076166
 20
13.2527496191
 30
0.0
 10
9.5993726151
 20
13.2298472941
 30
0.0
 10
9.6160247427
 20
13.1939874053
 30
0.0
 10
9.6318317774
 20
13.155721981
 30
0.0
 10
9.6461487926
 20
13.1152287399
 30
0.0
 10
9.6583189305
 20
13.0727492006
 30
0.0
 10
9.6660929347
 20
13.0360867328
 30
0.0
 10
9.6705941197
 20
13.0060694652
 30
0.0
 10
9.6738981079
 20
12.975575885
 30
0.0
 10
9.6756294358
 20
12.9371352656
 30
0.0
 10
9.6739142041
 20
12.8986939892
 30
0.0
 10
9.6706219977
 20
12.8681978779
 30
0.0
 10
9.6639518516
 20
12.8236002493
 30
0.0
 10
9.6512218406
 20
12.7731992012
 30
0.0
 10
9.6319045061
 20
12.7185193374
 30
0.0
 10
9.6161019123
 20
12.6802396759
 30
0.0
 10
9.5994527464
 20
12.6443688654
 30
0.0
 10
9.5877881899
 20
12.6214583419
 30
0.0
 10
9.5819522468
 20
12.610420216
 30
0.0
  0
SPLINE
  5
3A3
100
AcDbEntity
  8
0
100
AcDbSpline
 62
9
  6
CONTINUOUS
 70
0
 71
3
 72
34
 73
30
 74
0
 42
0.0000001
 43
0.0000001
 44
0.0000000001
 40
0.0
 40
0.0
 40
0.0
 40
0.0
 40
0.2128967693
 40
0.3122828032
 40
0.4065046544
 40
0.4951985529
 40
0.577977495
 40
0.6544502967
 40
0.7242232605
 40
0.7869151007
 40
0.8421688989
 40
0.8896292587
 40
0.910325572
 40
0.9289399136
 40
0.9454365181
 40
0.9597951068
 40
0.9719969705
 40
0.9820233911
 40
0.9862149589
 40
0.9898556429
 40
0.9929431011
 40
0.9954749911
 40
0.9974489697
 40
0.9982260099
 40
0.9988626934
 40
0.9993587272
 40
0.9997138183
 40
0.9999276735
 40
1.0
 40
1.0
 40
1.0
 40
1.0
 10
9.5760091028
 20
12.5993166135
 30
0.0
 10
9.570763686
 20
12.5896341398
 30
0.0
 10
9.5628831974
 20
12.5755316127
 30
0.0
 10
9.5523068607
 20
12.5573586392
 30
0.0
 10
9.5448338211
 20
12.5448135576
 30
0.0
 10
9.5376929048
 20
12.533071264
 30
0.0
 10
9.5309373981
 20
12.5221696493
 30
0.0
 10
9.5246217415
 20
12.5121472665
 30
0.0
 10
9.51880026
 20
12.5030418747
 30
0.0
 10
9.513524375
 20
12.4948905534
 30
0.0
 10
9.5088388573
 20
12.487732033
 30
0.0
 10
9.5053191337
 20
12.482406696
 30
0.0
 10
9.5028339108
 20
12.4786693608
 30
0.0
 10
9.5012320945
 20
12.4762679585
 30
0.0
 10
9.4998098411
 20
12.4741408375
 30
0.0
 10
9.4985698557
 20
12.4722908442
 30
0.0
 10
9.4975144551
 20
12.4707200223
 30
0.0
 10
9.4967510844
 20
12.469586554
 30
0.0
 10
9.4962344081
 20
12.468820831
 30
0.0
 10
9.4959182236
 20
12.4683528057
 30
0.0
 10
9.4956498802
 20
12.4679560604
 30
0.0
 10
9.4954296392
 20
12.4676308594
 30
0.0
 10
9.4952763155
 20
12.4674046683
 30
0.0
 10
9.495177871
 20
12.4672597119
 30
0.0
 10
9.4951224515
 20
12.4671779325
 30
0.0
 10
9.4950789824
 20
12.4671144497
 30
0.0
 10
9.4950484745
 20
12.4670685311
 30
0.0
 10
9.4950289666
 20
12.4670417708
 30
0.0
 10
9.4950214985
 20
12.4670288582
 30
0.0
 10
9.4950190155
 20
12.4670260599
 30
0.0
  0
SPLINE
  5
3A4
100
AcDbEntity
  8
0
100
AcDbSpline
 62
9
  6
CONTINUOUS
 70
0
 71
3
 72
99
 73
95
 74
0
 42
0.0000001
 43
0.0000001
 44
0.0000000001
 40
0.0
 40
0.0
 40
0.0
 40
0.0
 40
0.0000281261
 40
0.0000754578
 40
0.0001432787
 40
0.000232065
 40
0.000342085
 40
0.0004735314
 40
0.0008013201
 40
0.0012165515
 40
0.0017202418
 40
0.0023133768
 40
0.0029969345
 40
0.0037718949
 40
0.0046392444
 40
0.0066523178
 40
0.0090299228
 40
0.0117628434
 40
0.0148418396
 40
0.0182576605
 40
0.0220014773
 40
0.0260655775
 40
0.0304424343
 40
0.0351245303
 40
0.0453739058
 40
0.0567460093
 40
0.0691679162
 40
0.0825697188
 40
0.0968880405
 40
0.1120609386
 40
0.1280295537
 40
0.1447371779
 40
0.1621291165
 40
0.1801576811
 40
0.1987779234
 40
0.2376219692
 40
0.2783466159
 40
0.3206618245
 40
0.3642942193
 40
0.3865114181
 40
0.4089451035
 40
0.4315549096
 40
0.454296442
 40
0.4771271884
 40
0.5000034988
 40
0.5228791135
 40
0.5457081912
 40
0.5684475361
 40
0.5910535203
 40
0.6356912927
 40
0.6793161608
 40
0.7216280336
 40
0.7422013038
 40
0.7623416023
 40
0.7820161139
 40
0.8011872226
 40
0.8378434458
 40
0.8552377518
 40
0.8719447674
 40
0.8879144626
 40
0.90309171
 40
0.9174149287
 40
0.930821542
 40
0.9432457273
 40
0.9546188791
 40
0.9648721261
 40
0.9695573266
 40
0.9739368142
 40
0.9780020091
 40
0.9817443334
 40
0.9851559381
 40
0.9882302819
 40
0.9909609561
 40
0.9933415497
 40
0.9943985622
 40
0.9953656499
 40
0.9962421474
 40
0.9970276964
 40
0.9977219806
 40
0.9983246839
 40
0.9988354902
 40
0.9990563331
 40
0.9992540832
 40
0.999428701
 40
0.9995801468
 40
0.9997083813
 40
0.9998133648
 40
0.9998950579
 40
0.9999271582
 40
0.999953421
 40
0.9999738415
 40
0.9999884147
 40
0.9999971357
 40
1.0
 40
1.0
 40
1.0
 40
1.0
 10
9.5904620445
 20
12.39686885
 30
0.0
 10
9.5904588835
 20
12.3968789594
 30
0.0
 10
9.5904616422
 20
12.3969084197
 30
0.0
 10
9.590474556
 20
12.3969602604
 30
0.0
 10
9.5904996266
 20
12.3970332122
 30
0.0
 10
9.5905363408
 20
12.3971265607
 30
0.0
 10
9.5905850838
 20
12.3972410402
 30
0.0
 10
9.5906725765
 20
12.3974367365
 30
0.0
 10
9.5908125397
 20
12.3977348665
 30
0.0
 10
9.5910163945
 20
12.3981577959
 30
0.0
 10
9.5912660922
 20
12.3986695624
 30
0.0
 10
9.5915608542
 20
12.399271771
 30
0.0
 10
9.5918999536
 20
12.399966019
 30
0.0
 10
9.5922826237
 20
12.4007539104
 30
0.0
 10
9.5928800467
 20
12.4019941092
 30
0.0
 10
9.5937288942
 20
12.4037830873
 30
0.0
 10
9.5948682964
 20
12.4062117946
 30
0.0
 10
9.5961705478
 20
12.4090074878
 30
0.0
 10
9.5976328298
 20
12.4121599506
 30
0.0
 10
9.5992525237
 20
12.4156590529
 30
0.0
 10
9.6010265537
 20
12.4194955142
 30
0.0
 10
9.6029481185
 20
12.4236624912
 30
0.0
 10
9.6050111226
 20
12.4281533495
 30
0.0
 10
9.6080345395
 20
12.4347663521
 30
0.0
 10
9.6121233849
 20
12.4437888507
 30
0.0
 10
9.6173582609
 20
12.4554919315
 30
0.0
 10
9.6230119505
 20
12.4683080203
 30
0.0
 10
9.6290345068
 20
12.4821738397
 30
0.0
 10
9.6353679659
 20
12.4970337643
 30
0.0
 10
9.6419571899
 20
12.5128349414
 30
0.0
 10
9.6487480236
 20
12.5295262621
 30
0.0
 10
9.6556875489
 20
12.5470584217
 30
0.0
 10
9.6627240778
 20
12.5653854599
 30
0.0
 10
9.6697985026
 20
12.5844682106
 30
0.0
 10
9.6793395115
 20
12.6112501338
 30
0.0
 10
9.6910053431
 20
12.6463453521
 30
0.0
 10
9.7040241446
 20
12.6903713688
 30
0.0
 10
9.7157462213
 20
12.7366269074
 30
0.0
 10
9.7239294112
 20
12.776549032
 30
0.0
 10
9.7293422523
 20
12.8093557237
 30
0.0
 10
9.7327737022
 20
12.8344556196
 30
0.0
 10
9.7355019365
 20
12.8598403318
 30
0.0
 10
9.7374912049
 20
12.8854439133
 30
0.0
 10
9.7386974726
 20
12.9111970633
 30
0.0
 10
9.7391003403
 20
12.9370257852
 30
0.0
 10
9.7387017952
 20
12.9628540126
 30
0.0
 10
9.7374937992
 20
12.9886053556
 30
0.0
 10
9.7355043791
 20
13.0142061426
 30
0.0
 10
9.7318799794
 20
13.0479028883
 30
0.0
 10
9.7256264584
 20
13.0892077131
 30
0.0
 10
9.7157610626
 20
13.137400113
 30
0.0
 10
9.7059158388
 20
13.1762978765
 30
0.0
 10
9.6973216232
 20
13.2063617902
 30
0.0
 10
9.6906711418
 20
13.2281106096
 30
0.0
 10
9.6838279814
 20
13.2492448687
 30
0.0
 10
9.6746717178
 20
13.2761645017
 30
0.0
 10
9.6652579258
 20
13.3020864642
 30
0.0
 10
9.6557077849
 20
13.3269634336
 30
0.0
 10
9.6487615545
 20
13.3444941396
 30
0.0
 10
9.6419651662
 20
13.361185132
 30
0.0
 10
9.6353756364
 20
13.3769903826
 30
0.0
 10
9.6290436931
 20
13.391856702
 30
0.0
 10
9.6230229829
 20
13.4057282511
 30
0.0
 10
9.617366384
 20
13.4185464185
 30
0.0
 10
9.6121261674
 20
13.4302500761
 30
0.0
 10
9.608036563
 20
13.43927554
 30
0.0
 10
9.605013973
 20
13.4458928979
 30
0.0
 10
9.6029513483
 20
13.4503867611
 30
0.0
 10
9.6010298279
 20
13.4545546853
 30
0.0
 10
9.5992551695
 20
13.4583889426
 30
0.0
 10
9.5976326506
 20
13.4618824351
 30
0.0
 10
9.596166705
 20
13.4650285791
 30
0.0
 10
9.5948615984
 20
13.4678213126
 30
0.0
 10
9.593876067
 20
13.4699248144
 30
0.0
 10
9.5931714138
 20
13.4714264784
 30
0.0
 10
9.5927070854
 20
13.472415221
 30
0.0
 10
9.5922860172
 20
13.4733113365
 30
0.0
 10
9.5919084547
 20
13.4741143825
 30
0.0
 10
9.5915745957
 20
13.4748240396
 30
0.0
 10
9.5912846289
 20
13.4754400021
 30
0.0
 10
9.5910704812
 20
13.475894594
 30
0.0
 10
9.5909212501
 20
13.4762111908
 30
0.0
 10
9.5908259673
 20
13.4764132497
 30
0.0
 10
9.5907417994
 20
13.4765916591
 30
0.0
 10
9.5906687713
 20
13.4767463668
 30
0.0
 10
9.5906069032
 20
13.4768773763
 30
0.0
 10
9.5905562294
 20
13.4769845316
 30
0.0
 10
9.5905209786
 20
13.4770591514
 30
0.0
 10
9.590498416
 20
13.4771065938
 30
0.0
 10
9.5904856583
 20
13.477133867
 30
0.0
 10
9.5904758674
 20
13.4771534993
 30
0.0
 10
9.5904685394
 20
13.4771710809
 30
0.0
 10
9.5904647147
 20
13.4771752142
 30
0.0
 10
9.5904623664
 20
13.4771840156
 30
0.0
 10
9.5904620445
 20
13.4771829861
 30
0.0
  0
SPLINE
  5
3A5
100
AcDbEntity
  8
0
100
AcDbSpline
 62
7
  6
CONTINUOUS
 70
0
 71
3
 72
17
 73
13
 74
0
 42
0.0000001
 43
0.0000001
 44
0.0000000001
 40
0.0
 40
0.0
 40
0.0
 40
0.0
 40
0.1195161703
 40
0.2435286196
 40
0.3069347665
 40
0.3709903571
 40
0.4999999592
 40
0.6290095676
 40
0.6930651657
 40
0.7564713227
 40
0.8804837984
 40
1.0
 40
1.0
 40
1.0
 40
1.0
 10
20.0630188707
 20
9.5275523145
 30
0.0
 10
20.0680649805
 20
9.5275523213
 30
0.0
 10
20.0783612112
 20
9.5267620014
 30
0.0
 10
20.0910364404
 20
9.5238064515
 30
0.0
 10
20.1010193944
 20
9.5201595232
 30
0.0
 10
20.1108695798
 20
9.5156388875
 30
0.0
 10
20.1225170931
 20
9.5084948265
 30
0.0
 10
20.1328115664
 20
9.4995100615
 30
0.0
 10
20.140065785
 20
9.4914578175
 30
0.0
 10
20.1465257322
 20
9.483018115
 30
0.0
 10
20.1531292592
 20
9.4718024912
 30
0.0
 10
20.1569562601
 20
9.4622112929
 30
0.0
 10
20.1584621596
 20
9.4573951218
 30
0.0
  0
SPLINE
  5
3A6
100
AcDbEntity
  8
0
100
AcDbSpline
 62
7
  6
CONTINUOUS
 70
0
 71
3
 72
17
 73
13
 74
0
 42
0.0000001
 43
0.0000001
 44
0.0000000001
 40
0.0
 40
0.0
 40
0.0
 40
0.0
 40
0.119516179
 40
0.2435286338
 40
0.306934782
 40
0.3709903732
 40
0.4999999744
 40
0.6290095797
 40
0.6930651756
 40
0.7564713304
 40
0.8804838018
 40
1.0
 40
1.0
 40
1.0
 40
1.0
 10
20.0630188707
 20
10.4675520121
 30
0.0
 10
20.0680649799
 20
10.4675520062
 30
0.0
 10
20.078361209
 20
10.4683423274
 30
0.0
 10
20.0910364361
 20
10.4712978782
 30
0.0
 10
20.1010193882
 20
10.4749448064
 30
0.0
 10
20.1108695716
 20
10.4794654415
 30
0.0
 10
20.1225170824
 20
10.486609501
 30
0.0
 10
20.132811554
 20
10.4955942634
 30
0.0
 10
20.1400657718
 20
10.5036465048
 30
0.0
 10
20.1465257184
 20
10.5120862047
 30
0.0
 10
20.1531292456
 20
10.5233018248
 30
0.0
 10
20.1569562474
 20
10.5328930203
 30
0.0
 10
20.1584621476
 20
10.53770919
 30
0.0
  0
SPLINE
  5
3A7
100
AcDbEntity
  8
0
100
AcDbSpline
 62
9
  6
CONTINUOUS
 70
0
 71
3
 72
32
 73
28
 74
0
 42
0.0000001
 43
0.0000001
 44
0.0000000001
 40
0.0
 40
0.0
 40
0.0
 40
0.0
 40
0.0000701489
 40
0.0002770861
 40
0.0006205729
 40
0.0011003704
 40
0.0024679423
 40
0.0043778913
 40
0.0068283075
 40
0.0098172809
 40
0.0133429022
 40
0.0174032621
 40
0.027120563
 40
0.0389539177
 40
0.0528880659
 40
0.0689077527
 40
0.0869977292
 40
0.1071427328
 40
0.153500596
 40
0.207711728
 40
0.2694856867
 40
0.3385326961
 40
0.4145636881
 40
0.4972809535
 40
0.5863654737
 40
0.7823543991
 40
1.0
 40
1.0
 40
1.0
 40
1.0
 10
20.0630190155
 20
10.4675520121
 30
0.0
 10
20.0630207889
 20
10.4675500136
 30
0.0
 10
20.0630261207
 20
10.467540812
 30
0.0
 10
20.0630400212
 20
10.4675217413
 30
0.0
 10
20.0630617654
 20
10.4674890393
 30
0.0
 10
20.063108891
 20
10.4674201917
 30
0.0
 10
20.0631891554
 20
10.4673016885
 30
0.0
 10
20.063311725
 20
10.4671212065
 30
0.0
 10
20.0634687555
 20
10.4668894636
 30
0.0
 10
20.0636602163
 20
10.4666067176
 30
0.0
 10
20.0638858864
 20
10.4662730769
 30
0.0
 10
20.0642548891
 20
10.4657269884
 30
0.0
 10
20.0648004565
 20
10.464918302
 30
0.0
 10
20.0655553163
 20
10.4637971432
 30
0.0
 10
20.0664430088
 20
10.4624760258
 30
0.0
 10
20.0674621848
 20
10.4609561451
 30
0.0
 10
20.0686114815
 20
10.4592386881
 30
0.0
 10
20.070400938
 20
10.4565591875
 30
0.0
 10
20.0729483022
 20
10.452731407
 30
0.0
 10
20.0763582581
 20
10.4475730528
 30
0.0
 10
20.0802230298
 20
10.4416794307
 30
0.0
 10
20.0845158919
 20
10.4350727424
 30
0.0
 10
20.0892101359
 20
10.4277756326
 30
0.0
 10
20.0942775744
 20
10.4198112185
 30
0.0
 10
20.101729274
 20
10.4079484835
 30
0.0
 10
20.1117524018
 20
10.3916323317
 30
0.0
 10
20.1197955085
 20
10.3780839476
 30
0.0
 10
20.1239655352
 20
10.370919112
 30
0.0
  0
SPLINE
  5
3A8
100
AcDbEntity
  8
0
100
AcDbSpline
 62
9
  6
CONTINUOUS
 70
0
 71
3
 72
24
 73
20
 74
0
 42
0.0000001
 43
0.0000001
 44
0.0000000001
 40
0.0
 40
0.0
 40
0.0
 40
0.0
 40
0.0545789397
 40
0.1123594428
 40
0.1728368659
 40
0.2355431343
 40
0.3000586656
 40
0.3659218536
 40
0.3992440793
 40
0.432743955
 40
0.5000062345
 40
0.5672689987
 40
0.6007698485
 40
0.6340938296
 40
0.7644055851
 40
0.8271215113
 40
0.8876103353
 40
0.9454046413
 40
1.0
 40
1.0
 40
1.0
 40
1.0
 10
20.149871865
 20
10.3243098346
 30
0.0
 10
20.1557076166
 20
10.3132758551
 30
0.0
 10
20.1673726151
 20
10.2903735301
 30
0.0
 10
20.1840247427
 20
10.2545136412
 30
0.0
 10
20.1998317774
 20
10.216248217
 30
0.0
 10
20.2141487926
 20
10.1757549759
 30
0.0
 10
20.2263189305
 20
10.1332754366
 30
0.0
 10
20.2340929347
 20
10.0966129688
 30
0.0
 10
20.2385941197
 20
10.0665957011
 30
0.0
 10
20.2418981079
 20
10.036102121
 30
0.0
 10
20.2436294358
 20
9.9976615016
 30
0.0
 10
20.2419142041
 20
9.9592202252
 30
0.0
 10
20.2386219977
 20
9.9287241139
 30
0.0
 10
20.2319518516
 20
9.8841264853
 30
0.0
 10
20.2192218406
 20
9.8337254371
 30
0.0
 10
20.1999045061
 20
9.7790455734
 30
0.0
 10
20.1841019123
 20
9.7407659119
 30
0.0
 10
20.1674527464
 20
9.7048951014
 30
0.0
 10
20.1557881899
 20
9.6819845779
 30
0.0
 10
20.1499522468
 20
9.6709464519
 30
0.0
  0
SPLINE
  5
3A9
100
AcDbEntity
  8
0
100
AcDbSpline
 62
9
  6
CONTINUOUS
 70
0
 71
3
 72
34
 73
30
 74
0
 42
0.0000001
 43
0.0000001
 44
0.0000000001
 40
0.0
 40
0.0
 40
0.0
 40
0.0
 40
0.2128967693
 40
0.3122828032
 40
0.4065046544
 40
0.4951985529
 40
0.577977495
 40
0.6544502967
 40
0.7242232605
 40
0.7869151007
 40
0.8421688989
 40
0.8896292587
 40
0.910325572
 40
0.9289399136
 40
0.9454365181
 40
0.9597951068
 40
0.9719969705
 40
0.9820233911
 40
0.9862149589
 40
0.9898556429
 40
0.9929431011
 40
0.9954749911
 40
0.9974489697
 40
0.9982260099
 40
0.9988626934
 40
0.9993587272
 40
0.9997138183
 40
0.9999276735
 40
1.0
 40
1.0
 40
1.0
 40
1.0
 10
20.1440091028
 20
9.6598428495
 30
0.0
 10
20.138763686
 20
9.6501603757
 30
0.0
 10
20.1308831974
 20
9.6360578487
 30
0.0
 10
20.1203068607
 20
9.6178848751
 30
0.0
 10
20.1128338211
 20
9.6053397936
 30
0.0
 10
20.1056929048
 20
9.5935975
 30
0.0
 10
20.0989373981
 20
9.5826958853
 30
0.0
 10
20.0926217415
 20
9.5726735025
 30
0.0
 10
20.08680026
 20
9.5635681106
 30
0.0
 10
20.081524375
 20
9.5554167893
 30
0.0
 10
20.0768388573
 20
9.548258269
 30
0.0
 10
20.0733191337
 20
9.542932932
 30
0.0
 10
20.0708339108
 20
9.5391955968
 30
0.0
 10
20.0692320945
 20
9.5367941944
 30
0.0
 10
20.0678098411
 20
9.5346670735
 30
0.0
 10
20.0665698557
 20
9.5328170802
 30
0.0
 10
20.0655144551
 20
9.5312462583
 30
0.0
 10
20.0647510844
 20
9.5301127899
 30
0.0
 10
20.0642344081
 20
9.529347067
 30
0.0
 10
20.0639182236
 20
9.5288790417
 30
0.0
 10
20.0636498802
 20
9.5284822963
 30
0.0
 10
20.0634296392
 20
9.5281570954
 30
0.0
 10
20.0632763155
 20
9.5279309043
 30
0.0
 10
20.063177871
 20
9.5277859479
 30
0.0
 10
20.0631224515
 20
9.5277041685
 30
0.0
 10
20.0630789824
 20
9.5276406857
 30
0.0
 10
20.0630484745
 20
9.5275947671
 30
0.0
 10
20.0630289666
 20
9.5275680068
 30
0.0
 10
20.0630214985
 20
9.5275550942
 30
0.0
 10
20.0630190155
 20
9.5275522959
 30
0.0
  0
SPLINE
  5
3AA
100
AcDbEntity
  8
0
100
AcDbSpline
 62
9
  6
CONTINUOUS
 70
0
 71
3
 72
99
 73
95
 74
0
 42
0.0000001
 43
0.0000001
 44
0.0000000001
 40
0.0
 40
0.0
 40
0.0
 40
0.0
 40
0.0000281261
 40
0.0000754578
 40
0.0001432787
 40
0.000232065
 40
0.000342085
 40
0.0004735314
 40
0.0008013201
 40
0.0012165515
 40
0.0017202418
 40
0.0023133768
 40
0.0029969345
 40
0.0037718949
 40
0.0046392444
 40
0.0066523178
 40
0.0090299228
 40
0.0117628434
 40
0.0148418396
 40
0.0182576605
 40
0.0220014773
 40
0.0260655775
 40
0.0304424343
 40
0.0351245303
 40
0.0453739058
 40
0.0567460093
 40
0.0691679162
 40
0.0825697188
 40
0.0968880405
 40
0.1120609386
 40
0.1280295537
 40
0.1447371779
 40
0.1621291165
 40
0.1801576811
 40
0.1987779234
 40
0.2376219692
 40
0.2783466159
 40
0.3206618245
 40
0.3642942193
 40
0.3865114181
 40
0.4089451035
 40
0.4315549096
 40
0.454296442
 40
0.4771271884
 40
0.5000034988
 40
0.5228791135
 40
0.5457081912
 40
0.5684475361
 40
0.5910535203
 40
0.6356912927
 40
0.6793161608
 40
0.7216280336
 40
0.7422013038
 40
0.7623416023
 40
0.7820161139
 40
0.8011872226
 40
0.8378434458
 40
0.8552377518
 40
0.8719447674
 40
0.8879144626
 40
0.90309171
 40
0.9174149287
 40
0.930821542
 40
0.9432457273
 40
0.9546188791
 40
0.9648721261
 40
0.9695573266
 40
0.9739368142
 40
0.9780020091
 40
0.9817443334
 40
0.9851559381
 40
0.9882302819
 40
0.9909609561
 40
0.9933415497
 40
0.9943985622
 40
0.9953656499
 40
0.9962421474
 40
0.9970276964
 40
0.9977219806
 40
0.9983246839
 40
0.9988354902
 40
0.9990563331
 40
0.9992540832
 40
0.999428701
 40
0.9995801468
 40
0.9997083813
 40
0.9998133648
 40
0.9998950579
 40
0.9999271582
 40
0.999953421
 40
0.9999738415
 40
0.9999884147
 40
0.9999971357
 40
1.0
 40
1.0
 40
1.0
 40
1.0
 10
20.1584620445
 20
9.4573950859
 30
0.0
 10
20.1584588835
 20
9.4574051953
 30
0.0
 10
20.1584616422
 20
9.4574346557
 30
0.0
 10
20.158474556
 20
9.4574864964
 30
0.0
 10
20.1584996266
 20
9.4575594481
 30
0.0
 10
20.1585363408
 20
9.4576527967
 30
0.0
 10
20.1585850838
 20
9.4577672762
 30
0.0
 10
20.1586725765
 20
9.4579629725
 30
0.0
 10
20.1588125397
 20
9.4582611025
 30
0.0
 10
20.1590163945
 20
9.4586840319
 30
0.0
 10
20.1592660922
 20
9.4591957984
 30
0.0
 10
20.1595608542
 20
9.459798007
 30
0.0
 10
20.1598999536
 20
9.460492255
 30
0.0
 10
20.1602826237
 20
9.4612801464
 30
0.0
 10
20.1608800467
 20
9.4625203452
 30
0.0
 10
20.1617288942
 20
9.4643093232
 30
0.0
 10
20.1628682964
 20
9.4667380306
 30
0.0
 10
20.1641705478
 20
9.4695337237
 30
0.0
 10
20.1656328298
 20
9.4726861866
 30
0.0
 10
20.1672525237
 20
9.4761852889
 30
0.0
 10
20.1690265537
 20
9.4800217502
 30
0.0
 10
20.1709481185
 20
9.4841887272
 30
0.0
 10
20.1730111226
 20
9.4886795855
 30
0.0
 10
20.1760345395
 20
9.495292588
 30
0.0
 10
20.1801233849
 20
9.5043150867
 30
0.0
 10
20.1853582609
 20
9.5160181675
 30
0.0
 10
20.1910119505
 20
9.5288342563
 30
0.0
 10
20.1970345068
 20
9.5427000757
 30
0.0
 10
20.2033679659
 20
9.5575600003
 30
0.0
 10
20.2099571899
 20
9.5733611773
 30
0.0
 10
20.2167480236
 20
9.590052498
 30
0.0
 10
20.2236875489
 20
9.6075846576
 30
0.0
 10
20.2307240778
 20
9.6259116958
 30
0.0
 10
20.2377985026
 20
9.6449944465
 30
0.0
 10
20.2473395115
 20
9.6717763698
 30
0.0
 10
20.2590053431
 20
9.706871588
 30
0.0
 10
20.2720241446
 20
9.7508976048
 30
0.0
 10
20.2837462213
 20
9.7971531434
 30
0.0
 10
20.2919294112
 20
9.8370752679
 30
0.0
 10
20.2973422523
 20
9.8698819597
 30
0.0
 10
20.3007737022
 20
9.8949818555
 30
0.0
 10
20.3035019365
 20
9.9203665678
 30
0.0
 10
20.3054912049
 20
9.9459701492
 30
0.0
 10
20.3066974726
 20
9.9717232993
 30
0.0
 10
20.3071003403
 20
9.9975520211
 30
0.0
 10
20.3067017952
 20
10.0233802486
 30
0.0
 10
20.3054937992
 20
10.0491315916
 30
0.0
 10
20.3035043791
 20
10.0747323785
 30
0.0
 10
20.2998799794
 20
10.1084291243
 30
0.0
 10
20.2936264584
 20
10.1497339491
 30
0.0
 10
20.2837610626
 20
10.197926349
 30
0.0
 10
20.2739158388
 20
10.2368241125
 30
0.0
 10
20.2653216232
 20
10.2668880261
 30
0.0
 10
20.2586711418
 20
10.2886368456
 30
0.0
 10
20.2518279814
 20
10.3097711046
 30
0.0
 10
20.2426717178
 20
10.3366907376
 30
0.0
 10
20.2332579258
 20
10.3626127002
 30
0.0
 10
20.2237077849
 20
10.3874896696
 30
0.0
 10
20.2167615545
 20
10.4050203755
 30
0.0
 10
20.2099651662
 20
10.421711368
 30
0.0
 10
20.2033756364
 20
10.4375166185
 30
0.0
 10
20.1970436931
 20
10.452382938
 30
0.0
 10
20.1910229829
 20
10.4662544871
 30
0.0
 10
20.185366384
 20
10.4790726544
 30
0.0
 10
20.1801261674
 20
10.4907763121
 30
0.0
 10
20.176036563
 20
10.4998017759
 30
0.0
 10
20.173013973
 20
10.5064191338
 30
0.0
 10
20.1709513483
 20
10.510912997
 30
0.0
 10
20.1690298279
 20
10.5150809213
 30
0.0
 10
20.1672551695
 20
10.5189151786
 30
0.0
 10
20.1656326506
 20
10.5224086711
 30
0.0
 10
20.164166705
 20
10.5255548151
 30
0.0
 10
20.1628615984
 20
10.5283475486
 30
0.0
 10
20.161876067
 20
10.5304510503
 30
0.0
 10
20.1611714138
 20
10.5319527144
 30
0.0
 10
20.1607070854
 20
10.532941457
 30
0.0
 10
20.1602860172
 20
10.5338375724
 30
0.0
 10
20.1599084547
 20
10.5346406184
 30
0.0
 10
20.1595745957
 20
10.5353502756
 30
0.0
 10
20.1592846289
 20
10.5359662381
 30
0.0
 10
20.1590704812
 20
10.53642083
 30
0.0
 10
20.1589212501
 20
10.5367374268
 30
0.0
 10
20.1588259673
 20
10.5369394857
 30
0.0
 10
20.1587417994
 20
10.5371178951
 30
0.0
 10
20.1586687713
 20
10.5372726028
 30
0.0
 10
20.1586069032
 20
10.5374036122
 30
0.0
 10
20.1585562294
 20
10.5375107675
 30
0.0
 10
20.1585209786
 20
10.5375853874
 30
0.0
 10
20.158498416
 20
10.5376328298
 30
0.0
 10
20.1584856583
 20
10.5376601029
 30
0.0
 10
20.1584758674
 20
10.5376797353
 30
0.0
 10
20.1584685394
 20
10.5376973169
 30
0.0
 10
20.1584647147
 20
10.5377014502
 30
0.0
 10
20.1584623664
 20
10.5377102516
 30
0.0
 10
20.1584620445
 20
10.5377092221
 30
0.0
  0
SPLINE
  5
3AB
100
AcDbEntity
  8
0
100
AcDbSpline
 62
7
  6
CONTINUOUS
 70
0
 71
3
 72
15
 73
11
 74
0
 42
0.0000001
 43
0.0000001
 44
0.0000000001
 40
0.0
 40
0.0
 40
0.0
 40
0.0
 40
0.243158903
 40
0.3066564479
 40
0.3708043736
 40
0.4999999431
 40
0.6291955212
 40
0.6933434572
 40
0.756841016
 40
1.0
 40
1.0
 40
1.0
 40
1.0
 10
10.8049481076
 20
10.4675519706
 30
0.0
 10
10.794696435
 20
10.4675519547
 30
0.0
 10
10.7816356941
 20
10.4695773366
 30
0.0
 10
10.7669488794
 20
10.4749444824
 30
0.0
 10
10.7570966406
 20
10.4794655301
 30
0.0
 10
10.7454500038
 20
10.4866096375
 30
0.0
 10
10.7351557487
 20
10.4955935531
 30
0.0
 10
10.7279005244
 20
10.5036476349
 30
0.0
 10
10.7183949785
 20
10.5160634924
 30
0.0
 10
10.712564186
 20
10.5279246509
 30
0.0
 10
10.709504804
 20
10.5377091817
 30
0.0
  0
SPLINE
  5
3AC
100
AcDbEntity
  8
0
100
AcDbSpline
 62
7
  6
CONTINUOUS
 70
0
 71
3
 72
15
 73
11
 74
0
 42
0.0000001
 43
0.0000001
 44
0.0000000001
 40
0.0
 40
0.0
 40
0.0
 40
0.0
 40
0.2431587986
 40
0.3066563358
 40
0.3708042602
 40
0.4999998416
 40
0.629195447
 40
0.6933434002
 40
0.7568409761
 40
1.0
 40
1.0
 40
1.0
 40
1.0
 10
10.8049481076
 20
9.5275525135
 30
0.0
 10
10.7946964207
 20
9.527552546
 30
0.0
 10
10.7816356567
 20
9.5255271755
 30
0.0
 10
10.766948817
 20
9.5201600284
 30
0.0
 10
10.7570965591
 20
9.5156389745
 30
0.0
 10
10.7454499006
 20
9.508494851
 30
0.0
 10
10.735155631
 20
9.4995109099
 30
0.0
 10
10.7279004
 20
9.491456804
 30
0.0
 10
10.7183948501
 20
9.4790409096
 30
0.0
 10
10.7125640657
 20
9.4671797161
 30
0.0
 10
10.709504697
 20
9.4573951599
 30
0.0
  0
SPLINE
  5
3AD
100
AcDbEntity
  8
0
100
AcDbSpline
 62
9
  6
CONTINUOUS
 70
0
 71
3
 72
34
 73
30
 74
0
 42
0.0000001
 43
0.0000001
 44
0.0000000001
 40
0.0
 40
0.0
 40
0.0
 40
0.0
 40
0.0000735396
 40
0.0002900942
 40
0.0006493557
 40
0.0011510162
 40
0.0017947673
 40
0.0025803012
 40
0.0045754845
 40
0.0071341021
 40
0.0102536902
 40
0.0139317859
 40
0.0181659265
 40
0.0282924948
 40
0.0406137064
 40
0.0551098814
 40
0.0717613454
 40
0.0905424302
 40
0.1114092633
 40
0.1343145761
 40
0.1592111602
 40
0.2147895961
 40
0.2777683313
 40
0.3477624217
 40
0.4243586018
 40
0.5071406239
 40
0.5956954125
 40
0.7885525656
 40
1.0
 40
1.0
 40
1.0
 40
1.0
 10
10.8049477485
 20
9.5275525135
 30
0.0
 10
10.8049449321
 20
9.5275555357
 30
0.0
 10
10.8049368591
 20
9.5275698931
 30
0.0
 10
10.8049152468
 20
9.5275991751
 30
0.0
 10
10.8048818015
 20
9.5276497039
 30
0.0
 10
10.8048340146
 20
9.5277193915
 30
0.0
 10
10.8047731711
 20
9.5278092048
 30
0.0
 10
10.8046650917
 20
9.5279683372
 30
0.0
 10
10.8044968178
 20
9.5282166289
 30
0.0
 10
10.8042551416
 20
9.5285735587
 30
0.0
 10
10.803960744
 20
9.5290089636
 30
0.0
 10
10.8036139207
 20
9.5295225389
 30
0.0
 10
10.8030473057
 20
9.5303626528
 30
0.0
 10
10.8022103495
 20
9.5316060719
 30
0.0
 10
10.8010534906
 20
9.5333290596
 30
0.0
 10
10.7996946866
 20
9.5353579471
 30
0.0
 10
10.7981366712
 20
9.5376901649
 30
0.0
 10
10.7963830886
 20
9.5403221161
 30
0.0
 10
10.7944396365
 20
9.5432497041
 30
0.0
 10
10.7923125647
 20
9.546467735
 30
0.0
 10
10.789121109
 20
9.5513196056
 30
0.0
 10
10.784718189
 20
9.5580690496
 30
0.0
 10
10.778980313
 20
9.5669722141
 30
0.0
 10
10.7726638272
 20
9.5769068821
 30
0.0
 10
10.7658305761
 20
9.5878308922
 30
0.0
 10
10.7585429206
 20
9.5996999939
 30
0.0
 10
10.7479987516
 20
9.6172324668
 30
0.0
 10
10.7341022853
 20
9.6411815347
 30
0.0
 10
10.7232056777
 20
9.6611127934
 30
0.0
 10
10.7176603868
 20
9.6716170264
 30
0.0
  0
SPLINE
  5
3AE
100
AcDbEntity
  8
0
100
AcDbSpline
 62
9
  6
CONTINUOUS
 70
0
 71
3
 72
23
 73
19
 74
0
 42
0.0000001
 43
0.0000001
 44
0.0000000001
 40
0.0
 40
0.0
 40
0.0
 40
0.0
 40
0.0546390924
 40
0.1124564108
 40
0.1729513899
 40
0.2356602834
 40
0.365930838
 40
0.3992413631
 40
0.4327282495
 40
0.4999627237
 40
0.5671978195
 40
0.6006858218
 40
0.6339982659
 40
0.7642832573
 40
0.8270027869
 40
0.8875104033
 40
0.9453429098
 40
1.0
 40
1.0
 40
1.0
 40
1.0
 10
10.7176603868
 20
9.6716170264
 30
0.0
 10
10.7118430888
 20
9.6826365119
 30
0.0
 10
10.7002191671
 20
9.7055035582
 30
0.0
 10
10.6836326317
 20
9.7412989687
 30
0.0
 10
10.6678960007
 20
9.7794850856
 30
0.0
 10
10.6486660821
 20
9.8340124297
 30
0.0
 10
10.6359934629
 20
9.884261215
 30
0.0
 10
10.629346979
 20
9.9287180782
 30
0.0
 10
10.6260630871
 20
9.9591153574
 30
0.0
 10
10.6243420384
 20
9.9974317293
 30
0.0
 10
10.6260453364
 20
10.0357491846
 30
0.0
 10
10.6293162006
 20
10.0661487138
 30
0.0
 10
10.6359443141
 20
10.1106123503
 30
0.0
 10
10.6486001965
 20
10.1608720355
 30
0.0
 10
10.6678169518
 20
10.2154131702
 30
0.0
 10
10.6835474875
 20
10.2536113253
 30
0.0
 10
10.7001310207
 20
10.2894196642
 30
0.0
 10
10.7117543812
 20
10.3122954996
 30
0.0
 10
10.7175718739
 20
10.3233195235
 30
0.0
  0
LINE
  5
3AF
100
AcDbEntity
  8
0
100
AcDbLine
 62
9
  6
CONTINUOUS
 10
10.7459858374
 20
10.3743180107
 11
10.7468708897
 21
10.375827073
  0
SPLINE
  5
3B0
100
AcDbEntity
  8
0
100
AcDbSpline
 62
9
  6
CONTINUOUS
 70
0
 71
3
 72
31
 73
27
 74
0
 42
0.0000001
 43
0.0000001
 44
0.0000000001
 40
0.0
 40
0.0
 40
0.0
 40
0.0
 40
0.2190717963
 40
0.4157329601
 40
0.5049145735
 40
0.5875961001
 40
0.6634893975
 40
0.7323233345
 40
0.7938272849
 40
0.8477299962
 40
0.8937598701
 40
0.9137461237
 40
0.9316898056
 40
0.9475767022
 40
0.961392595
 40
0.9731232602
 40
0.9827544691
 40
0.9867783298
 40
0.9902719885
 40
0.9932336652
 40
0.9956615796
 40
0.9975539513
 40
0.9989089993
 40
0.9993844703
 40
0.9997249426
 40
1.0
 40
1.0
 40
1.0
 40
1.0
 10
10.7497468679
 20
10.3807025372
 30
0.0
 10
10.7535778182
 20
10.3871686957
 30
0.0
 10
10.7609394286
 20
10.3993855039
 30
0.0
 10
10.7700798907
 20
10.4141005188
 30
0.0
 10
10.7768455679
 20
10.4247811652
 30
0.0
 10
10.7814299858
 20
10.4319388255
 30
0.0
 10
10.7856670309
 20
10.4384898834
 30
0.0
 10
10.7895341642
 20
10.4444148414
 30
0.0
 10
10.7930088154
 20
10.4496949881
 30
0.0
 10
10.7960685985
 20
10.4543115507
 30
0.0
 10
10.7983504278
 20
10.4577348889
 30
0.0
 10
10.7999513004
 20
10.4601295109
 30
0.0
 10
10.8009788218
 20
10.4616634942
 30
0.0
 10
10.8018897409
 20
10.463020789
 30
0.0
 10
10.8026829257
 20
10.4642003908
 30
0.0
 10
10.8033572381
 20
10.4652012998
 30
0.0
 10
10.8038444881
 20
10.4659231665
 30
0.0
 10
10.8041739774
 20
10.4664105777
 30
0.0
 10
10.8043754648
 20
10.466708325
 30
0.0
 10
10.804546351
 20
10.4669606726
 30
0.0
 10
10.8046866131
 20
10.4671674007
 30
0.0
 10
10.8047957898
 20
10.4673286375
 30
0.0
 10
10.8048679167
 20
10.4674340073
 30
0.0
 10
10.8049093412
 20
10.4674959615
 30
0.0
 10
10.8049312295
 20
10.4675262478
 30
0.0
 10
10.8049415211
 20
10.467544968
 30
0.0
 10
10.8049478813
 20
10.4675519391
 30
0.0
  0
SPLINE
  5
3B1
100
AcDbEntity
  8
0
100
AcDbSpline
 62
9
  6
CONTINUOUS
 70
0
 71
3
 72
92
 73
88
 74
0
 42
0.0000001
 43
0.0000001
 44
0.0000000001
 40
0.0
 40
0.0
 40
0.0
 40
0.0
 40
0.0000285244
 40
0.0000761863
 40
0.0001442899
 40
0.0002333216
 40
0.0004751715
 40
0.0008032356
 40
0.0012186249
 40
0.0017223528
 40
0.0023154003
 40
0.00299874
 40
0.0037733461
 40
0.0046401992
 40
0.0066525395
 40
0.0090301544
 40
0.0117634285
 40
0.0148427149
 40
0.0182583532
 40
0.022001052
 40
0.0260632599
 40
0.030437938
 40
0.0351180592
 40
0.045366181
 40
0.0567409915
 40
0.0691651436
 40
0.0825647269
 40
0.096878514
 40
0.1120482511
 40
0.1280162221
 40
0.1447252036
 40
0.1621188448
 40
0.1801472386
 40
0.1987663908
 40
0.2376074411
 40
0.2783301688
 40
0.3206482477
 40
0.3423179469
 40
0.3642826667
 40
0.3865027181
 40
0.4089368435
 40
0.4315465561
 40
0.4542908455
 40
0.4771233943
 40
0.499999337
 40
0.5228754005
 40
0.5457070478
 40
0.5684479187
 40
0.5910539149
 40
0.6356991317
 40
0.6793273387
 40
0.7006674775
 40
0.7216396137
 40
0.7623533708
 40
0.801201935
 40
0.8378558067
 40
0.8552476045
 40
0.8719522197
 40
0.8879201721
 40
0.9030951537
 40
0.917416429
 40
0.9308222119
 40
0.9432461438
 40
0.9546196686
 40
0.964873617
 40
0.9695586757
 40
0.9739372684
 40
0.9780004972
 40
0.9817395341
 40
0.9851473648
 40
0.9882188365
 40
0.9909488751
 40
0.9933324034
 40
0.9953643464
 40
0.9962467517
 40
0.997038826
 40
0.9977395088
 40
0.9983477387
 40
0.998862455
 40
0.9992826014
 40
0.9994568843
 40
0.9996071358
 40
0.9997332322
 40
0.9998350578
 40
0.9999125154
 40
0.9999655611
 40
1.0
 40
1.0
 40
1.0
 40
1.0
 10
10.7095049338
 20
10.5377092221
 30
0.0
 10
10.7095081396
 20
10.5376989694
 30
0.0
 10
10.7095055507
 20
10.537669235
 30
0.0
 10
10.7094927172
 20
10.5376169562
 30
0.0
 10
10.7094677625
 20
10.5375436352
 30
0.0
 10
10.7094130301
 20
10.537403836
 30
0.0
 10
10.7093125128
 20
10.5371767479
 30
0.0
 10
10.7091552546
 20
10.5368407234
 30
0.0
 10
10.7089513522
 20
10.5364175749
 30
0.0
 10
10.7087016986
 20
10.5359057521
 30
0.0
 10
10.7084069128
 20
10.5353036571
 30
0.0
 10
10.7080677829
 20
10.5346096962
 30
0.0
 10
10.7076850733
 20
10.5338222643
 30
0.0
 10
10.7070874475
 20
10.5325828149
 30
0.0
 10
10.7062385267
 20
10.5307943629
 30
0.0
 10
10.7050995868
 20
10.5283655713
 30
0.0
 10
10.703797832
 20
10.5255693518
 30
0.0
 10
10.7023359981
 20
10.5224164631
 30
0.0
 10
10.7007167053
 20
10.5189175649
 30
0.0
 10
10.6989422015
 20
10.5150826154
 30
0.0
 10
10.6970194879
 20
10.5109182856
 30
0.0
 10
10.6949552831
 20
10.5064304471
 30
0.0
 10
10.6919302402
 20
10.499820371
 30
0.0
 10
10.6878421334
 20
10.4907976655
 30
0.0
 10
10.6826130747
 20
10.4790903562
 30
0.0
 10
10.6769638939
 20
10.4662710607
 30
0.0
 10
10.6709393675
 20
10.4524078488
 30
0.0
 10
10.6646017984
 20
10.437553613
 30
0.0
 10
10.6580104909
 20
10.4217565647
 30
0.0
 10
10.6512211917
 20
10.4050654658
 30
0.0
 10
10.6442851157
 20
10.3875308148
 30
0.0
 10
10.6372523983
 20
10.369201012
 30
0.0
 10
10.6301786556
 20
10.3501176878
 30
0.0
 10
10.620637403
 20
10.3233373765
 30
0.0
 10
10.608963544
 20
10.2882468582
 30
0.0
 10
10.5959396032
 20
10.244223256
 30
0.0
 10
10.5862547752
 20
10.2059837338
 30
0.0
 10
10.579384013
 20
10.1743493264
 30
0.0
 10
10.5747192878
 20
10.1499887198
 30
0.0
 10
10.5706406348
 20
10.1252311841
 30
0.0
 10
10.5672025972
 20
10.1001310174
 30
0.0
 10
10.5644636132
 20
10.0747460253
 30
0.0
 10
10.5624707784
 20
10.0491408682
 30
0.0
 10
10.5612521212
 20
10.0233866197
 30
0.0
 10
10.5608435565
 20
9.997556833
 30
0.0
 10
10.5612641359
 20
9.9717276743
 30
0.0
 10
10.5624819839
 20
9.945975084
 30
0.0
 10
10.5644741897
 20
9.920372753
 30
0.0
 10
10.5681063125
 20
9.8866732825
 30
0.0
 10
10.5743347689
 20
9.8453609718
 30
0.0
 10
10.5826125185
 20
9.8049018327
 30
0.0
 10
10.5902058472
 20
9.7734381789
 30
0.0
 10
10.598204159
 20
9.7432090118
 30
0.0
 10
10.6089749825
 20
9.7069031892
 30
0.0
 10
10.6227648488
 20
9.6653596879
 30
0.0
 10
10.6347107285
 20
9.6324744091
 30
0.0
 10
10.6442631206
 20
9.6076009826
 30
0.0
 10
10.6512100081
 20
9.5900731058
 30
0.0
 10
10.6580055619
 20
9.5733842421
 30
0.0
 10
10.6645952904
 20
9.5575813713
 30
0.0
 10
10.6709273202
 20
9.542717032
 30
0.0
 10
10.6769471718
 20
9.5288462408
 30
0.0
 10
10.6826026066
 20
9.516027747
 30
0.0
 10
10.6878412841
 20
9.5043229653
 30
0.0
 10
10.6919296364
 20
9.4952964709
 30
0.0
 10
10.6949522963
 20
9.4886792273
 30
0.0
 10
10.6970152312
 20
9.4841867123
 30
0.0
 10
10.698937391
 20
9.4800215968
 30
0.0
 10
10.7007133437
 20
9.4761916527
 30
0.0
 10
10.7023377632
 20
9.4727031398
 30
0.0
 10
10.7038053594
 20
9.4695607656
 30
0.0
 10
10.7051112554
 20
9.4667686161
 30
0.0
 10
10.7062506243
 20
9.4643307647
 30
0.0
 10
10.7070925747
 20
9.4625219621
 30
0.0
 10
10.7076782194
 20
9.4612549428
 30
0.0
 10
10.7080525362
 20
9.4604425588
 30
0.0
 10
10.7083831873
 20
9.4597237334
 30
0.0
 10
10.7086702867
 20
9.459099873
 30
0.0
 10
10.708914028
 20
9.4585722817
 30
0.0
 10
10.7090904099
 20
9.458193788
 30
0.0
 10
10.709210494
 20
9.4579401254
 30
0.0
 10
10.7092836669
 20
9.4577875343
 30
0.0
 10
10.7093471512
 20
9.4576585029
 30
0.0
 10
10.7093969039
 20
9.4575589933
 30
0.0
 10
10.7094433777
 20
9.4574740172
 30
0.0
 10
10.7094627957
 20
9.4574373287
 30
0.0
 10
10.7095010633
 20
9.4573827074
 30
0.0
 10
10.7095049338
 20
9.4573950859
 30
0.0
  0
SPLINE
  5
3B2
100
AcDbEntity
  8
0
100
AcDbSpline
 62
7
  6
CONTINUOUS
 70
0
 71
3
 72
22
 73
18
 74
0
 42
0.0000001
 43
0.0000001
 44
0.0000000001
 40
0.0
 40
0.0
 40
0.0
 40
0.0
 40
0.0713841882
 40
0.1384347562
 40
0.2617206563
 40
0.319457255
 40
0.3755698083
 40
0.4308891123
 40
0.486257124
 40
0.5424902632
 40
0.6002422088
 40
0.6597614867
 40
0.7213405209
 40
0.7854433825
 40
0.8527047967
 40
0.923916174
 40
1.0
 40
1.0
 40
1.0
 40
1.0
 10
1.350207163
 20
12.4015683279
 30
0.0
 10
1.3495619092
 20
12.4040691178
 30
0.0
 10
1.3481532744
 20
12.4088816838
 30
0.0
 10
1.3448124978
 20
12.4177466315
 30
0.0
 10
1.3405918006
 20
12.4257418895
 30
0.0
 10
1.335416583
 20
12.4326037741
 30
0.0
 10
1.3312011963
 20
12.4370599884
 30
0.0
 10
1.3265652866
 20
12.440944718
 30
0.0
 10
1.3215071548
 20
12.4442687396
 30
0.0
 10
1.3160298955
 20
12.447041734
 30
0.0
 10
1.3101496351
 20
12.4492731607
 30
0.0
 10
1.3038694813
 20
12.4508893002
 30
0.0
 10
1.2972154789
 20
12.4518006195
 30
0.0
 10
1.2902187617
 20
12.4519164648
 30
0.0
 10
1.2829117313
 20
12.4511463272
 30
0.0
 10
1.2753293189
 20
12.4494015559
 30
0.0
 10
1.2703000297
 20
12.4475971419
 30
0.0
 10
1.2677634211
 20
12.4465279733
 30
0.0
  0
SPLINE
  5
3B3
100
AcDbEntity
  8
0
100
AcDbSpline
 62
7
  6
CONTINUOUS
 70
0
 71
3
 72
22
 73
18
 74
0
 42
0.0000001
 43
0.0000001
 44
0.0000000001
 40
0.0
 40
0.0
 40
0.0
 40
0.0
 40
0.0713841882
 40
0.1384347562
 40
0.2617206563
 40
0.319457255
 40
0.3755698083
 40
0.4308891123
 40
0.486257124
 40
0.5424902632
 40
0.6002422088
 40
0.6597614867
 40
0.7213405209
 40
0.7854433825
 40
0.8527047967
 40
0.923916174
 40
1.0
 40
1.0
 40
1.0
 40
1.0
 10
1.350207163
 20
13.4724835082
 30
0.0
 10
1.3495619092
 20
13.4699827182
 30
0.0
 10
1.3481532744
 20
13.4651701522
 30
0.0
 10
1.3448124978
 20
13.4563052045
 30
0.0
 10
1.3405918006
 20
13.4483099465
 30
0.0
 10
1.335416583
 20
13.441448062
 30
0.0
 10
1.3312011963
 20
13.4369918477
 30
0.0
 10
1.3265652866
 20
13.4331071181
 30
0.0
 10
1.3215071548
 20
13.4297830964
 30
0.0
 10
1.3160298955
 20
13.4270101021
 30
0.0
 10
1.3101496351
 20
13.4247786753
 30
0.0
 10
1.3038694813
 20
13.4231625359
 30
0.0
 10
1.2972154789
 20
13.4222512166
 30
0.0
 10
1.2902187617
 20
13.4221353713
 30
0.0
 10
1.2829117313
 20
13.4229055088
 30
0.0
 10
1.2753293189
 20
13.4246502801
 30
0.0
 10
1.2703000297
 20
13.4264546942
 30
0.0
 10
1.2677634211
 20
13.4275238627
 30
0.0
  0
SPLINE
  5
3B4
100
AcDbEntity
  8
0
100
AcDbSpline
 62
7
  6
CONTINUOUS
 70
0
 71
3
 72
24
 73
20
 74
0
 42
0.0000001
 43
0.0000001
 44
0.0000000001
 40
0.0
 40
0.0
 40
0.0
 40
0.0
 40
0.0748942593
 40
0.1447317153
 40
0.2105826173
 40
0.2733306829
 40
0.3336414452
 40
0.3919505745
 40
0.4204408429
 40
0.4485029742
 40
0.5036504829
 40
0.5582610147
 40
0.6132620353
 40
0.6695908078
 40
0.7281499445
 40
0.7897727969
 40
0.8552037497
 40
0.9250927531
 40
1.0
 40
1.0
 40
1.0
 40
1.0
 10
0.3822035571
 20
12.4465279733
 30
0.0
 10
0.3801156982
 20
12.447407996
 30
0.0
 10
0.3759736423
 20
12.4488697649
 30
0.0
 10
0.3697247404
 20
12.4501970055
 30
0.0
 10
0.3637216556
 20
12.4506597587
 30
0.0
 10
0.3579990784
 20
12.4503476654
 30
0.0
 10
0.3525890707
 20
12.449352339
 30
0.0
 10
0.3483313572
 20
12.4480188355
 30
0.0
 10
0.3451165129
 20
12.4466958625
 30
0.0
 10
0.3420663626
 20
12.445237968
 30
0.0
 10
0.3384627681
 20
12.4431201601
 30
0.0
 10
0.3344924727
 20
12.4400864477
 30
0.0
 10
0.3308984719
 20
12.4365635465
 30
0.0
 10
0.327679033
 20
12.4325421478
 30
0.0
 10
0.3248300296
 20
12.428013262
 30
0.0
 10
0.3223458889
 20
12.4229672436
 30
0.0
 10
0.3202202242
 20
12.4173931451
 30
0.0
 10
0.3184466934
 20
12.4112792847
 30
0.0
 10
0.3175287606
 20
12.4069922545
 30
0.0
 10
0.3171204829
 20
12.4047631998
 30
0.0
  0
SPLINE
  5
3B5
100
AcDbEntity
  8
0
100
AcDbSpline
 62
7
  6
CONTINUOUS
 70
0
 71
3
 72
24
 73
20
 74
0
 42
0.0000001
 43
0.0000001
 44
0.0000000001
 40
0.0
 40
0.0
 40
0.0
 40
0.0
 40
0.0748942593
 40
0.1447317153
 40
0.2105826173
 40
0.2733306829
 40
0.3336414452
 40
0.3919505745
 40
0.4204408429
 40
0.4485029742
 40
0.5036504829
 40
0.5582610147
 40
0.6132620353
 40
0.6695908078
 40
0.7281499445
 40
0.7897727969
 40
0.8552037497
 40
0.9250927531
 40
1.0
 40
1.0
 40
1.0
 40
1.0
 10
0.3822035571
 20
13.4275238627
 30
0.0
 10
0.3801156982
 20
13.42664384
 30
0.0
 10
0.3759736423
 20
13.4251820712
 30
0.0
 10
0.3697247404
 20
13.4238548306
 30
0.0
 10
0.3637216556
 20
13.4233920774
 30
0.0
 10
0.3579990784
 20
13.4237041707
 30
0.0
 10
0.3525890707
 20
13.4246994971
 30
0.0
 10
0.3483313572
 20
13.4260330006
 30
0.0
 10
0.3451165129
 20
13.4273559735
 30
0.0
 10
0.3420663626
 20
13.4288138681
 30
0.0
 10
0.3384627681
 20
13.4309316759
 30
0.0
 10
0.3344924727
 20
13.4339653883
 30
0.0
 10
0.3308984719
 20
13.4374882895
 30
0.0
 10
0.327679033
 20
13.4415096882
 30
0.0
 10
0.3248300296
 20
13.446038574
 30
0.0
 10
0.3223458889
 20
13.4510845925
 30
0.0
 10
0.3202202242
 20
13.4566586909
 30
0.0
 10
0.3184466934
 20
13.4627725514
 30
0.0
 10
0.3175287606
 20
13.4670595815
 30
0.0
 10
0.3171204829
 20
13.4692886362
 30
0.0
  0
SPLINE
  5
3B6
100
AcDbEntity
  8
0
100
AcDbSpline
 62
9
  6
CONTINUOUS
 70
0
 71
3
 72
10
 73
6
 74
0
 42
0.0000001
 43
0.0000001
 44
0.0000000001
 40
0.0
 40
0.0
 40
0.0
 40
0.0
 40
0.5375354087
 40
0.7798112449
 40
1.0
 40
1.0
 40
1.0
 40
1.0
 10
-0.028327564
 20
12.5287605636
 30
0.0
 10
-0.0393377797
 20
12.5348569462
 30
0.0
 10
-0.0559531097
 20
12.5426030279
 30
0.0
 10
-0.0780273088
 20
12.5504280053
 30
0.0
 10
-0.0884248969
 20
12.5534730477
 30
0.0
 10
-0.0934080728
 20
12.5547940145
 30
0.0
  0
SPLINE
  5
3B7
100
AcDbEntity
  8
0
100
AcDbSpline
 62
9
  6
CONTINUOUS
 70
0
 71
3
 72
10
 73
6
 74
0
 42
0.0000001
 43
0.0000001
 44
0.0000000001
 40
0.0
 40
0.0
 40
0.0
 40
0.0
 40
0.2445820614
 40
0.4932922253
 40
1.0
 40
1.0
 40
1.0
 40
1.0
 10
-0.0934099291
 20
12.5547903742
 30
0.0
 10
-0.0928375643
 20
12.5491315579
 30
0.0
 10
-0.0914842451
 20
12.5377381206
 30
0.0
 10
-0.0881379332
 20
12.5147237279
 30
0.0
 10
-0.0851309084
 20
12.4974135469
 30
0.0
 10
-0.0830675428
 20
12.4858122596
 30
0.0
  0
SPLINE
  5
3B8
100
AcDbEntity
  8
0
100
AcDbSpline
 62
9
  6
CONTINUOUS
 70
0
 71
3
 72
39
 73
35
 74
0
 42
0.0000001
 43
0.0000001
 44
0.0000000001
 40
0.0
 40
0.0
 40
0.0
 40
0.0
 40
0.1810662854
 40
0.2701127898
 40
0.3574670043
 40
0.4425400324
 40
0.5246929888
 40
0.6032085382
 40
0.6773136855
 40
0.7461371709
 40
0.808751683
 40
0.8374193076
 40
0.8641596297
 40
0.8888462515
 40
0.9113526648
 40
0.9315551523
 40
0.9493389852
 40
0.9645913239
 40
0.9712354297
 40
0.9772116663
 40
0.9825108798
 40
0.9871239154
 40
0.9910416214
 40
0.994256183
 40
0.9955983715
 40
0.9967631847
 40
0.9977501372
 40
0.9985587436
 40
0.9991885185
 40
0.9996389765
 40
0.99979681
 40
0.9999096321
 40
0.9999773824
 40
1.0
 40
1.0
 40
1.0
 40
1.0
 10
-0.8572496284
 20
12.5547928005
 30
0.0
 10
-0.8616311425
 20
12.5469068815
 30
0.0
 10
-0.8681809649
 20
12.5351502499
 30
0.0
 10
-0.8768852548
 20
12.5196118179
 30
0.0
 10
-0.883272566
 20
12.5082575111
 30
0.0
 10
-0.8895150898
 20
12.4972158626
 30
0.0
 10
-0.8955665771
 20
12.4865721306
 30
0.0
 10
-0.9013731846
 20
12.4764178203
 30
0.0
 10
-0.9068751538
 20
12.4668543886
 30
0.0
 10
-0.9120055872
 20
12.4579912532
 30
0.0
 10
-0.9160206037
 20
12.4510982784
 30
0.0
 10
-0.9189904471
 20
12.4460230345
 30
0.0
 10
-0.9210103466
 20
12.4425813869
 30
0.0
 10
-0.9228785955
 20
12.4394066768
 30
0.0
 10
-0.9245847005
 20
12.4365145073
 30
0.0
 10
-0.9261184662
 20
12.4339199792
 30
0.0
 10
-0.9274703985
 20
12.4316378147
 30
0.0
 10
-0.9284796121
 20
12.42993779
 30
0.0
 10
-0.9291893848
 20
12.4287441556
 30
0.0
 10
-0.9296460025
 20
12.4279769372
 30
0.0
 10
-0.9300510762
 20
12.4272968038
 30
0.0
 10
-0.9304037833
 20
12.4267048579
 30
0.0
 10
-0.9307033332
 20
12.4262021435
 30
0.0
 10
-0.9309193776
 20
12.4258393738
 30
0.0
 10
-0.9310651921
 20
12.4255944201
 30
0.0
 10
-0.931154225
 20
12.4254448275
 30
0.0
 10
-0.931229625
 20
12.4253180636
 30
0.0
 10
-0.9312914437
 20
12.4252142237
 30
0.0
 10
-0.931339427
 20
12.4251332935
 30
0.0
 10
-0.9313711882
 20
12.4250803564
 30
0.0
 10
-0.9313892202
 20
12.4250493545
 30
0.0
 10
-0.9313983654
 20
12.4250350508
 30
0.0
 10
-0.9314025945
 20
12.4250260091
 30
0.0
 10
-0.9314058693
 20
12.4250224881
 30
0.0
 10
-0.9314060427
 20
12.4250213746
 30
0.0
  0
SPLINE
  5
3B9
100
AcDbEntity
  8
0
100
AcDbSpline
 62
9
  6
CONTINUOUS
 70
0
 71
3
 72
23
 73
19
 74
0
 42
0.0000001
 43
0.0000001
 44
0.0000000001
 40
0.0
 40
0.0
 40
0.0
 40
0.0
 40
0.1857441732
 40
0.3650332654
 40
0.5334549612
 40
0.6118700794
 40
0.6854461365
 40
0.7534199624
 40
0.8149010306
 40
0.8689667323
 40
0.9146942226
 40
0.9512267211
 40
0.9658557503
 40
0.9779723507
 40
0.9875108034
 40
0.9944053838
 40
0.9985903613
 40
1.0
 40
1.0
 40
1.0
 40
1.0
 10
-0.8572496188
 20
12.554792789
 30
0.0
 10
-0.8653384452
 20
12.5502965974
 30
0.0
 10
-0.8812261762
 20
12.5414445871
 30
0.0
 10
-0.9044042019
 20
12.5284365888
 30
0.0
 10
-0.922871762
 20
12.5179621191
 30
0.0
 10
-0.936728614
 20
12.5100348439
 30
0.0
 10
-0.9462271511
 20
12.5045678693
 30
0.0
 10
-0.9549796141
 20
12.4994960968
 30
0.0
 10
-0.962878834
 20
12.4948907647
 30
0.0
 10
-0.9698108992
 20
12.4908272496
 30
0.0
 10
-0.9756632826
 20
12.4873799015
 30
0.0
 10
-0.9798182142
 20
12.4849222568
 30
0.0
 10
-0.9825294561
 20
12.4833132287
 30
0.0
 10
-0.9840834684
 20
12.4823895321
 30
0.0
 10
-0.9853051882
 20
12.4816610154
 30
0.0
 10
-0.9861880696
 20
12.4811358254
 30
0.0
 10
-0.9867208117
 20
12.4808143178
 30
0.0
 10
-0.9869613817
 20
12.480673447
 30
0.0
 10
-0.9870210387
 20
12.4806363828
 30
0.0
  0
SPLINE
  5
3BA
100
AcDbEntity
  8
0
100
AcDbSpline
 62
9
  6
CONTINUOUS
 70
0
 71
3
 72
34
 73
30
 74
0
 42
0.0000001
 43
0.0000001
 44
0.0000000001
 40
0.0
 40
0.0
 40
0.0
 40
0.0
 40
0.2021370114
 40
0.389335088
 40
0.4765190936
 40
0.5588538948
 40
0.6358754166
 40
0.7070913861
 40
0.7719724326
 40
0.8299194543
 40
0.8560983258
 40
0.8803089735
 40
0.9024719537
 40
0.9225073322
 40
0.9403415443
 40
0.9559279547
 40
0.969226625
 40
0.9801975281
 40
0.9847975366
 40
0.9888005544
 40
0.9922015545
 40
0.9949955049
 40
0.9971773688
 40
0.998037193
 40
0.9987421045
 40
0.9992914723
 40
0.9996846653
 40
0.9999210518
 40
1.0
 40
1.0
 40
1.0
 40
1.0
 10
-0.0830696585
 20
12.4858145228
 30
0.0
 10
-0.0813931909
 20
12.4763756804
 30
0.0
 10
-0.0772082668
 20
12.4583549917
 30
0.0
 10
-0.0702144896
 20
12.4368449802
 30
0.0
 10
-0.0642258016
 20
12.4210208588
 30
0.0
 10
-0.0597854902
 20
12.4102027756
 30
0.0
 10
-0.0553843313
 20
12.4001913853
 30
0.0
 10
-0.0511184785
 20
12.3910276085
 30
0.0
 10
-0.0470858524
 20
12.3827549863
 30
0.0
 10
-0.0438885895
 20
12.3764524948
 30
0.0
 10
-0.0415152286
 20
12.3718954913
 30
0.0
 10
-0.0399067161
 20
12.368853699
 30
0.0
 10
-0.0384189881
 20
12.3660776901
 30
0.0
 10
-0.0370623412
 20
12.3635745741
 30
0.0
 10
-0.0358464125
 20
12.3613499781
 30
0.0
 10
-0.0347770227
 20
12.3594094084
 30
0.0
 10
-0.0338591158
 20
12.3577570261
 30
0.0
 10
-0.0331902574
 20
12.3565623436
 30
0.0
 10
-0.0327346603
 20
12.3557535168
 30
0.0
 10
-0.0324544453
 20
12.3552579499
 30
0.0
 10
-0.0322157204
 20
12.3548373209
 30
0.0
 10
-0.032019049
 20
12.3544921409
 30
0.0
 10
-0.031881722
 20
12.3542518454
 30
0.0
 10
-0.0317932594
 20
12.3540977566
 30
0.0
 10
-0.0317434636
 20
12.3540107083
 30
0.0
 10
-0.0317041032
 20
12.3539432739
 30
0.0
 10
-0.0316770532
 20
12.3538941899
 30
0.0
 10
-0.0316587061
 20
12.3538662253
 30
0.0
 10
-0.0316528168
 20
12.3538521041
 30
0.0
 10
-0.031650283
 20
12.3538493475
 30
0.0
  0
SPLINE
  5
3BB
100
AcDbEntity
  8
0
100
AcDbSpline
 62
9
  6
CONTINUOUS
 70
0
 71
3
 72
15
 73
11
 74
0
 42
0.0000001
 43
0.0000001
 44
0.0000000001
 40
0.0
 40
0.0
 40
0.0
 40
0.0
 40
0.1194093696
 40
0.2437997008
 40
0.371759691
 40
0.501439626
 40
0.6309188996
 40
0.7582974094
 40
0.881770191
 40
1.0
 40
1.0
 40
1.0
 40
1.0
 10
-0.0111183582
 20
12.5183556584
 30
0.0
 10
-0.0143517784
 20
12.5183407728
 30
0.0
 10
-0.0209562887
 20
12.5179471641
 30
0.0
 10
-0.0309059864
 20
12.5163041413
 30
0.0
 10
-0.0408962782
 20
12.5135466739
 30
0.0
 10
-0.0506799851
 20
12.5097303437
 30
0.0
 10
-0.0599926171
 20
12.504910455
 30
0.0
 10
-0.0686185563
 20
12.4992485994
 30
0.0
 10
-0.0763546378
 20
12.4928925744
 30
0.0
 10
-0.0809542709
 20
12.488215414
 30
0.0
 10
-0.0830672966
 20
12.4858102505
 30
0.0
  0
SPLINE
  5
3BC
100
AcDbEntity
  8
0
100
AcDbSpline
 62
9
  6
CONTINUOUS
 70
0
 71
3
 72
43
 73
39
 74
0
 42
0.0000001
 43
0.0000001
 44
0.0000000001
 40
0.0
 40
0.0
 40
0.0
 40
0.0
 40
0.0000195769
 40
0.0000782846
 40
0.0001761236
 40
0.0003130946
 40
0.0004891983
 40
0.0007044353
 40
0.0012523117
 40
0.0019567288
 40
0.0028176915
 40
0.0038350935
 40
0.005008511
 40
0.0078214723
 40
0.0112527369
 40
0.0152984676
 40
0.0199548286
 40
0.0252179862
 40
0.0310837624
 40
0.0375460818
 40
0.0445982232
 40
0.0604451046
 40
0.078570664
 40
0.0989139833
 40
0.1214005912
 40
0.1459547255
 40
0.17250033
 40
0.2009587036
 40
0.2312505476
 40
0.2970168945
 40
0.3691440524
 40
0.4469707521
 40
0.529859765
 40
0.6172055073
 40
0.708425188
 40
0.802978577
 40
0.9003503362
 40
1.0
 40
1.0
 40
1.0
 40
1.0
 10
0.0605401145
 20
12.4256397575
 30
0.0
 10
0.060539373
 20
12.4256395578
 30
0.0
 10
0.0605376897
 20
12.4256435422
 30
0.0
 10
0.0605323481
 20
12.4256466912
 30
0.0
 10
0.0605244922
 20
12.4256558477
 30
0.0
 10
0.060513004
 20
12.425666832
 30
0.0
 10
0.0604984311
 20
12.4256816918
 30
0.0
 10
0.0604724215
 20
12.425707725
 30
0.0
 10
0.0604318305
 20
12.4257485832
 30
0.0
 10
0.0603733534
 20
12.4258073203
 30
0.0
 10
0.060301894
 20
12.425879145
 30
0.0
 10
0.0602174571
 20
12.4259640013
 30
0.0
 10
0.0600790348
 20
12.4261031608
 30
0.0
 10
0.0598739103
 20
12.4263095234
 30
0.0
 10
0.0595895374
 20
12.4265959764
 30
0.0
 10
0.0592544654
 20
12.4269339889
 30
0.0
 10
0.0588691111
 20
12.4273233386
 30
0.0
 10
0.058433901
 20
12.427763793
 30
0.0
 10
0.0579493214
 20
12.4282550552
 30
0.0
 10
0.0574160051
 20
12.4287968135
 30
0.0
 10
0.0566089428
 20
12.4296184894
 30
0.0
 10
0.0554834736
 20
12.4307687035
 30
0.0
 10
0.0539974542
 20
12.4322955467
 30
0.0
 10
0.0523350032
 20
12.4340141072
 30
0.0
 10
0.0505044313
 20
12.4359208612
 30
0.0
 10
0.0485143305
 20
12.4380116915
 30
0.0
 10
0.0463734745
 20
12.4402823835
 30
0.0
 10
0.0440910929
 20
12.4427289166
 30
0.0
 10
0.040779982
 20
12.4463196579
 30
0.0
 10
0.036353514
 20
12.4512118533
 30
0.0
 10
0.030771631
 20
12.4575721186
 30
0.0
 10
0.0248712645
 20
12.4645448354
 30
0.0
 10
0.0187485745
 20
12.4721088155
 30
0.0
 10
0.0125020088
 20
12.4802446101
 30
0.0
 10
0.0062410299
 20
12.4889407194
 30
0.0
 10
0.000094299
 20
12.49819532
 30
0.0
 10
-0.005803565
 20
12.5079998314
 30
0.0
 10
-0.0094122552
 20
12.5148407804
 30
0.0
 10
-0.0111197728
 20
12.5183570024
 30
0.0
  0
SPLINE
  5
3BD
100
AcDbEntity
  8
0
100
AcDbSpline
 62
9
  6
CONTINUOUS
 70
0
 71
3
 72
79
 73
75
 74
0
 42
0.0000001
 43
0.0000001
 44
0.0000000001
 40
0.0
 40
0.0
 40
0.0
 40
0.0
 40
0.0000877468
 40
0.0002434219
 40
0.0004714646
 40
0.0007737787
 40
0.0011516764
 40
0.0016062709
 40
0.0021385954
 40
0.0027496489
 40
0.0042118818
 40
0.0060008433
 40
0.0081238179
 40
0.0105798453
 40
0.0133622656
 40
0.0164642798
 40
0.0198790711
 40
0.0235998124
 40
0.0319330828
 40
0.041421126
 40
0.0520262015
 40
0.063709773
 40
0.0764252238
 40
0.090122177
 40
0.104750936
 40
0.1202657685
 40
0.1537788034
 40
0.1903047826
 40
0.2294770108
 40
0.2709411692
 40
0.3143501018
 40
0.359340335
 40
0.4055397858
 40
0.4525527364
 40
0.4999772225
 40
0.5237155555
 40
0.5474020878
 40
0.5709862815
 40
0.5944177016
 40
0.6176455048
 40
0.6406192208
 40
0.6856147331
 40
0.7290295243
 40
0.7705013377
 40
0.8096764975
 40
0.8462023103
 40
0.879723086
 40
0.895243697
 40
0.9098765575
 40
0.9235746735
 40
0.9362903277
 40
0.9479756413
 40
0.9585852518
 40
0.9680765085
 40
0.9764067398
 40
0.9801232291
 40
0.9835337335
 40
0.9866330992
 40
0.9894161726
 40
0.9918778014
 40
0.9940128858
 40
0.9958191726
 40
0.996599635
 40
0.9972987093
 40
0.9979166942
 40
0.9984538886
 40
0.998910594
 40
0.9992871179
 40
0.999583783
 40
0.9998009525
 40
0.9998798768
 40
0.9999391496
 40
0.9999789705
 40
1.0
 40
1.0
 40
1.0
 40
1.0
 10
20.1540582527
 20
7.9041143672
 30
0.0
 10
20.1540887849
 20
7.904128127
 30
0.0
 10
20.1541862107
 20
7.9041260124
 30
0.0
 10
20.1543617467
 20
7.9041003113
 30
0.0
 10
20.1546183478
 20
7.9040413652
 30
0.0
 10
20.1549529126
 20
7.9039526709
 30
0.0
 10
20.1553693794
 20
7.9038329353
 30
0.0
 10
20.1558683003
 20
7.9036834712
 30
0.0
 10
20.1564514569
 20
7.9035048124
 30
0.0
 10
20.1574014346
 20
7.9032107533
 30
0.0
 10
20.1588092453
 20
7.9027737565
 30
0.0
 10
20.1607707088
 20
7.902173963
 30
0.0
 10
20.1630999544
 20
7.9014800103
 30
0.0
 10
20.1657972628
 20
7.9006937259
 30
0.0
 10
20.1688567714
 20
7.8998148768
 30
0.0
 10
20.1722708037
 20
7.8988448928
 30
0.0
 10
20.1760315126
 20
7.8977847799
 30
0.0
 10
20.1817163263
 20
7.8961916181
 30
0.0
 10
20.1896361438
 20
7.8939839302
 30
0.0
 10
20.2000960475
 20
7.8911034934
 30
0.0
 10
20.2118032754
 20
7.8879367273
 30
0.0
 10
20.2247186049
 20
7.8845194851
 30
0.0
 10
20.2387966172
 20
7.8808840764
 30
0.0
 10
20.2539872977
 20
7.8770629357
 30
0.0
 10
20.2702407001
 20
7.8730881798
 30
0.0
 10
20.2938825342
 20
7.867490741
 30
0.0
 10
20.3257513054
 20
7.8603709825
 30
0.0
 10
20.3665971762
 20
7.8520525311
 30
0.0
 10
20.4105916049
 20
7.8440309042
 30
0.0
 10
20.4573530259
 20
7.8366022427
 30
0.0
 10
20.5064893224
 20
7.8300639019
 30
0.0
 10
20.5575830076
 20
7.8246681901
 30
0.0
 10
20.6101842354
 20
7.8206534771
 30
0.0
 10
20.663809959
 20
7.8181611904
 30
0.0
 10
20.7089153838
 20
7.8174567692
 30
0.0
 10
20.74511583
 20
7.8177291612
 30
0.0
 10
20.7722110065
 20
7.8183610952
 30
0.0
 10
20.7991759182
 20
7.819409312
 30
0.0
 10
20.8259469684
 20
7.8208567554
 30
0.0
 10
20.8524610231
 20
7.8226875048
 30
0.0
 10
20.8871463641
 20
7.825599312
 30
0.0
 10
20.9294290233
 20
7.8300567913
 30
0.0
 10
20.9785730931
 20
7.8365901785
 30
0.0
 10
21.0253416758
 20
7.8440141204
 30
0.0
 10
21.0693395307
 20
7.8520396768
 30
0.0
 10
21.1101867482
 20
7.8603714869
 30
0.0
 10
21.1420609656
 20
7.8674898294
 30
0.0
 10
21.1657109883
 20
7.8730818732
 30
0.0
 10
21.1819692576
 20
7.8770545095
 30
0.0
 10
21.1971614674
 20
7.8808781624
 30
0.0
 10
21.2112397337
 20
7.8845173276
 30
0.0
 10
21.2241571438
 20
7.8879363446
 30
0.0
 10
21.2358686703
 20
7.8911010732
 30
0.0
 10
21.2463309977
 20
7.8939794909
 30
0.0
 10
21.254248765
 20
7.8961887635
 30
0.0
 10
21.2599275934
 20
7.8977868976
 30
0.0
 10
21.2636829091
 20
7.8988503947
 30
0.0
 10
21.2670937281
 20
7.8998229043
 30
0.0
 10
21.2701545034
 20
7.9007023165
 30
0.0
 10
21.2728597489
 20
7.9014863806
 30
0.0
 10
21.2752049453
 20
7.9021734793
 30
0.0
 10
21.2769327293
 20
7.9026858013
 30
0.0
 10
21.2781345244
 20
7.9030441016
 30
0.0
 10
21.2789015901
 20
7.903273182
 30
0.0
 10
21.2795797277
 20
7.9034755691
 30
0.0
 10
21.2801694248
 20
7.9036508565
 30
0.0
 10
21.2806711486
 20
7.9037986005
 30
0.0
 10
21.2810854149
 20
7.9039185233
 30
0.0
 10
21.2814125929
 20
7.9040100128
 30
0.0
 10
21.2816315321
 20
7.9040678253
 30
0.0
 10
21.2817634799
 20
7.9040982034
 30
0.0
 10
21.2818305054
 20
7.904111786
 30
0.0
 10
21.2818752276
 20
7.904117197
 30
0.0
 10
21.2818996271
 20
7.9041184676
 30
0.0
 10
21.2819069445
 20
7.9041151699
 30
0.0
  0
SPLINE
  5
3BE
100
AcDbEntity
  8
0
100
AcDbSpline
 62
9
  6
CONTINUOUS
 70
0
 71
3
 72
29
 73
25
 74
0
 42
0.0000001
 43
0.0000001
 44
0.0000000001
 40
0.0
 40
0.0
 40
0.0
 40
0.0
 40
0.0453548118
 40
0.0974320947
 40
0.1553256519
 40
0.218149583
 40
0.2511202572
 40
0.2849750327
 40
0.3196034078
 40
0.3548937837
 40
0.3907146519
 40
0.4269300712
 40
0.5000041467
 40
0.5730783163
 40
0.6092937853
 40
0.6451146457
 40
0.6804049126
 40
0.7150330524
 40
0.7488874717
 40
0.7818576728
 40
0.844680322
 40
0.9025721979
 40
0.9546474696
 40
1.0
 40
1.0
 40
1.0
 40
1.0
 10
21.1431900276
 20
7.9656352582
 30
0.0
 10
21.130783403
 20
7.9614009126
 30
0.0
 10
21.104016558
 20
7.9526368577
 30
0.0
 10
21.0609732262
 20
7.9398519002
 30
0.0
 10
21.0126432723
 20
7.9272150086
 30
0.0
 10
20.9692574056
 20
7.9176161078
 30
0.0
 10
20.932433056
 20
7.9106569502
 30
0.0
 10
20.9035025574
 20
7.905852301
 30
0.0
 10
20.8738029673
 20
7.9016347352
 30
0.0
 10
20.8434427287
 20
7.8980937868
 30
0.0
 10
20.8125466701
 20
7.8952680163
 30
0.0
 10
20.7706920362
 20
7.8925002654
 30
0.0
 10
20.7179746799
 20
7.8910512797
 30
0.0
 10
20.6652573326
 20
7.8925010752
 30
0.0
 10
20.6234026988
 20
7.8952694199
 30
0.0
 10
20.5925066987
 20
7.8980956168
 30
0.0
 10
20.5621466107
 20
7.9016369784
 30
0.0
 10
20.5324472801
 20
7.905854931
 30
0.0
 10
20.5035171496
 20
7.910659917
 30
0.0
 10
20.4666934896
 20
7.9176194368
 30
0.0
 10
20.4233087103
 20
7.9272186496
 30
0.0
 10
20.3749802813
 20
7.9398556839
 30
0.0
 10
20.3319387181
 20
7.9526405282
 30
0.0
 10
20.3051731156
 20
7.9614043889
 30
0.0
 10
20.2927671434
 20
7.9656386043
 30
0.0
  0
ENDSEC
  0
SECTION
  2
OBJECTS
  0
DICTIONARY
  5
C
100
AcDbDictionary
280
0
281
1
  3
ACAD_GROUP
350
D
  3
ACAD_MLINESTYLE
350
17
  3
ACAD_LAYOUT
350
1A
  3
ACAD_PLOTSETTINGS
350
19
  3
ACAD_PLOTSTYLENAME
350
E
  0
DICTIONARY
  5
D
102
{ACAD_REACTORS
330
C
102
}
100
AcDbDictionary
280
0
281
1
  0
ACDBDICTIONARYWDFLT
  5
E
102
{ACAD_REACTORS
330
C
102
}
100
AcDbDictionary
281
1
  3
Normal
350
F
100
AcDbDictionaryWithDefault
340
F
  0
DICTIONARY
  5
17
102
{ACAD_REACTORS
330
C
102
}
100
AcDbDictionary
280
0
281
1
  3
Standard
350
18
  0
DICTIONARY
  5
19
102
{ACAD_REACTORS
330
C
102
}
100
AcDbDictionary
281
1
  0
DICTIONARY
  5
1A
102
{ACAD_REACTORS
330
C
102
}
100
AcDbDictionary
281
1
  3
Model
350
3BF
  3
Layout1
350
3C0
  0
ACDBPLACEHOLDER
  5
F
102
{ACAD_REACTORS
330
E
102
}
  0
MLINESTYLE
  5
18
102
{ACAD_REACTORS
330
17
102
}
100
AcDbMlineStyle
  2
STANDARD
 70
0
  3

 62
256
 51
90.0
 52
90.0
 71
2
 49
0.5
 62
256
  6
BYLAYER
 49
-0.5
 62
256
  6
BYLAYER
  0
LAYOUT
  5
3BF
102
{ACAD_REACTORS
330
1A
102
}
100
AcDbPlotSettings
  1

  2
none_device
  4
ANSI_C_(22.00_x_17.00_Inches)
  6

 40
0.0
 41
0.0
 42
0.0
 43
0.0
 44
558.8
 45
431.8
 46
0.0
 47
0.0
 48
0.0
 49
0.0
140
0.0
141
0.0
142
1.0
143
1.0
 70
1024
 72
0
 73
0
 74
0
  7

 75
0
147
1.0
148
0.0
149
0.0
100
AcDbLayout
  1
Model
 70
0
 71
0
 10
0.0
 20
0.0
 11
22.0
 21
17.0
 12
0.0
 22
0.0
 32
0.0
 14
0.0
 24
0.0
 34
0.0
 15
0.0
 25
0.0
 35
0.0
146
0.0
 13
0.0
 23
0.0
 33
0.0
 16
1.0
 26
0.0
 36
0.0
 17
0.0
 27
1.0
 37
0.0
 76
0
330
202
345
0
346
0
  0
LAYOUT
  5
3C0
102
{ACAD_REACTORS
330
1A
102
}
100
AcDbPlotSettings
  1

  2
none_device
  4
ANSI_C_(22.00_x_17.00_Inches)
  6

 40
0.0
 41
0.0
 42
0.0
 43
0.0
 44
558.8
 45
431.8
 46
0.0
 47
0.0
 48
0.0
 49
0.0
140
0.0
141
0.0
142
1.0
143
1.0
 70
0
 72
0
 73
0
 74
0
  7

 75
0
147
1.0
148
0.0
149
0.0
100
AcDbLayout
  1
Layout1
 70
0
 71
1
 10
0.0
 20
0.0
 11
22.0
 21
17.0
 12
0.0
 22
0.0
 32
0.0
 14
0.0
 24
0.0
 34
0.0
 15
0.0
 25
0.0
 35
0.0
146
0.0
 13
0.0
 23
0.0
 33
0.0
 16
1.0
 26
0.0
 36
0.0
 17
0.0
 27
1.0
 37
0.0
 76
0
330
203
345
0
346
0
  0
ENDSEC
  0
EOF
