  0
SECTION
  2
HEADER
  9
$ACADVER
  1
AC1015
  9
$DWGCODEPAGE
  3
ANSI_1252
  9
$EXTMAX
 10
46.811023622
 20
33.1102362205
 30
0.0
  9
$EXTMIN
 10
0.0
 20
0.0
 30
0.0
  9
$LIMMIN
 10
0.0
 20
0.0
  9
$LIMMAX
 10
46.811023622
 20
33.1102362205
  9
$VIEWCTR
 10
23.405511811
 20
16.5551181102
  9
$VIEWSIZE
 40
33.1102362205
  9
$CLAYER
  8
0
  9
$LTSCALE
 40
2.5746062992
  9
$CELTYPE
  6
BYLAYER
  9
$DIMSCALE
 40
1.0
  9
$DIMASZ
 40
0.1875
  9
$DIMEXO
 40
0.2925688976
  9
$DIMDLI
 40
1.7788188976
  9
$DIMEXE
 40
0.8425984252
  9
$DIMCEN
 40
0.4212992126
  9
$DIMLFAC
 40
1.0
  9
$DIMBLK
  1
_CLOSED
  9
$DIMTXT
 40
0.15625
  9
$DIMTOL
 70
0
  9
$DIMLIM
 70
0
  9
$DIMTFAC
 40
1.0
  9
$PDMODE
 70
3
  9
$PDSIZE
 40
0.3125
  9
$HANDSEED
  5
315
  9
$TILEMODE
 70
1
  9
$MEASUREMENT
 70
0
  9
$INSUNITS
 70
1
  0
ENDSEC
  0
SECTION
  2
CLASSES
  0
CLASS
  1
ACDBDICTIONARYWDFLT
  2
AcDbDictionaryWithDefault
  3
AutoCAD 2000
 90
0
280
0
281
0
  0
CLASS
  1
ACDBPLACEHOLDER
  2
AcDbPlaceHolder
  3
AutoCAD 2000
 90
0
280
0
281
0
  0
CLASS
  1
LAYOUT
  2
AcDbLayout
  3
AutoCAD 2000
 90
0
280
0
281
0
  0
ENDSEC
  0
SECTION
  2
TABLES
  0
TABLE
  2
VPORT
  5
8
100
AcDbSymbolTable
 70
2
  0
VPORT
  5
1F4
100
AcDbSymbolTableRecord
100
AcDbViewportTableRecord
  2
*ACTIVE
 70
0
 10
0.0
 20
0.0
 11
1.0
 21
1.0
 12
23.405511811
 22
16.5551181102
 13
0.0
 23
0.0
 14
1.0
 24
1.0
 15
0.0
 25
0.0
 16
0.0
 26
0.0
 36
1.0
 17
0.0
 27
0.0
 37
0.0
 40
33.1102362205
 41
1.4137931034
 42
50.0
 43
0.0
 44
0.0
 50
0.0
 51
0.0
 71
0
 72
100
 73
1
 74
1
 75
0
 76
0
 77
0
 78
0
  0
ENDTAB
  0
TABLE
  2
LTYPE
  5
5
100
AcDbSymbolTable
 70
6
  0
LTYPE
  5
14
100
AcDbSymbolTableRecord
100
AcDbLinetypeTableRecord
  2
BYBLOCK
 70
0
  3

 72
65
 73
0
 40
0.0
  0
LTYPE
  5
15
100
AcDbSymbolTableRecord
100
AcDbLinetypeTableRecord
  2
BYLAYER
 70
0
  3

 72
65
 73
0
 40
0.0
  0
LTYPE
  5
16
100
AcDbSymbolTableRecord
100
AcDbLinetypeTableRecord
  2
CONTINUOUS
 70
64
  3
Solid line
 72
65
 73
0
 40
0.0
  0
LTYPE
  5
1F5
100
AcDbSymbolTableRecord
100
AcDbLinetypeTableRecord
  2
CENTER
 70
64
  3
____ _ ____ _ ____ _ ____ _ ____ _ ____ _ ____
 72
65
 73
4
 40
0.6
 49
0.375
 74
0
 49
-0.075
 74
0
 49
0.075
 74
0
 49
-0.075
 74
0
  0
LTYPE
  5
1F6
100
AcDbSymbolTableRecord
100
AcDbLinetypeTableRecord
  2
HIDDEN
 70
64
  3
- - - - - - - - - - - - - - - - - - - -
 72
65
 73
2
 40
0.2
 49
0.1
 74
0
 49
-0.1
 74
0
  0
LTYPE
  5
1F7
100
AcDbSymbolTableRecord
100
AcDbLinetypeTableRecord
  2
PHANTOM
 70
64
  3
_____ _ _ _____ _ _ _____ _ _ _____
 72
65
 73
6
 40
0.8
 49
0.45
 74
0
 49
-0.05
 74
0
 49
0.1
 74
0
 49
-0.05
 74
0
 49
0.1
 74
0
 49
-0.05
 74
0
  0
LTYPE
  5
1F8
100
AcDbSymbolTableRecord
100
AcDbLinetypeTableRecord
  2
DOT
 70
64
  3
. . . . . . . . . . . . . . . . . . . .
 72
65
 73
2
 40
0.2
 49
0.1
 74
0
 49
-0.1
 74
0
  0
LTYPE
  5
1F9
100
AcDbSymbolTableRecord
100
AcDbLinetypeTableRecord
  2
DASHED
 70
64
  3
- - - - - - - - - - - - - - - - - - - -
 72
65
 73
2
 40
0.2
 49
0.1
 74
0
 49
-0.1
 74
0
  0
ENDTAB
  0
TABLE
  2
LAYER
  5
2
100
AcDbSymbolTable
 70
36
  0
LAYER
  5
10
100
AcDbSymbolTableRecord
100
AcDbLayerTableRecord
  2
0
 70
0
 62
7
  6
CONTINUOUS
370
-3
390
F
  0
LAYER
  5
1FA
100
AcDbSymbolTableRecord
100
AcDbLayerTableRecord
  2
DEFAULT_1
 70
0
 62
7
  6
CENTER
370
-3
390
F
  0
LAYER
  5
1FB
100
AcDbSymbolTableRecord
100
AcDbLayerTableRecord
  2
DEFAULT_2
 70
0
 62
8
  6
HIDDEN
370
-3
390
F
  0
LAYER
  5
1FC
100
AcDbSymbolTableRecord
100
AcDbLayerTableRecord
  2
DEFAULT_3
 70
0
 62
7
  6
PHANTOM
370
-3
390
F
  0
LAYER
  5
1FD
100
AcDbSymbolTableRecord
100
AcDbLayerTableRecord
  2
DEFAULT_COORDINATE_SYSTEM
 70
0
 62
7
  6
CONTINUOUS
370
-3
390
F
  0
LAYER
  5
1FE
100
AcDbSymbolTableRecord
100
AcDbLayerTableRecord
  2
DEFAULT_DATUM_AXES
 70
0
 62
7
  6
CONTINUOUS
370
-3
390
F
  0
LAYER
  5
1FF
100
AcDbSymbolTableRecord
100
AcDbLayerTableRecord
  2
DEFAULT_DATUM_CURVES
 70
0
 62
7
  6
CONTINUOUS
370
-3
390
F
  0
LAYER
  5
200
100
AcDbSymbolTableRecord
100
AcDbLayerTableRecord
  2
DEFAULT_DATUM_PLANES
 70
0
 62
7
  6
CONTINUOUS
370
-3
390
F
  0
ENDTAB
  0
TABLE
  2
STYLE
  5
3
100
AcDbSymbolTable
 70
1
  0
STYLE
  5
11
100
AcDbSymbolTableRecord
100
AcDbTextStyleTableRecord
  2
STANDARD
 70
0
 40
0.0
 41
0.8
 50
0.0
 71
0
 42
0.2
  3
txt
  4

  0
STYLE
  5
201
100
AcDbSymbolTableRecord
100
AcDbTextStyleTableRecord
  2
TEXTSTYLE_1
 70
0
 40
0.0
 41
0.8
 50
0.0
 71
0
 42
0.2
  3
gdt
  4

  0
ENDTAB
  0
TABLE
  2
VIEW
  5
6
100
AcDbSymbolTable
 70
0
  0
ENDTAB
  0
TABLE
  2
UCS
  5
7
100
AcDbSymbolTable
 70
0
  0
ENDTAB
  0
TABLE
  2
APPID
  5
9
100
AcDbSymbolTable
 70
1
  0
APPID
  5
202
100
AcDbSymbolTableRecord
100
AcDbRegAppTableRecord
  2
ACAD
 70
0
  0
ENDTAB
  0
TABLE
  2
BLOCK_RECORD
  5
1
100
AcDbSymbolTable
 70
0
  0
BLOCK_RECORD
  5
203
100
AcDbSymbolTableRecord
100
AcDbBlockTableRecord
  2
*Model_Space
  0
BLOCK_RECORD
  5
204
100
AcDbSymbolTableRecord
100
AcDbBlockTableRecord
  2
*Paper_Space
  0
ENDTAB
  0
TABLE
  2
DIMSTYLE
  5
A
100
AcDbSymbolTable
 70
1
100
AcDbDimStyleTable
 71
0
  0
DIMSTYLE
105
205
100
AcDbSymbolTableRecord
100
AcDbDimStyleTableRecord
  2
STANDARD
 70
0
  3

  4

 40
1.0
 41
0.1875
 42
0.0625
 43
0.38
 44
0.18
 45
0.0
 46
0.0
 47
0.01
 48
0.01
140
0.15625
141
0.09
142
0.0
143
25.4
144
1.0
145
0.0
146
1.0
147
0.09
 71
0.0
 72
0.0
 73
1
 74
1
 75
0
 76
0
 77
0
 78
4
170
0
171
2
172
0
173
0
174
0
175
0
176
0
177
0
178
0
270
2
271
2
272
2
273
2
274
2
275
0
280
0
281
0
282
0
283
1
284
4
285
0
286
0
287
3
288
0
340
11
  0
ENDTAB
  0
ENDSEC
  0
SECTION
  2
BLOCKS
  0
BLOCK
  5
20
100
AcDbEntity
  8
0
100
AcDbBlockBegin
  2
*Model_Space
 70
0
 10
0.0
 20
0.0
 30
0.0
  3
*Model_Space
  1

  0
ENDBLK
  5
21
100
AcDbEntity
  8
0
100
AcDbBlockEnd
  0
BLOCK
  5
1C
100
AcDbEntity
  8
0
100
AcDbBlockBegin
  2
*Paper_Space
 70
0
 10
0.0
 20
0.0
 30
0.0
  3
*Paper_Space
  1

  0
ENDBLK
  5
1D
100
AcDbEntity
  8
0
100
AcDbBlockEnd
  0
ENDSEC
  0
SECTION
  2
ENTITIES
  0
LINE
  5
206
100
AcDbEntity
  8
0
100
AcDbLine
 62
6
  6
CONTINUOUS
 10
22.3849395729
 20
9.0755959187
 11
25.3049395729
 21
9.0755959187
  0
LINE
  5
207
100
AcDbEntity
  8
0
100
AcDbLine
 62
9
  6
CONTINUOUS
 10
22.3849395729
 20
9.1555959187
 11
25.3049395729
 21
9.1555959187
  0
LINE
  5
208
100
AcDbEntity
  8
0
100
AcDbLine
 62
9
  6
CONTINUOUS
 10
22.4149395729
 20
9.1855959187
 11
25.2749395729
 21
9.1855959187
  0
LINE
  5
209
100
AcDbEntity
  8
0
100
AcDbLine
 62
6
  6
CONTINUOUS
 10
22.6999395729
 20
9.4255959187
 11
24.9899395729
 21
9.4255959187
  0
LINE
  5
20A
100
AcDbEntity
  8
0
100
AcDbLine
 62
6
  6
CONTINUOUS
 10
22.6999395729
 20
9.4355959187
 11
24.9899395729
 21
9.4355959187
  0
LINE
  5
20B
100
AcDbEntity
  8
0
100
AcDbLine
 62
6
  6
CONTINUOUS
 10
23.1099395729
 20
9.7655959187
 11
24.5799395729
 21
9.7655959187
  0
LINE
  5
20C
100
AcDbEntity
  8
0
100
AcDbLine
 62
9
  6
CONTINUOUS
 10
23.0559647691
 20
25.1415475315
 11
23.375698606
 21
25.4612813684
  0
LINE
  5
20D
100
AcDbEntity
  8
0
100
AcDbLine
 62
9
  6
CONTINUOUS
 10
23.1527629973
 20
25.1244793922
 11
23.3927667453
 21
25.3644831403
  0
LINE
  5
20E
100
AcDbEntity
  8
0
100
AcDbLine
 62
6
  6
CONTINUOUS
 10
23.156860406
 20
25.0929708308
 11
23.4242753068
 21
25.3603857315
  0
LINE
  5
20F
100
AcDbEntity
  8
0
100
AcDbLine
 62
9
  6
CONTINUOUS
 10
23.1731498518
 20
25.0740984604
 11
23.4431476771
 21
25.3440962858
  0
LINE
  5
210
100
AcDbEntity
  8
0
100
AcDbLine
 62
9
  6
CONTINUOUS
 10
23.6957484751
 20
25.0855001313
 11
23.6880945779
 21
25.0778462423
  0
LINE
  5
211
100
AcDbEntity
  8
0
100
AcDbLine
 62
9
  6
CONTINUOUS
 10
23.4393998956
 20
24.8291515607
 11
23.4317460062
 21
24.8214976625
  0
LINE
  5
212
100
AcDbEntity
  8
0
100
AcDbLine
 62
6
  6
CONTINUOUS
 10
24.3724395729
 20
23.7255959187
 11
24.351815398
 21
23.7188963459
  0
LINE
  5
213
100
AcDbEntity
  8
0
100
AcDbLine
 62
9
  6
CONTINUOUS
 10
23.9941306707
 20
24.2591129981
 11
24.0017845678
 21
24.2667668871
  0
LINE
  5
214
100
AcDbEntity
  8
0
100
AcDbLine
 62
9
  6
CONTINUOUS
 10
24.2504792501
 20
24.5154615687
 11
24.2581331395
 21
24.5231154669
  0
LINE
  5
215
100
AcDbEntity
  8
0
100
AcDbLine
 62
6
  6
CONTINUOUS
 10
24.3499863957
 20
23.7892954716
 11
24.3449395729
 21
23.7850696827
  0
LINE
  5
216
100
AcDbEntity
  8
0
100
AcDbLine
 62
9
  6
CONTINUOUS
 10
24.516729294
 20
24.270514669
 11
24.2467314686
 21
24.0005168436
  0
LINE
  5
217
100
AcDbEntity
  8
0
100
AcDbLine
 62
6
  6
CONTINUOUS
 10
24.5330187397
 20
24.2516422986
 11
24.2656038389
 21
23.9842273979
  0
LINE
  5
218
100
AcDbEntity
  8
0
100
AcDbLine
 62
9
  6
CONTINUOUS
 10
24.5371161484
 20
24.2201337372
 11
24.2971124004
 21
23.9801299891
  0
LINE
  5
219
100
AcDbEntity
  8
0
100
AcDbLine
 62
9
  6
CONTINUOUS
 10
24.6339143766
 20
24.2030655978
 11
24.3141805397
 21
23.883331761
  0
LINE
  5
21A
100
AcDbEntity
  8
0
100
AcDbLine
 62
6
  6
CONTINUOUS
 10
23.3156252295
 20
22.595524294
 11
23.3449395729
 21
22.6200696827
  0
LINE
  5
21B
100
AcDbEntity
  8
0
100
AcDbLine
 62
6
  6
CONTINUOUS
 10
24.374253937
 20
20.8701413247
 11
24.3449395729
 21
20.8455959187
  0
LINE
  5
21C
100
AcDbEntity
  8
0
100
AcDbLine
 62
6
  6
CONTINUOUS
 10
22.3849395729
 20
9.1555959187
 11
22.3849395729
 21
9.0755959187
  0
LINE
  5
21D
100
AcDbEntity
  8
0
100
AcDbLine
 62
6
  6
CONTINUOUS
 10
22.6999395729
 20
9.4355959187
 11
22.6999395729
 21
9.4255959187
  0
LINE
  5
21E
100
AcDbEntity
  8
0
100
AcDbLine
 62
6
  6
CONTINUOUS
 10
23.3927667453
 20
23.9801299891
 11
23.375698606
 21
23.883331761
  0
LINE
  5
21F
100
AcDbEntity
  8
0
100
AcDbLine
 62
6
  6
CONTINUOUS
 10
24.4599395729
 20
19.4655959187
 11
24.4825800576
 21
19.4832243877
  0
LINE
  5
220
100
AcDbEntity
  8
0
100
AcDbLine
 62
6
  6
CONTINUOUS
 10
23.2299395729
 20
19.4655959187
 11
23.2299395729
 21
9.7655959187
  0
LINE
  5
221
100
AcDbEntity
  8
0
100
AcDbLine
 62
6
  6
CONTINUOUS
 10
23.2509395729
 20
22.3600880077
 11
23.2509395729
 21
22.5256256896
  0
LINE
  5
222
100
AcDbEntity
  8
0
100
AcDbLine
 62
6
  6
CONTINUOUS
 10
23.2589395729
 20
19.879844783
 11
23.2589395729
 21
20.5096547984
  0
LINE
  5
223
100
AcDbEntity
  8
0
100
AcDbLine
 62
6
  6
CONTINUOUS
 10
23.2599395729
 20
22.8188819794
 11
23.2599395729
 21
23.455231015
  0
LINE
  5
224
100
AcDbEntity
  8
0
100
AcDbLine
 62
6
  6
CONTINUOUS
 10
23.3070699537
 20
22.9018954574
 11
23.3070699537
 21
23.3593912386
  0
LINE
  5
225
100
AcDbEntity
  8
0
100
AcDbLine
 62
6
  6
CONTINUOUS
 10
23.3083661753
 20
19.9611143009
 11
23.3083661753
 21
20.4156237623
  0
LINE
  5
226
100
AcDbEntity
  8
0
100
AcDbLine
 62
6
  6
CONTINUOUS
 10
23.3449395729
 20
22.6400696827
 11
23.3449395729
 21
22.6200696827
  0
LINE
  5
227
100
AcDbEntity
  8
0
100
AcDbLine
 62
6
  6
CONTINUOUS
 10
24.3141805397
 20
25.4612813684
 11
24.2971124004
 21
25.3644831403
  0
LINE
  5
228
100
AcDbEntity
  8
0
100
AcDbLine
 62
7
  6
CONTINUOUS
 10
23.3749395729
 20
20.8255959187
 11
23.3749395729
 21
20.8455959187
  0
LINE
  5
229
100
AcDbEntity
  8
0
100
AcDbLine
 62
6
  6
CONTINUOUS
 10
23.3749395729
 20
23.7650696827
 11
23.3749395729
 21
23.7850696827
  0
LINE
  5
22A
100
AcDbEntity
  8
0
100
AcDbLine
 62
7
  6
CONTINUOUS
 10
23.4042044386
 20
22.6364578375
 11
23.4042044386
 21
22.6400696827
  0
LINE
  5
22B
100
AcDbEntity
  8
0
100
AcDbLine
 62
6
  6
CONTINUOUS
 10
23.4424395729
 20
23.5487154685
 11
23.4424395729
 21
23.7995742812
  0
LINE
  5
22C
100
AcDbEntity
  8
0
100
AcDbLine
 62
6
  6
CONTINUOUS
 10
23.4679395729
 20
23.7995742812
 11
23.4679395729
 21
23.8645742812
  0
LINE
  5
22D
100
AcDbEntity
  8
0
100
AcDbLine
 62
6
  6
CONTINUOUS
 10
23.7955129704
 20
19.9611143009
 11
23.7955129704
 21
20.4156237623
  0
LINE
  5
22E
100
AcDbEntity
  8
0
100
AcDbLine
 62
6
  6
CONTINUOUS
 10
23.797809192
 20
22.9018954574
 11
23.797809192
 21
23.3593912386
  0
LINE
  5
22F
100
AcDbEntity
  8
0
100
AcDbLine
 62
6
  6
CONTINUOUS
 10
23.8920699537
 20
22.9018954574
 11
23.8920699537
 21
23.3593912386
  0
LINE
  5
230
100
AcDbEntity
  8
0
100
AcDbLine
 62
6
  6
CONTINUOUS
 10
23.8943661753
 20
19.9611143009
 11
23.8943661753
 21
20.4156237623
  0
LINE
  5
231
100
AcDbEntity
  8
0
100
AcDbLine
 62
6
  6
CONTINUOUS
 10
24.2219395729
 20
23.7995742812
 11
24.2219395729
 21
23.8645742812
  0
LINE
  5
232
100
AcDbEntity
  8
0
100
AcDbLine
 62
6
  6
CONTINUOUS
 10
24.2474395729
 20
23.5487154685
 11
24.2474395729
 21
23.7995742812
  0
LINE
  5
233
100
AcDbEntity
  8
0
100
AcDbLine
 62
7
  6
CONTINUOUS
 10
24.3149395729
 20
20.8255959187
 11
24.3149395729
 21
20.8455959187
  0
LINE
  5
234
100
AcDbEntity
  8
0
100
AcDbLine
 62
6
  6
CONTINUOUS
 10
24.3149395729
 20
23.7650696827
 11
24.3149395729
 21
23.7850696827
  0
LINE
  5
235
100
AcDbEntity
  8
0
100
AcDbLine
 62
6
  6
CONTINUOUS
 10
24.3449395729
 20
22.6400696827
 11
24.3449395729
 21
22.6200696827
  0
LINE
  5
236
100
AcDbEntity
  8
0
100
AcDbLine
 62
6
  6
CONTINUOUS
 10
24.3815129704
 20
19.9611143009
 11
24.3815129704
 21
20.4156237623
  0
LINE
  5
237
100
AcDbEntity
  8
0
100
AcDbLine
 62
6
  6
CONTINUOUS
 10
24.382809192
 20
22.9018954574
 11
24.382809192
 21
23.3593912386
  0
LINE
  5
238
100
AcDbEntity
  8
0
100
AcDbLine
 62
6
  6
CONTINUOUS
 10
24.4299395729
 20
22.8188819794
 11
24.4299395729
 21
23.455231015
  0
LINE
  5
239
100
AcDbEntity
  8
0
100
AcDbLine
 62
6
  6
CONTINUOUS
 10
24.4309395729
 20
19.879844783
 11
24.4309395729
 21
20.5096547984
  0
LINE
  5
23A
100
AcDbEntity
  8
0
100
AcDbLine
 62
6
  6
CONTINUOUS
 10
24.4389395729
 20
22.3600880077
 11
24.4389395729
 21
22.5256256896
  0
LINE
  5
23B
100
AcDbEntity
  8
0
100
AcDbLine
 62
6
  6
CONTINUOUS
 10
24.4599395729
 20
19.4655959187
 11
24.4599395729
 21
9.7655959187
  0
LINE
  5
23C
100
AcDbEntity
  8
0
100
AcDbLine
 62
6
  6
CONTINUOUS
 10
24.9899395729
 20
9.4355959187
 11
24.9899395729
 21
9.4255959187
  0
LINE
  5
23D
100
AcDbEntity
  8
0
100
AcDbLine
 62
6
  6
CONTINUOUS
 10
23.375698606
 20
25.4612813684
 11
23.3927667453
 21
25.3644831403
  0
LINE
  5
23E
100
AcDbEntity
  8
0
100
AcDbLine
 62
6
  6
CONTINUOUS
 10
25.3049395729
 20
9.1555959187
 11
25.3049395729
 21
9.0755959187
  0
LINE
  5
23F
100
AcDbEntity
  8
0
100
AcDbLine
 62
6
  6
CONTINUOUS
 10
23.2299395729
 20
19.4655959187
 11
23.2072990881
 21
19.4832243877
  0
LINE
  5
240
100
AcDbEntity
  8
0
100
AcDbLine
 62
6
  6
CONTINUOUS
 10
24.2971124004
 20
23.9801299891
 11
24.3141805397
 21
23.883331761
  0
LINE
  5
241
100
AcDbEntity
  8
0
100
AcDbLine
 62
7
  6
CONTINUOUS
 10
23.2299395729
 20
19.4655959187
 11
24.4599395729
 21
19.4655959187
  0
LINE
  5
242
100
AcDbEntity
  8
0
100
AcDbLine
 62
9
  6
CONTINUOUS
 10
24.4825800576
 20
19.4832243877
 11
23.2072990881
 21
19.4832243877
  0
LINE
  5
243
100
AcDbEntity
  8
0
100
AcDbLine
 62
9
  6
CONTINUOUS
 10
24.4722581084
 20
19.5683266935
 11
23.2176210373
 21
19.5683266935
  0
LINE
  5
244
100
AcDbEntity
  8
0
100
AcDbLine
 62
9
  6
CONTINUOUS
 10
23.3049395729
 20
19.7005959187
 11
24.3849395729
 21
19.7005959187
  0
LINE
  5
245
100
AcDbEntity
  8
0
100
AcDbLine
 62
6
  6
CONTINUOUS
 10
23.2589395729
 20
19.9611143009
 11
23.3083661753
 21
19.9611143009
  0
LINE
  5
246
100
AcDbEntity
  8
0
100
AcDbLine
 62
6
  6
CONTINUOUS
 10
23.7955129704
 20
19.9611143009
 11
23.8943661753
 21
19.9611143009
  0
LINE
  5
247
100
AcDbEntity
  8
0
100
AcDbLine
 62
6
  6
CONTINUOUS
 10
24.3815129704
 20
19.9611143009
 11
24.4309395729
 21
19.9611143009
  0
LINE
  5
248
100
AcDbEntity
  8
0
100
AcDbLine
 62
6
  6
CONTINUOUS
 10
23.3156252087
 20
20.8701413247
 11
23.3449395729
 21
20.8455959187
  0
LINE
  5
249
100
AcDbEntity
  8
0
100
AcDbLine
 62
6
  6
CONTINUOUS
 10
23.2589395729
 20
20.4156237623
 11
23.3083661753
 21
20.4156237623
  0
LINE
  5
24A
100
AcDbEntity
  8
0
100
AcDbLine
 62
6
  6
CONTINUOUS
 10
23.7955129704
 20
20.4156237623
 11
23.8943661753
 21
20.4156237623
  0
LINE
  5
24B
100
AcDbEntity
  8
0
100
AcDbLine
 62
6
  6
CONTINUOUS
 10
24.3815129704
 20
20.4156237623
 11
24.4309395729
 21
20.4156237623
  0
LINE
  5
24C
100
AcDbEntity
  8
0
100
AcDbLine
 62
7
  6
CONTINUOUS
 10
24.3499395729
 20
20.8255959187
 11
23.3399395729
 21
20.8255959187
  0
LINE
  5
24D
100
AcDbEntity
  8
0
100
AcDbLine
 62
7
  6
CONTINUOUS
 10
23.3449395729
 20
20.8455959187
 11
24.3449395729
 21
20.8455959187
  0
LINE
  5
24E
100
AcDbEntity
  8
0
100
AcDbLine
 62
9
  6
CONTINUOUS
 10
23.3156252086
 20
20.8701413248
 11
24.3742539371
 21
20.8701413248
  0
LINE
  5
24F
100
AcDbEntity
  8
0
100
AcDbLine
 62
6
  6
CONTINUOUS
 10
23.8293534353
 20
20.9435752812
 11
23.8605257105
 21
20.9435752812
  0
LINE
  5
250
100
AcDbEntity
  8
0
100
AcDbLine
 62
9
  6
CONTINUOUS
 10
23.3127235469
 20
20.9441834275
 11
23.7928665974
 21
20.944183409
  0
LINE
  5
251
100
AcDbEntity
  8
0
100
AcDbLine
 62
9
  6
CONTINUOUS
 10
23.8970125355
 20
20.9441834088
 11
24.3771555988
 21
20.9441834275
  0
LINE
  5
252
100
AcDbEntity
  8
0
100
AcDbLine
 62
9
  6
CONTINUOUS
 10
23.4757627506
 20
20.9707756195
 11
24.2141163951
 21
20.9707756195
  0
LINE
  5
253
100
AcDbEntity
  8
0
100
AcDbLine
 62
9
  6
CONTINUOUS
 10
24.2771766172
 20
21.0300696827
 11
23.4126968972
 21
21.0300696827
  0
LINE
  5
254
100
AcDbEntity
  8
0
100
AcDbLine
 62
9
  6
CONTINUOUS
 10
23.3488076435
 20
21.0531475879
 11
23.3354032807
 21
21.0531475879
  0
LINE
  5
255
100
AcDbEntity
  8
0
100
AcDbLine
 62
9
  6
CONTINUOUS
 10
24.3410714861
 20
21.0531475879
 11
24.354475865
 21
21.0531475879
  0
LINE
  5
256
100
AcDbEntity
  8
0
100
AcDbLine
 62
9
  6
CONTINUOUS
 10
24.3707635857
 20
21.0948200944
 11
23.3191154535
 21
21.0948203771
  0
LINE
  5
257
100
AcDbEntity
  8
0
100
AcDbLine
 62
6
  6
CONTINUOUS
 10
24.3742539162
 20
22.595524294
 11
24.3449395729
 21
22.6200696827
  0
LINE
  5
258
100
AcDbEntity
  8
0
100
AcDbLine
 62
9
  6
CONTINUOUS
 10
23.375698606
 20
23.883331761
 11
23.0559647691
 21
24.2030655978
  0
LINE
  5
259
100
AcDbEntity
  8
0
100
AcDbLine
 62
9
  6
CONTINUOUS
 10
23.3927667453
 20
23.9801299891
 11
23.1527629973
 21
24.2201337372
  0
LINE
  5
25A
100
AcDbEntity
  8
0
100
AcDbLine
 62
6
  6
CONTINUOUS
 10
23.4242753068
 20
23.9842273979
 11
23.156860406
 21
24.2516422986
  0
LINE
  5
25B
100
AcDbEntity
  8
0
100
AcDbLine
 62
9
  6
CONTINUOUS
 10
23.4431476771
 20
24.0005168436
 11
23.1731498518
 21
24.270514669
  0
LINE
  5
25C
100
AcDbEntity
  8
0
100
AcDbLine
 62
7
  6
CONTINUOUS
 10
23.3009395729
 20
22.3455959187
 11
23.3098880284
 21
22.3455959187
  0
LINE
  5
25D
100
AcDbEntity
  8
0
100
AcDbLine
 62
7
  6
CONTINUOUS
 10
24.379991117
 20
22.3455959187
 11
24.3889395729
 21
22.3455959187
  0
LINE
  5
25E
100
AcDbEntity
  8
0
100
AcDbLine
 62
9
  6
CONTINUOUS
 10
23.3354032807
 20
22.4125180135
 11
24.354475865
 21
22.4125180135
  0
LINE
  5
25F
100
AcDbEntity
  8
0
100
AcDbLine
 62
9
  6
CONTINUOUS
 10
23.2509395729
 20
22.5006611025
 11
23.3289306475
 21
22.5006611025
  0
LINE
  5
260
100
AcDbEntity
  8
0
100
AcDbLine
 62
9
  6
CONTINUOUS
 10
24.3609484982
 20
22.5006611025
 11
24.4389395729
 21
22.5006611025
  0
LINE
  5
261
100
AcDbEntity
  8
0
100
AcDbLine
 62
6
  6
CONTINUOUS
 10
23.33989275
 20
23.7892954716
 11
23.3449395729
 21
23.7850696827
  0
LINE
  5
262
100
AcDbEntity
  8
0
100
AcDbLine
 62
9
  6
CONTINUOUS
 10
23.4317460062
 20
24.5231154669
 11
23.4408520048
 21
24.5140094596
  0
LINE
  5
263
100
AcDbEntity
  8
0
100
AcDbLine
 62
9
  6
CONTINUOUS
 10
23.6866424666
 20
24.2682189971
 11
23.6957484751
 21
24.2591129981
  0
LINE
  5
264
100
AcDbEntity
  8
0
100
AcDbLine
 62
9
  6
CONTINUOUS
 10
24.3771555864
 20
22.5214821617
 11
23.3127235593
 21
22.5214821617
  0
LINE
  5
265
100
AcDbEntity
  8
0
100
AcDbLine
 62
9
  6
CONTINUOUS
 10
24.3742539162
 20
22.595524294
 11
23.3156252295
 21
22.595524294
  0
LINE
  5
266
100
AcDbEntity
  8
0
100
AcDbLine
 62
6
  6
CONTINUOUS
 10
24.3449395729
 20
22.6200696827
 11
23.3449395729
 21
22.6200696827
  0
LINE
  5
267
100
AcDbEntity
  8
0
100
AcDbLine
 62
7
  6
CONTINUOUS
 10
24.2316912974
 20
22.6364578375
 11
23.4042044386
 21
22.6364578375
  0
LINE
  5
268
100
AcDbEntity
  8
0
100
AcDbLine
 62
7
  6
CONTINUOUS
 10
24.3849395729
 20
22.6400696827
 11
23.3049395729
 21
22.6400696827
  0
LINE
  5
269
100
AcDbEntity
  8
0
100
AcDbLine
 62
6
  6
CONTINUOUS
 10
23.2599395729
 20
22.9018954574
 11
23.3070699537
 21
22.9018954574
  0
LINE
  5
26A
100
AcDbEntity
  8
0
100
AcDbLine
 62
6
  6
CONTINUOUS
 10
23.797809192
 20
22.9018954574
 11
23.8920699537
 21
22.9018954574
  0
LINE
  5
26B
100
AcDbEntity
  8
0
100
AcDbLine
 62
6
  6
CONTINUOUS
 10
24.382809192
 20
22.9018954574
 11
24.4299395729
 21
22.9018954574
  0
LINE
  5
26C
100
AcDbEntity
  8
0
100
AcDbLine
 62
9
  6
CONTINUOUS
 10
24.2581331395
 20
24.8214976625
 11
24.2490271409
 21
24.8306036698
  0
LINE
  5
26D
100
AcDbEntity
  8
0
100
AcDbLine
 62
9
  6
CONTINUOUS
 10
24.0032366791
 20
25.0763941323
 11
23.9941306707
 21
25.0855001313
  0
LINE
  5
26E
100
AcDbEntity
  8
0
100
AcDbLine
 62
6
  6
CONTINUOUS
 10
23.2599395729
 20
23.3593912386
 11
23.3070699537
 21
23.3593912386
  0
LINE
  5
26F
100
AcDbEntity
  8
0
100
AcDbLine
 62
6
  6
CONTINUOUS
 10
23.797809192
 20
23.3593912386
 11
23.8920699537
 21
23.3593912386
  0
LINE
  5
270
100
AcDbEntity
  8
0
100
AcDbLine
 62
6
  6
CONTINUOUS
 10
24.382809192
 20
23.3593912386
 11
24.4299395729
 21
23.3593912386
  0
LINE
  5
271
100
AcDbEntity
  8
0
100
AcDbLine
 62
6
  6
CONTINUOUS
 10
24.2411604996
 20
23.4995742812
 11
23.4487186461
 21
23.4995742812
  0
LINE
  5
272
100
AcDbEntity
  8
0
100
AcDbLine
 62
9
  6
CONTINUOUS
 10
23.4424395729
 20
23.5487154685
 11
24.2474395729
 21
23.5487154685
  0
LINE
  5
273
100
AcDbEntity
  8
0
100
AcDbLine
 62
6
  6
CONTINUOUS
 10
23.3174395729
 20
23.7255959187
 11
23.3380637477
 21
23.7188963459
  0
LINE
  5
274
100
AcDbEntity
  8
0
100
AcDbLine
 62
9
  6
CONTINUOUS
 10
24.2467314686
 20
25.3440962858
 11
24.516729294
 21
25.0740984604
  0
LINE
  5
275
100
AcDbEntity
  8
0
100
AcDbLine
 62
6
  6
CONTINUOUS
 10
24.2656038389
 20
25.3603857315
 11
24.5330187397
 21
25.0929708308
  0
LINE
  5
276
100
AcDbEntity
  8
0
100
AcDbLine
 62
9
  6
CONTINUOUS
 10
24.2971124004
 20
25.3644831403
 11
24.5371161484
 21
25.1244793922
  0
LINE
  5
277
100
AcDbEntity
  8
0
100
AcDbLine
 62
9
  6
CONTINUOUS
 10
24.3141805397
 20
25.4612813684
 11
24.6339143766
 21
25.1415475315
  0
LINE
  5
278
100
AcDbEntity
  8
0
100
AcDbLine
 62
6
  6
CONTINUOUS
 10
24.3724395729
 20
23.7255959187
 11
24.351283563
 21
23.7255959187
  0
LINE
  5
279
100
AcDbEntity
  8
0
100
AcDbLine
 62
6
  6
CONTINUOUS
 10
23.3174395729
 20
23.7255959187
 11
23.3385955827
 21
23.7255959187
  0
LINE
  5
27A
100
AcDbEntity
  8
0
100
AcDbLine
 62
7
  6
CONTINUOUS
 10
24.3499395729
 20
23.7650696827
 11
24.2474395729
 21
23.7650696827
  0
LINE
  5
27B
100
AcDbEntity
  8
0
100
AcDbLine
 62
7
  6
CONTINUOUS
 10
23.4424395729
 20
23.7650696827
 11
23.3399395729
 21
23.7650696827
  0
LINE
  5
27C
100
AcDbEntity
  8
0
100
AcDbLine
 62
7
  6
CONTINUOUS
 10
23.4424395729
 20
23.7850696827
 11
23.3449395729
 21
23.7850696827
  0
LINE
  5
27D
100
AcDbEntity
  8
0
100
AcDbLine
 62
7
  6
CONTINUOUS
 10
24.2474395729
 20
23.7850696827
 11
24.3449395729
 21
23.7850696827
  0
LINE
  5
27E
100
AcDbEntity
  8
0
100
AcDbLine
 62
7
  6
CONTINUOUS
 10
24.2474395729
 20
23.7995742812
 11
23.4424395729
 21
23.7995742812
  0
LINE
  5
27F
100
AcDbEntity
  8
0
100
AcDbLine
 62
9
  6
CONTINUOUS
 10
23.3507105226
 20
23.8096150885
 11
23.4679395729
 21
23.809615086
  0
LINE
  5
280
100
AcDbEntity
  8
0
100
AcDbLine
 62
9
  6
CONTINUOUS
 10
24.2219395729
 20
23.8096150859
 11
24.3391686231
 21
23.8096150885
  0
LINE
  5
281
100
AcDbEntity
  8
0
100
AcDbLine
 62
7
  6
CONTINUOUS
 10
24.2219395729
 20
23.8645742812
 11
23.4679395729
 21
23.8645742812
  0
LINE
  5
282
100
AcDbEntity
  8
0
100
AcDbLine
 62
6
  6
CONTINUOUS
 10
24.2946528705
 20
23.8823065647
 11
23.3952262752
 21
23.8823065647
  0
LINE
  5
283
100
AcDbEntity
  8
0
100
AcDbLine
 62
9
  6
CONTINUOUS
 10
23.3757559884
 20
23.8836571926
 11
23.3883439044
 21
23.8836571929
  0
LINE
  5
284
100
AcDbEntity
  8
0
100
AcDbLine
 62
9
  6
CONTINUOUS
 10
24.3015352417
 20
23.8836571929
 11
24.3141231573
 21
23.8836571927
  0
LINE
  5
285
100
AcDbEntity
  8
0
100
AcDbLine
 62
9
  6
CONTINUOUS
 10
24.3095692273
 20
23.909483813
 11
23.3803099197
 21
23.9094838203
  0
LINE
  5
286
100
AcDbEntity
  8
0
100
AcDbLine
 62
6
  6
CONTINUOUS
 10
23.1527629973
 20
24.2201337372
 11
23.0559647691
 21
24.2030655978
  0
LINE
  5
287
100
AcDbEntity
  8
0
100
AcDbLine
 62
6
  6
CONTINUOUS
 10
24.6339143766
 20
24.2030655978
 11
24.5371161484
 21
24.2201337372
  0
LINE
  5
288
100
AcDbEntity
  8
0
100
AcDbLine
 62
6
  6
CONTINUOUS
 10
24.6339143766
 20
25.1415475315
 11
24.5371161484
 21
25.1244793922
  0
LINE
  5
289
100
AcDbEntity
  8
0
100
AcDbLine
 62
9
  6
CONTINUOUS
 10
23.4447147275
 20
25.3103189886
 11
23.751106955
 21
25.3103189686
  0
LINE
  5
28A
100
AcDbEntity
  8
0
100
AcDbLine
 62
9
  6
CONTINUOUS
 10
23.9387722215
 20
25.3103189635
 11
24.2451644184
 21
25.3103189917
  0
LINE
  5
28B
100
AcDbEntity
  8
0
100
AcDbLine
 62
9
  6
CONTINUOUS
 10
23.4127020106
 20
25.3750696827
 11
24.2771771351
 21
25.3750696827
  0
LINE
  5
28C
100
AcDbEntity
  8
0
100
AcDbLine
 62
9
  6
CONTINUOUS
 10
23.4757588338
 20
25.4343631396
 11
24.2141203119
 21
25.4343631396
  0
LINE
  5
28D
100
AcDbEntity
  8
0
100
AcDbLine
 62
6
  6
CONTINUOUS
 10
23.8606618596
 20
25.461565049
 11
23.8292172861
 21
25.461565049
  0
LINE
  5
28E
100
AcDbEntity
  8
0
100
AcDbLine
 62
6
  6
CONTINUOUS
 10
23.1527629973
 20
25.1244793922
 11
23.0559647691
 21
25.1415475315
  0
ARC
  5
28F
100
AcDbEntity
  8
0
100
AcDbCircle
 62
6
  6
CONTINUOUS
 10
22.4149395729
 20
9.1555959187
 40
0.03
100
AcDbArc
 50
90.0
 51
180.0
  0
ARC
  5
290
100
AcDbEntity
  8
0
100
AcDbCircle
 62
6
  6
CONTINUOUS
 10
21.9859606857
 20
9.9569471667
 40
0.89
100
AcDbArc
 50
299.9241230472
 51
323.342955626
  0
ARC
  5
291
100
AcDbEntity
  8
0
100
AcDbCircle
 62
6
  6
CONTINUOUS
 10
23.2013042234
 20
9.3045617544
 40
0.47
100
AcDbArc
 50
101.2092591463
 51
163.8116350097
  0
ARC
  5
292
100
AcDbEntity
  8
0
100
AcDbCircle
 62
6
  6
CONTINUOUS
 10
22.6999538594
 20
20.8213196379
 40
0.64
100
AcDbArc
 50
330.8579636929
 51
0.3828354101
  0
ARC
  5
293
100
AcDbEntity
  8
0
100
AcDbCircle
 62
6
  6
CONTINUOUS
 10
22.9549863096
 20
19.7063154951
 40
0.35
100
AcDbArc
 50
359.0636509257
 51
29.7223828609
  0
ARC
  5
294
100
AcDbEntity
  8
0
100
AcDbCircle
 62
6
  6
CONTINUOUS
 10
22.6769395729
 20
21.7328328007
 40
1.81
100
AcDbArc
 50
337.9437488383
 51
22.0562511617
  0
ARC
  5
295
100
AcDbEntity
  8
0
100
AcDbCircle
 62
6
  6
CONTINUOUS
 10
23.1574487715
 20
19.7030064831
 40
0.147510499
100
AcDbArc
 50
294.0741469695
 51
359.0636509257
  0
ARC
  5
296
100
AcDbEntity
  8
0
100
AcDbCircle
 62
6
  6
CONTINUOUS
 10
23.2380169638
 20
19.522675777
 40
0.05
100
AcDbArc
 50
114.0741469695
 51
232.0947491676
  0
ARC
  5
297
100
AcDbEntity
  8
0
100
AcDbCircle
 62
6
  6
CONTINUOUS
 10
23.2427217176
 20
21.0155959187
 40
0.1
100
AcDbArc
 50
314.4284717045
 51
22.0562511617
  0
ARC
  5
298
100
AcDbEntity
  8
0
100
AcDbCircle
 62
6
  6
CONTINUOUS
 10
23.2427217176
 20
22.4500696827
 40
0.1
100
AcDbArc
 50
337.9437488383
 51
45.571518394
  0
ARC
  5
299
100
AcDbEntity
  8
0
100
AcDbCircle
 62
6
  6
CONTINUOUS
 10
22.6999395729
 20
23.7650696827
 40
0.64
100
AcDbArc
 50
331.0449756281
 51
360.0
  0
ARC
  5
29A
100
AcDbEntity
  8
0
100
AcDbCircle
 62
6
  6
CONTINUOUS
 10
22.8775888796
 20
22.8094746984
 40
0.469
100
AcDbArc
 50
322.7551982332
 51
338.8179505886
  0
ARC
  5
29B
100
AcDbEntity
  8
0
100
AcDbCircle
 62
6
  6
CONTINUOUS
 10
22.6769395729
 20
24.6723065647
 40
1.81
100
AcDbArc
 50
2.5197184817
 51
12.552157526
  0
ARC
  5
29C
100
AcDbEntity
  8
0
100
AcDbCircle
 62
6
  6
CONTINUOUS
 10
22.6769395729
 20
24.6723065647
 40
1.81
100
AcDbArc
 50
347.4470915406
 51
357.5039044692
  0
ARC
  5
29D
100
AcDbEntity
  8
0
100
AcDbCircle
 62
6
  6
CONTINUOUS
 10
22.9550096792
 20
22.6470746457
 40
0.35
100
AcDbArc
 50
358.85319539
 51
29.3983126613
  0
ARC
  5
29E
100
AcDbEntity
  8
0
100
AcDbCircle
 62
6
  6
CONTINUOUS
 10
23.1038916662
 20
23.931258658
 40
0.276
100
AcDbArc
 50
100.0
 51
350.0
  0
ARC
  5
29F
100
AcDbEntity
  8
0
100
AcDbCircle
 62
6
  6
CONTINUOUS
 10
23.0094929316
 20
24.0095959147
 40
0.2760000039
100
AcDbArc
 50
55.4474304101
 51
243.4827599563
  0
ARC
  5
2A0
100
AcDbEntity
  8
0
100
AcDbCircle
 62
6
  6
CONTINUOUS
 10
23.0032026145
 20
24.0530296533
 40
0.4
100
AcDbArc
 50
342.2296602107
 51
350.8312077193
  0
ARC
  5
2A1
100
AcDbEntity
  8
0
100
AcDbCircle
 62
6
  6
CONTINUOUS
 10
23.116640792
 20
24.2476777342
 40
1.36
100
AcDbArc
 50
337.4255442891
 51
338.4198155343
  0
ARC
  5
2A2
100
AcDbEntity
  8
0
100
AcDbCircle
 62
6
  6
CONTINUOUS
 10
23.1499846265
 20
24.2358906612
 40
0.016
100
AcDbArc
 50
280.0
 51
45.0
  0
ARC
  5
2A3
100
AcDbEntity
  8
0
100
AcDbCircle
 62
6
  6
CONTINUOUS
 10
23.1725987304
 20
24.2545241635
 40
0.016
100
AcDbArc
 50
88.0260516848
 51
190.3765489003
  0
ARC
  5
2A4
100
AcDbEntity
  8
0
100
AcDbCircle
 62
6
  6
CONTINUOUS
 10
23.1817611224
 20
24.520366317
 40
0.25
100
AcDbArc
 50
268.0260516848
 51
0.6300714454
  0
ARC
  5
2A5
100
AcDbEntity
  8
0
100
AcDbCircle
 62
6
  6
CONTINUOUS
 10
23.1038916662
 20
25.4133544714
 40
0.276
100
AcDbArc
 50
10.0
 51
260.0
  0
ARC
  5
2A6
100
AcDbEntity
  8
0
100
AcDbCircle
 62
6
  6
CONTINUOUS
 10
23.1499846265
 20
25.1087224682
 40
0.016
100
AcDbArc
 50
315.0
 51
80.0
  0
ARC
  5
2A7
100
AcDbEntity
  8
0
100
AcDbCircle
 62
6
  6
CONTINUOUS
 10
23.1817611224
 20
24.8242468124
 40
0.25
100
AcDbArc
 50
359.3699285546
 51
91.9739483152
  0
ARC
  5
2A8
100
AcDbEntity
  8
0
100
AcDbCircle
 62
6
  6
CONTINUOUS
 10
23.1725987304
 20
25.0900889659
 40
0.016
100
AcDbArc
 50
169.6234510997
 51
271.9739483152
  0
ARC
  5
2A9
100
AcDbEntity
  8
0
100
AcDbCircle
 62
6
  6
CONTINUOUS
 10
23.4126968964
 20
21.1300696827
 40
0.1
100
AcDbArc
 50
200.6398775572
 51
270.0000004625
  0
ARC
  5
2AA
100
AcDbEntity
  8
0
100
AcDbCircle
 62
6
  6
CONTINUOUS
 10
23.3009395729
 20
22.4390959187
 40
0.0935
100
AcDbArc
 50
237.6724068419
 51
270.0
  0
ARC
  5
2AB
100
AcDbEntity
  8
0
100
AcDbCircle
 62
6
  6
CONTINUOUS
 10
23.4849395729
 20
21.0300696827
 40
0.06
100
AcDbArc
 50
180.0
 51
261.2022494379
  0
ARC
  5
2AC
100
AcDbEntity
  8
0
100
AcDbCircle
 62
6
  6
CONTINUOUS
 10
23.3477244617
 20
20.9084771821
 40
0.05
100
AcDbArc
 50
134.4284718469
 51
230.0599998511
  0
ARC
  5
2AD
100
AcDbEntity
  8
0
100
AcDbCircle
 62
6
  6
CONTINUOUS
 10
23.3477244617
 20
22.5571884193
 40
0.05
100
AcDbArc
 50
129.9399691104
 51
225.5715479562
  0
ARC
  5
2AE
100
AcDbEntity
  8
0
100
AcDbCircle
 62
6
  6
CONTINUOUS
 10
23.3952262752
 20
23.9023065647
 40
0.02
100
AcDbArc
 50
206.5265951007
 51
270.0
  0
ARC
  5
2AF
100
AcDbEntity
  8
0
100
AcDbCircle
 62
6
  6
CONTINUOUS
 10
23.4085236694
 20
23.9773516183
 40
0.016
100
AcDbArc
 50
45.0
 51
170.0
  0
ARC
  5
2B0
100
AcDbEntity
  8
0
100
AcDbCircle
 62
6
  6
CONTINUOUS
 10
23.4271571717
 20
23.9999657223
 40
0.016
100
AcDbArc
 50
259.6234510997
 51
1.9739483151
  0
ARC
  5
2B1
100
AcDbEntity
  8
0
100
AcDbCircle
 62
6
  6
CONTINUOUS
 10
23.4126968964
 20
25.2750696827
 40
0.1
100
AcDbArc
 50
89.9999996243
 51
102.3525119848
  0
ARC
  5
2B2
100
AcDbEntity
  8
0
100
AcDbCircle
 62
6
  6
CONTINUOUS
 10
23.4085236694
 20
25.3672615111
 40
0.016
100
AcDbArc
 50
190.0
 51
315.0
  0
ARC
  5
2B3
100
AcDbEntity
  8
0
100
AcDbCircle
 62
6
  6
CONTINUOUS
 10
23.4271571717
 20
25.3446474071
 40
0.016
100
AcDbArc
 50
358.0260516849
 51
100.3765489003
  0
ARC
  5
2B4
100
AcDbEntity
  8
0
100
AcDbCircle
 62
6
  6
CONTINUOUS
 10
23.4627441319
 20
24.8211567679
 40
0.031
100
AcDbArc
 50
179.3699285546
 51
195.3007655894
  0
ARC
  5
2B5
100
AcDbEntity
  8
0
100
AcDbCircle
 62
6
  6
CONTINUOUS
 10
23.4627441319
 20
24.5234563615
 40
0.031
100
AcDbArc
 50
161.8096881551
 51
180.6300714454
  0
ARC
  5
2B6
100
AcDbEntity
  8
0
100
AcDbCircle
 62
6
  6
CONTINUOUS
 10
23.4849395729
 20
25.3750696827
 40
0.06
100
AcDbArc
 50
98.8015353092
 51
180.0
  0
ARC
  5
2B7
100
AcDbEntity
  8
0
100
AcDbCircle
 62
6
  6
CONTINUOUS
 10
23.8293534353
 20
23.2554257674
 40
2.3118504863
100
AcDbArc
 50
261.2022494379
 51
270.0
  0
ARC
  5
2B8
100
AcDbEntity
  8
0
100
AcDbCircle
 62
6
  6
CONTINUOUS
 10
23.8292172861
 20
23.151565049
 40
2.31
100
AcDbArc
 50
90.0
 51
98.8015353092
  0
ARC
  5
2B9
100
AcDbEntity
  8
0
100
AcDbCircle
 62
6
  6
CONTINUOUS
 10
23.6929993252
 20
24.0091281142
 40
0.25
100
AcDbArc
 50
89.3699285546
 51
181.9739483152
  0
ARC
  5
2BA
100
AcDbEntity
  8
0
100
AcDbCircle
 62
6
  6
CONTINUOUS
 10
23.6378731158
 20
23.5487154685
 40
0.1954335429
100
AcDbArc
 50
180.0
 51
194.5631575117
  0
ARC
  5
2BB
100
AcDbEntity
  8
0
100
AcDbCircle
 62
9
  6
CONTINUOUS
 10
23.7303818273
 20
25.4627159475
 40
1.2588941082
100
AcDbArc
 50
283.6879001906
 51
285.3910135291
  0
ARC
  5
2BC
100
AcDbEntity
  8
0
100
AcDbCircle
 62
6
  6
CONTINUOUS
 10
23.6929993252
 20
25.3354850152
 40
0.25
100
AcDbArc
 50
178.0260516848
 51
270.6300714454
  0
ARC
  5
2BD
100
AcDbEntity
  8
0
100
AcDbCircle
 62
6
  6
CONTINUOUS
 10
23.6960893696
 20
25.0545020057
 40
0.031
100
AcDbArc
 50
74.6992344106
 51
90.6300714454
  0
ARC
  5
2BE
100
AcDbEntity
  8
0
100
AcDbCircle
 62
6
  6
CONTINUOUS
 10
23.6960893696
 20
24.2901111237
 40
0.031
100
AcDbArc
 50
269.3699285546
 51
288.1903118449
  0
ARC
  5
2BF
100
AcDbEntity
  8
0
100
AcDbCircle
 62
6
  6
CONTINUOUS
 10
24.4885749223
 20
9.3045617544
 40
0.47
100
AcDbArc
 50
16.1883649903
 51
78.7907408537
  0
ARC
  5
2C0
100
AcDbEntity
  8
0
100
AcDbCircle
 62
6
  6
CONTINUOUS
 10
25.2749395729
 20
9.1555959187
 40
0.03
100
AcDbArc
 50
0.0
 51
90.0
  0
ARC
  5
2C1
100
AcDbEntity
  8
0
100
AcDbCircle
 62
6
  6
CONTINUOUS
 10
25.70391846
 20
9.9569471667
 40
0.89
100
AcDbArc
 50
216.657044374
 51
240.0758769528
  0
ARC
  5
2C2
100
AcDbEntity
  8
0
100
AcDbCircle
 62
6
  6
CONTINUOUS
 10
24.2771822493
 20
21.1300696827
 40
0.1
100
AcDbArc
 50
269.9996768451
 51
339.3599497843
  0
ARC
  5
2C3
100
AcDbEntity
  8
0
100
AcDbCircle
 62
6
  6
CONTINUOUS
 10
24.3889395729
 20
22.4390959187
 40
0.0935
100
AcDbArc
 50
270.0
 51
302.3275931581
  0
ARC
  5
2C4
100
AcDbEntity
  8
0
100
AcDbCircle
 62
6
  6
CONTINUOUS
 10
24.2049395729
 20
21.0300696827
 40
0.06
100
AcDbArc
 50
278.7977505621
 51
360.0
  0
ARC
  5
2C5
100
AcDbEntity
  8
0
100
AcDbCircle
 62
6
  6
CONTINUOUS
 10
24.342154684
 20
20.9084771821
 40
0.05
100
AcDbArc
 50
309.9400001489
 51
45.5715281531
  0
ARC
  5
2C6
100
AcDbEntity
  8
0
100
AcDbCircle
 62
6
  6
CONTINUOUS
 10
23.8605257105
 20
23.2554257674
 40
2.3118504863
100
AcDbArc
 50
270.0
 51
278.7977505621
  0
ARC
  5
2C7
100
AcDbEntity
  8
0
100
AcDbCircle
 62
6
  6
CONTINUOUS
 10
23.8606618596
 20
23.151565049
 40
2.31
100
AcDbArc
 50
81.1984646908
 51
90.0
  0
ARC
  5
2C8
100
AcDbEntity
  8
0
100
AcDbCircle
 62
6
  6
CONTINUOUS
 10
24.0520060299
 20
23.5487154685
 40
0.1954335429
100
AcDbArc
 50
345.4368424883
 51
360.0
  0
ARC
  5
2C9
100
AcDbEntity
  8
0
100
AcDbCircle
 62
6
  6
CONTINUOUS
 10
23.8449395729
 20
24.6723065647
 40
0.645
100
AcDbArc
 50
325.5761349473
 51
34.4238657756
  0
ARC
  5
2CA
100
AcDbEntity
  8
0
100
AcDbCircle
 62
6
  6
CONTINUOUS
 10
23.8449395729
 20
24.6723065647
 40
0.645
100
AcDbArc
 50
55.575445053
 51
124.424554947
  0
ARC
  5
2CB
100
AcDbEntity
  8
0
100
AcDbCircle
 62
6
  6
CONTINUOUS
 10
23.8449395729
 20
24.6723065647
 40
0.645
100
AcDbArc
 50
145.5761342244
 51
214.4238650527
  0
ARC
  5
2CC
100
AcDbEntity
  8
0
100
AcDbCircle
 62
9
  6
CONTINUOUS
 10
23.8449395729
 20
24.6723065647
 40
0.5195409934
100
AcDbArc
 50
328.5891831705
 51
31.3649983676
  0
ARC
  5
2CD
100
AcDbEntity
  8
0
100
AcDbCircle
 62
9
  6
CONTINUOUS
 10
23.8449395729
 20
24.6723065647
 40
0.5195409934
100
AcDbArc
 50
58.6350016324
 51
121.3649983676
  0
ARC
  5
2CE
100
AcDbEntity
  8
0
100
AcDbCircle
 62
9
  6
CONTINUOUS
 10
23.8449395729
 20
24.6723065647
 40
0.5195409934
100
AcDbArc
 50
148.6350016324
 51
211.4108164045
  0
ARC
  5
2CF
100
AcDbEntity
  8
0
100
AcDbCircle
 62
6
  6
CONTINUOUS
 10
23.8449395729
 20
24.6723065647
 40
0.4697132976
100
AcDbArc
 50
243.4720980445
 51
296.5279019558
  0
ARC
  5
2D0
100
AcDbEntity
  8
0
100
AcDbCircle
 62
6
  6
CONTINUOUS
 10
23.8449395729
 20
24.6723065647
 40
0.4697132976
100
AcDbArc
 50
153.4649703574
 51
206.5350296422
  0
ARC
  5
2D1
100
AcDbEntity
  8
0
100
AcDbCircle
 62
6
  6
CONTINUOUS
 10
23.8449395729
 20
24.6723065647
 40
0.4697132976
100
AcDbArc
 50
63.4720980445
 51
116.5279019558
  0
ARC
  5
2D2
100
AcDbEntity
  8
0
100
AcDbCircle
 62
6
  6
CONTINUOUS
 10
23.8449395729
 20
24.6723065647
 40
0.4697132976
100
AcDbArc
 50
333.4649703574
 51
26.5350296422
  0
ARC
  5
2D3
100
AcDbEntity
  8
0
100
AcDbCircle
 62
6
  6
CONTINUOUS
 10
23.8449395729
 20
24.6723065647
 40
0.4642532635
100
AcDbArc
 50
244.2755572635
 51
295.7142955673
  0
ARC
  5
2D4
100
AcDbEntity
  8
0
100
AcDbCircle
 62
6
  6
CONTINUOUS
 10
23.8449395729
 20
24.6723065647
 40
0.4642532635
100
AcDbArc
 50
154.2857044329
 51
205.7244427363
  0
ARC
  5
2D5
100
AcDbEntity
  8
0
100
AcDbCircle
 62
6
  6
CONTINUOUS
 10
23.8449395729
 20
24.6723065647
 40
0.4642532635
100
AcDbArc
 50
64.2755572635
 51
115.7142955673
  0
ARC
  5
2D6
100
AcDbEntity
  8
0
100
AcDbCircle
 62
6
  6
CONTINUOUS
 10
23.8449395729
 20
24.6723065647
 40
0.4642532635
100
AcDbArc
 50
334.2857044329
 51
25.7244427363
  0
ARC
  5
2D7
100
AcDbEntity
  8
0
100
AcDbCircle
 62
9
  6
CONTINUOUS
 10
23.8449395729
 20
24.6723065647
 40
0.4569674089
100
AcDbArc
 50
335.7887134799
 51
24.211196066
  0
ARC
  5
2D8
100
AcDbEntity
  8
0
100
AcDbCircle
 62
9
  6
CONTINUOUS
 10
23.8449395729
 20
24.6723065647
 40
0.4569674089
100
AcDbArc
 50
65.7888037908
 51
114.2112839842
  0
ARC
  5
2D9
100
AcDbEntity
  8
0
100
AcDbCircle
 62
9
  6
CONTINUOUS
 10
23.8449395729
 20
24.6723065647
 40
0.4569674089
100
AcDbArc
 50
155.7887134799
 51
204.211196066
  0
ARC
  5
2DA
100
AcDbEntity
  8
0
100
AcDbCircle
 62
9
  6
CONTINUOUS
 10
23.8449395729
 20
24.6723065647
 40
0.4569674089
100
AcDbArc
 50
245.7888037908
 51
294.2112839842
  0
CIRCLE
  5
2DB
100
AcDbEntity
  8
0
100
AcDbCircle
 62
6
  6
CONTINUOUS
 10
23.8449395729
 20
24.6723065647
 40
0.435
  0
CIRCLE
  5
2DC
100
AcDbEntity
  8
0
100
AcDbCircle
 62
6
  6
CONTINUOUS
 10
23.8449395729
 20
24.6723065647
 40
0.4163902636
  0
CIRCLE
  5
2DD
100
AcDbEntity
  8
0
100
AcDbCircle
 62
9
  6
CONTINUOUS
 10
23.8449395729
 20
24.6723065647
 40
0.3450099976
  0
ARC
  5
2DE
100
AcDbEntity
  8
0
100
AcDbCircle
 62
6
  6
CONTINUOUS
 10
23.9968798206
 20
24.0091281142
 40
0.25
100
AcDbArc
 50
358.0260516848
 51
90.6300714454
  0
ARC
  5
2DF
100
AcDbEntity
  8
0
100
AcDbCircle
 62
6
  6
CONTINUOUS
 10
23.9937897761
 20
24.2901111237
 40
0.031
100
AcDbArc
 50
254.6992344106
 51
270.6300714454
  0
ARC
  5
2E0
100
AcDbEntity
  8
0
100
AcDbCircle
 62
9
  6
CONTINUOUS
 10
23.9479555519
 20
25.4182100367
 40
1.2129212448
100
AcDbArc
 50
254.5765613175
 51
256.3436764297
  0
ARC
  5
2E1
100
AcDbEntity
  8
0
100
AcDbCircle
 62
6
  6
CONTINUOUS
 10
23.9968798206
 20
25.3354850152
 40
0.25
100
AcDbArc
 50
269.3699285546
 51
1.9739483152
  0
ARC
  5
2E2
100
AcDbEntity
  8
0
100
AcDbCircle
 62
6
  6
CONTINUOUS
 10
23.9937897761
 20
25.0545020057
 40
0.031
100
AcDbArc
 50
89.3699285546
 51
108.1903118449
  0
ARC
  5
2E3
100
AcDbEntity
  8
0
100
AcDbCircle
 62
6
  6
CONTINUOUS
 10
24.342154684
 20
22.5571884193
 40
0.05
100
AcDbArc
 50
314.4284520438
 51
50.0600308896
  0
ARC
  5
2E4
100
AcDbEntity
  8
0
100
AcDbCircle
 62
6
  6
CONTINUOUS
 10
24.2946528705
 20
23.9023065647
 40
0.02
100
AcDbArc
 50
270.0
 51
333.4734048989
  0
ARC
  5
2E5
100
AcDbEntity
  8
0
100
AcDbCircle
 62
6
  6
CONTINUOUS
 10
24.2813554764
 20
23.9773516183
 40
0.016
100
AcDbArc
 50
10.0
 51
135.0
  0
ARC
  5
2E6
100
AcDbEntity
  8
0
100
AcDbCircle
 62
6
  6
CONTINUOUS
 10
24.2271350139
 20
24.5234563615
 40
0.031
100
AcDbArc
 50
359.3699285546
 51
15.3007655894
  0
ARC
  5
2E7
100
AcDbEntity
  8
0
100
AcDbCircle
 62
6
  6
CONTINUOUS
 10
24.2049395729
 20
25.3750696827
 40
0.06
100
AcDbArc
 50
0.0
 51
81.1984646907
  0
ARC
  5
2E8
100
AcDbEntity
  8
0
100
AcDbCircle
 62
6
  6
CONTINUOUS
 10
24.2271350139
 20
24.8211567679
 40
0.031
100
AcDbArc
 50
341.8096881551
 51
0.6300714454
  0
ARC
  5
2E9
100
AcDbEntity
  8
0
100
AcDbCircle
 62
6
  6
CONTINUOUS
 10
24.2627219741
 20
23.9999657223
 40
0.016
100
AcDbArc
 50
178.0260516849
 51
280.3765489003
  0
ARC
  5
2EA
100
AcDbEntity
  8
0
100
AcDbCircle
 62
6
  6
CONTINUOUS
 10
24.2771822493
 20
25.2750696827
 40
0.1
100
AcDbArc
 50
77.6474880152
 51
90.0000003757
  0
ARC
  5
2EB
100
AcDbEntity
  8
0
100
AcDbCircle
 62
6
  6
CONTINUOUS
 10
24.2813554764
 20
25.3672615111
 40
0.016
100
AcDbArc
 50
225.0
 51
350.0
  0
ARC
  5
2EC
100
AcDbEntity
  8
0
100
AcDbCircle
 62
6
  6
CONTINUOUS
 10
24.2627219741
 20
25.3446474071
 40
0.016
100
AcDbArc
 50
79.6234510997
 51
181.9739483151
  0
ARC
  5
2ED
100
AcDbEntity
  8
0
100
AcDbCircle
 62
6
  6
CONTINUOUS
 10
24.5324303742
 20
19.7030064831
 40
0.147510499
100
AcDbArc
 50
180.9363490743
 51
245.9258530305
  0
ARC
  5
2EE
100
AcDbEntity
  8
0
100
AcDbCircle
 62
6
  6
CONTINUOUS
 10
24.4518621819
 20
19.522675777
 40
0.05
100
AcDbArc
 50
307.9052508324
 51
65.9258530305
  0
ARC
  5
2EF
100
AcDbEntity
  8
0
100
AcDbCircle
 62
6
  6
CONTINUOUS
 10
24.4471574281
 20
21.0155959187
 40
0.1
100
AcDbArc
 50
157.9437488383
 51
225.5715282955
  0
ARC
  5
2F0
100
AcDbEntity
  8
0
100
AcDbCircle
 62
6
  6
CONTINUOUS
 10
24.4471574281
 20
22.4500696827
 40
0.1
100
AcDbArc
 50
134.428481606
 51
202.0562511617
  0
ARC
  5
2F1
100
AcDbEntity
  8
0
100
AcDbCircle
 62
6
  6
CONTINUOUS
 10
24.9899252863
 20
20.8213196379
 40
0.64
100
AcDbArc
 50
179.6171645899
 51
209.1420363071
  0
ARC
  5
2F2
100
AcDbEntity
  8
0
100
AcDbCircle
 62
6
  6
CONTINUOUS
 10
24.7348928361
 20
19.7063154951
 40
0.35
100
AcDbArc
 50
150.2776171391
 51
180.9363490743
  0
ARC
  5
2F3
100
AcDbEntity
  8
0
100
AcDbCircle
 62
6
  6
CONTINUOUS
 10
25.0129395729
 20
21.7328328007
 40
1.81
100
AcDbArc
 50
157.9437488383
 51
202.0562511617
  0
ARC
  5
2F4
100
AcDbEntity
  8
0
100
AcDbCircle
 62
6
  6
CONTINUOUS
 10
24.7348694665
 20
22.6470746457
 40
0.35
100
AcDbArc
 50
150.6016873387
 51
181.14680461
  0
ARC
  5
2F5
100
AcDbEntity
  8
0
100
AcDbCircle
 62
6
  6
CONTINUOUS
 10
24.5859874795
 20
23.931258658
 40
0.276
100
AcDbArc
 50
190.0
 51
80.0
  0
ARC
  5
2F6
100
AcDbEntity
  8
0
100
AcDbCircle
 62
6
  6
CONTINUOUS
 10
24.6803861067
 20
24.0095962238
 40
0.2759996685
100
AcDbArc
 50
296.5710241124
 51
124.5525883638
  0
ARC
  5
2F7
100
AcDbEntity
  8
0
100
AcDbCircle
 62
6
  6
CONTINUOUS
 10
24.5172804153
 20
24.2545241635
 40
0.016
100
AcDbArc
 50
349.6234510997
 51
91.9739483152
  0
ARC
  5
2F8
100
AcDbEntity
  8
0
100
AcDbCircle
 62
6
  6
CONTINUOUS
 10
24.5398945193
 20
24.2358906612
 40
0.016
100
AcDbArc
 50
135.0
 51
260.0
  0
ARC
  5
2F9
100
AcDbEntity
  8
0
100
AcDbCircle
 62
6
  6
CONTINUOUS
 10
24.5081180234
 20
24.520366317
 40
0.25
100
AcDbArc
 50
179.3699285546
 51
271.9739483152
  0
ARC
  5
2FA
100
AcDbEntity
  8
0
100
AcDbCircle
 62
6
  6
CONTINUOUS
 10
24.5732383537
 20
24.2476777342
 40
1.36
100
AcDbArc
 50
201.5801844657
 51
202.5744557109
  0
ARC
  5
2FB
100
AcDbEntity
  8
0
100
AcDbCircle
 62
6
  6
CONTINUOUS
 10
24.5081180234
 20
24.8242468124
 40
0.25
100
AcDbArc
 50
88.0260516848
 51
180.6300714454
  0
ARC
  5
2FC
100
AcDbEntity
  8
0
100
AcDbCircle
 62
6
  6
CONTINUOUS
 10
24.5172804153
 20
25.0900889659
 40
0.016
100
AcDbArc
 50
268.0260516848
 51
10.3765489003
  0
ARC
  5
2FD
100
AcDbEntity
  8
0
100
AcDbCircle
 62
6
  6
CONTINUOUS
 10
24.5398945193
 20
25.1087224682
 40
0.016
100
AcDbArc
 50
100.0
 51
225.0
  0
ARC
  5
2FE
100
AcDbEntity
  8
0
100
AcDbCircle
 62
6
  6
CONTINUOUS
 10
24.5859874795
 20
25.4133544714
 40
0.276
100
AcDbArc
 50
280.0
 51
170.0
  0
ARC
  5
2FF
100
AcDbEntity
  8
0
100
AcDbCircle
 62
6
  6
CONTINUOUS
 10
24.6866765312
 20
24.0530296533
 40
0.4
100
AcDbArc
 50
189.1687993024
 51
197.7702878972
  0
ARC
  5
300
100
AcDbEntity
  8
0
100
AcDbCircle
 62
6
  6
CONTINUOUS
 10
24.9899395729
 20
23.7650696827
 40
0.64
100
AcDbArc
 50
180.0
 51
208.9550243719
  0
ARC
  5
301
100
AcDbEntity
  8
0
100
AcDbCircle
 62
6
  6
CONTINUOUS
 10
24.8122902661
 20
22.8094746984
 40
0.469
100
AcDbArc
 50
201.1820494114
 51
217.2448017668
  0
ARC
  5
302
100
AcDbEntity
  8
0
100
AcDbCircle
 62
6
  6
CONTINUOUS
 10
25.0129395729
 20
24.6723065647
 40
1.81
100
AcDbArc
 50
167.447842474
 51
177.4802815182
  0
ARC
  5
303
100
AcDbEntity
  8
0
100
AcDbCircle
 62
6
  6
CONTINUOUS
 10
25.0129395729
 20
24.6723065647
 40
1.81
100
AcDbArc
 50
182.4960955307
 51
192.5529084594
  0
SPLINE
  5
304
100
AcDbEntity
  8
0
100
AcDbSpline
 62
7
  6
CONTINUOUS
 70
0
 71
3
 72
13
 73
9
 74
7
 42
0.0000001
 43
0.0000001
 44
0.0000000001
 12
-0.0939322908
 22
-0.0060535751
 32
0.0
 13
-0.0940905298
 23
-0.0026254966
 33
0.0
 40
0.0
 40
0.0
 40
0.0
 40
0.0
 40
0.0811876815
 40
0.1754491981
 40
0.2825577282
 40
0.4022377752
 40
0.6781365765
 40
1.0
 40
1.0
 40
1.0
 40
1.0
 10
24.3257452761
 20
22.6400698183
 30
0.0
 10
24.3232032278
 20
22.639905993
 30
0.0
 10
24.3177076404
 20
22.6395851048
 30
0.0
 10
24.3088534
 20
22.6391383029
 30
0.0
 10
24.2987901304
 20
22.6386905344
 30
0.0
 10
24.2830304311
 20
22.6380622373
 30
0.0
 10
24.2605331715
 20
22.6372925189
 30
0.0
 10
24.241786064
 20
22.6367395213
 30
0.0
 10
24.2316912974
 20
22.6364578375
 30
0.0
 11
24.3257452761
 21
22.6400698183
 31
0.0
 11
24.31811666
 21
22.6396183211
 31
0.0
 11
24.3092555855
 21
22.6391668501
 31
0.0
 11
24.2991838774
 21
22.6387153939
 31
0.0
 11
24.2879277865
 21
22.6382639008
 31
0.0
 11
24.2619739306
 21
22.6373606477
 31
0.0
 11
24.2316912974
 21
22.6364578375
 31
0.0
  0
LINE
  5
305
100
AcDbEntity
  8
0
100
AcDbLine
 62
9
  6
CONTINUOUS
 10
24.1015059616
 20
24.2357583491
 11
24.1009089834
 21
24.2354414354
  0
SPLINE
  5
306
100
AcDbEntity
  8
0
100
AcDbSpline
 62
9
  6
CONTINUOUS
 70
0
 71
3
 72
23
 73
19
 74
17
 42
0.0000001
 43
0.0000001
 44
0.0000000001
 12
-0.4760901724
 22
-0.2525734416
 32
0.0
 13
-0.4760904286
 23
0.2525729587
 33
0.0
 40
0.0
 40
0.0
 40
0.0
 40
0.0
 40
0.0614565864
 40
0.1231461226
 40
0.18514722
 40
0.2474769715
 40
0.3101883917
 40
0.3416814962
 40
0.3732536186
 40
0.500000613
 40
0.6267469961
 40
0.6583190249
 40
0.6898119326
 40
0.7525232403
 40
0.8148528768
 40
0.8768539067
 40
0.9385434795
 40
1.0
 40
1.0
 40
1.0
 40
1.0
 10
24.1009089834
 20
24.2354414354
 30
0.0
 10
24.0911560245
 20
24.2302673349
 30
0.0
 10
24.0714733491
 20
24.2201586361
 30
0.0
 10
24.0413597839
 20
24.2060156251
 30
0.0
 10
24.0105046788
 20
24.193146835
 30
0.0
 10
23.9788267267
 20
24.1818858571
 30
0.0
 10
23.9517649646
 20
24.17415569
 30
0.0
 10
23.9297324514
 20
24.1691199691
 30
0.0
 10
23.8962247737
 20
24.1627808652
 30
0.0
 10
23.8449400756
 20
24.1583175301
 30
0.0
 10
23.7936554139
 20
24.1627808215
 30
0.0
 10
23.760147852
 20
24.1691196713
 30
0.0
 10
23.7381154066
 20
24.1741553689
 30
0.0
 10
23.7110537086
 20
24.1818854731
 30
0.0
 10
23.6793757585
 20
24.1931463007
 30
0.0
 10
23.6485206691
 20
24.2060150634
 30
0.0
 10
23.6184070955
 20
24.2201580128
 30
0.0
 10
23.5987243971
 20
24.2302666562
 30
0.0
 10
23.5889714434
 20
24.2354407412
 30
0.0
 11
24.1009089834
 21
24.2354414354
 31
0.0
 11
24.0714242538
 21
24.2203525507
 31
0.0
 11
24.0413112995
 21
24.2062612078
 31
0.0
 11
24.0104511923
 21
24.1934470327
 31
0.0
 11
23.9787820571
 21
24.1822450818
 31
0.0
 11
23.9462722779
 21
24.1730042019
 31
0.0
 11
23.9297249214
 21
24.1692275636
 31
0.0
 11
23.9130048122
 21
24.1660710831
 31
0.0
 11
23.84493997
 21
24.1603020223
 31
0.0
 11
23.7768754432
 21
24.1660709032
 31
0.0
 11
23.760155367
 21
24.1692272867
 31
0.0
 11
23.7436081082
 21
24.1730038761
 31
0.0
 11
23.7110983714
 21
24.1822446834
 31
0.0
 11
23.6794292592
 21
24.1934465139
 31
0.0
 11
23.6485691679
 21
24.2062606322
 31
0.0
 11
23.6184561712
 21
24.2203519312
 31
0.0
 11
23.5889714434
 21
24.2354407412
 31
0.0
  0
LINE
  5
307
100
AcDbEntity
  8
0
100
AcDbLine
 62
9
  6
CONTINUOUS
 10
23.5889714434
 20
24.2354407412
 11
23.5883743607
 21
24.2357577096
  0
LINE
  5
308
100
AcDbEntity
  8
0
100
AcDbLine
 62
9
  6
CONTINUOUS
 10
24.0655191326
 20
24.249250576
 11
24.0644984948
 21
24.2489695044
  0
LINE
  5
309
100
AcDbEntity
  8
0
100
AcDbLine
 62
9
  6
CONTINUOUS
 10
23.6253785531
 20
24.2489701015
 11
23.6243585129
 21
24.2492510095
  0
SPLINE
  5
30A
100
AcDbEntity
  8
0
100
AcDbSpline
 62
6
  6
CONTINUOUS
 70
0
 71
3
 72
30
 73
26
 74
24
 42
0.0000001
 43
0.0000001
 44
0.0000000001
 12
-0.4515890428
 22
0.2752901685
 32
0.0
 13
-0.4515890428
 23
-0.2752901685
 33
0.0
 40
0.0
 40
0.0
 40
0.0
 40
0.0
 40
0.0634488101
 40
0.1267520586
 40
0.189834272
 40
0.2212694686
 40
0.2526193127
 40
0.2838752054
 40
0.3150304176
 40
0.3770088635
 40
0.4078566856
 40
0.4386243766
 40
0.4693298614
 40
0.500003834
 40
0.5306783443
 40
0.5613832661
 40
0.5921505478
 40
0.6229985404
 40
0.684976527
 40
0.7161310081
 40
0.7473871235
 40
0.8101660787
 40
0.8732480672
 40
0.9365512125
 40
1.0
 40
1.0
 40
1.0
 40
1.0
 10
23.7955129704
 20
20.4156237623
 30
0.0
 10
23.7859620413
 20
20.4214460402
 30
0.0
 10
23.7668214099
 20
20.4329788977
 30
0.0
 10
23.7378251211
 20
20.4496947917
 30
0.0
 10
23.7133003729
 20
20.4628504756
 30
0.0
 10
23.6934010126
 20
20.4726736215
 30
0.0
 10
23.6783412215
 20
20.4796115973
 30
0.0
 10
23.6631136956
 20
20.4860514378
 30
0.0
 10
23.642614777
 20
20.4938492818
 30
0.0
 10
23.6216962736
 20
20.500323282
 30
0.0
 10
23.6004224172
 20
20.5050796295
 30
0.0
 10
23.5843474254
 20
20.5076920849
 30
0.0
 10
23.568170643
 20
20.5092970864
 30
0.0
 10
23.551938942
 20
20.5098308328
 30
0.0
 10
23.5357074333
 20
20.5092962897
 30
0.0
 10
23.519530522
 20
20.5076930033
 30
0.0
 10
23.5034560147
 20
20.5050784368
 30
0.0
 10
23.4821818645
 20
20.5003241033
 30
0.0
 10
23.4612639204
 20
20.4938487615
 30
0.0
 10
23.440764901
 20
20.4860515114
 30
0.0
 10
23.4204337674
 20
20.4774522535
 30
0.0
 10
23.3954481211
 20
20.4654616999
 30
0.0
 10
23.3660543102
 20
20.4496950959
 30
0.0
 10
23.3370576154
 20
20.4329787746
 30
0.0
 10
23.317917101
 20
20.4214460381
 30
0.0
 10
23.3083661753
 20
20.4156237623
 30
0.0
 11
23.7955129704
 21
20.4156237623
 31
0.0
 11
23.7667442656
 21
20.4328990084
 31
0.0
 11
23.7377073028
 21
20.4495653351
 31
0.0
 11
23.7082687972
 21
20.4652647606
 31
0.0
 11
23.6933553668
 21
20.4726131156
 31
0.0
 11
23.6782905851
 21
20.4795385841
 31
0.0
 11
23.6630599619
 21
20.4859645167
 31
0.0
 11
23.6476534031
 21
20.4918078731
 31
0.0
 11
23.6163029557
 21
20.501380513
 31
0.0
 11
23.6003778346
 21
20.5049253989
 31
0.0
 11
23.5843145242
 21
20.5075263041
 31
0.0
 11
23.5681532173
 21
20.5091191507
 31
0.0
 11
23.5519390523
 21
20.5096528445
 31
0.0
 11
23.5357246157
 21
20.5091187588
 31
0.0
 11
23.5195635412
 21
20.5075265887
 31
0.0
 11
23.5035005884
 21
20.5049248301
 31
0.0
 11
23.4875752451
 21
20.5013805274
 31
0.0
 11
23.4562251292
 21
20.4918076336
 31
0.0
 11
23.4408189038
 21
20.4859644888
 31
0.0
 11
23.4255882503
 21
20.479538325
 31
0.0
 11
23.3956102241
 21
20.4652646027
 31
0.0
 11
23.3661718042
 21
20.4495652691
 31
0.0
 11
23.3371348732
 21
20.4328989966
 31
0.0
 11
23.3083661753
 21
20.4156237623
 31
0.0
  0
SPLINE
  5
30B
100
AcDbEntity
  8
0
100
AcDbSpline
 62
6
  6
CONTINUOUS
 70
0
 71
3
 72
35
 73
31
 74
29
 42
0.0000001
 43
0.0000001
 44
0.0000000001
 12
0.4686343418
 22
-0.220505089
 32
0.0
 13
0.4686343418
 23
0.220505089
 33
0.0
 40
0.0
 40
0.0
 40
0.0
 40
0.0
 40
0.0630479659
 40
0.1260778098
 40
0.1890169505
 40
0.2204275977
 40
0.2517839772
 40
0.2830751181
 40
0.3142918872
 40
0.3454261784
 40
0.3764757574
 40
0.407442077
 40
0.4383368659
 40
0.4537634582
 40
0.4691801186
 40
0.4999929292
 40
0.5153991145
 40
0.5308086772
 40
0.5616515965
 40
0.5925502252
 40
0.6235183463
 40
0.6545713471
 40
0.6857065494
 40
0.7169244331
 40
0.7482159978
 40
0.7795724289
 40
0.8109831489
 40
0.8739221899
 40
0.9369520359
 40
1.0
 40
1.0
 40
1.0
 40
1.0
 10
23.3083661753
 20
19.9611143009
 30
0.0
 10
23.3182149893
 20
19.9564801685
 30
0.0
 10
23.3378778621
 20
19.9471455462
 30
0.0
 10
23.3673914171
 20
19.9332248264
 30
0.0
 10
23.3921269847
 20
19.9219778852
 30
0.0
 10
23.4120729438
 20
19.9134237364
 30
0.0
 10
23.4271155114
 20
19.9073049651
 30
0.0
 10
23.4422691882
 20
19.901558703
 30
0.0
 10
23.4575488445
 20
19.8962696487
 30
0.0
 10
23.4729675109
 20
19.8915370987
 30
0.0
 10
23.4885293272
 20
19.8874606139
 30
0.0
 10
23.5042305152
 20
19.884147582
 30
0.0
 10
23.5174238191
 20
19.8821030053
 30
0.0
 10
23.5280199187
 20
19.8809380311
 30
0.0
 10
23.5386326384
 20
19.8801016206
 30
0.0
 10
23.5492763634
 20
19.8797628067
 30
0.0
 10
23.5599160485
 20
19.8799291131
 30
0.0
 10
23.5705503489
 20
19.8804361701
 30
0.0
 10
23.5838189094
 20
19.8816970243
 30
0.0
 10
23.5996444801
 20
19.8841449099
 30
0.0
 10
23.6153469867
 20
19.8874609134
 30
0.0
 10
23.6309100312
 20
19.8915363739
 30
0.0
 10
23.6463296651
 20
19.8962691542
 30
0.0
 10
23.6616096108
 20
19.901558626
 30
0.0
 10
23.6767635824
 20
19.9073048857
 30
0.0
 10
23.6918062554
 20
19.913423653
 30
0.0
 10
23.7117521175
 20
19.9219780383
 30
0.0
 10
23.7364877603
 20
19.9332247969
 30
0.0
 10
23.7660012886
 20
19.9471455372
 30
0.0
 10
23.7856641567
 20
19.9564801686
 30
0.0
 10
23.7955129704
 20
19.9611143009
 30
0.0
 11
23.3083661753
 21
19.9611143009
 31
0.0
 11
23.3378864939
 21
19.9471565191
 31
0.0
 11
23.3674380309
 21
19.9332870317
 31
0.0
 11
23.3971453364
 21
19.9198681215
 31
0.0
 11
23.4121013142
 21
19.9134671327
 31
0.0
 11
23.4271497073
 21
19.9073608974
 31
0.0
 11
23.442308266
 21
19.9016283561
 31
0.0
 11
23.4575921591
 21
19.8963558288
 31
0.0
 11
23.4730123698
 21
19.8916404729
 31
0.0
 11
23.4885732507
 21
19.887582956
 31
0.0
 11
23.5042691338
 21
19.8842877053
 31
0.0
 11
23.520083384
 21
19.8818500919
 31
0.0
 11
23.5280254639
 21
19.8809787673
 31
0.0
 11
23.5359854129
 21
19.8803519634
 31
0.0
 11
23.5519359614
 21
19.879846469
 31
0.0
 11
23.5599141435
 21
19.8799716596
 31
0.0
 11
23.5678860398
 21
19.8803509343
 31
0.0
 11
23.5837895893
 21
19.881851131
 31
0.0
 11
23.5996062237
 21
19.8842863294
 31
0.0
 11
23.6153028578
 21
19.887582544
 31
0.0
 11
23.6308655645
 21
19.8916400828
 31
0.0
 11
23.6462862865
 21
19.8963553804
 31
0.0
 11
23.6615706692
 21
19.9016282583
 31
0.0
 11
23.6767294428
 21
19.9073608521
 31
0.0
 11
23.6917778661
 21
19.9134670839
 31
0.0
 11
23.7067338321
 21
19.9198681961
 31
0.0
 11
23.7364411129
 21
19.9332870356
 31
0.0
 11
23.7659926581
 21
19.9471565079
 31
0.0
 11
23.7955129704
 21
19.9611143009
 31
0.0
  0
SPLINE
  5
30C
100
AcDbEntity
  8
0
100
AcDbSpline
 62
6
  6
CONTINUOUS
 70
0
 71
3
 72
29
 73
25
 74
23
 42
0.0000001
 43
0.0000001
 44
0.0000000001
 12
-0.4515864778
 22
0.2752886048
 32
0.0
 13
-0.4515864778
 23
-0.2752886048
 33
0.0
 40
0.0
 40
0.0
 40
0.0
 40
0.0
 40
0.0634491493
 40
0.1267527054
 40
0.1898351781
 40
0.2526146977
 40
0.2838708248
 40
0.3150258258
 40
0.3770042992
 40
0.4078523024
 40
0.4386200739
 40
0.4693254377
 40
0.499999925
 40
0.5306744583
 40
0.561379782
 40
0.5921475443
 40
0.6229956142
 40
0.6849742413
 40
0.7161292114
 40
0.7473854364
 40
0.8101648989
 40
0.8732473198
 40
0.9365508532
 40
1.0
 40
1.0
 40
1.0
 40
1.0
 10
24.3815129704
 20
20.4156237623
 30
0.0
 10
24.3719620445
 20
20.4214460382
 30
0.0
 10
24.3528215209
 20
20.4329787766
 30
0.0
 10
24.3238248134
 20
20.4496951422
 30
0.0
 10
24.2944309396
 20
20.4654617614
 30
0.0
 10
24.2694453235
 20
20.4774524702
 30
0.0
 10
24.2491140144
 20
20.4860514721
 30
0.0
 10
24.2286150322
 20
20.4938490112
 30
0.0
 10
24.2076968563
 20
20.500323641
 30
0.0
 10
24.186422876
 20
20.5050790767
 30
0.0
 10
24.1703480989
 20
20.5076923837
 30
0.0
 10
24.1541712546
 20
20.5092969236
 30
0.0
 10
24.137939604
 20
20.5098306074
 30
0.0
 10
24.121707968
 20
20.5092968655
 30
0.0
 10
24.1055311061
 20
20.5076924801
 30
0.0
 10
24.0894563531
 20
20.5050790034
 30
0.0
 10
24.0681823017
 20
20.5003237289
 30
0.0
 10
24.0472641173
 20
20.4938489924
 30
0.0
 10
24.0267650821
 20
20.4860514871
 30
0.0
 10
24.0064338022
 20
20.4774524094
 30
0.0
 10
23.9814481755
 20
20.4654617327
 30
0.0
 10
23.9520543204
 20
20.4496951253
 30
0.0
 10
23.9230576198
 20
20.4329787755
 30
0.0
 10
23.9039171009
 20
20.421446038
 30
0.0
 10
23.8943661753
 20
20.4156237623
 30
0.0
 11
24.3815129704
 21
20.4156237623
 31
0.0
 11
24.3527442734
 21
20.4328989996
 31
0.0
 11
24.3237073279
 21
20.4495653012
 31
0.0
 11
24.2942688612
 21
20.4652646885
 31
0.0
 11
24.2642907387
 21
20.4795384642
 31
0.0
 11
24.24906012
 21
20.4859644848
 31
0.0
 11
24.2336537439
 21
20.4918077439
 31
0.0
 11
24.2023035126
 21
20.5013805037
 31
0.0
 11
24.186378325
 21
20.5049251053
 31
0.0
 11
24.1703151263
 21
20.5075263882
 31
0.0
 11
24.1541539578
 21
20.5091190466
 31
0.0
 11
24.1379396134
 21
20.5096527627
 31
0.0
 11
24.1217252455
 21
20.509119023
 31
0.0
 11
24.1055640916
 21
20.5075264315
 31
0.0
 11
24.0895009084
 21
20.5049250837
 31
0.0
 11
24.0735756739
 21
20.5013805299
 31
0.0
 11
24.0422253675
 21
20.4918077379
 31
0.0
 11
24.0268190035
 21
20.4859644929
 31
0.0
 11
24.0115883509
 21
20.4795384196
 31
0.0
 11
23.9816102568
 21
20.4652646543
 31
0.0
 11
23.9521718099
 21
20.4495652883
 31
0.0
 11
23.9231348714
 21
20.4328989985
 31
0.0
 11
23.8943661753
 21
20.4156237623
 31
0.0
  0
SPLINE
  5
30D
100
AcDbEntity
  8
0
100
AcDbSpline
 62
6
  6
CONTINUOUS
 70
0
 71
3
 72
32
 73
28
 74
26
 42
0.0000001
 43
0.0000001
 44
0.0000000001
 12
0.4686294841
 22
-0.2205028033
 32
0.0
 13
0.4686294841
 23
0.2205028033
 33
0.0
 40
0.0
 40
0.0
 40
0.0
 40
0.0
 40
0.0630482659
 40
0.1260783951
 40
0.1890176724
 40
0.220428578
 40
0.2517849303
 40
0.2830768118
 40
0.3142942967
 40
0.3454297574
 40
0.3764816635
 40
0.4074493295
 40
0.4383473079
 40
0.4691885105
 40
0.5000016219
 40
0.5308151095
 40
0.5616560287
 40
0.5925537793
 40
0.6235216815
 40
0.6545731349
 40
0.6857089028
 40
0.7169260628
 40
0.7482180899
 40
0.8109823912
 40
0.8739216138
 40
0.936951732
 40
1.0
 40
1.0
 40
1.0
 40
1.0
 10
23.8943661753
 20
19.9611143009
 30
0.0
 10
23.9042149341
 20
19.9564801945
 30
0.0
 10
23.9238776961
 20
19.9471456317
 30
0.0
 10
23.9533910306
 20
19.9332249342
 30
0.0
 10
23.9781266198
 20
19.9219784589
 30
0.0
 10
23.9980721712
 20
19.9134237615
 30
0.0
 10
24.0131149097
 20
19.9073054118
 30
0.0
 10
24.02826853
 20
19.9015587857
 30
0.0
 10
24.0435484352
 20
19.8962695818
 30
0.0
 10
24.0589677236
 20
19.8915370557
 30
0.0
 10
24.0745301802
 20
19.8874607408
 30
0.0
 10
24.0902323984
 20
19.8841462993
 30
0.0
 10
24.1060571981
 20
19.8816967616
 30
0.0
 10
24.1219734708
 20
19.8801826623
 30
0.0
 10
24.1379397528
 20
19.8796796323
 30
0.0
 10
24.1539059237
 20
19.8801832147
 30
0.0
 10
24.1698223123
 20
19.8816960721
 30
0.0
 10
24.1856468534
 20
19.884147002
 30
0.0
 10
24.2013491887
 20
19.8874604156
 30
0.0
 10
24.2169115636
 20
19.8915371932
 30
0.0
 10
24.232330752
 20
19.8962697066
 30
0.0
 10
24.2476108066
 20
19.9015586042
 30
0.0
 10
24.2678345261
 20
19.9092288407
 30
0.0
 10
24.2928253546
 20
19.9197389916
 30
0.0
 10
24.3224879381
 20
19.9332246844
 30
0.0
 10
24.3520015027
 20
19.9471457088
 30
0.0
 10
24.3716642113
 20
19.9564801943
 30
0.0
 10
24.3815129704
 20
19.9611143009
 30
0.0
 11
23.8943661753
 21
19.9611143009
 31
0.0
 11
23.9238863251
 21
19.9471565904
 31
0.0
 11
23.9534377062
 21
19.9332872195
 31
0.0
 11
23.9831448024
 21
19.9198684949
 31
0.0
 11
23.9981006478
 21
19.9134672853
 31
0.0
 11
24.0131489319
 21
19.9073612665
 31
0.0
 11
24.0283076302
 21
19.9016284848
 31
0.0
 11
24.0435916937
 21
19.8963558289
 31
0.0
 11
24.0590123759
 21
19.8916405151
 31
0.0
 11
24.0745742766
 21
19.8875827931
 31
0.0
 11
24.0902706252
 21
19.8842871751
 31
0.0
 11
24.1060865803
 21
19.8818508678
 31
0.0
 11
24.1219890696
 21
19.8803506622
 31
0.0
 11
24.1379396775
 21
19.8798473507
 31
0.0
 11
24.1538904721
 21
19.8803509234
 31
0.0
 11
24.1697928624
 21
19.8818506155
 31
0.0
 11
24.1856086151
 21
19.8842874613
 31
0.0
 11
24.2013051599
 21
19.8875827403
 31
0.0
 11
24.2168667977
 21
19.8916405415
 31
0.0
 11
24.2322876223
 21
19.8963559336
 31
0.0
 11
24.247571565
 21
19.9016284238
 31
0.0
 11
24.2627302769
 21
19.9073613827
 31
0.0
 11
24.2927343513
 21
19.9198685565
 31
0.0
 11
24.322441435
 21
19.9332872401
 31
0.0
 11
24.3519928186
 21
19.9471565921
 31
0.0
 11
24.3815129704
 21
19.9611143009
 31
0.0
  0
LINE
  5
30E
100
AcDbEntity
  8
0
100
AcDbLine
 62
6
  6
CONTINUOUS
 10
23.3070699537
 20
22.9018954574
 11
23.344256664
 21
22.8841647841
  0
SPLINE
  5
30F
100
AcDbEntity
  8
0
100
AcDbSpline
 62
6
  6
CONTINUOUS
 70
0
 71
3
 72
28
 73
24
 74
22
 42
0.0000001
 43
0.0000001
 44
0.0000000001
 12
0.4344810406
 22
-0.2070697837
 32
0.0
 13
0.4349329243
 23
0.2061189495
 33
0.0
 40
0.0
 40
0.0
 40
0.0
 40
0.0
 40
0.0630705515
 40
0.1260476728
 40
0.1888565927
 40
0.2514201578
 40
0.3136781826
 40
0.375620648
 40
0.4065083415
 40
0.437355076
 40
0.4527707514
 40
0.468185097
 40
0.4990230044
 40
0.5298975527
 40
0.5608225789
 40
0.5918176047
 40
0.6228910368
 40
0.6852620641
 40
0.7479212979
 40
0.8107991024
 40
0.8738177574
 40
0.9369052674
 40
1.0
 40
1.0
 40
1.0
 40
1.0
 10
23.344256664
 20
22.8841647841
 30
0.0
 10
23.3533909836
 20
22.8798114489
 30
0.0
 10
23.3716637104
 20
22.8711477685
 30
0.0
 10
23.3992272
 20
22.8585618686
 30
0.0
 10
23.4270530103
 20
22.8467643607
 30
0.0
 10
23.4552669792
 20
22.8362294643
 30
0.0
 10
23.4839730984
 20
22.8275516024
 30
0.0
 10
23.5083668818
 20
22.8224256765
 30
0.0
 10
23.5280618026
 20
22.8199400488
 30
0.0
 10
23.5404179675
 20
22.8190911265
 30
0.0
 10
23.5503114715
 20
22.8188536325
 30
0.0
 10
23.5602062588
 20
22.8189180817
 30
0.0
 10
23.5725712102
 20
22.8195600433
 30
0.0
 10
23.5873521829
 20
22.8211840846
 30
0.0
 10
23.6020449474
 20
22.8236271905
 30
0.0
 10
23.6166254716
 20
22.8268152261
 30
0.0
 10
23.6359241548
 20
22.8319490034
 30
0.0
 10
23.6597264333
 20
22.8398073862
 30
0.0
 10
23.6877867549
 20
22.850853339
 30
0.0
 10
23.7155049759
 20
22.8629808415
 30
0.0
 10
23.7430041823
 20
22.8757530536
 30
0.0
 10
23.7703990331
 20
22.8888262171
 30
0.0
 10
23.7886618665
 20
22.8975604508
 30
0.0
 10
23.797809192
 20
22.9018954574
 30
0.0
 11
23.344256664
 21
22.8841647841
 31
0.0
 11
23.3717082616
 21
22.8712073275
 31
0.0
 11
23.3993080497
 21
22.8586769839
 31
0.0
 11
23.4271721684
 21
22.8469531809
 31
0.0
 11
23.455417433
 21
22.8365159436
 31
0.0
 11
23.4841335495
 21
22.8279555225
 31
0.0
 11
23.5133322916
 21
22.8219346777
 31
0.0
 11
23.5280824272
 21
22.8200797688
 31
0.0
 11
23.5428945395
 21
22.8190684506
 31
0.0
 11
23.5503120222
 21
22.8188913645
 31
0.0
 11
23.5577308232
 21
22.8189393521
 31
0.0
 11
23.5725535841
 21
22.819701627
 31
0.0
 11
23.5873252994
 21
22.8213188898
 31
0.0
 11
23.602009992
 21
22.8237482012
 31
0.0
 11
23.6165867739
 21
22.8269204636
 31
0.0
 11
23.6310434274
 21
22.8307516954
 31
0.0
 11
23.6595845643
 21
22.8400555708
 31
0.0
 11
23.6876813317
 21
22.8510135689
 31
0.0
 11
23.7154374148
 21
22.8630743373
 31
0.0
 11
23.7429715394
 21
22.8757960526
 31
0.0
 11
23.7703961386
 21
22.8888295809
 31
0.0
 11
23.797809192
 21
22.9018954574
 31
0.0
  0
SPLINE
  5
310
100
AcDbEntity
  8
0
100
AcDbSpline
 62
6
  6
CONTINUOUS
 70
0
 71
3
 72
30
 73
26
 74
24
 42
0.0000001
 43
0.0000001
 44
0.0000000001
 12
-0.4547593728
 22
0.2792872403
 32
0.0
 13
-0.4547593728
 23
-0.2792872403
 33
0.0
 40
0.0
 40
0.0
 40
0.0
 40
0.0
 40
0.0634526969
 40
0.1267632185
 40
0.1898547344
 40
0.2212946436
 40
0.2526487512
 40
0.2839080167
 40
0.3150651951
 40
0.3770410728
 40
0.407883934
 40
0.4386443178
 40
0.4693403737
 40
0.5000038287
 40
0.530667872
 40
0.5613633276
 40
0.5921232719
 40
0.622966335
 40
0.6849417322
 40
0.7160981464
 40
0.7473576493
 40
0.8101456147
 40
0.8732369042
 40
0.9365473244
 40
1.0
 40
1.0
 40
1.0
 40
1.0
 10
23.797809192
 20
23.3593912386
 30
0.0
 10
23.7881906225
 20
23.3652984148
 30
0.0
 10
23.7689169912
 20
23.3770061566
 30
0.0
 10
23.7397255509
 20
23.3939969384
 30
0.0
 10
23.7150377169
 20
23.4073888738
 30
0.0
 10
23.6950043442
 20
23.4174013293
 30
0.0
 10
23.6798416373
 20
23.4244795465
 30
0.0
 10
23.6645076627
 20
23.431056037
 30
0.0
 10
23.6438619556
 20
23.4390272747
 30
0.0
 10
23.6227845047
 20
23.4456569145
 30
0.0
 10
23.6013379408
 20
23.450534339
 30
0.0
 10
23.5851282992
 20
23.4532153165
 30
0.0
 10
23.5688123478
 20
23.4548636129
 30
0.0
 10
23.5524389178
 20
23.4554117167
 30
0.0
 10
23.5360656974
 20
23.4548627476
 30
0.0
 10
23.5197495993
 20
23.4532163171
 30
0.0
 10
23.5035404825
 20
23.4505330643
 30
0.0
 10
23.482093594
 20
23.4456577919
 30
0.0
 10
23.4610167424
 20
23.4390267052
 30
0.0
 10
23.4403709155
 20
23.4310561325
 30
0.0
 10
23.4198974388
 20
23.4222742386
 30
0.0
 10
23.3947431952
 20
23.4100469785
 30
0.0
 10
23.3651538778
 20
23.3939972521
 30
0.0
 10
23.3359620358
 20
23.3770060306
 30
0.0
 10
23.31668852
 20
23.3652984128
 30
0.0
 10
23.3070699537
 20
23.3593912386
 30
0.0
 11
23.797809192
 21
23.3593912386
 31
0.0
 11
23.7688409863
 21
23.3769282724
 31
0.0
 11
23.7396077865
 21
23.3938690977
 31
0.0
 11
23.7099721361
 21
23.4098508213
 31
0.0
 11
23.6949580355
 21
23.4173408013
 31
0.0
 11
23.6797900387
 21
23.4244062384
 31
0.0
 11
23.6644526766
 21
23.4309684448
 31
0.0
 11
23.6489349026
 21
23.4369418149
 31
0.0
 11
23.6173453127
 21
23.4467421162
 31
0.0
 11
23.6012915817
 21
23.4503766651
 31
0.0
 11
23.5850939681
 21
23.4530454607
 31
0.0
 11
23.5687941347
 21
23.4546808922
 31
0.0
 11
23.5524390397
 21
23.4552289348
 31
0.0
 11
23.5360836447
 21
23.4546804668
 31
0.0
 11
23.519784059
 21
23.4530457755
 31
0.0
 11
23.5035868345
 21
23.4503760617
 31
0.0
 11
23.4875328535
 21
23.446742129
 31
0.0
 11
23.4559436162
 21
23.4369415566
 31
0.0
 11
23.4404261872
 21
23.4309684255
 31
0.0
 11
23.4250887958
 21
23.4244059653
 31
0.0
 11
23.3949068878
 21
23.4098506577
 31
0.0
 11
23.3652713226
 21
23.3938690304
 31
0.0
 11
23.3360381533
 21
23.3769282606
 31
0.0
 11
23.3070699537
 21
23.3593912386
 31
0.0
  0
SPLINE
  5
311
100
AcDbEntity
  8
0
100
AcDbSpline
 62
6
  6
CONTINUOUS
 70
0
 71
3
 72
33
 73
29
 74
27
 42
0.0000001
 43
0.0000001
 44
0.0000000001
 12
0.4721791595
 22
-0.2237703032
 32
0.0
 13
0.4721791595
 23
0.2237703032
 33
0.0
 40
0.0
 40
0.0
 40
0.0
 40
0.0
 40
0.0630458185
 40
0.1260783953
 40
0.1890234952
 40
0.2517944163
 40
0.2830884267
 40
0.3143070597
 40
0.3454420042
 40
0.3764925973
 40
0.4074584658
 40
0.4229134921
 40
0.4383536852
 40
0.469193658
 40
0.5000000901
 40
0.5308063724
 40
0.5616463004
 40
0.5770866026
 40
0.5925416679
 40
0.6235074092
 40
0.6545580505
 40
0.6856929625
 40
0.7169115987
 40
0.748205588
 40
0.8109765079
 40
0.8739216054
 40
0.9369541816
 40
1.0
 40
1.0
 40
1.0
 40
1.0
 10
23.8920699537
 20
22.9018954574
 30
0.0
 10
23.9019929276
 20
22.8971928635
 30
0.0
 10
23.9218004326
 20
22.8877123113
 30
0.0
 10
23.9515211686
 20
22.873548748
 30
0.0
 10
23.9813851384
 20
22.8598009466
 30
0.0
 10
24.0065433433
 20
22.8490619808
 30
0.0
 10
24.0269048133
 20
22.8412086305
 30
0.0
 10
24.0422911492
 20
22.8357866975
 30
0.0
 10
24.0578207324
 20
22.8309256501
 30
0.0
 10
24.0735001897
 20
22.8267349743
 30
0.0
 10
24.0866967085
 20
22.8238878202
 30
0.0
 10
24.0973152872
 20
22.8220532389
 30
0.0
 10
24.1079613417
 20
22.8205338655
 30
0.0
 10
24.1213343603
 20
22.8192390672
 30
0.0
 10
24.1374395906
 20
22.8187036022
 30
0.0
 10
24.1535448399
 20
22.8192388049
 30
0.0
 10
24.166917797
 20
22.8205340695
 30
0.0
 10
24.177563886
 20
22.8220533009
 30
0.0
 10
24.1881824939
 20
22.8238877459
 30
0.0
 10
24.2013789921
 20
22.8267349756
 30
0.0
 10
24.217058419
 20
22.8309256801
 30
0.0
 10
24.2325880199
 20
22.8357866837
 30
0.0
 10
24.2479743353
 20
22.8412086492
 30
0.0
 10
24.2683358134
 20
22.8490619678
 30
0.0
 10
24.2934940055
 20
22.8598009549
 30
0.0
 10
24.3233579779
 20
22.8735487477
 30
0.0
 10
24.3530787132
 20
22.8877123115
 30
0.0
 10
24.3728862182
 20
22.8971928635
 30
0.0
 10
24.382809192
 20
22.9018954574
 30
0.0
 11
23.8920699537
 21
22.9018954574
 31
0.0
 11
23.9218065594
 21
22.8877196864
 31
0.0
 11
23.9515660781
 21
22.8736082216
 31
0.0
 11
23.9814761146
 21
22.8599281882
 31
0.0
 11
24.0116829086
 21
22.847148332
 31
0.0
 11
24.0269449072
 21
22.8412789043
 31
0.0
 11
24.0423355628
 21
22.8358733525
 31
0.0
 11
24.0578668706
 21
22.8310312433
 31
0.0
 11
24.0735458243
 21
22.8268592162
 31
0.0
 11
24.0893659245
 21
22.8234643282
 31
0.0
 11
24.0973239805
 21
22.8220918055
 31
0.0
 11
24.1053110176
 21
22.8209531257
 31
0.0
 11
24.1213512756
 21
22.8194082915
 31
0.0
 11
24.1374396212
 21
22.818881982
 31
0.0
 11
24.1535278926
 21
22.8194081647
 31
0.0
 11
24.1695681032
 21
22.820953247
 31
0.0
 11
24.1775552059
 21
22.8220918706
 31
0.0
 11
24.185513297
 21
22.8234643099
 31
0.0
 11
24.2013333286
 21
22.8268592003
 31
0.0
 11
24.2170122986
 21
22.8310312642
 31
0.0
 11
24.232543596
 21
22.8358733501
 31
0.0
 11
24.2479342488
 21
22.8412789147
 31
0.0
 11
24.2631962406
 21
22.8471483294
 31
0.0
 11
24.2934030318
 21
22.8599281906
 31
0.0
 11
24.3233130676
 21
22.8736082227
 31
0.0
 11
24.3530725864
 21
22.8877196863
 31
0.0
 11
24.382809192
 21
22.9018954574
 31
0.0
  0
SPLINE
  5
312
100
AcDbEntity
  8
0
100
AcDbSpline
 62
6
  6
CONTINUOUS
 70
0
 71
3
 72
29
 73
25
 74
23
 42
0.0000001
 43
0.0000001
 44
0.0000000001
 12
-0.4547568096
 22
0.2792856661
 32
0.0
 13
-0.4547568096
 23
-0.2792856661
 33
0.0
 40
0.0
 40
0.0
 40
0.0
 40
0.0
 40
0.0634530331
 40
0.1267638598
 40
0.1898556316
 40
0.2526441645
 40
0.2839036677
 40
0.3150606191
 40
0.3770365086
 40
0.4078795576
 40
0.4386400155
 40
0.4693359273
 40
0.4999999232
 40
0.5306639738
 40
0.5613598396
 40
0.5921202855
 40
0.6229634087
 40
0.684939457
 40
0.7160963694
 40
0.747355977
 40
0.8101444479
 40
0.8732361657
 40
0.9365469693
 40
1.0
 40
1.0
 40
1.0
 40
1.0
 10
24.382809192
 20
23.3593912386
 30
0.0
 10
24.3731906257
 20
23.3652984128
 30
0.0
 10
24.353917101
 20
23.3770060318
 30
0.0
 10
24.3247252478
 20
23.3939973002
 30
0.0
 10
24.295135865
 20
23.4100470391
 30
0.0
 10
24.2699816609
 20
23.4222744738
 30
0.0
 10
24.2495079912
 20
23.4310560807
 30
0.0
 10
24.2288622127
 20
23.4390269808
 30
0.0
 10
24.2077851096
 20
23.4456572963
 30
0.0
 10
24.1863384085
 20
23.450533751
 30
0.0
 10
24.1701289986
 20
23.4532156403
 30
0.0
 10
24.1538129787
 20
23.45486344
 30
0.0
 10
24.1374396036
 20
23.45541147
 30
0.0
 10
24.1210662458
 20
23.454863371
 30
0.0
 10
24.1047502047
 20
23.4532157517
 30
0.0
 10
24.0885408242
 20
23.4505336639
 30
0.0
 10
24.0670940436
 20
23.4456573976
 30
0.0
 10
24.0460169367
 20
23.4390269551
 30
0.0
 10
24.0253710999
 20
23.4310561002
 30
0.0
 10
24.0048974664
 20
23.4222744044
 30
0.0
 10
23.9797432485
 20
23.4100470094
 30
0.0
 10
23.950153886
 20
23.393997282
 30
0.0
 10
23.9209620395
 20
23.3770060309
 30
0.0
 10
23.9016885196
 20
23.3652984126
 30
0.0
 10
23.8920699537
 20
23.3593912386
 30
0.0
 11
24.382809192
 21
23.3593912386
 31
0.0
 11
24.3538409941
 21
23.3769282633
 31
0.0
 11
24.3246078114
 21
23.3938690629
 31
0.0
 11
24.2949721999
 21
23.4098507465
 31
0.0
 11
24.2647901935
 21
23.4244061126
 31
0.0
 11
24.2494528368
 21
23.4309684151
 31
0.0
 11
24.2339352511
 21
23.4369416764
 31
0.0
 11
24.2023458893
 21
23.4467421053
 31
0.0
 11
24.1862920828
 21
23.4503763542
 31
0.0
 11
24.1700945896
 21
23.4530455545
 31
0.0
 11
24.1537949057
 21
23.4546807813
 31
0.0
 11
24.1374396148
 21
23.4552288451
 31
0.0
 11
24.1210842957
 21
23.4546807526
 31
0.0
 11
24.1047846287
 21
23.4530456038
 31
0.0
 11
24.0885871545
 21
23.4503763276
 31
0.0
 11
24.0725332949
 21
23.4467421339
 31
0.0
 11
24.0409438559
 21
23.436941668
 31
0.0
 11
24.0254262852
 21
23.4309684257
 31
0.0
 11
24.0100888935
 21
23.4244060633
 31
0.0
 11
23.9799069177
 21
23.4098507098
 31
0.0
 11
23.9502713265
 21
23.3938690492
 31
0.0
 11
23.9210381507
 21
23.3769282622
 31
0.0
 11
23.8920699537
 21
23.3593912386
 31
0.0
  0
ENDSEC
  0
SECTION
  2
OBJECTS
  0
DICTIONARY
  5
C
100
AcDbDictionary
280
0
281
1
  3
ACAD_GROUP
350
D
  3
ACAD_MLINESTYLE
350
17
  3
ACAD_LAYOUT
350
1A
  3
ACAD_PLOTSETTINGS
350
19
  3
ACAD_PLOTSTYLENAME
350
E
  0
DICTIONARY
  5
D
102
{ACAD_REACTORS
330
C
102
}
100
AcDbDictionary
280
0
281
1
  0
ACDBDICTIONARYWDFLT
  5
E
102
{ACAD_REACTORS
330
C
102
}
100
AcDbDictionary
281
1
  3
Normal
350
F
100
AcDbDictionaryWithDefault
340
F
  0
DICTIONARY
  5
17
102
{ACAD_REACTORS
330
C
102
}
100
AcDbDictionary
280
0
281
1
  3
Standard
350
18
  0
DICTIONARY
  5
19
102
{ACAD_REACTORS
330
C
102
}
100
AcDbDictionary
281
1
  0
DICTIONARY
  5
1A
102
{ACAD_REACTORS
330
C
102
}
100
AcDbDictionary
281
1
  3
Model
350
313
  3
Layout1
350
314
  0
ACDBPLACEHOLDER
  5
F
102
{ACAD_REACTORS
330
E
102
}
  0
MLINESTYLE
  5
18
102
{ACAD_REACTORS
330
17
102
}
100
AcDbMlineStyle
  2
STANDARD
 70
0
  3

 62
256
 51
90.0
 52
90.0
 71
2
 49
0.5
 62
256
  6
BYLAYER
 49
-0.5
 62
256
  6
BYLAYER
  0
LAYOUT
  5
313
102
{ACAD_REACTORS
330
1A
102
}
100
AcDbPlotSettings
  1

  2
none_device
  4
ISO_A0_(1189.00_x_841.00_MM)
  6

 40
0.0
 41
0.0
 42
0.0
 43
0.0
 44
1189.0
 45
841.0
 46
0.0
 47
0.0
 48
0.0
 49
0.0
140
0.0
141
0.0
142
1.0
143
1.0
 70
1024
 72
0
 73
0
 74
0
  7

 75
0
147
1.0
148
0.0
149
0.0
100
AcDbLayout
  1
Model
 70
0
 71
0
 10
0.0
 20
0.0
 11
46.811023622
 21
33.1102362205
 12
0.0
 22
0.0
 32
0.0
 14
0.0
 24
0.0
 34
0.0
 15
0.0
 25
0.0
 35
0.0
146
0.0
 13
0.0
 23
0.0
 33
0.0
 16
1.0
 26
0.0
 36
0.0
 17
0.0
 27
1.0
 37
0.0
 76
0
330
203
345
0
346
0
  0
LAYOUT
  5
314
102
{ACAD_REACTORS
330
1A
102
}
100
AcDbPlotSettings
  1

  2
none_device
  4
ISO_A0_(1189.00_x_841.00_MM)
  6

 40
0.0
 41
0.0
 42
0.0
 43
0.0
 44
1189.0
 45
841.0
 46
0.0
 47
0.0
 48
0.0
 49
0.0
140
0.0
141
0.0
142
1.0
143
1.0
 70
0
 72
0
 73
0
 74
0
  7

 75
0
147
1.0
148
0.0
149
0.0
100
AcDbLayout
  1
Layout1
 70
0
 71
1
 10
0.0
 20
0.0
 11
46.811023622
 21
33.1102362205
 12
0.0
 22
0.0
 32
0.0
 14
0.0
 24
0.0
 34
0.0
 15
0.0
 25
0.0
 35
0.0
146
0.0
 13
0.0
 23
0.0
 33
0.0
 16
1.0
 26
0.0
 36
0.0
 17
0.0
 27
1.0
 37
0.0
 76
0
330
204
345
0
346
0
  0
ENDSEC
  0
EOF
