  0
SECTION
  2
HEADER
  9
$ACADVER
  1
AC1015
  9
$DWGCODEPAGE
  3
ANSI_1252
  9
$EXTMAX
 10
46.811023622
 20
33.1102362205
 30
0.0
  9
$EXTMIN
 10
0.0
 20
0.0
 30
0.0
  9
$LIMMIN
 10
0.0
 20
0.0
  9
$LIMMAX
 10
46.811023622
 20
33.1102362205
  9
$VIEWCTR
 10
23.405511811
 20
16.5551181102
  9
$VIEWSIZE
 40
33.1102362205
  9
$CLAYER
  8
0
  9
$LTSCALE
 40
2.5746062992
  9
$CELTYPE
  6
BYLAYER
  9
$DIMSCALE
 40
1.0
  9
$DIMASZ
 40
0.1875
  9
$DIMEXO
 40
0.2925688976
  9
$DIMDLI
 40
1.7788188976
  9
$DIMEXE
 40
0.8425984252
  9
$DIMCEN
 40
0.4212992126
  9
$DIMLFAC
 40
1.0
  9
$DIMBLK
  1
_CLOSED
  9
$DIMTXT
 40
0.15625
  9
$DIMTOL
 70
0
  9
$DIMLIM
 70
0
  9
$DIMTFAC
 40
1.0
  9
$PDMODE
 70
3
  9
$PDSIZE
 40
0.3125
  9
$HANDSEED
  5
3E7
  9
$TILEMODE
 70
1
  9
$MEASUREMENT
 70
0
  9
$INSUNITS
 70
1
  0
ENDSEC
  0
SECTION
  2
CLASSES
  0
CLASS
  1
ACDBDICTIONARYWDFLT
  2
AcDbDictionaryWithDefault
  3
AutoCAD 2000
 90
0
280
0
281
0
  0
CLASS
  1
ACDBPLACEHOLDER
  2
AcDbPlaceHolder
  3
AutoCAD 2000
 90
0
280
0
281
0
  0
CLASS
  1
LAYOUT
  2
AcDbLayout
  3
AutoCAD 2000
 90
0
280
0
281
0
  0
ENDSEC
  0
SECTION
  2
TABLES
  0
TABLE
  2
VPORT
  5
8
100
AcDbSymbolTable
 70
2
  0
VPORT
  5
1F4
100
AcDbSymbolTableRecord
100
AcDbViewportTableRecord
  2
*ACTIVE
 70
0
 10
0.0
 20
0.0
 11
1.0
 21
1.0
 12
23.405511811
 22
16.5551181102
 13
0.0
 23
0.0
 14
1.0
 24
1.0
 15
0.0
 25
0.0
 16
0.0
 26
0.0
 36
1.0
 17
0.0
 27
0.0
 37
0.0
 40
33.1102362205
 41
1.4137931034
 42
50.0
 43
0.0
 44
0.0
 50
0.0
 51
0.0
 71
0
 72
100
 73
1
 74
1
 75
0
 76
0
 77
0
 78
0
  0
ENDTAB
  0
TABLE
  2
LTYPE
  5
5
100
AcDbSymbolTable
 70
6
  0
LTYPE
  5
14
100
AcDbSymbolTableRecord
100
AcDbLinetypeTableRecord
  2
BYBLOCK
 70
0
  3

 72
65
 73
0
 40
0.0
  0
LTYPE
  5
15
100
AcDbSymbolTableRecord
100
AcDbLinetypeTableRecord
  2
BYLAYER
 70
0
  3

 72
65
 73
0
 40
0.0
  0
LTYPE
  5
16
100
AcDbSymbolTableRecord
100
AcDbLinetypeTableRecord
  2
CONTINUOUS
 70
64
  3
Solid line
 72
65
 73
0
 40
0.0
  0
LTYPE
  5
1F5
100
AcDbSymbolTableRecord
100
AcDbLinetypeTableRecord
  2
CENTER
 70
64
  3
____ _ ____ _ ____ _ ____ _ ____ _ ____ _ ____
 72
65
 73
4
 40
0.6
 49
0.375
 74
0
 49
-0.075
 74
0
 49
0.075
 74
0
 49
-0.075
 74
0
  0
LTYPE
  5
1F6
100
AcDbSymbolTableRecord
100
AcDbLinetypeTableRecord
  2
HIDDEN
 70
64
  3
- - - - - - - - - - - - - - - - - - - -
 72
65
 73
2
 40
0.2
 49
0.1
 74
0
 49
-0.1
 74
0
  0
LTYPE
  5
1F7
100
AcDbSymbolTableRecord
100
AcDbLinetypeTableRecord
  2
PHANTOM
 70
64
  3
_____ _ _ _____ _ _ _____ _ _ _____
 72
65
 73
6
 40
0.8
 49
0.45
 74
0
 49
-0.05
 74
0
 49
0.1
 74
0
 49
-0.05
 74
0
 49
0.1
 74
0
 49
-0.05
 74
0
  0
LTYPE
  5
1F8
100
AcDbSymbolTableRecord
100
AcDbLinetypeTableRecord
  2
DOT
 70
64
  3
. . . . . . . . . . . . . . . . . . . .
 72
65
 73
2
 40
0.2
 49
0.1
 74
0
 49
-0.1
 74
0
  0
LTYPE
  5
1F9
100
AcDbSymbolTableRecord
100
AcDbLinetypeTableRecord
  2
DASHED
 70
64
  3
- - - - - - - - - - - - - - - - - - - -
 72
65
 73
2
 40
0.2
 49
0.1
 74
0
 49
-0.1
 74
0
  0
ENDTAB
  0
TABLE
  2
LAYER
  5
2
100
AcDbSymbolTable
 70
36
  0
LAYER
  5
10
100
AcDbSymbolTableRecord
100
AcDbLayerTableRecord
  2
0
 70
0
 62
7
  6
CONTINUOUS
370
-3
390
F
  0
LAYER
  5
1FA
100
AcDbSymbolTableRecord
100
AcDbLayerTableRecord
  2
DEFAULT_1
 70
0
 62
7
  6
CENTER
370
-3
390
F
  0
LAYER
  5
1FB
100
AcDbSymbolTableRecord
100
AcDbLayerTableRecord
  2
DEFAULT_2
 70
0
 62
8
  6
HIDDEN
370
-3
390
F
  0
LAYER
  5
1FC
100
AcDbSymbolTableRecord
100
AcDbLayerTableRecord
  2
DEFAULT_3
 70
0
 62
7
  6
PHANTOM
370
-3
390
F
  0
LAYER
  5
1FD
100
AcDbSymbolTableRecord
100
AcDbLayerTableRecord
  2
DEFAULT_COORDINATE_SYSTEM
 70
0
 62
7
  6
CONTINUOUS
370
-3
390
F
  0
LAYER
  5
1FE
100
AcDbSymbolTableRecord
100
AcDbLayerTableRecord
  2
DEFAULT_DATUM_AXES
 70
0
 62
7
  6
CONTINUOUS
370
-3
390
F
  0
LAYER
  5
1FF
100
AcDbSymbolTableRecord
100
AcDbLayerTableRecord
  2
DEFAULT_DATUM_CURVES
 70
0
 62
7
  6
CONTINUOUS
370
-3
390
F
  0
LAYER
  5
200
100
AcDbSymbolTableRecord
100
AcDbLayerTableRecord
  2
DEFAULT_DATUM_PLANES
 70
0
 62
7
  6
CONTINUOUS
370
-3
390
F
  0
ENDTAB
  0
TABLE
  2
STYLE
  5
3
100
AcDbSymbolTable
 70
1
  0
STYLE
  5
11
100
AcDbSymbolTableRecord
100
AcDbTextStyleTableRecord
  2
STANDARD
 70
0
 40
0.0
 41
0.8
 50
0.0
 71
0
 42
0.2
  3
txt
  4

  0
STYLE
  5
201
100
AcDbSymbolTableRecord
100
AcDbTextStyleTableRecord
  2
TEXTSTYLE_1
 70
0
 40
0.0
 41
0.8
 50
0.0
 71
0
 42
0.2
  3
gdt
  4

  0
ENDTAB
  0
TABLE
  2
VIEW
  5
6
100
AcDbSymbolTable
 70
0
  0
ENDTAB
  0
TABLE
  2
UCS
  5
7
100
AcDbSymbolTable
 70
0
  0
ENDTAB
  0
TABLE
  2
APPID
  5
9
100
AcDbSymbolTable
 70
1
  0
APPID
  5
202
100
AcDbSymbolTableRecord
100
AcDbRegAppTableRecord
  2
ACAD
 70
0
  0
ENDTAB
  0
TABLE
  2
BLOCK_RECORD
  5
1
100
AcDbSymbolTable
 70
0
  0
BLOCK_RECORD
  5
203
100
AcDbSymbolTableRecord
100
AcDbBlockTableRecord
  2
*Model_Space
  0
BLOCK_RECORD
  5
204
100
AcDbSymbolTableRecord
100
AcDbBlockTableRecord
  2
*Paper_Space
  0
ENDTAB
  0
TABLE
  2
DIMSTYLE
  5
A
100
AcDbSymbolTable
 70
1
100
AcDbDimStyleTable
 71
0
  0
DIMSTYLE
105
205
100
AcDbSymbolTableRecord
100
AcDbDimStyleTableRecord
  2
STANDARD
 70
0
  3

  4

 40
1.0
 41
0.1875
 42
0.0625
 43
0.38
 44
0.18
 45
0.0
 46
0.0
 47
0.01
 48
0.01
140
0.15625
141
0.09
142
0.0
143
25.4
144
1.0
145
0.0
146
1.0
147
0.09
 71
0.0
 72
0.0
 73
1
 74
1
 75
0
 76
0
 77
0
 78
4
170
0
171
2
172
0
173
0
174
0
175
0
176
0
177
0
178
0
270
2
271
2
272
2
273
2
274
2
275
0
280
0
281
0
282
0
283
1
284
4
285
0
286
0
287
3
288
0
340
11
  0
ENDTAB
  0
ENDSEC
  0
SECTION
  2
BLOCKS
  0
BLOCK
  5
20
100
AcDbEntity
  8
0
100
AcDbBlockBegin
  2
*Model_Space
 70
0
 10
0.0
 20
0.0
 30
0.0
  3
*Model_Space
  1

  0
ENDBLK
  5
21
100
AcDbEntity
  8
0
100
AcDbBlockEnd
  0
BLOCK
  5
1C
100
AcDbEntity
  8
0
100
AcDbBlockBegin
  2
*Paper_Space
 70
0
 10
0.0
 20
0.0
 30
0.0
  3
*Paper_Space
  1

  0
ENDBLK
  5
1D
100
AcDbEntity
  8
0
100
AcDbBlockEnd
  0
ENDSEC
  0
SECTION
  2
ENTITIES
  0
LINE
  5
206
100
AcDbEntity
  8
0
100
AcDbLine
 62
9
  6
CONTINUOUS
 10
24.0686007965
 20
4.5380537893
 11
24.7586207916
 21
4.5380537893
  0
LINE
  5
207
100
AcDbEntity
  8
0
100
AcDbLine
 62
6
  6
CONTINUOUS
 10
23.998610794
 20
4.6372214832
 11
24.828610794
 21
4.6372214832
  0
LINE
  5
208
100
AcDbEntity
  8
0
100
AcDbLine
 62
6
  6
CONTINUOUS
 10
23.978610794
 20
4.6487684886
 11
24.848610794
 21
4.6487684886
  0
LINE
  5
209
100
AcDbEntity
  8
0
100
AcDbLine
 62
7
  6
CONTINUOUS
 10
23.978610794
 20
4.6787684886
 11
24.848610794
 21
4.6787684886
  0
LINE
  5
20A
100
AcDbEntity
  8
0
100
AcDbLine
 62
7
  6
CONTINUOUS
 10
23.998610794
 20
4.690315494
 11
24.828610794
 21
4.690315494
  0
LINE
  5
20B
100
AcDbEntity
  8
0
100
AcDbLine
 62
6
  6
CONTINUOUS
 10
23.978610794
 20
4.740315494
 11
24.848610794
 21
4.740315494
  0
LINE
  5
20C
100
AcDbEntity
  8
0
100
AcDbLine
 62
6
  6
CONTINUOUS
 10
23.978610794
 20
5.250315494
 11
24.848610794
 21
5.250315494
  0
LINE
  5
20D
100
AcDbEntity
  8
0
100
AcDbLine
 62
6
  6
CONTINUOUS
 10
23.998610794
 20
5.300315494
 11
24.828610794
 21
5.300315494
  0
LINE
  5
20E
100
AcDbEntity
  8
0
100
AcDbLine
 62
9
  6
CONTINUOUS
 10
24.8705782014
 20
5.3348768883
 11
23.9566433867
 21
5.3348768883
  0
LINE
  5
20F
100
AcDbEntity
  8
0
100
AcDbLine
 62
7
  6
CONTINUOUS
 10
24.8578640556
 20
5.370315494
 11
23.9693575325
 21
5.370315494
  0
LINE
  5
210
100
AcDbEntity
  8
0
100
AcDbLine
 62
7
  6
CONTINUOUS
 10
24.8633240917
 20
5.395315494
 11
23.9638974964
 21
5.395315494
  0
LINE
  5
211
100
AcDbEntity
  8
0
100
AcDbLine
 62
9
  6
CONTINUOUS
 10
24.881991885
 20
5.4224927839
 11
23.9452297031
 21
5.4224927839
  0
LINE
  5
212
100
AcDbEntity
  8
0
100
AcDbLine
 62
9
  6
CONTINUOUS
 10
24.9331517875
 20
5.8030823764
 11
23.8940698006
 21
5.8030823764
  0
LINE
  5
213
100
AcDbEntity
  8
0
100
AcDbLine
 62
6
  6
CONTINUOUS
 10
23.998610794
 20
4.6372214832
 11
23.978610794
 21
4.6487684886
  0
LINE
  5
214
100
AcDbEntity
  8
0
100
AcDbLine
 62
6
  6
CONTINUOUS
 10
24.1146284506
 20
27.7565900773
 11
24.3170545297
 21
27.8734608286
  0
LINE
  5
215
100
AcDbEntity
  8
0
100
AcDbLine
 62
6
  6
CONTINUOUS
 10
24.3474841146
 20
27.8817917533
 11
24.3641841916
 21
27.8914335472
  0
LINE
  5
216
100
AcDbEntity
  8
0
100
AcDbLine
 62
7
  6
CONTINUOUS
 10
24.232610794
 20
27.2712555883
 11
24.2153019677
 21
27.266315494
  0
LINE
  5
217
100
AcDbEntity
  8
0
100
AcDbLine
 62
9
  6
CONTINUOUS
 10
24.933610794
 20
6.566923932
 11
23.893610794
 21
6.566923932
  0
LINE
  5
218
100
AcDbEntity
  8
0
100
AcDbLine
 62
9
  6
CONTINUOUS
 10
24.9136472471
 20
6.649212232
 11
23.913574341
 21
6.649212232
  0
LINE
  5
219
100
AcDbEntity
  8
0
100
AcDbLine
 62
9
  6
CONTINUOUS
 10
24.9620240058
 20
6.9546510655
 11
23.8651975823
 21
6.9546510655
  0
LINE
  5
21A
100
AcDbEntity
  8
0
100
AcDbLine
 62
9
  6
CONTINUOUS
 10
24.9458735287
 20
6.9774524847
 11
23.8813480594
 21
6.9774524847
  0
LINE
  5
21B
100
AcDbEntity
  8
0
100
AcDbLine
 62
9
  6
CONTINUOUS
 10
24.9041087387
 20
7.042535562
 11
23.9231128494
 21
7.042535562
  0
LINE
  5
21C
100
AcDbEntity
  8
0
100
AcDbLine
 62
6
  6
CONTINUOUS
 10
23.998610794
 20
5.300315494
 11
23.9566433869
 21
5.3348768881
  0
LINE
  5
21D
100
AcDbEntity
  8
0
100
AcDbLine
 62
9
  6
CONTINUOUS
 10
23.530237235
 20
27.8069552161
 11
23.8499710719
 21
28.126689053
  0
LINE
  5
21E
100
AcDbEntity
  8
0
100
AcDbLine
 62
9
  6
CONTINUOUS
 10
23.6270354632
 20
27.7898870768
 11
23.8670392112
 21
28.0298908248
  0
LINE
  5
21F
100
AcDbEntity
  8
0
100
AcDbLine
 62
6
  6
CONTINUOUS
 10
23.6311328719
 20
27.7583785154
 11
23.8985477727
 21
28.0257934161
  0
LINE
  5
220
100
AcDbEntity
  8
0
100
AcDbLine
 62
9
  6
CONTINUOUS
 10
23.6474223177
 20
27.739506145
 11
23.917420143
 21
28.0095039704
  0
LINE
  5
221
100
AcDbEntity
  8
0
100
AcDbLine
 62
9
  6
CONTINUOUS
 10
24.170020941
 20
27.7509078159
 11
24.1561939704
 21
27.737080856
  0
LINE
  5
222
100
AcDbEntity
  8
0
100
AcDbLine
 62
9
  6
CONTINUOUS
 10
23.9198455183
 20
27.500732405
 11
23.9060184722
 21
27.4869053471
  0
LINE
  5
223
100
AcDbEntity
  8
0
100
AcDbLine
 62
6
  6
CONTINUOUS
 10
24.5101670584
 20
26.6131701594
 11
24.7125931375
 21
26.7300409106
  0
LINE
  5
224
100
AcDbEntity
  8
0
100
AcDbLine
 62
9
  6
CONTINUOUS
 10
24.9041087387
 20
7.928095426
 11
23.9231128494
 21
7.928095426
  0
LINE
  5
225
100
AcDbEntity
  8
0
100
AcDbLine
 62
9
  6
CONTINUOUS
 10
24.9490684102
 20
8.0105391746
 11
23.8781531779
 21
8.0105391746
  0
LINE
  5
226
100
AcDbEntity
  8
0
100
AcDbLine
 62
9
  6
CONTINUOUS
 10
24.9595152501
 20
8.042613023
 11
23.867706338
 21
8.042613023
  0
LINE
  5
227
100
AcDbEntity
  8
0
100
AcDbLine
 62
6
  6
CONTINUOUS
 10
23.9333606325
 20
8.1223998095
 11
24.8938609556
 21
8.1223998095
  0
LINE
  5
228
100
AcDbEntity
  8
0
100
AcDbLine
 62
9
  6
CONTINUOUS
 10
23.9333606325
 20
8.195315494
 11
24.8938609556
 21
8.195315494
  0
LINE
  5
229
100
AcDbEntity
  8
0
100
AcDbLine
 62
9
  6
CONTINUOUS
 10
23.9533685554
 20
8.215315494
 11
24.8738530327
 21
8.215315494
  0
LINE
  5
22A
100
AcDbEntity
  8
0
100
AcDbLine
 62
9
  6
CONTINUOUS
 10
24.6572006471
 20
26.7357231721
 11
24.6710275888
 21
26.749550103
  0
LINE
  5
22B
100
AcDbEntity
  8
0
100
AcDbLine
 62
9
  6
CONTINUOUS
 10
24.9073760713
 20
26.9858985844
 11
24.9212031159
 21
26.9997256409
  0
LINE
  5
22C
100
AcDbEntity
  8
0
100
AcDbLine
 62
9
  6
CONTINUOUS
 10
25.1797992704
 20
26.747124843
 11
24.9098014451
 21
26.4771270176
  0
LINE
  5
22D
100
AcDbEntity
  8
0
100
AcDbLine
 62
6
  6
CONTINUOUS
 10
25.1960887162
 20
26.7282524726
 11
24.9286738154
 21
26.4608375719
  0
LINE
  5
22E
100
AcDbEntity
  8
0
100
AcDbLine
 62
9
  6
CONTINUOUS
 10
25.2001861249
 20
26.6967439111
 11
24.9601823769
 21
26.4567401631
  0
LINE
  5
22F
100
AcDbEntity
  8
0
100
AcDbLine
 62
9
  6
CONTINUOUS
 10
25.2969843531
 20
26.6796757718
 11
24.9772505162
 21
26.359941935
  0
LINE
  5
230
100
AcDbEntity
  8
0
100
AcDbLine
 62
6
  6
CONTINUOUS
 10
23.9254623093
 20
5.1164769124
 11
23.8964429302
 21
5.1567271616
  0
LINE
  5
231
100
AcDbEntity
  8
0
100
AcDbLine
 62
6
  6
CONTINUOUS
 10
24.9017592788
 20
4.8741540755
 11
24.9307786579
 21
4.8339038264
  0
LINE
  5
232
100
AcDbEntity
  8
0
100
AcDbLine
 62
7
  6
CONTINUOUS
 10
24.560775984
 20
27.1955523683
 11
24.5740557307
 21
27.2174934175
  0
LINE
  5
233
100
AcDbEntity
  8
0
100
AcDbLine
 62
6
  6
CONTINUOUS
 10
24.9595152501
 20
8.042613023
 11
24.8938609556
 21
8.1223998095
  0
LINE
  5
234
100
AcDbEntity
  8
0
100
AcDbLine
 62
6
  6
CONTINUOUS
 10
23.998610794
 20
4.690315494
 11
23.978610794
 21
4.740315494
  0
LINE
  5
235
100
AcDbEntity
  8
0
100
AcDbLine
 62
6
  6
CONTINUOUS
 10
24.848610794
 20
5.250315494
 11
24.828610794
 21
5.300315494
  0
LINE
  5
236
100
AcDbEntity
  8
0
100
AcDbLine
 62
6
  6
CONTINUOUS
 10
23.8670392112
 20
26.4567401631
 11
23.8499710719
 21
26.359941935
  0
LINE
  5
237
100
AcDbEntity
  8
0
100
AcDbLine
 62
7
  6
CONTINUOUS
 10
24.582610794
 20
27.212315494
 11
24.5730891371
 21
27.158315494
  0
LINE
  5
238
100
AcDbEntity
  8
0
100
AcDbLine
 62
6
  6
CONTINUOUS
 10
23.8651975823
 20
6.9546510655
 11
23.913574341
 21
6.649212232
  0
LINE
  5
239
100
AcDbEntity
  8
0
100
AcDbLine
 62
6
  6
CONTINUOUS
 10
24.9601823769
 20
28.0298908248
 11
24.9772505162
 21
28.126689053
  0
LINE
  5
23A
100
AcDbEntity
  8
0
100
AcDbLine
 62
9
  6
CONTINUOUS
 10
23.963614549
 20
15.615315494
 11
24.8636070391
 21
15.615315494
  0
LINE
  5
23B
100
AcDbEntity
  8
0
100
AcDbLine
 62
9
  6
CONTINUOUS
 10
23.943610794
 20
15.635315494
 11
24.883610794
 21
15.635315494
  0
LINE
  5
23C
100
AcDbEntity
  8
0
100
AcDbLine
 62
6
  6
CONTINUOUS
 10
23.819610794
 20
27.0118597296
 11
23.819610794
 21
27.4747708497
  0
LINE
  5
23D
100
AcDbEntity
  8
0
100
AcDbLine
 62
6
  6
CONTINUOUS
 10
23.827610794
 20
26.9620611607
 11
23.827610794
 21
26.9813447485
  0
LINE
  5
23E
100
AcDbEntity
  8
0
100
AcDbLine
 62
6
  6
CONTINUOUS
 10
23.827610794
 20
27.5052862394
 11
23.827610794
 21
27.5245698273
  0
LINE
  5
23F
100
AcDbEntity
  8
0
100
AcDbLine
 62
6
  6
CONTINUOUS
 10
23.828610794
 20
16.3919870627
 11
23.828610794
 21
16.4112257066
  0
LINE
  5
240
100
AcDbEntity
  8
0
100
AcDbLine
 62
6
  6
CONTINUOUS
 10
23.828610794
 20
16.9394052813
 11
23.828610794
 21
16.9586439253
  0
LINE
  5
241
100
AcDbEntity
  8
0
100
AcDbLine
 62
6
  6
CONTINUOUS
 10
23.9333606325
 20
8.195315494
 11
23.9333606325
 21
8.1223998095
  0
LINE
  5
242
100
AcDbEntity
  8
0
100
AcDbLine
 62
6
  6
CONTINUOUS
 10
23.943610794
 20
26.5973357383
 11
23.943610794
 21
26.183315494
  0
LINE
  5
243
100
AcDbEntity
  8
0
100
AcDbLine
 62
6
  6
CONTINUOUS
 10
23.943610794
 20
16.1993829693
 11
23.943610794
 21
15.635315494
  0
LINE
  5
244
100
AcDbEntity
  8
0
100
AcDbLine
 62
6
  6
CONTINUOUS
 10
23.943610794
 20
17.1512480711
 11
23.943610794
 21
17.733315494
  0
LINE
  5
245
100
AcDbEntity
  8
0
100
AcDbLine
 62
6
  6
CONTINUOUS
 10
23.978610794
 20
4.6487684886
 11
23.978610794
 21
4.6787684886
  0
LINE
  5
246
100
AcDbEntity
  8
0
100
AcDbLine
 62
6
  6
CONTINUOUS
 10
23.978610794
 20
4.740315494
 11
23.978610794
 21
4.8696249916
  0
LINE
  5
247
100
AcDbEntity
  8
0
100
AcDbLine
 62
6
  6
CONTINUOUS
 10
23.978610794
 20
5.1209995555
 11
23.978610794
 21
5.250315494
  0
LINE
  5
248
100
AcDbEntity
  8
0
100
AcDbLine
 62
6
  6
CONTINUOUS
 10
24.038610794
 20
26.183315494
 11
24.038610794
 21
17.733315494
  0
LINE
  5
249
100
AcDbEntity
  8
0
100
AcDbLine
 62
6
  6
CONTINUOUS
 10
24.038610794
 20
8.215315494
 11
24.038610794
 21
15.615315494
  0
LINE
  5
24A
100
AcDbEntity
  8
0
100
AcDbLine
 62
7
  6
CONTINUOUS
 10
24.423610794
 20
27.158315494
 11
24.423610794
 21
27.182315494
  0
LINE
  5
24B
100
AcDbEntity
  8
0
100
AcDbLine
 62
7
  6
CONTINUOUS
 10
24.423610794
 20
27.309315494
 11
24.423610794
 21
27.327315494
  0
LINE
  5
24C
100
AcDbEntity
  8
0
100
AcDbLine
 62
7
  6
CONTINUOUS
 10
24.445110794
 20
27.2110861387
 11
24.445110794
 21
27.2805448492
  0
LINE
  5
24D
100
AcDbEntity
  8
0
100
AcDbLine
 62
7
  6
CONTINUOUS
 10
24.481110794
 20
27.2805448492
 11
24.481110794
 21
27.2110861387
  0
LINE
  5
24E
100
AcDbEntity
  8
0
100
AcDbLine
 62
7
  6
CONTINUOUS
 10
24.502610794
 20
27.327315494
 11
24.502610794
 21
27.309315494
  0
LINE
  5
24F
100
AcDbEntity
  8
0
100
AcDbLine
 62
6
  6
CONTINUOUS
 10
23.8757411749
 20
17.0402761395
 11
23.8924023293
 21
17.0498954615
  0
LINE
  5
250
100
AcDbEntity
  8
0
100
AcDbLine
 62
6
  6
CONTINUOUS
 10
24.3498192588
 20
17.3139852489
 11
24.3664804132
 21
17.3236045709
  0
LINE
  5
251
100
AcDbEntity
  8
0
100
AcDbLine
 62
6
  6
CONTINUOUS
 10
23.8924023293
 20
16.3007355264
 11
23.8757411749
 21
16.3103548484
  0
LINE
  5
252
100
AcDbEntity
  8
0
100
AcDbLine
 62
7
  6
CONTINUOUS
 10
24.603610794
 20
27.158315494
 11
24.603610794
 21
27.182315494
  0
LINE
  5
253
100
AcDbEntity
  8
0
100
AcDbLine
 62
7
  6
CONTINUOUS
 10
24.603610794
 20
27.309315494
 11
24.603610794
 21
27.327315494
  0
LINE
  5
254
100
AcDbEntity
  8
0
100
AcDbLine
 62
7
  6
CONTINUOUS
 10
24.613610794
 20
27.1984400095
 11
24.613610794
 21
27.2931909785
  0
LINE
  5
255
100
AcDbEntity
  8
0
100
AcDbLine
 62
7
  6
CONTINUOUS
 10
24.6498926744
 20
27.188315494
 11
24.6498926744
 21
27.303315494
  0
LINE
  5
256
100
AcDbEntity
  8
0
100
AcDbLine
 62
6
  6
CONTINUOUS
 10
24.788610794
 20
26.183315494
 11
24.788610794
 21
17.733315494
  0
LINE
  5
257
100
AcDbEntity
  8
0
100
AcDbLine
 62
6
  6
CONTINUOUS
 10
24.788610794
 20
8.215315494
 11
24.788610794
 21
15.615315494
  0
LINE
  5
258
100
AcDbEntity
  8
0
100
AcDbLine
 62
6
  6
CONTINUOUS
 10
24.848610794
 20
4.6487684886
 11
24.848610794
 21
4.6787684886
  0
LINE
  5
259
100
AcDbEntity
  8
0
100
AcDbLine
 62
6
  6
CONTINUOUS
 10
24.848610794
 20
4.740315494
 11
24.848610794
 21
4.8696314324
  0
LINE
  5
25A
100
AcDbEntity
  8
0
100
AcDbLine
 62
6
  6
CONTINUOUS
 10
24.848610794
 20
5.1210059964
 11
24.848610794
 21
5.250315494
  0
LINE
  5
25B
100
AcDbEntity
  8
0
100
AcDbLine
 62
6
  6
CONTINUOUS
 10
24.883610794
 20
26.5973357383
 11
24.883610794
 21
26.183315494
  0
LINE
  5
25C
100
AcDbEntity
  8
0
100
AcDbLine
 62
6
  6
CONTINUOUS
 10
24.883610794
 20
16.1993834764
 11
24.883610794
 21
15.635315494
  0
LINE
  5
25D
100
AcDbEntity
  8
0
100
AcDbLine
 62
6
  6
CONTINUOUS
 10
24.883610794
 20
17.151250371
 11
24.883610794
 21
17.733315494
  0
LINE
  5
25E
100
AcDbEntity
  8
0
100
AcDbLine
 62
6
  6
CONTINUOUS
 10
24.8938609556
 20
8.195315494
 11
24.8938609556
 21
8.1223998095
  0
LINE
  5
25F
100
AcDbEntity
  8
0
100
AcDbLine
 62
6
  6
CONTINUOUS
 10
24.998610794
 20
16.9586439253
 11
24.998610794
 21
16.9394052813
  0
LINE
  5
260
100
AcDbEntity
  8
0
100
AcDbLine
 62
6
  6
CONTINUOUS
 10
24.998610794
 20
16.4112257066
 11
24.998610794
 21
16.3919870627
  0
LINE
  5
261
100
AcDbEntity
  8
0
100
AcDbLine
 62
6
  6
CONTINUOUS
 10
24.999610794
 20
27.5245698273
 11
24.999610794
 21
27.5052862394
  0
LINE
  5
262
100
AcDbEntity
  8
0
100
AcDbLine
 62
6
  6
CONTINUOUS
 10
24.999610794
 20
26.9813447485
 11
24.999610794
 21
26.9620611607
  0
LINE
  5
263
100
AcDbEntity
  8
0
100
AcDbLine
 62
6
  6
CONTINUOUS
 10
25.007610794
 20
27.0118601382
 11
25.007610794
 21
27.4747712583
  0
LWPOLYLINE
  5
264
100
AcDbEntity
  8
0
100
AcDbPolyline
 62
6
  6
CONTINUOUS
 90
9
 70
0
 10
24.8836096081
 20
16.2002715761
 10
24.8838521422
 20
16.2072318699
 10
24.8848378387
 20
16.2158961059
 10
24.8865746392
 20
16.2244415357
 10
24.889049339
 20
16.2328031758
 10
24.8922431221
 20
16.2409174404
 10
24.8961317048
 20
16.2487226248
 10
24.9006855202
 20
16.2561593743
 10
24.9058699428
 20
16.2631711354
  0
LINE
  5
265
100
AcDbEntity
  8
0
100
AcDbLine
 62
6
  6
CONTINUOUS
 10
24.9058699428
 20
16.2631711354
 11
24.9067898928
 21
16.2642913743
  0
LINE
  5
266
100
AcDbEntity
  8
0
100
AcDbLine
 62
6
  6
CONTINUOUS
 10
24.9514804132
 20
16.3103548484
 11
24.9348192588
 21
16.3007355264
  0
LINE
  5
267
100
AcDbEntity
  8
0
100
AcDbLine
 62
6
  6
CONTINUOUS
 10
24.4607411749
 20
17.3236045709
 11
24.4774023293
 21
17.3139852489
  0
LINE
  5
268
100
AcDbEntity
  8
0
100
AcDbLine
 62
6
  6
CONTINUOUS
 10
24.9348192588
 20
17.0498954615
 11
24.9514804132
 21
17.0402761395
  0
LINE
  5
269
100
AcDbEntity
  8
0
100
AcDbLine
 62
6
  6
CONTINUOUS
 10
24.9067898605
 20
17.0863397144
 11
24.905872368
 21
17.0874569161
  0
LWPOLYLINE
  5
26A
100
AcDbEntity
  8
0
100
AcDbPolyline
 62
6
  6
CONTINUOUS
 90
9
 70
0
 10
24.905872368
 20
17.0874569161
 10
24.9006874941
 20
17.0944687358
 10
24.8961331914
 20
17.1019057181
 10
24.8922441408
 20
17.1097112815
 10
24.8890499523
 20
17.1178260327
 10
24.886574939
 20
17.1261882199
 10
24.8848379316
 20
17.1347342042
 10
24.8838521336
 20
17.1433989466
 10
24.8836095832
 20
17.1503594701
  0
LINE
  5
26B
100
AcDbEntity
  8
0
100
AcDbLine
 62
6
  6
CONTINUOUS
 10
23.943619009
 20
17.733315494
 11
24.8836025791
 21
17.733315494
  0
LINE
  5
26C
100
AcDbEntity
  8
0
100
AcDbLine
 62
6
  6
CONTINUOUS
 10
23.8499710719
 20
28.126689053
 11
23.8670392112
 21
28.0298908248
  0
LINE
  5
26D
100
AcDbEntity
  8
0
100
AcDbLine
 62
6
  6
CONTINUOUS
 10
24.9620240058
 20
6.9546510655
 11
24.9136472471
 21
6.649212232
  0
LINE
  5
26E
100
AcDbEntity
  8
0
100
AcDbLine
 62
6
  6
CONTINUOUS
 10
24.9601823769
 20
26.4567401631
 11
24.9772505162
 21
26.359941935
  0
LINE
  5
26F
100
AcDbEntity
  8
0
100
AcDbLine
 62
7
  6
CONTINUOUS
 10
24.216610794
 20
27.327315494
 11
24.232610794
 21
27.2712555883
  0
LINE
  5
270
100
AcDbEntity
  8
0
100
AcDbLine
 62
6
  6
CONTINUOUS
 10
23.978610794
 20
5.250315494
 11
23.998610794
 21
5.300315494
  0
LINE
  5
271
100
AcDbEntity
  8
0
100
AcDbLine
 62
6
  6
CONTINUOUS
 10
24.828610794
 20
4.690315494
 11
24.848610794
 21
4.740315494
  0
LINE
  5
272
100
AcDbEntity
  8
0
100
AcDbLine
 62
6
  6
CONTINUOUS
 10
23.9333606325
 20
8.1223998095
 11
23.867706338
 21
8.042613023
  0
LINE
  5
273
100
AcDbEntity
  8
0
100
AcDbLine
 62
6
  6
CONTINUOUS
 10
23.9254623093
 20
4.8741540755
 11
23.8964429302
 21
4.8339038264
  0
LINE
  5
274
100
AcDbEntity
  8
0
100
AcDbLine
 62
9
  6
CONTINUOUS
 10
23.8499710719
 20
26.359941935
 11
23.530237235
 21
26.6796757718
  0
LINE
  5
275
100
AcDbEntity
  8
0
100
AcDbLine
 62
9
  6
CONTINUOUS
 10
23.8670392112
 20
26.4567401631
 11
23.6270354632
 21
26.6967439111
  0
LINE
  5
276
100
AcDbEntity
  8
0
100
AcDbLine
 62
6
  6
CONTINUOUS
 10
23.8985477727
 20
26.4608375719
 11
23.6311328719
 21
26.7282524726
  0
LINE
  5
277
100
AcDbEntity
  8
0
100
AcDbLine
 62
6
  6
CONTINUOUS
 10
24.9017592788
 20
5.1164769124
 11
24.9307786579
 21
5.1567271616
  0
LINE
  5
278
100
AcDbEntity
  8
0
100
AcDbLine
 62
9
  6
CONTINUOUS
 10
23.917420143
 20
26.4771270176
 11
23.6474223177
 21
26.747124843
  0
LINE
  5
279
100
AcDbEntity
  8
0
100
AcDbLine
 62
9
  6
CONTINUOUS
 10
23.9060184722
 20
26.9997256394
 11
23.9198453706
 21
26.9858987305
  0
LINE
  5
27A
100
AcDbEntity
  8
0
100
AcDbLine
 62
9
  6
CONTINUOUS
 10
24.1561939082
 20
26.7495502027
 11
24.1700209394
 21
26.7357231721
  0
LINE
  5
27B
100
AcDbEntity
  8
0
100
AcDbLine
 62
9
  6
CONTINUOUS
 10
24.9212031159
 20
27.4869053486
 11
24.9073762124
 21
27.5007322626
  0
LINE
  5
27C
100
AcDbEntity
  8
0
100
AcDbLine
 62
9
  6
CONTINUOUS
 10
24.6710276742
 20
27.7370807909
 11
24.6572006487
 21
27.7509078159
  0
LINE
  5
27D
100
AcDbEntity
  8
0
100
AcDbLine
 62
6
  6
CONTINUOUS
 10
24.828610794
 20
5.300315494
 11
24.8705782012
 21
5.3348768881
  0
LINE
  5
27E
100
AcDbEntity
  8
0
100
AcDbLine
 62
6
  6
CONTINUOUS
 10
24.1146284506
 20
26.7300409106
 11
24.3170545204
 21
26.6131701648
  0
LINE
  5
27F
100
AcDbEntity
  8
0
100
AcDbLine
 62
9
  6
CONTINUOUS
 10
25.1797992704
 20
27.739506145
 11
24.9098014451
 21
28.0095039704
  0
LINE
  5
280
100
AcDbEntity
  8
0
100
AcDbLine
 62
6
  6
CONTINUOUS
 10
25.1960887162
 20
27.7583785154
 11
24.9286738154
 21
28.0257934161
  0
LINE
  5
281
100
AcDbEntity
  8
0
100
AcDbLine
 62
9
  6
CONTINUOUS
 10
25.2001861249
 20
27.7898870768
 11
24.9601823769
 21
28.0298908248
  0
LINE
  5
282
100
AcDbEntity
  8
0
100
AcDbLine
 62
9
  6
CONTINUOUS
 10
25.2969843531
 20
27.8069552161
 11
24.9772505162
 21
28.126689053
  0
LINE
  5
283
100
AcDbEntity
  8
0
100
AcDbLine
 62
6
  6
CONTINUOUS
 10
23.943619009
 20
26.183315494
 11
24.8836025791
 21
26.183315494
  0
LINE
  5
284
100
AcDbEntity
  8
0
100
AcDbLine
 62
7
  6
CONTINUOUS
 10
24.2160606825
 20
27.219315494
 11
24.232610794
 21
27.2122377961
  0
LINE
  5
285
100
AcDbEntity
  8
0
100
AcDbLine
 62
6
  6
CONTINUOUS
 10
24.4630373965
 20
27.8914335472
 11
24.4797374735
 21
27.8817917533
  0
LINE
  5
286
100
AcDbEntity
  8
0
100
AcDbLine
 62
6
  6
CONTINUOUS
 10
24.5101670677
 20
27.8734608232
 11
24.7125931375
 21
27.7565900773
  0
LINE
  5
287
100
AcDbEntity
  8
0
100
AcDbLine
 62
7
  6
CONTINUOUS
 10
24.5740557307
 20
27.2174934175
 11
24.582610794
 21
27.212315494
  0
LINE
  5
288
100
AcDbEntity
  8
0
100
AcDbLine
 62
6
  6
CONTINUOUS
 10
24.828610794
 20
4.6372214832
 11
24.848610794
 21
4.6487684886
  0
LINE
  5
289
100
AcDbEntity
  8
0
100
AcDbLine
 62
6
  6
CONTINUOUS
 10
23.6270354632
 20
26.6967439111
 11
23.530237235
 21
26.6796757718
  0
LINE
  5
28A
100
AcDbEntity
  8
0
100
AcDbLine
 62
7
  6
CONTINUOUS
 10
24.688110794
 20
27.158315494
 11
24.603610794
 21
27.158315494
  0
LINE
  5
28B
100
AcDbEntity
  8
0
100
AcDbLine
 62
7
  6
CONTINUOUS
 10
24.5730891371
 20
27.158315494
 11
24.423610794
 21
27.158315494
  0
LINE
  5
28C
100
AcDbEntity
  8
0
100
AcDbLine
 62
7
  6
CONTINUOUS
 10
24.511110794
 20
27.1810861387
 11
24.535110794
 21
27.1810861387
  0
LINE
  5
28D
100
AcDbEntity
  8
0
100
AcDbLine
 62
7
  6
CONTINUOUS
 10
24.6558926744
 20
27.182315494
 11
24.6837555822
 21
27.182315494
  0
LINE
  5
28E
100
AcDbEntity
  8
0
100
AcDbLine
 62
6
  6
CONTINUOUS
 10
25.2969843531
 20
26.6796757718
 11
25.2001861249
 21
26.6967439111
  0
LINE
  5
28F
100
AcDbEntity
  8
0
100
AcDbLine
 62
6
  6
CONTINUOUS
 10
25.2001861249
 20
27.7898870768
 11
25.2969843531
 21
27.8069552161
  0
LINE
  5
290
100
AcDbEntity
  8
0
100
AcDbLine
 62
7
  6
CONTINUOUS
 10
24.6837555822
 20
27.309315494
 11
24.6558926744
 21
27.309315494
  0
LINE
  5
291
100
AcDbEntity
  8
0
100
AcDbLine
 62
7
  6
CONTINUOUS
 10
24.198610794
 20
27.327315494
 11
24.216610794
 21
27.327315494
  0
LINE
  5
292
100
AcDbEntity
  8
0
100
AcDbLine
 62
7
  6
CONTINUOUS
 10
24.423610794
 20
27.327315494
 11
24.502610794
 21
27.327315494
  0
LINE
  5
293
100
AcDbEntity
  8
0
100
AcDbLine
 62
7
  6
CONTINUOUS
 10
24.603610794
 20
27.327315494
 11
24.688110794
 21
27.327315494
  0
LINE
  5
294
100
AcDbEntity
  8
0
100
AcDbLine
 62
6
  6
CONTINUOUS
 10
23.6270354632
 20
27.7898870768
 11
23.530237235
 21
27.8069552161
  0
ARC
  5
295
100
AcDbEntity
  8
0
100
AcDbCircle
 62
6
  6
CONTINUOUS
 10
23.5718738357
 20
5.5660385826
 40
0.4
100
AcDbArc
 50
338.9695227533
 51
36.3424046392
  0
ARC
  5
296
100
AcDbEntity
  8
0
100
AcDbCircle
 62
6
  6
CONTINUOUS
 10
23.6725628894
 20
4.9953154877
 40
0.276000002
100
AcDbArc
 50
35.7906210464
 51
324.2093778041
  0
ARC
  5
297
100
AcDbEntity
  8
0
100
AcDbCircle
 62
9
  6
CONTINUOUS
 10
23.74368142
 20
4.9953686269
 40
0.2681374835
100
AcDbArc
 50
359.988646529
 51
6.9063975023
  0
ARC
  5
298
100
AcDbEntity
  8
0
100
AcDbCircle
 62
9
  6
CONTINUOUS
 10
23.7436816866
 20
4.9952623475
 40
0.268137217
100
AcDbArc
 50
353.0932531255
 51
0.0113563856
  0
ARC
  5
299
100
AcDbEntity
  8
0
100
AcDbCircle
 62
9
  6
CONTINUOUS
 10
23.7486777114
 20
4.9959256001
 40
0.2631104753
100
AcDbArc
 50
6.9168198078
 51
7.3849105953
  0
ARC
  5
29A
100
AcDbEntity
  8
0
100
AcDbCircle
 62
9
  6
CONTINUOUS
 10
23.7486782582
 20
4.9947053192
 40
0.2631099242
100
AcDbArc
 50
352.6148228437
 51
353.0828286963
  0
ARC
  5
29B
100
AcDbEntity
  8
0
100
AcDbCircle
 62
9
  6
CONTINUOUS
 10
23.7567713689
 20
4.993435075
 40
0.2549207688
100
AcDbArc
 50
345.8409103034
 51
352.6641408865
  0
ARC
  5
29C
100
AcDbEntity
  8
0
100
AcDbCircle
 62
9
  6
CONTINUOUS
 10
23.7567726074
 20
4.9971961257
 40
0.2549195143
100
AcDbArc
 50
7.3355725819
 51
14.1600695481
  0
ARC
  5
29D
100
AcDbEntity
  8
0
100
AcDbCircle
 62
9
  6
CONTINUOUS
 10
23.7652296948
 20
4.9992383189
 40
0.2462198172
100
AcDbArc
 50
14.1807168102
 51
14.665645522
  0
ARC
  5
29E
100
AcDbEntity
  8
0
100
AcDbCircle
 62
9
  6
CONTINUOUS
 10
23.7652320016
 20
4.9913920841
 40
0.2462174374
100
AcDbArc
 50
345.331437985
 51
345.8202756681
  0
ARC
  5
29F
100
AcDbEntity
  8
0
100
AcDbCircle
 62
6
  6
CONTINUOUS
 10
23.8049286235
 20
6.6320044409
 40
0.11
100
AcDbArc
 50
323.7264555496
 51
9.0
  0
ARC
  5
2A0
100
AcDbEntity
  8
0
100
AcDbCircle
 62
6
  6
CONTINUOUS
 10
23.9638974964
 20
5.415315494
 40
0.02
100
AcDbArc
 50
158.9695227391
 51
270.0
  0
ARC
  5
2A1
100
AcDbEntity
  8
0
100
AcDbCircle
 62
6
  6
CONTINUOUS
 10
23.853610794
 20
7.485315494
 40
1.14
100
AcDbArc
 50
337.1448062398
 51
22.8551937602
  0
ARC
  5
2A2
100
AcDbEntity
  8
0
100
AcDbCircle
 62
6
  6
CONTINUOUS
 10
23.8849513491
 20
6.9577797548
 40
0.02
100
AcDbArc
 50
100.3793406073
 51
189.0000000017
  0
ARC
  5
2A3
100
AcDbEntity
  8
0
100
AcDbCircle
 62
6
  6
CONTINUOUS
 10
23.8658147819
 20
7.9420956628
 40
0.0689658337
100
AcDbArc
 50
60.8069038149
 51
61.1749204816
  0
ARC
  5
2A4
100
AcDbEntity
  8
0
100
AcDbCircle
 62
6
  6
CONTINUOUS
 10
23.8678387497
 20
7.9533296691
 40
0.0605830091
100
AcDbArc
 50
353.082090855
 51
353.6909257013
  0
ARC
  5
2A5
100
AcDbEntity
  8
0
100
AcDbCircle
 62
6
  6
CONTINUOUS
 10
23.8708248017
 20
7.953054457
 40
0.0576082154
100
AcDbArc
 50
10.578877783
 51
26.7327985468
  0
ARC
  5
2A6
100
AcDbEntity
  8
0
100
AcDbCircle
 62
6
  6
CONTINUOUS
 10
23.8715473287
 20
7.9532325584
 40
0.056865339
100
AcDbArc
 50
10.0501756494
 51
10.5361303226
  0
ARC
  5
2A7
100
AcDbEntity
  8
0
100
AcDbCircle
 62
6
  6
CONTINUOUS
 10
23.8723714303
 20
7.9538298857
 40
0.0558784799
100
AcDbArc
 50
26.7360531914
 51
27.120868299
  0
ARC
  5
2A8
100
AcDbEntity
  8
0
100
AcDbCircle
 62
6
  6
CONTINUOUS
 10
23.875133319
 20
7.9552593878
 40
0.0527881039
100
AcDbArc
 50
43.9952482889
 51
44.3556654158
  0
ARC
  5
2A9
100
AcDbEntity
  8
0
100
AcDbCircle
 62
6
  6
CONTINUOUS
 10
23.8831499254
 20
8.0299049308
 40
0.02
100
AcDbArc
 50
140.5499999995
 51
255.5321107568
  0
ARC
  5
2AA
100
AcDbEntity
  8
0
100
AcDbCircle
 62
6
  6
CONTINUOUS
 10
23.9533606325
 20
8.195315494
 40
0.02
100
AcDbArc
 50
89.99998939
 51
180.0
  0
ARC
  5
2AB
100
AcDbEntity
  8
0
100
AcDbCircle
 62
6
  6
CONTINUOUS
 10
24.0821732052
 20
4.6219152624
 40
0.0849526747
100
AcDbArc
 50
169.6201340772
 51
260.8067816086
  0
ARC
  5
2AC
100
AcDbEntity
  8
0
100
AcDbCircle
 62
6
  6
CONTINUOUS
 10
23.9693575305
 20
5.350315494
 40
0.02
100
AcDbArc
 50
89.999993917
 51
230.5275452189
  0
ARC
  5
2AD
100
AcDbEntity
  8
0
100
AcDbCircle
 62
6
  6
CONTINUOUS
 10
23.8436122356
 20
16.2002715689
 40
0.0999997471
100
AcDbArc
 50
0.0
 51
39.8071436012
  0
ARC
  5
2AE
100
AcDbEntity
  8
0
100
AcDbCircle
 62
6
  6
CONTINUOUS
 10
23.963610794
 20
15.635315494
 40
0.02
100
AcDbArc
 50
180.0
 51
270.0000019937
  0
ARC
  5
2AF
100
AcDbEntity
  8
0
100
AcDbCircle
 62
6
  6
CONTINUOUS
 10
23.8436122388
 20
17.1503594255
 40
0.0999997465
100
AcDbArc
 50
320.1928585964
 51
360.0
  0
ARC
  5
2B0
100
AcDbEntity
  8
0
100
AcDbCircle
 62
6
  6
CONTINUOUS
 10
23.5781641321
 20
26.407868832
 40
0.276
100
AcDbArc
 50
100.0
 51
350.0
  0
ARC
  5
2B1
100
AcDbEntity
  8
0
100
AcDbCircle
 62
6
  6
CONTINUOUS
 10
23.6560335883
 20
26.996976491
 40
0.25
100
AcDbArc
 50
268.0260516848
 51
0.630071094
  0
ARC
  5
2B2
100
AcDbEntity
  8
0
100
AcDbCircle
 62
6
  6
CONTINUOUS
 10
23.6242570924
 20
26.7125008352
 40
0.016
100
AcDbArc
 50
280.0
 51
37.1875
  0
ARC
  5
2B3
100
AcDbEntity
  8
0
100
AcDbCircle
 62
6
  6
CONTINUOUS
 10
23.6468711963
 20
26.7311343375
 40
0.016
100
AcDbArc
 50
88.0260516848
 51
190.3765489003
  0
ARC
  5
2B4
100
AcDbEntity
  8
0
100
AcDbCircle
 62
6
  6
CONTINUOUS
 10
23.5781641321
 20
28.078762156
 40
0.276
100
AcDbArc
 50
10.0
 51
260.0
  0
ARC
  5
2B5
100
AcDbEntity
  8
0
100
AcDbCircle
 62
6
  6
CONTINUOUS
 10
23.6242570924
 20
27.7741301528
 40
0.016
100
AcDbArc
 50
315.0
 51
80.0
  0
ARC
  5
2B6
100
AcDbEntity
  8
0
100
AcDbCircle
 62
6
  6
CONTINUOUS
 10
23.6560335883
 20
27.489654497
 40
0.25
100
AcDbArc
 50
359.3699285546
 51
91.9739483152
  0
ARC
  5
2B7
100
AcDbEntity
  8
0
100
AcDbCircle
 62
6
  6
CONTINUOUS
 10
23.6468711963
 20
27.7554966505
 40
0.016
100
AcDbArc
 50
169.6234510997
 51
271.9739483152
  0
ARC
  5
2B8
100
AcDbEntity
  8
0
100
AcDbCircle
 62
6
  6
CONTINUOUS
 10
23.8827961353
 20
26.4539617923
 40
0.016
100
AcDbArc
 50
52.8125
 51
170.0
  0
ARC
  5
2B9
100
AcDbEntity
  8
0
100
AcDbCircle
 62
6
  6
CONTINUOUS
 10
23.8827961353
 20
28.0326691957
 40
0.016
100
AcDbArc
 50
190.0
 51
315.0
  0
ARC
  5
2BA
100
AcDbEntity
  8
0
100
AcDbCircle
 62
6
  6
CONTINUOUS
 10
23.9370165978
 20
27.0000665355
 40
0.031
100
AcDbArc
 50
158.5539448926
 51
180.6300742788
  0
ARC
  5
2BB
100
AcDbEntity
  8
0
100
AcDbCircle
 62
6
  6
CONTINUOUS
 10
23.9014296376
 20
26.4765758963
 40
0.016
100
AcDbArc
 50
259.6234510997
 51
1.9739483152
  0
ARC
  5
2BC
100
AcDbEntity
  8
0
100
AcDbCircle
 62
6
  6
CONTINUOUS
 10
23.9370165978
 20
27.4865644525
 40
0.031
100
AcDbArc
 50
179.3699285546
 51
201.055973511
  0
ARC
  5
2BD
100
AcDbEntity
  8
0
100
AcDbCircle
 62
6
  6
CONTINUOUS
 10
23.9014296376
 20
28.0100550917
 40
0.016
100
AcDbArc
 50
358.0260516848
 51
100.3765489003
  0
ARC
  5
2BE
100
AcDbEntity
  8
0
100
AcDbCircle
 62
6
  6
CONTINUOUS
 10
24.1672717911
 20
26.4857382882
 40
0.25
100
AcDbArc
 50
89.369928906
 51
181.9739483152
  0
ARC
  5
2BF
100
AcDbEntity
  8
0
100
AcDbCircle
 62
7
  6
CONTINUOUS
 10
24.1539993861
 20
27.2061567352
 40
0.1211624381
100
AcDbArc
 50
72.3240238631
 51
81.5703328123
  0
ARC
  5
2C0
100
AcDbEntity
  8
0
100
AcDbCircle
 62
7
  6
CONTINUOUS
 10
24.1540487439
 20
27.2061955478
 40
0.121120163
100
AcDbArc
 50
91.0889313852
 51
100.8585266813
  0
ARC
  5
2C1
100
AcDbEntity
  8
0
100
AcDbCircle
 62
7
  6
CONTINUOUS
 10
24.1540407573
 20
27.2063831302
 40
0.1209324627
100
AcDbArc
 50
86.3952364084
 51
91.0868371045
  0
ARC
  5
2C2
100
AcDbEntity
  8
0
100
AcDbCircle
 62
7
  6
CONTINUOUS
 10
24.1540446212
 20
27.2064241448
 40
0.1208912863
100
AcDbArc
 50
81.5729610098
 51
86.3958418755
  0
ARC
  5
2C3
100
AcDbEntity
  8
0
100
AcDbCircle
 62
7
  6
CONTINUOUS
 10
24.1469726939
 20
27.2431905701
 40
0.0834545077
100
AcDbArc
 50
100.8722145079
 51
112.1829715193
  0
ARC
  5
2C4
100
AcDbEntity
  8
0
100
AcDbCircle
 62
7
  6
CONTINUOUS
 10
24.1470109397
 20
27.2433129182
 40
0.0833991832
100
AcDbArc
 50
168.5756404197
 51
173.4848561229
  0
ARC
  5
2C5
100
AcDbEntity
  8
0
100
AcDbCircle
 62
7
  6
CONTINUOUS
 10
24.1469937745
 20
27.2432830391
 40
0.0833909974
100
AcDbArc
 50
149.8252785749
 51
157.2875315348
  0
ARC
  5
2C6
100
AcDbEntity
  8
0
100
AcDbCircle
 62
7
  6
CONTINUOUS
 10
24.1469439021
 20
27.2433080302
 40
0.0833331341
100
AcDbArc
 50
173.4762872403
 51
179.7615023494
  0
ARC
  5
2C7
100
AcDbEntity
  8
0
100
AcDbCircle
 62
7
  6
CONTINUOUS
 10
24.1469357257
 20
27.243315286
 40
0.0833250659
100
AcDbArc
 50
112.1918118366
 51
142.8277935645
  0
ARC
  5
2C8
100
AcDbEntity
  8
0
100
AcDbCircle
 62
7
  6
CONTINUOUS
 10
24.1469026781
 20
27.2433072652
 40
0.0832908798
100
AcDbArc
 50
192.8359705426
 51
200.0892950992
  0
ARC
  5
2C9
100
AcDbEntity
  8
0
100
AcDbCircle
 62
7
  6
CONTINUOUS
 10
24.1468979704
 20
27.2432942963
 40
0.083281635
100
AcDbArc
 50
203.6698276082
 51
210.7879465989
  0
ARC
  5
2CA
100
AcDbEntity
  8
0
100
AcDbCircle
 62
7
  6
CONTINUOUS
 10
24.1463989128
 20
27.2433154717
 40
0.0827881187
100
AcDbArc
 50
179.7650823868
 51
179.9999845611
  0
ARC
  5
2CB
100
AcDbEntity
  8
0
100
AcDbCircle
 62
7
  6
CONTINUOUS
 10
24.156233238
 20
27.2303851597
 40
0.0480733989
100
AcDbArc
 50
245.3772385452
 51
256.3624770488
  0
ARC
  5
2CC
100
AcDbEntity
  8
0
100
AcDbCircle
 62
7
  6
CONTINUOUS
 10
24.156262316
 20
27.2303426758
 40
0.0480595114
100
AcDbArc
 50
201.6067972318
 51
212.4838943835
  0
ARC
  5
2CD
100
AcDbEntity
  8
0
100
AcDbCircle
 62
7
  6
CONTINUOUS
 10
24.1562445445
 20
27.2303561652
 40
0.0480537238
100
AcDbArc
 50
223.4682000899
 51
234.3435489011
  0
ARC
  5
2CE
100
AcDbEntity
  8
0
100
AcDbCircle
 62
7
  6
CONTINUOUS
 10
24.1562097195
 20
27.2303170213
 40
0.048001658
100
AcDbArc
 50
235.7544360561
 51
245.3688720709
  0
ARC
  5
2CF
100
AcDbEntity
  8
0
100
AcDbCircle
 62
7
  6
CONTINUOUS
 10
24.1561985599
 20
27.230307288
 40
0.0479867251
100
AcDbArc
 50
212.489135914
 51
223.4636178703
  0
ARC
  5
2D0
100
AcDbEntity
  8
0
100
AcDbCircle
 62
7
  6
CONTINUOUS
 10
24.1561592629
 20
27.230242004
 40
0.0479112521
100
AcDbArc
 50
234.3468331596
 51
235.7538306775
  0
ARC
  5
2D1
100
AcDbEntity
  8
0
100
AcDbCircle
 62
6
  6
CONTINUOUS
 10
24.1703618355
 20
26.7667212977
 40
0.031
100
AcDbArc
 50
269.3699257212
 51
291.4460642575
  0
ARC
  5
2D2
100
AcDbEntity
  8
0
100
AcDbCircle
 62
7
  6
CONTINUOUS
 10
24.150997232
 20
27.2472895134
 40
0.0890071997
100
AcDbArc
 50
224.2428653558
 51
235.4477663522
  0
ARC
  5
2D3
100
AcDbEntity
  8
0
100
AcDbCircle
 62
7
  6
CONTINUOUS
 10
24.1508472204
 20
27.2472093219
 40
0.0889285645
100
AcDbArc
 50
328.4727780428
 51
336.8428666431
  0
ARC
  5
2D4
100
AcDbEntity
  8
0
100
AcDbCircle
 62
7
  6
CONTINUOUS
 10
24.1509044232
 20
27.2471803478
 40
0.0888647178
100
AcDbArc
 50
235.45713083
 51
328.4694161474
  0
ARC
  5
2D5
100
AcDbEntity
  8
0
100
AcDbCircle
 62
7
  6
CONTINUOUS
 10
24.1470630392
 20
27.2433669463
 40
0.0834619838
100
AcDbArc
 50
200.089959952
 51
203.6700121168
  0
ARC
  5
2D6
100
AcDbEntity
  8
0
100
AcDbCircle
 62
7
  6
CONTINUOUS
 10
24.1469830845
 20
27.2433543545
 40
0.0833859459
100
AcDbArc
 50
214.0415479158
 51
224.2302031202
  0
ARC
  5
2D7
100
AcDbEntity
  8
0
100
AcDbCircle
 62
7
  6
CONTINUOUS
 10
24.1469853253
 20
27.2433195625
 40
0.0833745314
100
AcDbArc
 50
180.0027959453
 51
189.8117169636
  0
ARC
  5
2D8
100
AcDbEntity
  8
0
100
AcDbCircle
 62
7
  6
CONTINUOUS
 10
24.1469487335
 20
27.243323136
 40
0.083340006
100
AcDbArc
 50
210.7871157739
 51
214.036983538
  0
ARC
  5
2D9
100
AcDbEntity
  8
0
100
AcDbCircle
 62
7
  6
CONTINUOUS
 10
24.1469354478
 20
27.2433161038
 40
0.0833247942
100
AcDbArc
 50
189.8152180131
 51
192.8368903024
  0
ARC
  5
2DA
100
AcDbEntity
  8
0
100
AcDbCircle
 62
7
  6
CONTINUOUS
 10
24.1469331177
 20
27.2433245937
 40
0.0833176731
100
AcDbArc
 50
146.0630062457
 51
149.8290163374
  0
ARC
  5
2DB
100
AcDbEntity
  8
0
100
AcDbCircle
 62
7
  6
CONTINUOUS
 10
24.1469001242
 20
27.2433249178
 40
0.0832881872
100
AcDbArc
 50
160.6164894717
 51
168.5686320014
  0
ARC
  5
2DC
100
AcDbEntity
  8
0
100
AcDbCircle
 62
7
  6
CONTINUOUS
 10
24.1468614296
 20
27.2433444654
 40
0.0832451984
100
AcDbArc
 50
157.2913608548
 51
160.6203419284
  0
ARC
  5
2DD
100
AcDbEntity
  8
0
100
AcDbCircle
 62
7
  6
CONTINUOUS
 10
24.1468642149
 20
27.2433642094
 40
0.0832383911
100
AcDbArc
 50
142.8270055151
 51
146.0591516688
  0
ARC
  5
2DE
100
AcDbEntity
  8
0
100
AcDbCircle
 62
7
  6
CONTINUOUS
 10
24.1482136538
 20
27.2471658789
 40
0.0697678266
100
AcDbArc
 50
15.9308076912
 51
21.0176366793
  0
ARC
  5
2DF
100
AcDbEntity
  8
0
100
AcDbCircle
 62
7
  6
CONTINUOUS
 10
24.1482283119
 20
27.2471650906
 40
0.0697546682
100
AcDbArc
 50
26.1355952255
 51
31.2625503689
  0
ARC
  5
2E0
100
AcDbEntity
  8
0
100
AcDbCircle
 62
7
  6
CONTINUOUS
 10
24.1482699617
 20
27.2471863795
 40
0.0697078991
100
AcDbArc
 50
21.0189859717
 51
26.1349659467
  0
ARC
  5
2E1
100
AcDbEntity
  8
0
100
AcDbCircle
 62
7
  6
CONTINUOUS
 10
24.159386909
 20
27.2436319273
 40
0.0617035404
100
AcDbArc
 50
284.4703650832
 51
291.5786607243
  0
ARC
  5
2E2
100
AcDbEntity
  8
0
100
AcDbCircle
 62
7
  6
CONTINUOUS
 10
24.1593557091
 20
27.2436098427
 40
0.0616992867
100
AcDbArc
 50
306.6970831078
 51
313.4635616425
  0
ARC
  5
2E3
100
AcDbEntity
  8
0
100
AcDbCircle
 62
7
  6
CONTINUOUS
 10
24.1593369116
 20
27.2435818194
 40
0.0616963591
100
AcDbArc
 50
327.3140699988
 51
336.8388495215
  0
ARC
  5
2E4
100
AcDbEntity
  8
0
100
AcDbCircle
 62
7
  6
CONTINUOUS
 10
24.1594268533
 20
27.2436275077
 40
0.0616953916
100
AcDbArc
 50
256.3798297746
 51
268.3221563079
  0
ARC
  5
2E5
100
AcDbEntity
  8
0
100
AcDbCircle
 62
7
  6
CONTINUOUS
 10
24.1593877562
 20
27.2435896036
 40
0.0616643705
100
AcDbArc
 50
295.8558160244
 51
302.5168099113
  0
ARC
  5
2E6
100
AcDbEntity
  8
0
100
AcDbCircle
 62
7
  6
CONTINUOUS
 10
24.15941273
 20
27.2435619416
 40
0.0616298035
100
AcDbArc
 50
272.0234162959
 51
280.1575306804
  0
ARC
  5
2E7
100
AcDbEntity
  8
0
100
AcDbCircle
 62
7
  6
CONTINUOUS
 10
24.1593996568
 20
27.2435528329
 40
0.0616280332
100
AcDbArc
 50
317.2473096524
 51
324.4829926742
  0
ARC
  5
2E8
100
AcDbEntity
  8
0
100
AcDbCircle
 62
7
  6
CONTINUOUS
 10
24.1594205395
 20
27.2434962025
 40
0.0615637177
100
AcDbArc
 50
280.1611661671
 51
284.4716225615
  0
ARC
  5
2E9
100
AcDbEntity
  8
0
100
AcDbCircle
 62
7
  6
CONTINUOUS
 10
24.1594602057
 20
27.2435006142
 40
0.0615481248
100
AcDbArc
 50
313.4629030998
 51
317.244741232
  0
ARC
  5
2EA
100
AcDbEntity
  8
0
100
AcDbCircle
 62
7
  6
CONTINUOUS
 10
24.1594622154
 20
27.2434705332
 40
0.061523941
100
AcDbArc
 50
302.5179456127
 51
306.6950825082
  0
ARC
  5
2EB
100
AcDbEntity
  8
0
100
AcDbCircle
 62
7
  6
CONTINUOUS
 10
24.1594534036
 20
27.2434568001
 40
0.0615162321
100
AcDbArc
 50
291.5810579274
 51
295.854736568
  0
ARC
  5
2EC
100
AcDbEntity
  8
0
100
AcDbCircle
 62
7
  6
CONTINUOUS
 10
24.1595049807
 20
27.2434781782
 40
0.0614989353
100
AcDbArc
 50
324.4825989073
 51
327.3107775329
  0
ARC
  5
2ED
100
AcDbEntity
  8
0
100
AcDbCircle
 62
7
  6
CONTINUOUS
 10
24.1594188641
 20
27.243393603
 40
0.0614613533
100
AcDbArc
 50
268.3232163424
 51
272.0232423399
  0
ARC
  5
2EE
100
AcDbEntity
  8
0
100
AcDbCircle
 62
7
  6
CONTINUOUS
 10
24.1618509474
 20
27.2553085513
 40
0.0540733025
100
AcDbArc
 50
146.3516779284
 51
158.3857585351
  0
ARC
  5
2EF
100
AcDbEntity
  8
0
100
AcDbCircle
 62
7
  6
CONTINUOUS
 10
24.1616950694
 20
27.2553339013
 40
0.054004018
100
AcDbArc
 50
31.2689485239
 51
41.4667767835
  0
ARC
  5
2F0
100
AcDbEntity
  8
0
100
AcDbCircle
 62
7
  6
CONTINUOUS
 10
24.1617399462
 20
27.2553666128
 40
0.0539487292
100
AcDbArc
 50
41.4723044316
 51
146.3376892314
  0
ARC
  5
2F1
100
AcDbEntity
  8
0
100
AcDbCircle
 62
6
  6
CONTINUOUS
 10
24.1672717911
 20
28.0008926998
 40
0.25
100
AcDbArc
 50
178.0260516848
 51
270.6300714454
  0
ARC
  5
2F2
100
AcDbEntity
  8
0
100
AcDbCircle
 62
7
  6
CONTINUOUS
 10
24.1907507433
 20
27.2439248016
 40
0.0851399047
100
AcDbArc
 50
172.8250758663
 51
180.2036868206
  0
ARC
  5
2F3
100
AcDbEntity
  8
0
100
AcDbCircle
 62
7
  6
CONTINUOUS
 10
24.1906860183
 20
27.2439143451
 40
0.0850779591
100
AcDbArc
 50
158.4049782111
 51
169.3005631211
  0
ARC
  5
2F4
100
AcDbEntity
  8
0
100
AcDbCircle
 62
7
  6
CONTINUOUS
 10
24.1906550315
 20
27.2439397646
 40
0.0850442629
100
AcDbArc
 50
180.4205856014
 51
189.6784917911
  0
ARC
  5
2F5
100
AcDbEntity
  8
0
100
AcDbCircle
 62
7
  6
CONTINUOUS
 10
24.1906105034
 20
27.2439360473
 40
0.0849997437
100
AcDbArc
 50
189.6810678751
 51
201.599637787
  0
ARC
  5
2F6
100
AcDbEntity
  8
0
100
AcDbCircle
 62
7
  6
CONTINUOUS
 10
24.1905168855
 20
27.2439568622
 40
0.0849038737
100
AcDbArc
 50
169.3075660563
 51
172.8268310999
  0
ARC
  5
2F7
100
AcDbEntity
  8
0
100
AcDbCircle
 62
7
  6
CONTINUOUS
 10
24.1902104242
 20
27.2439331855
 40
0.0845996193
100
AcDbArc
 50
180.210665787
 51
180.4183403371
  0
ARC
  5
2F8
100
AcDbEntity
  8
0
100
AcDbCircle
 62
7
  6
CONTINUOUS
 10
24.1926135801
 20
27.3273338899
 40
0.0060183738
100
AcDbArc
 50
252.3457263875
 51
270.4316524237
  0
ARC
  5
2F9
100
AcDbEntity
  8
0
100
AcDbCircle
 62
7
  6
CONTINUOUS
 10
24.1926114485
 20
27.3273151652
 40
0.0059992767
100
AcDbArc
 50
271.913047346
 51
359.9632248169
  0
ARC
  5
2FA
100
AcDbEntity
  8
0
100
AcDbCircle
 62
7
  6
CONTINUOUS
 10
24.1926130226
 20
27.3272686729
 40
0.0059531629
100
AcDbArc
 50
270.4417464955
 51
271.9056025074
  0
ARC
  5
2FB
100
AcDbEntity
  8
0
100
AcDbCircle
 62
6
  6
CONTINUOUS
 10
24.1703618355
 20
27.7199096903
 40
0.031
100
AcDbArc
 50
68.9440258875
 51
90.6300714454
  0
ARC
  5
2FC
100
AcDbEntity
  8
0
100
AcDbCircle
 62
6
  6
CONTINUOUS
 10
24.413610794
 20
6.6698085376
 40
2.1594930436
100
AcDbArc
 50
260.8067816086
 51
279.1932183914
  0
ARC
  5
2FD
100
AcDbEntity
  8
0
100
AcDbCircle
 62
6
  6
CONTINUOUS
 10
24.413610794
 20
6.185315494
 40
0.645
100
AcDbArc
 50
143.7264555496
 51
216.3424046392
  0
ARC
  5
2FE
100
AcDbEntity
  8
0
100
AcDbCircle
 62
6
  6
CONTINUOUS
 10
24.413610794
 20
6.185315494
 40
0.645
100
AcDbArc
 50
323.6575953608
 51
36.2735444504
  0
ARC
  5
2FF
100
AcDbEntity
  8
0
100
AcDbCircle
 62
6
  6
CONTINUOUS
 10
24.7450483829
 20
4.6219152624
 40
0.0849526747
100
AcDbArc
 50
279.1932183914
 51
10.3798659228
  0
ARC
  5
300
100
AcDbEntity
  8
0
100
AcDbCircle
 62
6
  6
CONTINUOUS
 10
24.8578640576
 20
5.350315494
 40
0.02
100
AcDbArc
 50
309.4724547811
 51
90.000006083
  0
ARC
  5
301
100
AcDbEntity
  8
0
100
AcDbCircle
 62
6
  6
CONTINUOUS
 10
24.8633240917
 20
5.415315494
 40
0.02
100
AcDbArc
 50
270.0
 51
21.0304772609
  0
ARC
  5
302
100
AcDbEntity
  8
0
100
AcDbCircle
 62
6
  6
CONTINUOUS
 10
24.9467637805
 20
7.0233509122
 40
0.04667077
100
AcDbArc
 50
171.6783216617
 51
172.0883399439
  0
ARC
  5
303
100
AcDbEntity
  8
0
100
AcDbCircle
 62
6
  6
CONTINUOUS
 10
24.9442939036
 20
7.0248884829
 40
0.0451376871
100
AcDbArc
 50
232.9716601157
 51
233.6387060344
  0
ARC
  5
304
100
AcDbEntity
  8
0
100
AcDbCircle
 62
6
  6
CONTINUOUS
 10
24.9446365811
 20
7.0236215876
 40
0.0445435556
100
AcDbArc
 50
187.4820931369
 51
202.4520045304
  0
ARC
  5
305
100
AcDbEntity
  8
0
100
AcDbCircle
 62
6
  6
CONTINUOUS
 10
24.944028998
 20
7.0235078913
 40
0.0439263534
100
AcDbArc
 50
186.942194542
 51
187.438252235
  0
ARC
  5
306
100
AcDbEntity
  8
0
100
AcDbCircle
 62
6
  6
CONTINUOUS
 10
24.9413947486
 20
7.0215465579
 40
0.0407079342
100
AcDbArc
 50
217.3018076621
 51
217.8686050799
  0
ARC
  5
307
100
AcDbEntity
  8
0
100
AcDbCircle
 62
6
  6
CONTINUOUS
 10
24.942270239
 20
6.9577797548
 40
0.02
100
AcDbArc
 50
350.9999999998
 51
79.6206593913
  0
ARC
  5
308
100
AcDbEntity
  8
0
100
AcDbCircle
 62
6
  6
CONTINUOUS
 10
24.8738609556
 20
8.195315494
 40
0.02
100
AcDbArc
 50
0.0
 51
90.00001061
  0
ARC
  5
309
100
AcDbEntity
  8
0
100
AcDbCircle
 62
6
  6
CONTINUOUS
 10
24.9440716627
 20
8.0299049308
 40
0.02
100
AcDbArc
 50
284.4678892432
 51
39.4500000006
  0
ARC
  5
30A
100
AcDbEntity
  8
0
100
AcDbCircle
 62
6
  6
CONTINUOUS
 10
25.0222929646
 20
6.6320044409
 40
0.11
100
AcDbArc
 50
171.0
 51
216.2735444504
  0
ARC
  5
30B
100
AcDbEntity
  8
0
100
AcDbCircle
 62
6
  6
CONTINUOUS
 10
24.973610794
 20
7.485315494
 40
1.14
100
AcDbArc
 50
157.1448062398
 51
202.8551937602
  0
ARC
  5
30C
100
AcDbEntity
  8
0
100
AcDbCircle
 62
6
  6
CONTINUOUS
 10
24.9614068062
 20
7.9420956628
 40
0.0689658337
100
AcDbArc
 50
118.8250795181
 51
119.1930961847
  0
ARC
  5
30D
100
AcDbEntity
  8
0
100
AcDbCircle
 62
6
  6
CONTINUOUS
 10
24.9593828385
 20
7.9533296691
 40
0.0605830093
100
AcDbArc
 50
186.3090743004
 51
186.9179091448
  0
ARC
  5
30E
100
AcDbEntity
  8
0
100
AcDbCircle
 62
6
  6
CONTINUOUS
 10
24.956396787
 20
7.9530544584
 40
0.0576082154
100
AcDbArc
 50
153.2672030314
 51
169.4211237476
  0
ARC
  5
30F
100
AcDbEntity
  8
0
100
AcDbCircle
 62
6
  6
CONTINUOUS
 10
24.9556742595
 20
7.9532325584
 40
0.056865339
100
AcDbArc
 50
169.4638696782
 51
169.9498243511
  0
ARC
  5
310
100
AcDbEntity
  8
0
100
AcDbCircle
 62
6
  6
CONTINUOUS
 10
24.9548501579
 20
7.9538298857
 40
0.0558784799
100
AcDbArc
 50
152.8791317007
 51
153.263946808
  0
ARC
  5
311
100
AcDbEntity
  8
0
100
AcDbCircle
 62
6
  6
CONTINUOUS
 10
24.9520882693
 20
7.9552593876
 40
0.0527881042
100
AcDbArc
 50
135.6443345857
 51
136.0047517107
  0
ARC
  5
312
100
AcDbEntity
  8
0
100
AcDbCircle
 62
6
  6
CONTINUOUS
 10
25.2553477524
 20
5.5660385826
 40
0.4
100
AcDbArc
 50
143.6575953608
 51
201.0304772467
  0
ARC
  5
313
100
AcDbEntity
  8
0
100
AcDbCircle
 62
6
  6
CONTINUOUS
 10
25.1546586987
 20
4.9953155003
 40
0.276000002
100
AcDbArc
 50
215.7906210464
 51
144.2093778041
  0
ARC
  5
314
100
AcDbEntity
  8
0
100
AcDbCircle
 62
9
  6
CONTINUOUS
 10
25.0843888435
 20
4.9953174948
 40
0.2689861538
100
AcDbArc
 50
173.1041833235
 51
186.8954697551
  0
ARC
  5
315
100
AcDbEntity
  8
0
100
AcDbCircle
 62
9
  6
CONTINUOUS
 10
25.0785438764
 20
4.9947053879
 40
0.263110475
100
AcDbArc
 50
186.9168198075
 51
187.3849105956
  0
ARC
  5
316
100
AcDbEntity
  8
0
100
AcDbCircle
 62
9
  6
CONTINUOUS
 10
25.0785433296
 20
4.9959256688
 40
0.2631099239
100
AcDbArc
 50
172.6148228437
 51
173.0828286967
  0
ARC
  5
317
100
AcDbEntity
  8
0
100
AcDbCircle
 62
9
  6
CONTINUOUS
 10
25.0730561584
 20
4.996701279
 40
0.2575685835
100
AcDbArc
 50
165.8760227044
 51
172.6290284855
  0
ARC
  5
318
100
AcDbEntity
  8
0
100
AcDbCircle
 62
9
  6
CONTINUOUS
 10
25.0730555095
 20
4.9939296245
 40
0.2575679294
100
AcDbArc
 50
187.3706995674
 51
194.1249425626
  0
ARC
  5
319
100
AcDbEntity
  8
0
100
AcDbCircle
 62
9
  6
CONTINUOUS
 10
25.0619918933
 20
4.9913926691
 40
0.2462198172
100
AcDbArc
 50
194.1807168105
 51
194.6656455222
  0
ARC
  5
31A
100
AcDbEntity
  8
0
100
AcDbCircle
 62
9
  6
CONTINUOUS
 10
25.0619895864
 20
4.9992389039
 40
0.2462174374
100
AcDbArc
 50
165.3314379847
 51
165.8202756679
  0
ARC
  5
31B
100
AcDbEntity
  8
0
100
AcDbCircle
 62
6
  6
CONTINUOUS
 10
24.863610794
 20
15.635315494
 40
0.02
100
AcDbArc
 50
269.9999980063
 51
360.0
  0
ARC
  5
31C
100
AcDbEntity
  8
0
100
AcDbCircle
 62
6
  6
CONTINUOUS
 10
24.413610794
 20
16.675315494
 40
0.65
100
AcDbArc
 50
205.8419327632
 51
214.1580672368
  0
ARC
  5
31D
100
AcDbEntity
  8
0
100
AcDbCircle
 62
6
  6
CONTINUOUS
 10
24.413610794
 20
16.675315494
 40
0.65
100
AcDbArc
 50
325.8419327632
 51
334.1580672368
  0
ARC
  5
31E
100
AcDbEntity
  8
0
100
AcDbCircle
 62
6
  6
CONTINUOUS
 10
24.413610794
 20
16.675315494
 40
0.65
100
AcDbArc
 50
25.8419327632
 51
34.1580672368
  0
ARC
  5
31F
100
AcDbEntity
  8
0
100
AcDbCircle
 62
6
  6
CONTINUOUS
 10
24.413610794
 20
16.675315494
 40
0.65
100
AcDbArc
 50
85.8419327632
 51
94.1580672368
  0
ARC
  5
320
100
AcDbEntity
  8
0
100
AcDbCircle
 62
6
  6
CONTINUOUS
 10
24.413610794
 20
16.675315494
 40
0.65
100
AcDbArc
 50
145.8419327632
 51
154.1580672368
  0
ARC
  5
321
100
AcDbEntity
  8
0
100
AcDbCircle
 62
6
  6
CONTINUOUS
 10
24.413610794
 20
16.675315494
 40
0.642
100
AcDbArc
 50
320.1915805487
 51
219.8084205717
  0
CIRCLE
  5
322
100
AcDbEntity
  8
0
100
AcDbCircle
 62
9
  6
CONTINUOUS
 10
24.413610794
 20
16.675315494
 40
0.5258241194
  0
CIRCLE
  5
323
100
AcDbEntity
  8
0
100
AcDbCircle
 62
9
  6
CONTINUOUS
 10
24.413610794
 20
16.675315494
 40
0.4322426762
  0
CIRCLE
  5
324
100
AcDbEntity
  8
0
100
AcDbCircle
 62
7
  6
CONTINUOUS
 10
24.413610794
 20
16.675315494
 40
0.42
  0
CIRCLE
  5
325
100
AcDbEntity
  8
0
100
AcDbCircle
 62
9
  6
CONTINUOUS
 10
24.413610794
 20
16.675315494
 40
0.369180739
  0
ARC
  5
326
100
AcDbEntity
  8
0
100
AcDbCircle
 62
7
  6
CONTINUOUS
 10
24.5111451512
 20
27.2111430162
 40
0.0300662247
100
AcDbArc
 50
237.5159041158
 51
242.4093704794
  0
ARC
  5
327
100
AcDbEntity
  8
0
100
AcDbCircle
 62
7
  6
CONTINUOUS
 10
24.4150528153
 20
27.2110923523
 40
0.0300579794
100
AcDbArc
 50
347.7813716144
 51
359.9881558245
  0
ARC
  5
328
100
AcDbEntity
  8
0
100
AcDbCircle
 62
7
  6
CONTINUOUS
 10
24.535065771
 20
27.2111201404
 40
0.0300561239
100
AcDbArc
 50
317.0775091255
 51
328.8047063615
  0
ARC
  5
329
100
AcDbEntity
  8
0
100
AcDbCircle
 62
7
  6
CONTINUOUS
 10
24.5111169385
 20
27.2111380161
 40
0.030051878
100
AcDbArc
 50
256.0654828351
 51
269.9882852318
  0
ARC
  5
32A
100
AcDbEntity
  8
0
100
AcDbCircle
 62
7
  6
CONTINUOUS
 10
24.5351066135
 20
27.2111267182
 40
0.0300405797
100
AcDbArc
 50
270.0079734551
 51
281.757889629
  0
ARC
  5
32B
100
AcDbEntity
  8
0
100
AcDbCircle
 62
7
  6
CONTINUOUS
 10
24.5350916337
 20
27.2111201056
 40
0.0300387965
100
AcDbArc
 50
293.5991576742
 51
305.2550605194
  0
ARC
  5
32C
100
AcDbEntity
  8
0
100
AcDbCircle
 62
7
  6
CONTINUOUS
 10
24.511145114
 20
27.2110892058
 40
0.0300343201
100
AcDbArc
 50
180.0058508863
 51
190.4022914317
  0
ARC
  5
32D
100
AcDbEntity
  8
0
100
AcDbCircle
 62
7
  6
CONTINUOUS
 10
24.511123476
 20
27.2110968365
 40
0.0300164802
100
AcDbArc
 50
193.4075365275
 51
237.5129293561
  0
ARC
  5
32E
100
AcDbEntity
  8
0
100
AcDbCircle
 62
7
  6
CONTINUOUS
 10
24.5351134411
 20
27.2110778317
 40
0.0299913279
100
AcDbArc
 50
281.7641511356
 51
293.5933118986
  0
ARC
  5
32F
100
AcDbEntity
  8
0
100
AcDbCircle
 62
7
  6
CONTINUOUS
 10
24.5111042434
 20
27.2110623511
 40
0.0299753831
100
AcDbArc
 50
242.4151250628
 51
256.0542062135
  0
ARC
  5
330
100
AcDbEntity
  8
0
100
AcDbCircle
 62
7
  6
CONTINUOUS
 10
24.4151353449
 20
27.2110792132
 40
0.0299745388
100
AcDbArc
 50
286.4682895627
 51
347.7725304078
  0
ARC
  5
331
100
AcDbEntity
  8
0
100
AcDbCircle
 62
7
  6
CONTINUOUS
 10
24.511085564
 20
27.2110808488
 40
0.02997424
100
AcDbArc
 50
190.407132614
 51
193.4050239828
  0
ARC
  5
332
100
AcDbEntity
  8
0
100
AcDbCircle
 62
7
  6
CONTINUOUS
 10
24.5351423803
 20
27.2110440903
 40
0.0299474314
100
AcDbArc
 50
305.2597250684
 51
317.0689487459
  0
ARC
  5
333
100
AcDbEntity
  8
0
100
AcDbCircle
 62
6
  6
CONTINUOUS
 10
24.413610794
 20
27.243315494
 40
1.46
100
AcDbArc
 50
255.1076385619
 51
255.1143352359
  0
ARC
  5
334
100
AcDbEntity
  8
0
100
AcDbCircle
 62
6
  6
CONTINUOUS
 10
24.413610794
 20
27.243315494
 40
1.46
100
AcDbArc
 50
284.8856647641
 51
284.8923614381
  0
ARC
  5
335
100
AcDbEntity
  8
0
100
AcDbCircle
 62
9
  6
CONTINUOUS
 10
24.413610794
 20
27.243315494
 40
1.46
100
AcDbArc
 50
284.8923614381
 51
255.1076385619
  0
ARC
  5
336
100
AcDbEntity
  8
0
100
AcDbCircle
 62
9
  6
CONTINUOUS
 10
24.413610794
 20
27.243315494
 40
1.43
100
AcDbArc
 50
230.3881514254
 51
254.7825784459
  0
ARC
  5
337
100
AcDbEntity
  8
0
100
AcDbCircle
 62
9
  6
CONTINUOUS
 10
24.413610794
 20
27.243315494
 40
1.43
100
AcDbArc
 50
285.2174215541
 51
309.6068054795
  0
ARC
  5
338
100
AcDbEntity
  8
0
100
AcDbCircle
 62
9
  6
CONTINUOUS
 10
24.413610794
 20
27.243315494
 40
1.43
100
AcDbArc
 50
140.3984077278
 51
219.6050647661
  0
ARC
  5
339
100
AcDbEntity
  8
0
100
AcDbCircle
 62
9
  6
CONTINUOUS
 10
24.413610794
 20
27.243315494
 40
1.43
100
AcDbArc
 50
50.3881514254
 51
129.6068054795
  0
ARC
  5
33A
100
AcDbEntity
  8
0
100
AcDbCircle
 62
9
  6
CONTINUOUS
 10
24.413610794
 20
27.243315494
 40
1.43
100
AcDbArc
 50
320.3984077278
 51
39.6050647661
  0
ARC
  5
33B
100
AcDbEntity
  8
0
100
AcDbCircle
 62
7
  6
CONTINUOUS
 10
24.413610794
 20
27.243315494
 40
1.415
100
AcDbArc
 50
51.6284876276
 51
128.4214850036
  0
ARC
  5
33C
100
AcDbEntity
  8
0
100
AcDbCircle
 62
7
  6
CONTINUOUS
 10
24.413610794
 20
27.243315494
 40
1.415
100
AcDbArc
 50
141.4814773208
 51
218.4602837723
  0
ARC
  5
33D
100
AcDbEntity
  8
0
100
AcDbCircle
 62
7
  6
CONTINUOUS
 10
24.413610794
 20
27.243315494
 40
1.415
100
AcDbArc
 50
231.6284876276
 51
254.6158016829
  0
ARC
  5
33E
100
AcDbEntity
  8
0
100
AcDbCircle
 62
7
  6
CONTINUOUS
 10
24.413610794
 20
27.243315494
 40
1.415
100
AcDbArc
 50
285.3841983171
 51
308.4214850036
  0
ARC
  5
33F
100
AcDbEntity
  8
0
100
AcDbCircle
 62
7
  6
CONTINUOUS
 10
24.413610794
 20
27.243315494
 40
1.415
100
AcDbArc
 50
321.4814773208
 51
38.4602837723
  0
ARC
  5
340
100
AcDbEntity
  8
0
100
AcDbCircle
 62
6
  6
CONTINUOUS
 10
24.413610794
 20
27.243315494
 40
1.145
100
AcDbArc
 50
238.5011319167
 51
245.7595410854
  0
ARC
  5
341
100
AcDbEntity
  8
0
100
AcDbCircle
 62
6
  6
CONTINUOUS
 10
24.413610794
 20
27.243315494
 40
1.145
100
AcDbArc
 50
247.9535809735
 51
250.8655168014
  0
ARC
  5
342
100
AcDbEntity
  8
0
100
AcDbCircle
 62
6
  6
CONTINUOUS
 10
24.413610794
 20
27.243315494
 40
1.145
100
AcDbArc
 50
289.1344831986
 51
292.0464190265
  0
ARC
  5
343
100
AcDbEntity
  8
0
100
AcDbCircle
 62
6
  6
CONTINUOUS
 10
24.413610794
 20
27.243315494
 40
1.145
100
AcDbArc
 50
294.2404589146
 51
301.5146861927
  0
ARC
  5
344
100
AcDbEntity
  8
0
100
AcDbCircle
 62
6
  6
CONTINUOUS
 10
24.413610794
 20
27.243315494
 40
1.145
100
AcDbArc
 50
148.4853138073
 51
211.4988680833
  0
ARC
  5
345
100
AcDbEntity
  8
0
100
AcDbCircle
 62
6
  6
CONTINUOUS
 10
24.413610794
 20
27.243315494
 40
1.145
100
AcDbArc
 50
58.5011319167
 51
121.5146861927
  0
ARC
  5
346
100
AcDbEntity
  8
0
100
AcDbCircle
 62
6
  6
CONTINUOUS
 10
24.413610794
 20
27.243315494
 40
1.145
100
AcDbArc
 50
328.4853138073
 51
31.4988680833
  0
ARC
  5
347
100
AcDbEntity
  8
0
100
AcDbCircle
 62
7
  6
CONTINUOUS
 10
24.413610794
 20
27.243315494
 40
1.095
100
AcDbArc
 50
58.2077229327
 51
121.7901455781
  0
ARC
  5
348
100
AcDbEntity
  8
0
100
AcDbCircle
 62
7
  6
CONTINUOUS
 10
24.413610794
 20
27.243315494
 40
1.095
100
AcDbArc
 50
148.2137789957
 51
211.7847190814
  0
ARC
  5
349
100
AcDbEntity
  8
0
100
AcDbCircle
 62
7
  6
CONTINUOUS
 10
24.413610794
 20
27.243315494
 40
1.095
100
AcDbArc
 50
238.2077229327
 51
244.5439288912
  0
ARC
  5
34A
100
AcDbEntity
  8
0
100
AcDbCircle
 62
7
  6
CONTINUOUS
 10
24.413610794
 20
27.243315494
 40
1.095
100
AcDbArc
 50
295.4560711088
 51
301.7901455781
  0
ARC
  5
34B
100
AcDbEntity
  8
0
100
AcDbCircle
 62
7
  6
CONTINUOUS
 10
24.413610794
 20
27.243315494
 40
1.095
100
AcDbArc
 50
328.2137789957
 51
31.7847190814
  0
ARC
  5
34C
100
AcDbEntity
  8
0
100
AcDbCircle
 62
6
  6
CONTINUOUS
 10
24.413610794
 20
27.243315494
 40
0.735
100
AcDbArc
 50
143.7832508688
 51
216.2167491312
  0
ARC
  5
34D
100
AcDbEntity
  8
0
100
AcDbCircle
 62
6
  6
CONTINUOUS
 10
24.413610794
 20
27.243315494
 40
0.735
100
AcDbArc
 50
53.7832508688
 51
126.2167491312
  0
ARC
  5
34E
100
AcDbEntity
  8
0
100
AcDbCircle
 62
6
  6
CONTINUOUS
 10
24.413610794
 20
27.243315494
 40
0.735
100
AcDbArc
 50
323.7832508688
 51
36.2167491312
  0
ARC
  5
34F
100
AcDbEntity
  8
0
100
AcDbCircle
 62
6
  6
CONTINUOUS
 10
24.413610794
 20
27.243315494
 40
0.6569226091
100
AcDbArc
 50
55.5335157654
 51
124.4664842346
  0
ARC
  5
350
100
AcDbEntity
  8
0
100
AcDbCircle
 62
6
  6
CONTINUOUS
 10
24.413610794
 20
27.243315494
 40
0.6569226091
100
AcDbArc
 50
145.5266398012
 51
214.4733601988
  0
ARC
  5
351
100
AcDbEntity
  8
0
100
AcDbCircle
 62
6
  6
CONTINUOUS
 10
24.413610794
 20
27.243315494
 40
0.6569226091
100
AcDbArc
 50
325.5266398012
 51
34.4733601988
  0
ARC
  5
352
100
AcDbEntity
  8
0
100
AcDbCircle
 62
6
  6
CONTINUOUS
 10
24.413610794
 20
27.243315494
 40
0.65
100
AcDbArc
 50
25.638966172
 51
34.1757946382
  0
ARC
  5
353
100
AcDbEntity
  8
0
100
AcDbCircle
 62
6
  6
CONTINUOUS
 10
24.413610794
 20
27.243315494
 40
0.65
100
AcDbArc
 50
85.638966172
 51
94.361033828
  0
ARC
  5
354
100
AcDbEntity
  8
0
100
AcDbCircle
 62
6
  6
CONTINUOUS
 10
24.413610794
 20
27.243315494
 40
0.65
100
AcDbArc
 50
145.8242053618
 51
154.361033828
  0
ARC
  5
355
100
AcDbEntity
  8
0
100
AcDbCircle
 62
6
  6
CONTINUOUS
 10
24.413610794
 20
27.243315494
 40
0.65
100
AcDbArc
 50
325.8242053618
 51
334.361033828
  0
ARC
  5
356
100
AcDbEntity
  8
0
100
AcDbCircle
 62
6
  6
CONTINUOUS
 10
24.413610794
 20
27.243315494
 40
0.65
100
AcDbArc
 50
205.638966172
 51
214.1757946382
  0
ARC
  5
357
100
AcDbEntity
  8
0
100
AcDbCircle
 62
6
  6
CONTINUOUS
 10
24.413610794
 20
27.243315494
 40
0.642
100
AcDbArc
 50
146.2198992041
 51
213.7801007959
  0
ARC
  5
358
100
AcDbEntity
  8
0
100
AcDbCircle
 62
6
  6
CONTINUOUS
 10
24.413610794
 20
27.243315494
 40
0.642
100
AcDbArc
 50
56.2229404107
 51
123.7770595893
  0
ARC
  5
359
100
AcDbEntity
  8
0
100
AcDbCircle
 62
6
  6
CONTINUOUS
 10
24.413610794
 20
27.243315494
 40
0.642
100
AcDbArc
 50
326.2198992041
 51
33.7801007959
  0
ARC
  5
35A
100
AcDbEntity
  8
0
100
AcDbCircle
 62
6
  6
CONTINUOUS
 10
24.413610794
 20
27.243315494
 40
0.6375
100
AcDbArc
 50
201.2722464537
 51
213.5355742956
  0
ARC
  5
35B
100
AcDbEntity
  8
0
100
AcDbCircle
 62
6
  6
CONTINUOUS
 10
24.413610794
 20
27.243315494
 40
0.6375
100
AcDbArc
 50
261.28741577
 51
278.7124181074
  0
ARC
  5
35C
100
AcDbEntity
  8
0
100
AcDbCircle
 62
6
  6
CONTINUOUS
 10
24.413610794
 20
27.243315494
 40
0.6375
100
AcDbArc
 50
326.4644257044
 51
338.726732841
  0
ARC
  5
35D
100
AcDbEntity
  8
0
100
AcDbCircle
 62
6
  6
CONTINUOUS
 10
24.413610794
 20
27.243315494
 40
0.6375
100
AcDbArc
 50
21.2722464537
 51
33.5355742956
  0
ARC
  5
35E
100
AcDbEntity
  8
0
100
AcDbCircle
 62
6
  6
CONTINUOUS
 10
24.413610794
 20
27.243315494
 40
0.6375
100
AcDbArc
 50
81.28741577
 51
98.7124181074
  0
ARC
  5
35F
100
AcDbEntity
  8
0
100
AcDbCircle
 62
6
  6
CONTINUOUS
 10
24.413610794
 20
27.243315494
 40
0.6375
100
AcDbArc
 50
146.4644257044
 51
158.726732841
  0
ARC
  5
360
100
AcDbEntity
  8
0
100
AcDbCircle
 62
9
  6
CONTINUOUS
 10
24.413610794
 20
27.243315494
 40
0.614370293
100
AcDbArc
 50
147.9896090981
 51
165.2045392124
  0
ARC
  5
361
100
AcDbEntity
  8
0
100
AcDbCircle
 62
9
  6
CONTINUOUS
 10
24.413610794
 20
27.243315494
 40
0.614370293
100
AcDbArc
 50
74.7954607876
 51
105.2045392124
  0
ARC
  5
362
100
AcDbEntity
  8
0
100
AcDbCircle
 62
9
  6
CONTINUOUS
 10
24.413610794
 20
27.243315494
 40
0.614370293
100
AcDbArc
 50
14.7954607876
 51
32.0103909019
  0
ARC
  5
363
100
AcDbEntity
  8
0
100
AcDbCircle
 62
9
  6
CONTINUOUS
 10
24.413610794
 20
27.243315494
 40
0.614370293
100
AcDbArc
 50
327.9896090981
 51
345.2045392124
  0
ARC
  5
364
100
AcDbEntity
  8
0
100
AcDbCircle
 62
9
  6
CONTINUOUS
 10
24.413610794
 20
27.243315494
 40
0.614370293
100
AcDbArc
 50
254.7954607876
 51
285.2045392124
  0
ARC
  5
365
100
AcDbEntity
  8
0
100
AcDbCircle
 62
9
  6
CONTINUOUS
 10
24.413610794
 20
27.243315494
 40
0.614370293
100
AcDbArc
 50
194.7954607876
 51
212.0103909019
  0
CIRCLE
  5
366
100
AcDbEntity
  8
0
100
AcDbCircle
 62
6
  6
CONTINUOUS
 10
24.413610794
 20
27.243315494
 40
0.5575
  0
CIRCLE
  5
367
100
AcDbEntity
  8
0
100
AcDbCircle
 62
6
  6
CONTINUOUS
 10
24.413610794
 20
27.243315494
 40
0.5275
  0
CIRCLE
  5
368
100
AcDbEntity
  8
0
100
AcDbCircle
 62
6
  6
CONTINUOUS
 10
24.413610794
 20
27.243315494
 40
0.5132341523
  0
CIRCLE
  5
369
100
AcDbEntity
  8
0
100
AcDbCircle
 62
6
  6
CONTINUOUS
 10
24.413610794
 20
27.243315494
 40
0.4545099561
  0
CIRCLE
  5
36A
100
AcDbEntity
  8
0
100
AcDbCircle
 62
9
  6
CONTINUOUS
 10
24.413610794
 20
27.243315494
 40
0.3951446566
  0
ARC
  5
36B
100
AcDbEntity
  8
0
100
AcDbCircle
 62
7
  6
CONTINUOUS
 10
24.4150882283
 20
27.2804906714
 40
0.030058352
100
AcDbArc
 50
61.2421477818
 51
73.5287594498
  0
ARC
  5
36C
100
AcDbEntity
  8
0
100
AcDbCircle
 62
7
  6
CONTINUOUS
 10
24.4150672392
 20
27.280540188
 40
0.0300435552
100
AcDbArc
 50
0.008889438
 51
12.2025553679
  0
ARC
  5
36D
100
AcDbEntity
  8
0
100
AcDbCircle
 62
7
  6
CONTINUOUS
 10
24.4151030812
 20
27.2805402418
 40
0.030008546
100
AcDbArc
 50
13.7830426425
 51
58.5978696251
  0
ARC
  5
36E
100
AcDbEntity
  8
0
100
AcDbCircle
 62
7
  6
CONTINUOUS
 10
24.4151510515
 20
27.2806129423
 40
0.0299209374
100
AcDbArc
 50
58.5982943016
 51
61.2349649281
  0
ARC
  5
36F
100
AcDbEntity
  8
0
100
AcDbCircle
 62
7
  6
CONTINUOUS
 10
24.4152101086
 20
27.2805691733
 40
0.0298977872
100
AcDbArc
 50
12.2061343803
 51
13.7811323385
  0
ARC
  5
370
100
AcDbEntity
  8
0
100
AcDbCircle
 62
7
  6
CONTINUOUS
 10
24.5111336808
 20
27.2804918946
 40
0.03005727
100
AcDbArc
 50
106.4724884357
 51
120.1656986935
  0
ARC
  5
371
100
AcDbEntity
  8
0
100
AcDbCircle
 62
7
  6
CONTINUOUS
 10
24.5111487507
 20
27.2805412686
 40
0.0300379569
100
AcDbArc
 50
169.1067591764
 51
179.9931700825
  0
ARC
  5
372
100
AcDbEntity
  8
0
100
AcDbCircle
 62
7
  6
CONTINUOUS
 10
24.5110987642
 20
27.2805472632
 40
0.0299877384
100
AcDbArc
 50
124.4437430253
 51
169.0999576721
  0
ARC
  5
373
100
AcDbEntity
  8
0
100
AcDbCircle
 62
7
  6
CONTINUOUS
 10
24.5110690154
 20
27.2806093341
 40
0.0299232403
100
AcDbArc
 50
120.17164496
 51
124.4445151054
  0
ARC
  5
374
100
AcDbEntity
  8
0
100
AcDbCircle
 62
6
  6
CONTINUOUS
 10
24.659949797
 20
26.4857382882
 40
0.25
100
AcDbArc
 50
358.0260516848
 51
90.6300714454
  0
ARC
  5
375
100
AcDbEntity
  8
0
100
AcDbCircle
 62
7
  6
CONTINUOUS
 10
24.6879751077
 20
27.2428272149
 40
0.084635466
100
AcDbArc
 50
349.0698636526
 51
355.041509258
  0
ARC
  5
376
100
AcDbEntity
  8
0
100
AcDbCircle
 62
7
  6
CONTINUOUS
 10
24.6880981298
 20
27.2429435676
 40
0.0846280746
100
AcDbArc
 50
270.0085740937
 51
281.3068079688
  0
ARC
  5
377
100
AcDbEntity
  8
0
100
AcDbCircle
 62
7
  6
CONTINUOUS
 10
24.6880162186
 20
27.2428654275
 40
0.0846064269
100
AcDbArc
 50
326.5138652281
 51
337.7907103805
  0
ARC
  5
378
100
AcDbEntity
  8
0
100
AcDbCircle
 62
7
  6
CONTINUOUS
 10
24.6880064013
 20
27.2428023674
 40
0.0846044695
100
AcDbArc
 50
0.3475013629
 51
6.3618638279
  0
ARC
  5
379
100
AcDbEntity
  8
0
100
AcDbCircle
 62
7
  6
CONTINUOUS
 10
24.6881017989
 20
27.2427229027
 40
0.0845925917
100
AcDbArc
 50
78.813890645
 51
89.9939074672
  0
ARC
  5
37A
100
AcDbEntity
  8
0
100
AcDbCircle
 62
7
  6
CONTINUOUS
 10
24.688071127
 20
27.2428640568
 40
0.084562448
100
AcDbArc
 50
294.3047045939
 51
314.026919702
  0
ARC
  5
37B
100
AcDbEntity
  8
0
100
AcDbCircle
 62
7
  6
CONTINUOUS
 10
24.6880636663
 20
27.2428537916
 40
0.0845604363
100
AcDbArc
 50
315.2973722537
 51
326.5027029543
  0
ARC
  5
37C
100
AcDbEntity
  8
0
100
AcDbCircle
 62
7
  6
CONTINUOUS
 10
24.6881108586
 20
27.2428152152
 40
0.0844997186
100
AcDbArc
 50
281.3154079963
 51
292.711049116
  0
ARC
  5
37D
100
AcDbEntity
  8
0
100
AcDbCircle
 62
7
  6
CONTINUOUS
 10
24.688111513
 20
27.2428164024
 40
0.0844987866
100
AcDbArc
 50
6.3603033249
 51
78.8080531394
  0
ARC
  5
37E
100
AcDbEntity
  8
0
100
AcDbCircle
 62
7
  6
CONTINUOUS
 10
24.6881708829
 20
27.2428210641
 40
0.0844398925
100
AcDbArc
 50
355.034185183
 51
0.1687224059
  0
ARC
  5
37F
100
AcDbEntity
  8
0
100
AcDbCircle
 62
7
  6
CONTINUOUS
 10
24.6881744595
 20
27.2427910234
 40
0.0844318024
100
AcDbArc
 50
337.7968656018
 51
349.0614557372
  0
ARC
  5
380
100
AcDbEntity
  8
0
100
AcDbCircle
 62
7
  6
CONTINUOUS
 10
24.6881499165
 20
27.242710793
 40
0.0843883135
100
AcDbArc
 50
292.7139593203
 51
294.3064193676
  0
ARC
  5
381
100
AcDbEntity
  8
0
100
AcDbCircle
 62
7
  6
CONTINUOUS
 10
24.6882285354
 20
27.2426987792
 40
0.084334213
100
AcDbArc
 50
314.0280669131
 51
315.2934347249
  0
ARC
  5
382
100
AcDbEntity
  8
0
100
AcDbCircle
 62
7
  6
CONTINUOUS
 10
24.6886450611
 20
27.2428186667
 40
0.0839657235
100
AcDbArc
 50
0.1713111342
 51
0.3390225015
  0
ARC
  5
383
100
AcDbEntity
  8
0
100
AcDbCircle
 62
7
  6
CONTINUOUS
 10
24.6837555031
 20
27.2303156038
 40
0.0479999994
100
AcDbArc
 50
270.0000944646
 51
341.5589916515
  0
ARC
  5
384
100
AcDbEntity
  8
0
100
AcDbCircle
 62
6
  6
CONTINUOUS
 10
24.6568597526
 20
26.7667212977
 40
0.031
100
AcDbArc
 50
248.9440301417
 51
270.6300714454
  0
ARC
  5
385
100
AcDbEntity
  8
0
100
AcDbCircle
 62
7
  6
CONTINUOUS
 10
24.595572596
 20
27.1984644208
 40
0.0180451157
100
AcDbArc
 50
321.8416413412
 51
330.0574216324
  0
ARC
  5
386
100
AcDbEntity
  8
0
100
AcDbCircle
 62
7
  6
CONTINUOUS
 10
24.595570267
 20
27.1984445507
 40
0.0180405276
100
AcDbArc
 50
347.2393785784
 51
359.9855774336
  0
ARC
  5
387
100
AcDbEntity
  8
0
100
AcDbCircle
 62
7
  6
CONTINUOUS
 10
24.595614807
 20
27.1984355193
 40
0.0179939865
100
AcDbArc
 50
296.3977967377
 51
321.8270119915
  0
ARC
  5
388
100
AcDbEntity
  8
0
100
AcDbCircle
 62
7
  6
CONTINUOUS
 10
24.5956256896
 20
27.1984358225
 40
0.0179845464
100
AcDbArc
 50
330.0570938174
 51
347.2274983559
  0
ARC
  5
389
100
AcDbEntity
  8
0
100
AcDbCircle
 62
7
  6
CONTINUOUS
 10
24.6558929898
 20
27.1883158082
 40
0.0060003442
100
AcDbArc
 50
180.0030001958
 51
269.9969882589
  0
ARC
  5
38A
100
AcDbEntity
  8
0
100
AcDbCircle
 62
6
  6
CONTINUOUS
 10
24.659949797
 20
28.0008926998
 40
0.25
100
AcDbArc
 50
269.369928906
 51
1.9739483152
  0
ARC
  5
38B
100
AcDbEntity
  8
0
100
AcDbCircle
 62
7
  6
CONTINUOUS
 10
24.637271714
 20
27.245815494
 40
0.097
100
AcDbArc
 50
341.5590861805
 51
18.4409138195
  0
ARC
  5
38C
100
AcDbEntity
  8
0
100
AcDbCircle
 62
7
  6
CONTINUOUS
 10
24.6837555017
 20
27.2613153823
 40
0.0479999995
100
AcDbArc
 50
18.4410099102
 51
89.9999039753
  0
ARC
  5
38D
100
AcDbEntity
  8
0
100
AcDbCircle
 62
6
  6
CONTINUOUS
 10
24.6568597526
 20
27.7199096903
 40
0.031
100
AcDbArc
 50
89.3699257212
 51
111.4460666184
  0
ARC
  5
38E
100
AcDbEntity
  8
0
100
AcDbCircle
 62
7
  6
CONTINUOUS
 10
24.595589929
 20
27.2931585268
 40
0.0180383443
100
AcDbArc
 50
50.9309202677
 51
63.598643194
  0
ARC
  5
38F
100
AcDbEntity
  8
0
100
AcDbCircle
 62
7
  6
CONTINUOUS
 10
24.5955809819
 20
27.2931876482
 40
0.0180298125
100
AcDbArc
 50
0.0105831142
 51
12.7650579862
  0
ARC
  5
390
100
AcDbEntity
  8
0
100
AcDbCircle
 62
7
  6
CONTINUOUS
 10
24.5956487152
 20
27.2932346179
 40
0.0179422179
100
AcDbArc
 50
12.772846038
 51
50.9235239612
  0
ARC
  5
391
100
AcDbEntity
  8
0
100
AcDbCircle
 62
7
  6
CONTINUOUS
 10
24.6558929925
 20
27.3033151817
 40
0.0060003451
100
AcDbArc
 50
90.0030377319
 51
179.9970180926
  0
ARC
  5
392
100
AcDbEntity
  8
0
100
AcDbCircle
 62
6
  6
CONTINUOUS
 10
24.8902049903
 20
27.0000665355
 40
0.031
100
AcDbArc
 50
359.3699285546
 51
21.0559738232
  0
ARC
  5
393
100
AcDbEntity
  8
0
100
AcDbCircle
 62
6
  6
CONTINUOUS
 10
24.9257919505
 20
26.4765758963
 40
0.016
100
AcDbArc
 50
178.0260516848
 51
280.3765489003
  0
ARC
  5
394
100
AcDbEntity
  8
0
100
AcDbCircle
 62
6
  6
CONTINUOUS
 10
24.9444254528
 20
26.4539617923
 40
0.016
100
AcDbArc
 50
10.0
 51
135.0
  0
ARC
  5
395
100
AcDbEntity
  8
0
100
AcDbCircle
 62
6
  6
CONTINUOUS
 10
24.8902049903
 20
27.4865644525
 40
0.031
100
AcDbArc
 50
338.5539442654
 51
0.6300742788
  0
ARC
  5
396
100
AcDbEntity
  8
0
100
AcDbCircle
 62
6
  6
CONTINUOUS
 10
24.9444254528
 20
28.0326691957
 40
0.016
100
AcDbArc
 50
232.8125
 51
350.0
  0
ARC
  5
397
100
AcDbEntity
  8
0
100
AcDbCircle
 62
6
  6
CONTINUOUS
 10
24.9257919505
 20
28.0100550917
 40
0.016
100
AcDbArc
 50
79.6234510997
 51
181.9739483152
  0
ARC
  5
398
100
AcDbEntity
  8
0
100
AcDbCircle
 62
6
  6
CONTINUOUS
 10
25.1803503918
 20
26.7311343375
 40
0.016
100
AcDbArc
 50
349.6234510997
 51
91.9739483152
  0
ARC
  5
399
100
AcDbEntity
  8
0
100
AcDbCircle
 62
6
  6
CONTINUOUS
 10
25.1711879998
 20
26.996976491
 40
0.25
100
AcDbArc
 50
179.3699285546
 51
271.9739483152
  0
ARC
  5
39A
100
AcDbEntity
  8
0
100
AcDbCircle
 62
6
  6
CONTINUOUS
 10
25.2029644957
 20
26.7125008352
 40
0.016
100
AcDbArc
 50
135.0
 51
260.0
  0
ARC
  5
39B
100
AcDbEntity
  8
0
100
AcDbCircle
 62
6
  6
CONTINUOUS
 10
25.249057456
 20
26.407868832
 40
0.276
100
AcDbArc
 50
190.0
 51
80.0
  0
ARC
  5
39C
100
AcDbEntity
  8
0
100
AcDbCircle
 62
6
  6
CONTINUOUS
 10
25.249057456
 20
28.078762156
 40
0.276
100
AcDbArc
 50
280.0
 51
170.0
  0
ARC
  5
39D
100
AcDbEntity
  8
0
100
AcDbCircle
 62
6
  6
CONTINUOUS
 10
25.1711879998
 20
27.489654497
 40
0.25
100
AcDbArc
 50
88.0260516848
 51
180.630071094
  0
ARC
  5
39E
100
AcDbEntity
  8
0
100
AcDbCircle
 62
6
  6
CONTINUOUS
 10
25.2029644957
 20
27.7741301528
 40
0.016
100
AcDbArc
 50
100.0
 51
217.1875
  0
ARC
  5
39F
100
AcDbEntity
  8
0
100
AcDbCircle
 62
6
  6
CONTINUOUS
 10
25.1803503918
 20
27.7554966505
 40
0.016
100
AcDbArc
 50
268.0260516848
 51
10.3765489003
  0
SPLINE
  5
3A0
100
AcDbEntity
  8
0
100
AcDbSpline
 62
7
  6
CONTINUOUS
 70
0
 71
3
 72
22
 73
18
 74
16
 42
0.0000001
 43
0.0000001
 44
0.0000000001
 12
0.2160952667
 22
0.0560706685
 32
0.0
 13
0.0
 23
0.2232511683
 33
0.0
 40
0.0
 40
0.0
 40
0.0
 40
0.0
 40
0.0514978679
 40
0.1040726556
 40
0.1579882399
 40
0.2134533493
 40
0.2706127926
 40
0.3295521052
 40
0.390296922
 40
0.4528184275
 40
0.5827568972
 40
0.6499835428
 40
0.7184355927
 40
0.7879026569
 40
0.858170153
 40
0.9289848068
 40
1.0
 40
1.0
 40
1.0
 40
1.0
 10
23.8825666491
 20
4.8155026378
 30
0.0
 10
23.8862761309
 20
4.8164651445
 30
0.0
 10
23.8936628566
 20
4.8188619466
 30
0.0
 10
23.9043757374
 20
4.8237622915
 30
0.0
 10
23.9147427408
 20
4.8299544552
 30
0.0
 10
23.9246818729
 20
4.8373928563
 30
0.0
 10
23.9341227115
 20
4.8460163444
 30
0.0
 10
23.9429934087
 20
4.8557609342
 30
0.0
 10
23.951231032
 20
4.8665517909
 30
0.0
 10
23.9614151803
 20
4.882424741
 30
0.0
 10
23.9699209838
 20
4.8998703113
 30
0.0
 10
23.9767038221
 20
4.9184470345
 30
0.0
 10
23.9809698341
 20
4.9331180186
 30
0.0
 10
23.9843197626
 20
4.9482546888
 30
0.0
 10
23.9867316522
 20
4.9637470554
 30
0.0
 10
23.9881835223
 20
4.9794733703
 30
0.0
 10
23.9885085991
 20
4.9900307524
 30
0.0
 10
23.9885085991
 20
4.995315494
 30
0.0
 11
23.8825666491
 21
4.8155026378
 31
0.0
 11
23.8935056784
 21
4.8190406753
 31
0.0
 11
23.9041862731
 21
4.8239080206
 31
0.0
 11
23.9145284442
 21
4.8300661094
 31
0.0
 11
23.9244536847
 21
4.8374701377
 31
0.0
 11
23.9338878073
 21
4.8460630544
 31
0.0
 11
23.9427591484
 21
4.8557810474
 31
0.0
 11
23.9510013452
 21
4.8665502832
 31
0.0
 11
23.9585519476
 21
4.8782897102
 31
0.0
 11
23.9713569518
 21
4.9043194821
 31
0.0
 11
23.9765146047
 21
4.9184138605
 31
0.0
 11
23.9807889112
 21
4.9330859371
 31
0.0
 11
23.9841467889
 21
4.9482266581
 31
0.0
 11
23.9865640484
 21
4.9637266018
 31
0.0
 11
23.988021158
 21
4.9794687641
 31
0.0
 11
23.9885085991
 21
4.995315494
 31
0.0
  0
SPLINE
  5
3A1
100
AcDbEntity
  8
0
100
AcDbSpline
 62
7
  6
CONTINUOUS
 70
0
 71
3
 72
22
 73
18
 74
16
 42
0.0000001
 43
0.0000001
 44
0.0000000001
 12
0.2161049029
 22
-0.0560582398
 32
0.0
 13
-0.0
 23
-0.2232573746
 33
0.0
 40
0.0
 40
0.0
 40
0.0
 40
0.0
 40
0.051497701
 40
0.1040722146
 40
0.157987467
 40
0.2134522269
 40
0.2706113433
 40
0.3295503785
 40
0.3902949927
 40
0.4528163822
 40
0.5827549007
 40
0.6499817171
 40
0.7184340225
 40
0.787901412
 40
0.8581692881
 40
0.9289843641
 40
1.0
 40
1.0
 40
1.0
 40
1.0
 10
23.8825606318
 20
5.1751299113
 30
0.0
 10
23.886270267
 20
5.1741676211
 30
0.0
 10
23.893657317
 20
5.1717712188
 30
0.0
 10
23.9043707178
 20
5.1668713551
 30
0.0
 10
23.9147382535
 20
5.1606795617
 30
0.0
 10
23.9246779231
 20
5.1532414242
 30
0.0
 10
23.9341192921
 20
5.1446180918
 30
0.0
 10
23.9429905077
 20
5.1348735572
 30
0.0
 10
23.9512286255
 20
5.1240826568
 30
0.0
 10
23.9614134107
 20
5.1082095144
 30
0.0
 10
23.969919756
 20
5.0907635908
 30
0.0
 10
23.9767030323
 20
5.0721864038
 30
0.0
 10
23.9809693271
 20
5.0575150003
 30
0.0
 10
23.9843194795
 20
5.0423778642
 30
0.0
 10
23.9867315319
 20
5.0268849961
 30
0.0
 10
23.9881835003
 20
5.0111581556
 30
0.0
 10
23.9885085991
 20
5.0006004155
 30
0.0
 10
23.9885085991
 20
4.995315494
 30
0.0
 11
23.8825606318
 21
5.1751299113
 31
0.0
 11
23.8935001481
 21
5.1715924623
 31
0.0
 11
23.9041812541
 21
5.1667255996
 31
0.0
 11
23.9145239511
 21
5.1605678848
 31
0.0
 11
23.9244497231
 21
5.1531641239
 31
0.0
 11
23.9338843734
 21
5.1445713681
 31
0.0
 11
23.9427562301
 21
5.1348534344
 31
0.0
 11
23.9509989212
 21
5.1240841591
 31
0.0
 11
23.9585499896
 21
5.1123446013
 31
0.0
 11
23.9713558099
 21
5.08631432
 31
0.0
 11
23.9765138004
 21
5.0722195802
 31
0.0
 11
23.9807883906
 21
5.0575470844
 31
0.0
 11
23.9841464934
 21
5.0424058973
 31
0.0
 11
23.9865639163
 21
5.0269054518
 31
0.0
 11
23.9880211248
 21
5.0111627626
 31
0.0
 11
23.9885085991
 21
4.995315494
 31
0.0
  0
SPLINE
  5
3A2
100
AcDbEntity
  8
0
100
AcDbSpline
 62
7
  6
CONTINUOUS
 70
0
 71
3
 72
22
 73
18
 74
16
 42
0.0000001
 43
0.0000001
 44
0.0000000001
 12
0.0
 22
-0.2232573746
 32
0.0
 13
0.2161049029
 23
-0.0560582398
 33
0.0
 40
0.0
 40
0.0
 40
0.0
 40
0.0
 40
0.0710156359
 40
0.1418307119
 40
0.212098588
 40
0.2815659775
 40
0.3500182829
 40
0.4172450993
 40
0.5471836178
 40
0.6097050073
 40
0.6704496215
 40
0.7293886567
 40
0.7865477731
 40
0.842012533
 40
0.8959277854
 40
0.948502299
 40
1.0
 40
1.0
 40
1.0
 40
1.0
 10
24.838712989
 20
4.995315494
 30
0.0
 10
24.838712989
 20
4.9900305725
 30
0.0
 10
24.8390380878
 20
4.9794728324
 30
0.0
 10
24.8404900562
 20
4.9637459919
 30
0.0
 10
24.8429021086
 20
4.9482531237
 30
0.0
 10
24.846252261
 20
4.9331159876
 30
0.0
 10
24.8505185558
 20
4.9184445841
 30
0.0
 10
24.8573018321
 20
4.8998673972
 30
0.0
 10
24.8658081774
 20
4.8824214735
 30
0.0
 10
24.8759929626
 20
4.8665483311
 30
0.0
 10
24.8842310804
 20
4.8557574307
 30
0.0
 10
24.893102296
 20
4.8460128962
 30
0.0
 10
24.902543665
 20
4.8373895638
 30
0.0
 10
24.9124833346
 20
4.8299514262
 30
0.0
 10
24.9228508703
 20
4.8237596329
 30
0.0
 10
24.9335642711
 20
4.8188597692
 30
0.0
 10
24.9409513211
 20
4.8164633669
 30
0.0
 10
24.9446609563
 20
4.8155010767
 30
0.0
 11
24.838712989
 21
4.995315494
 31
0.0
 11
24.8392004633
 21
4.9794682253
 31
0.0
 11
24.8406576718
 21
4.9637255362
 31
0.0
 11
24.8430750947
 21
4.9482250906
 31
0.0
 11
24.8464331975
 21
4.9330839036
 31
0.0
 11
24.8507077877
 21
4.9184114077
 31
0.0
 11
24.8558657782
 21
4.904316668
 31
0.0
 11
24.8686715985
 21
4.8782863867
 31
0.0
 11
24.8762226669
 21
4.8665468289
 31
0.0
 11
24.884465358
 21
4.8557775536
 31
0.0
 11
24.8933372147
 21
4.8460596199
 31
0.0
 11
24.902771865
 21
4.837466864
 31
0.0
 11
24.912697637
 21
4.8300631031
 31
0.0
 11
24.923040334
 21
4.8239053884
 31
0.0
 11
24.93372144
 21
4.8190385256
 31
0.0
 11
24.9446609563
 21
4.8155010767
 31
0.0
  0
SPLINE
  5
3A3
100
AcDbEntity
  8
0
100
AcDbSpline
 62
7
  6
CONTINUOUS
 70
0
 71
3
 72
22
 73
18
 74
16
 42
0.0000001
 43
0.0000001
 44
0.0000000001
 12
0.0
 22
0.2232511683
 32
0.0
 13
0.2160952667
 23
0.0560706685
 33
0.0
 40
0.0
 40
0.0
 40
0.0
 40
0.0
 40
0.0710151932
 40
0.141829847
 40
0.2120973431
 40
0.2815644073
 40
0.3500164572
 40
0.4172431028
 40
0.5471815725
 40
0.609703078
 40
0.6704478948
 40
0.7293872074
 40
0.7865466507
 40
0.8420117601
 40
0.8959273444
 40
0.9485021321
 40
1.0
 40
1.0
 40
1.0
 40
1.0
 10
24.838712989
 20
4.995315494
 30
0.0
 10
24.838712989
 20
5.0006002356
 30
0.0
 10
24.8390380658
 20
5.0111576177
 30
0.0
 10
24.8404899359
 20
5.0268839326
 30
0.0
 10
24.8429018255
 20
5.0423762992
 30
0.0
 10
24.846251754
 20
5.0575129694
 30
0.0
 10
24.850517766
 20
5.0721839535
 30
0.0
 10
24.8573006043
 20
5.0907606767
 30
0.0
 10
24.8658064078
 20
5.108206247
 30
0.0
 10
24.8759905561
 20
5.124079197
 30
0.0
 10
24.8842281794
 20
5.1348700537
 30
0.0
 10
24.8930988766
 20
5.1446146435
 30
0.0
 10
24.9025397152
 20
5.1532381317
 30
0.0
 10
24.9124788473
 20
5.1606765328
 30
0.0
 10
24.9228458507
 20
5.1668686964
 30
0.0
 10
24.9335587315
 20
5.1717690414
 30
0.0
 10
24.9409454572
 20
5.1741658435
 30
0.0
 10
24.944654939
 20
5.1751283501
 30
0.0
 11
24.838712989
 21
4.995315494
 31
0.0
 11
24.8392004301
 21
5.0111622238
 31
0.0
 11
24.8406575397
 21
5.0269043861
 31
0.0
 11
24.8430747992
 21
5.0424043299
 31
0.0
 11
24.8464326769
 21
5.0575450509
 31
0.0
 11
24.8507069834
 21
5.0722171275
 31
0.0
 11
24.8558646363
 21
5.0863115059
 31
0.0
 11
24.8686696405
 21
5.1123412778
 31
0.0
 11
24.8762202429
 21
5.1240807047
 31
0.0
 11
24.8844624397
 21
5.1348499406
 31
0.0
 11
24.8933337808
 21
5.1445679336
 31
0.0
 11
24.9027679034
 21
5.1531608503
 31
0.0
 11
24.9126931439
 21
5.1605648786
 31
0.0
 11
24.923035315
 21
5.1667229673
 31
0.0
 11
24.9337159097
 21
5.1715903126
 31
0.0
 11
24.944654939
 21
5.1751283501
 31
0.0
  0
SPLINE
  5
3A4
100
AcDbEntity
  8
0
100
AcDbSpline
 62
6
  6
CONTINUOUS
 70
0
 71
3
 72
39
 73
35
 74
33
 42
0.0000001
 43
0.0000001
 44
0.0000000001
 12
-0.0405358103
 22
0.0358052121
 32
0.0
 13
0.0508843586
 23
0.0183288619
 33
0.0
 40
0.0
 40
0.0
 40
0.0
 40
0.0
 40
0.0030237089
 40
0.0048355685
 40
0.0054659353
 40
0.0059852336
 40
0.0066663111
 40
0.0076232894
 40
0.0088523687
 40
0.010349332
 40
0.0121098571
 40
0.0141296713
 40
0.0189302938
 40
0.0247181046
 40
0.0314606235
 40
0.0391240051
 40
0.0476739627
 40
0.0672993327
 40
0.0900745764
 40
0.11573864
 40
0.1440385596
 40
0.1747290872
 40
0.2075709115
 40
0.2423330523
 40
0.2787943244
 40
0.3559464543
 40
0.4373922293
 40
0.5215714504
 40
0.6069827109
 40
0.6921480352
 40
0.7755878284
 40
0.8557808749
 40
0.9311453628
 40
1.0
 40
1.0
 40
1.0
 40
1.0
 10
24.7910792123
 20
5.1145517191
 30
0.0
 10
24.7910383561
 20
5.1145878073
 30
0.0
 10
24.7909633589
 20
5.1146524053
 30
0.0
 10
24.7909111087
 20
5.1146977951
 30
0.0
 10
24.790841045
 20
5.1147544638
 30
0.0
 10
24.7908827699
 20
5.1147214823
 30
0.0
 10
24.7909080976
 20
5.1147023545
 30
0.0
 10
24.7909517567
 20
5.1146694001
 30
0.0
 10
24.7910042607
 20
5.1146306975
 30
0.0
 10
24.7910700538
 20
5.1145829251
 30
0.0
 10
24.7911473974
 20
5.1145277645
 30
0.0
 10
24.7912741135
 20
5.1144389144
 30
0.0
 10
24.7914618722
 20
5.1143108417
 30
0.0
 10
24.7917228643
 20
5.1141390151
 30
0.0
 10
24.7920303001
 20
5.1139440019
 30
0.0
 10
24.7923834296
 20
5.1137281494
 30
0.0
 10
24.7929401985
 20
5.1134002802
 30
0.0
 10
24.7937436776
 20
5.1129547375
 30
0.0
 10
24.7948363803
 20
5.1123959144
 30
0.0
 10
24.7960883739
 20
5.111806654
 30
0.0
 10
24.7974906475
 20
5.1112035617
 30
0.0
 10
24.7990327426
 20
5.1106003419
 30
0.0
 10
24.8007037921
 20
5.1100095582
 30
0.0
 10
24.8024931493
 20
5.1094444006
 30
0.0
 10
24.8050696812
 20
5.1087239468
 30
0.0
 10
24.8085028192
 20
5.1079492444
 30
0.0
 10
24.8128302292
 20
5.1072724734
 30
0.0
 10
24.8173415022
 20
5.1068707675
 30
0.0
 10
24.8219365839
 20
5.1067690956
 30
0.0
 10
24.8265149628
 20
5.1069719873
 30
0.0
 10
24.8309760825
 20
5.1074689695
 30
0.0
 10
24.8352203648
 20
5.1082298198
 30
0.0
 10
24.8391491659
 20
5.1092074558
 30
0.0
 10
24.8416271125
 20
5.1100023234
 30
0.0
 10
24.8427949872
 20
5.1104229991
 30
0.0
 11
24.7910792123
 21
5.1145517191
 31
0.0
 11
24.7909558141
 21
5.114659037
 31
0.0
 11
24.790880863
 21
5.1147221652
 31
0.0
 11
24.7908544717
 21
5.1147437487
 31
0.0
 11
24.7908766001
 21
5.1147264522
 31
0.0
 11
24.790905846
 21
5.1147040567
 31
0.0
 11
24.7909472062
 21
5.1146729404
 31
0.0
 11
24.7910006684
 21
5.1146334352
 31
0.0
 11
24.7910661829
 21
5.1145858659
 31
0.0
 11
24.7911436885
 21
5.1145305551
 31
0.0
 11
24.7912331235
 21
5.1144678253
 31
0.0
 11
24.7914475359
 21
5.1143213992
 31
0.0
 11
24.7917089282
 21
5.1141491684
 31
0.0
 11
24.7920167812
 21
5.1139536969
 31
0.0
 11
24.7923703435
 21
5.1137374076
 31
0.0
 11
24.7927687455
 21
5.1135026511
 31
0.0
 11
24.7936965856
 21
5.1129871365
 31
0.0
 11
24.7947927987
 21
5.1124253231
 31
0.0
 11
24.7960484185
 21
5.1118336628
 31
0.0
 11
24.7974541413
 21
5.1112281338
 31
0.0
 11
24.7989996995
 21
5.1106227513
 31
0.0
 11
24.8006742432
 21
5.1100303463
 31
0.0
 11
24.8024668239
 21
5.1094633871
 31
0.0
 11
24.8043658433
 21
5.1089318695
 31
0.0
 11
24.8084356607
 21
5.1080107349
 31
0.0
 11
24.8127873533
 21
5.1073276508
 31
0.0
 11
24.8173221444
 21
5.1069229253
 31
0.0
 11
24.8219404532
 21
5.1068202253
 31
0.0
 11
24.8265420512
 21
5.1070249359
 31
0.0
 11
24.8310269817
 21
5.1075259156
 31
0.0
 11
24.8352957113
 21
5.1082936815
 31
0.0
 11
24.8392503246
 21
5.1092813069
 31
0.0
 11
24.8427949872
 21
5.1104229991
 31
0.0
  0
SPLINE
  5
3A5
100
AcDbEntity
  8
0
100
AcDbSpline
 62
6
  6
CONTINUOUS
 70
0
 71
3
 72
22
 73
18
 74
16
 42
0.0000001
 43
0.0000001
 44
0.0000000001
 12
-0.2698756325
 22
0.0045902424
 32
0.0
 13
0.0
 23
-0.2699146668
 33
0.0
 40
0.0
 40
0.0
 40
0.0
 40
0.0
 40
0.0540871124
 40
0.1084649617
 40
0.1634562756
 40
0.2193625654
 40
0.2764512942
 40
0.3349418409
 40
0.3949945815
 40
0.4567031604
 40
0.5200918726
 40
0.5851166294
 40
0.6516697163
 40
0.7195863635
 40
0.7886533542
 40
0.8586180366
 40
1.0
 40
1.0
 40
1.0
 40
1.0
 10
24.9604744524
 20
5.1913001698
 30
0.0
 10
24.9556088545
 20
5.1913829275
 30
0.0
 10
24.9458267792
 20
5.1908736801
 30
0.0
 10
24.9313407126
 20
5.1880986221
 30
0.0
 10
24.9171989152
 20
5.1833633046
 30
0.0
 10
24.9035656825
 20
5.176747852
 30
0.0
 10
24.890577917
 20
5.1683524066
 30
0.0
 10
24.8783527107
 20
5.1582889455
 30
0.0
 10
24.8669898789
 20
5.1466767552
 30
0.0
 10
24.8565766139
 20
5.1336408254
 30
0.0
 10
24.8471906912
 20
5.1193119587
 30
0.0
 10
24.8389022585
 20
5.1038277584
 30
0.0
 10
24.8317742204
 20
5.0873332949
 30
0.0
 10
24.825861999
 20
5.069982273
 30
0.0
 10
24.82121239
 20
5.0519333053
 30
0.0
 10
24.8167332668
 20
5.0270892089
 30
0.0
 10
24.8153931952
 20
5.0080358492
 30
0.0
 10
24.8153931952
 20
4.995315494
 30
0.0
 11
24.9604744524
 21
5.1913001698
 31
0.0
 11
24.9458951556
 21
5.1905437775
 31
0.0
 11
24.9314777702
 21
5.1877934223
 31
0.0
 11
24.9173974121
 21
5.1830969299
 31
0.0
 11
24.9038115664
 21
5.1765295322
 31
0.0
 11
24.8908569367
 21
5.1681858234
 31
0.0
 11
24.8786510105
 21
5.1581728745
 31
0.0
 11
24.8672955546
 21
5.146606153
 31
0.0
 11
24.8568803653
 21
5.133608159
 31
0.0
 11
24.8474859812
 21
5.1193084382
 31
0.0
 11
24.839185155
 21
5.1038443299
 31
0.0
 11
24.8320430751
 21
5.0873615034
 31
0.0
 11
24.8261169813
 21
5.0700140942
 31
0.0
 11
24.8214553788
 21
5.0519641398
 31
0.0
 11
24.8180971386
 21
5.0333806436
 31
0.0
 11
24.8153931952
 21
4.995315494
 31
0.0
  0
SPLINE
  5
3A6
100
AcDbEntity
  8
0
100
AcDbSpline
 62
6
  6
CONTINUOUS
 70
0
 71
3
 72
19
 73
15
 74
13
 42
0.0000001
 43
0.0000001
 44
0.0000000001
 12
-0.0501644482
 22
0.0179933428
 32
0.0
 13
-0.0436110215
 23
-0.0306318634
 33
0.0
 40
0.0
 40
0.0
 40
0.0
 40
0.0
 40
0.0622296281
 40
0.1298536337
 40
0.2016430125
 40
0.2764397017
 40
0.4305582768
 40
0.5836465682
 40
0.7270058456
 40
0.8513095908
 40
0.9031357571
 40
0.9461959502
 40
0.9789969756
 40
1.0
 40
1.0
 40
1.0
 40
1.0
 10
24.842726301
 20
4.8802329076
 30
0.0
 10
24.8416857293
 20
4.8806061473
 30
0.0
 10
24.8394892145
 20
4.8813161772
 30
0.0
 10
24.83601978
 20
4.88221549
 30
0.0
 10
24.8322832514
 20
4.882948529
 30
0.0
 10
24.8269870933
 20
4.8836657187
 30
0.0
 10
24.8201901594
 20
4.8839690448
 30
0.0
 10
24.8121890104
 20
4.8833832108
 30
0.0
 10
24.8048334138
 20
4.8819632382
 30
0.0
 10
24.7994098315
 20
4.8802409968
 30
0.0
 10
24.7958223897
 20
4.8787218749
 30
0.0
 10
24.7937881191
 20
4.8777151572
 30
0.0
 10
24.7922926071
 20
4.8768622768
 30
0.0
 10
24.7914892375
 20
4.8763432217
 30
0.0
 10
24.7911839164
 20
4.8761287678
 30
0.0
 11
24.842726301
 21
4.8802329076
 31
0.0
 11
24.8395717983
 21
4.8812566203
 31
0.0
 11
24.8360836594
 21
4.8821628688
 31
0.0
 11
24.83232976
 21
4.8829017777
 31
0.0
 11
24.8283797414
 21
4.8834376508
 31
0.0
 11
24.8201745234
 21
4.8838079397
 31
0.0
 11
24.8120380572
 21
4.8832065483
 31
0.0
 11
24.804539156
 21
4.8817441533
 31
0.0
 11
24.798232892
 21
4.8797151979
 31
0.0
 11
24.7956912367
 21
4.8786341271
 31
0.0
 11
24.7936367085
 21
4.8776117688
 31
0.0
 11
24.7921206103
 21
4.8767415546
 31
0.0
 11
24.7911839164
 21
4.8761287678
 31
0.0
  0
SPLINE
  5
3A7
100
AcDbEntity
  8
0
100
AcDbSpline
 62
6
  6
CONTINUOUS
 70
0
 71
3
 72
22
 73
18
 74
16
 42
0.0000001
 43
0.0000001
 44
0.0000000001
 12
0.0
 22
-0.2698756836
 32
0.0
 13
0.2698383237
 23
0.0044904013
 33
0.0
 40
0.0
 40
0.0
 40
0.0
 40
0.0
 40
0.141379095
 40
0.2113425634
 40
0.2804086235
 40
0.3483246937
 40
0.4148776008
 40
0.4799025844
 40
0.5432919085
 40
0.6050014215
 40
0.6650553172
 40
0.7235470969
 40
0.7806369768
 40
0.8365441792
 40
0.8915359744
 40
0.9459137165
 40
1.0
 40
1.0
 40
1.0
 40
1.0
 10
24.8153931952
 20
4.995315494
 30
0.0
 10
24.8153931952
 20
4.982597234
 30
0.0
 10
24.8167328269
 20
4.9635470073
 30
0.0
 10
24.8212104747
 20
4.9387068139
 30
0.0
 10
24.8258585671
 20
4.9206604955
 30
0.0
 10
24.8317688778
 20
4.9033117876
 30
0.0
 10
24.8388946394
 20
4.8868192287
 30
0.0
 10
24.8471804659
 20
4.8713364544
 30
0.0
 10
24.856563487
 20
4.8570084677
 30
0.0
 10
24.8669735985
 20
4.8439728091
 30
0.0
 10
24.8783330801
 20
4.8323602274
 30
0.0
 10
24.8905547956
 20
4.8222956521
 30
0.0
 10
24.9035390044
 20
4.8138983097
 30
0.0
 10
24.9171687252
 20
4.807280158
 30
0.0
 10
24.9313071626
 20
4.8025412999
 30
0.0
 10
24.9457901601
 20
4.7997618683
 30
0.0
 10
24.9555705434
 20
4.7992492102
 30
0.0
 10
24.9604353941
 20
4.7993301666
 30
0.0
 11
24.8153931952
 21
4.995315494
 31
0.0
 11
24.8180962436
 21
4.9572565823
 31
0.0
 11
24.8214533778
 21
4.9386759907
 31
0.0
 11
24.8261134562
 21
4.920628683
 31
0.0
 11
24.8320376314
 21
4.9032835807
 31
0.0
 11
24.8391774289
 21
4.8868026457
 31
0.0
 11
24.8474756448
 21
4.8713399439
 31
0.0
 11
24.8568671292
 21
4.8570410773
 31
0.0
 11
24.8672791757
 21
4.8440433248
 31
0.0
 11
24.8786313012
 21
4.8324761778
 31
0.0
 11
24.8908337679
 21
4.8224620826
 31
0.0
 11
24.9037848853
 21
4.8141164576
 31
0.0
 11
24.9173672714
 21
4.8075463462
 31
0.0
 11
24.9314443271
 21
4.8028463194
 31
0.0
 11
24.9458586964
 21
4.8000916247
 31
0.0
 11
24.9604353941
 21
4.7993301666
 31
0.0
  0
SPLINE
  5
3A8
100
AcDbEntity
  8
0
100
AcDbSpline
 62
6
  6
CONTINUOUS
 70
0
 71
3
 72
17
 73
13
 74
11
 42
0.0000001
 43
0.0000001
 44
0.0000000001
 12
0.0667223208
 22
-0.1224282195
 32
0.0
 13
0.1386635252
 23
-0.0145932793
 33
0.0
 40
0.0
 40
0.0
 40
0.0
 40
0.0
 40
0.1339725239
 40
0.2648849262
 40
0.3928241364
 40
0.5180256004
 40
0.6408526493
 40
0.7617588931
 40
0.8216847908
 40
0.8813230206
 40
0.9407399803
 40
1.0
 40
1.0
 40
1.0
 40
1.0
 10
24.0284574677
 20
4.879755339
 30
0.0
 10
24.0314371203
 20
4.8742879998
 30
0.0
 10
24.0378319481
 20
4.8637422077
 30
0.0
 10
24.0488179809
 20
4.8491219539
 30
0.0
 10
24.061016701
 20
4.8360420477
 30
0.0
 10
24.0743384837
 20
4.8246720242
 30
0.0
 10
24.0886710357
 20
4.8151803473
 30
0.0
 10
24.10138628
 20
4.8089518455
 30
0.0
 10
24.1118803334
 20
4.8050854221
 30
0.0
 10
24.1198735246
 20
4.8027564147
 30
0.0
 10
24.1279805623
 20
4.8010050332
 30
0.0
 10
24.133447088
 20
4.8002288888
 30
0.0
 10
24.1361861558
 20
4.7999406227
 30
0.0
 11
24.0284574677
 21
4.879755339
 31
0.0
 11
24.0381650002
 21
4.8637961736
 31
0.0
 11
24.049152478
 21
4.8492205651
 31
0.0
 11
24.0613409811
 21
4.8361955244
 31
0.0
 11
24.0746384552
 21
4.8248855507
 31
0.0
 11
24.0889328918
 21
4.815453773
 31
0.0
 11
24.10408252
 21
4.8080594
 31
0.0
 11
24.1119235146
 21
4.8051728841
 31
0.0
 11
24.1199074622
 21
4.8028488579
 31
0.0
 11
24.1280054742
 21
4.8011011196
 31
0.0
 11
24.1361861558
 21
4.7999406227
 31
0.0
  0
SPLINE
  5
3A9
100
AcDbEntity
  8
0
100
AcDbSpline
 62
6
  6
CONTINUOUS
 70
0
 71
3
 72
17
 73
13
 74
11
 42
0.0000001
 43
0.0000001
 44
0.0000000001
 12
-0.1386490676
 22
-0.0145815313
 32
0.0
 13
-0.0667293394
 23
-0.1224066185
 33
0.0
 40
0.0
 40
0.0
 40
0.0
 40
0.0
 40
0.059260742
 40
0.1186783397
 40
0.1783171699
 40
0.2382436032
 40
0.3591506473
 40
0.4819780369
 40
0.6071793045
 40
0.7351177827
 40
0.8660289949
 40
1.0
 40
1.0
 40
1.0
 40
1.0
 10
24.1361944582
 20
5.1906912378
 30
0.0
 10
24.1334556427
 20
5.1904032004
 30
0.0
 10
24.1279896074
 20
5.1896275552
 30
0.0
 10
24.1198832449
 20
5.1878770179
 30
0.0
 10
24.1118906656
 20
5.1855489512
 30
0.0
 10
24.1013973434
 20
5.181683907
 30
0.0
 10
24.0886828369
 20
5.1754573364
 30
0.0
 10
24.0743508495
 20
5.1659682189
 30
0.0
 10
24.0610293256
 20
5.1546009583
 30
0.0
 10
24.0488305559
 20
5.1415239735
 30
0.0
 10
24.0378441569
 20
5.1269067574
 30
0.0
 10
24.0314488711
 20
5.1163630061
 30
0.0
 10
24.0284689389
 20
5.1108966936
 30
0.0
 11
24.1361944582
 21
5.1906912378
 31
0.0
 11
24.1280145039
 21
5.1895314829
 31
0.0
 11
24.1199171675
 21
5.1877845883
 31
0.0
 11
24.1119338291
 21
5.1854615001
 31
0.0
 11
24.104093374
 21
5.1825760102
 31
0.0
 11
24.0889446083
 21
5.175183918
 31
0.0
 11
24.0746507366
 21
5.1657546788
 31
0.0
 11
24.061353527
 21
5.1544474527
 31
0.0
 11
24.0491649832
 21
5.1414253247
 31
0.0
 11
24.0381771497
 21
5.1268527509
 31
0.0
 11
24.0284689389
 21
5.1108966936
 31
0.0
  0
SPLINE
  5
3AA
100
AcDbEntity
  8
0
100
AcDbSpline
 62
7
  6
CONTINUOUS
 70
0
 71
3
 72
10
 73
6
 74
4
 42
0.0000001
 43
0.0000001
 44
0.0000000001
 12
-0.0012760757
 22
-0.0036079231
 32
0.0
 13
0.0002318123
 23
-0.0038199138
 33
0.0
 40
0.0
 40
0.0
 40
0.0
 40
0.0
 40
0.2452367227
 40
0.6189499283
 40
1.0
 40
1.0
 40
1.0
 40
1.0
 10
24.410610794
 20
27.243315494
 30
0.0
 10
24.4105064805
 20
27.2430205622
 30
0.0
 10
24.4103470534
 20
27.2422379125
 30
0.0
 10
24.4103976844
 20
27.2409562483
 30
0.0
 10
24.4105082339
 20
27.2400006309
 30
0.0
 10
24.4105376779
 20
27.2395154381
 30
0.0
 11
24.410610794
 21
27.243315494
 31
0.0
 11
24.4104100933
 21
27.2423986987
 31
0.0
 11
24.4104150468
 21
27.2409685288
 31
0.0
 11
24.4105376779
 21
27.2395154381
 31
0.0
  0
SPLINE
  5
3AB
100
AcDbEntity
  8
0
100
AcDbSpline
 62
7
  6
CONTINUOUS
 70
0
 71
3
 72
48
 73
44
 74
42
 42
0.0000001
 43
0.0000001
 44
0.0000000001
 12
0.0142063177
 22
-0.2340984838
 32
0.0
 13
-0.0434667574
 23
0.230465964
 33
0.0
 40
0.0
 40
0.0
 40
0.0
 40
0.0
 40
0.0078506362
 40
0.0156409905
 40
0.0234450155
 40
0.0312609883
 40
0.0390742487
 40
0.0468849597
 40
0.0546958529
 40
0.0625070577
 40
0.0781285979
 40
0.0937501636
 40
0.1093714215
 40
0.1249923971
 40
0.1562268169
 40
0.1874593192
 40
0.218690847
 40
0.2499224273
 40
0.2811562326
 40
0.2967767513
 40
0.3123982948
 40
0.3436348422
 40
0.3748671463
 40
0.4060987632
 40
0.4373316556
 40
0.468569828
 40
0.4998060441
 40
0.5310411653
 40
0.5622831306
 40
0.593528105
 40
0.6247728652
 40
0.6560209561
 40
0.6872712984
 40
0.7185243374
 40
0.7497955221
 40
0.7810590394
 40
0.796694916
 40
0.8123364427
 40
0.8436228589
 40
0.8749045562
 40
0.9061903392
 40
0.9374727622
 40
1.0
 40
1.0
 40
1.0
 40
1.0
 10
24.4105376779
 20
27.2395154381
 30
0.0
 10
24.4105748541
 20
27.2389028307
 30
0.0
 10
24.4105487894
 20
27.2376764367
 30
0.0
 10
24.4103615392
 20
27.2358534726
 30
0.0
 10
24.4102111513
 20
27.2340293748
 30
0.0
 10
24.4100651612
 20
27.2322032551
 30
0.0
 10
24.4098733726
 20
27.2303806277
 30
0.0
 10
24.4096384995
 20
27.2285635813
 30
0.0
 10
24.4093738113
 20
27.2267508394
 30
0.0
 10
24.408984041
 20
27.2243395408
 30
0.0
 10
24.4084164787
 20
27.2213388545
 30
0.0
 10
24.4075994209
 20
27.2177665796
 30
0.0
 10
24.4066485919
 20
27.2142274792
 30
0.0
 10
24.4051958348
 20
27.2095632617
 30
0.0
 10
24.4030238655
 20
27.2038496483
 30
0.0
 10
24.3998251515
 20
27.1972488902
 30
0.0
 10
24.396016118
 20
27.1909785179
 30
0.0
 10
24.391591527
 20
27.1851246114
 30
0.0
 10
24.3874010412
 20
27.1806675153
 30
0.0
 10
24.3837728097
 20
27.1773947183
 30
0.0
 10
24.379973104
 20
27.1743224049
 30
0.0
 10
24.3749348342
 20
27.170855472
 30
0.0
 10
24.368520067
 20
27.1672971956
 30
0.0
 10
24.3618064308
 20
27.1643428486
 30
0.0
 10
24.3548569154
 20
27.1619970805
 30
0.0
 10
24.3477294974
 20
27.1602648452
 30
0.0
 10
24.3404773518
 20
27.1591618989
 30
0.0
 10
24.3331544833
 20
27.1587181305
 30
0.0
 10
24.3258210931
 20
27.158939144
 30
0.0
 10
24.3185359555
 20
27.1598118807
 30
0.0
 10
24.3113562138
 20
27.1613256991
 30
0.0
 10
24.3043365745
 20
27.1634630892
 30
0.0
 10
24.2975305963
 20
27.1662085893
 30
0.0
 10
24.2910010195
 20
27.1695648109
 30
0.0
 10
24.2848182512
 20
27.1735268545
 30
0.0
 10
24.2800254625
 20
27.1773388009
 30
0.0
 10
24.2764645609
 20
27.1806925127
 30
0.0
 10
24.2730967628
 20
27.1842423275
 30
0.0
 10
24.2692563362
 20
27.1890164043
 30
0.0
 10
24.2652784483
 20
27.1951963954
 30
0.0
 10
24.2619286564
 20
27.2017368093
 30
0.0
 10
24.258269498
 20
27.2108162197
 30
0.0
 10
24.2563907966
 20
27.2179456187
 30
0.0
 10
24.2554848445
 20
27.2227490854
 30
0.0
 11
24.4105376779
 21
27.2395154381
 31
0.0
 11
24.4105237839
 21
27.2376742875
 31
0.0
 11
24.4103677304
 21
27.235853899
 31
0.0
 11
24.4102119843
 21
27.2340302663
 31
0.0
 11
24.4100575142
 21
27.232203713
 31
0.0
 11
24.4098661614
 21
27.2303812941
 31
0.0
 11
24.4096335289
 21
27.2285642863
 31
0.0
 11
24.4093692082
 21
27.2267515738
 31
0.0
 11
24.4090761191
 21
27.2249432158
 31
0.0
 11
24.4083938132
 21
27.2213436042
 31
0.0
 11
24.4075771181
 21
27.2177720782
 31
0.0
 11
24.4066254384
 21
27.2142342023
 31
0.0
 11
24.405535135
 21
27.2107366299
 31
0.0
 11
24.4029250464
 21
27.2038920221
 31
0.0
 11
24.3997233785
 21
27.1973038545
 31
0.0
 11
24.3959135387
 21
27.1910479452
 31
0.0
 11
24.3914910279
 21
27.185209036
 31
0.0
 11
24.3864713524
 21
27.1798740604
 31
0.0
 11
24.3837514544
 21
27.177419851
 31
0.0
 11
24.3809034664
 21
27.1751151351
 31
0.0
 11
24.3748729903
 21
27.1709555815
 31
0.0
 11
24.3684701661
 21
27.1673978025
 31
0.0
 11
24.3617672832
 21
27.1644443389
 31
0.0
 11
24.3548277186
 21
27.1620994693
 31
0.0
 11
24.3477085872
 21
27.1603697063
 31
0.0
 11
24.3404655292
 21
27.1592717529
 31
0.0
 11
24.333153379
 21
27.1588289349
 31
0.0
 11
24.3258294954
 21
27.1590477417
 31
0.0
 11
24.3185535837
 21
27.1599187172
 31
0.0
 11
24.3113832172
 21
27.161429544
 31
0.0
 11
24.3043724526
 21
27.1635643466
 31
0.0
 11
24.2975771247
 21
27.1663101546
 31
0.0
 11
24.2910602028
 21
27.1696649932
 31
0.0
 11
24.2848898513
 21
27.1736291299
 31
0.0
 11
24.2791584744
 21
27.1782021555
 31
0.0
 11
24.2764891713
 21
27.1807165568
 31
0.0
 11
24.2739635606
 21
27.1833770839
 31
0.0
 11
24.2693612415
 21
27.1890918618
 31
0.0
 11
24.2653832637
 21
27.1952562336
 31
0.0
 11
24.2620293157
 21
27.2017822493
 31
0.0
 11
24.2592796616
 21
27.2085841379
 31
0.0
 11
24.2554848445
 21
27.2227490854
 31
0.0
  0
SPLINE
  5
3AC
100
AcDbEntity
  8
0
100
AcDbSpline
 62
7
  6
CONTINUOUS
 70
0
 71
3
 72
9
 73
5
 74
3
 42
0.0000001
 43
0.0000001
 44
0.0000000001
 12
-0.0038306871
 22
0.0203107629
 32
0.0
 13
-0.000000563
 23
0.0206688474
 33
0.0
 40
0.0
 40
0.0
 40
0.0
 40
0.0
 40
0.2502375985
 40
1.0
 40
1.0
 40
1.0
 40
1.0
 10
24.2554848445
 20
27.2227490854
 30
0.0
 10
24.2551653172
 20
27.2244432576
 30
0.0
 10
24.254058805
 20
27.2312450487
 30
0.0
 10
24.2536109348
 20
27.2381499191
 30
0.0
 10
24.253610794
 20
27.243315494
 30
0.0
 11
24.2554848445
 21
27.2227490854
 31
0.0
 11
24.2546527787
 21
27.22785384
 31
0.0
 11
24.253610794
 21
27.243315494
 31
0.0
  0
SPLINE
  5
3AD
100
AcDbEntity
  8
0
100
AcDbSpline
 62
7
  6
CONTINUOUS
 70
0
 71
3
 72
40
 73
36
 74
34
 42
0.0000001
 43
0.0000001
 44
0.0000000001
 12
0.0
 22
-0.1660947482
 32
0.0
 13
-0.0
 23
0.1660947482
 33
0.0
 40
0.0
 40
0.0
 40
0.0
 40
0.0
 40
0.0312400531
 40
0.0624820229
 40
0.0937335841
 40
0.1249864863
 40
0.1562491535
 40
0.1875281199
 40
0.2188045179
 40
0.2501146333
 40
0.2813953241
 40
0.3126728088
 40
0.3439684495
 40
0.3752347977
 40
0.4064890575
 40
0.4377447083
 40
0.4533782983
 40
0.4690208046
 40
0.4846654022
 40
0.5003010128
 40
0.5159259269
 40
0.5315511821
 40
0.5471858093
 40
0.5628238495
 40
0.5940550067
 40
0.6252766578
 40
0.6564979399
 40
0.6877286353
 40
0.718952767
 40
0.7501840067
 40
0.7814148
 40
0.8126476683
 40
0.8750722013
 40
0.9375291139
 40
1.0
 40
1.0
 40
1.0
 40
1.0
 10
24.289910794
 20
27.243315494
 30
0.0
 10
24.289910794
 20
27.2415858911
 30
0.0
 10
24.2899425432
 20
27.2381263774
 30
0.0
 10
24.2901365345
 20
27.2329395555
 30
0.0
 10
24.290525411
 20
27.2277622897
 30
0.0
 10
24.2911696346
 20
27.2226082922
 30
0.0
 10
24.2921364105
 20
27.2175019618
 30
0.0
 10
24.2934921864
 20
27.2124813285
 30
0.0
 10
24.2953192913
 20
27.207606195
 30
0.0
 10
24.2976799593
 20
27.2029630571
 30
0.0
 10
24.3005946197
 20
27.1986420518
 30
0.0
 10
24.3040697537
 20
27.1947581516
 30
0.0
 10
24.3080004599
 20
27.1913418544
 30
0.0
 10
24.3123058813
 20
27.1884144608
 30
0.0
 10
24.3169266793
 20
27.1860209848
 30
0.0
 10
24.3209946137
 20
27.184510076
 30
0.0
 10
24.3243475944
 20
27.1836381928
 30
0.0
 10
24.3269040309
 20
27.1831637629
 30
0.0
 10
24.3294884202
 20
27.1828772495
 30
0.0
 10
24.3320862818
 20
27.1827858515
 30
0.0
 10
24.334682425
 20
27.1828992905
 30
0.0
 10
24.3372610282
 20
27.1832189194
 30
0.0
 10
24.3398093802
 20
27.1837284619
 30
0.0
 10
24.3431492962
 20
27.1846427348
 30
0.0
 10
24.3471982034
 20
27.1861952124
 30
0.0
 10
24.3517872936
 20
27.1886367323
 30
0.0
 10
24.3560605638
 20
27.1915957585
 30
0.0
 10
24.3599665358
 20
27.1950254484
 30
0.0
 10
24.3634367788
 20
27.1988984375
 30
0.0
 10
24.3663946394
 20
27.2031752436
 30
0.0
 10
24.3688318128
 20
27.2077667782
 30
0.0
 10
24.371415724
 20
27.2141917223
 30
0.0
 10
24.3735234459
 20
27.2226155012
 30
0.0
 10
24.3747189313
 20
27.2329361775
 30
0.0
 10
24.374910794
 20
27.2398567986
 30
0.0
 10
24.374910794
 20
27.243315494
 30
0.0
 11
24.289910794
 21
27.243315494
 31
0.0
 11
24.2899669317
 21
27.2381269889
 31
0.0
 11
24.290168979
 21
27.2329417968
 31
0.0
 11
24.2905679424
 21
27.2277664317
 31
0.0
 11
24.291223266
 21
27.2226170201
 31
0.0
 11
24.2922009979
 21
27.2175173368
 31
0.0
 11
24.2935706434
 21
27.2125058577
 31
0.0
 11
24.2954074727
 21
27.2076465905
 31
0.0
 11
24.2977731313
 21
27.2030153601
 31
0.0
 11
24.3006881995
 21
27.1987146387
 31
0.0
 11
24.3041450709
 21
27.1948367095
 31
0.0
 11
24.3080643781
 21
27.1914222304
 31
0.0
 11
24.3123593278
 21
27.1885029006
 31
0.0
 11
24.3169700927
 21
27.1861177221
 31
0.0
 11
24.321840424
 21
27.1843203626
 31
0.0
 11
24.3243538661
 21
27.1836682605
 31
0.0
 11
24.3269085576
 21
27.183195108
 31
0.0
 11
24.3294913242
 21
27.1829097252
 31
0.0
 11
24.3320867663
 21
27.1828199909
 31
0.0
 11
24.3346794925
 21
27.1829336473
 31
0.0
 11
24.3372553546
 21
27.1832504684
 31
0.0
 11
24.3398021374
 21
27.1837578346
 31
0.0
 11
24.3423077931
 21
27.184442055
 31
0.0
 11
24.347154049
 21
27.1862919762
 31
0.0
 11
24.3517346833
 21
27.1887229875
 31
0.0
 11
24.3559989164
 21
27.1916738699
 31
0.0
 11
24.3598941065
 21
27.1950995236
 31
0.0
 11
24.3633511401
 21
27.1989654282
 31
0.0
 11
24.3663078268
 21
27.203227652
 31
0.0
 11
24.3687486563
 21
27.207804783
 31
0.0
 11
24.3706955012
 21
27.2126132286
 31
0.0
 11
24.3733008289
 21
27.2226489507
 31
0.0
 11
24.3745675522
 21
27.2329450867
 31
0.0
 11
24.374910794
 21
27.243315494
 31
0.0
  0
SPLINE
  5
3AE
100
AcDbEntity
  8
0
100
AcDbSpline
 62
7
  6
CONTINUOUS
 70
0
 71
3
 72
37
 73
33
 74
31
 42
0.0000001
 43
0.0000001
 44
0.0000000001
 12
0.0
 22
0.1660858137
 32
0.0
 13
0.0
 23
-0.1660858137
 33
0.0
 40
0.0
 40
0.0
 40
0.0
 40
0.0
 40
0.0624760579
 40
0.1249391468
 40
0.1873697024
 40
0.2186024833
 40
0.2498314762
 40
0.2810594963
 40
0.2966766169
 40
0.3122940537
 40
0.3435185084
 40
0.374735665
 40
0.4059533672
 40
0.4371873451
 40
0.4684308709
 40
0.4840550932
 40
0.4996876943
 40
0.5309516129
 40
0.5622028367
 40
0.5934686294
 40
0.6247242626
 40
0.6560001057
 40
0.6872987806
 40
0.718575914
 40
0.7498692464
 40
0.7811827345
 40
0.8124598147
 40
0.8437461763
 40
0.8750108694
 40
0.9062667804
 40
0.9375202192
 40
1.0
 40
1.0
 40
1.0
 40
1.0
 10
24.374910794
 20
27.243315494
 30
0.0
 10
24.374910794
 20
27.2467742896
 30
0.0
 10
24.3747189282
 20
27.2536951715
 30
0.0
 10
24.3735232505
 20
27.2640162253
 30
0.0
 10
24.3714154749
 20
27.2724402204
 30
0.0
 10
24.368831231
 20
27.27886489
 30
0.0
 10
24.3663953151
 20
27.2834562738
 30
0.0
 10
24.3639283328
 20
27.2870196142
 30
0.0
 10
24.3617030758
 20
27.2896691512
 30
0.0
 10
24.3593174663
 20
27.2921748946
 30
0.0
 10
24.3560624608
 20
27.2950336756
 30
0.0
 10
24.3517906412
 20
27.2979921767
 30
0.0
 10
24.3472014459
 20
27.300433593
 30
0.0
 10
24.3423465726
 20
27.3022972604
 30
0.0
 10
24.3381260529
 20
27.3033068555
 30
0.0
 10
24.3346884202
 20
27.3037285601
 30
0.0
 10
24.3312273037
 20
27.3038769435
 30
0.0
 10
24.3268939208
 20
27.3035657886
 30
0.0
 10
24.3218110877
 20
27.3024252448
 30
0.0
 10
24.3169317573
 20
27.3006114891
 30
0.0
 10
24.312309588
 20
27.2982179023
 30
0.0
 10
24.3080034767
 20
27.2952911171
 30
0.0
 10
24.3040692972
 20
27.2918779102
 30
0.0
 10
24.3005973624
 20
27.2879901002
 30
0.0
 10
24.2976834547
 20
27.2836683188
 30
0.0
 10
24.2953184334
 20
27.2790266128
 30
0.0
 10
24.2934923112
 20
27.2741505889
 30
0.0
 10
24.2921366379
 20
27.269129708
 30
0.0
 10
24.2911695542
 20
27.2640230064
 30
0.0
 10
24.2905255713
 20
27.258868857
 30
0.0
 10
24.2900067314
 20
27.2519666831
 30
0.0
 10
24.289910794
 20
27.2467744957
 30
0.0
 10
24.289910794
 20
27.243315494
 30
0.0
 11
24.374910794
 21
27.243315494
 31
0.0
 11
24.3745675222
 21
27.2536862013
 31
0.0
 11
24.3733006458
 21
27.2639827897
 31
0.0
 11
24.3706950412
 21
27.2740188971
 31
0.0
 11
24.3687482554
 21
27.2788270499
 31
0.0
 11
24.3663078762
 21
27.283403766
 31
0.0
 11
24.3633512188
 21
27.2876650196
 31
0.0
 11
24.3616830243
 21
27.28965118
 31
0.0
 11
24.3598953255
 21
27.2915305713
 31
0.0
 11
24.3560010911
 21
27.2949553197
 31
0.0
 11
24.3517378528
 21
27.2979059453
 31
0.0
 11
24.3471582103
 21
27.3003368312
 31
0.0
 11
24.3423123537
 21
27.3021883292
 31
0.0
 11
24.3372619466
 21
27.3033800563
 31
0.0
 11
24.3346860876
 21
27.3036943434
 31
0.0
 11
24.3320921678
 21
27.3038067292
 31
0.0
 11
24.3269127945
 21
27.3034378401
 31
0.0
 11
24.3218457049
 21
27.3023132521
 31
0.0
 11
24.3169743094
 21
27.3005147176
 31
0.0
 11
24.3123634775
 21
27.2981297799
 31
0.0
 11
24.3080666389
 21
27.2952109211
 31
0.0
 11
24.3041456058
 21
27.2917980825
 31
0.0
 11
24.3006909812
 21
27.2879186039
 31
0.0
 11
24.2977755278
 21
27.2836159448
 31
0.0
 11
24.2954074165
 21
27.2789856531
 31
0.0
 11
24.2935707326
 21
27.2741265086
 31
0.0
 11
24.2922010972
 21
27.2691140432
 31
0.0
 11
24.2912232763
 21
27.2640143187
 31
0.0
 11
24.2905680064
 21
27.258864678
 31
0.0
 11
24.2901689463
 21
27.2536892877
 31
0.0
 11
24.289910794
 21
27.243315494
 31
0.0
  0
SPLINE
  5
3AF
100
AcDbEntity
  8
0
100
AcDbSpline
 62
7
  6
CONTINUOUS
 70
0
 71
3
 72
9
 73
5
 74
3
 42
0.0000001
 43
0.0000001
 44
0.0000000001
 12
-0.0000005629
 22
0.0206646667
 32
0.0
 13
0.0038278197
 23
0.0203070491
 33
0.0
 40
0.0
 40
0.0
 40
0.0
 40
0.0
 40
0.249944781
 40
1.0
 40
1.0
 40
1.0
 40
1.0
 10
24.253610794
 20
27.243315494
 30
0.0
 10
24.2536107471
 20
27.2450371692
 30
0.0
 10
24.2537593099
 20
27.2519241044
 30
0.0
 10
24.25452605
 20
27.2588016063
 30
0.0
 10
24.2554830754
 20
27.2638787424
 30
0.0
 11
24.253610794
 21
27.243315494
 31
0.0
 11
24.2537236311
 21
27.2484792869
 31
0.0
 11
24.2554830754
 21
27.2638787424
 31
0.0
  0
SPLINE
  5
3B0
100
AcDbEntity
  8
0
100
AcDbSpline
 62
7
  6
CONTINUOUS
 70
0
 71
3
 72
48
 73
44
 74
42
 42
0.0000001
 43
0.0000001
 44
0.0000000001
 12
0.0434397422
 22
0.2304531139
 32
0.0
 13
-0.0087673657
 23
-0.2343475671
 33
0.0
 40
0.0
 40
0.0
 40
0.0
 40
0.0
 40
0.0625320673
 40
0.1250414996
 40
0.1563280854
 40
0.1876164455
 40
0.2032580603
 40
0.2188952272
 40
0.2501651526
 40
0.2814381762
 40
0.3126939463
 40
0.3439481044
 40
0.3751981587
 40
0.4064463431
 40
0.4376953316
 40
0.4689382396
 40
0.5001751842
 40
0.5314154954
 40
0.5626549199
 40
0.5938888134
 40
0.6251231352
 40
0.6563578056
 40
0.6875945513
 40
0.7188287029
 40
0.7500635996
 40
0.781298234
 40
0.8125326443
 40
0.8437684665
 40
0.8750064199
 40
0.8906293516
 40
0.9062524797
 40
0.9218760476
 40
0.9374997323
 40
0.945311955
 40
0.9531241952
 40
0.9609360177
 40
0.9687486277
 40
0.9765649115
 40
0.9804721519
 40
0.9843758141
 40
0.9882741844
 40
0.9921706959
 40
1.0
 40
1.0
 40
1.0
 40
1.0
 10
24.2554830754
 20
27.2638787424
 30
0.0
 10
24.2563885344
 20
27.2686823123
 30
0.0
 10
24.2588886045
 20
27.2781756731
 30
0.0
 10
24.263953338
 20
27.2893773939
 30
0.0
 10
24.2692536354
 20
27.2976119553
 30
0.0
 10
24.2730927078
 20
27.3023875723
 30
0.0
 10
24.2764608992
 20
27.3059368974
 30
0.0
 10
24.2800240299
 20
27.3092886067
 30
0.0
 10
24.284817053
 20
27.3131004534
 30
0.0
 10
24.2909991357
 20
27.3170642113
 30
0.0
 10
24.297529023
 20
27.3204201363
 30
0.0
 10
24.3043350566
 20
27.3231657505
 30
0.0
 10
24.3113549497
 20
27.3253029875
 30
0.0
 10
24.3185349277
 20
27.3268163434
 30
0.0
 10
24.3258197381
 20
27.3276918391
 30
0.0
 10
24.3331531481
 20
27.3279159476
 30
0.0
 10
24.3404758986
 20
27.3274693834
 30
0.0
 10
24.3477279477
 20
27.3263666359
 30
0.0
 10
24.3548558663
 20
27.324636562
 30
0.0
 10
24.3618051676
 20
27.3222904935
 30
0.0
 10
24.3685186893
 20
27.3193362456
 30
0.0
 10
24.3749333383
 20
27.3157775799
 30
0.0
 10
24.3809789394
 20
27.3116199768
 30
0.0
 10
24.386560018
 20
27.3068540105
 30
0.0
 10
24.3915905111
 20
27.3015095136
 30
0.0
 10
24.3960130831
 20
27.2956535624
 30
0.0
 10
24.3998228418
 20
27.2893836491
 30
0.0
 10
24.4030214756
 20
27.2827825335
 30
0.0
 10
24.4051935568
 20
27.2770687524
 30
0.0
 10
24.4066468202
 20
27.2724044782
 30
0.0
 10
24.4075978304
 20
27.268865219
 30
0.0
 10
24.4084140768
 20
27.2652925912
 30
0.0
 10
24.4089841825
 20
27.2622922124
 30
0.0
 10
24.4093733065
 20
27.2598806148
 30
0.0
 10
24.4096347948
 20
27.258067266
 30
0.0
 10
24.4098695857
 20
27.2562502572
 30
0.0
 10
24.4100698993
 20
27.2544286555
 30
0.0
 10
24.4101940288
 20
27.2529064378
 30
0.0
 10
24.4102853434
 20
27.2516882808
 30
0.0
 10
24.4103557545
 20
27.2507756762
 30
0.0
 10
24.410436751
 20
27.2498647115
 30
0.0
 10
24.4105419839
 20
27.2486482469
 30
0.0
 10
24.4105791428
 20
27.247729946
 30
0.0
 10
24.410556262
 20
27.2471183532
 30
0.0
 11
24.2554830754
 21
27.2638787424
 31
0.0
 11
24.2592769568
 21
27.2780439716
 31
0.0
 11
24.2653804735
 21
27.2913720879
 31
0.0
 11
24.2693585054
 21
27.2975371328
 31
0.0
 11
24.2739597891
 21
27.3032526213
 31
0.0
 11
24.2764856406
 21
27.305912568
 31
0.0
 11
24.2791561319
 21
27.3084257466
 31
0.0
 11
24.2848887884
 21
27.3129986939
 31
0.0
 11
24.2910584519
 21
27.3169636791
 31
0.0
 11
24.297575431
 21
27.320318602
 31
0.0
 11
24.3043710957
 21
27.3230644939
 31
0.0
 11
24.3113818367
 21
27.3251990632
 31
0.0
 11
24.31855243
 21
27.3267100359
 31
0.0
 11
24.3258284586
 21
27.3275833173
 31
0.0
 11
24.3331519509
 21
27.3278041657
 31
0.0
 11
24.3404638987
 21
27.3273600455
 31
0.0
 11
24.3477073654
 21
27.3262620554
 31
0.0
 11
24.3548265874
 21
27.324533755
 31
0.0
 11
24.3617658987
 21
27.3221891232
 31
0.0
 11
24.3684688199
 21
27.3192355388
 31
0.0
 11
24.3748716932
 21
27.3156778397
 31
0.0
 11
24.380901677
 21
27.3115184605
 31
0.0
 11
24.3864682326
 21
27.3067576112
 31
0.0
 11
24.3914892014
 21
27.3014242577
 31
0.0
 11
24.3959109515
 21
27.2955845648
 31
0.0
 11
24.3997209154
 21
27.2893285844
 31
0.0
 11
24.4029226811
 21
27.282740211
 31
0.0
 11
24.4055330111
 21
27.2758953978
 31
0.0
 11
24.4066236343
 21
27.2723977331
 31
0.0
 11
24.4075753591
 21
27.2688597004
 31
0.0
 11
24.4083920524
 21
27.2652879749
 31
0.0
 11
24.4090758753
 21
27.2616884197
 31
0.0
 11
24.4093682467
 21
27.2598798433
 31
0.0
 11
24.409630349
 21
27.2580666287
 31
0.0
 11
24.4098638264
 21
27.2562496052
 31
0.0
 11
24.4100613085
 21
27.2544281324
 31
0.0
 11
24.4102162058
 21
27.2526016803
 31
0.0
 11
24.4102856965
 21
27.2516880263
 31
0.0
 11
24.4103575644
 21
27.250775398
 31
0.0
 11
24.4104363966
 21
27.2498645904
 31
0.0
 11
24.4105108779
 21
27.2489538542
 31
0.0
 11
24.410556262
 21
27.2471183532
 31
0.0
  0
SPLINE
  5
3B1
100
AcDbEntity
  8
0
100
AcDbSpline
 62
7
  6
CONTINUOUS
 70
0
 71
3
 72
12
 73
8
 74
6
 42
0.0000001
 43
0.0000001
 44
0.0000000001
 12
-0.0001430688
 22
-0.0038241615
 32
0.0
 13
0.00119197
 23
-0.0036364663
 33
0.0
 40
0.0
 40
0.0
 40
0.0
 40
0.0
 40
0.25283083
 40
0.4427578454
 40
0.6305865232
 40
0.8155809299
 40
1.0
 40
1.0
 40
1.0
 40
1.0
 10
24.410556262
 20
27.2471183532
 30
0.0
 10
24.4105442046
 20
27.2467960646
 30
0.0
 10
24.410497127
 20
27.246232915
 30
0.0
 10
24.4104261438
 20
27.2454317701
 30
0.0
 10
24.4103959049
 20
27.2447139179
 30
0.0
 10
24.4104365827
 20
27.2440025902
 30
0.0
 10
24.41053752
 20
27.2435390386
 30
0.0
 10
24.410610794
 20
27.243315494
 30
0.0
 11
24.410556262
 21
27.2471183532
 31
0.0
 11
24.4104895378
 21
27.2461531144
 31
0.0
 11
24.4104315256
 21
27.2454286135
 31
0.0
 11
24.4104077451
 21
27.2447102173
 31
0.0
 11
24.410455175
 21
27.2440038645
 31
0.0
 11
24.410610794
 21
27.243315494
 31
0.0
  0
SPLINE
  5
3B2
100
AcDbEntity
  8
0
100
AcDbSpline
 62
7
  6
CONTINUOUS
 70
0
 71
3
 72
10
 73
6
 74
4
 42
0.0000001
 43
0.0000001
 44
0.0000000001
 12
-0.001280571
 22
0.0036104446
 32
0.0
 13
0.0002328133
 23
0.0038237377
 33
0.0
 40
0.0
 40
0.0
 40
0.0
 40
0.0
 40
0.2452150262
 40
0.6189184085
 40
1.0
 40
1.0
 40
1.0
 40
1.0
 10
24.410610794
 20
27.243315494
 30
0.0
 10
24.4105061223
 20
27.2436106057
 30
0.0
 10
24.410346061
 20
27.2443939506
 30
0.0
 10
24.41039669
 20
27.2456769537
 30
0.0
 10
24.4105075436
 20
27.2466335386
 30
0.0
 10
24.4105371172
 20
27.2471192573
 30
0.0
 11
24.410610794
 21
27.243315494
 31
0.0
 11
24.4104093342
 21
27.2442330113
 31
0.0
 11
24.410414123
 21
27.2456645932
 31
0.0
 11
24.4105371172
 21
27.2471192573
 31
0.0
  0
SPLINE
  5
3B3
100
AcDbEntity
  8
0
100
AcDbSpline
 62
6
  6
CONTINUOUS
 70
0
 71
3
 72
19
 73
15
 74
13
 42
0.0000001
 43
0.0000001
 44
0.0000000001
 12
0.0501644482
 22
-0.0179933428
 32
0.0
 13
0.0436110215
 23
0.0306318634
 33
0.0
 40
0.0
 40
0.0
 40
0.0
 40
0.0
 40
0.0622296281
 40
0.1298536337
 40
0.2016430125
 40
0.2764397017
 40
0.4305582768
 40
0.5836465682
 40
0.7270058456
 40
0.8513095908
 40
0.9031357571
 40
0.9461959502
 40
0.9789969756
 40
1.0
 40
1.0
 40
1.0
 40
1.0
 10
23.9844952871
 20
5.1103980804
 30
0.0
 10
23.9855358587
 20
5.1100248407
 30
0.0
 10
23.9877323736
 20
5.1093148108
 30
0.0
 10
23.9912018081
 20
5.1084154979
 30
0.0
 10
23.9949383367
 20
5.107682459
 30
0.0
 10
24.0002344948
 20
5.1069652693
 30
0.0
 10
24.0070314287
 20
5.1066619432
 30
0.0
 10
24.0150325777
 20
5.1072477772
 30
0.0
 10
24.0223881743
 20
5.1086677497
 30
0.0
 10
24.0278117566
 20
5.1103899911
 30
0.0
 10
24.0313991984
 20
5.1119091131
 30
0.0
 10
24.033433469
 20
5.1129158308
 30
0.0
 10
24.034928981
 20
5.1137687112
 30
0.0
 10
24.0357323506
 20
5.1142877663
 30
0.0
 10
24.0360376717
 20
5.1145022202
 30
0.0
 11
23.9844952871
 21
5.1103980804
 31
0.0
 11
23.9876497898
 21
5.1093743676
 31
0.0
 11
23.9911379287
 21
5.1084681191
 31
0.0
 11
23.9948918281
 21
5.1077292102
 31
0.0
 11
23.9988418467
 21
5.1071933372
 31
0.0
 11
24.0070470647
 21
5.1068230483
 31
0.0
 11
24.0151835309
 21
5.1074244396
 31
0.0
 11
24.0226824321
 21
5.1088868347
 31
0.0
 11
24.0289886961
 21
5.11091579
 31
0.0
 11
24.0315303514
 21
5.1119968609
 31
0.0
 11
24.0335848796
 21
5.1130192192
 31
0.0
 11
24.0351009778
 21
5.1138894334
 31
0.0
 11
24.0360376717
 21
5.1145022202
 31
0.0
  0
SPLINE
  5
3B4
100
AcDbEntity
  8
0
100
AcDbSpline
 62
6
  6
CONTINUOUS
 70
0
 71
3
 72
22
 73
18
 74
16
 42
0.0000001
 43
0.0000001
 44
0.0000000001
 12
0.0
 22
0.2698756836
 32
0.0
 13
-0.2698383237
 23
-0.0044904013
 33
0.0
 40
0.0
 40
0.0
 40
0.0
 40
0.0
 40
0.141379095
 40
0.2113425634
 40
0.2804086235
 40
0.3483246937
 40
0.4148776008
 40
0.4799025844
 40
0.5432919085
 40
0.6050014215
 40
0.6650553172
 40
0.7235470969
 40
0.7806369768
 40
0.8365441792
 40
0.8915359744
 40
0.9459137165
 40
1.0
 40
1.0
 40
1.0
 40
1.0
 10
24.0118283929
 20
4.995315494
 30
0.0
 10
24.0118283929
 20
5.0080337539
 30
0.0
 10
24.0104887612
 20
5.0270839807
 30
0.0
 10
24.0060111134
 20
5.0519241741
 30
0.0
 10
24.001363021
 20
5.0699704925
 30
0.0
 10
23.9954527103
 20
5.0873192004
 30
0.0
 10
23.9883269487
 20
5.1038117592
 30
0.0
 10
23.9800411222
 20
5.1192945336
 30
0.0
 10
23.9706581011
 20
5.1336225203
 30
0.0
 10
23.9602479896
 20
5.1466581788
 30
0.0
 10
23.948888508
 20
5.1582707606
 30
0.0
 10
23.9366667925
 20
5.1683353359
 30
0.0
 10
23.9236825837
 20
5.1767326783
 30
0.0
 10
23.9100528629
 20
5.1833508299
 30
0.0
 10
23.8959144255
 20
5.188089688
 30
0.0
 10
23.881431428
 20
5.1908691197
 30
0.0
 10
23.8716510447
 20
5.1913817777
 30
0.0
 10
23.866786194
 20
5.1913008214
 30
0.0
 11
24.0118283929
 21
4.995315494
 31
0.0
 11
24.0091253445
 21
5.0333744057
 31
0.0
 11
24.0057682103
 21
5.0519549973
 31
0.0
 11
24.0011081319
 21
5.070002305
 31
0.0
 11
23.9951839567
 21
5.0873474073
 31
0.0
 11
23.9880441592
 21
5.1038283423
 31
0.0
 11
23.9797459433
 21
5.1192910441
 31
0.0
 11
23.9703544589
 21
5.1335899107
 31
0.0
 11
23.9599424123
 21
5.1465876632
 31
0.0
 11
23.9485902869
 21
5.1581548101
 31
0.0
 11
23.9363878202
 21
5.1681689053
 31
0.0
 11
23.9234367028
 21
5.1765145304
 31
0.0
 11
23.9098543167
 21
5.1830846418
 31
0.0
 11
23.895777261
 21
5.1877846686
 31
0.0
 11
23.8813628917
 21
5.1905393632
 31
0.0
 11
23.866786194
 21
5.1913008214
 31
0.0
  0
SPLINE
  5
3B5
100
AcDbEntity
  8
0
100
AcDbSpline
 62
6
  6
CONTINUOUS
 70
0
 71
3
 72
39
 73
35
 74
33
 42
0.0000001
 43
0.0000001
 44
0.0000000001
 12
0.0405358103
 22
-0.0358052121
 32
0.0
 13
-0.0508843586
 23
-0.0183288619
 33
0.0
 40
0.0
 40
0.0
 40
0.0
 40
0.0
 40
0.0030237089
 40
0.0048355685
 40
0.0054659353
 40
0.0059852336
 40
0.0066663111
 40
0.0076232894
 40
0.0088523687
 40
0.010349332
 40
0.0121098571
 40
0.0141296713
 40
0.0189302938
 40
0.0247181046
 40
0.0314606235
 40
0.0391240051
 40
0.0476739627
 40
0.0672993327
 40
0.0900745764
 40
0.11573864
 40
0.1440385596
 40
0.1747290872
 40
0.2075709115
 40
0.2423330523
 40
0.2787943244
 40
0.3559464543
 40
0.4373922293
 40
0.5215714504
 40
0.6069827109
 40
0.6921480352
 40
0.7755878284
 40
0.8557808749
 40
0.9311453628
 40
1.0
 40
1.0
 40
1.0
 40
1.0
 10
24.0361423758
 20
4.8760792689
 30
0.0
 10
24.036183232
 20
4.8760431807
 30
0.0
 10
24.0362582292
 20
4.8759785826
 30
0.0
 10
24.0363104794
 20
4.8759331929
 30
0.0
 10
24.0363805431
 20
4.8758765241
 30
0.0
 10
24.0363388182
 20
4.8759095056
 30
0.0
 10
24.0363134905
 20
4.8759286334
 30
0.0
 10
24.0362698314
 20
4.8759615879
 30
0.0
 10
24.0362173274
 20
4.8760002905
 30
0.0
 10
24.0361515343
 20
4.8760480628
 30
0.0
 10
24.0360741907
 20
4.8761032235
 30
0.0
 10
24.0359474746
 20
4.8761920736
 30
0.0
 10
24.0357597159
 20
4.8763201462
 30
0.0
 10
24.0354987238
 20
4.8764919729
 30
0.0
 10
24.035191288
 20
4.8766869861
 30
0.0
 10
24.0348381585
 20
4.8769028386
 30
0.0
 10
24.0342813896
 20
4.8772307078
 30
0.0
 10
24.0334779105
 20
4.8776762504
 30
0.0
 10
24.0323852078
 20
4.8782350735
 30
0.0
 10
24.0311332142
 20
4.878824334
 30
0.0
 10
24.0297309406
 20
4.8794274263
 30
0.0
 10
24.0281888455
 20
4.880030646
 30
0.0
 10
24.026517796
 20
4.8806214298
 30
0.0
 10
24.0247284388
 20
4.8811865874
 30
0.0
 10
24.0221519069
 20
4.8819070412
 30
0.0
 10
24.0187187689
 20
4.8826817436
 30
0.0
 10
24.0143913589
 20
4.8833585146
 30
0.0
 10
24.0098800859
 20
4.8837602205
 30
0.0
 10
24.0052850042
 20
4.8838618923
 30
0.0
 10
24.0007066253
 20
4.8836590007
 30
0.0
 10
23.9962455056
 20
4.8831620185
 30
0.0
 10
23.9920012233
 20
4.8824011681
 30
0.0
 10
23.9880724222
 20
4.8814235322
 30
0.0
 10
23.9855944756
 20
4.8806286646
 30
0.0
 10
23.9844266009
 20
4.8802079888
 30
0.0
 11
24.0361423758
 21
4.8760792689
 31
0.0
 11
24.036265774
 21
4.875971951
 31
0.0
 11
24.0363407251
 21
4.8759088228
 31
0.0
 11
24.0363671164
 21
4.8758872392
 31
0.0
 11
24.036344988
 21
4.8759045357
 31
0.0
 11
24.0363157421
 21
4.8759269313
 31
0.0
 11
24.0362743819
 21
4.8759580475
 31
0.0
 11
24.0362209197
 21
4.8759975527
 31
0.0
 11
24.0361554052
 21
4.876045122
 31
0.0
 11
24.0360778996
 21
4.8761004329
 31
0.0
 11
24.0359884646
 21
4.8761631627
 31
0.0
 11
24.0357740522
 21
4.8763095887
 31
0.0
 11
24.0355126599
 21
4.8764818196
 31
0.0
 11
24.0352048069
 21
4.876677291
 31
0.0
 11
24.0348512446
 21
4.8768935804
 31
0.0
 11
24.0344528426
 21
4.8771283369
 31
0.0
 11
24.0335250025
 21
4.8776438514
 31
0.0
 11
24.0324287894
 21
4.8782056649
 31
0.0
 11
24.0311731696
 21
4.8787973252
 31
0.0
 11
24.0297674468
 21
4.8794028542
 31
0.0
 11
24.0282218886
 21
4.8800082366
 31
0.0
 11
24.0265473449
 21
4.8806006417
 31
0.0
 11
24.0247547642
 21
4.8811676008
 31
0.0
 11
24.0228557448
 21
4.8816991185
 31
0.0
 11
24.0187859274
 21
4.8826202531
 31
0.0
 11
24.0144342348
 21
4.8833033372
 31
0.0
 11
24.0098994437
 21
4.8837080626
 31
0.0
 11
24.0052811349
 21
4.8838107627
 31
0.0
 11
24.0006795369
 21
4.883606052
 31
0.0
 11
23.9961946064
 21
4.8831050724
 31
0.0
 11
23.9919258768
 21
4.8823373065
 31
0.0
 11
23.9879712635
 21
4.8813496811
 31
0.0
 11
23.9844266009
 21
4.8802079888
 31
0.0
  0
SPLINE
  5
3B6
100
AcDbEntity
  8
0
100
AcDbSpline
 62
6
  6
CONTINUOUS
 70
0
 71
3
 72
22
 73
18
 74
16
 42
0.0000001
 43
0.0000001
 44
0.0000000001
 12
0.2698756325
 22
-0.0045902424
 32
0.0
 13
0.0
 23
0.2699146668
 33
0.0
 40
0.0
 40
0.0
 40
0.0
 40
0.0
 40
0.0540871124
 40
0.1084649617
 40
0.1634562756
 40
0.2193625654
 40
0.2764512942
 40
0.3349418409
 40
0.3949945815
 40
0.4567031604
 40
0.5200918726
 40
0.5851166294
 40
0.6516697163
 40
0.7195863635
 40
0.7886533542
 40
0.8586180366
 40
1.0
 40
1.0
 40
1.0
 40
1.0
 10
23.8667471357
 20
4.7993308182
 30
0.0
 10
23.8716127336
 20
4.7992480605
 30
0.0
 10
23.8813948089
 20
4.7997573079
 30
0.0
 10
23.8958808755
 20
4.8025323659
 30
0.0
 10
23.9100226729
 20
4.8072676834
 30
0.0
 10
23.9236559056
 20
4.813883136
 30
0.0
 10
23.9366436711
 20
4.8222785814
 30
0.0
 10
23.9488688774
 20
4.8323420425
 30
0.0
 10
23.9602317092
 20
4.8439542327
 30
0.0
 10
23.9706449742
 20
4.8569901625
 30
0.0
 10
23.9800308969
 20
4.8713190293
 30
0.0
 10
23.9883193296
 20
4.8868032296
 30
0.0
 10
23.9954473677
 20
4.903297693
 30
0.0
 10
24.0013595891
 20
4.9206487149
 30
0.0
 10
24.0060091981
 20
4.9386976826
 30
0.0
 10
24.0104883213
 20
4.963541779
 30
0.0
 10
24.0118283929
 20
4.9825951388
 30
0.0
 10
24.0118283929
 20
4.995315494
 30
0.0
 11
23.8667471357
 21
4.7993308182
 31
0.0
 11
23.8813264325
 21
4.8000872104
 31
0.0
 11
23.8957438179
 21
4.8028375657
 31
0.0
 11
23.909824176
 21
4.8075340581
 31
0.0
 11
23.9234100217
 21
4.8141014558
 31
0.0
 11
23.9363646514
 21
4.8224451646
 31
0.0
 11
23.9485705776
 21
4.8324581134
 31
0.0
 11
23.9599260335
 21
4.8440248349
 31
0.0
 11
23.9703412228
 21
4.857022829
 31
0.0
 11
23.9797356069
 21
4.8713225498
 31
0.0
 11
23.9880364331
 21
4.8867866581
 31
0.0
 11
23.995178513
 21
4.9032694845
 31
0.0
 11
24.0011046068
 21
4.9206168938
 31
0.0
 11
24.0057662093
 21
4.9386668481
 31
0.0
 11
24.0091244495
 21
4.9572503444
 31
0.0
 11
24.0118283929
 21
4.995315494
 31
0.0
  0
SPLINE
  5
3B7
100
AcDbEntity
  8
0
100
AcDbSpline
 62
6
  6
CONTINUOUS
 70
0
 71
3
 72
41
 73
37
 74
35
 42
0.0000001
 43
0.0000001
 44
0.0000000001
 12
0.581847486
 22
0.0
 32
0.0
 13
-0.581847486
 23
0.0
 33
0.0
 40
0.0
 40
0.0
 40
0.0
 40
0.0
 40
0.0247732568
 40
0.0507955511
 40
0.0780772773
 40
0.1065790968
 40
0.1361993934
 40
0.1668026082
 40
0.1982451671
 40
0.2303855797
 40
0.2630923362
 40
0.2962492814
 40
0.3297555555
 40
0.3635269805
 40
0.397490107
 40
0.4315881655
 40
0.4486762513
 40
0.4657804166
 40
0.5000015606
 40
0.5342225738
 40
0.5513267576
 40
0.5684148035
 40
0.6025127258
 40
0.6364757877
 40
0.6702472465
 40
0.7037533938
 40
0.7369102533
 40
0.7696167429
 40
0.8017569037
 40
0.8331991629
 40
0.8638021008
 40
0.8934220861
 40
0.9219236837
 40
0.9492050556
 40
0.9752269295
 40
1.0
 40
1.0
 40
1.0
 40
1.0
 10
24.1060193442
 20
5.195315494
 30
0.0
 10
24.1108240966
 20
5.195315494
 30
0.0
 10
24.1206854777
 20
5.1946018892
 30
0.0
 10
24.1355618901
 20
5.1915943582
 30
0.0
 10
24.1506809865
 20
5.1866779576
 30
0.0
 10
24.1658417388
 20
5.1799392343
 30
0.0
 10
24.1808519825
 20
5.17147458
 30
0.0
 10
24.195517609
 20
5.1613854947
 30
0.0
 10
24.2096512616
 20
5.1497788188
 30
0.0
 10
24.2230675837
 20
5.1367572134
 30
0.0
 10
24.2355829843
 20
5.1224221555
 30
0.0
 10
24.2470098667
 20
5.1068734828
 30
0.0
 10
24.2571588368
 20
5.0902173971
 30
0.0
 10
24.26583255
 20
5.0725700275
 30
0.0
 10
24.2728421523
 20
5.0540730638
 30
0.0
 10
24.2771394893
 20
5.0380953306
 30
0.0
 10
24.2795843804
 20
5.0250727206
 30
0.0
 10
24.2813434759
 20
5.0119157646
 30
0.0
 10
24.2822365636
 20
4.9953146084
 30
0.0
 10
24.2813432661
 20
4.9787134599
 30
0.0
 10
24.27958405
 20
4.9655565535
 30
0.0
 10
24.2771392491
 20
4.9525339548
 30
0.0
 10
24.2728415125
 20
4.9365563734
 30
0.0
 10
24.2658319406
 20
4.9180594444
 30
0.0
 10
24.2571580585
 20
4.9004121837
 30
0.0
 10
24.2470089893
 20
4.8837562032
 30
0.0
 10
24.2355820568
 20
4.8682076821
 30
0.0
 10
24.2230666475
 20
4.8538727882
 30
0.0
 10
24.209650361
 20
4.8408513745
 30
0.0
 10
24.195516776
 20
4.8292448705
 30
0.0
 10
24.1808512436
 20
4.8191559526
 30
0.0
 10
24.1658411052
 20
4.8106914339
 30
0.0
 10
24.150680484
 20
4.8039528359
 30
0.0
 10
24.1355615509
 20
4.799036571
 30
0.0
 10
24.1206853284
 20
4.7960290394
 30
0.0
 10
24.1108240605
 20
4.795315494
 30
0.0
 10
24.1060193442
 20
4.795315494
 30
0.0
 11
24.1060193442
 21
5.195315494
 31
0.0
 11
24.120399445
 21
5.1943237723
 31
0.0
 11
24.1352492897
 21
5.1913687443
 31
0.0
 11
24.1503581131
 21
5.1865003665
 31
0.0
 11
24.1655265972
 21
5.1797968901
 31
0.0
 11
24.180551858
 21
5.1713547719
 31
0.0
 11
24.1952334495
 21
5.1612791142
 31
0.0
 11
24.2093797354
 21
5.1496781941
 31
0.0
 11
24.2228034085
 21
5.1366579942
 31
0.0
 11
24.2353190713
 21
5.1223222983
 31
0.0
 11
24.2467397569
 21
5.1067736581
 31
0.0
 11
24.2568754551
 21
5.0901200173
 31
0.0
 11
24.2655325837
 21
5.0724800201
 31
0.0
 11
24.2725215945
 21
5.0539958358
 31
0.0
 11
24.2776648005
 21
5.0348342112
 31
0.0
 11
24.279497647
 21
5.0250619465
 31
0.0
 11
24.2808162964
 21
5.0151976788
 31
0.0
 11
24.28187926
 21
4.9953145853
 31
0.0
 11
24.2808160625
 21
4.9754315805
 31
0.0
 11
24.2794973409
 21
4.9655673115
 31
0.0
 11
24.2776645012
 21
4.9557950693
 31
0.0
 11
24.2725210451
 21
4.9366335938
 31
0.0
 11
24.2655319483
 21
4.9181494822
 31
0.0
 11
24.2568746724
 21
4.9005095354
 31
0.0
 11
24.246738886
 21
4.8838560345
 31
0.0
 11
24.2353181256
 21
4.8683075113
 31
0.0
 11
24.2228024764
 21
4.8539720096
 31
0.0
 11
24.2093788323
 21
4.8409519903
 31
0.0
 11
24.1952326223
 21
4.8293512527
 31
0.0
 11
24.1805511169
 21
4.8192757542
 31
0.0
 11
24.1655259805
 21
4.8108337843
 31
0.0
 11
24.150357588
 21
4.80413042
 31
0.0
 11
24.1352489436
 21
4.799262159
 31
0.0
 11
24.120399339
 21
4.7963071778
 31
0.0
 11
24.1060193442
 21
4.795315494
 31
0.0
  0
SPLINE
  5
3B8
100
AcDbEntity
  8
0
100
AcDbSpline
 62
6
  6
CONTINUOUS
 70
0
 71
3
 72
9
 73
5
 74
3
 42
0.0000001
 43
0.0000001
 44
0.0000000001
 12
-0.021730865
 22
-0.0056069923
 32
0.0
 13
-0.0196617815
 23
-0.0108204991
 33
0.0
 40
0.0
 40
0.0
 40
0.0
 40
0.0
 40
0.5231915117
 40
1.0
 40
1.0
 40
1.0
 40
1.0
 10
24.9490684102
 20
8.0105391746
 30
0.0
 10
24.9452786088
 20
8.009561331
 30
0.0
 10
24.9381179541
 20
8.0073388957
 30
0.0
 10
24.9312807799
 20
8.0042361034
 30
0.0
 10
24.9281558118
 20
8.0025163348
 30
0.0
 11
24.9490684102
 21
8.0105391746
 31
0.0
 11
24.9378743674
 21
8.0069948329
 31
0.0
 11
24.9281558118
 21
8.0025163348
 31
0.0
  0
SPLINE
  5
3B9
100
AcDbEntity
  8
0
100
AcDbSpline
 62
6
  6
CONTINUOUS
 70
0
 71
3
 72
9
 73
5
 74
3
 42
0.0000001
 43
0.0000001
 44
0.0000000001
 12
-0.0147235411
 22
-0.0082264816
 32
0.0
 13
-0.0117910911
 23
-0.0120593463
 33
0.0
 40
0.0
 40
0.0
 40
0.0
 40
0.0
 40
0.5117463712
 40
1.0
 40
1.0
 40
1.0
 40
1.0
 10
24.9277684122
 20
8.0023015153
 30
0.0
 10
24.9252568393
 20
8.0008982246
 30
0.0
 10
24.9205145387
 20
7.9978424533
 30
0.0
 10
24.9162630577
 20
7.9941267673
 30
0.0
 10
24.9143440434
 20
7.9921640941
 30
0.0
 11
24.9277684122
 21
8.0023015153
 31
0.0
 11
24.920531667
 21
7.9975978435
 31
0.0
 11
24.9143440434
 21
7.9921640941
 31
0.0
  0
SPLINE
  5
3BA
100
AcDbEntity
  8
0
100
AcDbSpline
 62
6
  6
CONTINUOUS
 70
0
 71
3
 72
9
 73
5
 74
3
 42
0.0000001
 43
0.0000001
 44
0.0000000001
 12
-0.0107965587
 22
-0.0111820457
 32
0.0
 13
-0.0070858906
 23
-0.0138345213
 33
0.0
 40
0.0
 40
0.0
 40
0.0
 40
0.0
 40
0.4988562003
 40
1.0
 40
1.0
 40
1.0
 40
1.0
 10
24.9141126439
 20
7.9919259367
 30
0.0
 10
24.9123173338
 20
7.9900665258
 30
0.0
 10
24.9089898409
 20
7.9860663397
 30
0.0
 10
24.9062993775
 20
7.9816141868
 30
0.0
 10
24.9051156941
 20
7.9793031586
 30
0.0
 11
24.9141126439
 21
7.9919259367
 31
0.0
 11
24.9091559824
 21
7.9859630152
 31
0.0
 11
24.9051156941
 21
7.9793031586
 31
0.0
  0
SPLINE
  5
3BB
100
AcDbEntity
  8
0
100
AcDbSpline
 62
6
  6
CONTINUOUS
 70
0
 71
3
 72
9
 73
5
 74
3
 42
0.0000001
 43
0.0000001
 44
0.0000000001
 12
-0.0028854296
 22
-0.0162807093
 32
0.0
 13
0.0018169215
 23
-0.0164342933
 33
0.0
 40
0.0
 40
0.0
 40
0.0
 40
0.0
 40
0.4871959571
 40
1.0
 40
1.0
 40
1.0
 40
1.0
 10
24.8996815017
 20
7.9631561593
 30
0.0
 10
24.8992129118
 20
7.960512194
 30
0.0
 10
24.8986361829
 20
7.9550102303
 30
0.0
 10
24.8988561715
 20
7.9494812881
 30
0.0
 10
24.8991667464
 20
7.9466720974
 30
0.0
 11
24.8996815017
 21
7.9631561593
 31
0.0
 11
24.8988400606
 21
7.9551447215
 31
0.0
 11
24.8991667464
 21
7.9466720974
 31
0.0
  0
SPLINE
  5
3BC
100
AcDbEntity
  8
0
100
AcDbSpline
 62
6
  6
CONTINUOUS
 70
0
 71
3
 72
9
 73
5
 74
3
 42
0.0000001
 43
0.0000001
 44
0.0000000001
 12
0.0022439951
 22
-0.018495598
 32
0.0
 13
0.0072364332
 23
-0.0171684796
 33
0.0
 40
0.0
 40
0.0
 40
0.0
 40
0.0
 40
0.4809794507
 40
1.0
 40
1.0
 40
1.0
 40
1.0
 10
24.8992408892
 20
7.9460326187
 30
0.0
 10
24.899600661
 20
7.9430672846
 30
0.0
 10
24.9008066675
 20
7.9369509008
 30
0.0
 10
24.9028567862
 20
7.9310656906
 30
0.0
 10
24.9041087387
 20
7.928095426
 30
0.0
 11
24.8992408892
 21
7.9460326187
 31
0.0
 11
24.9009560677
 21
7.9372370547
 31
0.0
 11
24.9041087387
 21
7.928095426
 31
0.0
  0
SPLINE
  5
3BD
100
AcDbEntity
  8
0
100
AcDbSpline
 62
6
  6
CONTINUOUS
 70
0
 71
3
 72
9
 73
5
 74
3
 42
0.0000001
 43
0.0000001
 44
0.0000000001
 12
-0.0050282993
 22
-0.0119296691
 32
0.0
 13
-0.0018736663
 23
-0.0128097686
 33
0.0
 40
0.0
 40
0.0
 40
0.0
 40
0.0
 40
0.5172415751
 40
1.0
 40
1.0
 40
1.0
 40
1.0
 10
24.9041087387
 20
7.042535562
 30
0.0
 10
24.9032417903
 20
7.0404787217
 30
0.0
 10
24.9017977096
 20
7.0363988066
 30
0.0
 10
24.9008859118
 20
7.0321669414
 30
0.0
 10
24.9005844024
 20
7.0301056001
 30
0.0
 11
24.9041087387
 21
7.042535562
 31
0.0
 11
24.9018903195
 21
7.0362174657
 31
0.0
 11
24.9005844024
 21
7.0301056001
 31
0.0
  0
SPLINE
  5
3BE
100
AcDbEntity
  8
0
100
AcDbSpline
 62
6
  6
CONTINUOUS
 70
0
 71
3
 72
9
 73
5
 74
3
 42
0.0000001
 43
0.0000001
 44
0.0000000001
 12
-0.0015968608
 22
-0.011490954
 32
0.0
 13
0.0014022339
 23
-0.0115163244
 33
0.0
 40
0.0
 40
0.0
 40
0.0
 40
0.0
 40
0.5119575869
 40
1.0
 40
1.0
 40
1.0
 40
1.0
 10
24.9005372475
 20
7.0297749626
 30
0.0
 10
24.9002647392
 20
7.0278140022
 30
0.0
 10
24.8999771456
 20
7.0239449702
 30
0.0
 10
24.9001965697
 20
7.0200720898
 30
0.0
 10
24.9004246862
 20
7.0181986049
 30
0.0
 11
24.9005372475
 21
7.0297749626
 31
0.0
 11
24.9001031574
 21
7.023851433
 31
0.0
 11
24.9004246862
 21
7.0181986049
 31
0.0
  0
SPLINE
  5
3BF
100
AcDbEntity
  8
0
100
AcDbSpline
 62
6
  6
CONTINUOUS
 70
0
 71
3
 72
9
 73
5
 74
3
 42
0.0000001
 43
0.0000001
 44
0.0000000001
 12
0.0042761366
 22
-0.0103786348
 32
0.0
 13
0.0068025314
 23
-0.0089289961
 33
0.0
 40
0.0
 40
0.0
 40
0.0
 40
0.0
 40
0.5054900888
 40
1.0
 40
1.0
 40
1.0
 40
1.0
 10
24.9034694371
 20
7.0066099857
 30
0.0
 10
24.904189952
 20
7.0048612201
 30
0.0
 10
24.9058271385
 20
7.0014843398
 30
0.0
 10
24.9078921383
 20
6.998348826
 30
0.0
 10
24.9090134447
 20
6.9968770003
 30
0.0
 11
24.9034694371
 21
7.0066099857
 31
0.0
 11
24.90595443
 21
7.001508935
 31
0.0
 11
24.9090134447
 21
6.9968770003
 31
0.0
  0
SPLINE
  5
3C0
100
AcDbEntity
  8
0
100
AcDbSpline
 62
6
  6
CONTINUOUS
 70
0
 71
3
 72
9
 73
5
 74
3
 42
0.0000001
 43
0.0000001
 44
0.0000000001
 12
0.0067678091
 22
-0.0087034491
 32
0.0
 13
0.008801702
 23
-0.0066395262
 33
0.0
 40
0.0
 40
0.0
 40
0.0
 40
0.0
 40
0.4949541721
 40
1.0
 40
1.0
 40
1.0
 40
1.0
 10
24.9092590683
 20
6.9965578812
 30
0.0
 10
24.9103756534
 20
6.995121945
 30
0.0
 10
24.9128303132
 20
6.9923700085
 30
0.0
 10
24.9156297839
 20
6.9899711188
 30
0.0
 10
24.9171115382
 20
6.9888533638
 30
0.0
 11
24.9092590683
 21
6.9965578812
 31
0.0
 11
24.9128900133
 21
6.9924842694
 31
0.0
 11
24.9171115382
 21
6.9888533638
 31
0.0
  0
SPLINE
  5
3C1
100
AcDbEntity
  8
0
100
AcDbSpline
 62
6
  6
CONTINUOUS
 70
0
 71
3
 72
9
 73
5
 74
3
 42
0.0000001
 43
0.0000001
 44
0.0000000001
 12
0.0105198809
 22
-0.0077451237
 32
0.0
 13
0.012086752
 23
-0.0049563356
 33
0.0
 40
0.0
 40
0.0
 40
0.0
 40
0.0
 40
0.4846260965
 40
1.0
 40
1.0
 40
1.0
 40
1.0
 10
24.917532897
 20
6.9885393519
 30
0.0
 10
24.9192323
 20
6.9872881888
 30
0.0
 10
24.9229228802
 20
6.9849502633
 30
0.0
 10
24.9268702539
 20
6.9830870913
 30
0.0
 10
24.9289466527
 20
6.982235636
 30
0.0
 11
24.917532897
 21
6.9885393519
 31
0.0
 11
24.9228697141
 21
6.9851336512
 31
0.0
 11
24.9289466527
 21
6.982235636
 31
0.0
  0
SPLINE
  5
3C2
100
AcDbEntity
  8
0
100
AcDbSpline
 62
6
  6
CONTINUOUS
 70
0
 71
3
 72
9
 73
5
 74
3
 42
0.0000001
 43
0.0000001
 44
0.0000000001
 12
0.0162964101
 22
-0.0066825627
 32
0.0
 13
0.0173251207
 23
-0.0031732977
 33
0.0
 40
0.0
 40
0.0
 40
0.0
 40
0.0
 40
0.476581032
 40
1.0
 40
1.0
 40
1.0
 40
1.0
 10
24.9289466527
 20
6.982235636
 30
0.0
 10
24.9315355061
 20
6.9811740418
 30
0.0
 10
24.9371141463
 20
6.9792968619
 30
0.0
 10
24.9428507631
 20
6.9780061395
 30
0.0
 10
24.9458735287
 20
6.9774524847
 30
0.0
 11
24.9289466527
 21
6.982235636
 31
0.0
 11
24.9368887354
 21
6.9795179869
 31
0.0
 11
24.9458735287
 21
6.9774524847
 31
0.0
  0
SPLINE
  5
3C3
100
AcDbEntity
  8
0
100
AcDbSpline
 62
6
  6
CONTINUOUS
 70
0
 71
3
 72
9
 73
5
 74
3
 42
0.0000001
 43
0.0000001
 44
0.0000000001
 12
0.021730865
 22
-0.0056069923
 32
0.0
 13
0.0196617815
 23
-0.0108204991
 33
0.0
 40
0.0
 40
0.0
 40
0.0
 40
0.0
 40
0.5231915117
 40
1.0
 40
1.0
 40
1.0
 40
1.0
 10
23.8781531779
 20
8.0105391746
 30
0.0
 10
23.8819429792
 20
8.009561331
 30
0.0
 10
23.889103634
 20
8.0073388957
 30
0.0
 10
23.8959408082
 20
8.0042361034
 30
0.0
 10
23.8990657763
 20
8.0025163348
 30
0.0
 11
23.8781531779
 21
8.0105391746
 31
0.0
 11
23.8893472207
 21
8.0069948329
 31
0.0
 11
23.8990657763
 21
8.0025163348
 31
0.0
  0
SPLINE
  5
3C4
100
AcDbEntity
  8
0
100
AcDbSpline
 62
6
  6
CONTINUOUS
 70
0
 71
3
 72
9
 73
5
 74
3
 42
0.0000001
 43
0.0000001
 44
0.0000000001
 12
0.0147235411
 22
-0.0082264816
 32
0.0
 13
0.0117910911
 23
-0.0120593463
 33
0.0
 40
0.0
 40
0.0
 40
0.0
 40
0.0
 40
0.5117463712
 40
1.0
 40
1.0
 40
1.0
 40
1.0
 10
23.8994531759
 20
8.0023015153
 30
0.0
 10
23.9019647488
 20
8.0008982246
 30
0.0
 10
23.9067070494
 20
7.9978424533
 30
0.0
 10
23.9109585304
 20
7.9941267673
 30
0.0
 10
23.9128775447
 20
7.9921640941
 30
0.0
 11
23.8994531759
 21
8.0023015153
 31
0.0
 11
23.9066899211
 21
7.9975978435
 31
0.0
 11
23.9128775447
 21
7.9921640941
 31
0.0
  0
SPLINE
  5
3C5
100
AcDbEntity
  8
0
100
AcDbSpline
 62
6
  6
CONTINUOUS
 70
0
 71
3
 72
9
 73
5
 74
3
 42
0.0000001
 43
0.0000001
 44
0.0000000001
 12
0.0107965587
 22
-0.0111820457
 32
0.0
 13
0.0070858906
 23
-0.0138345213
 33
0.0
 40
0.0
 40
0.0
 40
0.0
 40
0.0
 40
0.4988562003
 40
1.0
 40
1.0
 40
1.0
 40
1.0
 10
23.9131089442
 20
7.9919259367
 30
0.0
 10
23.9149042543
 20
7.9900665258
 30
0.0
 10
23.9182317472
 20
7.9860663397
 30
0.0
 10
23.9209222106
 20
7.9816141868
 30
0.0
 10
23.922105894
 20
7.9793031586
 30
0.0
 11
23.9131089442
 21
7.9919259367
 31
0.0
 11
23.9180656057
 21
7.9859630152
 31
0.0
 11
23.922105894
 21
7.9793031586
 31
0.0
  0
SPLINE
  5
3C6
100
AcDbEntity
  8
0
100
AcDbSpline
 62
6
  6
CONTINUOUS
 70
0
 71
3
 72
9
 73
5
 74
3
 42
0.0000001
 43
0.0000001
 44
0.0000000001
 12
0.0028854296
 22
-0.0162807093
 32
0.0
 13
-0.0018169215
 23
-0.0164342933
 33
0.0
 40
0.0
 40
0.0
 40
0.0
 40
0.0
 40
0.4871959571
 40
1.0
 40
1.0
 40
1.0
 40
1.0
 10
23.9275400864
 20
7.9631561593
 30
0.0
 10
23.9280086763
 20
7.960512194
 30
0.0
 10
23.9285854052
 20
7.9550102303
 30
0.0
 10
23.9283654166
 20
7.9494812881
 30
0.0
 10
23.9280548417
 20
7.9466720974
 30
0.0
 11
23.9275400864
 21
7.9631561593
 31
0.0
 11
23.9283815275
 21
7.9551447215
 31
0.0
 11
23.9280548417
 21
7.9466720974
 31
0.0
  0
SPLINE
  5
3C7
100
AcDbEntity
  8
0
100
AcDbSpline
 62
6
  6
CONTINUOUS
 70
0
 71
3
 72
9
 73
5
 74
3
 42
0.0000001
 43
0.0000001
 44
0.0000000001
 12
-0.0022439951
 22
-0.018495598
 32
0.0
 13
-0.0072364332
 23
-0.0171684796
 33
0.0
 40
0.0
 40
0.0
 40
0.0
 40
0.0
 40
0.4809794507
 40
1.0
 40
1.0
 40
1.0
 40
1.0
 10
23.9279806989
 20
7.9460326187
 30
0.0
 10
23.9276209271
 20
7.9430672846
 30
0.0
 10
23.9264149206
 20
7.9369509008
 30
0.0
 10
23.9243648019
 20
7.9310656906
 30
0.0
 10
23.9231128494
 20
7.928095426
 30
0.0
 11
23.9279806989
 21
7.9460326187
 31
0.0
 11
23.9262655204
 21
7.9372370547
 31
0.0
 11
23.9231128494
 21
7.928095426
 31
0.0
  0
SPLINE
  5
3C8
100
AcDbEntity
  8
0
100
AcDbSpline
 62
6
  6
CONTINUOUS
 70
0
 71
3
 72
24
 73
20
 74
18
 42
0.0000001
 43
0.0000001
 44
0.0000000001
 12
0.0352506133
 22
-0.0836322835
 32
0.0
 13
-0.0892726103
 23
-0.0163513185
 33
0.0
 40
0.0
 40
0.0
 40
0.0
 40
0.0
 40
0.0748942562
 40
0.1447317088
 40
0.2105826071
 40
0.2733306691
 40
0.3336414277
 40
0.3919505534
 40
0.42044082
 40
0.4485029495
 40
0.5036504552
 40
0.5582609849
 40
0.6132620048
 40
0.669590778
 40
0.7281499172
 40
0.7897727738
 40
0.8552037325
 40
0.9250927437
 40
1.0
 40
1.0
 40
1.0
 40
1.0
 10
23.9231128494
 20
7.042535562
 30
0.0
 10
23.9239928722
 20
7.0404477028
 30
0.0
 10
23.9254546412
 20
7.0363056462
 30
0.0
 10
23.9267818818
 20
7.0300567434
 30
0.0
 10
23.9272446348
 20
7.0240536579
 30
0.0
 10
23.926932541
 20
7.01833108
 30
0.0
 10
23.9259372141
 20
7.0129210717
 30
0.0
 10
23.92460371
 20
7.0086633577
 30
0.0
 10
23.9232807365
 20
7.0054485132
 30
0.0
 10
23.9218228415
 20
7.0023983628
 30
0.0
 10
23.9197050329
 20
6.998794768
 30
0.0
 10
23.9166713194
 20
6.9948244725
 30
0.0
 10
23.913148417
 20
6.9912304716
 30
0.0
 10
23.9091270169
 20
6.9880110329
 30
0.0
 10
23.9045981295
 20
6.9851620296
 30
0.0
 10
23.8995521094
 20
6.9826778893
 30
0.0
 10
23.893978009
 20
6.9805522249
 30
0.0
 10
23.8878641465
 20
6.9787786947
 30
0.0
 10
23.8835771149
 20
6.9778607622
 30
0.0
 10
23.8813480594
 20
6.9774524847
 30
0.0
 11
23.9231128494
 21
7.042535562
 31
0.0
 11
23.9253585539
 21
7.0361200201
 31
0.0
 11
23.9266642821
 21
7.0299176841
 31
0.0
 11
23.9271175281
 21
7.0239584178
 31
0.0
 11
23.9268057861
 21
7.0182720854
 31
0.0
 11
23.9258165503
 21
7.0128885508
 31
0.0
 11
23.9242373148
 21
7.0078376779
 31
0.0
 11
23.9232537891
 21
7.005446322
 31
0.0
 11
23.9221544521
 21
7.0031489478
 31
0.0
 11
23.9196123652
 21
6.9988375163
 31
0.0
 11
23.9166018672
 21
6.9949002479
 31
0.0
 11
23.9131102817
 21
6.9913328156
 31
0.0
 11
23.9091249325
 21
6.9881308928
 31
0.0
 11
23.9046331433
 21
6.9852901527
 31
0.0
 11
23.8996222377
 21
6.9828062686
 31
0.0
 11
23.8940795394
 21
6.9806749138
 31
0.0
 11
23.8879923721
 21
6.9788917614
 31
0.0
 11
23.8813480594
 21
6.9774524847
 31
0.0
  0
SPLINE
  5
3C9
100
AcDbEntity
  8
0
100
AcDbSpline
 62
9
  6
CONTINUOUS
 70
0
 71
3
 72
14
 73
10
 74
8
 42
0.0000001
 43
0.0000001
 44
0.0000000001
 12
0.0750585305
 22
-0.1040977299
 32
0.0
 13
0.0
 23
-0.1283359668
 33
0.0
 40
0.0
 40
0.0
 40
0.0
 40
0.0
 40
0.2339249847
 40
0.3561061634
 40
0.481187021
 40
0.6086735993
 40
0.7380524514
 40
0.8687585588
 40
1.0
 40
1.0
 40
1.0
 40
1.0
 10
23.9254621127
 20
5.116476629
 30
0.0
 10
23.9313148012
 20
5.108359609
 30
0.0
 10
23.9390425456
 20
5.0951104287
 30
0.0
 10
23.947161829
 20
5.0761821017
 30
0.0
 10
23.9523051003
 20
5.0609790191
 30
0.0
 10
23.9563567289
 20
5.0451352949
 30
0.0
 10
23.9592805931
 20
5.0288002654
 30
0.0
 10
23.961043339
 20
5.0121395354
 30
0.0
 10
23.9614379665
 20
5.0009298264
 30
0.0
 10
23.9614379665
 20
4.995315494
 30
0.0
 11
23.9254621127
 21
5.116476629
 31
0.0
 11
23.9407256876
 21
5.0906254575
 31
0.0
 11
23.9469227919
 21
5.0762217838
 31
0.0
 11
23.9520790171
 21
5.061020073
 31
0.0
 11
23.9561427989
 21
5.0451716754
 31
0.0
 11
23.9590749587
 21
5.0288286668
 31
0.0
 11
23.9608453977
 21
5.0121480641
 31
0.0
 11
23.9614379665
 21
4.995315494
 31
0.0
  0
SPLINE
  5
3CA
100
AcDbEntity
  8
0
100
AcDbSpline
 62
9
  6
CONTINUOUS
 70
0
 71
3
 72
27
 73
23
 74
21
 42
0.0000001
 43
0.0000001
 44
0.0000000001
 12
-0.5216225788
 22
-0.0000002715
 32
0.0
 13
-0.4278259891
 23
0.2984209072
 33
0.0
 40
0.0
 40
0.0
 40
0.0
 40
0.0
 40
0.0473976039
 40
0.0946857771
 40
0.1416828708
 40
0.1882277803
 40
0.2794839515
 40
0.3239853039
 40
0.3676115627
 40
0.4102745149
 40
0.4519003914
 40
0.531819598
 40
0.6069611629
 40
0.6769877244
 40
0.8002747837
 40
0.8984050617
 40
0.9366495152
 40
0.9667777557
 40
0.9785789003
 40
0.9880907244
 40
0.9952502955
 40
1.0
 40
1.0
 40
1.0
 40
1.0
 10
24.413610794
 20
16.1157940493
 30
0.0
 10
24.4053695739
 20
16.115794045
 30
0.0
 10
24.3889053281
 20
16.1160149078
 30
0.0
 10
24.3642872224
 20
16.1169959653
 30
0.0
 10
24.339851067
 20
16.1186166673
 30
0.0
 10
24.3078547844
 20
16.1215925156
 30
0.0
 10
24.2764139536
 20
16.125751453
 30
0.0
 10
24.2456728185
 20
16.131040101
 30
0.0
 10
24.2233626527
 20
16.1354591773
 30
0.0
 10
24.2016575427
 20
16.1403234026
 30
0.0
 10
24.1739569053
 20
16.1472514454
 30
0.0
 10
24.1410829526
 20
16.1567277563
 30
0.0
 10
24.104007777
 20
16.1693055278
 30
0.0
 10
24.0605001438
 20
16.186246282
 30
0.0
 10
24.0144216149
 20
16.2074707651
 30
0.0
 10
23.974857616
 20
16.229291298
 30
0.0
 10
23.9501855843
 20
16.2444433718
 30
0.0
 10
23.9384820126
 20
16.2520188681
 30
0.0
 10
23.9310481693
 20
16.2569927776
 30
0.0
 10
23.9269531198
 20
16.259774822
 30
0.0
 10
23.9238852464
 20
16.2618868808
 30
0.0
 10
23.9221858373
 20
16.26307005
 30
0.0
 10
23.9215084883
 20
16.2635425204
 30
0.0
 11
24.413610794
 21
16.1157940493
 31
0.0
 11
24.3888893369
 21
16.1161241074
 31
0.0
 11
24.3642423365
 21
16.1171066971
 31
0.0
 11
24.3397814203
 21
16.1187303697
 31
0.0
 11
24.3156068074
 21
16.1209780129
 31
0.0
 11
24.2684175104
 21
16.1272271761
 31
0.0
 11
24.2455406379
 21
16.1311626437
 31
0.0
 11
24.2232180861
 21
16.1355852355
 31
0.0
 11
24.201502976
 21
16.1404527492
 31
0.0
 11
24.1804388448
 21
16.145721204
 31
0.0
 11
24.1403842738
 21
16.1572751021
 31
0.0
 11
24.103268253
 21
16.1698723679
 31
0.0
 11
24.0692324064
 21
16.1831318815
 31
0.0
 11
24.0108380397
 21
16.2100722931
 31
0.0
 11
23.9660288059
 21
16.2348157433
 31
0.0
 11
23.9490300112
 21
16.245256547
 31
0.0
 11
23.9358384068
 21
16.2537982524
 31
0.0
 11
23.9307218249
 21
16.2572207905
 31
0.0
 11
23.9266181032
 21
16.2600094758
 31
0.0
 11
23.9235423546
 21
16.262127721
 31
0.0
 11
23.9215084883
 21
16.2635425204
 31
0.0
  0
LINE
  5
3CB
100
AcDbEntity
  8
0
100
AcDbLine
 62
9
  6
CONTINUOUS
 10
23.9215084883
 20
16.2635425204
 11
23.9204311192
 21
16.2642940129
  0
SPLINE
  5
3CC
100
AcDbEntity
  8
0
100
AcDbSpline
 62
9
  6
CONTINUOUS
 70
0
 71
3
 72
26
 73
22
 74
20
 42
0.0000001
 43
0.0000001
 44
0.0000000001
 12
-0.5130461407
 22
0.0000301651
 32
0.0
 13
-0.3839332132
 23
0.34031108
 33
0.0
 40
0.0
 40
0.0
 40
0.0
 40
0.0
 40
0.0446563725
 40
0.0892433923
 40
0.1336276091
 40
0.1776875392
 40
0.2213365709
 40
0.2644915686
 40
0.3490020603
 40
0.3902301955
 40
0.4306801485
 40
0.5090416104
 40
0.6542341204
 40
0.7814869584
 40
0.8864722682
 40
0.9285998115
 40
0.9623679002
 40
0.9757320416
 40
0.986540148
 40
0.9946669018
 40
1.0
 40
1.0
 40
1.0
 40
1.0
 10
24.413610794
 20
16.0203508756
 30
0.0
 10
24.4059738675
 20
16.0203513246
 30
0.0
 10
24.3907107173
 20
16.0206056029
 30
0.0
 10
24.3678823808
 20
16.0217342495
 30
0.0
 10
24.3452044115
 20
16.0235993408
 30
0.0
 10
24.3227594581
 20
16.0261892111
 30
0.0
 10
24.300617235
 20
16.0294688935
 30
0.0
 10
24.2717835227
 20
16.0346818507
 30
0.0
 10
24.2436116218
 20
16.0411521963
 30
0.0
 10
24.2162279507
 20
16.0487717449
 30
0.0
 10
24.1900870727
 20
16.0568925683
 30
0.0
 10
24.1475658395
 20
16.0721341637
 30
0.0
 10
24.0927967927
 20
16.0969129458
 30
0.0
 10
24.0367895258
 20
16.1291691311
 30
0.0
 10
23.9981746357
 20
16.1559079108
 30
0.0
 10
23.9737067165
 20
16.1748398392
 30
0.0
 10
23.961891157
 20
16.1845073389
 30
0.0
 10
23.9543320132
 20
16.190913863
 30
0.0
 10
23.9501479391
 20
16.1945200498
 30
0.0
 10
23.9470230499
 20
16.1972512474
 30
0.0
 10
23.9452989102
 20
16.1987763196
 30
0.0
 10
23.9446163923
 20
16.1993812904
 30
0.0
 11
24.413610794
 21
16.0203508756
 31
0.0
 11
24.3907031659
 21
16.0207308671
 31
0.0
 11
24.3678558766
 21
16.0218605041
 31
0.0
 11
24.3451614588
 21
16.0237283166
 31
0.0
 11
24.3227055146
 21
16.0263180122
 31
0.0
 11
24.3005532157
 21
16.0295990823
 31
0.0
 11
24.2787659784
 21
16.0335384042
 31
0.0
 11
24.2365071993
 21
16.0432385495
 31
0.0
 11
24.2161295802
 21
16.0489092658
 31
0.0
 11
24.1963109035
 21
16.0550650997
 31
0.0
 11
24.1584655254
 21
16.0686302108
 31
0.0
 11
24.0905942877
 21
16.0993274955
 31
0.0
 11
24.0340185326
 21
16.1319084891
 31
0.0
 11
23.9897378195
 21
16.1625738879
 31
0.0
 11
23.9726436953
 21
16.1757999542
 31
0.0
 11
23.9592364027
 21
16.1867720024
 31
0.0
 11
23.954005357
 21
16.1912044592
 31
0.0
 11
23.9498053781
 21
16.1948249339
 31
0.0
 11
23.9466666146
 21
16.1975693933
 31
0.0
 11
23.9446163923
 21
16.1993812904
 31
0.0
  0
LINE
  5
3CD
100
AcDbEntity
  8
0
100
AcDbLine
 62
9
  6
CONTINUOUS
 10
23.9446163923
 20
16.1993812904
 11
23.9436124228
 21
16.2002711863
  0
SPLINE
  5
3CE
100
AcDbEntity
  8
0
100
AcDbSpline
 62
9
  6
CONTINUOUS
 70
0
 71
3
 72
14
 73
10
 74
8
 42
0.0000001
 43
0.0000001
 44
0.0000000001
 12
0.0750585305
 22
0.1040977299
 32
0.0
 13
-0.0
 23
0.1283359668
 33
0.0
 40
0.0
 40
0.0
 40
0.0
 40
0.0
 40
0.2339249847
 40
0.3561061634
 40
0.481187021
 40
0.6086735993
 40
0.7380524514
 40
0.8687585588
 40
1.0
 40
1.0
 40
1.0
 40
1.0
 10
23.9254621127
 20
4.874154359
 30
0.0
 10
23.9313148012
 20
4.882271379
 30
0.0
 10
23.9390425456
 20
4.8955205593
 30
0.0
 10
23.947161829
 20
4.9144488863
 30
0.0
 10
23.9523051003
 20
4.9296519689
 30
0.0
 10
23.9563567289
 20
4.9454956931
 30
0.0
 10
23.9592805931
 20
4.9618307226
 30
0.0
 10
23.961043339
 20
4.9784914525
 30
0.0
 10
23.9614379665
 20
4.9897011616
 30
0.0
 10
23.9614379665
 20
4.995315494
 30
0.0
 11
23.9254621127
 21
4.874154359
 31
0.0
 11
23.9407256876
 21
4.9000055304
 31
0.0
 11
23.9469227919
 21
4.9144092041
 31
0.0
 11
23.9520790171
 21
4.929610915
 31
0.0
 11
23.9561427989
 21
4.9454593126
 31
0.0
 11
23.9590749587
 21
4.9618023211
 31
0.0
 11
23.9608453977
 21
4.9784829238
 31
0.0
 11
23.9614379665
 21
4.995315494
 31
0.0
  0
SPLINE
  5
3CF
100
AcDbEntity
  8
0
100
AcDbSpline
 62
9
  6
CONTINUOUS
 70
0
 71
3
 72
14
 73
10
 74
8
 42
0.0000001
 43
0.0000001
 44
0.0000000001
 12
0.0999855431
 22
-0.1386849168
 32
0.0
 13
0.0
 23
-0.1709696317
 33
0.0
 40
0.0
 40
0.0
 40
0.0
 40
0.0
 40
0.2339252073
 40
0.3561043386
 40
0.4811877693
 40
0.6086776383
 40
0.7380502596
 40
0.8687480754
 40
1.0
 40
1.0
 40
1.0
 40
1.0
 10
23.896442651
 20
5.1567267591
 30
0.0
 10
23.9042390306
 20
5.1459127931
 30
0.0
 10
23.9145340598
 20
5.1282625505
 30
0.0
 10
23.9253517721
 20
5.1030465509
 30
0.0
 10
23.932202617
 20
5.0827923687
 30
0.0
 10
23.9376007933
 20
5.0616854911
 30
0.0
 10
23.9414955196
 20
5.0399244718
 30
0.0
 10
23.9438445038
 20
5.0177292907
 30
0.0
 10
23.9443698272
 20
5.0027955251
 30
0.0
 10
23.9443698272
 20
4.995315494
 30
0.0
 11
23.896442651
 21
5.1567267591
 31
0.0
 11
23.9167767578
 21
5.1222876438
 31
0.0
 11
23.9250329003
 21
5.103099545
 31
0.0
 11
23.9319016961
 21
5.0828471899
 31
0.0
 11
23.937315757
 21
5.0617333883
 31
0.0
 11
23.9412217726
 21
5.0399622173
 31
0.0
 11
23.9435805145
 21
5.0177417012
 31
0.0
 11
23.9443698272
 21
4.995315494
 31
0.0
  0
SPLINE
  5
3D0
100
AcDbEntity
  8
0
100
AcDbSpline
 62
9
  6
CONTINUOUS
 70
0
 71
3
 72
14
 73
10
 74
8
 42
0.0000001
 43
0.0000001
 44
0.0000000001
 12
0.0999855431
 22
0.1386849168
 32
0.0
 13
-0.0
 23
0.1709696317
 33
0.0
 40
0.0
 40
0.0
 40
0.0
 40
0.0
 40
0.2339252073
 40
0.3561043386
 40
0.4811877693
 40
0.6086776383
 40
0.7380502596
 40
0.8687480754
 40
1.0
 40
1.0
 40
1.0
 40
1.0
 10
23.896442651
 20
4.8339042289
 30
0.0
 10
23.9042390306
 20
4.8447181949
 30
0.0
 10
23.9145340598
 20
4.8623684375
 30
0.0
 10
23.9253517721
 20
4.8875844371
 30
0.0
 10
23.932202617
 20
4.9078386193
 30
0.0
 10
23.9376007933
 20
4.9289454969
 30
0.0
 10
23.9414955196
 20
4.9507065162
 30
0.0
 10
23.9438445038
 20
4.9729016973
 30
0.0
 10
23.9443698272
 20
4.9878354629
 30
0.0
 10
23.9443698272
 20
4.995315494
 30
0.0
 11
23.896442651
 21
4.8339042289
 31
0.0
 11
23.9167767578
 21
4.8683433442
 31
0.0
 11
23.9250329003
 21
4.887531443
 31
0.0
 11
23.9319016961
 21
4.9077837981
 31
0.0
 11
23.937315757
 21
4.9288975997
 31
0.0
 11
23.9412217726
 21
4.9506687707
 31
0.0
 11
23.9435805145
 21
4.9728892868
 31
0.0
 11
23.9443698272
 21
4.995315494
 31
0.0
  0
SPLINE
  5
3D1
100
AcDbEntity
  8
0
100
AcDbSpline
 62
9
  6
CONTINUOUS
 70
0
 71
3
 72
19
 73
15
 74
13
 42
0.0000001
 43
0.0000001
 44
0.0000000001
 12
-0.3365799318
 22
-0.2131153166
 32
0.0
 13
-0.3983769424
 23
-0.0000199107
 33
0.0
 40
0.0
 40
0.0
 40
0.0
 40
0.0
 40
0.0992994425
 40
0.2080497038
 40
0.2656400974
 40
0.3252082776
 40
0.4498161586
 40
0.5146306741
 40
0.5809431433
 40
0.648587678
 40
0.7173901569
 40
0.8576711477
 40
0.9287330855
 40
1.0
 40
1.0
 40
1.0
 40
1.0
 10
24.7910180157
 20
26.6985197869
 30
0.0
 10
24.7798772825
 20
26.6914657095
 30
0.0
 10
24.7561229708
 20
26.6773278109
 30
0.0
 10
24.7247981459
 20
26.6610587159
 30
0.0
 10
24.6975586894
 20
26.648479597
 30
0.0
 10
24.6679838496
 20
26.6359762573
 30
0.0
 10
24.6368755034
 20
26.6246786856
 30
0.0
 10
24.604378481
 20
26.6147995958
 30
0.0
 10
24.5788502888
 20
26.6080642472
 30
0.0
 10
24.5525683696
 20
26.6021831629
 30
0.0
 10
24.5164165725
 20
26.5955557139
 30
0.0
 10
24.4794429754
 20
26.591031578
 30
0.0
 10
24.4419772635
 20
26.5887410125
 30
0.0
 10
24.4230744925
 20
26.5883513486
 30
0.0
 10
24.413610794
 20
26.5883508756
 30
0.0
 11
24.7910180157
 21
26.6985197869
 31
0.0
 11
24.7570244937
 21
26.6782880307
 31
0.0
 11
24.7185764909
 21
26.6583209301
 31
0.0
 11
24.6977475982
 21
26.6487019894
 31
0.0
 11
24.6758897559
 21
26.6394620972
 31
0.0
 11
24.6292300203
 21
26.6225184052
 31
0.0
 11
24.6045253651
 21
26.6150094883
 31
0.0
 11
24.5789822585
 21
26.6082695662
 31
0.0
 11
24.5526842905
 21
26.6023863001
 31
0.0
 11
24.5257242035
 21
26.5974441749
 31
0.0
 11
24.4702524675
 21
26.5906627614
 31
0.0
 11
24.4419959189
 21
26.5889331036
 31
0.0
 11
24.413610794
 21
26.5883508756
 31
0.0
  0
SPLINE
  5
3D2
100
AcDbEntity
  8
0
100
AcDbSpline
 62
6
  6
CONTINUOUS
 70
0
 71
3
 72
23
 73
19
 74
17
 42
0.0000001
 43
0.0000001
 44
0.0000000001
 12
0.2357350358
 22
0.0403604353
 32
0.0
 13
-0.0
 23
0.239165156
 33
0.0
 40
0.0
 40
0.0
 40
0.0
 40
0.0
 40
0.0513425271
 40
0.1036044211
 40
0.1571124619
 40
0.2121334657
 40
0.2688642957
 40
0.3274320135
 40
0.3878944629
 40
0.4502445293
 40
0.514417
 40
0.580295041
 40
0.6477184252
 40
0.7164815806
 40
0.7863496953
 40
0.8570848425
 40
0.928423708
 40
1.0
 40
1.0
 40
1.0
 40
1.0
 10
23.8753137628
 20
4.8075964318
 30
0.0
 10
23.8793481736
 20
4.8082871674
 30
0.0
 10
23.8874087721
 20
4.8102026245
 30
0.0
 10
23.8991736768
 20
4.8145835035
 30
0.0
 10
23.9106022022
 20
4.8204520613
 30
0.0
 10
23.9215980659
 20
4.827756023
 30
0.0
 10
23.932073
 20
4.8364327089
 30
0.0
 10
23.9419433838
 20
4.8464082737
 30
0.0
 10
23.9511295062
 20
4.8576005974
 30
0.0
 10
23.9595594201
 20
4.8699163239
 30
0.0
 10
23.9671640385
 20
4.8832556735
 30
0.0
 10
23.9738845515
 20
4.8975087044
 30
0.0
 10
23.979664056
 20
4.9125601746
 30
0.0
 10
23.9844592883
 20
4.9282855357
 30
0.0
 10
23.9882289637
 20
4.944558205
 30
0.0
 10
23.9909448073
 20
4.9612473851
 30
0.0
 10
23.9925805829
 20
4.9782125392
 30
0.0
 10
23.992946528
 20
4.989609309
 30
0.0
 10
23.992946528
 20
4.995315494
 30
0.0
 11
23.8753137628
 21
4.8075964318
 31
0.0
 11
23.8872629585
 21
4.810424682
 31
0.0
 11
23.8989821025
 21
4.8147712053
 31
0.0
 11
23.9103748923
 21
4.8205999425
 31
0.0
 11
23.9213478995
 21
4.8278632206
 31
0.0
 11
23.9318108679
 21
4.8365013883
 31
0.0
 11
23.9416781269
 21
4.8464433831
 31
0.0
 11
23.9508683363
 21
4.8576078999
 31
0.0
 11
23.9593064711
 21
4.8699027984
 31
0.0
 11
23.9669227031
 21
4.8832275332
 31
0.0
 11
23.9736551695
 21
4.8974724265
 31
0.0
 11
23.9794477994
 21
4.9125213973
 31
0.0
 11
23.9842539469
 21
4.9282491964
 31
0.0
 11
23.9880331255
 21
4.9445262517
 31
0.0
 11
23.9907554289
 21
4.9612231644
 31
0.0
 11
23.9923973046
 21
4.9782057517
 31
0.0
 11
23.992946528
 21
4.995315494
 31
0.0
  0
SPLINE
  5
3D3
100
AcDbEntity
  8
0
100
AcDbSpline
 62
6
  6
CONTINUOUS
 70
0
 71
3
 72
23
 73
19
 74
17
 42
0.0000001
 43
0.0000001
 44
0.0000000001
 12
0.2356331095
 22
-0.0405253293
 32
0.0
 13
-0.0
 23
-0.2390925859
 33
0.0
 40
0.0
 40
0.0
 40
0.0
 40
0.0
 40
0.0513432765
 40
0.1036074862
 40
0.1571188601
 40
0.2121436427
 40
0.2688782374
 40
0.3274492734
 40
0.3879143136
 40
0.4502660029
 40
0.514439031
 40
0.5803165084
 40
0.6477382481
 40
0.7164987476
 40
0.7863633649
 40
0.8570943648
 40
0.9284285956
 40
1.0
 40
1.0
 40
1.0
 40
1.0
 10
23.8753853912
 20
5.1830222649
 30
0.0
 10
23.8794181165
 20
5.1823286971
 30
0.0
 10
23.8874750929
 20
5.1804079402
 30
0.0
 10
23.8992340306
 20
5.1760205976
 30
0.0
 10
23.9106563307
 20
5.1701468857
 30
0.0
 10
23.921645879
 20
5.1628391503
 30
0.0
 10
23.9321144866
 20
5.1541599865
 30
0.0
 10
23.9419786881
 20
5.144183248
 30
0.0
 10
23.9511588389
 20
5.1329909599
 30
0.0
 10
23.9595831298
 20
5.120676436
 30
0.0
 10
23.9671825338
 20
5.1073393482
 30
0.0
 10
23.9738983539
 20
5.0930895531
 30
0.0
 10
23.9796737416
 20
5.0780421721
 30
0.0
 10
23.9844655187
 20
5.0623216349
 30
0.0
 10
23.9882324417
 20
5.0460543844
 30
0.0
 10
23.9909462882
 20
5.0293710795
 30
0.0
 10
23.9925808533
 20
5.012412108
 30
0.0
 10
23.992946528
 20
5.001019558
 30
0.0
 10
23.992946528
 20
4.995315494
 30
0.0
 11
23.8753853912
 21
5.1830222649
 31
0.0
 11
23.8873290959
 21
5.1801862281
 31
0.0
 11
23.8990423799
 21
5.1758332267
 31
0.0
 11
23.9104290545
 21
5.1699993175
 31
0.0
 11
23.9213958181
 21
5.162732207
 31
0.0
 11
23.9318525249
 21
5.1540915097
 31
0.0
 11
23.9417136278
 21
5.1441482769
 31
0.0
 11
23.9508978888
 21
5.1329837454
 31
0.0
 11
23.9593303962
 21
5.1206900026
 31
0.0
 11
23.9669414117
 21
5.1073674972
 31
0.0
 11
23.9736691686
 21
5.0931258152
 31
0.0
 11
23.9794576701
 21
5.0780809198
 31
0.0
 11
23.984260344
 21
5.0623579413
 31
0.0
 11
23.9880367584
 21
5.0460863079
 31
0.0
 11
23.9907570548
 21
5.0293952737
 31
0.0
 11
23.9923977127
 21
5.0124188832
 31
0.0
 11
23.992946528
 21
4.995315494
 31
0.0
  0
SPLINE
  5
3D4
100
AcDbEntity
  8
0
100
AcDbSpline
 62
9
  6
CONTINUOUS
 70
0
 71
3
 72
32
 73
28
 74
26
 42
0.0000001
 43
0.0000001
 44
0.0000000001
 12
0.1869847501
 22
0.3350871688
 32
0.0
 13
0.0
 23
-0.3837273869
 33
0.0
 40
0.0
 40
0.0
 40
0.0
 40
0.0
 40
0.0659375344
 40
0.0976693173
 40
0.1285527697
 40
0.1586052242
 40
0.1878681935
 40
0.2164041419
 40
0.2443001654
 40
0.2716638081
 40
0.2986232955
 40
0.3253219909
 40
0.3519140439
 40
0.3785572035
 40
0.4054078711
 40
0.4326135847
 40
0.4603088572
 40
0.4886080747
 40
0.5176060505
 40
0.5473731801
 40
0.5779584438
 40
0.6416176212
 40
0.7085930515
 40
0.7785509889
 40
0.8509369149
 40
0.9250310079
 40
1.0
 40
1.0
 40
1.0
 40
1.0
 10
24.0287957607
 20
5.1109585618
 30
0.0
 10
24.0329055319
 20
5.1183235024
 30
0.0
 10
24.0397265527
 20
5.1288569405
 30
0.0
 10
24.0501755495
 20
5.1415689494
 30
0.0
 10
24.0584078471
 20
5.1501158072
 30
0.0
 10
24.0670863421
 20
5.1577389711
 30
0.0
 10
24.0761586818
 20
5.164395308
 30
0.0
 10
24.0855730729
 20
5.1700413604
 30
0.0
 10
24.0952723683
 20
5.17464383
 30
0.0
 10
24.1051993503
 20
5.1781720677
 30
0.0
 10
24.1152935833
 20
5.1806039183
 30
0.0
 10
24.1254935799
 20
5.1819233711
 30
0.0
 10
24.1357364071
 20
5.1821208273
 30
0.0
 10
24.1459588016
 20
5.1811966428
 30
0.0
 10
24.1560972544
 20
5.1791545451
 30
0.0
 10
24.1660903563
 20
5.1760110101
 30
0.0
 10
24.1758762732
 20
5.1717832404
 30
0.0
 10
24.1853978373
 20
5.1665018165
 30
0.0
 10
24.194596247
 20
5.1601966771
 30
0.0
 10
24.2034196868
 20
5.152909548
 30
0.0
 10
24.2147601725
 20
5.1417959679
 30
0.0
 10
24.2276804727
 20
5.125610247
 30
0.0
 10
24.2406834831
 20
5.1034024356
 30
0.0
 10
24.2511149988
 20
5.0786674642
 30
0.0
 10
24.2587379594
 20
5.0519870031
 30
0.0
 10
24.2633819204
 20
5.0239879328
 30
0.0
 10
24.2644196962
 20
5.0049047125
 30
0.0
 10
24.2644196962
 20
4.995315494
 30
0.0
 11
24.0287957607
 21
5.1109585618
 31
0.0
 11
24.0426248354
 21
5.1321469975
 31
0.0
 11
24.050365994
 21
5.1415458307
 31
0.0
 11
24.0585971585
 21
5.1500716749
 31
0.0
 11
24.0672697094
 21
5.1576725122
 31
0.0
 11
24.0763313975
 21
5.1643039759
 31
0.0
 11
24.0857283672
 21
5.1699253642
 31
0.0
 11
24.0954042429
 21
5.1745039085
 31
0.0
 11
24.1053011937
 21
5.1780116322
 31
0.0
 11
24.1153601516
 21
5.1804278958
 31
0.0
 11
24.1255210297
 21
5.181738241
 31
0.0
 11
24.1357232392
 21
5.1819346004
 31
0.0
 11
24.1459056314
 21
5.1810163768
 31
0.0
 11
24.1560073723
 21
5.1789881819
 31
0.0
 11
24.1659682507
 21
5.1758631735
 31
0.0
 11
24.1757286566
 21
5.1716587898
 31
0.0
 11
24.1852304166
 21
5.1664015613
 31
0.0
 11
24.1944162558
 21
5.1601216288
 31
0.0
 11
24.203231659
 21
5.1528579298
 31
0.0
 11
24.2116234392
 21
5.1446529808
 31
0.0
 11
24.226939521
 21
5.1256231732
 31
0.0
 11
24.2399991801
 21
5.1034883347
 31
0.0
 11
24.2504914892
 21
5.0787789544
 31
0.0
 11
24.258168088
 21
5.052084354
 31
0.0
 11
24.2628476345
 21
5.0240401632
 31
0.0
 11
24.2644196962
 21
4.995315494
 31
0.0
  0
SPLINE
  5
3D5
100
AcDbEntity
  8
0
100
AcDbSpline
 62
9
  6
CONTINUOUS
 70
0
 71
3
 72
32
 73
28
 74
26
 42
0.0000001
 43
0.0000001
 44
0.0000000001
 12
0.0
 22
-0.3835437869
 32
0.0
 13
-0.1872070326
 23
0.3347526899
 33
0.0
 40
0.0
 40
0.0
 40
0.0
 40
0.0
 40
0.0749754589
 40
0.1490777507
 40
0.2214750297
 40
0.2914478102
 40
0.3584403071
 40
0.4221142851
 40
0.4527054999
 40
0.4824778454
 40
0.511480345
 40
0.5397835494
 40
0.567482243
 40
0.5946908102
 40
0.6215435742
 40
0.6481878277
 40
0.674779745
 40
0.7014769634
 40
0.728433538
 40
0.7557929071
 40
0.7836831499
 40
0.812211775
 40
0.8414656955
 40
0.8715073886
 40
0.9023781734
 40
0.9340955977
 40
1.0
 40
1.0
 40
1.0
 40
1.0
 10
24.2644196962
 20
4.995315494
 30
0.0
 10
24.2644196962
 20
4.9857300368
 30
0.0
 10
24.2633827335
 20
4.9666540837
 30
0.0
 10
24.2587422299
 20
4.9386648672
 30
0.0
 10
24.2511245741
 20
4.9119921751
 30
0.0
 10
24.2406999742
 20
4.8872622697
 30
0.0
 10
24.2277048874
 20
4.8650572238
 30
0.0
 10
24.2147924996
 20
4.8488717815
 30
0.0
 10
24.203459058
 20
4.8377571515
 30
0.0
 10
24.1946413733
 20
4.8304685326
 30
0.0
 10
24.1854489555
 20
4.8241610207
 30
0.0
 10
24.1759335425
 20
4.8188761576
 30
0.0
 10
24.1661537674
 20
4.8146437808
 30
0.0
 10
24.1561666177
 20
4.8114945639
 30
0.0
 10
24.1460338665
 20
4.809445425
 30
0.0
 10
24.1358167568
 20
4.8085132969
 30
0.0
 10
24.1255787406
 20
4.8087014321
 30
0.0
 10
24.1153830111
 20
4.810010845
 30
0.0
 10
24.105292321
 20
4.8124313874
 30
0.0
 10
24.0953682465
 20
4.8159477689
 30
0.0
 10
24.0856709789
 20
4.8205373171
 30
0.0
 10
24.0762579776
 20
4.8261699532
 30
0.0
 10
24.0671861135
 20
4.8328119594
 30
0.0
 10
24.0585075125
 20
4.8404203231
 30
0.0
 10
24.0502740518
 20
4.8489514598
 30
0.0
 10
24.0398228846
 20
4.8616415166
 30
0.0
 10
24.0329980208
 20
4.8721580521
 30
0.0
 10
24.0288854316
 20
4.8795119441
 30
0.0
 11
24.2644196962
 21
4.995315494
 31
0.0
 11
24.2628488759
 21
4.9666020577
 31
0.0
 11
24.2581728594
 21
4.9385678816
 31
0.0
 11
24.2505016777
 21
4.9118810215
 31
0.0
 11
24.2400162109
 21
4.8871765054
 31
0.0
 11
24.2269642863
 21
4.8650437815
 31
0.0
 11
24.2116575304
 21
4.8460141856
 31
0.0
 11
24.203271092
 21
4.8378085417
 31
0.0
 11
24.1944614136
 21
4.8305433449
 31
0.0
 11
24.185281561
 21
4.824261017
 31
0.0
 11
24.1757859071
 21
4.8190003297
 31
0.0
 11
24.1660315878
 21
4.8147913575
 31
0.0
 11
24.1560765959
 21
4.8116606249
 31
0.0
 11
24.1459804605
 21
4.8096254852
 31
0.0
 11
24.1358032819
 21
4.8086992784
 31
0.0
 11
24.1256058354
 21
4.8088864807
 31
0.0
 11
24.1154491768
 21
4.8101867563
 31
0.0
 11
24.1053937899
 21
4.8125918897
 31
0.0
 11
24.0954997031
 21
4.8160877339
 31
0.0
 11
24.085825909
 21
4.8206535069
 31
0.0
 11
24.0764302898
 21
4.8262614653
 31
0.0
 11
24.0673691611
 21
4.8328787098
 31
0.0
 11
24.0586964418
 21
4.8404647132
 31
0.0
 11
24.050464249
 21
4.8489749218
 31
0.0
 11
24.0427212809
 21
4.858357575
 31
0.0
 11
24.0288854316
 21
4.8795119441
 31
0.0
  0
SPLINE
  5
3D6
100
AcDbEntity
  8
0
100
AcDbSpline
 62
6
  6
CONTINUOUS
 70
0
 71
3
 72
23
 73
19
 74
17
 42
0.0000001
 43
0.0000001
 44
0.0000000001
 12
0.0
 22
-0.2390925859
 32
0.0
 13
0.2356331095
 23
-0.0405253293
 33
0.0
 40
0.0
 40
0.0
 40
0.0
 40
0.0
 40
0.0715714044
 40
0.1429056352
 40
0.2136366351
 40
0.2835012524
 40
0.3522617519
 40
0.4196834916
 40
0.485560969
 40
0.5497339971
 40
0.6120856864
 40
0.6725507266
 40
0.7311217626
 40
0.7878563573
 40
0.8428811399
 40
0.8963925138
 40
0.9486567235
 40
1.0
 40
1.0
 40
1.0
 40
1.0
 10
24.8342750601
 20
4.995315494
 30
0.0
 10
24.8342750601
 20
4.9896114299
 30
0.0
 10
24.8346407348
 20
4.9782188799
 30
0.0
 10
24.8362752999
 20
4.9612599085
 30
0.0
 10
24.8389891464
 20
4.9445766036
 30
0.0
 10
24.8427560694
 20
4.9283093531
 30
0.0
 10
24.8475478465
 20
4.9125888159
 30
0.0
 10
24.8533232342
 20
4.8975414348
 30
0.0
 10
24.8600390543
 20
4.8832916398
 30
0.0
 10
24.8676384583
 20
4.869954552
 30
0.0
 10
24.8760627492
 20
4.8576400281
 30
0.0
 10
24.8852429
 20
4.84644774
 30
0.0
 10
24.8951071015
 20
4.8364710015
 30
0.0
 10
24.9055757091
 20
4.8277918376
 30
0.0
 10
24.9165652574
 20
4.8204841023
 30
0.0
 10
24.9279875575
 20
4.8146103904
 30
0.0
 10
24.9397464952
 20
4.8102230478
 30
0.0
 10
24.9478034716
 20
4.8083022908
 30
0.0
 10
24.9518361969
 20
4.8076087231
 30
0.0
 11
24.8342750601
 21
4.995315494
 31
0.0
 11
24.8348238753
 21
4.9782121048
 31
0.0
 11
24.8364645333
 21
4.9612357143
 31
0.0
 11
24.8391848297
 21
4.9445446801
 31
0.0
 11
24.8429612441
 21
4.9282730467
 31
0.0
 11
24.847763918
 21
4.9125500682
 31
0.0
 11
24.8535524195
 21
4.8975051727
 31
0.0
 11
24.8602801764
 21
4.8832634908
 31
0.0
 11
24.8678911919
 21
4.8699409854
 31
0.0
 11
24.8763236993
 21
4.8576472425
 31
0.0
 11
24.8855079603
 21
4.846482711
 31
0.0
 11
24.8953690632
 21
4.8365394782
 31
0.0
 11
24.90582577
 21
4.8278987809
 31
0.0
 11
24.9167925336
 21
4.8206316704
 31
0.0
 11
24.9281792082
 21
4.8147977612
 31
0.0
 11
24.9398924922
 21
4.8104447599
 31
0.0
 11
24.9518361969
 21
4.8076087231
 31
0.0
  0
SPLINE
  5
3D7
100
AcDbEntity
  8
0
100
AcDbSpline
 62
6
  6
CONTINUOUS
 70
0
 71
3
 72
23
 73
19
 74
17
 42
0.0000001
 43
0.0000001
 44
0.0000000001
 12
0.0
 22
0.239165156
 32
0.0
 13
0.2357350358
 23
0.0403604353
 33
0.0
 40
0.0
 40
0.0
 40
0.0
 40
0.0
 40
0.071576292
 40
0.1429151575
 40
0.2136503047
 40
0.2835184194
 40
0.3522815748
 40
0.419704959
 40
0.485583
 40
0.5497554707
 40
0.6121055371
 40
0.6725679865
 40
0.7311357043
 40
0.7878665343
 40
0.8428875381
 40
0.8963955789
 40
0.9486574729
 40
1.0
 40
1.0
 40
1.0
 40
1.0
 10
24.8342750601
 20
4.995315494
 30
0.0
 10
24.8342750601
 20
5.001021679
 30
0.0
 10
24.8346410052
 20
5.0124184488
 30
0.0
 10
24.8362767808
 20
5.0293836029
 30
0.0
 10
24.8389926244
 20
5.046072783
 30
0.0
 10
24.8427622998
 20
5.0623454523
 30
0.0
 10
24.8475575321
 20
5.0780708134
 30
0.0
 10
24.8533370366
 20
5.0931222836
 30
0.0
 10
24.8600575496
 20
5.1073753145
 30
0.0
 10
24.867662168
 20
5.1207146641
 30
0.0
 10
24.8760920819
 20
5.1330303906
 30
0.0
 10
24.8852782043
 20
5.1442227142
 30
0.0
 10
24.8951485881
 20
5.154198279
 30
0.0
 10
24.9056235222
 20
5.162874965
 30
0.0
 10
24.9166193859
 20
5.1701789267
 30
0.0
 10
24.9280479113
 20
5.1760474845
 30
0.0
 10
24.939812816
 20
5.1804283634
 30
0.0
 10
24.9478734145
 20
5.1823438206
 30
0.0
 10
24.9519078253
 20
5.1830345562
 30
0.0
 11
24.8342750601
 21
4.995315494
 31
0.0
 11
24.8348242835
 21
5.0124252363
 31
0.0
 11
24.8364661592
 21
5.0294078235
 31
0.0
 11
24.8391884626
 21
5.0461047363
 31
0.0
 11
24.8429676412
 21
5.0623817916
 31
0.0
 11
24.8477737887
 21
5.0781095907
 31
0.0
 11
24.8535664186
 21
5.0931585614
 31
0.0
 11
24.860298885
 21
5.1074034547
 31
0.0
 11
24.867915117
 21
5.1207281895
 31
0.0
 11
24.8763532518
 21
5.1330230881
 31
0.0
 11
24.8855434612
 21
5.1441876049
 31
0.0
 11
24.8954107202
 21
5.1541295996
 31
0.0
 11
24.9058736886
 21
5.1627677673
 31
0.0
 11
24.9168466958
 21
5.1700310454
 31
0.0
 11
24.9282394856
 21
5.1758597826
 31
0.0
 11
24.9399586296
 21
5.1802063059
 31
0.0
 11
24.9519078253
 21
5.1830345562
 31
0.0
  0
SPLINE
  5
3D8
100
AcDbEntity
  8
0
100
AcDbSpline
 62
9
  6
CONTINUOUS
 70
0
 71
3
 72
14
 73
10
 74
8
 42
0.0000001
 43
0.0000001
 44
0.0000000001
 12
0.0
 22
-0.1709696317
 32
0.0
 13
0.0999855431
 23
-0.1386849168
 33
0.0
 40
0.0
 40
0.0
 40
0.0
 40
0.0
 40
0.1312519246
 40
0.2619497404
 40
0.3913223617
 40
0.5188122307
 40
0.6438956614
 40
0.7660747927
 40
1.0
 40
1.0
 40
1.0
 40
1.0
 10
24.8828517609
 20
4.995315494
 30
0.0
 10
24.8828517609
 20
4.9878354629
 30
0.0
 10
24.8833770843
 20
4.9729016973
 30
0.0
 10
24.8857260685
 20
4.9507065162
 30
0.0
 10
24.8896207948
 20
4.9289454969
 30
0.0
 10
24.8950189711
 20
4.9078386193
 30
0.0
 10
24.901869816
 20
4.8875844371
 30
0.0
 10
24.9126875283
 20
4.8623684375
 30
0.0
 10
24.9229825575
 20
4.8447181949
 30
0.0
 10
24.9307789371
 20
4.8339042289
 30
0.0
 11
24.8828517609
 21
4.995315494
 31
0.0
 11
24.8836410736
 21
4.9728892868
 31
0.0
 11
24.8859998155
 21
4.9506687707
 31
0.0
 11
24.8899058311
 21
4.9288975997
 31
0.0
 11
24.895319892
 21
4.9077837981
 31
0.0
 11
24.9021886878
 21
4.887531443
 31
0.0
 11
24.9104448303
 21
4.8683433442
 31
0.0
 11
24.9307789371
 21
4.8339042289
 31
0.0
  0
SPLINE
  5
3D9
100
AcDbEntity
  8
0
100
AcDbSpline
 62
9
  6
CONTINUOUS
 70
0
 71
3
 72
14
 73
10
 74
8
 42
0.0000001
 43
0.0000001
 44
0.0000000001
 12
0.0
 22
-0.1283359668
 32
0.0
 13
0.0750585305
 23
-0.1040977299
 33
0.0
 40
0.0
 40
0.0
 40
0.0
 40
0.0
 40
0.1312414412
 40
0.2619475486
 40
0.3913264007
 40
0.518812979
 40
0.6438938366
 40
0.7660750153
 40
1.0
 40
1.0
 40
1.0
 40
1.0
 10
24.8657836216
 20
4.995315494
 30
0.0
 10
24.8657836216
 20
4.9897011616
 30
0.0
 10
24.8661782491
 20
4.9784914525
 30
0.0
 10
24.867940995
 20
4.9618307226
 30
0.0
 10
24.8708648592
 20
4.9454956931
 30
0.0
 10
24.8749164878
 20
4.9296519689
 30
0.0
 10
24.8800597591
 20
4.9144488863
 30
0.0
 10
24.8881790425
 20
4.8955205593
 30
0.0
 10
24.8959067869
 20
4.882271379
 30
0.0
 10
24.9017594754
 20
4.874154359
 30
0.0
 11
24.8657836216
 21
4.995315494
 31
0.0
 11
24.8663761904
 21
4.9784829238
 31
0.0
 11
24.8681466294
 21
4.9618023211
 31
0.0
 11
24.8710787892
 21
4.9454593126
 31
0.0
 11
24.875142571
 21
4.929610915
 31
0.0
 11
24.8802987962
 21
4.9144092041
 31
0.0
 11
24.8864959005
 21
4.9000055304
 31
0.0
 11
24.9017594754
 21
4.874154359
 31
0.0
  0
SPLINE
  5
3DA
100
AcDbEntity
  8
0
100
AcDbSpline
 62
9
  6
CONTINUOUS
 70
0
 71
3
 72
14
 73
10
 74
8
 42
0.0000001
 43
0.0000001
 44
0.0000000001
 12
0.0
 22
0.1709696317
 32
0.0
 13
0.0999855431
 23
0.1386849168
 33
0.0
 40
0.0
 40
0.0
 40
0.0
 40
0.0
 40
0.1312519246
 40
0.2619497404
 40
0.3913223617
 40
0.5188122307
 40
0.6438956614
 40
0.7660747927
 40
1.0
 40
1.0
 40
1.0
 40
1.0
 10
24.8828517609
 20
4.995315494
 30
0.0
 10
24.8828517609
 20
5.0027955251
 30
0.0
 10
24.8833770843
 20
5.0177292907
 30
0.0
 10
24.8857260685
 20
5.0399244718
 30
0.0
 10
24.8896207948
 20
5.0616854911
 30
0.0
 10
24.8950189711
 20
5.0827923687
 30
0.0
 10
24.901869816
 20
5.1030465509
 30
0.0
 10
24.9126875283
 20
5.1282625505
 30
0.0
 10
24.9229825575
 20
5.1459127931
 30
0.0
 10
24.9307789371
 20
5.1567267591
 30
0.0
 11
24.8828517609
 21
4.995315494
 31
0.0
 11
24.8836410736
 21
5.0177417012
 31
0.0
 11
24.8859998155
 21
5.0399622173
 31
0.0
 11
24.8899058311
 21
5.0617333883
 31
0.0
 11
24.895319892
 21
5.0828471899
 31
0.0
 11
24.9021886878
 21
5.103099545
 31
0.0
 11
24.9104448303
 21
5.1222876438
 31
0.0
 11
24.9307789371
 21
5.1567267591
 31
0.0
  0
SPLINE
  5
3DB
100
AcDbEntity
  8
0
100
AcDbSpline
 62
9
  6
CONTINUOUS
 70
0
 71
3
 72
14
 73
10
 74
8
 42
0.0000001
 43
0.0000001
 44
0.0000000001
 12
0.0
 22
0.1283359668
 32
0.0
 13
0.0750585305
 23
0.1040977299
 33
0.0
 40
0.0
 40
0.0
 40
0.0
 40
0.0
 40
0.1312414412
 40
0.2619475486
 40
0.3913264007
 40
0.518812979
 40
0.6438938366
 40
0.7660750153
 40
1.0
 40
1.0
 40
1.0
 40
1.0
 10
24.8657836216
 20
4.995315494
 30
0.0
 10
24.8657836216
 20
5.0009298264
 30
0.0
 10
24.8661782491
 20
5.0121395354
 30
0.0
 10
24.867940995
 20
5.0288002654
 30
0.0
 10
24.8708648592
 20
5.0451352949
 30
0.0
 10
24.8749164878
 20
5.0609790191
 30
0.0
 10
24.8800597591
 20
5.0761821017
 30
0.0
 10
24.8881790425
 20
5.0951104287
 30
0.0
 10
24.8959067869
 20
5.108359609
 30
0.0
 10
24.9017594754
 20
5.116476629
 30
0.0
 11
24.8657836216
 21
4.995315494
 31
0.0
 11
24.8663761904
 21
5.0121480641
 31
0.0
 11
24.8681466294
 21
5.0288286668
 31
0.0
 11
24.8710787892
 21
5.0451716754
 31
0.0
 11
24.875142571
 21
5.061020073
 31
0.0
 11
24.8802987962
 21
5.0762217838
 31
0.0
 11
24.8864959005
 21
5.0906254575
 31
0.0
 11
24.9017594754
 21
5.116476629
 31
0.0
  0
SPLINE
  5
3DC
100
AcDbEntity
  8
0
100
AcDbSpline
 62
9
  6
CONTINUOUS
 70
0
 71
3
 72
25
 73
21
 74
19
 42
0.0000001
 43
0.0000001
 44
0.0000000001
 12
0.3847561509
 22
0.3414295557
 32
0.0
 13
0.514403962
 23
0.0000318624
 33
0.0
 40
0.0
 40
0.0
 40
0.0
 40
0.0
 40
0.0062914432
 40
0.024761361
 40
0.0543682934
 40
0.0937455809
 40
0.141553378
 40
0.1966029801
 40
0.2579658974
 40
0.3248959075
 40
0.4732387996
 40
0.5538141488
 40
0.6380612033
 40
0.6814175127
 40
0.7254902238
 40
0.8154577863
 40
0.8611842573
 40
0.9072746434
 40
0.9535966968
 40
1.0
 40
1.0
 40
1.0
 40
1.0
 10
23.9436124234
 20
17.1503598019
 30
0.0
 10
23.9444193139
 20
17.1510758301
 30
0.0
 10
23.9475960454
 20
17.1538927616
 30
0.0
 10
23.9546323387
 20
17.1600086252
 30
0.0
 10
23.9661153331
 20
17.169654455
 30
0.0
 10
23.9817724856
 20
17.18214476
 30
0.0
 10
24.001307422
 20
17.1967540449
 30
0.0
 10
24.024474278
 20
17.2127728961
 30
0.0
 10
24.0510641736
 20
17.2295652188
 30
0.0
 10
24.0923058924
 20
17.2530246082
 30
0.0
 10
24.1383098119
 20
17.2746772591
 30
0.0
 10
24.1886410527
 20
17.2934571468
 30
0.0
 10
24.2227950828
 20
17.303923558
 30
0.0
 10
24.2513159741
 20
17.3112269597
 30
0.0
 10
24.2810123185
 20
17.3178319455
 30
0.0
 10
24.3114214357
 20
17.3230357464
 30
0.0
 10
24.3423732848
 20
17.3267564171
 30
0.0
 10
24.3659781245
 20
17.3287795439
 30
0.0
 10
24.389753362
 20
17.3300036517
 30
0.0
 10
24.405654113
 20
17.3302796196
 30
0.0
 10
24.413610794
 20
17.3302801124
 30
0.0
 11
23.9436124234
 21
17.1503598019
 31
0.0
 11
23.94603542
 21
17.1525052634
 31
0.0
 11
23.9532043649
 21
17.1587402622
 31
0.0
 11
23.9648674895
 21
17.1685342445
 31
0.0
 11
23.9807006755
 21
17.1811678894
 31
0.0
 11
24.0003956686
 21
17.1958953909
 31
0.0
 11
24.0236866488
 21
17.2120020439
 31
0.0
 11
24.050375788
 21
17.2288561168
 31
0.0
 11
24.0803021057
 21
17.2458789204
 31
0.0
 11
24.1493492926
 21
17.2783661954
 31
0.0
 11
24.1881826374
 21
17.2928551968
 31
0.0
 11
24.2296188516
 21
17.3055491849
 31
0.0
 11
24.2512242383
 21
17.3110823391
 31
0.0
 11
24.2733549535
 21
17.3160030831
 31
0.0
 11
24.318971298
 21
17.3238105817
 31
0.0
 11
24.342325231
 21
17.326616389
 31
0.0
 11
24.3659476029
 21
17.3286421947
 31
0.0
 11
24.3897443131
 21
17.3298677463
 31
0.0
 11
24.413610794
 21
17.3302801124
 31
0.0
  0
LINE
  5
3DD
100
AcDbEntity
  8
0
100
AcDbLine
 62
9
  6
CONTINUOUS
 10
24.8836091661
 20
16.2002711881
 11
24.8826102876
 21
16.1993858042
  0
SPLINE
  5
3DE
100
AcDbEntity
  8
0
100
AcDbSpline
 62
9
  6
CONTINUOUS
 70
0
 71
3
 72
26
 73
22
 74
20
 42
0.0000001
 43
0.0000001
 44
0.0000000001
 12
-0.383935439
 22
-0.3403188103
 32
0.0
 13
-0.5130529341
 23
-0.0000285443
 33
0.0
 40
0.0
 40
0.0
 40
0.0
 40
0.0
 40
0.0053240242
 40
0.0134425677
 40
0.0242434486
 40
0.0376013441
 40
0.0713596921
 40
0.1134809614
 40
0.2184616863
 40
0.3457168862
 40
0.4909168166
 40
0.5692835467
 40
0.6097364401
 40
0.6509677292
 40
0.7354852099
 40
0.7786439277
 40
0.8222967999
 40
0.8663605591
 40
0.910748588
 40
0.95533955
 40
1.0
 40
1.0
 40
1.0
 40
1.0
 10
24.8826102876
 20
16.1993858042
 30
0.0
 10
24.881928927
 20
16.1987818491
 30
0.0
 10
24.8802069973
 20
16.1972586938
 30
0.0
 10
24.877085269
 20
16.1945301657
 30
0.0
 10
24.8729040438
 20
16.1909262413
 30
0.0
 10
24.8653480226
 20
16.1845219699
 30
0.0
 10
24.8535355785
 20
16.1748563572
 30
0.0
 10
24.8290708872
 20
16.1559253471
 30
0.0
 10
24.7904578283
 20
16.1291853901
 30
0.0
 10
24.7344504316
 20
16.0969259237
 30
0.0
 10
24.6796792416
 20
16.0721436496
 30
0.0
 10
24.6371554137
 20
16.0568995861
 30
0.0
 10
24.6110125743
 20
16.0487773024
 30
0.0
 10
24.5836265907
 20
16.0411563101
 30
0.0
 10
24.5554521424
 20
16.0346847285
 30
0.0
 10
24.5266156935
 20
16.0294707339
 30
0.0
 10
24.5044712928
 20
16.0261904279
 30
0.0
 10
24.4820241242
 20
16.0236000143
 30
0.0
 10
24.4593438999
 20
16.0217344802
 30
0.0
 10
24.4365132441
 20
16.0206056022
 30
0.0
 10
24.421248519
 20
16.0203513005
 30
0.0
 10
24.413610794
 20
16.0203508756
 30
0.0
 11
24.8826102876
 21
16.1993858042
 31
0.0
 11
24.8805635482
 21
16.1975769416
 31
0.0
 11
24.8774279632
 21
16.1948351624
 31
0.0
 11
24.8732308291
 21
16.1912169529
 31
0.0
 11
24.8680022931
 21
16.1867863507
 31
0.0
 11
24.854599067
 21
16.1758168621
 31
0.0
 11
24.8375077917
 21
16.1625919061
 31
0.0
 11
24.7932297466
 21
16.1319255339
 31
0.0
 11
24.7366535902
 21
16.0993410769
 31
0.0
 11
24.6687791548
 21
16.0686392308
 31
0.0
 11
24.6309311704
 21
16.055071803
 31
0.0
 11
24.6111109725
 21
16.0489148542
 31
0.0
 11
24.5907316779
 21
16.0432430784
 31
0.0
 11
24.5484690609
 21
16.0335410594
 31
0.0
 11
24.5266797273
 21
16.029600957
 31
0.0
 11
24.5045252319
 21
16.0263192441
 31
0.0
 11
24.4820670712
 21
16.0237290078
 31
0.0
 11
24.4593704233
 21
16.0218607724
 31
0.0
 11
24.4365208173
 21
16.0207309003
 31
0.0
 11
24.413610794
 21
16.0203508756
 31
0.0
  0
LINE
  5
3DF
100
AcDbEntity
  8
0
100
AcDbLine
 62
9
  6
CONTINUOUS
 10
24.906790339
 20
16.2642939235
 11
24.9057185613
 21
16.2635463302
  0
SPLINE
  5
3E0
100
AcDbEntity
  8
0
100
AcDbSpline
 62
9
  6
CONTINUOUS
 70
0
 71
3
 72
27
 73
23
 74
21
 42
0.0000001
 43
0.0000001
 44
0.0000000001
 12
-0.4278290479
 22
-0.2984281525
 32
0.0
 13
-0.5216292327
 23
0.0000000677
 33
0.0
 40
0.0
 40
0.0
 40
0.0
 40
0.0
 40
0.0047414623
 40
0.011893469
 40
0.0213984776
 40
0.0331935659
 40
0.063311881
 40
0.1015492901
 40
0.1996728383
 40
0.3229604498
 40
0.3929895271
 40
0.4681350232
 40
0.5480594242
 40
0.589688344
 40
0.6323545858
 40
0.6759844855
 40
0.7204897465
 40
0.8117543347
 40
0.8583036008
 40
0.9053050372
 40
0.9525977207
 40
1.0
 40
1.0
 40
1.0
 40
1.0
 10
24.9057185613
 20
16.2635463302
 30
0.0
 10
24.9050423828
 20
16.2630746682
 30
0.0
 10
24.9033452214
 20
16.2618930346
 30
0.0
 10
24.9002805823
 20
16.2597831307
 30
0.0
 10
24.8961884875
 20
16.2570029481
 30
0.0
 10
24.8887579868
 20
16.2520309659
 30
0.0
 10
24.8770578606
 20
16.2444571892
 30
0.0
 10
24.8523896004
 20
16.2293061457
 30
0.0
 10
24.812827975
 20
16.2074848835
 30
0.0
 10
24.7667502741
 20
16.1862585691
 30
0.0
 10
24.7232415629
 20
16.1693155818
 30
0.0
 10
24.6861644091
 20
16.1567357778
 30
0.0
 10
24.6532882755
 20
16.1472578052
 30
0.0
 10
24.625585518
 20
16.1403284758
 30
0.0
 10
24.6038785556
 20
16.1354632852
 30
0.0
 10
24.5815663447
 20
16.1310433363
 30
0.0
 10
24.5508221778
 20
16.1257535868
 30
0.0
 10
24.5193781241
 20
16.121593769
 30
0.0
 10
24.4873784995
 20
16.1186172841
 30
0.0
 10
24.4629397533
 20
16.1169962016
 30
0.0
 10
24.4383189853
 20
16.1160149527
 30
0.0
 10
24.4218529322
 20
16.1157940482
 30
0.0
 10
24.413610794
 20
16.1157940493
 30
0.0
 11
24.9057185613
 21
16.2635463302
 31
0.0
 11
24.9036882144
 21
16.2621339449
 31
0.0
 11
24.9006157116
 21
16.2600178595
 31
0.0
 11
24.896514944
 21
16.2572310397
 31
0.0
 11
24.8914010198
 21
16.2538100691
 31
0.0
 11
24.8782138646
 21
16.2452706495
 31
0.0
 11
24.8612183738
 21
16.2348310014
 31
0.0
 11
24.8164126293
 21
16.2100871437
 31
0.0
 11
24.7580183189
 21
16.1831439643
 31
0.0
 11
24.7239812966
 21
16.1698825701
 31
0.0
 11
24.6868632758
 21
16.1572832608
 31
0.0
 11
24.6468059259
 21
16.1457273016
 31
0.0
 11
24.6257401221
 21
16.14045785
 31
0.0
 11
24.6040231763
 21
16.1355893827
 31
0.0
 11
24.5816985677
 21
16.1311659067
 31
0.0
 11
24.5588194657
 21
16.1272296268
 31
0.0
 11
24.511625303
 21
16.120979136
 31
0.0
 11
24.4874481422
 21
16.1187310049
 31
0.0
 11
24.4629846666
 21
16.1171069675
 31
0.0
 11
24.4383350048
 21
16.1161241749
 31
0.0
 11
24.413610794
 21
16.1157940493
 31
0.0
  0
SPLINE
  5
3E1
100
AcDbEntity
  8
0
100
AcDbSpline
 62
9
  6
CONTINUOUS
 70
0
 71
3
 72
30
 73
26
 74
24
 42
0.0000001
 43
0.0000001
 44
0.0000000001
 12
0.5144105507
 22
-0.0000332755
 32
0.0
 13
0.3836257168
 23
-0.342709097
 33
0.0
 40
0.0
 40
0.0
 40
0.0
 40
0.0
 40
0.0464022224
 40
0.0927222419
 40
0.1388103471
 40
0.1845360421
 40
0.2298031571
 40
0.2745162121
 40
0.3185887368
 40
0.3619446376
 40
0.4461910953
 40
0.5267667421
 40
0.675108313
 40
0.742037476
 40
0.8034001171
 40
0.8584493677
 40
0.9062565807
 40
0.9456332787
 40
0.9617470902
 40
0.9752399526
 40
0.9859393352
 40
0.9937093846
 40
0.9964563674
 40
0.9984240062
 40
1.0
 40
1.0
 40
1.0
 40
1.0
 10
24.413610794
 20
17.3302801124
 30
0.0
 10
24.4215673916
 20
17.3302795977
 30
0.0
 10
24.4374677928
 20
17.3300037351
 30
0.0
 10
24.461242507
 20
17.3287798711
 30
0.0
 10
24.4848464647
 20
17.3267565583
 30
0.0
 10
24.5081881505
 20
17.3239505096
 30
0.0
 10
24.5311899255
 20
17.3204024999
 30
0.0
 10
24.553782848
 20
17.3161472727
 30
0.0
 10
24.5759047971
 20
17.3112272355
 30
0.0
 10
24.6044255574
 20
17.303923929
 30
0.0
 10
24.6385800025
 20
17.2934572101
 30
0.0
 10
24.6889116463
 20
17.2746773944
 30
0.0
 10
24.7349158443
 20
17.2530244975
 30
0.0
 10
24.7761577528
 20
17.229565069
 30
0.0
 10
24.8027477418
 20
17.212772611
 30
0.0
 10
24.8259146603
 20
17.196753574
 30
0.0
 10
24.8454498358
 20
17.1821445738
 30
0.0
 10
24.8592975328
 20
17.1710963652
 30
0.0
 10
24.8683934621
 20
17.1635342905
 30
0.0
 10
24.8736595141
 20
17.1590581189
 30
0.0
 10
24.8778062338
 20
17.1554745378
 30
0.0
 10
24.880541512
 20
17.1530759239
 30
0.0
 10
24.8821452394
 20
17.1516578709
 30
0.0
 10
24.882951788
 20
17.1509416524
 30
0.0
 10
24.8834076231
 20
17.1505398663
 30
0.0
 10
24.8836091537
 20
17.1503598305
 30
0.0
 11
24.413610794
 21
17.3302801124
 31
0.0
 11
24.4374770262
 21
17.3298678374
 31
0.0
 11
24.4612730029
 21
17.3286424489
 31
0.0
 11
24.4848944936
 21
17.3266165455
 31
0.0
 11
24.5082483264
 21
17.3238107257
 31
0.0
 11
24.531261983
 21
17.3202605291
 31
0.0
 11
24.5538654344
 21
17.316003314
 31
0.0
 11
24.5759963594
 21
17.3110826174
 31
0.0
 11
24.597601836
 21
17.3055495105
 31
0.0
 11
24.6390382637
 21
17.2928553717
 31
0.0
 11
24.677872275
 21
17.2783662002
 31
0.0
 11
24.746919727
 21
17.2458787895
 31
0.0
 11
24.7768460555
 21
17.2288559939
 31
0.0
 11
24.8035353848
 21
17.2120017311
 31
0.0
 11
24.8268265083
 21
17.1958949654
 31
0.0
 11
24.8465214878
 21
17.1811674216
 31
0.0
 11
24.8623546122
 21
17.1685337698
 31
0.0
 11
24.8687284823
 21
17.1632344111
 31
0.0
 11
24.8740176103
 21
17.1587398797
 31
0.0
 11
24.8781812269
 21
17.1551403047
 31
0.0
 11
24.8811864186
 21
17.1525050068
 31
0.0
 11
24.8822449646
 21
17.1515689156
 31
0.0
 11
24.8830024619
 21
17.1508975779
 31
0.0
 11
24.8836091537
 21
17.1503598305
 31
0.0
  0
SPLINE
  5
3E2
100
AcDbEntity
  8
0
100
AcDbSpline
 62
6
  6
CONTINUOUS
 70
0
 71
3
 72
20
 73
16
 74
14
 42
0.0000001
 43
0.0000001
 44
0.0000000001
 12
-0.1394129984
 22
0.0
 32
0.0
 13
-0.0377391139
 23
0.1342078366
 33
0.0
 40
0.0
 40
0.0
 40
0.0
 40
0.0
 40
0.0620183238
 40
0.1225301553
 40
0.1817666669
 40
0.2400542649
 40
0.2978035144
 40
0.3554290713
 40
0.4133550265
 40
0.471974494
 40
0.5316509109
 40
0.5927153205
 40
0.719968726
 40
0.8554495253
 40
1.0
 40
1.0
 40
1.0
 40
1.0
 10
24.1060193442
 20
4.795315494
 30
0.0
 10
24.1031372907
 20
4.795315494
 30
0.0
 10
24.097439516
 20
4.7955635666
 30
0.0
 10
24.0890584803
 20
4.7967087894
 30
0.0
 10
24.0809943911
 20
4.7986183415
 30
0.0
 10
24.0732827537
 20
4.8012825498
 30
0.0
 10
24.0659471384
 20
4.804679821
 30
0.0
 10
24.0590072603
 20
4.8087925027
 30
0.0
 10
24.0524750856
 20
4.8135933558
 30
0.0
 10
24.0463585345
 20
4.8190562815
 30
0.0
 10
24.0406612867
 20
4.8251550184
 30
0.0
 10
24.0335225411
 20
4.8342169601
 30
0.0
 10
24.0256414833
 20
4.8471028561
 30
0.0
 10
24.017910226
 20
4.8644212154
 30
0.0
 10
24.0138700682
 20
4.8768153909
 30
0.0
 10
24.0120516659
 20
4.883281993
 30
0.0
 11
24.1060193442
 21
4.795315494
 31
0.0
 11
24.0973817752
 21
4.7957008397
 31
0.0
 11
24.0890245685
 21
4.7968521373
 31
0.0
 11
24.080990134
 21
4.7987621206
 31
0.0
 11
24.073310514
 21
4.8014184537
 31
0.0
 11
24.0660053723
 21
4.8048027472
 31
0.0
 11
24.05909231
 21
4.8088955133
 31
0.0
 11
24.0525815651
 21
4.8136731717
 31
0.0
 11
24.0464807699
 21
4.8191107301
 31
0.0
 11
24.0407932217
 21
4.8251826882
 31
0.0
 11
24.0355158989
 21
4.8318628057
 31
0.0
 11
24.026171904
 21
4.8469434221
 31
0.0
 11
24.0183809491
 21
4.8641495089
 31
0.0
 11
24.0120516659
 21
4.883281993
 31
0.0
  0
SPLINE
  5
3E3
100
AcDbEntity
  8
0
100
AcDbSpline
 62
6
  6
CONTINUOUS
 70
0
 71
3
 72
20
 73
16
 74
14
 42
0.0000001
 43
0.0000001
 44
0.0000000001
 12
0.0377770028
 22
0.1340565572
 32
0.0
 13
0.1392776452
 23
-0.0
 33
0.0
 40
0.0
 40
0.0
 40
0.0
 40
0.0
 40
0.1445176466
 40
0.2799733802
 40
0.4072130406
 40
0.4682752185
 40
0.5279525788
 40
0.5865756475
 40
0.6445082374
 40
0.7021425423
 40
0.7599020088
 40
0.8182006477
 40
0.8774480215
 40
0.9379708703
 40
1.0
 40
1.0
 40
1.0
 40
1.0
 10
24.0120883719
 20
5.1074793791
 30
0.0
 10
24.0139081864
 20
5.1139372251
 30
0.0
 10
24.0179507917
 20
5.1263144804
 30
0.0
 10
24.0256839809
 20
5.1436081874
 30
0.0
 10
24.0335647046
 20
5.1564748522
 30
0.0
 10
24.0407018043
 20
5.1655229345
 30
0.0
 10
24.0463973065
 20
5.1716123458
 30
0.0
 10
24.0525113663
 20
5.1770668714
 30
0.0
 10
24.0590404223
 20
5.181860142
 30
0.0
 10
24.0659764073
 20
5.1859663207
 30
0.0
 10
24.0733074142
 20
5.1893581379
 30
0.0
 10
24.0810137264
 20
5.1920179957
 30
0.0
 10
24.0890718175
 20
5.1939244978
 30
0.0
 10
24.0974463373
 20
5.195067833
 30
0.0
 10
24.1031395872
 20
5.195315494
 30
0.0
 10
24.1060193442
 20
5.195315494
 30
0.0
 11
24.0120883719
 21
5.1074793791
 31
0.0
 11
24.0184211533
 21
5.1265852782
 31
0.0
 11
24.0262137488
 21
5.1437666559
 31
0.0
 11
24.0355572708
 21
5.1588250466
 31
0.0
 11
24.0408334733
 21
5.1654951175
 31
0.0
 11
24.0465192596
 21
5.1715578364
 31
0.0
 11
24.0526175654
 21
5.1769870149
 31
0.0
 11
24.0591252078
 21
5.1817572086
 31
0.0
 11
24.0660344377
 21
5.1858435278
 31
0.0
 11
24.073335034
 21
5.1892224215
 31
0.0
 11
24.0810094162
 21
5.1918744661
 31
0.0
 11
24.089037896
 21
5.1937813714
 31
0.0
 11
24.0973886428
 21
5.1949307878
 31
0.0
 11
24.1060193442
 21
5.195315494
 31
0.0
  0
SPLINE
  5
3E4
100
AcDbEntity
  8
0
100
AcDbSpline
 62
9
  6
CONTINUOUS
 70
0
 71
3
 72
20
 73
16
 74
14
 42
0.0000001
 43
0.0000001
 44
0.0000000001
 12
-0.3992885785
 22
0.0000212306
 32
0.0
 13
-0.3370809383
 23
0.2140275926
 33
0.0
 40
0.0
 40
0.0
 40
0.0
 40
0.0
 40
0.0713187636
 40
0.1424310309
 40
0.2827998701
 40
0.3516376662
 40
0.4193105278
 40
0.4856431714
 40
0.5504692985
 40
0.6136619695
 40
0.6750912229
 40
0.7346416777
 40
0.7922030841
 40
0.9008573233
 40
1.0
 40
1.0
 40
1.0
 40
1.0
 10
24.413610794
 20
26.5883508756
 30
0.0
 10
24.4041185381
 20
26.5883513803
 30
0.0
 10
24.3851588948
 20
26.588743426
 30
0.0
 10
24.3475825749
 20
26.5910476033
 30
0.0
 10
24.3105027631
 20
26.595598345
 30
0.0
 10
24.274251951
 20
26.6022639462
 30
0.0
 10
24.2479026166
 20
26.6081777025
 30
0.0
 10
24.222313554
 20
26.6149491719
 30
0.0
 10
24.1975651844
 20
26.6224953227
 30
0.0
 10
24.1737221465
 20
26.6307150701
 30
0.0
 10
24.1508379768
 20
26.6395140307
 30
0.0
 10
24.1289559324
 20
26.6487919655
 30
0.0
 10
24.1016858015
 20
26.6614222322
 30
0.0
 10
24.0703416049
 20
26.6777483115
 30
0.0
 10
24.0465795367
 20
26.6919309566
 30
0.0
 10
24.0354398346
 20
26.6990040461
 30
0.0
 11
24.413610794
 21
26.5883508756
 31
0.0
 11
24.385140052
 21
26.5889366628
 31
0.0
 11
24.3567991006
 21
26.5906766827
 31
0.0
 11
24.3011680665
 21
26.5974979613
 31
0.0
 11
24.2741350583
 21
26.6024683411
 31
0.0
 11
24.2477696281
 21
26.6083843003
 31
0.0
 11
24.2221652572
 21
26.615160534
 31
0.0
 11
24.1974058633
 21
26.6227084521
 31
0.0
 11
24.173551519
 21
26.6309321815
 31
0.0
 11
24.1506573616
 21
26.6397344713
 31
0.0
 11
24.1287657801
 21
26.6490158081
 31
0.0
 11
24.1079104736
 21
26.6586751362
 31
0.0
 11
24.0694321659
 21
26.6787157381
 31
0.0
 11
24.0354398346
 21
26.6990040461
 31
0.0
  0
ENDSEC
  0
SECTION
  2
OBJECTS
  0
DICTIONARY
  5
C
100
AcDbDictionary
280
0
281
1
  3
ACAD_GROUP
350
D
  3
ACAD_MLINESTYLE
350
17
  3
ACAD_LAYOUT
350
1A
  3
ACAD_PLOTSETTINGS
350
19
  3
ACAD_PLOTSTYLENAME
350
E
  0
DICTIONARY
  5
D
102
{ACAD_REACTORS
330
C
102
}
100
AcDbDictionary
280
0
281
1
  0
ACDBDICTIONARYWDFLT
  5
E
102
{ACAD_REACTORS
330
C
102
}
100
AcDbDictionary
281
1
  3
Normal
350
F
100
AcDbDictionaryWithDefault
340
F
  0
DICTIONARY
  5
17
102
{ACAD_REACTORS
330
C
102
}
100
AcDbDictionary
280
0
281
1
  3
Standard
350
18
  0
DICTIONARY
  5
19
102
{ACAD_REACTORS
330
C
102
}
100
AcDbDictionary
281
1
  0
DICTIONARY
  5
1A
102
{ACAD_REACTORS
330
C
102
}
100
AcDbDictionary
281
1
  3
Model
350
3E5
  3
Layout1
350
3E6
  0
ACDBPLACEHOLDER
  5
F
102
{ACAD_REACTORS
330
E
102
}
  0
MLINESTYLE
  5
18
102
{ACAD_REACTORS
330
17
102
}
100
AcDbMlineStyle
  2
STANDARD
 70
0
  3

 62
256
 51
90.0
 52
90.0
 71
2
 49
0.5
 62
256
  6
BYLAYER
 49
-0.5
 62
256
  6
BYLAYER
  0
LAYOUT
  5
3E5
102
{ACAD_REACTORS
330
1A
102
}
100
AcDbPlotSettings
  1

  2
none_device
  4
ISO_A0_(1189.00_x_841.00_MM)
  6

 40
0.0
 41
0.0
 42
0.0
 43
0.0
 44
1189.0
 45
841.0
 46
0.0
 47
0.0
 48
0.0
 49
0.0
140
0.0
141
0.0
142
1.0
143
1.0
 70
1024
 72
0
 73
0
 74
0
  7

 75
0
147
1.0
148
0.0
149
0.0
100
AcDbLayout
  1
Model
 70
0
 71
0
 10
0.0
 20
0.0
 11
46.811023622
 21
33.1102362205
 12
0.0
 22
0.0
 32
0.0
 14
0.0
 24
0.0
 34
0.0
 15
0.0
 25
0.0
 35
0.0
146
0.0
 13
0.0
 23
0.0
 33
0.0
 16
1.0
 26
0.0
 36
0.0
 17
0.0
 27
1.0
 37
0.0
 76
0
330
203
345
0
346
0
  0
LAYOUT
  5
3E6
102
{ACAD_REACTORS
330
1A
102
}
100
AcDbPlotSettings
  1

  2
none_device
  4
ISO_A0_(1189.00_x_841.00_MM)
  6

 40
0.0
 41
0.0
 42
0.0
 43
0.0
 44
1189.0
 45
841.0
 46
0.0
 47
0.0
 48
0.0
 49
0.0
140
0.0
141
0.0
142
1.0
143
1.0
 70
0
 72
0
 73
0
 74
0
  7

 75
0
147
1.0
148
0.0
149
0.0
100
AcDbLayout
  1
Layout1
 70
0
 71
1
 10
0.0
 20
0.0
 11
46.811023622
 21
33.1102362205
 12
0.0
 22
0.0
 32
0.0
 14
0.0
 24
0.0
 34
0.0
 15
0.0
 25
0.0
 35
0.0
146
0.0
 13
0.0
 23
0.0
 33
0.0
 16
1.0
 26
0.0
 36
0.0
 17
0.0
 27
1.0
 37
0.0
 76
0
330
204
345
0
346
0
  0
ENDSEC
  0
EOF
