  0
SECTION
  2
HEADER
  9
$ACADVER
  1
AC1015
  9
$DWGCODEPAGE
  3
ANSI_1252
  9
$EXTMAX
 10
46.811023622
 20
33.1102362205
 30
0.0
  9
$EXTMIN
 10
0.0
 20
0.0
 30
0.0
  9
$LIMMIN
 10
0.0
 20
0.0
  9
$LIMMAX
 10
46.811023622
 20
33.1102362205
  9
$VIEWCTR
 10
23.405511811
 20
16.5551181102
  9
$VIEWSIZE
 40
33.1102362205
  9
$CLAYER
  8
0
  9
$LTSCALE
 40
2.5746062992
  9
$CELTYPE
  6
BYLAYER
  9
$DIMSCALE
 40
1.0
  9
$DIMASZ
 40
0.1875
  9
$DIMEXO
 40
0.2925688976
  9
$DIMDLI
 40
1.7788188976
  9
$DIMEXE
 40
0.8425984252
  9
$DIMCEN
 40
0.4212992126
  9
$DIMLFAC
 40
1.0
  9
$DIMBLK
  1
_CLOSED
  9
$DIMTXT
 40
0.15625
  9
$DIMTOL
 70
0
  9
$DIMLIM
 70
0
  9
$DIMTFAC
 40
1.0
  9
$PDMODE
 70
3
  9
$PDSIZE
 40
0.3125
  9
$HANDSEED
  5
242
  9
$TILEMODE
 70
1
  9
$MEASUREMENT
 70
0
  9
$INSUNITS
 70
1
  0
ENDSEC
  0
SECTION
  2
CLASSES
  0
CLASS
  1
ACDBDICTIONARYWDFLT
  2
AcDbDictionaryWithDefault
  3
AutoCAD 2000
 90
0
280
0
281
0
  0
CLASS
  1
ACDBPLACEHOLDER
  2
AcDbPlaceHolder
  3
AutoCAD 2000
 90
0
280
0
281
0
  0
CLASS
  1
LAYOUT
  2
AcDbLayout
  3
AutoCAD 2000
 90
0
280
0
281
0
  0
ENDSEC
  0
SECTION
  2
TABLES
  0
TABLE
  2
VPORT
  5
8
100
AcDbSymbolTable
 70
2
  0
VPORT
  5
1F4
100
AcDbSymbolTableRecord
100
AcDbViewportTableRecord
  2
*ACTIVE
 70
0
 10
0.0
 20
0.0
 11
1.0
 21
1.0
 12
23.405511811
 22
16.5551181102
 13
0.0
 23
0.0
 14
1.0
 24
1.0
 15
0.0
 25
0.0
 16
0.0
 26
0.0
 36
1.0
 17
0.0
 27
0.0
 37
0.0
 40
33.1102362205
 41
1.4137931034
 42
50.0
 43
0.0
 44
0.0
 50
0.0
 51
0.0
 71
0
 72
100
 73
1
 74
1
 75
0
 76
0
 77
0
 78
0
  0
ENDTAB
  0
TABLE
  2
LTYPE
  5
5
100
AcDbSymbolTable
 70
6
  0
LTYPE
  5
14
100
AcDbSymbolTableRecord
100
AcDbLinetypeTableRecord
  2
BYBLOCK
 70
0
  3

 72
65
 73
0
 40
0.0
  0
LTYPE
  5
15
100
AcDbSymbolTableRecord
100
AcDbLinetypeTableRecord
  2
BYLAYER
 70
0
  3

 72
65
 73
0
 40
0.0
  0
LTYPE
  5
16
100
AcDbSymbolTableRecord
100
AcDbLinetypeTableRecord
  2
CONTINUOUS
 70
64
  3
Solid line
 72
65
 73
0
 40
0.0
  0
LTYPE
  5
1F5
100
AcDbSymbolTableRecord
100
AcDbLinetypeTableRecord
  2
CENTER
 70
64
  3
____ _ ____ _ ____ _ ____ _ ____ _ ____ _ ____
 72
65
 73
4
 40
0.6
 49
0.375
 74
0
 49
-0.075
 74
0
 49
0.075
 74
0
 49
-0.075
 74
0
  0
LTYPE
  5
1F6
100
AcDbSymbolTableRecord
100
AcDbLinetypeTableRecord
  2
HIDDEN
 70
64
  3
- - - - - - - - - - - - - - - - - - - -
 72
65
 73
2
 40
0.2
 49
0.1
 74
0
 49
-0.1
 74
0
  0
LTYPE
  5
1F7
100
AcDbSymbolTableRecord
100
AcDbLinetypeTableRecord
  2
PHANTOM
 70
64
  3
_____ _ _ _____ _ _ _____ _ _ _____
 72
65
 73
6
 40
0.8
 49
0.45
 74
0
 49
-0.05
 74
0
 49
0.1
 74
0
 49
-0.05
 74
0
 49
0.1
 74
0
 49
-0.05
 74
0
  0
LTYPE
  5
1F8
100
AcDbSymbolTableRecord
100
AcDbLinetypeTableRecord
  2
DOT
 70
64
  3
. . . . . . . . . . . . . . . . . . . .
 72
65
 73
2
 40
0.2
 49
0.1
 74
0
 49
-0.1
 74
0
  0
LTYPE
  5
1F9
100
AcDbSymbolTableRecord
100
AcDbLinetypeTableRecord
  2
DASHED
 70
64
  3
- - - - - - - - - - - - - - - - - - - -
 72
65
 73
2
 40
0.2
 49
0.1
 74
0
 49
-0.1
 74
0
  0
ENDTAB
  0
TABLE
  2
LAYER
  5
2
100
AcDbSymbolTable
 70
36
  0
LAYER
  5
10
100
AcDbSymbolTableRecord
100
AcDbLayerTableRecord
  2
0
 70
0
 62
7
  6
CONTINUOUS
370
-3
390
F
  0
LAYER
  5
1FA
100
AcDbSymbolTableRecord
100
AcDbLayerTableRecord
  2
DEFAULT_1
 70
0
 62
7
  6
CENTER
370
-3
390
F
  0
LAYER
  5
1FB
100
AcDbSymbolTableRecord
100
AcDbLayerTableRecord
  2
DEFAULT_2
 70
0
 62
8
  6
HIDDEN
370
-3
390
F
  0
LAYER
  5
1FC
100
AcDbSymbolTableRecord
100
AcDbLayerTableRecord
  2
DEFAULT_3
 70
0
 62
7
  6
PHANTOM
370
-3
390
F
  0
LAYER
  5
1FD
100
AcDbSymbolTableRecord
100
AcDbLayerTableRecord
  2
DEFAULT_COORDINATE_SYSTEM
 70
0
 62
7
  6
CONTINUOUS
370
-3
390
F
  0
LAYER
  5
1FE
100
AcDbSymbolTableRecord
100
AcDbLayerTableRecord
  2
DEFAULT_DATUM_AXES
 70
0
 62
7
  6
CONTINUOUS
370
-3
390
F
  0
LAYER
  5
1FF
100
AcDbSymbolTableRecord
100
AcDbLayerTableRecord
  2
DEFAULT_DATUM_CURVES
 70
0
 62
7
  6
CONTINUOUS
370
-3
390
F
  0
LAYER
  5
200
100
AcDbSymbolTableRecord
100
AcDbLayerTableRecord
  2
DEFAULT_DATUM_PLANES
 70
0
 62
7
  6
CONTINUOUS
370
-3
390
F
  0
ENDTAB
  0
TABLE
  2
STYLE
  5
3
100
AcDbSymbolTable
 70
1
  0
STYLE
  5
11
100
AcDbSymbolTableRecord
100
AcDbTextStyleTableRecord
  2
STANDARD
 70
0
 40
0.0
 41
0.8
 50
0.0
 71
0
 42
0.2
  3
txt
  4

  0
STYLE
  5
201
100
AcDbSymbolTableRecord
100
AcDbTextStyleTableRecord
  2
TEXTSTYLE_1
 70
0
 40
0.0
 41
0.8
 50
0.0
 71
0
 42
0.2
  3
gdt
  4

  0
ENDTAB
  0
TABLE
  2
VIEW
  5
6
100
AcDbSymbolTable
 70
0
  0
ENDTAB
  0
TABLE
  2
UCS
  5
7
100
AcDbSymbolTable
 70
0
  0
ENDTAB
  0
TABLE
  2
APPID
  5
9
100
AcDbSymbolTable
 70
1
  0
APPID
  5
202
100
AcDbSymbolTableRecord
100
AcDbRegAppTableRecord
  2
ACAD
 70
0
  0
ENDTAB
  0
TABLE
  2
BLOCK_RECORD
  5
1
100
AcDbSymbolTable
 70
0
  0
BLOCK_RECORD
  5
203
100
AcDbSymbolTableRecord
100
AcDbBlockTableRecord
  2
*Model_Space
  0
BLOCK_RECORD
  5
204
100
AcDbSymbolTableRecord
100
AcDbBlockTableRecord
  2
*Paper_Space
  0
ENDTAB
  0
TABLE
  2
DIMSTYLE
  5
A
100
AcDbSymbolTable
 70
1
100
AcDbDimStyleTable
 71
0
  0
DIMSTYLE
105
205
100
AcDbSymbolTableRecord
100
AcDbDimStyleTableRecord
  2
STANDARD
 70
0
  3

  4

 40
1.0
 41
0.1875
 42
0.0625
 43
0.38
 44
0.18
 45
0.0
 46
0.0
 47
0.01
 48
0.01
140
0.15625
141
0.09
142
0.0
143
25.4
144
1.0
145
0.0
146
1.0
147
0.09
 71
0.0
 72
0.0
 73
1
 74
1
 75
0
 76
0
 77
0
 78
4
170
0
171
2
172
0
173
0
174
0
175
0
176
0
177
0
178
0
270
2
271
2
272
2
273
2
274
2
275
0
280
0
281
0
282
0
283
1
284
4
285
0
286
0
287
3
288
0
340
11
  0
ENDTAB
  0
ENDSEC
  0
SECTION
  2
BLOCKS
  0
BLOCK
  5
20
100
AcDbEntity
  8
0
100
AcDbBlockBegin
  2
*Model_Space
 70
0
 10
0.0
 20
0.0
 30
0.0
  3
*Model_Space
  1

  0
ENDBLK
  5
21
100
AcDbEntity
  8
0
100
AcDbBlockEnd
  0
BLOCK
  5
1C
100
AcDbEntity
  8
0
100
AcDbBlockBegin
  2
*Paper_Space
 70
0
 10
0.0
 20
0.0
 30
0.0
  3
*Paper_Space
  1

  0
ENDBLK
  5
1D
100
AcDbEntity
  8
0
100
AcDbBlockEnd
  0
ENDSEC
  0
SECTION
  2
ENTITIES
  0
LINE
  5
206
100
AcDbEntity
  8
0
100
AcDbLine
 62
9
  6
CONTINUOUS
 10
23.6253275086
 20
4.115025959
 11
22.5653275086
 21
4.115025959
  0
LINE
  5
207
100
AcDbEntity
  8
0
100
AcDbLine
 62
9
  6
CONTINUOUS
 10
23.6453275086
 20
4.135025959
 11
22.5453275086
 21
4.135025959
  0
LINE
  5
208
100
AcDbEntity
  8
0
100
AcDbLine
 62
7
  6
CONTINUOUS
 10
23.6453275086
 20
5.255025959
 11
22.5453275086
 21
5.255025959
  0
LINE
  5
209
100
AcDbEntity
  8
0
100
AcDbLine
 62
7
  6
CONTINUOUS
 10
23.6453275086
 20
5.275025959
 11
22.5453275086
 21
5.275025959
  0
LINE
  5
20A
100
AcDbEntity
  8
0
100
AcDbLine
 62
6
  6
CONTINUOUS
 10
23.6453275086
 20
7.375025959
 11
22.5453275086
 21
7.375025959
  0
LINE
  5
20B
100
AcDbEntity
  8
0
100
AcDbLine
 62
6
  6
CONTINUOUS
 10
22.5453275086
 20
7.375025959
 11
22.5453275086
 21
5.275025959
  0
LINE
  5
20C
100
AcDbEntity
  8
0
100
AcDbLine
 62
6
  6
CONTINUOUS
 10
22.5453275086
 20
5.255025959
 11
22.5453275086
 21
4.135025959
  0
LINE
  5
20D
100
AcDbEntity
  8
0
100
AcDbLine
 62
6
  6
CONTINUOUS
 10
22.6253275086
 20
16.4507577973
 11
22.6253275086
 21
15.785025959
  0
LINE
  5
20E
100
AcDbEntity
  8
0
100
AcDbLine
 62
6
  6
CONTINUOUS
 10
22.6253275086
 20
17.2392941619
 11
22.6253275086
 21
17.905025959
  0
LINE
  5
20F
100
AcDbEntity
  8
0
100
AcDbLine
 62
6
  6
CONTINUOUS
 10
22.6253275086
 20
26.355025959
 11
22.6253275086
 21
26.9248379714
  0
LINE
  5
210
100
AcDbEntity
  8
0
100
AcDbLine
 62
6
  6
CONTINUOUS
 10
22.7203275086
 20
26.355025959
 11
22.7203275086
 21
17.905025959
  0
LINE
  5
211
100
AcDbEntity
  8
0
100
AcDbLine
 62
6
  6
CONTINUOUS
 10
22.7203275086
 20
15.785025959
 11
22.7203275086
 21
7.375025959
  0
LINE
  5
212
100
AcDbEntity
  8
0
100
AcDbLine
 62
6
  6
CONTINUOUS
 10
22.8453275086
 20
24.440025959
 11
22.8453275086
 21
26.8093294821
  0
LWPOLYLINE
  5
213
100
AcDbEntity
  8
0
100
AcDbPolyline
 62
6
  6
CONTINUOUS
 90
8
 70
0
 10
22.6253288809
 20
17.2383493012
 10
22.625202905
 20
17.2344634876
 10
22.6245523504
 20
17.2287279541
 10
22.6233535956
 20
17.2230814776
 10
22.6216177381
 20
17.2175763301
 10
22.6193608488
 20
17.2122634746
 10
22.6166038223
 20
17.2071920909
 10
22.6135112648
 20
17.2025957737
  0
LWPOLYLINE
  5
214
100
AcDbEntity
  8
0
100
AcDbPolyline
 62
6
  6
CONTINUOUS
 90
9
 70
0
 10
23.5653260394
 20
26.9257826538
 10
23.5654673101
 20
26.9298974007
 10
23.5661778544
 20
26.9358565753
 10
23.5674802029
 20
26.9417149595
 10
23.5693613244
 20
26.947413933
 10
23.5718023949
 20
26.9528964703
 10
23.5747789862
 20
26.9581077124
 10
23.5782612978
 20
26.9629955006
 10
23.5820602119
 20
26.9673509776
  0
LINE
  5
215
100
AcDbEntity
  8
0
100
AcDbLine
 62
6
  6
CONTINUOUS
 10
22.6253357235
 20
15.785025959
 11
23.5653192936
 21
15.785025959
  0
LWPOLYLINE
  5
216
100
AcDbEntity
  8
0
100
AcDbPolyline
 62
6
  6
CONTINUOUS
 90
8
 70
0
 10
22.6135112645
 20
16.4874561452
 10
22.616603829
 20
16.4828598165
 10
22.6193608534
 20
16.4777884343
 10
22.6216177409
 20
16.4724755805
 10
22.623353597
 20
16.4669704349
 10
22.6245523509
 20
16.4613239605
 10
22.6252029049
 20
16.4555884291
 10
22.6253288807
 20
16.4517026173
  0
LINE
  5
217
100
AcDbEntity
  8
0
100
AcDbLine
 62
6
  6
CONTINUOUS
 10
23.3453275086
 20
24.440025959
 11
23.3453275086
 21
26.8093877462
  0
LINE
  5
218
100
AcDbEntity
  8
0
100
AcDbLine
 62
6
  6
CONTINUOUS
 10
23.4703275086
 20
26.355025959
 11
23.4703275086
 21
17.905025959
  0
LINE
  5
219
100
AcDbEntity
  8
0
100
AcDbLine
 62
6
  6
CONTINUOUS
 10
23.4703275086
 20
15.785025959
 11
23.4703275086
 21
7.375025959
  0
LINE
  5
21A
100
AcDbEntity
  8
0
100
AcDbLine
 62
6
  6
CONTINUOUS
 10
23.5653275086
 20
16.450757786
 11
23.5653275086
 21
15.785025959
  0
LINE
  5
21B
100
AcDbEntity
  8
0
100
AcDbLine
 62
6
  6
CONTINUOUS
 10
23.5653275086
 20
17.2392941731
 11
23.5653275086
 21
17.905025959
  0
LINE
  5
21C
100
AcDbEntity
  8
0
100
AcDbLine
 62
6
  6
CONTINUOUS
 10
23.5653275086
 20
26.355025959
 11
23.5653275086
 21
26.9248375824
  0
LINE
  5
21D
100
AcDbEntity
  8
0
100
AcDbLine
 62
6
  6
CONTINUOUS
 10
23.6453275086
 20
7.375025959
 11
23.6453275086
 21
5.275025959
  0
LINE
  5
21E
100
AcDbEntity
  8
0
100
AcDbLine
 62
6
  6
CONTINUOUS
 10
23.6453275086
 20
5.255025959
 11
23.6453275086
 21
4.135025959
  0
LWPOLYLINE
  5
21F
100
AcDbEntity
  8
0
100
AcDbPolyline
 62
6
  6
CONTINUOUS
 90
8
 70
0
 10
23.5653261391
 20
16.4517026252
 10
23.5654521163
 20
16.4555884598
 10
23.5661026702
 20
16.4613239773
 10
23.5673014181
 20
16.4669704268
 10
23.5690372593
 20
16.4724755377
 10
23.5712941199
 20
16.4777883489
 10
23.5740511029
 20
16.4828596835
 10
23.5771437566
 20
16.487456159
  0
LWPOLYLINE
  5
220
100
AcDbEntity
  8
0
100
AcDbPolyline
 62
6
  6
CONTINUOUS
 90
8
 70
0
 10
23.5771437563
 20
17.2025957599
 10
23.5740511095
 20
17.2071922242
 10
23.5712941244
 20
17.2122635601
 10
23.5690372621
 20
17.217576373
 10
23.5673014195
 20
17.2230814857
 10
23.5661026707
 20
17.2287279372
 10
23.5654521162
 20
17.2344634568
 10
23.5653261389
 20
17.2383492933
  0
LINE
  5
221
100
AcDbEntity
  8
0
100
AcDbLine
 62
6
  6
CONTINUOUS
 10
22.6253357235
 20
17.905025959
 11
23.5653192936
 21
17.905025959
  0
LWPOLYLINE
  5
222
100
AcDbEntity
  8
0
100
AcDbPolyline
 62
6
  6
CONTINUOUS
 90
9
 70
0
 10
22.6085948104
 20
26.9673509636
 10
22.6123935264
 20
26.9629957371
 10
22.6158759054
 20
26.9581079026
 10
22.6188525446
 20
26.9528966191
 10
22.6212936501
 20
26.9474140416
 10
22.6231747954
 20
26.9417150302
 10
22.6244771581
 20
26.9358566123
 10
22.6251877091
 20
26.9298974096
 10
22.625328981
 20
26.9257826458
  0
LINE
  5
223
100
AcDbEntity
  8
0
100
AcDbLine
 62
9
  6
CONTINUOUS
 10
23.3153274975
 20
24.410025959
 11
22.8753275196
 21
24.410025959
  0
LINE
  5
224
100
AcDbEntity
  8
0
100
AcDbLine
 62
9
  6
CONTINUOUS
 10
23.3453275086
 20
24.440025959
 11
22.8453275086
 21
24.440025959
  0
LINE
  5
225
100
AcDbEntity
  8
0
100
AcDbLine
 62
6
  6
CONTINUOUS
 10
22.8453275086
 20
26.355025959
 11
22.6253357235
 21
26.355025959
  0
LINE
  5
226
100
AcDbEntity
  8
0
100
AcDbLine
 62
6
  6
CONTINUOUS
 10
23.3453275086
 20
26.355025959
 11
23.5653192936
 21
26.355025959
  0
LINE
  5
227
100
AcDbEntity
  8
0
100
AcDbLine
 62
7
  6
CONTINUOUS
 10
22.8295243756
 20
26.81501342
 11
22.8297036521
 21
26.81501342
  0
ARC
  5
228
100
AcDbEntity
  8
0
100
AcDbCircle
 62
6
  6
CONTINUOUS
 10
22.5653275086
 20
4.135025959
 40
0.02
100
AcDbArc
 50
180.0
 51
270.0
  0
ARC
  5
229
100
AcDbEntity
  8
0
100
AcDbCircle
 62
6
  6
CONTINUOUS
 10
22.8753275086
 20
24.440025959
 40
0.03
100
AcDbArc
 50
180.0
 51
270.0000142015
  0
ARC
  5
22A
100
AcDbEntity
  8
0
100
AcDbCircle
 62
6
  6
CONTINUOUS
 10
23.6253275086
 20
4.135025959
 40
0.02
100
AcDbArc
 50
270.0
 51
360.0
  0
CIRCLE
  5
22B
100
AcDbEntity
  8
0
100
AcDbCircle
 62
6
  6
CONTINUOUS
 10
23.0953275086
 20
16.845025959
 40
0.6
  0
CIRCLE
  5
22C
100
AcDbEntity
  8
0
100
AcDbCircle
 62
9
  6
CONTINUOUS
 10
23.0953275086
 20
16.845025959
 40
0.5799999803
  0
ARC
  5
22D
100
AcDbEntity
  8
0
100
AcDbCircle
 62
6
  6
CONTINUOUS
 10
23.0953275086
 20
27.435025959
 40
0.675
100
AcDbArc
 50
12.3113750184
 51
360.0
  0
ARC
  5
22E
100
AcDbEntity
  8
0
100
AcDbCircle
 62
6
  6
CONTINUOUS
 10
23.0953275086
 20
27.435025959
 40
1.25
100
AcDbArc
 50
287.4737894007
 51
252.5262105993
  0
ARC
  5
22F
100
AcDbEntity
  8
0
100
AcDbCircle
 62
6
  6
CONTINUOUS
 10
23.0953275086
 20
27.435025959
 40
0.85
100
AcDbArc
 50
303.6112676479
 51
236.3887323521
  0
ARC
  5
230
100
AcDbEntity
  8
0
100
AcDbCircle
 62
7
  6
CONTINUOUS
 10
23.0953275086
 20
27.435025959
 40
0.675
100
AcDbArc
 50
11.645401926
 51
12.3113750184
  0
ARC
  5
231
100
AcDbEntity
  8
0
100
AcDbCircle
 62
7
  6
CONTINUOUS
 10
23.0953275086
 20
27.435025959
 40
0.675
100
AcDbArc
 50
347.0388131442
 51
11.4497683851
  0
ARC
  5
232
100
AcDbEntity
  8
0
100
AcDbCircle
 62
7
  6
CONTINUOUS
 10
23.0953275086
 20
27.435025959
 40
0.675
100
AcDbArc
 50
97.8562138622
 51
248.2455570322
  0
ARC
  5
233
100
AcDbEntity
  8
0
100
AcDbCircle
 62
6
  6
CONTINUOUS
 10
23.0953275086
 20
27.435025959
 40
0.675
100
AcDbArc
 50
11.4497683851
 51
11.645401926
  0
CIRCLE
  5
234
100
AcDbEntity
  8
0
100
AcDbCircle
 62
9
  6
CONTINUOUS
 10
23.0953275086
 20
27.435025959
 40
0.6549999841
  0
ARC
  5
235
100
AcDbEntity
  8
0
100
AcDbCircle
 62
6
  6
CONTINUOUS
 10
23.3153275086
 20
24.440025959
 40
0.03
100
AcDbArc
 50
269.9999857985
 51
360.0
  0
LINE
  5
236
100
AcDbEntity
  8
0
100
AcDbLine
 62
7
  6
CONTINUOUS
 10
22.834698392
 20
26.8126571429
 11
22.8331065024
 21
26.8126100224
  0
SPLINE
  5
237
100
AcDbEntity
  8
0
100
AcDbSpline
 62
9
  6
CONTINUOUS
 70
0
 71
3
 72
31
 73
27
 74
25
 42
0.0000001
 43
0.0000001
 44
0.0000000001
 12
0.562038445
 22
-0.0000402846
 32
0.0
 13
0.3098509355
 23
-0.4689132255
 33
0.0
 40
0.0
 40
0.0
 40
0.0
 40
0.0
 40
0.0427802828
 40
0.0854854032
 40
0.1279694996
 40
0.1701226084
 40
0.2118653719
 40
0.2531193913
 40
0.3339135047
 40
0.3733639047
 40
0.4121358199
 40
0.4875190665
 40
0.5599182659
 40
0.6291854636
 40
0.6951347441
 40
0.7574675165
 40
0.7871308443
 40
0.8156936296
 40
0.843043477
 40
0.8690339434
 40
0.8935119656
 40
0.9162778534
 40
0.9555815492
 40
0.984449801
 40
0.9940524658
 40
1.0
 40
1.0
 40
1.0
 40
1.0
 10
23.0953275086
 20
17.505025959
 30
0.0
 10
23.1033422298
 20
17.5050253845
 30
0.0
 10
23.1193599645
 20
17.504650697
 30
0.0
 10
23.1432849773
 20
17.5029897945
 30
0.0
 10
23.1669920503
 20
17.5002429053
 30
0.0
 10
23.1903701223
 20
17.4964440383
 30
0.0
 10
23.2133295366
 20
17.4916498808
 30
0.0
 10
23.2430666656
 20
17.4840491227
 30
0.0
 10
23.2718786878
 20
17.4746721812
 30
0.0
 10
23.2995793074
 20
17.4636918387
 30
0.0
 10
23.3258890299
 20
17.4520157584
 30
0.0
 10
23.3569874677
 20
17.4359847404
 30
0.0
 10
23.3916842983
 20
17.4147151347
 30
0.0
 10
23.423381676
 20
17.392121546
 30
0.0
 10
23.4520845189
 20
17.3687197777
 30
0.0
 10
23.4738652344
 20
17.3486636327
 30
0.0
 10
23.4898234651
 20
17.3326769886
 30
0.0
 10
23.5008452593
 20
17.321031522
 30
0.0
 10
23.5111093428
 20
17.3096236287
 30
0.0
 10
23.5206026899
 20
17.2985574705
 30
0.0
 10
23.5293012217
 20
17.2879456895
 30
0.0
 10
23.539315913
 20
17.2751926507
 30
0.0
 10
23.5494785019
 20
17.2615140951
 30
0.0
 10
23.5578162666
 20
17.2495628842
 30
0.0
 10
23.5624693674
 20
17.2426636462
 30
0.0
 10
23.5640795948
 20
17.2402358072
 30
0.0
 10
23.5646938778
 20
17.2393061814
 30
0.0
 11
23.0953275086
 21
17.505025959
 31
0.0
 11
23.1193651589
 21
17.5044663398
 31
0.0
 11
23.1433093733
 21
17.5028029884
 31
0.0
 11
23.1670283857
 21
17.500054754
 31
0.0
 11
23.1904136857
 21
17.496257009
 31
0.0
 11
23.2133793126
 21
17.4914611481
 31
0.0
 11
23.2358440044
 21
17.4857214427
 31
0.0
 11
23.2790263325
 21
17.4716750923
 31
0.0
 11
23.2996394284
 21
17.4635064748
 31
0.0
 11
23.3195578642
 21
17.4546680941
 31
0.0
 11
23.3572217965
 21
17.4352644967
 31
0.0
 11
23.3919191873
 21
17.4140075114
 31
0.0
 11
23.4236264113
 21
17.3914185467
 31
0.0
 11
23.4523592792
 21
17.3680024632
 31
0.0
 11
23.478136741
 21
17.3442777377
 31
0.0
 11
23.4899151426
 21
17.332478478
 31
0.0
 11
23.5009507669
 21
17.3208197424
 31
0.0
 11
23.5112330563
 21
17.3093933417
 31
0.0
 11
23.520744139
 21
17.2983063
 31
0.0
 11
23.5294657299
 21
17.2876665104
 31
0.0
 11
23.5373692062
 21
17.2776039624
 31
0.0
 11
23.5505416162
 21
17.2598708288
 31
0.0
 11
23.5598285851
 21
17.2465665055
 31
0.0
 11
23.5628451144
 21
17.2420911417
 31
0.0
 11
23.5646938778
 21
17.2393061814
 31
0.0
  0
LINE
  5
238
100
AcDbEntity
  8
0
100
AcDbLine
 62
9
  6
CONTINUOUS
 10
23.5646938778
 20
17.2393061814
 11
23.5653257703
 21
17.2383498576
  0
SPLINE
  5
239
100
AcDbEntity
  8
0
100
AcDbSpline
 62
9
  6
CONTINUOUS
 70
0
 71
3
 72
43
 73
39
 74
37
 42
0.0000001
 43
0.0000001
 44
0.0000000001
 12
-0.1166994145
 22
-0.2532905128
 32
0.0
 13
-0.2523665408
 23
-0.1186843127
 33
0.0
 40
0.0
 40
0.0
 40
0.0
 40
0.0
 40
0.000023011
 40
0.0000918672
 40
0.0002065665
 40
0.0003671063
 40
0.0005734843
 40
0.0008256983
 40
0.0014676243
 40
0.0022928656
 40
0.0033014033
 40
0.0044932185
 40
0.0058680973
 40
0.0091614272
 40
0.0131682519
 40
0.01787506
 40
0.0232683571
 40
0.029334667
 40
0.0360605334
 40
0.0434325148
 40
0.0514358368
 40
0.0692646038
 40
0.0894013868
 40
0.1117011268
 40
0.1360203751
 40
0.1622289697
 40
0.1902087537
 40
0.2198432367
 40
0.251017357
 40
0.3175742095
 40
0.3892436429
 40
0.4654781355
 40
0.5458265989
 40
0.6299781189
 40
0.7176648262
 40
0.8086710469
 40
0.9028304729
 40
1.0
 40
1.0
 40
1.0
 40
1.0
 10
23.5653256887
 20
26.9257822681
 30
0.0
 10
23.5653247936
 20
26.9257803253
 30
0.0
 10
23.5653180507
 20
26.9257745962
 30
0.0
 10
23.5653067269
 20
26.9257592627
 30
0.0
 10
23.5652852828
 20
26.9257353703
 30
0.0
 10
23.5652564764
 20
26.9257011575
 30
0.0
 10
23.5652189575
 20
26.925657488
 30
0.0
 10
23.5651525184
 20
26.9255797044
 30
0.0
 10
23.5650485948
 20
26.9254582598
 30
0.0
 10
23.5648990177
 20
26.9252833564
 30
0.0
 10
23.5647161877
 20
26.9250696246
 30
0.0
 10
23.5645001463
 20
26.924817066
 30
0.0
 10
23.5641460338
 20
26.9244031122
 30
0.0
 10
23.5636214704
 20
26.9237906002
 30
0.0
 10
23.5628941508
 20
26.9229439305
 30
0.0
 10
23.5620377069
 20
26.9219508335
 30
0.0
 10
23.5610536986
 20
26.9208149407
 30
0.0
 10
23.5599436901
 20
26.9195398802
 30
0.0
 10
23.5587092365
 20
26.9181292887
 30
0.0
 10
23.557351998
 20
26.9165868784
 30
0.0
 10
23.5553062526
 20
26.9142755031
 30
0.0
 10
23.5524578098
 20
26.9110899586
 30
0.0
 10
23.5486916573
 20
26.906942378
 30
0.0
 10
23.5444806665
 20
26.9023840157
 30
0.0
 10
23.5398400578
 20
26.8974544837
 30
0.0
 10
23.5347836181
 20
26.892191713
 30
0.0
 10
23.5293237714
 20
26.8866319297
 30
0.0
 10
23.5234721769
 20
26.880810616
 30
0.0
 10
23.5149752101
 20
26.8725648742
 30
0.0
 10
23.5034530703
 20
26.8618274159
 30
0.0
 10
23.4884843194
 20
26.8486550978
 30
0.0
 10
23.4721267237
 20
26.8351344459
 30
0.0
 10
23.4544091286
 20
26.8214562677
 30
0.0
 10
23.4353562942
 20
26.8077879641
 30
0.0
 10
23.4149806884
 20
26.7942915705
 30
0.0
 10
23.3932955445
 20
26.7811210462
 30
0.0
 10
23.3703156871
 20
26.7684260131
 30
0.0
 10
23.3543854457
 20
26.7605005474
 30
0.0
 10
23.3462113332
 20
26.7566563812
 30
0.0
 11
23.5653256887
 21
26.9257822681
 31
0.0
 11
23.5653215227
 21
26.9257773868
 31
0.0
 11
23.5653090462
 21
26.9257627895
 31
0.0
 11
23.5652882595
 21
26.9257384767
 31
0.0
 11
23.5652591628
 21
26.9257044492
 31
0.0
 11
23.5652217563
 21
26.9256607074
 31
0.0
 11
23.5651760405
 21
26.9256072522
 31
0.0
 11
23.5650596816
 21
26.9254712036
 31
0.0
 11
23.5649100884
 21
26.9252963084
 31
0.0
 11
23.564727263
 21
26.9250825716
 31
0.0
 11
23.5645112076
 21
26.9248299983
 31
0.0
 11
23.5642619469
 21
26.9245386459
 31
0.0
 11
23.5636644556
 21
26.9238411132
 31
0.0
 11
23.5629363015
 21
26.9229935055
 31
0.0
 11
23.5620790408
 21
26.9219994577
 31
0.0
 11
23.5610942298
 21
26.9208626047
 31
0.0
 11
23.5599834247
 21
26.9195865815
 31
0.0
 11
23.5587481819
 21
26.918175023
 31
0.0
 11
23.5573900583
 21
26.9166315659
 31
0.0
 11
23.5559107348
 21
26.9149602411
 31
0.0
 11
23.552596402
 21
26.9112538829
 31
0.0
 11
23.5488212116
 21
26.9070963766
 31
0.0
 11
23.5446012321
 21
26.9025282785
 31
0.0
 11
23.5399524123
 21
26.8975900073
 31
0.0
 11
23.53488846
 21
26.8923194117
 31
0.0
 11
23.5294210961
 21
26.8867520616
 31
0.0
 11
23.5235619728
 21
26.880923448
 31
0.0
 11
23.5173227421
 21
26.8748690618
 31
0.0
 11
23.5037437704
 21
26.8622144328
 31
0.0
 11
23.4887380965
 21
26.8490113725
 31
0.0
 11
23.4723497835
 21
26.8354678482
 31
0.0
 11
23.4546124021
 21
26.8217751505
 31
0.0
 11
23.4355422317
 21
26.8080970869
 31
0.0
 11
23.4151538466
 21
26.7945944479
 31
0.0
 11
23.3934604319
 21
26.7814210945
 31
0.0
 11
23.370474083
 21
26.7687254545
 31
0.0
 11
23.3462113332
 21
26.7566563812
 31
0.0
  0
SPLINE
  5
23A
100
AcDbEntity
  8
0
100
AcDbSpline
 62
9
  6
CONTINUOUS
 70
0
 71
3
 72
20
 73
16
 74
14
 42
0.0000001
 43
0.0000001
 44
0.0000000001
 12
-0.2512403248
 22
0.1181630957
 32
0.0
 13
-0.1804507775
 23
0.2110017414
 33
0.0
 40
0.0
 40
0.0
 40
0.0
 40
0.0
 40
0.1821599534
 40
0.3530198823
 40
0.5113063898
 40
0.5851788095
 40
0.6551170743
 40
0.7206698726
 40
0.7813475227
 40
0.8365110395
 40
0.885373378
 40
0.9270947135
 40
0.9607157016
 40
0.9852780672
 40
1.0
 40
1.0
 40
1.0
 40
1.0
 10
22.8444296892
 20
26.7566629581
 30
0.0
 10
22.8291743806
 20
26.7638378194
 30
0.0
 10
22.8001696381
 20
26.7789694997
 30
0.0
 10
22.7600195437
 20
26.8040888005
 30
0.0
 10
22.7298625474
 20
26.8260897532
 30
0.0
 10
22.7081093621
 20
26.8436582939
 30
0.0
 10
22.6934080428
 20
26.8562840785
 30
0.0
 10
22.6799688752
 20
26.8684932272
 30
0.0
 10
22.6678397291
 20
26.8801018706
 30
0.0
 10
22.6570790046
 20
26.890899454
 30
0.0
 10
22.6477583619
 20
26.9006506889
 30
0.0
 10
22.6399674928
 20
26.9091031675
 30
0.0
 10
22.6338060194
 20
26.9159971427
 30
0.0
 10
22.6293642594
 20
26.9210761584
 30
0.0
 10
22.6269954454
 20
26.9238341913
 30
0.0
 10
22.6261099173
 20
26.9248696425
 30
0.0
 11
22.8444296892
 21
26.7566629581
 31
0.0
 11
22.7995830928
 21
26.7800426603
 31
0.0
 11
22.7593601013
 21
26.8051910084
 31
0.0
 11
22.723850421
 21
26.8310826726
 31
0.0
 11
22.7078939277
 21
26.8439686828
 31
0.0
 11
22.6931618646
 21
26.8566183092
 31
0.0
 11
22.6796907813
 21
26.8688565221
 31
0.0
 11
22.6675197236
 21
26.8805043662
 31
0.0
 11
22.6567077848
 21
26.8913519604
 31
0.0
 11
22.6473339688
 21
26.9011587087
 31
0.0
 11
22.6394837074
 21
26.9096764296
 31
0.0
 11
22.6332618828
 21
26.9166350682
 31
0.0
 11
22.6287743413
 21
26.9217700108
 31
0.0
 11
22.6261099173
 21
26.9248696425
 31
0.0
  0
LINE
  5
23B
100
AcDbEntity
  8
0
100
AcDbLine
 62
9
  6
CONTINUOUS
 10
22.6261099173
 20
26.9248696425
 11
22.6253293268
 21
26.9257822716
  0
SPLINE
  5
23C
100
AcDbEntity
  8
0
100
AcDbSpline
 62
9
  6
CONTINUOUS
 70
0
 71
3
 72
57
 73
53
 74
51
 42
0.0000001
 43
0.0000001
 44
0.0000000001
 12
0.1549311832
 22
-0.5414506443
 32
0.0
 13
0.5631806721
 23
0.0000433608
 33
0.0
 40
0.0
 40
0.0
 40
0.0
 40
0.0
 40
0.0000082138
 40
0.0000184831
 40
0.0000328607
 40
0.000073941
 40
0.0001314551
 40
0.0002054032
 40
0.0002957857
 40
0.0004026028
 40
0.0005258548
 40
0.0008216649
 40
0.0011832184
 40
0.0016105177
 40
0.0021035639
 40
0.0026621608
 40
0.0032857094
 40
0.0047250679
 40
0.0064164548
 40
0.0083546894
 40
0.0105345956
 40
0.012951002
 40
0.0155987425
 40
0.0184726563
 40
0.0248767454
 40
0.0321127563
 40
0.040128073
 40
0.0488702886
 40
0.0582872725
 40
0.0683313407
 40
0.0789628918
 40
0.0901434545
 40
0.1139989299
 40
0.1396135046
 40
0.1667903583
 40
0.1953630549
 40
0.2251774914
 40
0.2561310281
 40
0.2881461944
 40
0.3211518185
 40
0.3550906966
 40
0.4256150468
 40
0.4995067088
 40
0.5765939509
 40
0.6567136575
 40
0.7396197045
 40
0.7820009539
 40
0.8249123324
 40
0.8682707941
 40
0.91198998
 40
0.9559528925
 40
1.0
 40
1.0
 40
1.0
 40
1.0
 10
22.6253292467
 20
17.2383498573
 30
0.0
 10
22.6253296709
 20
17.2383483749
 30
0.0
 10
22.6253322578
 20
17.238355637
 30
0.0
 10
22.6253353108
 20
17.2383585232
 30
0.0
 10
22.6253423127
 20
17.2383701064
 30
0.0
 10
22.6253538574
 20
17.2383868403
 30
0.0
 10
22.6253717865
 20
17.2384143269
 30
0.0
 10
22.6253947184
 20
17.2384488918
 30
0.0
 10
22.6254227905
 20
17.2384914248
 30
0.0
 10
22.6254559514
 20
17.2385415925
 30
0.0
 10
22.6255103769
 20
17.2386239671
 30
0.0
 10
22.6255911621
 20
17.2387462246
 30
0.0
 10
22.625703413
 20
17.2389161125
 30
0.0
 10
22.6258360744
 20
17.2391168898
 30
0.0
 10
22.625989123
 20
17.2393485333
 30
0.0
 10
22.6261624944
 20
17.2396109053
 30
0.0
 10
22.6264339351
 20
17.2400214035
 30
0.0
 10
22.6268231265
 20
17.2406089814
 30
0.0
 10
22.6273497577
 20
17.2414015546
 30
0.0
 10
22.6279548999
 20
17.2423088708
 30
0.0
 10
22.6286375417
 20
17.2433280961
 30
0.0
 10
22.6293966711
 20
17.2444563971
 30
0.0
 10
22.6302312776
 20
17.2456909394
 30
0.0
 10
22.6314894764
 20
17.2475427199
 30
0.0
 10
22.6332414384
 20
17.2501003553
 30
0.0
 10
22.6355582612
 20
17.2534409
 30
0.0
 10
22.6381494803
 20
17.2571251944
 30
0.0
 10
22.6410052971
 20
17.2611237983
 30
0.0
 10
22.6441164445
 20
17.265407868
 30
0.0
 10
22.6474747666
 20
17.2699505355
 30
0.0
 10
22.6510727834
 20
17.2747274464
 30
0.0
 10
22.6562951153
 20
17.2815264148
 30
0.0
 10
22.6633677779
 20
17.2904501736
 30
0.0
 10
22.6725526831
 20
17.3015275008
 30
0.0
 10
22.6825754439
 20
17.3130553657
 30
0.0
 10
22.6934135106
 20
17.3249129556
 30
0.0
 10
22.7050553543
 20
17.3369887721
 30
0.0
 10
22.7174900481
 20
17.3491889013
 30
0.0
 10
22.73071292
 20
17.361430638
 30
0.0
 10
22.7447239361
 20
17.3736342415
 30
0.0
 10
22.7647133418
 20
17.3899617879
 30
0.0
 10
22.7916898453
 20
17.4098410999
 30
0.0
 10
22.8268494363
 20
17.4321094793
 30
0.0
 10
22.8651837401
 20
17.4525165258
 30
0.0
 10
22.9065865257
 20
17.470464422
 30
0.0
 10
22.943191125
 20
17.4827581925
 30
0.0
 10
22.9737310138
 20
17.4908130596
 30
0.0
 10
22.9973491621
 20
17.4959018777
 30
0.0
 10
23.0214243249
 20
17.4999378966
 30
0.0
 10
23.0458595123
 20
17.502859558
 30
0.0
 10
23.0705342371
 20
17.504626459
 30
0.0
 10
23.087058682
 20
17.5050253224
 30
0.0
 10
23.0953275086
 20
17.505025959
 30
0.0
 11
22.6253292467
 21
17.2383498573
 31
0.0
 11
22.6253317983
 21
17.2383537158
 31
0.0
 11
22.6253349874
 21
17.2383585406
 31
0.0
 11
22.6253394519
 21
17.2383652958
 31
0.0
 11
22.6253522075
 21
17.2383845974
 31
0.0
 11
22.6253700652
 21
17.2384116209
 31
0.0
 11
22.625393025
 21
17.2384463664
 31
0.0
 11
22.625421087
 21
17.238488834
 31
0.0
 11
22.6254542513
 21
17.238539024
 31
0.0
 11
22.6254925179
 21
17.2385969365
 31
0.0
 11
22.6255843584
 21
17.2387359295
 31
0.0
 11
22.6256966088
 21
17.2389058145
 31
0.0
 11
22.6258292698
 21
17.2391065928
 31
0.0
 11
22.6259823414
 21
17.2393382649
 31
0.0
 11
22.6261557856
 21
17.2396007237
 31
0.0
 11
22.6263494859
 21
17.2398936416
 31
0.0
 11
22.6267971502
 21
17.2405694372
 31
0.0
 11
22.6273243255
 21
17.241362816
 31
0.0
 11
22.6279300028
 21
17.2422709425
 31
0.0
 11
22.6286131733
 21
17.2432909811
 31
0.0
 11
22.6293728282
 21
17.2444200962
 31
0.0
 11
22.6302079585
 21
17.2456554521
 31
0.0
 11
22.6311175554
 21
17.2469942134
 31
0.0
 11
22.6331558756
 21
17.2499696531
 31
0.0
 11
22.6354783563
 21
17.2533182629
 31
0.0
 11
22.6380752343
 21
17.2570105611
 31
0.0
 11
22.6409367461
 21
17.2610170657
 31
0.0
 11
22.6440531389
 21
17.2653083148
 31
0.0
 11
22.6474157716
 21
17.269856953
 31
0.0
 11
22.6510180799
 21
17.2746395612
 31
0.0
 11
22.6548537275
 21
17.2796331517
 31
0.0
 11
22.6631996944
 21
17.2901613292
 31
0.0
 11
22.672407104
 21
17.3012663961
 31
0.0
 11
22.6824496311
 21
17.3128165186
 31
0.0
 11
22.6933071516
 21
17.3246931147
 31
0.0
 11
22.7049611956
 21
17.3367810452
 31
0.0
 11
22.7174049234
 21
17.3489893777
 31
0.0
 11
22.7306364879
 21
17.3612375712
 31
0.0
 11
22.7446540845
 21
17.3734451734
 31
0.0
 11
22.7594578415
 21
17.3855357927
 31
0.0
 11
22.7914381402
 21
17.4090894789
 31
0.0
 11
22.8266006537
 21
17.4313459896
 31
0.0
 11
22.8649283807
 21
17.4517362972
 31
0.0
 11
22.9063334593
 21
17.4696695805
 31
0.0
 11
22.9505974695
 21
17.4845273957
 31
0.0
 11
22.973677142
 21
17.4906121711
 31
0.0
 11
22.9973017963
 21
17.4957026312
 31
0.0
 11
23.0213847444
 21
17.4997377229
 31
0.0
 11
23.0458324537
 21
17.5026604909
 31
0.0
 11
23.0705281815
 21
17.5044302968
 31
0.0
 11
23.0953275086
 21
17.505025959
 31
0.0
  0
SPLINE
  5
23D
100
AcDbEntity
  8
0
100
AcDbSpline
 62
9
  6
CONTINUOUS
 70
0
 71
3
 72
31
 73
27
 74
25
 42
0.0000001
 43
0.0000001
 44
0.0000000001
 12
-0.5620380597
 22
0.0000417804
 32
0.0
 13
-0.3098510595
 23
0.4689126819
 33
0.0
 40
0.0
 40
0.0
 40
0.0
 40
0.0
 40
0.0427800882
 40
0.0854850135
 40
0.1279689167
 40
0.1701218377
 40
0.2118644204
 40
0.2531182642
 40
0.3339120419
 40
0.3733622869
 40
0.412134056
 40
0.4875170348
 40
0.5599160036
 40
0.629183008
 40
0.6951321402
 40
0.757464807
 40
0.7871281152
 40
0.8156909125
 40
0.8430407898
 40
0.8690313136
 40
0.8935094335
 40
0.916275464
 40
0.9555796297
 40
0.9844486686
 40
0.9940518594
 40
1.0
 40
1.0
 40
1.0
 40
1.0
 10
23.0953275086
 20
16.185025959
 30
0.0
 10
23.0873128293
 20
16.1850265548
 30
0.0
 10
23.0712951797
 20
16.1854012513
 30
0.0
 10
23.0473702902
 20
16.1870621107
 30
0.0
 10
23.0236633366
 20
16.1898089525
 30
0.0
 10
23.0002853822
 20
16.1936077859
 30
0.0
 10
22.9773260804
 20
16.198401904
 30
0.0
 10
22.947589088
 20
16.2060025871
 30
0.0
 10
22.9187771874
 20
16.2153794299
 30
0.0
 10
22.8910766773
 20
16.2263596697
 30
0.0
 10
22.8647670479
 20
16.238035648
 30
0.0
 10
22.833668705
 20
16.2540665333
 30
0.0
 10
22.7989719567
 20
16.2753359715
 30
0.0
 10
22.7672746305
 20
16.2979294015
 30
0.0
 10
22.7385718091
 20
16.3213310229
 30
0.0
 10
22.7167910848
 20
16.3413870526
 30
0.0
 10
22.7008328314
 20
16.3573736222
 30
0.0
 10
22.689811008
 20
16.3690190518
 30
0.0
 10
22.679546884
 20
16.3804269195
 30
0.0
 10
22.6700534867
 20
16.3914930672
 30
0.0
 10
22.6613548945
 20
16.4021048587
 30
0.0
 10
22.6513400921
 20
16.4148579653
 30
0.0
 10
22.6411773203
 20
16.4285366975
 30
0.0
 10
22.6328393491
 20
16.4404881595
 30
0.0
 10
22.6281860425
 20
16.4473876856
 30
0.0
 10
22.6265756967
 20
16.4498156982
 30
0.0
 10
22.6259613508
 20
16.4507454178
 30
0.0
 11
23.0953275086
 21
16.185025959
 31
0.0
 11
23.0712899846
 21
16.1855855991
 31
0.0
 11
23.0473458942
 21
16.1872489159
 31
0.0
 11
23.0236270024
 21
16.1899971058
 31
0.0
 11
23.0002418197
 21
16.1937948137
 31
0.0
 11
22.9772763045
 21
16.1985906333
 31
0.0
 11
22.9548117166
 21
16.2043302826
 31
0.0
 11
22.9116295733
 21
16.2183764906
 31
0.0
 11
22.8910165573
 21
16.226545032
 31
0.0
 11
22.871098193
 21
16.2353833347
 31
0.0
 11
22.8334343788
 21
16.2547867692
 31
0.0
 11
22.7987370708
 21
16.2760435882
 31
0.0
 11
22.767029899
 21
16.298632393
 31
0.0
 11
22.738297051
 21
16.3220483288
 31
0.0
 11
22.7125195791
 21
16.3457729202
 31
0.0
 11
22.7007411577
 21
16.3575721284
 31
0.0
 11
22.6897055019
 21
16.3692308283
 31
0.0
 11
22.6794231733
 21
16.3806572022
 31
0.0
 11
22.6699120423
 21
16.3917442317
 31
0.0
 11
22.6611903913
 21
16.4023840309
 31
0.0
 11
22.6532868428
 21
16.4124466129
 31
0.0
 11
22.6401142412
 21
16.4301799144
 31
0.0
 11
22.6308270019
 21
16.4434845749
 31
0.0
 11
22.627810304
 21
16.4479601772
 31
0.0
 11
22.6259613508
 21
16.4507454178
 31
0.0
  0
LINE
  5
23E
100
AcDbEntity
  8
0
100
AcDbLine
 62
9
  6
CONTINUOUS
 10
22.6259613508
 20
16.4507454178
 11
22.6253292466
 21
16.4517020612
  0
SPLINE
  5
23F
100
AcDbEntity
  8
0
100
AcDbSpline
 62
9
  6
CONTINUOUS
 70
0
 71
3
 72
58
 73
54
 74
52
 42
0.0000001
 43
0.0000001
 44
0.0000000001
 12
-0.2093186865
 22
0.5228366491
 32
0.0
 13
-0.5631806779
 23
-0.0000412084
 33
0.0
 40
0.0
 40
0.0
 40
0.0
 40
0.0
 40
0.000002053
 40
0.0000082143
 40
0.0000184838
 40
0.0000328617
 40
0.0000739424
 40
0.0001314569
 40
0.0002054054
 40
0.0002957882
 40
0.0004026055
 40
0.0005258577
 40
0.000821668
 40
0.0011832212
 40
0.0016105197
 40
0.0021035646
 40
0.0026621604
 40
0.0032857079
 40
0.0047250652
 40
0.0064164515
 40
0.008354686
 40
0.0105345922
 40
0.0129509986
 40
0.0155987389
 40
0.0184726521
 40
0.0248767393
 40
0.0321127492
 40
0.0401280662
 40
0.0488702837
 40
0.0582872712
 40
0.0683313428
 40
0.0789628971
 40
0.0901434635
 40
0.1139989524
 40
0.1396135387
 40
0.1667903924
 40
0.1953630908
 40
0.2251775349
 40
0.2561310756
 40
0.2881462464
 40
0.3211518799
 40
0.3550907645
 40
0.4256151137
 40
0.4995067755
 40
0.5765940119
 40
0.6567137244
 40
0.7396197759
 40
0.7820010274
 40
0.8249124009
 40
0.8682708549
 40
0.9119900162
 40
0.9559529051
 40
1.0
 40
1.0
 40
1.0
 40
1.0
 10
23.5653257705
 20
16.4517020609
 30
0.0
 10
23.5653256273
 20
16.4517024187
 30
0.0
 10
23.5653246068
 20
16.4516994787
 30
0.0
 10
23.5653228573
 20
16.4516981814
 30
0.0
 10
23.5653195754
 20
16.4516924519
 30
0.0
 10
23.5653128286
 20
16.4516827084
 30
0.0
 10
23.5653010938
 20
16.4516646052
 30
0.0
 10
23.5652832563
 20
16.4516377791
 30
0.0
 10
23.5652602884
 20
16.4516029563
 30
0.0
 10
23.5652322291
 20
16.4515605164
 30
0.0
 10
23.5651990637
 20
16.4515103167
 30
0.0
 10
23.5651446399
 20
16.4514279558
 30
0.0
 10
23.5650638535
 20
16.45130569
 30
0.0
 10
23.5649516029
 20
16.4511358058
 30
0.0
 10
23.5648189413
 20
16.4509350279
 30
0.0
 10
23.5646658927
 20
16.4507033856
 30
0.0
 10
23.5644925214
 20
16.4504410142
 30
0.0
 10
23.5642210806
 20
16.4500305169
 30
0.0
 10
23.563831889
 20
16.4494429396
 30
0.0
 10
23.5633052575
 20
16.4486503671
 30
0.0
 10
23.5627001149
 20
16.4477430513
 30
0.0
 10
23.5620174727
 20
16.4467238263
 30
0.0
 10
23.5612583429
 20
16.4455955256
 30
0.0
 10
23.5604237361
 20
16.4443609837
 30
0.0
 10
23.5591655368
 20
16.4425092041
 30
0.0
 10
23.5574135744
 20
16.4399515697
 30
0.0
 10
23.5550967513
 20
16.4366110258
 30
0.0
 10
23.5525055318
 20
16.4329267313
 30
0.0
 10
23.5496497146
 20
16.4289281264
 30
0.0
 10
23.5465385668
 20
16.4246440547
 30
0.0
 10
23.5431802445
 20
16.420101385
 30
0.0
 10
23.5395822275
 20
16.4153244716
 30
0.0
 10
23.5343598951
 20
16.4085254987
 30
0.0
 10
23.5272872325
 20
16.399601733
 30
0.0
 10
23.518102328
 20
16.3885243988
 30
0.0
 10
23.5080795668
 20
16.3769965307
 30
0.0
 10
23.4972415005
 20
16.3651389379
 30
0.0
 10
23.4855996574
 20
16.353063117
 30
0.0
 10
23.473164962
 20
16.3408629849
 30
0.0
 10
23.4599420873
 20
16.328621246
 30
0.0
 10
23.4459310678
 20
16.3164176402
 30
0.0
 10
23.4259416564
 20
16.3000900959
 30
0.0
 10
23.3989651451
 20
16.2802107922
 30
0.0
 10
23.3638055513
 20
16.2579424192
 30
0.0
 10
23.3254712439
 20
16.2375353782
 30
0.0
 10
23.2840684525
 20
16.2195874928
 30
0.0
 10
23.247463855
 20
16.2072937094
 30
0.0
 10
23.2169239654
 20
16.1992388419
 30
0.0
 10
23.1933058155
 20
16.1941500384
 30
0.0
 10
23.1692306572
 20
16.190114036
 30
0.0
 10
23.1447954843
 20
16.1871923455
 30
0.0
 10
23.1201207729
 20
16.1854254075
 30
0.0
 10
23.1035963328
 20
16.185026564
 30
0.0
 10
23.0953275086
 20
16.185025959
 30
0.0
 11
23.5653257705
 21
16.4517020609
 31
0.0
 11
23.5653251324
 21
16.4517010968
 31
0.0
 11
23.5653232187
 21
16.4516982022
 31
0.0
 11
23.5653200296
 21
16.4516933774
 31
0.0
 11
23.565315565
 21
16.4516866221
 31
0.0
 11
23.5653028093
 21
16.4516673202
 31
0.0
 11
23.5652849514
 21
16.4516402966
 31
0.0
 11
23.5652619914
 21
16.451605551
 31
0.0
 11
23.5652339293
 21
16.4515630832
 31
0.0
 11
23.5652007649
 21
16.4515128931
 31
0.0
 11
23.5651624981
 21
16.4514549806
 31
0.0
 11
23.5650706575
 21
16.4513159876
 31
0.0
 11
23.5649584069
 21
16.4511461029
 31
0.0
 11
23.5648257459
 21
16.4509453251
 31
0.0
 11
23.5646726743
 21
16.4507136539
 31
0.0
 11
23.5644992302
 21
16.4504511959
 31
0.0
 11
23.5643055299
 21
16.4501582786
 31
0.0
 11
23.5638578654
 21
16.449482484
 31
0.0
 11
23.5633306898
 21
16.4486891057
 31
0.0
 11
23.5627250121
 21
16.4477809796
 31
0.0
 11
23.5620418411
 21
16.4467609412
 31
0.0
 11
23.5612821858
 21
16.4456318264
 31
0.0
 11
23.5604470551
 21
16.4443964708
 31
0.0
 11
23.5595374579
 21
16.4430577103
 31
0.0
 11
23.5574991374
 21
16.440082272
 31
0.0
 11
23.5551766564
 21
16.436733663
 31
0.0
 11
23.5525797781
 21
16.4330413648
 31
0.0
 11
23.5497182659
 21
16.4290348591
 31
0.0
 11
23.5466018724
 21
16.4247436079
 31
0.0
 11
23.5432392395
 21
16.4201949675
 31
0.0
 11
23.5396369311
 21
16.415412357
 31
0.0
 11
23.5358012836
 21
16.4104187637
 31
0.0
 11
23.5274553156
 21
16.3998905772
 31
0.0
 11
23.5182479051
 21
16.3887855023
 31
0.0
 11
23.5082053799
 21
16.3772353781
 31
0.0
 11
23.4973478604
 21
16.3653587795
 31
0.0
 11
23.4856938153
 21
16.3532708437
 31
0.0
 11
23.4732500867
 21
16.3410625087
 31
0.0
 11
23.46001852
 21
16.3288143134
 31
0.0
 11
23.4460009187
 21
16.3166067084
 31
0.0
 11
23.4311971563
 21
16.3045160895
 31
0.0
 11
23.3992168511
 21
16.2809624123
 31
0.0
 11
23.3640543331
 21
16.2587059082
 31
0.0
 11
23.3257266051
 21
16.2383156085
 31
0.0
 11
23.2843215203
 21
16.2203823299
 31
0.0
 11
23.2400575096
 21
16.2055245069
 31
0.0
 11
23.2169778354
 21
16.1994397324
 31
0.0
 11
23.193353181
 21
16.1943492849
 31
0.0
 11
23.1692702356
 21
16.1903142016
 31
0.0
 11
23.1448225427
 21
16.1873914113
 31
0.0
 11
23.1201268297
 21
16.185621581
 31
0.0
 11
23.0953275086
 21
16.185025959
 31
0.0
  0
ENDSEC
  0
SECTION
  2
OBJECTS
  0
DICTIONARY
  5
C
100
AcDbDictionary
280
0
281
1
  3
ACAD_GROUP
350
D
  3
ACAD_MLINESTYLE
350
17
  3
ACAD_LAYOUT
350
1A
  3
ACAD_PLOTSETTINGS
350
19
  3
ACAD_PLOTSTYLENAME
350
E
  0
DICTIONARY
  5
D
102
{ACAD_REACTORS
330
C
102
}
100
AcDbDictionary
280
0
281
1
  0
ACDBDICTIONARYWDFLT
  5
E
102
{ACAD_REACTORS
330
C
102
}
100
AcDbDictionary
281
1
  3
Normal
350
F
100
AcDbDictionaryWithDefault
340
F
  0
DICTIONARY
  5
17
102
{ACAD_REACTORS
330
C
102
}
100
AcDbDictionary
280
0
281
1
  3
Standard
350
18
  0
DICTIONARY
  5
19
102
{ACAD_REACTORS
330
C
102
}
100
AcDbDictionary
281
1
  0
DICTIONARY
  5
1A
102
{ACAD_REACTORS
330
C
102
}
100
AcDbDictionary
281
1
  3
Model
350
240
  3
Layout1
350
241
  0
ACDBPLACEHOLDER
  5
F
102
{ACAD_REACTORS
330
E
102
}
  0
MLINESTYLE
  5
18
102
{ACAD_REACTORS
330
17
102
}
100
AcDbMlineStyle
  2
STANDARD
 70
0
  3

 62
256
 51
90.0
 52
90.0
 71
2
 49
0.5
 62
256
  6
BYLAYER
 49
-0.5
 62
256
  6
BYLAYER
  0
LAYOUT
  5
240
102
{ACAD_REACTORS
330
1A
102
}
100
AcDbPlotSettings
  1

  2
none_device
  4
ISO_A0_(1189.00_x_841.00_MM)
  6

 40
0.0
 41
0.0
 42
0.0
 43
0.0
 44
1189.0
 45
841.0
 46
0.0
 47
0.0
 48
0.0
 49
0.0
140
0.0
141
0.0
142
1.0
143
1.0
 70
1024
 72
0
 73
0
 74
0
  7

 75
0
147
1.0
148
0.0
149
0.0
100
AcDbLayout
  1
Model
 70
0
 71
0
 10
0.0
 20
0.0
 11
46.811023622
 21
33.1102362205
 12
0.0
 22
0.0
 32
0.0
 14
0.0
 24
0.0
 34
0.0
 15
0.0
 25
0.0
 35
0.0
146
0.0
 13
0.0
 23
0.0
 33
0.0
 16
1.0
 26
0.0
 36
0.0
 17
0.0
 27
1.0
 37
0.0
 76
0
330
203
345
0
346
0
  0
LAYOUT
  5
241
102
{ACAD_REACTORS
330
1A
102
}
100
AcDbPlotSettings
  1

  2
none_device
  4
ISO_A0_(1189.00_x_841.00_MM)
  6

 40
0.0
 41
0.0
 42
0.0
 43
0.0
 44
1189.0
 45
841.0
 46
0.0
 47
0.0
 48
0.0
 49
0.0
140
0.0
141
0.0
142
1.0
143
1.0
 70
0
 72
0
 73
0
 74
0
  7

 75
0
147
1.0
148
0.0
149
0.0
100
AcDbLayout
  1
Layout1
 70
0
 71
1
 10
0.0
 20
0.0
 11
46.811023622
 21
33.1102362205
 12
0.0
 22
0.0
 32
0.0
 14
0.0
 24
0.0
 34
0.0
 15
0.0
 25
0.0
 35
0.0
146
0.0
 13
0.0
 23
0.0
 33
0.0
 16
1.0
 26
0.0
 36
0.0
 17
0.0
 27
1.0
 37
0.0
 76
0
330
204
345
0
346
0
  0
ENDSEC
  0
EOF
