999
DXF file: E:\BT Custom\CADOUTPUT\_RIGHT.dxf
999
Pro/ENGINEER 2018400 by Parametric Technology Corporation
  0
SECTION
  2
HEADER
  9
$ACADVER
  1
AC1018
  9
$DWGCODEPAGE
  3
ANSI_1252
  9
$EXTMAX
 10
22.0
 20
17.0
 30
0.0
  9
$EXTMIN
 10
0.0
 20
0.0
 30
0.0
  9
$LIMMIN
 10
0.0
 20
0.0
  9
$LIMMAX
 10
22.0
 20
17.0
  9
$VIEWCTR
 10
11.0
 20
8.5
  9
$VIEWSIZE
 40
17.0
  9
$CLAYER
  8
0
  9
$LTSCALE
 40
1.21
  9
$CELTYPE
  6
BYLAYER
  9
$DIMSCALE
 40
1.0
  9
$DIMASZ
 40
0.1
  9
$DIMEXO
 40
0.0625
  9
$DIMDLI
 40
0.836
  9
$DIMEXE
 40
0.125
  9
$DIMCEN
 40
0.198
  9
$DIMLFAC
 40
1.0
  9
$DIMBLK
  1
_FILLED
  9
$DIMALT
 70
1
  9
$DIMALTD
 70
2
  9
$DIMALTTD
 70
2
  9
$DIMALTF
 40
25.4
  9
$DIMTXT
 40
0.08
  9
$DIMTOL
 70
1
  9
$DIMLIM
 70
0
  9
$DIMTFAC
 40
1.0
  9
$DIMTP
 40
0.001
  9
$DIMTM
 40
0.001
  9
$DIMGAP
 40
0.09
  9
$DIMDSEP
 70
46
  9
$AUNITS
 70
0
  9
$PDMODE
 70
3
  9
$PDSIZE
 40
0.06
  9
$HANDSEED
  5
5AC
  9
$TILEMODE
 70
1
  9
$MEASUREMENT
 70
0
  9
$INSUNITS
 70
1
  0
ENDSEC
  0
SECTION
  2
CLASSES
  0
CLASS
  1
ACDBDICTIONARYWDFLT
  2
AcDbDictionaryWithDefault
  3
AutoCAD 2000
 90
0
 91
1
280
0
281
0
  0
CLASS
  1
ACDBPLACEHOLDER
  2
AcDbPlaceHolder
  3
AutoCAD 2000
 90
0
 91
1
280
0
281
0
  0
CLASS
  1
LAYOUT
  2
AcDbLayout
  3
AutoCAD 2000
 90
0
 91
0
280
0
281
0
  0
ENDSEC
  0
SECTION
  2
TABLES
  0
TABLE
  2
VPORT
  5
8
100
AcDbSymbolTable
 70
2
  0
VPORT
  5
1F4
100
AcDbSymbolTableRecord
100
AcDbViewportTableRecord
  2
*ACTIVE
 70
0
 10
0.0
 20
0.0
 11
1.0
 21
1.0
 12
11.0
 22
8.5
 13
0.0
 23
0.0
 14
1.0
 24
1.0
 15
0.0
 25
0.0
 16
0.0
 26
0.0
 36
1.0
 17
0.0
 27
0.0
 37
0.0
 40
17.0
 41
1.2941176471
 42
50.0
 43
0.0
 44
0.0
 50
0.0
 51
0.0
 71
0
 72
100
 73
1
 74
1
 75
0
 76
0
 77
0
 78
0
  0
ENDTAB
  0
TABLE
  2
LTYPE
  5
5
100
AcDbSymbolTable
 70
6
  0
LTYPE
  5
14
100
AcDbSymbolTableRecord
100
AcDbLinetypeTableRecord
  2
BYBLOCK
 70
0
  3

 72
65
 73
0
 40
0.0
  0
LTYPE
  5
15
100
AcDbSymbolTableRecord
100
AcDbLinetypeTableRecord
  2
BYLAYER
 70
0
  3

 72
65
 73
0
 40
0.0
  0
LTYPE
  5
16
100
AcDbSymbolTableRecord
100
AcDbLinetypeTableRecord
  2
CONTINUOUS
 70
64
  3
Solid line
 72
65
 73
0
 40
0.0
  0
LTYPE
  5
1F5
100
AcDbSymbolTableRecord
100
AcDbLinetypeTableRecord
  2
CENTER
 70
64
  3
____ _ ____ _ ____ _ ____ _ ____ _ ____ _ ____
 72
65
 73
4
 40
0.6
 49
0.375
 74
0
 49
-0.075
 74
0
 49
0.075
 74
0
 49
-0.075
 74
0
  0
LTYPE
  5
1F6
100
AcDbSymbolTableRecord
100
AcDbLinetypeTableRecord
  2
HIDDEN
 70
64
  3
- - - - - - - - - - - - - - - - - - - -
 72
65
 73
2
 40
0.2
 49
0.1
 74
0
 49
-0.1
 74
0
  0
LTYPE
  5
1F7
100
AcDbSymbolTableRecord
100
AcDbLinetypeTableRecord
  2
PHANTOM
 70
64
  3
_____ _ _ _____ _ _ _____ _ _ _____
 72
65
 73
6
 40
0.8
 49
0.45
 74
0
 49
-0.05
 74
0
 49
0.1
 74
0
 49
-0.05
 74
0
 49
0.1
 74
0
 49
-0.05
 74
0
  0
LTYPE
  5
1F8
100
AcDbSymbolTableRecord
100
AcDbLinetypeTableRecord
  2
DOT
 70
64
  3
. . . . . . . . . . . . . . . . . . . .
 72
65
 73
2
 40
0.2
 49
0.1
 74
0
 49
-0.1
 74
0
  0
LTYPE
  5
1F9
100
AcDbSymbolTableRecord
100
AcDbLinetypeTableRecord
  2
DASHED
 70
64
  3
- - - - - - - - - - - - - - - - - - - -
 72
65
 73
2
 40
0.2
 49
0.1
 74
0
 49
-0.1
 74
0
  0
ENDTAB
  0
TABLE
  2
LAYER
  5
2
100
AcDbSymbolTable
 70
36
  0
LAYER
  5
10
100
AcDbSymbolTableRecord
100
AcDbLayerTableRecord
  2
0
 70
0
 62
7
  6
CONTINUOUS
370
-3
390
F
  0
LAYER
  5
1FA
100
AcDbSymbolTableRecord
100
AcDbLayerTableRecord
  2
DEFAULT_1
 70
0
 62
7
  6
CENTER
370
-3
390
F
  0
LAYER
  5
1FB
100
AcDbSymbolTableRecord
100
AcDbLayerTableRecord
  2
DEFAULT_2
 70
0
 62
8
  6
HIDDEN
370
-3
390
F
  0
LAYER
  5
1FC
100
AcDbSymbolTableRecord
100
AcDbLayerTableRecord
  2
DEFAULT_3
 70
0
 62
7
  6
PHANTOM
370
-3
390
F
  0
LAYER
  5
1FD
100
AcDbSymbolTableRecord
100
AcDbLayerTableRecord
  2
ALL_FEATURES
 70
0
 62
7
  6
CONTINUOUS
370
-3
390
F
  0
LAYER
  5
1FE
100
AcDbSymbolTableRecord
100
AcDbLayerTableRecord
  2
AXES_FEATURES
 70
0
 62
7
  6
CONTINUOUS
370
-3
390
F
  0
LAYER
  5
1FF
100
AcDbSymbolTableRecord
100
AcDbLayerTableRecord
  2
DIMENSIONS
 70
0
 62
7
  6
CONTINUOUS
370
-3
390
F
  0
ENDTAB
  0
TABLE
  2
STYLE
  5
3
100
AcDbSymbolTable
 70
1
  0
STYLE
  5
11
100
AcDbSymbolTableRecord
100
AcDbTextStyleTableRecord
  2
STANDARD
 70
0
 40
0.0
 41
0.8
 50
0.0
 71
0
 42
0.2
  3
txt
  4

  0
STYLE
  5
200
100
AcDbSymbolTableRecord
100
AcDbTextStyleTableRecord
  2
TEXTSTYLE_1
 70
0
 40
0.0
 41
0.8
 50
0.0
 71
0
 42
0.2
  3
gdt
  4

  0
ENDTAB
  0
TABLE
  2
VIEW
  5
6
100
AcDbSymbolTable
 70
0
  0
ENDTAB
  0
TABLE
  2
UCS
  5
7
100
AcDbSymbolTable
 70
0
  0
ENDTAB
  0
TABLE
  2
APPID
  5
9
100
AcDbSymbolTable
 70
1
  0
APPID
  5
201
100
AcDbSymbolTableRecord
100
AcDbRegAppTableRecord
  2
ACAD
 70
0
  0
ENDTAB
  0
TABLE
  2
BLOCK_RECORD
  5
1
100
AcDbSymbolTable
 70
0
  0
BLOCK_RECORD
  5
202
100
AcDbSymbolTableRecord
100
AcDbBlockTableRecord
  2
*Model_Space
  0
BLOCK_RECORD
  5
203
100
AcDbSymbolTableRecord
100
AcDbBlockTableRecord
  2
*Paper_Space
  0
BLOCK_RECORD
  5
204
100
AcDbSymbolTableRecord
100
AcDbBlockTableRecord
  2
_FILLED
  0
ENDTAB
  0
TABLE
  2
DIMSTYLE
  5
A
100
AcDbSymbolTable
 70
1
100
AcDbDimStyleTable
 71
0
  0
DIMSTYLE
105
205
100
AcDbSymbolTableRecord
100
AcDbDimStyleTableRecord
  2
STANDARD
 70
0
  3

  4

 40
1.0
 41
0.1
 42
0.0625
 43
0.38
 44
0.125
 45
0.0
 46
0.0
 47
0.001
 48
0.001
140
0.08
141
0.09
142
0.0
143
25.4
144
1.0
145
0.0
146
1.0
147
0.09
 71
1.0
 72
0.0
 73
1
 74
1
 75
0
 76
0
 77
0
 78
4
 79
1
170
1
171
2
172
0
173
0
174
0
175
0
176
0
177
0
178
0
270
2
179
3
271
3
272
3
273
2
274
2
275
0
280
0
281
0
282
0
283
1
284
4
285
0
286
0
287
3
288
0
340
11
278
46
341
204
342
204
343
204
344
204
  0
ENDTAB
  0
ENDSEC
  0
SECTION
  2
BLOCKS
  0
BLOCK
  5
20
100
AcDbEntity
  8
0
100
AcDbBlockBegin
  2
*Model_Space
 70
0
 10
0.0
 20
0.0
 30
0.0
  3
*Model_Space
  1

  0
ENDBLK
  5
21
100
AcDbEntity
  8
0
100
AcDbBlockEnd
  0
BLOCK
  5
1C
100
AcDbEntity
  8
0
100
AcDbBlockBegin
  2
*Paper_Space
 70
0
 10
0.0
 20
0.0
 30
0.0
  3
*Paper_Space
  1

  0
ENDBLK
  5
1D
100
AcDbEntity
  8
0
100
AcDbBlockEnd
  0
BLOCK
  5
206
100
AcDbEntity
  8
0
100
AcDbBlockBegin
  2
_FILLED
 70
64
 10
0.0
 20
0.0
  3
_FILLED
  1

  0
SOLID
  5
207
100
AcDbEntity
  8
0
  6
BYBLOCK
 62
0
100
AcDbTrace
 10
0.0
 20
0.0
 11
-1.0
 21
0.2
 12
-1.0
 22
-0.2
 13
-1.0
 23
-0.2
  0
ENDBLK
  5
208
100
AcDbEntity
  8
0
  6
BYBLOCK
 62
0
100
AcDbBlockEnd
  0
ENDSEC
  0
SECTION
  2
ENTITIES
  0
LINE
  5
209
100
AcDbEntity
  8
0
100
AcDbLine
 62
7
  6
CONTINUOUS
 10
-0.3902053198
 20
6.833391804
 11
-0.3902053198
 21
6.913391804
  0
LINE
  5
20A
100
AcDbEntity
  8
0
100
AcDbLine
 62
7
  6
CONTINUOUS
 10
0.5347946802
 20
6.833391804
 11
0.5347946802
 21
6.913391804
  0
LINE
  5
20B
100
AcDbEntity
  8
0
100
AcDbLine
 62
7
  6
CONTINUOUS
 10
3.7417946802
 20
7.456391804
 11
3.7417946802
 21
7.385391804
  0
LINE
  5
20C
100
AcDbEntity
  8
0
100
AcDbLine
 62
7
  6
CONTINUOUS
 10
3.8002946802
 20
7.527391804
 11
3.8002946802
 21
7.503391804
  0
LINE
  5
20D
100
AcDbEntity
  8
0
100
AcDbLine
 62
7
  6
CONTINUOUS
 10
4.3442946802
 20
7.527391804
 11
4.3442946802
 21
7.503391804
  0
LINE
  5
20E
100
AcDbEntity
  8
0
100
AcDbLine
 62
7
  6
CONTINUOUS
 10
4.4027946802
 20
7.456391804
 11
4.4027946802
 21
7.385391804
  0
LINE
  5
20F
100
AcDbEntity
  8
0
100
AcDbLine
 62
7
  6
CONTINUOUS
 10
4.2422946802
 20
7.593391804
 11
4.2522946802
 21
7.583391804
  0
LINE
  5
210
100
AcDbEntity
  8
0
100
AcDbLine
 62
7
  6
CONTINUOUS
 10
3.9022946802
 20
7.593391804
 11
3.8922946802
 21
7.583391804
  0
LINE
  5
211
100
AcDbEntity
  8
0
100
AcDbLine
 62
7
  6
CONTINUOUS
 10
13.3207231166
 20
6.621171796
 11
13.3199234614
 21
6.6210833715
  0
LINE
  5
212
100
AcDbEntity
  8
0
100
AcDbLine
 62
7
  6
CONTINUOUS
 10
-0.7177053198
 20
6.333391804
 11
0.8622946802
 21
6.333391804
  0
LINE
  5
213
100
AcDbEntity
  8
0
100
AcDbLine
 62
7
  6
CONTINUOUS
 10
3.4162950431
 20
6.333391804
 11
4.7282943174
 21
6.333391804
  0
LINE
  5
214
100
AcDbEntity
  8
0
100
AcDbLine
 62
7
  6
CONTINUOUS
 10
10.6497946802
 20
6.333391804
 11
13.4947946802
 21
6.333391804
  0
LINE
  5
215
100
AcDbEntity
  8
0
100
AcDbLine
 62
7
  6
CONTINUOUS
 10
20.0598116017
 20
6.333391804
 11
22.0847777587
 21
6.333391804
  0
LINE
  5
216
100
AcDbEntity
  8
0
100
AcDbLine
 62
7
  6
CONTINUOUS
 10
4.5518655993
 20
6.458391804
 11
3.5927237611
 21
6.458391804
  0
LINE
  5
217
100
AcDbEntity
  8
0
100
AcDbLine
 62
7
  6
CONTINUOUS
 10
10.6756501333
 20
6.498391804
 11
13.4689392272
 21
6.498391804
  0
LINE
  5
218
100
AcDbEntity
  8
0
100
AcDbLine
 62
9
  6
CONTINUOUS
 10
13.4547946802
 20
6.5123105626
 11
10.6897946802
 21
6.5123105626
  0
LINE
  5
219
100
AcDbEntity
  8
0
100
AcDbLine
 62
9
  6
CONTINUOUS
 10
22.0847946802
 20
6.5823592717
 11
20.0597946802
 21
6.5823592717
  0
LINE
  5
21A
100
AcDbEntity
  8
0
100
AcDbLine
 62
7
  6
CONTINUOUS
 10
3.7632951146
 20
6.583391804
 11
4.3812942458
 21
6.583391804
  0
LINE
  5
21B
100
AcDbEntity
  8
0
100
AcDbLine
 62
9
  6
CONTINUOUS
 10
13.1553074485
 20
6.608391804
 11
13.1459778684
 21
6.608391804
  0
LINE
  5
21C
100
AcDbEntity
  8
0
100
AcDbLine
 62
9
  6
CONTINUOUS
 10
13.0633400626
 20
6.608391804
 11
13.0502512821
 21
6.608391804
  0
LINE
  5
21D
100
AcDbEntity
  8
0
100
AcDbLine
 62
9
  6
CONTINUOUS
 10
12.9592438079
 20
6.608391804
 11
12.9318854852
 21
6.608391804
  0
LINE
  5
21E
100
AcDbEntity
  8
0
100
AcDbLine
 62
9
  6
CONTINUOUS
 10
12.8313275187
 20
6.608391804
 11
12.8137114405
 21
6.608391804
  0
LINE
  5
21F
100
AcDbEntity
  8
0
100
AcDbLine
 62
9
  6
CONTINUOUS
 10
12.7050808921
 20
6.608391804
 11
12.6770853398
 21
6.608391804
  0
LINE
  5
220
100
AcDbEntity
  8
0
100
AcDbLine
 62
9
  6
CONTINUOUS
 10
12.4028418256
 20
6.608391804
 11
12.3869359264
 21
6.608391804
  0
LINE
  5
221
100
AcDbEntity
  8
0
100
AcDbLine
 62
9
  6
CONTINUOUS
 10
12.0794404546
 20
6.608391804
 11
12.0770164464
 21
6.608391804
  0
LINE
  5
222
100
AcDbEntity
  8
0
100
AcDbLine
 62
7
  6
CONTINUOUS
 10
13.2897946802
 20
6.623391804
 11
10.8547946802
 21
6.623391804
  0
LINE
  5
223
100
AcDbEntity
  8
0
100
AcDbLine
 62
9
  6
CONTINUOUS
 10
13.2472946802
 20
6.6367402901
 11
10.8972946802
 21
6.6367402901
  0
LINE
  5
224
100
AcDbEntity
  8
0
100
AcDbLine
 62
7
  6
CONTINUOUS
 10
22.0472946802
 20
6.653391804
 11
20.0972946802
 21
6.653391804
  0
LINE
  5
225
100
AcDbEntity
  8
0
100
AcDbLine
 62
7
  6
CONTINUOUS
 10
10.9572946802
 20
6.728391804
 11
13.1872946802
 21
6.728391804
  0
LINE
  5
226
100
AcDbEntity
  8
0
100
AcDbLine
 62
7
  6
CONTINUOUS
 10
0.5672942109
 20
6.833391804
 11
-0.4227048505
 21
6.833391804
  0
LINE
  5
227
100
AcDbEntity
  8
0
100
AcDbLine
 62
9
  6
CONTINUOUS
 10
11.0395302426
 20
6.868391804
 11
13.1050591178
 21
6.868391804
  0
LINE
  5
228
100
AcDbEntity
  8
0
100
AcDbLine
 62
9
  6
CONTINUOUS
 10
4.4490508737
 20
6.8770699876
 11
3.6955384867
 21
6.8770699876
  0
LINE
  5
229
100
AcDbEntity
  8
0
100
AcDbLine
 62
9
  6
CONTINUOUS
 10
0.5347946802
 20
6.913391804
 11
-0.3902053198
 21
6.913391804
  0
LINE
  5
22A
100
AcDbEntity
  8
0
100
AcDbLine
 62
9
  6
CONTINUOUS
 10
-0.3549934068
 20
7.0774943681
 11
0.4995827673
 21
7.0774943681
  0
LINE
  5
22B
100
AcDbEntity
  8
0
100
AcDbLine
 62
7
  6
CONTINUOUS
 10
-0.3458737046
 20
7.083391804
 11
0.4904627385
 21
7.083391804
  0
LINE
  5
22C
100
AcDbEntity
  8
0
100
AcDbLine
 62
7
  6
CONTINUOUS
 10
3.7417946802
 20
7.385391804
 11
4.4027946802
 21
7.385391804
  0
LINE
  5
22D
100
AcDbEntity
  8
0
100
AcDbLine
 62
9
  6
CONTINUOUS
 10
4.4027946802
 20
7.456391804
 11
3.7417946802
 21
7.456391804
  0
LINE
  5
22E
100
AcDbEntity
  8
0
100
AcDbLine
 62
9
  6
CONTINUOUS
 10
20.3641024827
 20
7.4941369442
 11
21.7804868778
 21
7.4941369442
  0
LINE
  5
22F
100
AcDbEntity
  8
0
100
AcDbLine
 62
7
  6
CONTINUOUS
 10
4.3557940351
 20
7.503391804
 11
3.7887953253
 21
7.503391804
  0
LINE
  5
230
100
AcDbEntity
  8
0
100
AcDbLine
 62
7
  6
CONTINUOUS
 10
4.3442943113
 20
7.527391804
 11
3.8002950492
 21
7.527391804
  0
LINE
  5
231
100
AcDbEntity
  8
0
100
AcDbLine
 62
9
  6
CONTINUOUS
 10
10.7662535067
 20
6.6043989135
 11
10.7649712963
 21
6.6059269924
  0
LINE
  5
232
100
AcDbEntity
  8
0
100
AcDbLine
 62
7
  6
CONTINUOUS
 10
10.6950327886
 20
6.5219443215
 11
10.6847763777
 21
6.534264585
  0
LINE
  5
233
100
AcDbEntity
  8
0
100
AcDbLine
 62
7
  6
CONTINUOUS
 10
10.6912196109
 20
6.5341318452
 11
10.7014433884
 21
6.5218507817
  0
LINE
  5
234
100
AcDbEntity
  8
0
100
AcDbLine
 62
9
  6
CONTINUOUS
 10
10.7952668429
 20
6.6091571654
 11
10.7937957097
 21
6.6109243283
  0
LINE
  5
235
100
AcDbEntity
  8
0
100
AcDbLine
 62
7
  6
CONTINUOUS
 10
10.706297199
 20
6.5219589004
 11
10.6962773404
 21
6.5342874262
  0
LINE
  5
236
100
AcDbEntity
  8
0
100
AcDbLine
 62
7
  6
CONTINUOUS
 10
10.7179814335
 20
6.5341349783
 11
10.7279633139
 21
6.5218531813
  0
LINE
  5
237
100
AcDbEntity
  8
0
100
AcDbLine
 62
7
  6
CONTINUOUS
 10
10.7428880315
 20
6.5219443215
 11
10.7332760685
 21
6.534264585
  0
LINE
  5
238
100
AcDbEntity
  8
0
100
AcDbLine
 62
7
  6
CONTINUOUS
 10
10.7683917599
 20
6.5341318452
 11
10.7779731399
 21
6.5218507817
  0
LINE
  5
239
100
AcDbEntity
  8
0
100
AcDbLine
 62
7
  6
CONTINUOUS
 10
3.8922946802
 20
7.583391804
 11
4.2522946802
 21
7.583391804
  0
LINE
  5
23A
100
AcDbEntity
  8
0
100
AcDbLine
 62
7
  6
CONTINUOUS
 10
4.2422943577
 20
7.593391804
 11
3.9022950028
 21
7.593391804
  0
LINE
  5
23B
100
AcDbEntity
  8
0
100
AcDbLine
 62
9
  6
CONTINUOUS
 10
20.4154240768
 20
7.6367325769
 11
21.7291652836
 21
7.6367325769
  0
LINE
  5
23C
100
AcDbEntity
  8
0
100
AcDbLine
 62
9
  6
CONTINUOUS
 10
11.5272946802
 20
7.8847563116
 11
12.6172946802
 21
7.8847563116
  0
LINE
  5
23D
100
AcDbEntity
  8
0
100
AcDbLine
 62
7
  6
CONTINUOUS
 10
12.4472946802
 20
8.113391804
 11
11.6972946802
 21
8.113391804
  0
LINE
  5
23E
100
AcDbEntity
  8
0
100
AcDbLine
 62
7
  6
CONTINUOUS
 10
12.3772937532
 20
8.253391804
 11
11.7672956072
 21
8.253391804
  0
LINE
  5
23F
100
AcDbEntity
  8
0
100
AcDbLine
 62
7
  6
CONTINUOUS
 10
11.7073093303
 20
8.273391804
 11
12.4372800302
 21
8.273391804
  0
LINE
  5
240
100
AcDbEntity
  8
0
100
AcDbLine
 62
7
  6
CONTINUOUS
 10
10.8392692479
 20
6.6199093966
 11
10.8382068768
 21
6.6211855444
  0
LINE
  5
241
100
AcDbEntity
  8
0
100
AcDbLine
 62
9
  6
CONTINUOUS
 10
10.8327522697
 20
6.6065043704
 11
10.829093763
 21
6.6110058306
  0
LINE
  5
242
100
AcDbEntity
  8
0
100
AcDbLine
 62
7
  6
CONTINUOUS
 10
10.8785500342
 20
6.6190849387
 11
10.8768441137
 21
6.6211839198
  0
LINE
  5
243
100
AcDbEntity
  8
0
100
AcDbLine
 62
9
  6
CONTINUOUS
 10
10.8894051827
 20
6.607296999
 11
10.8865752307
 21
6.6109243283
  0
LINE
  5
244
100
AcDbEntity
  8
0
100
AcDbLine
 62
7
  6
CONTINUOUS
 10
10.9397515178
 20
6.6189768422
 11
10.9380283446
 21
6.6211855444
  0
LINE
  5
245
100
AcDbEntity
  8
0
100
AcDbLine
 62
7
  6
CONTINUOUS
 10
10.7931527768
 20
6.5219589004
 11
10.7840875056
 21
6.5342874262
  0
LINE
  5
246
100
AcDbEntity
  8
0
100
AcDbLine
 62
7
  6
CONTINUOUS
 10
10.8358184046
 20
6.5341349783
 11
10.8448493158
 21
6.5218531813
  0
LINE
  5
247
100
AcDbEntity
  8
0
100
AcDbLine
 62
9
  6
CONTINUOUS
 10
10.9648637771
 20
6.6029264501
 11
10.9589229391
 21
6.6110058306
  0
LINE
  5
248
100
AcDbEntity
  8
0
100
AcDbLine
 62
7
  6
CONTINUOUS
 10
11.014585801
 20
6.6177283996
 11
11.0120449291
 21
6.6211839199
  0
LINE
  5
249
100
AcDbEntity
  8
0
100
AcDbLine
 62
7
  6
CONTINUOUS
 10
10.8742747833
 20
6.5219443215
 11
10.8659112233
 21
6.534264585
  0
LINE
  5
24A
100
AcDbEntity
  8
0
100
AcDbLine
 62
7
  6
CONTINUOUS
 10
10.9274929248
 20
6.5341318452
 11
10.9358298739
 21
6.5218507817
  0
LINE
  5
24B
100
AcDbEntity
  8
0
100
AcDbLine
 62
9
  6
CONTINUOUS
 10
11.0574926033
 20
6.6055700379
 11
11.0538578654
 21
6.6109243283
  0
LINE
  5
24C
100
AcDbEntity
  8
0
100
AcDbLine
 62
7
  6
CONTINUOUS
 10
11.1110514279
 20
6.618340285
 11
11.1091199378
 21
6.6211855444
  0
LINE
  5
24D
100
AcDbEntity
  8
0
100
AcDbLine
 62
7
  6
CONTINUOUS
 10
10.9603815448
 20
6.5219589004
 11
10.9528404653
 21
6.5342874262
  0
LINE
  5
24E
100
AcDbEntity
  8
0
100
AcDbLine
 62
7
  6
CONTINUOUS
 10
11.0313477276
 20
6.5341349783
 11
11.0388602242
 21
6.5218531813
  0
LINE
  5
24F
100
AcDbEntity
  8
0
100
AcDbLine
 62
9
  6
CONTINUOUS
 10
11.1662341982
 20
6.598703851
 11
11.1587093564
 21
6.6110058306
  0
LINE
  5
250
100
AcDbEntity
  8
0
100
AcDbLine
 62
7
  6
CONTINUOUS
 10
11.216739335
 20
6.6164850323
 11
11.2138651355
 21
6.6211839202
  0
LINE
  5
251
100
AcDbEntity
  8
0
100
AcDbLine
 62
7
  6
CONTINUOUS
 10
11.0809375312
 20
6.5219443215
 11
11.0743478875
 21
6.534264585
  0
LINE
  5
252
100
AcDbEntity
  8
0
100
AcDbLine
 62
7
  6
CONTINUOUS
 10
11.1585261943
 20
6.5341318452
 11
11.1650948713
 21
6.5218507817
  0
LINE
  5
253
100
AcDbEntity
  8
0
100
AcDbLine
 62
7
  6
CONTINUOUS
 10
10.684580279
 20
6.5341737256
 11
10.6845804899
 21
6.5341714751
  0
LINE
  5
254
100
AcDbEntity
  8
0
100
AcDbLine
 62
7
  6
CONTINUOUS
 10
11.821298853
 20
9.6460004974
 11
11.8174804618
 21
9.643391804
  0
LINE
  5
255
100
AcDbEntity
  8
0
100
AcDbLine
 62
7
  6
CONTINUOUS
 10
11.6541850347
 20
9.5608060837
 11
11.6375550925
 21
9.5531097594
  0
LINE
  5
256
100
AcDbEntity
  8
0
100
AcDbLine
 62
7
  6
CONTINUOUS
 10
11.8378206011
 20
9.653064666
 11
11.820897366
 21
9.645788132
  0
LINE
  5
257
100
AcDbEntity
  8
0
100
AcDbLine
 62
9
  6
CONTINUOUS
 10
11.7389738831
 20
9.3558321551
 11
11.7417886859
 21
9.3568255104
  0
LINE
  5
258
100
AcDbEntity
  8
0
100
AcDbLine
 62
7
  6
CONTINUOUS
 10
12.451173859
 20
9.073391804
 11
12.4691801428
 21
9.0760198554
  0
LWPOLYLINE
  5
259
100
AcDbEntity
  8
0
100
AcDbPolyline
 62
7
  6
CONTINUOUS
 90
9
 70
0
 10
12.2087704614
 20
8.9659926073
 10
12.2418949479
 20
8.9698374332
 10
12.2715333287
 20
8.9746630023
 10
12.2977343871
 20
8.9808462859
 10
12.3192852384
 20
8.9886783349
 10
12.3336942156
 20
8.9949973478
 10
12.3476700721
 20
9.0015703307
 10
12.3610972492
 20
9.008427718
 10
12.3716877625
 20
9.0143381535
  0
LINE
  5
25A
100
AcDbEntity
  8
0
100
AcDbLine
 62
7
  6
CONTINUOUS
 10
12.1727981791
 20
8.9630749834
 11
12.2087704614
 21
8.9659926073
  0
LINE
  5
25B
100
AcDbEntity
  8
0
100
AcDbLine
 62
9
  6
CONTINUOUS
 10
12.4372946802
 20
8.3736247631
 11
11.7072946802
 21
8.3736247631
  0
LINE
  5
25C
100
AcDbEntity
  8
0
100
AcDbLine
 62
9
  6
CONTINUOUS
 10
11.7091845535
 20
8.3929742603
 11
12.4354048069
 21
8.3929742603
  0
LINE
  5
25D
100
AcDbEntity
  8
0
100
AcDbLine
 62
9
  6
CONTINUOUS
 10
12.4049540644
 20
8.5473723912
 11
11.739635296
 21
8.5473723912
  0
LINE
  5
25E
100
AcDbEntity
  8
0
100
AcDbLine
 62
9
  6
CONTINUOUS
 10
11.7374007214
 20
8.578803115
 11
12.4071886391
 21
8.578803115
  0
LINE
  5
25F
100
AcDbEntity
  8
0
100
AcDbLine
 62
9
  6
CONTINUOUS
 10
12.4395346783
 20
8.67122037
 11
11.7050546821
 21
8.67122037
  0
LINE
  5
260
100
AcDbEntity
  8
0
100
AcDbLine
 62
9
  6
CONTINUOUS
 10
11.7066504737
 20
8.71493848
 11
12.4379388867
 21
8.71493848
  0
LINE
  5
261
100
AcDbEntity
  8
0
100
AcDbLine
 62
9
  6
CONTINUOUS
 10
12.3762104908
 20
8.8571008463
 11
11.7683788696
 21
8.8571008463
  0
LINE
  5
262
100
AcDbEntity
  8
0
100
AcDbLine
 62
9
  6
CONTINUOUS
 10
11.7665166865
 20
8.9087931834
 11
12.0403208372
 21
8.9087931834
  0
LINE
  5
263
100
AcDbEntity
  8
0
100
AcDbLine
 62
9
  6
CONTINUOUS
 10
12.1043096446
 20
8.9087931834
 11
12.378072674
 21
8.9087931834
  0
LINE
  5
264
100
AcDbEntity
  8
0
100
AcDbLine
 62
9
  6
CONTINUOUS
 10
12.4154682069
 20
8.9803324637
 11
12.2955571158
 21
8.9803324637
  0
LINE
  5
265
100
AcDbEntity
  8
0
100
AcDbLine
 62
9
  6
CONTINUOUS
 10
11.8491897035
 20
8.9803324637
 11
11.7291211536
 21
8.9803324637
  0
LINE
  5
266
100
AcDbEntity
  8
0
100
AcDbLine
 62
9
  6
CONTINUOUS
 10
11.7222946802
 20
9.0081277163
 11
11.7987878262
 21
9.0081277163
  0
LINE
  5
267
100
AcDbEntity
  8
0
100
AcDbLine
 62
9
  6
CONTINUOUS
 10
12.3605098278
 20
9.0081277163
 11
12.4222946802
 21
9.0081277163
  0
LINE
  5
268
100
AcDbEntity
  8
0
100
AcDbLine
 62
7
  6
CONTINUOUS
 10
11.6720786907
 20
9.073391804
 11
11.7714411719
 21
9.073391804
  0
LINE
  5
269
100
AcDbEntity
  8
0
100
AcDbLine
 62
7
  6
CONTINUOUS
 10
12.4292673657
 20
9.073391804
 11
12.4511736344
 21
9.073391804
  0
LWPOLYLINE
  5
26A
100
AcDbEntity
  8
0
100
AcDbPolyline
 62
7
  6
CONTINUOUS
 90
7
 70
0
 10
11.9568809323
 20
8.9641490373
 10
11.9887717698
 20
8.9620618709
 10
12.0231842514
 20
8.9606279205
 10
12.0595404324
 20
8.9599398238
 10
12.0971711928
 20
8.9600784404
 10
12.1352438261
 20
8.9611094925
 10
12.1727981791
 20
8.9630749834
  0
LINE
  5
26B
100
AcDbEntity
  8
0
100
AcDbLine
 62
7
  6
CONTINUOUS
 10
11.9279794883
 20
8.9667885213
 11
11.9568809323
 21
8.9641490373
  0
LINE
  5
26C
100
AcDbEntity
  8
0
100
AcDbLine
 62
9
  6
CONTINUOUS
 10
11.2890366964
 20
6.6036251297
 11
11.2851326308
 21
6.6109243283
  0
LINE
  5
26D
100
AcDbEntity
  8
0
100
AcDbLine
 62
7
  6
CONTINUOUS
 10
11.3426501653
 20
6.6175980287
 11
11.3407313423
 21
6.6211855449
  0
LINE
  5
26E
100
AcDbEntity
  8
0
100
AcDbLine
 62
7
  6
CONTINUOUS
 10
11.1974759044
 20
6.5219589004
 11
11.1919328504
 21
6.5342874262
  0
LINE
  5
26F
100
AcDbEntity
  8
0
100
AcDbLine
 62
7
  6
CONTINUOUS
 10
11.2922835759
 20
6.5341349783
 11
11.2978056201
 21
6.5218531813
  0
LINE
  5
270
100
AcDbEntity
  8
0
100
AcDbLine
 62
9
  6
CONTINUOUS
 10
11.421430818
 20
6.598703851
 11
11.4158996995
 21
6.6110058306
  0
LINE
  5
271
100
AcDbEntity
  8
0
100
AcDbLine
 62
7
  6
CONTINUOUS
 10
11.4724256278
 20
6.6149518678
 11
11.4696236276
 21
6.6211839202
  0
LINE
  5
272
100
AcDbEntity
  8
0
100
AcDbLine
 62
7
  6
CONTINUOUS
 10
11.3498908947
 20
6.5219443215
 11
11.3454892188
 21
6.534264585
  0
LINE
  5
273
100
AcDbEntity
  8
0
100
AcDbLine
 62
7
  6
CONTINUOUS
 10
11.4469748983
 20
6.5341318452
 11
11.4513625692
 21
6.5218507817
  0
LINE
  5
274
100
AcDbEntity
  8
0
100
AcDbLine
 62
9
  6
CONTINUOUS
 10
11.5696714859
 20
6.6002775068
 11
11.5658676827
 21
6.6109243283
  0
LINE
  5
275
100
AcDbEntity
  8
0
100
AcDbLine
 62
7
  6
CONTINUOUS
 10
11.6199677798
 20
6.6165441869
 11
11.6183095619
 21
6.6211855448
  0
LINE
  5
276
100
AcDbEntity
  8
0
100
AcDbLine
 62
7
  6
CONTINUOUS
 10
10.8972946802
 20
6.6367402901
 11
10.8972946802
 21
6.623391804
  0
LINE
  5
277
100
AcDbEntity
  8
0
100
AcDbLine
 62
7
  6
CONTINUOUS
 10
11.6003261904
 20
9.4744894875
 11
11.6002571316
 21
9.4642512063
  0
LINE
  5
278
100
AcDbEntity
  8
0
100
AcDbLine
 62
7
  6
CONTINUOUS
 10
11.6007108826
 20
9.4763022061
 11
11.6003261904
 21
9.4744894875
  0
LWPOLYLINE
  5
279
100
AcDbEntity
  8
0
100
AcDbPolyline
 62
7
  6
CONTINUOUS
 90
6
 70
0
 10
11.6007108509
 20
9.4763020767
 10
11.6004617424
 20
9.4751936382
 10
11.6001478668
 20
9.4649608632
 10
11.6032917652
 20
9.455220767
 10
11.6095295499
 20
9.4471019952
 10
11.6109279607
 20
9.4458918049
  0
LINE
  5
27A
100
AcDbEntity
  8
0
100
AcDbLine
 62
7
  6
CONTINUOUS
 10
11.6112993105
 20
9.517080063
 11
11.6007108724
 21
9.4763022061
  0
LINE
  5
27B
100
AcDbEntity
  8
0
100
AcDbLine
 62
7
  6
CONTINUOUS
 10
11.7662385943
 20
9.5470622412
 11
11.747077583
 21
9.4763017063
  0
LINE
  5
27C
100
AcDbEntity
  8
0
100
AcDbLine
 62
7
  6
CONTINUOUS
 10
11.7847669868
 20
9.6050674476
 11
11.7662385943
 21
9.5470622412
  0
LINE
  5
27D
100
AcDbEntity
  8
0
100
AcDbLine
 62
7
  6
CONTINUOUS
 10
11.6032905287
 20
9.1815605317
 11
11.6001475472
 21
9.1718207452
  0
LINE
  5
27E
100
AcDbEntity
  8
0
100
AcDbLine
 62
7
  6
CONTINUOUS
 10
11.7847568585
 20
9.6050373905
 11
11.7847669868
 21
9.6050674476
  0
LINE
  5
27F
100
AcDbEntity
  8
0
100
AcDbLine
 62
7
  6
CONTINUOUS
 10
11.6145718275
 20
9.5261870644
 11
11.6112993209
 21
9.517080078
  0
LINE
  5
280
100
AcDbEntity
  8
0
100
AcDbLine
 62
7
  6
CONTINUOUS
 10
11.7600405231
 20
9.4763082514
 11
11.7562138516
 21
9.465693864
  0
LINE
  5
281
100
AcDbEntity
  8
0
100
AcDbLine
 62
7
  6
CONTINUOUS
 10
11.6242329367
 20
9.5414118161
 11
11.6145718275
 21
9.5261870644
  0
LINE
  5
282
100
AcDbEntity
  8
0
100
AcDbLine
 62
7
  6
CONTINUOUS
 10
11.6095271826
 20
9.1896794377
 11
11.6032905287
 21
9.1815605317
  0
LWPOLYLINE
  5
283
100
AcDbEntity
  8
0
100
AcDbPolyline
 62
7
  6
CONTINUOUS
 90
5
 70
0
 10
11.6100608117
 20
9.1901592466
 10
11.6036320369
 20
9.1821923594
 10
11.6002567633
 20
9.1725303995
 10
11.600326413
 20
9.1622926252
 10
11.6007108267
 20
9.1604814303
  0
LINE
  5
284
100
AcDbEntity
  8
0
100
AcDbLine
 62
7
  6
CONTINUOUS
 10
11.7536383643
 20
9.18670234
 11
11.7499993666
 21
9.1821931661
  0
LWPOLYLINE
  5
285
100
AcDbEntity
  8
0
100
AcDbPolyline
 62
7
  6
CONTINUOUS
 90
4
 70
0
 10
11.6375550925
 20
9.5531097594
 10
11.6239449952
 20
9.5410737672
 10
11.6143323581
 20
9.5256467075
 10
11.6112992858
 20
9.5170799504
  0
LINE
  5
286
100
AcDbEntity
  8
0
100
AcDbLine
 62
7
  6
CONTINUOUS
 10
11.637803401
 20
9.5532713967
 11
11.6242329367
 21
9.5414118161
  0
LINE
  5
287
100
AcDbEntity
  8
0
100
AcDbLine
 62
7
  6
CONTINUOUS
 10
11.6109279607
 20
9.1908918036
 11
11.6095271826
 21
9.1896794377
  0
LINE
  5
288
100
AcDbEntity
  8
0
100
AcDbLine
 62
7
  6
CONTINUOUS
 10
11.6109279607
 20
9.1908918036
 11
11.6100608117
 21
9.1901592466
  0
LWPOLYLINE
  5
289
100
AcDbEntity
  8
0
100
AcDbPolyline
 62
7
  6
CONTINUOUS
 90
4
 70
0
 10
11.820897366
 20
9.645788132
 10
11.8042324845
 20
9.6342501605
 10
11.790013426
 20
9.616686746
 10
11.7847574123
 20
9.6050371908
  0
LINE
  5
28A
100
AcDbEntity
  8
0
100
AcDbLine
 62
7
  6
CONTINUOUS
 10
12.3716877625
 20
9.0143381535
 11
12.371631534
 21
9.0143053605
  0
LINE
  5
28B
100
AcDbEntity
  8
0
100
AcDbLine
 62
7
  6
CONTINUOUS
 10
12.4690381977
 20
9.075977701
 11
12.485667666
 21
9.0836738936
  0
LINE
  5
28C
100
AcDbEntity
  8
0
100
AcDbLine
 62
7
  6
CONTINUOUS
 10
11.6720488199
 20
9.563391804
 11
11.6540425897
 21
9.5607637817
  0
LWPOLYLINE
  5
28D
100
AcDbEntity
  8
0
100
AcDbPolyline
 62
7
  6
CONTINUOUS
 90
6
 70
0
 10
11.9604807681
 20
9.6729106049
 10
11.9282842927
 20
9.6700274541
 10
11.8998281222
 20
9.6665470794
 10
11.8754896037
 20
9.6625838091
 10
11.855029178
 20
9.6581470235
 10
11.8374467521
 20
9.6529337928
  0
LINE
  5
28E
100
AcDbEntity
  8
0
100
AcDbLine
 62
9
  6
CONTINUOUS
 10
11.7581324262
 20
9.1197036075
 11
11.611299273
 21
9.1197036131
  0
LINE
  5
28F
100
AcDbEntity
  8
0
100
AcDbLine
 62
7
  6
CONTINUOUS
 10
11.6109279532
 20
9.1908917975
 11
11.752946045
 21
9.1908918033
  0
LINE
  5
290
100
AcDbEntity
  8
0
100
AcDbLine
 62
9
  6
CONTINUOUS
 10
11.741770753
 20
9.2799549273
 11
12.5466482955
 21
9.2799548789
  0
LINE
  5
291
100
AcDbEntity
  8
0
100
AcDbLine
 62
9
  6
CONTINUOUS
 10
11.7417706526
 20
9.3568282834
 11
12.5466482942
 21
9.3568287374
  0
LINE
  5
292
100
AcDbEntity
  8
0
100
AcDbLine
 62
7
  6
CONTINUOUS
 10
11.6109279607
 20
9.4458918212
 11
11.7529463016
 21
9.445891796
  0
LINE
  5
293
100
AcDbEntity
  8
0
100
AcDbLine
 62
9
  6
CONTINUOUS
 10
11.6112992802
 20
9.5170799529
 11
11.7581197888
 21
9.5170799501
  0
LINE
  5
294
100
AcDbEntity
  8
0
100
AcDbLine
 62
7
  6
CONTINUOUS
 10
12.4511705375
 20
9.563391804
 11
12.429270019
 21
9.563391804
  0
LINE
  5
295
100
AcDbEntity
  8
0
100
AcDbLine
 62
7
  6
CONTINUOUS
 10
11.7714546873
 20
9.563391804
 11
11.6720649607
 21
9.563391804
  0
LINE
  5
296
100
AcDbEntity
  8
0
100
AcDbLine
 62
9
  6
CONTINUOUS
 10
12.3722946802
 20
9.623391804
 11
12.3699893989
 21
9.623391804
  0
LINE
  5
297
100
AcDbEntity
  8
0
100
AcDbLine
 62
9
  6
CONTINUOUS
 10
11.7954417334
 20
9.623391804
 11
11.7722946802
 21
9.623391804
  0
LINE
  5
298
100
AcDbEntity
  8
0
100
AcDbLine
 62
7
  6
CONTINUOUS
 10
12.3522929597
 20
9.643391804
 11
12.3300716716
 21
9.643391804
  0
LINE
  5
299
100
AcDbEntity
  8
0
100
AcDbLine
 62
7
  6
CONTINUOUS
 10
11.8174362271
 20
9.643391804
 11
11.7922964008
 21
9.643391804
  0
LINE
  5
29A
100
AcDbEntity
  8
0
100
AcDbLine
 62
9
  6
CONTINUOUS
 10
12.2922946802
 20
9.673391804
 11
12.2022946802
 21
9.673391804
  0
LINE
  5
29B
100
AcDbEntity
  8
0
100
AcDbLine
 62
9
  6
CONTINUOUS
 10
11.9422946802
 20
9.673391804
 11
11.8522946802
 21
9.673391804
  0
LINE
  5
29C
100
AcDbEntity
  8
0
100
AcDbLine
 62
7
  6
CONTINUOUS
 10
12.272282065
 20
9.693391804
 11
12.1901472707
 21
9.693391804
  0
LINE
  5
29D
100
AcDbEntity
  8
0
100
AcDbLine
 62
7
  6
CONTINUOUS
 10
11.954611523
 20
9.693391804
 11
11.8723072955
 21
9.693391804
  0
LINE
  5
29E
100
AcDbEntity
  8
0
100
AcDbLine
 62
9
  6
CONTINUOUS
 10
12.2172946802
 20
9.713391804
 11
12.1444237395
 21
9.713391804
  0
LINE
  5
29F
100
AcDbEntity
  8
0
100
AcDbLine
 62
9
  6
CONTINUOUS
 10
12.00012326
 20
9.713391804
 11
11.9272946802
 21
9.713391804
  0
LINE
  5
2A0
100
AcDbEntity
  8
0
100
AcDbLine
 62
7
  6
CONTINUOUS
 10
12.1972783735
 20
9.733391804
 11
11.9473109869
 21
9.733391804
  0
LINE
  5
2A1
100
AcDbEntity
  8
0
100
AcDbLine
 62
7
  6
CONTINUOUS
 10
20.3322956821
 20
9.801391804
 11
21.8122936783
 21
9.801391804
  0
LINE
  5
2A2
100
AcDbEntity
  8
0
100
AcDbLine
 62
9
  6
CONTINUOUS
 10
20.3122946802
 20
9.8762249518
 11
21.8322946802
 21
9.8762249518
  0
LWPOLYLINE
  5
2A3
100
AcDbEntity
  8
0
100
AcDbPolyline
 62
7
  6
CONTINUOUS
 90
7
 70
0
 10
12.193633016
 20
9.6721564351
 10
12.1543341451
 20
9.6748000331
 10
12.1137494119
 20
9.6763686814
 10
12.0730925941
 20
9.6768928079
 10
12.0334302787
 20
9.6764326868
 10
11.9956630595
 20
9.6750731355
 10
11.9604807681
 20
9.6729106049
  0
LINE
  5
2A4
100
AcDbEntity
  8
0
100
AcDbLine
 62
7
  6
CONTINUOUS
 10
12.2302595035
 20
9.6684482221
 11
12.193633016
 21
9.6721564351
  0
LINE
  5
2A5
100
AcDbEntity
  8
0
100
AcDbLine
 62
7
  6
CONTINUOUS
 10
11.6540425624
 20
9.0760198232
 11
11.672048781
 21
9.073391804
  0
LINE
  5
2A6
100
AcDbEntity
  8
0
100
AcDbLine
 62
7
  6
CONTINUOUS
 10
12.4691773793
 20
9.5607638348
 11
12.451171013
 21
9.563391804
  0
LINE
  5
2A7
100
AcDbEntity
  8
0
100
AcDbLine
 62
9
  6
CONTINUOUS
 10
11.7389610047
 20
9.2809493359
 11
11.7417707712
 21
9.2799545438
  0
LINE
  5
2A8
100
AcDbEntity
  8
0
100
AcDbLine
 62
7
  6
CONTINUOUS
 10
11.624232855
 20
9.0953718447
 11
11.637803325
 21
9.0835122365
  0
LINE
  5
2A9
100
AcDbEntity
  8
0
100
AcDbLine
 62
7
  6
CONTINUOUS
 10
11.6145717535
 20
9.1105966285
 11
11.624232855
 21
9.0953718447
  0
LINE
  5
2AA
100
AcDbEntity
  8
0
100
AcDbLine
 62
7
  6
CONTINUOUS
 10
11.6112992549
 20
9.11970364
 11
11.6145717535
 21
9.1105966285
  0
LWPOLYLINE
  5
2AB
100
AcDbEntity
  8
0
100
AcDbPolyline
 62
7
  6
CONTINUOUS
 90
5
 70
0
 10
11.6112992639
 20
9.1197036072
 10
11.6143323396
 20
9.1111368607
 10
11.62394498
 20
9.0957098158
 10
11.6375550738
 20
9.0836738367
 10
11.6541849747
 20
9.0759775309
  0
LINE
  5
2AC
100
AcDbEntity
  8
0
100
AcDbLine
 62
7
  6
CONTINUOUS
 10
11.7374007214
 20
8.578803115
 11
11.7050546821
 21
8.67122037
  0
LINE
  5
2AD
100
AcDbEntity
  8
0
100
AcDbLine
 62
7
  6
CONTINUOUS
 10
11.489538345
 20
6.5219589004
 11
11.486341607
 21
6.5342874262
  0
LINE
  5
2AE
100
AcDbEntity
  8
0
100
AcDbLine
 62
7
  6
CONTINUOUS
 10
11.6022303906
 20
6.5341349783
 11
11.605415012
 21
6.5218531813
  0
LINE
  5
2AF
100
AcDbEntity
  8
0
100
AcDbLine
 62
9
  6
CONTINUOUS
 10
11.7175236081
 20
6.598703851
 11
11.7143337534
 21
6.6110058306
  0
LINE
  5
2B0
100
AcDbEntity
  8
0
100
AcDbLine
 62
7
  6
CONTINUOUS
 10
11.765697115
 20
6.6117469609
 11
11.7632501583
 21
6.6211839202
  0
LINE
  5
2B1
100
AcDbEntity
  8
0
100
AcDbLine
 62
7
  6
CONTINUOUS
 10
11.664235545
 20
6.5219443215
 11
11.6622984103
 21
6.534264585
  0
LINE
  5
2B2
100
AcDbEntity
  8
0
100
AcDbLine
 62
7
  6
CONTINUOUS
 10
11.7747147441
 20
6.5341318452
 11
11.7766457152
 21
6.5218507817
  0
LINE
  5
2B3
100
AcDbEntity
  8
0
100
AcDbLine
 62
9
  6
CONTINUOUS
 10
11.8803568606
 20
6.5986274659
 11
11.8784234054
 21
6.6109243283
  0
LINE
  5
2B4
100
AcDbEntity
  8
0
100
AcDbLine
 62
7
  6
CONTINUOUS
 10
11.9253469019
 20
6.6152479747
 11
11.9244133363
 21
6.6211855449
  0
LINE
  5
2B5
100
AcDbEntity
  8
0
100
AcDbLine
 62
7
  6
CONTINUOUS
 10
12.4372946802
 20
8.3736247631
 11
12.4354048069
 21
8.3929742603
  0
LINE
  5
2B6
100
AcDbEntity
  8
0
100
AcDbLine
 62
7
  6
CONTINUOUS
 10
11.8182175095
 20
6.5219589004
 11
11.8175679502
 21
6.5342874262
  0
LINE
  5
2B7
100
AcDbEntity
  8
0
100
AcDbLine
 62
7
  6
CONTINUOUS
 10
11.9417130734
 20
6.5341349783
 11
11.9423601706
 21
6.5218531813
  0
LINE
  5
2B8
100
AcDbEntity
  8
0
100
AcDbLine
 62
9
  6
CONTINUOUS
 10
12.0359079693
 20
6.598703851
 11
12.0352598087
 21
6.6110058306
  0
LINE
  5
2B9
100
AcDbEntity
  8
0
100
AcDbLine
 62
7
  6
CONTINUOUS
 10
12.0770164464
 20
6.6074924813
 11
12.0762950929
 21
6.6211839201
  0
LWPOLYLINE
  5
2BA
100
AcDbEntity
  8
0
100
AcDbPolyline
 62
7
  6
CONTINUOUS
 90
3
 70
0
 10
11.6001475472
 20
9.1718207452
 10
11.6004619839
 20
9.1615885591
 10
11.6007108402
 20
9.1604813751
  0
LINE
  5
2BB
100
AcDbEntity
  8
0
100
AcDbLine
 62
7
  6
CONTINUOUS
 10
11.6109279607
 20
9.4458918049
 11
11.6109279607
 21
9.4404938034
  0
LINE
  5
2BC
100
AcDbEntity
  8
0
100
AcDbLine
 62
7
  6
CONTINUOUS
 10
11.6109279607
 20
9.1943457607
 11
11.6109279607
 21
9.1908918036
  0
LINE
  5
2BD
100
AcDbEntity
  8
0
100
AcDbLine
 62
7
  6
CONTINUOUS
 10
11.7072946802
 20
8.273391804
 11
11.7072946802
 21
8.3736247631
  0
LINE
  5
2BE
100
AcDbEntity
  8
0
100
AcDbLine
 62
7
  6
CONTINUOUS
 10
11.7222946802
 20
9.0081277163
 11
11.7222946802
 21
9.073391804
  0
LINE
  5
2BF
100
AcDbEntity
  8
0
100
AcDbLine
 62
7
  6
CONTINUOUS
 10
11.7722946802
 20
9.566021496
 11
11.7722946802
 21
9.623391804
  0
LINE
  5
2C0
100
AcDbEntity
  8
0
100
AcDbLine
 62
7
  6
CONTINUOUS
 10
11.8522946802
 20
9.6573362385
 11
11.8522946802
 21
9.673391804
  0
LINE
  5
2C1
100
AcDbEntity
  8
0
100
AcDbLine
 62
7
  6
CONTINUOUS
 10
11.8722946802
 20
8.253391804
 11
11.8722946802
 21
8.273391804
  0
LINE
  5
2C2
100
AcDbEntity
  8
0
100
AcDbLine
 62
7
  6
CONTINUOUS
 10
11.9272946802
 20
9.693391804
 11
11.9272946802
 21
9.713391804
  0
LINE
  5
2C3
100
AcDbEntity
  8
0
100
AcDbLine
 62
7
  6
CONTINUOUS
 10
11.9422946802
 20
8.963017651
 11
11.9422946802
 21
8.9654811569
  0
LINE
  5
2C4
100
AcDbEntity
  8
0
100
AcDbLine
 62
7
  6
CONTINUOUS
 10
11.9422946802
 20
9.6712820654
 11
11.9422946802
 21
9.6737659571
  0
LINE
  5
2C5
100
AcDbEntity
  8
0
100
AcDbLine
 62
7
  6
CONTINUOUS
 10
12.2022946802
 20
8.963017651
 11
12.2022946802
 21
8.9654673725
  0
LINE
  5
2C6
100
AcDbEntity
  8
0
100
AcDbLine
 62
7
  6
CONTINUOUS
 10
12.2022946802
 20
9.6712794934
 11
12.2022946802
 21
9.6737659571
  0
LINE
  5
2C7
100
AcDbEntity
  8
0
100
AcDbLine
 62
7
  6
CONTINUOUS
 10
12.2172946802
 20
9.693391804
 11
12.2172946802
 21
9.713391804
  0
LINE
  5
2C8
100
AcDbEntity
  8
0
100
AcDbLine
 62
7
  6
CONTINUOUS
 10
12.2722946802
 20
8.253391804
 11
12.2722946802
 21
8.273391804
  0
LINE
  5
2C9
100
AcDbEntity
  8
0
100
AcDbLine
 62
7
  6
CONTINUOUS
 10
12.2922946802
 20
9.6574127864
 11
12.2922946802
 21
9.673391804
  0
LINE
  5
2CA
100
AcDbEntity
  8
0
100
AcDbLine
 62
7
  6
CONTINUOUS
 10
12.3722946802
 20
9.6224764478
 11
12.3722946802
 21
9.623391804
  0
LINE
  5
2CB
100
AcDbEntity
  8
0
100
AcDbLine
 62
7
  6
CONTINUOUS
 10
12.0042200514
 20
6.5219443215
 11
12.0048691753
 21
6.534264585
  0
LINE
  5
2CC
100
AcDbEntity
  8
0
100
AcDbLine
 62
7
  6
CONTINUOUS
 10
12.1211526316
 20
6.5341318452
 11
12.1205055731
 21
6.5218507817
  0
LINE
  5
2CD
100
AcDbEntity
  8
0
100
AcDbLine
 62
9
  6
CONTINUOUS
 10
12.2025128823
 20
6.5986274659
 11
12.2031607732
 21
6.6109243283
  0
LINE
  5
2CE
100
AcDbEntity
  8
0
100
AcDbLine
 62
7
  6
CONTINUOUS
 10
12.2393961716
 20
6.6133495854
 11
12.2398090393
 21
6.6211855449
  0
LINE
  5
2CF
100
AcDbEntity
  8
0
100
AcDbLine
 62
7
  6
CONTINUOUS
 10
11.7072946802
 20
8.3736247631
 11
11.7091845535
 21
8.3929742603
  0
LWPOLYLINE
  5
2D0
100
AcDbEntity
  8
0
100
AcDbPolyline
 62
7
  6
CONTINUOUS
 90
4
 70
0
 10
11.7389736175
 20
9.3558302855
 10
11.7368030714
 20
9.3340369659
 10
11.7368487985
 20
9.3020048403
 10
11.7389730323
 20
9.2809531146
  0
LINE
  5
2D1
100
AcDbEntity
  8
0
100
AcDbLine
 62
7
  6
CONTINUOUS
 10
11.7452166699
 20
9.3980899759
 11
11.7389613227
 21
9.3558339068
  0
LWPOLYLINE
  5
2D2
100
AcDbEntity
  8
0
100
AcDbPolyline
 62
7
  6
CONTINUOUS
 90
3
 70
0
 10
11.7562171015
 20
9.4656842235
 10
11.7525548626
 20
9.443523101
 10
11.7452166699
 20
9.3980899759
  0
LINE
  5
2D3
100
AcDbEntity
  8
0
100
AcDbLine
 62
7
  6
CONTINUOUS
 10
11.739635296
 20
8.5473723912
 11
11.7091845535
 21
8.3929742603
  0
LWPOLYLINE
  5
2D4
100
AcDbEntity
  8
0
100
AcDbPolyline
 62
7
  6
CONTINUOUS
 90
4
 70
0
 10
11.7470782813
 20
9.4763021857
 10
11.7468291645
 20
9.4751937177
 10
11.746515273
 20
9.4649609368
 10
11.7496591417
 20
9.455220845
  0
LWPOLYLINE
  5
2D5
100
AcDbEntity
  8
0
100
AcDbPolyline
 62
7
  6
CONTINUOUS
 90
4
 70
0
 10
12.4316886618
 20
9.0790472398
 10
12.4439331552
 20
9.12136889
 10
12.4642231562
 20
9.2049009161
 10
12.4782048459
 20
9.2799548789
  0
LINE
  5
2D6
100
AcDbEntity
  8
0
100
AcDbLine
 62
7
  6
CONTINUOUS
 10
12.4316886618
 20
9.0790472398
 11
12.4316787656
 21
9.0790149444
  0
LWPOLYLINE
  5
2D7
100
AcDbEntity
  8
0
100
AcDbPolyline
 62
7
  6
CONTINUOUS
 90
4
 70
0
 10
11.7499993666
 20
9.1821931661
 10
11.746623568
 20
9.1725313584
 10
11.7466927114
 20
9.1622933703
 10
11.7470770179
 20
9.1604822535
  0
LINE
  5
2D8
100
AcDbEntity
  8
0
100
AcDbLine
 62
7
  6
CONTINUOUS
 10
12.508651689
 20
9.1105982162
 11
12.5119234701
 21
9.1197035819
  0
LINE
  5
2D9
100
AcDbEntity
  8
0
100
AcDbLine
 62
7
  6
CONTINUOUS
 10
12.4245230464
 20
9.062479895
 11
12.4316762958
 21
9.0790069469
  0
LINE
  5
2DA
100
AcDbEntity
  8
0
100
AcDbLine
 62
7
  6
CONTINUOUS
 10
11.7683788696
 20
8.8571008463
 11
11.7066504737
 21
8.71493848
  0
LINE
  5
2DB
100
AcDbEntity
  8
0
100
AcDbLine
 62
7
  6
CONTINUOUS
 10
12.378072674
 20
8.9087931834
 11
12.4154682069
 21
8.9803324637
  0
LINE
  5
2DC
100
AcDbEntity
  8
0
100
AcDbLine
 62
7
  6
CONTINUOUS
 10
12.4989907347
 20
9.0953728848
 11
12.508651689
 21
9.1105982162
  0
LINE
  5
2DD
100
AcDbEntity
  8
0
100
AcDbLine
 62
7
  6
CONTINUOUS
 10
12.409083696
 20
9.0422693225
 11
12.4247865241
 21
9.0629470986
  0
LWPOLYLINE
  5
2DE
100
AcDbEntity
  8
0
100
AcDbPolyline
 62
7
  6
CONTINUOUS
 90
4
 70
0
 10
12.485667666
 20
9.0836738936
 10
12.4992777732
 20
9.0957098805
 10
12.5088904135
 20
9.1111369117
 10
12.5119234766
 20
9.1197036054
  0
LINE
  5
2DF
100
AcDbEntity
  8
0
100
AcDbLine
 62
7
  6
CONTINUOUS
 10
12.4854201592
 20
9.0835127755
 11
12.4989907347
 21
9.0953728848
  0
LINE
  5
2E0
100
AcDbEntity
  8
0
100
AcDbLine
 62
7
  6
CONTINUOUS
 10
12.3907905562
 20
9.0266967257
 11
12.409083696
 21
9.0422693225
  0
LINE
  5
2E1
100
AcDbEntity
  8
0
100
AcDbLine
 62
7
  6
CONTINUOUS
 10
12.3716313659
 20
9.014305264
 11
12.3907905562
 21
9.0266967257
  0
LINE
  5
2E2
100
AcDbEntity
  8
0
100
AcDbLine
 62
9
  6
CONTINUOUS
 10
21.8322946802
 20
10.4356525729
 11
20.3122946802
 21
10.4356525729
  0
LINE
  5
2E3
100
AcDbEntity
  8
0
100
AcDbLine
 62
9
  6
CONTINUOUS
 10
20.2838259015
 20
10.5055330736
 11
21.860763459
 21
10.5055330736
  0
LWPOLYLINE
  5
2E4
100
AcDbEntity
  8
0
100
AcDbPolyline
 62
7
  6
CONTINUOUS
 90
3
 70
0
 10
12.2918920504
 20
9.6575479629
 10
12.2631669243
 20
9.6636575466
 10
12.2302595035
 20
9.6684482221
  0
LINE
  5
2E5
100
AcDbEntity
  8
0
100
AcDbLine
 62
7
  6
CONTINUOUS
 10
12.3166133537
 20
9.6492409703
 11
12.2918920504
 21
9.6575479629
  0
LWPOLYLINE
  5
2E6
100
AcDbEntity
  8
0
100
AcDbPolyline
 62
7
  6
CONTINUOUS
 90
5
 70
0
 10
12.3716897496
 20
9.622444295
 10
12.36070776
 20
9.6285639354
 10
12.3465942549
 20
9.6357376329
 10
12.3318518785
 20
9.6426182599
 10
12.3165282586
 20
9.6492767536
  0
LINE
  5
2E7
100
AcDbEntity
  8
0
100
AcDbLine
 62
7
  6
CONTINUOUS
 10
12.3716901038
 20
9.6224440857
 11
12.3716346209
 21
9.6224764478
  0
LINE
  5
2E8
100
AcDbEntity
  8
0
100
AcDbLine
 62
7
  6
CONTINUOUS
 10
12.3909225012
 20
9.6099910523
 11
12.3716346209
 21
9.6224764478
  0
LINE
  5
2E9
100
AcDbEntity
  8
0
100
AcDbLine
 62
7
  6
CONTINUOUS
 10
12.4091629836
 20
9.5944333009
 11
12.3908549918
 21
9.6100347524
  0
LINE
  5
2EA
100
AcDbEntity
  8
0
100
AcDbLine
 62
7
  6
CONTINUOUS
 10
12.4989901066
 20
9.5414090462
 11
12.485419045
 21
9.5532700914
  0
LWPOLYLINE
  5
2EB
100
AcDbEntity
  8
0
100
AcDbPolyline
 62
7
  6
CONTINUOUS
 90
3
 70
0
 10
11.6036332984
 20
9.4545890212
 10
11.6100631323
 20
9.4466223279
 10
11.6109279607
 20
9.4458918049
  0
LINE
  5
2EC
100
AcDbEntity
  8
0
100
AcDbLine
 62
7
  6
CONTINUOUS
 10
11.7496591417
 20
9.455220845
 11
11.7536331994
 21
9.450048386
  0
LINE
  5
2ED
100
AcDbEntity
  8
0
100
AcDbLine
 62
7
  6
CONTINUOUS
 10
11.7665166865
 20
8.9087931834
 11
11.7291211536
 21
8.9803324637
  0
LINE
  5
2EE
100
AcDbEntity
  8
0
100
AcDbLine
 62
7
  6
CONTINUOUS
 10
12.3762104908
 20
8.8571008463
 11
12.4379388867
 21
8.71493848
  0
LWPOLYLINE
  5
2EF
100
AcDbEntity
  8
0
100
AcDbPolyline
 62
7
  6
CONTINUOUS
 90
10
 70
0
 10
11.7847644221
 20
9.0317224875
 10
11.7864170281
 20
9.0273824546
 10
11.798162805
 20
9.0086711389
 10
11.8132764395
 20
8.9955306386
 10
11.8283185413
 20
8.9874215854
 10
11.8436028344
 20
8.9818206685
 10
11.8605862967
 20
8.9772966909
 10
11.8799498332
 20
8.9733854006
 10
11.902326475
 20
8.9698878325
 10
11.9279794883
 20
8.9667885213
  0
LINE
  5
2F0
100
AcDbEntity
  8
0
100
AcDbLine
 62
7
  6
CONTINUOUS
 10
11.756213826
 20
9.1710902045
 11
11.760035119
 21
9.1604846754
  0
LINE
  5
2F1
100
AcDbEntity
  8
0
100
AcDbLine
 62
7
  6
CONTINUOUS
 10
11.6002571316
 20
9.4642512063
 11
11.6036332984
 21
9.4545890212
  0
LINE
  5
2F2
100
AcDbEntity
  8
0
100
AcDbLine
 62
7
  6
CONTINUOUS
 10
11.7847644221
 20
9.0317224875
 11
11.7847669278
 21
9.0317151036
  0
LWPOLYLINE
  5
2F3
100
AcDbEntity
  8
0
100
AcDbPolyline
 62
7
  6
CONTINUOUS
 90
3
 70
0
 10
11.7470775925
 20
9.1604813438
 10
11.7664878138
 20
9.0888832622
 10
11.7847669593
 20
9.031715859
  0
LINE
  5
2F4
100
AcDbEntity
  8
0
100
AcDbLine
 62
7
  6
CONTINUOUS
 10
11.6007108678
 20
9.1604813447
 11
11.6112992622
 21
9.1197036523
  0
LINE
  5
2F5
100
AcDbEntity
  8
0
100
AcDbLine
 62
7
  6
CONTINUOUS
 10
12.4049540644
 20
8.5473723912
 11
12.4354048069
 21
8.3929742603
  0
LWPOLYLINE
  5
2F6
100
AcDbEntity
  8
0
100
AcDbPolyline
 62
7
  6
CONTINUOUS
 90
3
 70
0
 10
11.7389610047
 20
9.2809493359
 10
11.745355678
 20
9.2377994486
 10
11.7562168341
 20
9.1710991277
  0
LINE
  5
2F7
100
AcDbEntity
  8
0
100
AcDbLine
 62
7
  6
CONTINUOUS
 10
12.4222946802
 20
9.0081277163
 11
12.4222946802
 21
9.0596657922
  0
LINE
  5
2F8
100
AcDbEntity
  8
0
100
AcDbLine
 62
7
  6
CONTINUOUS
 10
12.4372946802
 20
8.273391804
 11
12.4372946802
 21
8.3736247631
  0
LINE
  5
2F9
100
AcDbEntity
  8
0
100
AcDbLine
 62
7
  6
CONTINUOUS
 10
12.5491369958
 20
9.3017787781
 11
12.5491375743
 21
9.3349963802
  0
LINE
  5
2FA
100
AcDbEntity
  8
0
100
AcDbLine
 62
7
  6
CONTINUOUS
 10
12.546648706
 20
9.2799574436
 11
12.549193088
 21
9.3026193044
  0
LWPOLYLINE
  5
2FB
100
AcDbEntity
  8
0
100
AcDbPolyline
 62
7
  6
CONTINUOUS
 90
4
 70
0
 10
12.4782048457
 20
9.279954878
 10
12.4806935845
 20
9.3017787755
 10
12.4807508321
 20
9.3341465322
 10
12.4782048445
 20
9.3568287375
  0
LINE
  5
2FC
100
AcDbEntity
  8
0
100
AcDbLine
 62
7
  6
CONTINUOUS
 10
12.1628612769
 20
6.5219589004
 11
12.1647997107
 21
6.5342874262
  0
LINE
  5
2FD
100
AcDbEntity
  8
0
100
AcDbLine
 62
7
  6
CONTINUOUS
 10
12.2894006788
 20
6.5341349783
 11
12.2874695923
 21
6.5218531813
  0
LINE
  5
2FE
100
AcDbEntity
  8
0
100
AcDbLine
 62
9
  6
CONTINUOUS
 10
12.3565786414
 20
6.598703851
 11
12.3585129013
 21
6.6110058306
  0
LINE
  5
2FF
100
AcDbEntity
  8
0
100
AcDbLine
 62
7
  6
CONTINUOUS
 10
12.3869359264
 20
6.6074924813
 11
12.3890886669
 21
6.6211839202
  0
LINE
  5
300
100
AcDbEntity
  8
0
100
AcDbLine
 62
7
  6
CONTINUOUS
 10
12.5326668127
 20
9.2049008725
 11
12.5466482955
 21
9.2799548789
  0
LINE
  5
301
100
AcDbEntity
  8
0
100
AcDbLine
 62
7
  6
CONTINUOUS
 10
12.5119206662
 20
9.1197034628
 11
12.5328472141
 21
9.2057500267
  0
LINE
  5
302
100
AcDbEntity
  8
0
100
AcDbLine
 62
7
  6
CONTINUOUS
 10
12.3484819371
 20
6.5219443215
 11
12.3516765327
 21
6.534264585
  0
LINE
  5
303
100
AcDbEntity
  8
0
100
AcDbLine
 62
7
  6
CONTINUOUS
 10
12.4645205944
 20
6.5341318452
 11
12.4613361632
 21
6.5218507817
  0
LINE
  5
304
100
AcDbEntity
  8
0
100
AcDbLine
 62
9
  6
CONTINUOUS
 10
12.5164868154
 20
6.5986274659
 11
12.5196753432
 21
6.6109243283
  0
LINE
  5
305
100
AcDbEntity
  8
0
100
AcDbLine
 62
7
  6
CONTINUOUS
 10
12.5411288091
 20
6.6074931926
 11
12.5446791991
 21
6.6211855449
  0
LINE
  5
306
100
AcDbEntity
  8
0
100
AcDbLine
 62
7
  6
CONTINUOUS
 10
12.4071886391
 20
8.578803115
 11
12.4395346783
 21
8.67122037
  0
LINE
  5
307
100
AcDbEntity
  8
0
100
AcDbLine
 62
7
  6
CONTINUOUS
 10
20.0069170761
 20
10.801391804
 11
20.2049922669
 21
10.801391804
  0
LINE
  5
308
100
AcDbEntity
  8
0
100
AcDbLine
 62
7
  6
CONTINUOUS
 10
20.4329256367
 20
10.801391804
 11
20.9111214488
 21
10.801391804
  0
LINE
  5
309
100
AcDbEntity
  8
0
100
AcDbLine
 62
7
  6
CONTINUOUS
 10
21.2334679117
 20
10.801391804
 11
21.7116637237
 21
10.801391804
  0
LINE
  5
30A
100
AcDbEntity
  8
0
100
AcDbLine
 62
7
  6
CONTINUOUS
 10
21.9395970936
 20
10.801391804
 11
22.1376722844
 21
10.801391804
  0
LINE
  5
30B
100
AcDbEntity
  8
0
100
AcDbLine
 62
9
  6
CONTINUOUS
 10
22.1376722844
 20
11.411391804
 11
21.9395970936
 21
11.411391804
  0
LINE
  5
30C
100
AcDbEntity
  8
0
100
AcDbLine
 62
9
  6
CONTINUOUS
 10
21.7116637237
 20
11.411391804
 11
21.2334679117
 21
11.411391804
  0
LINE
  5
30D
100
AcDbEntity
  8
0
100
AcDbLine
 62
9
  6
CONTINUOUS
 10
20.9111214488
 20
11.411391804
 11
20.4329256367
 21
11.411391804
  0
LINE
  5
30E
100
AcDbEntity
  8
0
100
AcDbLine
 62
9
  6
CONTINUOUS
 10
20.2049922669
 20
11.411391804
 11
20.0069170761
 21
11.411391804
  0
LINE
  5
30F
100
AcDbEntity
  8
0
100
AcDbLine
 62
7
  6
CONTINUOUS
 10
12.4248195248
 20
9.5737775313
 11
12.4089610797
 21
9.5946391395
  0
LINE
  5
310
100
AcDbEntity
  8
0
100
AcDbLine
 62
7
  6
CONTINUOUS
 10
12.5086509933
 20
9.5261826406
 11
12.4989901066
 21
9.5414090462
  0
LINE
  5
311
100
AcDbEntity
  8
0
100
AcDbLine
 62
7
  6
CONTINUOUS
 10
12.4316765552
 20
9.5577758819
 11
12.424556161
 21
9.5742453791
  0
LINE
  5
312
100
AcDbEntity
  8
0
100
AcDbLine
 62
7
  6
CONTINUOUS
 10
12.5119214336
 20
9.5170805811
 11
12.5086509933
 21
9.5261826406
  0
LWPOLYLINE
  5
313
100
AcDbEntity
  8
0
100
AcDbPolyline
 62
7
  6
CONTINUOUS
 90
5
 70
0
 10
12.5119213378
 20
9.5170809297
 10
12.508888318
 20
9.5256470816
 10
12.4992754956
 20
9.5410739817
 10
12.4856651708
 20
9.5531098715
 10
12.4690361556
 20
9.5608057745
  0
LINE
  5
314
100
AcDbEntity
  8
0
100
AcDbLine
 62
7
  6
CONTINUOUS
 10
12.4316786498
 20
9.5577690473
 11
12.4316883514
 21
9.5577373848
  0
LINE
  5
315
100
AcDbEntity
  8
0
100
AcDbLine
 62
7
  6
CONTINUOUS
 10
12.5328470362
 20
9.4310344196
 11
12.5119205153
 21
9.5170806944
  0
LINE
  5
316
100
AcDbEntity
  8
0
100
AcDbLine
 62
7
  6
CONTINUOUS
 10
12.5466486954
 20
9.356826231
 11
12.5326671969
 21
9.4318809294
  0
LWPOLYLINE
  5
317
100
AcDbEntity
  8
0
100
AcDbPolyline
 62
7
  6
CONTINUOUS
 90
4
 70
0
 10
12.4782048442
 20
9.3568287397
 10
12.4644033825
 20
9.431034376
 10
12.4441616812
 20
9.5145781159
 10
12.4316883514
 20
9.5577373848
  0
LINE
  5
318
100
AcDbEntity
  8
0
100
AcDbLine
 62
7
  6
CONTINUOUS
 10
12.5491942426
 20
9.3341465289
 11
12.5466482942
 21
9.3568287374
  0
LINE
  5
319
100
AcDbEntity
  8
0
100
AcDbLine
 62
7
  6
CONTINUOUS
 10
13.2472946802
 20
6.6367402901
 11
13.2472946802
 21
6.623391804
  0
LINE
  5
31A
100
AcDbEntity
  8
0
100
AcDbLine
 62
7
  6
CONTINUOUS
 10
12.8250648023
 20
6.5920371817
 11
12.8263368211
 21
6.599060992
  0
LINE
  5
31B
100
AcDbEntity
  8
0
100
AcDbLine
 62
7
  6
CONTINUOUS
 10
12.832940514
 20
6.6114075237
 11
12.8314571897
 21
6.6039886469
  0
LINE
  5
31C
100
AcDbEntity
  8
0
100
AcDbLine
 62
7
  6
CONTINUOUS
 10
12.8080793408
 20
6.6109243283
 11
12.8089089483
 21
6.6134150873
  0
LINE
  5
31D
100
AcDbEntity
  8
0
100
AcDbLine
 62
7
  6
CONTINUOUS
 10
12.7003689893
 20
6.5975245168
 11
12.7008726067
 21
6.5990319842
  0
LINE
  5
31E
100
AcDbEntity
  8
0
100
AcDbLine
 62
7
  6
CONTINUOUS
 10
12.7064215431
 20
6.6113735953
 11
12.7058649852
 21
6.6097483789
  0
LINE
  5
31F
100
AcDbEntity
  8
0
100
AcDbLine
 62
7
  6
CONTINUOUS
 10
12.5018144121
 20
6.5219589004
 11
12.5062190399
 21
6.5342874262
  0
LINE
  5
320
100
AcDbEntity
  8
0
100
AcDbLine
 62
7
  6
CONTINUOUS
 10
12.6234467158
 20
6.5341349783
 11
12.6190587828
 21
6.5218531813
  0
LINE
  5
321
100
AcDbEntity
  8
0
100
AcDbLine
 62
9
  6
CONTINUOUS
 10
12.6593867067
 20
6.598703851
 11
12.6637818503
 21
6.6110058306
  0
LINE
  5
322
100
AcDbEntity
  8
0
100
AcDbLine
 62
7
  6
CONTINUOUS
 10
12.6770853398
 20
6.6074924813
 11
12.6819769097
 21
6.6211839202
  0
LINE
  5
323
100
AcDbEntity
  8
0
100
AcDbLine
 62
7
  6
CONTINUOUS
 10
12.7009015356
 20
6.5990963318
 11
12.705720111
 21
6.6098135161
  0
LINE
  5
324
100
AcDbEntity
  8
0
100
AcDbLine
 62
9
  6
CONTINUOUS
 10
12.7058649852
 20
6.6097483789
 11
12.7003689893
 21
6.5975245168
  0
LINE
  5
325
100
AcDbEntity
  8
0
100
AcDbLine
 62
7
  6
CONTINUOUS
 10
12.6753899617
 20
6.5219443215
 11
12.6809293009
 21
6.534264585
  0
LINE
  5
326
100
AcDbEntity
  8
0
100
AcDbLine
 62
7
  6
CONTINUOUS
 10
12.8137114405
 20
6.6074931925
 11
12.8198677023
 21
6.6211855448
  0
LINE
  5
327
100
AcDbEntity
  8
0
100
AcDbLine
 62
7
  6
CONTINUOUS
 10
12.7832435604
 20
6.5341318452
 11
12.7777218461
 21
6.5218507817
  0
LINE
  5
328
100
AcDbEntity
  8
0
100
AcDbLine
 62
7
  6
CONTINUOUS
 10
12.8263709233
 20
6.5991247535
 11
12.8329698971
 21
6.6114624609
  0
LINE
  5
329
100
AcDbEntity
  8
0
100
AcDbLine
 62
9
  6
CONTINUOUS
 10
12.8314571897
 20
6.6039886469
 11
12.8250648023
 21
6.5920371817
  0
LINE
  5
32A
100
AcDbEntity
  8
0
100
AcDbLine
 62
7
  6
CONTINUOUS
 10
12.8137792428
 20
6.5219589004
 11
12.8203733057
 21
6.5342874262
  0
LINE
  5
32B
100
AcDbEntity
  8
0
100
AcDbLine
 62
7
  6
CONTINUOUS
 10
12.9318322722
 20
6.6123511844
 11
12.9365565757
 21
6.6211839202
  0
LINE
  5
32C
100
AcDbEntity
  8
0
100
AcDbLine
 62
7
  6
CONTINUOUS
 10
12.9228618434
 20
6.5341349783
 11
12.916292774
 21
6.5218531813
  0
LINE
  5
32D
100
AcDbEntity
  8
0
100
AcDbLine
 62
7
  6
CONTINUOUS
 10
12.9592438079
 20
6.6040196189
 11
12.9671065565
 21
6.6168740253
  0
LINE
  5
32E
100
AcDbEntity
  8
0
100
AcDbLine
 62
9
  6
CONTINUOUS
 10
12.9679315911
 20
6.6097483789
 11
12.960454532
 21
6.5975245168
  0
LINE
  5
32F
100
AcDbEntity
  8
0
100
AcDbLine
 62
7
  6
CONTINUOUS
 10
12.9644032918
 20
6.5219443215
 11
12.9719393174
 21
6.534264585
  0
LINE
  5
330
100
AcDbEntity
  8
0
100
AcDbLine
 62
7
  6
CONTINUOUS
 10
21.9997796386
 20
11.561391804
 11
20.1448097219
 21
11.561391804
  0
LINE
  5
331
100
AcDbEntity
  8
0
100
AcDbLine
 62
9
  6
CONTINUOUS
 10
20.1631582472
 20
11.621391804
 11
21.9814311133
 21
11.621391804
  0
LINE
  5
332
100
AcDbEntity
  8
0
100
AcDbLine
 62
7
  6
CONTINUOUS
 10
13.0572949937
 20
6.5341318452
 11
13.0497829459
 21
6.5218507817
  0
LINE
  5
333
100
AcDbEntity
  8
0
100
AcDbLine
 62
7
  6
CONTINUOUS
 10
13.0606426886
 20
6.6044183337
 11
13.069411373
 21
6.6173353813
  0
LINE
  5
334
100
AcDbEntity
  8
0
100
AcDbLine
 62
9
  6
CONTINUOUS
 10
13.0735851164
 20
6.6039886469
 11
13.0654719137
 21
6.5920371817
  0
LINE
  5
335
100
AcDbEntity
  8
0
100
AcDbLine
 62
7
  6
CONTINUOUS
 10
13.0791538715
 20
6.5219589004
 11
13.0875230402
 21
6.5342874262
  0
LINE
  5
336
100
AcDbEntity
  8
0
100
AcDbLine
 62
7
  6
CONTINUOUS
 10
13.1688327081
 20
6.5341349783
 11
13.1604952609
 21
6.5218531813
  0
LINE
  5
337
100
AcDbEntity
  8
0
100
AcDbLine
 62
7
  6
CONTINUOUS
 10
13.1553074485
 20
6.6063056466
 11
13.1650852384
 21
6.6196031789
  0
LINE
  5
338
100
AcDbEntity
  8
0
100
AcDbLine
 62
9
  6
CONTINUOUS
 10
13.1737220359
 20
6.6097483789
 11
13.1647337249
 21
6.5975245168
  0
LINE
  5
339
100
AcDbEntity
  8
0
100
AcDbLine
 62
7
  6
CONTINUOUS
 10
13.1973621568
 20
6.5219443215
 11
13.2064213527
 21
6.534264585
  0
LINE
  5
33A
100
AcDbEntity
  8
0
100
AcDbLine
 62
7
  6
CONTINUOUS
 10
13.2694552347
 20
6.5341318452
 11
13.2604248629
 21
6.5218507817
  0
LINE
  5
33B
100
AcDbEntity
  8
0
100
AcDbLine
 62
7
  6
CONTINUOUS
 10
13.2289596589
 20
6.6124963456
 11
13.2348410862
 21
6.6200349447
  0
LINE
  5
33C
100
AcDbEntity
  8
0
100
AcDbLine
 62
9
  6
CONTINUOUS
 10
13.2527982825
 20
6.6039886469
 11
13.2460155719
 21
6.5952948158
  0
LINE
  5
33D
100
AcDbEntity
  8
0
100
AcDbLine
 62
7
  6
CONTINUOUS
 10
13.2812638342
 20
6.5219589004
 11
13.2908822431
 21
6.5342874262
  0
LINE
  5
33E
100
AcDbEntity
  8
0
100
AcDbLine
 62
7
  6
CONTINUOUS
 10
13.3459040556
 20
6.5341349783
 11
13.3363221032
 21
6.5218531813
  0
LINE
  5
33F
100
AcDbEntity
  8
0
100
AcDbLine
 62
7
  6
CONTINUOUS
 10
13.2842553989
 20
6.6154177407
 11
13.2886511422
 21
6.6208263036
  0
LINE
  5
340
100
AcDbEntity
  8
0
100
AcDbLine
 62
9
  6
CONTINUOUS
 10
13.3103057493
 20
6.6097483789
 11
13.3039333578
 21
6.6019077301
  0
LINE
  5
341
100
AcDbEntity
  8
0
100
AcDbLine
 62
7
  6
CONTINUOUS
 10
13.3596288946
 20
6.5219443215
 11
13.3696420382
 21
6.534264585
  0
LINE
  5
342
100
AcDbEntity
  8
0
100
AcDbLine
 62
7
  6
CONTINUOUS
 10
13.4063934751
 20
6.5341318452
 11
13.3964121909
 21
6.5218507817
  0
LINE
  5
343
100
AcDbEntity
  8
0
100
AcDbLine
 62
7
  6
CONTINUOUS
 10
13.3182021281
 20
6.6190156619
 11
13.3199024235
 21
6.6210581004
  0
LINE
  5
344
100
AcDbEntity
  8
0
100
AcDbLine
 62
9
  6
CONTINUOUS
 10
13.3578360657
 20
6.6039886469
 11
13.3548268167
 21
6.6003738599
  0
LINE
  5
345
100
AcDbEntity
  8
0
100
AcDbLine
 62
7
  6
CONTINUOUS
 10
13.4074098186
 20
6.5219589004
 11
13.4176731078
 21
6.5342874262
  0
LINE
  5
346
100
AcDbEntity
  8
0
100
AcDbLine
 62
7
  6
CONTINUOUS
 10
13.4429498421
 20
6.5341349783
 11
13.4327254538
 21
6.5218531813
  0
LINE
  5
347
100
AcDbEntity
  8
0
100
AcDbLine
 62
7
  6
CONTINUOUS
 10
13.4496656088
 20
6.5219589004
 11
13.4599288979
 21
6.5342874262
  0
LINE
  5
348
100
AcDbEntity
  8
0
100
AcDbLine
 62
9
  6
CONTINUOUS
 10
13.369100674
 20
6.6097483789
 11
13.3676927301
 21
6.6080704566
  0
LINE
  5
349
100
AcDbEntity
  8
0
100
AcDbLine
 62
7
  6
CONTINUOUS
 10
13.4410076892
 20
6.5219443215
 11
13.4513456178
 21
6.534264585
  0
LINE
  5
34A
100
AcDbEntity
  8
0
100
AcDbLine
 62
7
  6
CONTINUOUS
 10
13.4595053819
 20
6.5341318452
 11
13.449200346
 21
6.5218507817
  0
LINE
  5
34B
100
AcDbEntity
  8
0
100
AcDbLine
 62
7
  6
CONTINUOUS
 10
13.04745511
 20
6.6204770975
 11
13.0480833883
 21
6.6211854607
  0
LINE
  5
34C
100
AcDbEntity
  8
0
100
AcDbLine
 62
7
  6
CONTINUOUS
 10
21.860763459
 20
10.5055330736
 11
22.0622946802
 21
10.7118248749
  0
LINE
  5
34D
100
AcDbEntity
  8
0
100
AcDbLine
 62
7
  6
CONTINUOUS
 10
20.2838259015
 20
10.5055330736
 11
20.0822946802
 21
10.7118248749
  0
LINE
  5
34E
100
AcDbEntity
  8
0
100
AcDbLine
 62
7
  6
CONTINUOUS
 10
20.0069170761
 20
10.801391804
 11
20.0069170761
 21
11.411391804
  0
LINE
  5
34F
100
AcDbEntity
  8
0
100
AcDbLine
 62
7
  6
CONTINUOUS
 10
20.0597946802
 20
6.5823592717
 11
20.0597946802
 21
6.333391804
  0
LINE
  5
350
100
AcDbEntity
  8
0
100
AcDbLine
 62
7
  6
CONTINUOUS
 10
20.4337665428
 20
10.785466842
 11
20.4329256367
 21
10.801391804
  0
LINE
  5
351
100
AcDbEntity
  8
0
100
AcDbLine
 62
7
  6
CONTINUOUS
 10
20.2049922669
 20
10.801391804
 11
20.2049922669
 21
11.411391804
  0
LINE
  5
352
100
AcDbEntity
  8
0
100
AcDbLine
 62
7
  6
CONTINUOUS
 10
20.3122946802
 20
10.4356525729
 11
20.3122946802
 21
9.8762249518
  0
LINE
  5
353
100
AcDbEntity
  8
0
100
AcDbLine
 62
7
  6
CONTINUOUS
 10
20.4329256367
 20
10.801391804
 11
20.4329256367
 21
11.411391804
  0
LINE
  5
354
100
AcDbEntity
  8
0
100
AcDbLine
 62
7
  6
CONTINUOUS
 10
20.9111214488
 20
10.801391804
 11
20.9111214488
 21
11.411391804
  0
LINE
  5
355
100
AcDbEntity
  8
0
100
AcDbLine
 62
7
  6
CONTINUOUS
 10
20.4967057474
 20
9.801391804
 11
20.4154240768
 21
7.6367325769
  0
LINE
  5
356
100
AcDbEntity
  8
0
100
AcDbLine
 62
7
  6
CONTINUOUS
 10
21.647883613
 20
9.801391804
 11
21.7291652836
 21
7.6367325769
  0
LINE
  5
357
100
AcDbEntity
  8
0
100
AcDbLine
 62
7
  6
CONTINUOUS
 10
21.2334679117
 20
10.801391804
 11
21.2334679117
 21
11.411391804
  0
LINE
  5
358
100
AcDbEntity
  8
0
100
AcDbLine
 62
7
  6
CONTINUOUS
 10
21.7116637237
 20
10.801391804
 11
21.7116637237
 21
11.411391804
  0
LINE
  5
359
100
AcDbEntity
  8
0
100
AcDbLine
 62
7
  6
CONTINUOUS
 10
21.8322946802
 20
10.4356525729
 11
21.8322946802
 21
9.8762249518
  0
LINE
  5
35A
100
AcDbEntity
  8
0
100
AcDbLine
 62
7
  6
CONTINUOUS
 10
21.9395970936
 20
10.801391804
 11
21.9395970936
 21
11.411391804
  0
LINE
  5
35B
100
AcDbEntity
  8
0
100
AcDbLine
 62
7
  6
CONTINUOUS
 10
22.0847946802
 20
6.5823592717
 11
22.0847946802
 21
6.333391804
  0
LINE
  5
35C
100
AcDbEntity
  8
0
100
AcDbLine
 62
7
  6
CONTINUOUS
 10
22.1376722844
 20
10.801391804
 11
22.1376722844
 21
11.411391804
  0
LINE
  5
35D
100
AcDbEntity
  8
0
100
AcDbLine
 62
7
  6
CONTINUOUS
 10
21.7116637237
 20
10.801391804
 11
21.7108228177
 21
10.7854666007
  0
ARC
  5
35E
100
AcDbEntity
  8
0
100
AcDbCircle
 62
7
  6
CONTINUOUS
 10
0.1635150865
 20
6.1504967643
 40
0.9
100
AcDbArc
 50
130.6439171763
 51
168.2748731243
  0
ARC
  5
35F
100
AcDbEntity
  8
0
100
AcDbCircle
 62
7
  6
CONTINUOUS
 10
-0.0189257261
 20
6.1504967643
 40
0.9
100
AcDbArc
 50
11.7251268757
 51
49.3560828237
  0
ARC
  5
360
100
AcDbEntity
  8
0
100
AcDbCircle
 62
7
  6
CONTINUOUS
 10
0.0097946802
 20
6.913391804
 40
0.4
100
AcDbArc
 50
155.7790568908
 51
180.0
  0
ARC
  5
361
100
AcDbEntity
  8
0
100
AcDbCircle
 62
7
  6
CONTINUOUS
 10
0.1347946802
 20
6.913391804
 40
0.4
100
AcDbArc
 50
0.0
 51
24.2209431092
  0
ARC
  5
362
100
AcDbEntity
  8
0
100
AcDbCircle
 62
7
  6
CONTINUOUS
 10
4.1522946802
 20
7.1063313267
 40
0.375
100
AcDbArc
 50
322.3118365415
 51
48.0871091166
  0
ARC
  5
363
100
AcDbEntity
  8
0
100
AcDbCircle
 62
7
  6
CONTINUOUS
 10
3.9922946802
 20
7.1063313267
 40
0.375
100
AcDbArc
 50
131.9128908834
 51
217.6881634585
  0
ARC
  5
364
100
AcDbEntity
  8
0
100
AcDbCircle
 62
7
  6
CONTINUOUS
 10
3.4101134476
 20
6.6565626212
 40
0.3606812327
100
AcDbArc
 50
348.2952556035
 51
37.6881634585
  0
ARC
  5
365
100
AcDbEntity
  8
0
100
AcDbCircle
 62
7
  6
CONTINUOUS
 10
4.7344759129
 20
6.6565626212
 40
0.3606812327
100
AcDbArc
 50
142.3118365415
 51
191.7047443965
  0
ARC
  5
366
100
AcDbEntity
  8
0
100
AcDbCircle
 62
7
  6
CONTINUOUS
 10
4.5518718926
 20
6.271391804
 40
0.187
100
AcDbArc
 50
19.3629299219
 51
90.0
  0
ARC
  5
367
100
AcDbEntity
  8
0
100
AcDbCircle
 62
7
  6
CONTINUOUS
 10
3.5927174679
 20
6.271391804
 40
0.187
100
AcDbArc
 50
90.0
 51
160.6370700781
  0
ARC
  5
368
100
AcDbEntity
  8
0
100
AcDbCircle
 62
7
  6
CONTINUOUS
 10
3.7799674679
 20
6.396391804
 40
0.187
100
AcDbArc
 50
90.0
 51
160.6370700781
  0
ARC
  5
369
100
AcDbEntity
  8
0
100
AcDbCircle
 62
7
  6
CONTINUOUS
 10
4.3646218926
 20
6.396391804
 40
0.187
100
AcDbArc
 50
19.3629299219
 51
90.0
  0
ARC
  5
36A
100
AcDbEntity
  8
0
100
AcDbCircle
 62
7
  6
CONTINUOUS
 10
4.3092859076
 20
7.584391804
 40
0.057
100
AcDbArc
 50
181.0052406854
 51
270.0
  0
ARC
  5
36B
100
AcDbEntity
  8
0
100
AcDbCircle
 62
7
  6
CONTINUOUS
 10
3.8353034528
 20
7.584391804
 40
0.057
100
AcDbArc
 50
270.0
 51
358.9947593146
  0
ARC
  5
36C
100
AcDbEntity
  8
0
100
AcDbCircle
 62
7
  6
CONTINUOUS
 10
4.3557946802
 20
7.456391804
 40
0.047
100
AcDbArc
 50
0.0
 51
90.0
  0
ARC
  5
36D
100
AcDbEntity
  8
0
100
AcDbCircle
 62
7
  6
CONTINUOUS
 10
3.7887946802
 20
7.456391804
 40
0.047
100
AcDbArc
 50
90.0
 51
180.0
  0
ARC
  5
36E
100
AcDbEntity
  8
0
100
AcDbCircle
 62
7
  6
CONTINUOUS
 10
-0.3458737046
 20
7.073391804
 40
0.01
100
AcDbArc
 50
90.0
 51
155.7790568908
  0
ARC
  5
36F
100
AcDbEntity
  8
0
100
AcDbCircle
 62
7
  6
CONTINUOUS
 10
0.4904630651
 20
7.073391804
 40
0.01
100
AcDbArc
 50
24.2209431092
 51
90.0
  0
ARC
  5
370
100
AcDbEntity
  8
0
100
AcDbCircle
 62
9
  6
CONTINUOUS
 10
6.8294971818
 20
8.3998311882
 40
4.9888713253
100
AcDbArc
 50
8.769988075
 51
8.8958812945
  0
ARC
  5
371
100
AcDbEntity
  8
0
100
AcDbCircle
 62
9
  6
CONTINUOUS
 10
7.366699284
 20
10.1531649246
 40
4.4451759434
100
AcDbArc
 50
351.1003377024
 51
351.2416356474
  0
ARC
  5
372
100
AcDbEntity
  8
0
100
AcDbCircle
 62
7
  6
CONTINUOUS
 10
10.8411809332
 20
6.4408881125
 40
0.1817848746
100
AcDbArc
 50
110.7503355004
 51
114.785971184
  0
ARC
  5
373
100
AcDbEntity
  8
0
100
AcDbCircle
 62
7
  6
CONTINUOUS
 10
10.8382333334
 20
6.438716246
 40
0.1807720176
100
AcDbArc
 50
145.8316999014
 51
148.0919822571
  0
ARC
  5
374
100
AcDbEntity
  8
0
100
AcDbCircle
 62
7
  6
CONTINUOUS
 10
10.8396622998
 20
6.4429238192
 40
0.1792694616
100
AcDbArc
 50
123.589062373
 51
125.2241233911
  0
ARC
  5
375
100
AcDbEntity
  8
0
100
AcDbCircle
 62
7
  6
CONTINUOUS
 10
10.8379397647
 20
6.4452309134
 40
0.1763912906
100
AcDbArc
 50
125.1992897787
 51
136.6402166296
  0
ARC
  5
376
100
AcDbEntity
  8
0
100
AcDbCircle
 62
7
  6
CONTINUOUS
 10
10.8364737907
 20
6.4467150974
 40
0.1743064523
100
AcDbArc
 50
136.6640746778
 51
137.5993310529
  0
ARC
  5
377
100
AcDbEntity
  8
0
100
AcDbCircle
 62
7
  6
CONTINUOUS
 10
10.8352611368
 20
6.4929039978
 40
0.1288557716
100
AcDbArc
 50
97.3506030938
 51
97.5488450084
  0
ARC
  5
378
100
AcDbEntity
  8
0
100
AcDbCircle
 62
7
  6
CONTINUOUS
 10
10.6628647534
 20
6.5255309651
 40
0.03
100
AcDbArc
 50
295.2253339085
 51
333.8527188578
  0
ARC
  5
379
100
AcDbEntity
  8
0
100
AcDbCircle
 62
7
  6
CONTINUOUS
 10
10.8370442913
 20
6.6263790592
 40
0.018
100
AcDbArc
 50
342.7270010679
 51
350.4470729292
  0
ARC
  5
37A
100
AcDbEntity
  8
0
100
AcDbCircle
 62
7
  6
CONTINUOUS
 10
10.9074272866
 20
6.3530488958
 40
0.2698734543
100
AcDbArc
 50
96.5069608617
 51
99.8203555489
  0
ARC
  5
37B
100
AcDbEntity
  8
0
100
AcDbCircle
 62
7
  6
CONTINUOUS
 10
10.9212013545
 20
6.378087922
 40
0.2455354256
100
AcDbArc
 50
109.3536756915
 51
110.5898354173
  0
ARC
  5
37C
100
AcDbEntity
  8
0
100
AcDbCircle
 62
7
  6
CONTINUOUS
 10
10.9211746802
 20
6.3781586028
 40
0.245459879
100
AcDbArc
 50
110.5898088693
 51
111.5205423861
  0
ARC
  5
37D
100
AcDbEntity
  8
0
100
AcDbCircle
 62
7
  6
CONTINUOUS
 10
10.9050389251
 20
6.3781241273
 40
0.2449521492
100
AcDbArc
 50
108.0616897558
 51
118.9763108561
  0
ARC
  5
37E
100
AcDbEntity
  8
0
100
AcDbCircle
 62
7
  6
CONTINUOUS
 10
10.9021955983
 20
6.382439027
 40
0.2400216936
100
AcDbArc
 50
99.7863960604
 51
103.7546821207
  0
ARC
  5
37F
100
AcDbEntity
  8
0
100
AcDbCircle
 62
7
  6
CONTINUOUS
 10
10.911590035
 20
6.3921400518
 40
0.229365746
100
AcDbArc
 50
98.4874212252
 51
98.7451517
  0
ARC
  5
380
100
AcDbEntity
  8
0
100
AcDbCircle
 62
7
  6
CONTINUOUS
 10
10.8667057972
 20
6.4012594705
 40
0.2219802546
100
AcDbArc
 50
109.1749076609
 51
112.8745948102
  0
ARC
  5
381
100
AcDbEntity
  8
0
100
AcDbCircle
 62
7
  6
CONTINUOUS
 10
10.9103108679
 20
6.4000843661
 40
0.2213193122
100
AcDbArc
 50
98.7305391912
 51
103.1010406053
  0
ARC
  5
382
100
AcDbEntity
  8
0
100
AcDbCircle
 62
7
  6
CONTINUOUS
 10
10.8661093312
 20
6.4026942266
 40
0.2204264753
100
AcDbArc
 50
112.8767140831
 51
113.3577296369
  0
ARC
  5
383
100
AcDbEntity
  8
0
100
AcDbCircle
 62
7
  6
CONTINUOUS
 10
10.8968148571
 20
6.4039069974
 40
0.2178900487
100
AcDbArc
 50
103.7225755431
 51
108.1076886695
  0
ARC
  5
384
100
AcDbEntity
  8
0
100
AcDbCircle
 62
7
  6
CONTINUOUS
 10
10.8662995648
 20
6.4065335527
 40
0.2152168867
100
AcDbArc
 50
100.6353463271
 51
101.0951973583
  0
ARC
  5
385
100
AcDbEntity
  8
0
100
AcDbCircle
 62
7
  6
CONTINUOUS
 10
10.8655319664
 20
6.4110811081
 40
0.2106058015
100
AcDbArc
 50
97.232897538
 51
100.6584364931
  0
ARC
  5
386
100
AcDbEntity
  8
0
100
AcDbCircle
 62
7
  6
CONTINUOUS
 10
10.8650923864
 20
6.4124353397
 40
0.2091931077
100
AcDbArc
 50
101.0818105735
 51
106.5169748021
  0
ARC
  5
387
100
AcDbEntity
  8
0
100
AcDbCircle
 62
7
  6
CONTINUOUS
 10
10.8801457207
 20
6.4096927469
 40
0.2044092097
100
AcDbArc
 50
139.5287745529
 51
142.4979547013
  0
ARC
  5
388
100
AcDbEntity
  8
0
100
AcDbCircle
 62
7
  6
CONTINUOUS
 10
10.8625399782
 20
6.421674578
 40
0.1996095542
100
AcDbArc
 50
106.5685343607
 51
108.3409317142
  0
ARC
  5
389
100
AcDbEntity
  8
0
100
AcDbCircle
 62
7
  6
CONTINUOUS
 10
10.8486163721
 20
6.4255213616
 40
0.1977970018
100
AcDbArc
 50
111.3467718106
 51
113.8700546956
  0
ARC
  5
38A
100
AcDbEntity
  8
0
100
AcDbCircle
 62
7
  6
CONTINUOUS
 10
10.8483084277
 20
6.4262283312
 40
0.1970258886
100
AcDbArc
 50
113.871357604
 51
114.8814062114
  0
ARC
  5
38B
100
AcDbEntity
  8
0
100
AcDbCircle
 62
7
  6
CONTINUOUS
 10
10.8473706022
 20
6.4281822391
 40
0.1948587613
100
AcDbArc
 50
114.8729711427
 51
123.300125842
  0
ARC
  5
38C
100
AcDbEntity
  8
0
100
AcDbCircle
 62
7
  6
CONTINUOUS
 10
10.86343293
 20
6.427632667
 40
0.1939216757
100
AcDbArc
 50
95.9068075146
 51
97.2333569837
  0
ARC
  5
38D
100
AcDbEntity
  8
0
100
AcDbCircle
 62
7
  6
CONTINUOUS
 10
10.860556195
 20
6.4275066197
 40
0.1934495425
100
AcDbArc
 50
108.3267635127
 51
114.1762844438
  0
ARC
  5
38E
100
AcDbEntity
  8
0
100
AcDbCircle
 62
7
  6
CONTINUOUS
 10
10.8453498296
 20
6.4314396742
 40
0.1910267489
100
AcDbArc
 50
123.3299508592
 51
124.6074046175
  0
ARC
  5
38F
100
AcDbEntity
  8
0
100
AcDbCircle
 62
7
  6
CONTINUOUS
 10
10.8816746981
 20
6.4104637585
 40
0.189831214
100
AcDbArc
 50
140.461764076
 51
141.0187419921
  0
ARC
  5
390
100
AcDbEntity
  8
0
100
AcDbCircle
 62
7
  6
CONTINUOUS
 10
10.8461730308
 20
6.4279179589
 40
0.1878615235
100
AcDbArc
 50
144.5297765435
 51
145.5710436945
  0
ARC
  5
391
100
AcDbEntity
  8
0
100
AcDbCircle
 62
7
  6
CONTINUOUS
 10
10.8798182959
 20
6.411953406
 40
0.18745105
100
AcDbArc
 50
141.0157405512
 51
144.1061649357
  0
ARC
  5
392
100
AcDbEntity
  8
0
100
AcDbCircle
 62
7
  6
CONTINUOUS
 10
10.8441929273
 20
6.4365135884
 40
0.1871193873
100
AcDbArc
 50
143.7734217168
 51
147.7358359596
  0
ARC
  5
393
100
AcDbEntity
  8
0
100
AcDbCircle
 62
7
  6
CONTINUOUS
 10
10.8444908031
 20
6.435777744
 40
0.1867436242
100
AcDbArc
 50
106.1503795072
 51
110.4540318415
  0
ARC
  5
394
100
AcDbEntity
  8
0
100
AcDbCircle
 62
7
  6
CONTINUOUS
 10
10.844118992
 20
6.4370755113
 40
0.1853936023
100
AcDbArc
 50
101.1335805549
 51
105.5960264948
  0
ARC
  5
395
100
AcDbEntity
  8
0
100
AcDbCircle
 62
7
  6
CONTINUOUS
 10
10.8440811712
 20
6.43719028
 40
0.1852728911
100
AcDbArc
 50
105.5943032447
 51
106.1502076672
  0
ARC
  5
396
100
AcDbEntity
  8
0
100
AcDbCircle
 62
7
  6
CONTINUOUS
 10
10.8417007853
 20
6.4395839874
 40
0.1831885885
100
AcDbArc
 50
110.0310891052
 51
110.7578682404
  0
ARC
  5
397
100
AcDbEntity
  8
0
100
AcDbCircle
 62
7
  6
CONTINUOUS
 10
10.8415623954
 20
6.4399711484
 40
0.1827774454
100
AcDbArc
 50
107.2532736861
 51
110.0319028625
  0
ARC
  5
398
100
AcDbEntity
  8
0
100
AcDbCircle
 62
7
  6
CONTINUOUS
 10
10.8414170628
 20
6.4401910799
 40
0.1825167059
100
AcDbArc
 50
114.7615357735
 51
123.5733426199
  0
ARC
  5
399
100
AcDbEntity
  8
0
100
AcDbCircle
 62
7
  6
CONTINUOUS
 10
10.8429925035
 20
6.4399025426
 40
0.1823552968
100
AcDbArc
 50
110.4658452706
 51
111.3457909083
  0
ARC
  5
39A
100
AcDbEntity
  8
0
100
AcDbCircle
 62
7
  6
CONTINUOUS
 10
10.8468171934
 20
6.4283117324
 40
0.1728673521
100
AcDbArc
 50
145.9456704403
 51
146.1885747591
  0
ARC
  5
39B
100
AcDbEntity
  8
0
100
AcDbCircle
 62
7
  6
CONTINUOUS
 10
10.8463518962
 20
6.4286217984
 40
0.1723082092
100
AcDbArc
 50
146.188144391
 51
147.2442112593
  0
ARC
  5
39C
100
AcDbEntity
  8
0
100
AcDbCircle
 62
7
  6
CONTINUOUS
 10
10.8441929273
 20
6.4365135884
 40
0.172
100
AcDbArc
 50
150.1988772349
 51
153.8527188577
  0
ARC
  5
39D
100
AcDbEntity
  8
0
100
AcDbCircle
 62
7
  6
CONTINUOUS
 10
10.9750564227
 20
6.3261798436
 40
0.2951222532
100
AcDbArc
 50
94.1595256177
 51
95.2975689011
  0
ARC
  5
39E
100
AcDbEntity
  8
0
100
AcDbCircle
 62
7
  6
CONTINUOUS
 10
10.9742916
 20
6.3340554331
 40
0.2872096907
100
AcDbArc
 50
95.2907032545
 51
98.5765853502
  0
ARC
  5
39F
100
AcDbEntity
  8
0
100
AcDbCircle
 62
7
  6
CONTINUOUS
 10
10.9690900274
 20
6.3481004443
 40
0.2754724771
100
AcDbArc
 50
107.4299266295
 51
109.3582628386
  0
ARC
  5
3A0
100
AcDbEntity
  8
0
100
AcDbCircle
 62
7
  6
CONTINUOUS
 10
10.9674679727
 20
6.3523434134
 40
0.2709317464
100
AcDbArc
 50
109.3320572388
 51
116.6193778295
  0
ARC
  5
3A1
100
AcDbEntity
  8
0
100
AcDbCircle
 62
7
  6
CONTINUOUS
 10
11.0169963584
 20
6.3710522963
 40
0.2437650757
100
AcDbArc
 50
132.7921771475
 51
138.0088524407
  0
ARC
  5
3A2
100
AcDbEntity
  8
0
100
AcDbCircle
 62
7
  6
CONTINUOUS
 10
11.0197349097
 20
6.3714836619
 40
0.2306655965
100
AcDbArc
 50
133.4060646453
 51
134.0095882782
  0
ARC
  5
3A3
100
AcDbEntity
  8
0
100
AcDbCircle
 62
7
  6
CONTINUOUS
 10
11.0152657394
 20
6.3760349566
 40
0.2242871197
100
AcDbArc
 50
133.9962560397
 51
139.4477757873
  0
ARC
  5
3A4
100
AcDbEntity
  8
0
100
AcDbCircle
 62
7
  6
CONTINUOUS
 10
10.938774311
 20
6.3904093601
 40
0.2229043886
100
AcDbArc
 50
136.9438534489
 51
139.8514248746
  0
ARC
  5
3A5
100
AcDbEntity
  8
0
100
AcDbCircle
 62
7
  6
CONTINUOUS
 10
10.9605796517
 20
6.4041102229
 40
0.2157667951
100
AcDbArc
 50
104.5086175346
 51
108.2748039415
  0
ARC
  5
3A6
100
AcDbEntity
  8
0
100
AcDbCircle
 62
7
  6
CONTINUOUS
 10
10.9399206993
 20
6.3922867131
 40
0.2074017368
100
AcDbArc
 50
137.7307684992
 51
138.3773730426
  0
ARC
  5
3A7
100
AcDbEntity
  8
0
100
AcDbCircle
 62
7
  6
CONTINUOUS
 10
10.9373929299
 20
6.3945157321
 40
0.2040315767
100
AcDbArc
 50
138.3737990307
 51
141.3842197388
  0
ARC
  5
3A8
100
AcDbEntity
  8
0
100
AcDbCircle
 62
7
  6
CONTINUOUS
 10
10.956044037
 20
6.418302561
 40
0.2008680656
100
AcDbArc
 50
108.3157380286
 51
109.8217086594
  0
ARC
  5
3A9
100
AcDbEntity
  8
0
100
AcDbCircle
 62
7
  6
CONTINUOUS
 10
10.9523317961
 20
6.4285933498
 40
0.1899281818
100
AcDbArc
 50
109.8208788649
 51
112.55941308
  0
ARC
  5
3AA
100
AcDbEntity
  8
0
100
AcDbCircle
 62
7
  6
CONTINUOUS
 10
10.9972946802
 20
6.6367402901
 40
0.1
100
AcDbArc
 50
113.5781784782
 51
180.0
  0
ARC
  5
3AB
100
AcDbEntity
  8
0
100
AcDbCircle
 62
7
  6
CONTINUOUS
 10
10.1280599652
 20
7.9310403505
 40
1.4
100
AcDbArc
 50
310.6208291884
 51
358.1054547173
  0
ARC
  5
3AC
100
AcDbEntity
  8
0
100
AcDbCircle
 62
7
  6
CONTINUOUS
 10
11.3752093762
 20
6.3042452987
 40
0.726
100
AcDbArc
 50
164.4892346395
 51
177.6991450868
  0
ARC
  5
3AD
100
AcDbEntity
  8
0
100
AcDbCircle
 62
7
  6
CONTINUOUS
 10
11.0433773512
 20
6.2993813142
 40
0.3233242805
100
AcDbArc
 50
95.5610871601
 51
98.7203563058
  0
ARC
  5
3AE
100
AcDbEntity
  8
0
100
AcDbCircle
 62
7
  6
CONTINUOUS
 10
11.7921156327
 20
6.3181492548
 40
0.3044062767
100
AcDbArc
 50
95.4412731237
 51
96.7086208654
  0
ARC
  5
3AF
100
AcDbEntity
  8
0
100
AcDbCircle
 62
7
  6
CONTINUOUS
 10
11.6729277334
 20
6.3135542663
 40
0.3041028778
100
AcDbArc
 50
130.2772037221
 51
136.7680018941
  0
ARC
  5
3B0
100
AcDbEntity
  8
0
100
AcDbCircle
 62
7
  6
CONTINUOUS
 10
11.14171187
 20
6.3214240523
 40
0.3025371645
100
AcDbArc
 50
106.8813531675
 51
107.5948053973
  0
ARC
  5
3B1
100
AcDbEntity
  8
0
100
AcDbCircle
 62
7
  6
CONTINUOUS
 10
11.370193603
 20
6.3237101062
 40
0.2984633984
100
AcDbArc
 50
130.2674424433
 51
135.1690908428
  0
ARC
  5
3B2
100
AcDbEntity
  8
0
100
AcDbCircle
 62
7
  6
CONTINUOUS
 10
11.3728184711
 20
6.322027684
 40
0.2883088701
100
AcDbArc
 50
115.2839841735
 51
130.4626831689
  0
ARC
  5
3B3
100
AcDbEntity
  8
0
100
AcDbCircle
 62
7
  6
CONTINUOUS
 10
11.368234747
 20
6.3277185559
 40
0.2810045462
100
AcDbArc
 50
130.504619973
 51
131.3201820828
  0
ARC
  5
3B4
100
AcDbEntity
  8
0
100
AcDbCircle
 62
7
  6
CONTINUOUS
 10
11.5555634647
 20
6.3516994889
 40
0.2772574383
100
AcDbArc
 50
118.4433095789
 51
120.3155115142
  0
ARC
  5
3B5
100
AcDbEntity
  8
0
100
AcDbCircle
 62
7
  6
CONTINUOUS
 10
11.3643701165
 20
6.3320493208
 40
0.2752003232
100
AcDbArc
 50
131.3112292791
 51
136.3948422272
  0
ARC
  5
3B6
100
AcDbEntity
  8
0
100
AcDbCircle
 62
7
  6
CONTINUOUS
 10
11.0680276411
 20
6.3510092272
 40
0.2731470711
100
AcDbArc
 50
108.6925148223
 51
112.7396698973
  0
ARC
  5
3B7
100
AcDbEntity
  8
0
100
AcDbCircle
 62
7
  6
CONTINUOUS
 10
11.2306369303
 20
6.3427157336
 40
0.2624281429
100
AcDbArc
 50
129.3522646029
 51
136.9516539399
  0
ARC
  5
3B8
100
AcDbEntity
  8
0
100
AcDbCircle
 62
7
  6
CONTINUOUS
 10
11.1177397369
 20
6.3536475313
 40
0.2622373679
100
AcDbArc
 50
132.3416845255
 51
136.5084266362
  0
ARC
  5
3B9
100
AcDbEntity
  8
0
100
AcDbCircle
 62
7
  6
CONTINUOUS
 10
11.1261122154
 20
6.3475297389
 40
0.2581368629
100
AcDbArc
 50
125.088826696
 51
132.868336814
  0
ARC
  5
3BA
100
AcDbEntity
  8
0
100
AcDbCircle
 62
7
  6
CONTINUOUS
 10
11.785587757
 20
6.3713508135
 40
0.2508065404
100
AcDbArc
 50
96.6473596675
 51
99.1470558609
  0
ARC
  5
3BB
100
AcDbEntity
  8
0
100
AcDbCircle
 62
7
  6
CONTINUOUS
 10
11.2022927922
 20
6.678633135
 40
0.25
100
AcDbArc
 50
130.6208291884
 51
168.5194848001
  0
ARC
  5
3BC
100
AcDbEntity
  8
0
100
AcDbCircle
 62
7
  6
CONTINUOUS
 10
11.1185759888
 20
6.3560604985
 40
0.2467576513
100
AcDbArc
 50
132.9333903882
 51
133.5643687659
  0
ARC
  5
3BD
100
AcDbEntity
  8
0
100
AcDbCircle
 62
7
  6
CONTINUOUS
 10
11.6589317382
 20
6.3734093294
 40
0.2465838696
100
AcDbArc
 50
98.7803719128
 51
99.3188900684
  0
ARC
  5
3BE
100
AcDbEntity
  8
0
100
AcDbCircle
 62
7
  6
CONTINUOUS
 10
11.1144580792
 20
6.3603369498
 40
0.2408209991
100
AcDbArc
 50
133.5556509973
 51
137.8804293945
  0
ARC
  5
3BF
100
AcDbEntity
  8
0
100
AcDbCircle
 62
7
  6
CONTINUOUS
 10
11.6814245555
 20
6.3881935641
 40
0.2401485118
100
AcDbArc
 50
116.0266392606
 51
117.8215644441
  0
ARC
  5
3C0
100
AcDbEntity
  8
0
100
AcDbCircle
 62
7
  6
CONTINUOUS
 10
11.7961389359
 20
6.5231327955
 40
0.0946742582
100
AcDbArc
 50
108.7295068988
 51
109.3041273494
  0
ARC
  5
3C1
100
AcDbEntity
  8
0
100
AcDbCircle
 62
7
  6
CONTINUOUS
 10
11.7771580222
 20
7.8764913047
 40
0.25
100
AcDbArc
 50
108.62987012
 51
178.1054547173
  0
ARC
  5
3C2
100
AcDbEntity
  8
0
100
AcDbCircle
 62
7
  6
CONTINUOUS
 10
11.944662286
 20
8.0772080011
 40
0.25
100
AcDbArc
 50
135.1918438317
 51
171.6780538141
  0
ARC
  5
3C3
100
AcDbEntity
  8
0
100
AcDbCircle
 62
9
  6
CONTINUOUS
 10
10.9570340222
 20
9.1198378666
 40
1.5160464778
100
AcDbArc
 50
8.9934559505
 51
17.975111412
  0
ARC
  5
3C4
100
AcDbEntity
  8
0
100
AcDbCircle
 62
9
  6
CONTINUOUS
 10
10.9564155913
 20
9.5170940343
 40
1.516680488
100
AcDbArc
 50
342.026769717
 51
351.0046624509
  0
ARC
  5
3C5
100
AcDbEntity
  8
0
100
AcDbCircle
 62
7
  6
CONTINUOUS
 10
10.8589560024
 20
9.3338731125
 40
0.7735134186
100
AcDbArc
 50
350.4503352119
 51
350.8400818622
  0
ARC
  5
3C6
100
AcDbEntity
  8
0
100
AcDbCircle
 62
7
  6
CONTINUOUS
 10
11.68076922
 20
8.5589820895
 40
0.06
100
AcDbArc
 50
348.8431825532
 51
19.2900462192
  0
ARC
  5
3C7
100
AcDbEntity
  8
0
100
AcDbCircle
 62
7
  6
CONTINUOUS
 10
11.7616861835
 20
8.6910413955
 40
0.06
100
AcDbArc
 50
156.5290068818
 51
199.2900462186
  0
ARC
  5
3C8
100
AcDbEntity
  8
0
100
AcDbCircle
 62
7
  6
CONTINUOUS
 10
11.7133431598
 20
8.8809979308
 40
0.06
100
AcDbArc
 50
336.5290068818
 51
27.5972958681
  0
ARC
  5
3C9
100
AcDbEntity
  8
0
100
AcDbCircle
 62
7
  6
CONTINUOUS
 10
11.7822946802
 20
9.0081277163
 40
0.06
100
AcDbArc
 50
180.0
 51
207.5972958681
  0
ARC
  5
3CA
100
AcDbEntity
  8
0
100
AcDbCircle
 62
7
  6
CONTINUOUS
 10
11.6509465219
 20
9.392552485
 40
0.0633303384
100
AcDbArc
 50
147.5509362499
 51
156.3715588114
  0
ARC
  5
3CB
100
AcDbEntity
  8
0
100
AcDbCircle
 62
7
  6
CONTINUOUS
 10
11.6561950575
 20
9.244276791
 40
0.063256524
100
AcDbArc
 50
229.7531292928
 51
232.1231426181
  0
ARC
  5
3CC
100
AcDbEntity
  8
0
100
AcDbCircle
 62
7
  6
CONTINUOUS
 10
11.6496024343
 20
9.3925900174
 40
0.0632408068
100
AcDbArc
 50
146.7162570323
 51
156.5181984563
  0
ARC
  5
3CD
100
AcDbEntity
  8
0
100
AcDbCircle
 62
7
  6
CONTINUOUS
 10
11.6658357735
 20
9.3926124728
 40
0.063169285
100
AcDbArc
 50
136.2960116423
 51
153.8667694632
  0
ARC
  5
3CE
100
AcDbEntity
  8
0
100
AcDbCircle
 62
7
  6
CONTINUOUS
 10
11.6516183466
 20
9.3926637224
 40
0.0631049498
100
AcDbArc
 50
142.2503394156
 51
147.3359474353
  0
ARC
  5
3CF
100
AcDbEntity
  8
0
100
AcDbCircle
 62
7
  6
CONTINUOUS
 10
11.6494411761
 20
9.2441061475
 40
0.0630580553
100
AcDbArc
 50
201.6294348459
 51
225.0140343519
  0
ARC
  5
3D0
100
AcDbEntity
  8
0
100
AcDbCircle
 62
7
  6
CONTINUOUS
 10
11.7272864913
 20
9.3926934919
 40
0.0630249019
100
AcDbArc
 50
131.1345291184
 51
150.0072194665
  0
ARC
  5
3D1
100
AcDbEntity
  8
0
100
AcDbCircle
 62
7
  6
CONTINUOUS
 10
11.7606546296
 20
9.3926934907
 40
0.0630249001
100
AcDbArc
 50
131.1249648781
 51
150.0072173319
  0
ARC
  5
3D2
100
AcDbEntity
  8
0
100
AcDbCircle
 62
7
  6
CONTINUOUS
 10
11.6930247846
 20
9.3926947006
 40
0.0630227267
100
AcDbArc
 50
129.3918000925
 51
151.1556214821
  0
ARC
  5
3D3
100
AcDbEntity
  8
0
100
AcDbCircle
 62
7
  6
CONTINUOUS
 10
11.651533126
 20
9.3926906294
 40
0.0630186891
100
AcDbArc
 50
147.3147243647
 51
156.7279920857
  0
ARC
  5
3D4
100
AcDbEntity
  8
0
100
AcDbCircle
 62
7
  6
CONTINUOUS
 10
11.6657046693
 20
9.3926955793
 40
0.0630170936
100
AcDbArc
 50
128.2576323376
 51
136.2682761862
  0
ARC
  5
3D5
100
AcDbEntity
  8
0
100
AcDbCircle
 62
7
  6
CONTINUOUS
 10
11.6493923957
 20
9.3926881498
 40
0.0630166255
100
AcDbArc
 50
127.6168617437
 51
130.5329678537
  0
ARC
  5
3D6
100
AcDbEntity
  8
0
100
AcDbCircle
 62
7
  6
CONTINUOUS
 10
11.6493909395
 20
9.2440934382
 40
0.0630141426
100
AcDbArc
 50
229.4610839159
 51
232.383064096
  0
ARC
  5
3D7
100
AcDbEntity
  8
0
100
AcDbCircle
 62
7
  6
CONTINUOUS
 10
11.6506479129
 20
9.3926966668
 40
0.0630054429
100
AcDbArc
 50
129.1088412891
 51
131.8521831366
  0
ARC
  5
3D8
100
AcDbEntity
  8
0
100
AcDbCircle
 62
7
  6
CONTINUOUS
 10
11.7069920836
 20
9.2440670382
 40
0.0629871035
100
AcDbArc
 50
194.4581547294
 51
231.3479179948
  0
ARC
  5
3D9
100
AcDbEntity
  8
0
100
AcDbCircle
 62
7
  6
CONTINUOUS
 10
11.740360209
 20
9.2440670313
 40
0.062987087
100
AcDbArc
 50
194.4581521981
 51
231.3365986761
  0
ARC
  5
3DA
100
AcDbEntity
  8
0
100
AcDbCircle
 62
7
  6
CONTINUOUS
 10
11.7737283464
 20
9.2440670294
 40
0.062987083
100
AcDbArc
 50
194.458151323
 51
231.3352374863
  0
ARC
  5
3DB
100
AcDbEntity
  8
0
100
AcDbCircle
 62
7
  6
CONTINUOUS
 10
11.6759210504
 20
9.2440657644
 40
0.0629847721
100
AcDbArc
 50
195.7308980027
 51
231.342585919
  0
ARC
  5
3DC
100
AcDbEntity
  8
0
100
AcDbCircle
 62
7
  6
CONTINUOUS
 10
11.6560214385
 20
9.2440659507
 40
0.0629836116
100
AcDbArc
 50
198.671651908
 51
229.7497612235
  0
ARC
  5
3DD
100
AcDbEntity
  8
0
100
AcDbCircle
 62
7
  6
CONTINUOUS
 10
11.6514641414
 20
9.3927642309
 40
0.06292149
100
AcDbArc
 50
127.7001779549
 51
142.2367397979
  0
ARC
  5
3DE
100
AcDbEntity
  8
0
100
AcDbCircle
 62
7
  6
CONTINUOUS
 10
11.6493330502
 20
9.2440196705
 40
0.0629204559
100
AcDbArc
 50
225.0280047655
 51
229.4574847375
  0
ARC
  5
3DF
100
AcDbEntity
  8
0
100
AcDbCircle
 62
7
  6
CONTINUOUS
 10
11.6493164
 20
9.3927783322
 40
0.0628986954
100
AcDbArc
 50
130.5337412871
 51
146.7224702774
  0
ARC
  5
3E0
100
AcDbEntity
  8
0
100
AcDbCircle
 62
7
  6
CONTINUOUS
 10
11.6505668258
 20
9.3927921969
 40
0.0628813073
100
AcDbArc
 50
131.8527915767
 51
147.5496237616
  0
ARC
  5
3E1
100
AcDbEntity
  8
0
100
AcDbCircle
 62
7
  6
CONTINUOUS
 10
11.6503260154
 20
9.3928261935
 40
0.0626521493
100
AcDbArc
 50
156.3734430551
 51
159.659750837
  0
ARC
  5
3E2
100
AcDbEntity
  8
0
100
AcDbCircle
 62
7
  6
CONTINUOUS
 10
11.6489057622
 20
9.3929000083
 40
0.0624783105
100
AcDbArc
 50
156.5243657043
 51
158.3792979437
  0
ARC
  5
3E3
100
AcDbEntity
  8
0
100
AcDbCircle
 62
9
  6
CONTINUOUS
 10
11.7600662271
 20
9.2219642492
 40
0.0128949358
100
AcDbArc
 50
206.2018115484
 51
209.2536744399
  0
ARC
  5
3E4
100
AcDbEntity
  8
0
100
AcDbCircle
 62
9
  6
CONTINUOUS
 10
11.6014556832
 20
9.4106961797
 40
0.0105990564
100
AcDbArc
 50
172.2000278956
 51
182.0360541303
  0
ARC
  5
3E5
100
AcDbEntity
  8
0
100
AcDbCircle
 62
9
  6
CONTINUOUS
 10
11.6005601769
 20
9.4117729102
 40
0.0105557999
100
AcDbArc
 50
178.0368101435
 51
186.7625893506
  0
ARC
  5
3E6
100
AcDbEntity
  8
0
100
AcDbCircle
 62
7
  6
CONTINUOUS
 10
11.9327804442
 20
9.293791073
 40
0.2615543099
100
AcDbArc
 50
156.394044678
 51
159.5481488502
  0
ARC
  5
3E7
100
AcDbEntity
  8
0
100
AcDbCircle
 62
7
  6
CONTINUOUS
 10
11.8329002746
 20
9.3210027315
 40
0.2601006682
100
AcDbArc
 50
178.9459318664
 51
180.7544137102
  0
ARC
  5
3E8
100
AcDbEntity
  8
0
100
AcDbCircle
 62
7
  6
CONTINUOUS
 10
11.8972234796
 20
9.2947672208
 40
0.2591578414
100
AcDbArc
 50
150.0375394966
 51
156.6147320527
  0
ARC
  5
3E9
100
AcDbEntity
  8
0
100
AcDbCircle
 62
7
  6
CONTINUOUS
 10
11.9304862888
 20
9.2948212861
 40
0.2590395851
100
AcDbArc
 50
150.0362640328
 51
156.399646116
  0
ARC
  5
3EA
100
AcDbEntity
  8
0
100
AcDbCircle
 62
7
  6
CONTINUOUS
 10
11.8637415417
 20
9.2988201315
 40
0.2578473701
100
AcDbArc
 50
151.1848228962
 51
157.4413409194
  0
ARC
  5
3EB
100
AcDbEntity
  8
0
100
AcDbCircle
 62
7
  6
CONTINUOUS
 10
11.8306375607
 20
9.3212406173
 40
0.2578315234
100
AcDbArc
 50
158.6879813464
 51
178.9895359971
  0
ARC
  5
3EC
100
AcDbEntity
  8
0
100
AcDbCircle
 62
7
  6
CONTINUOUS
 10
11.8300321101
 20
9.3263048625
 40
0.2542751278
100
AcDbArc
 50
159.6803555001
 51
164.3669326699
  0
ARC
  5
3ED
100
AcDbEntity
  8
0
100
AcDbCircle
 62
7
  6
CONTINUOUS
 10
11.8357149148
 20
9.3093914814
 40
0.252337604
100
AcDbArc
 50
153.8920769926
 51
155.7106213334
  0
ARC
  5
3EE
100
AcDbEntity
  8
0
100
AcDbCircle
 62
7
  6
CONTINUOUS
 10
11.8235177417
 20
9.3187757615
 40
0.250214082
100
AcDbArc
 50
156.7393139482
 51
157.5250784185
  0
ARC
  5
3EF
100
AcDbEntity
  8
0
100
AcDbCircle
 62
7
  6
CONTINUOUS
 10
11.8231202287
 20
9.3129267398
 40
0.2498753102
100
AcDbArc
 50
201.3039483335
 51
201.6194077705
  0
ARC
  5
3F0
100
AcDbEntity
  8
0
100
AcDbCircle
 62
7
  6
CONTINUOUS
 10
11.8229378322
 20
9.3239290304
 40
0.2496791576
100
AcDbArc
 50
158.3805655042
 51
158.6205436746
  0
ARC
  5
3F1
100
AcDbEntity
  8
0
100
AcDbCircle
 62
9
  6
CONTINUOUS
 10
11.7804850957
 20
9.3175777575
 40
0.117359693
100
AcDbArc
 50
252.0852426138
 51
252.7407412092
  0
ARC
  5
3F2
100
AcDbEntity
  8
0
100
AcDbCircle
 62
7
  6
CONTINUOUS
 10
11.7941056252
 20
9.3926358372
 40
0.0631254807
100
AcDbArc
 50
138.999794818
 51
149.9994890005
  0
ARC
  5
3F3
100
AcDbEntity
  8
0
100
AcDbCircle
 62
7
  6
CONTINUOUS
 10
11.7952122662
 20
9.3926808685
 40
0.0630565708
100
AcDbArc
 50
134.1734803049
 51
161.3976753486
  0
ARC
  5
3F4
100
AcDbEntity
  8
0
100
AcDbCircle
 62
7
  6
CONTINUOUS
 10
11.7939999869
 20
9.3927141884
 40
0.0629943523
100
AcDbArc
 50
131.9778418806
 51
138.9905419609
  0
ARC
  5
3F5
100
AcDbEntity
  8
0
100
AcDbCircle
 62
7
  6
CONTINUOUS
 10
11.9472946802
 20
9.713391804
 40
0.02
100
AcDbArc
 50
90.0
 51
180.0
  0
ARC
  5
3F6
100
AcDbEntity
  8
0
100
AcDbCircle
 62
7
  6
CONTINUOUS
 10
11.7922946802
 20
9.623391804
 40
0.02
100
AcDbArc
 50
90.0
 51
180.0
  0
ARC
  5
3F7
100
AcDbEntity
  8
0
100
AcDbCircle
 62
7
  6
CONTINUOUS
 10
11.8722946802
 20
9.673391804
 40
0.02
100
AcDbArc
 50
90.0
 51
180.0
  0
ARC
  5
3F8
100
AcDbEntity
  8
0
100
AcDbCircle
 62
7
  6
CONTINUOUS
 10
10.7800537433
 20
14.2573453111
 40
7.7232221049
100
AcDbArc
 50
269.6529696032
 51
269.9134829777
  0
ARC
  5
3F9
100
AcDbEntity
  8
0
100
AcDbCircle
 62
7
  6
CONTINUOUS
 10
10.7375104575
 20
10.7061968913
 40
4.1843546016
100
AcDbArc
 50
269.5725994489
 51
269.8692721915
  0
ARC
  5
3FA
100
AcDbEntity
  8
0
100
AcDbCircle
 62
7
  6
CONTINUOUS
 10
10.9569660304
 20
34.4675238872
 40
27.9334074251
100
AcDbArc
 50
269.8132316222
 51
269.9395458124
  0
ARC
  5
3FB
100
AcDbEntity
  8
0
100
AcDbCircle
 62
7
  6
CONTINUOUS
 10
10.859551404
 20
23.3490008763
 40
16.8148824463
100
AcDbArc
 50
269.7428591823
 51
269.9191305832
  0
ARC
  5
3FC
100
AcDbEntity
  8
0
100
AcDbCircle
 62
7
  6
CONTINUOUS
 10
10.7973360803
 20
20.3880113788
 40
13.8661741164
100
AcDbArc
 50
269.7750176757
 51
269.9199912597
  0
ARC
  5
3FD
100
AcDbEntity
  8
0
100
AcDbCircle
 62
7
  6
CONTINUOUS
 10
12.7693799842
 20
6.3042452987
 40
0.726
100
AcDbArc
 50
2.3008549132
 51
15.5107653605
  0
ARC
  5
3FE
100
AcDbEntity
  8
0
100
AcDbCircle
 62
7
  6
CONTINUOUS
 10
12.3955360759
 20
6.4119051553
 40
0.2587815522
100
AcDbArc
 50
135.8912886854
 51
137.8413020353
  0
ARC
  5
3FF
100
AcDbEntity
  8
0
100
AcDbCircle
 62
7
  6
CONTINUOUS
 10
12.9422965683
 20
6.678633135
 40
0.25
100
AcDbArc
 50
11.4805151999
 51
49.3791708116
  0
ARC
  5
400
100
AcDbEntity
  8
0
100
AcDbCircle
 62
7
  6
CONTINUOUS
 10
11.9584322702
 20
6.4602805862
 40
0.1589237713
100
AcDbArc
 50
102.0632066978
 51
102.3132772211
  0
ARC
  5
401
100
AcDbEntity
  8
0
100
AcDbCircle
 62
7
  6
CONTINUOUS
 10
12.9636829031
 20
6.5734109271
 40
0.0950963291
100
AcDbArc
 50
10.8958114252
 51
11.3079073941
  0
ARC
  5
402
100
AcDbEntity
  8
0
100
AcDbCircle
 62
7
  6
CONTINUOUS
 10
12.26514653
 20
6.5411692016
 40
0.0767839839
100
AcDbArc
 50
108.0894692661
 51
110.7002370632
  0
ARC
  5
403
100
AcDbEntity
  8
0
100
AcDbCircle
 62
7
  6
CONTINUOUS
 10
12.2624979534
 20
6.548312986
 40
0.0691651847
100
AcDbArc
 50
110.7396556045
 51
112.3291773284
  0
ARC
  5
404
100
AcDbEntity
  8
0
100
AcDbCircle
 62
7
  6
CONTINUOUS
 10
12.5611268959
 20
6.59263786
 40
0.0225618256
100
AcDbArc
 50
144.6212696809
 51
149.7948913576
  0
ARC
  5
405
100
AcDbEntity
  8
0
100
AcDbCircle
 62
7
  6
CONTINUOUS
 10
12.3674313383
 20
7.8764913047
 40
0.25
100
AcDbArc
 50
1.8945452827
 51
71.37012988
  0
ARC
  5
406
100
AcDbEntity
  8
0
100
AcDbCircle
 62
7
  6
CONTINUOUS
 10
12.1999270744
 20
8.0772080011
 40
0.25
100
AcDbArc
 50
8.3219461859
 51
44.8081561683
  0
ARC
  5
407
100
AcDbEntity
  8
0
100
AcDbCircle
 62
7
  6
CONTINUOUS
 10
13.2082380812
 20
6.4221876905
 40
0.2135341207
100
AcDbArc
 50
61.4456413474
 51
64.9542115796
  0
ARC
  5
408
100
AcDbEntity
  8
0
100
AcDbCircle
 62
7
  6
CONTINUOUS
 10
13.136492443
 20
6.4806710762
 40
0.160912368
100
AcDbArc
 50
54.0438886473
 51
54.8067852242
  0
ARC
  5
409
100
AcDbEntity
  8
0
100
AcDbCircle
 62
7
  6
CONTINUOUS
 10
13.1381785959
 20
6.483052245
 40
0.1579946558
100
AcDbArc
 50
54.8088139147
 51
55.2009317942
  0
ARC
  5
40A
100
AcDbEntity
  8
0
100
AcDbCircle
 62
7
  6
CONTINUOUS
 10
13.2652957767
 20
6.4668107107
 40
0.1524392461
100
AcDbArc
 50
21.2090358555
 51
23.106475524
  0
ARC
  5
40B
100
AcDbEntity
  8
0
100
AcDbCircle
 62
7
  6
CONTINUOUS
 10
13.2161198036
 20
6.4803299731
 40
0.1494209262
100
AcDbArc
 50
16.1709481106
 51
22.6769365186
  0
ARC
  5
40C
100
AcDbEntity
  8
0
100
AcDbCircle
 62
7
  6
CONTINUOUS
 10
13.2231975821
 20
6.490096194
 40
0.139415846
100
AcDbArc
 50
60.1416544962
 51
64.1647409167
  0
ARC
  5
40D
100
AcDbEntity
  8
0
100
AcDbCircle
 62
7
  6
CONTINUOUS
 10
13.2309594124
 20
6.5058940045
 40
0.1218145672
100
AcDbArc
 50
64.2125247303
 51
68.1631599319
  0
ARC
  5
40E
100
AcDbEntity
  8
0
100
AcDbCircle
 62
7
  6
CONTINUOUS
 10
13.2559094096
 20
6.5101783945
 40
0.1134598764
100
AcDbArc
 50
50.0968406898
 51
61.3516629875
  0
ARC
  5
40F
100
AcDbEntity
  8
0
100
AcDbCircle
 62
7
  6
CONTINUOUS
 10
13.2352850929
 20
6.5163925859
 40
0.1104603464
100
AcDbArc
 50
68.2203191132
 51
71.5640333885
  0
ARC
  5
410
100
AcDbEntity
  8
0
100
AcDbCircle
 62
7
  6
CONTINUOUS
 10
13.2436646808
 20
6.52628416
 40
0.0978568201
100
AcDbArc
 50
51.4959866984
 51
52.5705201039
  0
ARC
  5
411
100
AcDbEntity
  8
0
100
AcDbCircle
 62
7
  6
CONTINUOUS
 10
13.244881605
 20
6.5279076047
 40
0.0958280139
100
AcDbArc
 50
52.5583572031
 51
60.1302781844
  0
ARC
  5
412
100
AcDbEntity
  8
0
100
AcDbCircle
 62
7
  6
CONTINUOUS
 10
13.1472946802
 20
6.6367402901
 40
0.1
100
AcDbArc
 50
0.0
 51
66.4218215218
  0
ARC
  5
413
100
AcDbEntity
  8
0
100
AcDbCircle
 62
7
  6
CONTINUOUS
 10
13.1761905265
 20
6.5416373702
 40
0.0886716459
100
AcDbArc
 50
34.6505778366
 51
37.2915245861
  0
ARC
  5
414
100
AcDbEntity
  8
0
100
AcDbCircle
 62
7
  6
CONTINUOUS
 10
13.1789774246
 20
6.5437318814
 40
0.0851854925
100
AcDbArc
 50
37.3064456497
 51
38.798117788
  0
ARC
  5
415
100
AcDbEntity
  8
0
100
AcDbCircle
 62
7
  6
CONTINUOUS
 10
13.0830159556
 20
6.5583425625
 40
0.0826856999
100
AcDbArc
 50
24.1332504677
 51
24.9075850585
  0
ARC
  5
416
100
AcDbEntity
  8
0
100
AcDbCircle
 62
7
  6
CONTINUOUS
 10
13.049759505
 20
6.619038204
 40
0.0027166166
100
AcDbArc
 50
148.614187679
 51
161.1975478803
  0
ARC
  5
417
100
AcDbEntity
  8
0
100
AcDbCircle
 62
7
  6
CONTINUOUS
 10
13.3003964332
 20
6.4365135884
 40
0.1871193873
100
AcDbArc
 50
47.9038164061
 51
70.4292503199
  0
ARC
  5
418
100
AcDbEntity
  8
0
100
AcDbCircle
 62
7
  6
CONTINUOUS
 10
13.3048654044
 20
6.438668857
 40
0.1821793665
100
AcDbArc
 50
34.8516357244
 51
42.6160840444
  0
ARC
  5
419
100
AcDbEntity
  8
0
100
AcDbCircle
 62
7
  6
CONTINUOUS
 10
13.298229938
 20
6.442995247
 40
0.1811884881
100
AcDbArc
 50
66.9743173696
 51
69.1763670692
  0
ARC
  5
41A
100
AcDbEntity
  8
0
100
AcDbCircle
 62
7
  6
CONTINUOUS
 10
13.3061029567
 20
6.4395732777
 40
0.1806469575
100
AcDbArc
 50
33.7625551388
 51
34.8405362295
  0
ARC
  5
41B
100
AcDbEntity
  8
0
100
AcDbCircle
 62
7
  6
CONTINUOUS
 10
13.3066195205
 20
6.4399164839
 40
0.1800267757
100
AcDbArc
 50
31.6147420404
 51
33.7631145963
  0
ARC
  5
41C
100
AcDbEntity
  8
0
100
AcDbCircle
 62
7
  6
CONTINUOUS
 10
13.2990962164
 20
6.4453983793
 40
0.1786343806
100
AcDbArc
 50
69.1620608957
 51
72.3704736791
  0
ARC
  5
41D
100
AcDbEntity
  8
0
100
AcDbCircle
 62
7
  6
CONTINUOUS
 10
13.3075156539
 20
6.4443246076
 40
0.1765509195
100
AcDbArc
 50
36.2828098701
 51
47.9188351995
  0
ARC
  5
41E
100
AcDbEntity
  8
0
100
AcDbCircle
 62
7
  6
CONTINUOUS
 10
13.3084186576
 20
6.4450565408
 40
0.1753898746
100
AcDbArc
 50
30.5220738804
 51
36.2646322968
  0
ARC
  5
41F
100
AcDbEntity
  8
0
100
AcDbCircle
 62
7
  6
CONTINUOUS
 10
13.3006176456
 20
6.4501590315
 40
0.1736365323
100
AcDbArc
 50
72.3731658462
 51
76.4745386961
  0
ARC
  5
420
100
AcDbEntity
  8
0
100
AcDbCircle
 62
7
  6
CONTINUOUS
 10
13.2695023301
 20
6.45500482
 40
0.1732022792
100
AcDbArc
 50
59.3359498062
 51
65.8081563303
  0
ARC
  5
421
100
AcDbEntity
  8
0
100
AcDbCircle
 62
7
  6
CONTINUOUS
 10
13.3003964332
 20
6.4365135884
 40
0.172
100
AcDbArc
 50
26.1472811423
 51
29.848853264
  0
ARC
  5
422
100
AcDbEntity
  8
0
100
AcDbCircle
 62
7
  6
CONTINUOUS
 10
13.3015269878
 20
6.4539605359
 40
0.1697277839
100
AcDbArc
 50
76.4728631242
 51
79.2339885139
  0
ARC
  5
423
100
AcDbEntity
  8
0
100
AcDbCircle
 62
7
  6
CONTINUOUS
 10
13.3014362032
 20
6.4547487617
 40
0.1696926597
100
AcDbArc
 50
27.9426333936
 51
29.5195535442
  0
ARC
  5
424
100
AcDbEntity
  8
0
100
AcDbCircle
 62
7
  6
CONTINUOUS
 10
13.297482026
 20
6.4558675616
 40
0.1682346467
100
AcDbArc
 50
67.2430561666
 51
71.6823408401
  0
ARC
  5
425
100
AcDbEntity
  8
0
100
AcDbCircle
 62
7
  6
CONTINUOUS
 10
13.2991286398
 20
6.4607312515
 40
0.1630999041
100
AcDbArc
 50
71.6944929492
 51
75.9733088908
  0
ARC
  5
426
100
AcDbEntity
  8
0
100
AcDbCircle
 62
7
  6
CONTINUOUS
 10
13.2680873669
 20
6.470909941
 40
0.1624579931
100
AcDbArc
 50
22.9617261746
 51
24.8520093006
  0
ARC
  5
427
100
AcDbEntity
  8
0
100
AcDbCircle
 62
7
  6
CONTINUOUS
 10
13.3001299482
 20
6.4645852401
 40
0.1591181436
100
AcDbArc
 50
75.9867566148
 51
79.7903111231
  0
ARC
  5
428
100
AcDbEntity
  8
0
100
AcDbCircle
 62
7
  6
CONTINUOUS
 10
13.2998427987
 20
6.4525390797
 40
0.1573042081
100
AcDbArc
 50
26.1815364245
 51
27.8189244452
  0
ARC
  5
429
100
AcDbEntity
  8
0
100
AcDbCircle
 62
7
  6
CONTINUOUS
 10
13.3001282349
 20
6.4526886936
 40
0.156981939
100
AcDbArc
 50
27.8192472479
 51
28.6098585543
  0
ARC
  5
42A
100
AcDbEntity
  8
0
100
AcDbCircle
 62
7
  6
CONTINUOUS
 10
13.3018982856
 20
6.4663614654
 40
0.1568493414
100
AcDbArc
 50
65.9763246744
 51
67.2478748876
  0
ARC
  5
42B
100
AcDbEntity
  8
0
100
AcDbCircle
 62
7
  6
CONTINUOUS
 10
13.302054599
 20
6.4667130738
 40
0.1564645529
100
AcDbArc
 50
64.9323881399
 51
65.9761885956
  0
ARC
  5
42C
100
AcDbEntity
  8
0
100
AcDbCircle
 62
7
  6
CONTINUOUS
 10
13.2734041189
 20
6.4748126446
 40
0.1510473164
100
AcDbArc
 50
64.3056141336
 51
68.708851474
  0
ARC
  5
42D
100
AcDbEntity
  8
0
100
AcDbCircle
 62
7
  6
CONTINUOUS
 10
13.2671789635
 20
6.467607038
 40
0.1503946225
100
AcDbArc
 50
23.1089884697
 51
24.7627196913
  0
ARC
  5
42E
100
AcDbEntity
  8
0
100
AcDbCircle
 62
7
  6
CONTINUOUS
 10
13.283490246
 20
6.4964908347
 40
0.1271670929
100
AcDbArc
 50
48.720924568
 51
55.3091074436
  0
ARC
  5
42F
100
AcDbEntity
  8
0
100
AcDbCircle
 62
7
  6
CONTINUOUS
 10
13.2842921137
 20
6.497591237
 40
0.1258059264
100
AcDbArc
 50
55.3241505979
 51
56.1005284574
  0
ARC
  5
430
100
AcDbEntity
  8
0
100
AcDbCircle
 62
7
  6
CONTINUOUS
 10
13.2846430531
 20
6.4981259029
 40
0.1251664125
100
AcDbArc
 50
56.0973620034
 51
64.314620564
  0
ARC
  5
431
100
AcDbEntity
  8
0
100
AcDbCircle
 62
7
  6
CONTINUOUS
 10
13.481724607
 20
6.5255309651
 40
0.03
100
AcDbArc
 50
206.1472811422
 51
244.7746660915
  0
ARC
  5
432
100
AcDbEntity
  8
0
100
AcDbCircle
 62
7
  6
CONTINUOUS
 10
13.3075450691
 20
6.6263790592
 40
0.018
100
AcDbArc
 50
189.5529270708
 51
197.4530052294
  0
ARC
  5
433
100
AcDbEntity
  8
0
100
AcDbCircle
 62
7
  6
CONTINUOUS
 10
14.0165293953
 20
7.9310403505
 40
1.4
100
AcDbArc
 50
181.8945452827
 51
229.3791708116
  0
ARC
  5
434
100
AcDbEntity
  8
0
100
AcDbCircle
 62
7
  6
CONTINUOUS
 10
17.926279781
 20
8.973869932
 40
2.7692756718
100
AcDbArc
 50
38.8776451785
 51
41.2943630729
  0
ARC
  5
435
100
AcDbEntity
  8
0
100
AcDbCircle
 62
9
  6
CONTINUOUS
 10
12.0722927104
 20
10.0525851525
 40
1.1048451099
100
AcDbArc
 50
269.6646472974
 51
270.0001021519
  0
ARC
  5
436
100
AcDbEntity
  8
0
100
AcDbCircle
 62
9
  6
CONTINUOUS
 10
12.0723020955
 20
8.5859965447
 40
1.1030470209
100
AcDbArc
 50
89.5232742376
 51
90.0003851733
  0
ARC
  5
437
100
AcDbEntity
  8
0
100
AcDbCircle
 62
9
  6
CONTINUOUS
 10
12.0659840035
 20
9.6858420206
 40
0.7192909641
100
AcDbArc
 50
294.0831876294
 51
294.4767399826
  0
ARC
  5
438
100
AcDbEntity
  8
0
100
AcDbCircle
 62
9
  6
CONTINUOUS
 10
12.210541239
 20
9.268819999
 40
0.3700895929
100
AcDbArc
 50
65.4886906121
 51
66.173736635
  0
ARC
  5
439
100
AcDbEntity
  8
0
100
AcDbCircle
 62
7
  6
CONTINUOUS
 10
11.9661485433
 20
9.2937910902
 40
0.2615542647
100
AcDbArc
 50
156.3940891318
 51
159.5489284279
  0
ARC
  5
43A
100
AcDbEntity
  8
0
100
AcDbCircle
 62
7
  6
CONTINUOUS
 10
11.9649422851
 20
9.2943242156
 40
0.2602354578
100
AcDbArc
 50
152.6945076818
 51
156.3952947677
  0
ARC
  5
43B
100
AcDbEntity
  8
0
100
AcDbCircle
 62
7
  6
CONTINUOUS
 10
11.9798535735
 20
9.330823407
 40
0.2577840783
100
AcDbArc
 50
161.4586679069
 51
172.6918185438
  0
ARC
  5
43C
100
AcDbEntity
  8
0
100
AcDbCircle
 62
7
  6
CONTINUOUS
 10
11.9614514318
 20
9.2961039694
 40
0.2563171448
100
AcDbArc
 50
150.0163829626
 51
152.6900517315
  0
ARC
  5
43D
100
AcDbEntity
  8
0
100
AcDbCircle
 62
9
  6
CONTINUOUS
 10
12.2103170291
 20
9.318391804
 40
0.2471328788
100
AcDbArc
 50
351.0523781725
 51
8.9476235329
  0
ARC
  5
43E
100
AcDbEntity
  8
0
100
AcDbCircle
 62
7
  6
CONTINUOUS
 10
12.0722949555
 20
9.5778022462
 40
0.1536333433
100
AcDbArc
 50
53.6022067965
 51
126.4349336928
  0
ARC
  5
43F
100
AcDbEntity
  8
0
100
AcDbCircle
 62
7
  6
CONTINUOUS
 10
12.0722949555
 20
9.0589813619
 40
0.1536333433
100
AcDbArc
 50
233.5650663072
 51
306.3977932035
  0
ARC
  5
440
100
AcDbEntity
  8
0
100
AcDbCircle
 62
7
  6
CONTINUOUS
 10
12.4638201404
 20
8.5589820895
 40
0.06
100
AcDbArc
 50
160.7099537808
 51
191.1568174468
  0
ARC
  5
441
100
AcDbEntity
  8
0
100
AcDbCircle
 62
7
  6
CONTINUOUS
 10
12.3829031769
 20
8.6910413955
 40
0.06
100
AcDbArc
 50
340.7099537814
 51
23.4709931182
  0
ARC
  5
442
100
AcDbEntity
  8
0
100
AcDbCircle
 62
7
  6
CONTINUOUS
 10
12.4312462006
 20
8.8809979308
 40
0.06
100
AcDbArc
 50
152.4027041319
 51
203.4709931182
  0
ARC
  5
443
100
AcDbEntity
  8
0
100
AcDbCircle
 62
7
  6
CONTINUOUS
 10
12.3622946802
 20
9.0081277163
 40
0.06
100
AcDbArc
 50
332.4027041319
 51
360.0
  0
ARC
  5
444
100
AcDbEntity
  8
0
100
AcDbCircle
 62
7
  6
CONTINUOUS
 10
12.1972946802
 20
9.713391804
 40
0.02
100
AcDbArc
 50
0.0
 51
90.0
  0
ARC
  5
445
100
AcDbEntity
  8
0
100
AcDbCircle
 62
7
  6
CONTINUOUS
 10
12.3522946802
 20
9.623391804
 40
0.02
100
AcDbArc
 50
0.0
 51
90.0
  0
ARC
  5
446
100
AcDbEntity
  8
0
100
AcDbCircle
 62
7
  6
CONTINUOUS
 10
12.2722946802
 20
9.673391804
 40
0.02
100
AcDbArc
 50
0.0
 51
90.0
  0
ARC
  5
447
100
AcDbEntity
  8
0
100
AcDbCircle
 62
7
  6
CONTINUOUS
 10
21.0722946802
 20
5.2959760049
 40
6.3904157991
100
AcDbArc
 50
81.821031102
 51
98.178968898
  0
ARC
  5
448
100
AcDbEntity
  8
0
100
AcDbCircle
 62
7
  6
CONTINUOUS
 10
20.7482746722
 20
6.7038598012
 40
1.3
100
AcDbArc
 50
357.7751307226
 51
37.4382101818
  0
ARC
  5
449
100
AcDbEntity
  8
0
100
AcDbCircle
 62
7
  6
CONTINUOUS
 10
21.3963146883
 20
6.7038598012
 40
1.3
100
AcDbArc
 50
142.5617898182
 51
182.2248692774
  0
ARC
  5
44A
100
AcDbEntity
  8
0
100
AcDbCircle
 62
7
  6
CONTINUOUS
 10
20.1656001354
 20
7.6461133178
 40
0.25
100
AcDbArc
 50
322.5617898182
 51
357.849587733
  0
ARC
  5
44B
100
AcDbEntity
  8
0
100
AcDbCircle
 62
7
  6
CONTINUOUS
 10
21.978989225
 20
7.6461133178
 40
0.25
100
AcDbArc
 50
182.150412267
 51
217.4382101818
  0
ARC
  5
44C
100
AcDbEntity
  8
0
100
AcDbCircle
 62
7
  6
CONTINUOUS
 10
20.1458196223
 20
6.5823592717
 40
0.0860249421
100
AcDbArc
 50
124.3384233779
 51
180.0
  0
ARC
  5
44D
100
AcDbEntity
  8
0
100
AcDbCircle
 62
7
  6
CONTINUOUS
 10
21.9987697382
 20
6.5823592717
 40
0.0860249421
100
AcDbArc
 50
0.0
 51
55.661576622
  0
ARC
  5
44E
100
AcDbEntity
  8
0
100
AcDbCircle
 62
7
  6
CONTINUOUS
 10
24.2588317517
 20
8.9397640057
 40
2.8222288258
100
AcDbArc
 50
138.7283124504
 51
141.0996758016
  0
ARC
  5
44F
100
AcDbEntity
  8
0
100
AcDbCircle
 62
7
  6
CONTINUOUS
 10
21.6822946802
 20
9.8762249518
 40
0.15
100
AcDbArc
 50
330.0735651332
 51
360.0
  0
ARC
  5
450
100
AcDbEntity
  8
0
100
AcDbCircle
 62
7
  6
CONTINUOUS
 10
20.4622946802
 20
9.8762249518
 40
0.15
100
AcDbArc
 50
180.0
 51
209.9264348668
  0
ARC
  5
451
100
AcDbEntity
  8
0
100
AcDbCircle
 62
7
  6
CONTINUOUS
 10
20.1447946802
 20
11.411391804
 40
0.15
100
AcDbArc
 50
90.0
 51
114.6243183522
  0
ARC
  5
452
100
AcDbEntity
  8
0
100
AcDbCircle
 62
7
  6
CONTINUOUS
 10
21.9997946802
 20
11.411391804
 40
0.15
100
AcDbArc
 50
65.3756816478
 51
90.0
  0
ARC
  5
453
100
AcDbEntity
  8
0
100
AcDbCircle
 62
7
  6
CONTINUOUS
 10
21.9322946802
 20
10.4356525729
 40
0.1
100
AcDbArc
 50
135.6687919533
 51
180.0
  0
ARC
  5
454
100
AcDbEntity
  8
0
100
AcDbCircle
 62
7
  6
CONTINUOUS
 10
20.2122946802
 20
10.4356525729
 40
0.1
100
AcDbArc
 50
0.0
 51
44.3312080467
  0
ARC
  5
455
100
AcDbEntity
  8
0
100
AcDbCircle
 62
7
  6
CONTINUOUS
 10
20.1674480324
 20
11.5915451562
 40
0.0301533521
100
AcDbArc
 50
98.1789688981
 51
270.0
  0
ARC
  5
456
100
AcDbEntity
  8
0
100
AcDbCircle
 62
7
  6
CONTINUOUS
 10
21.9771413281
 20
11.5915451562
 40
0.0301533521
100
AcDbArc
 50
270.0
 51
81.8210311019
  0
ARC
  5
457
100
AcDbEntity
  8
0
100
AcDbCircle
 62
7
  6
CONTINUOUS
 10
13.4532028282
 20
24.565654729
 40
18.0315834755
100
AcDbArc
 50
269.7344833839
 51
269.8512624403
  0
SPLINE
  5
458
100
AcDbEntity
  8
0
100
AcDbSpline
 62
9
  6
CONTINUOUS
 70
0
 71
3
 72
9
 73
5
 74
0
 42
0.0000001
 43
0.0000001
 44
0.0000000001
 40
0.0
 40
0.0
 40
0.0
 40
0.0
 40
0.5080019241
 40
1.0
 40
1.0
 40
1.0
 40
1.0
 10
11.5908246162
 20
9.4159207129
 30
0.0
 10
11.5905820899
 20
9.4153088048
 30
0.0
 10
11.5901968495
 20
9.4140648133
 30
0.0
 10
11.5900326334
 20
9.4127716243
 30
0.0
 10
11.5900105728
 20
9.4121345247
 30
0.0
  0
LINE
  5
459
100
AcDbEntity
  8
0
100
AcDbLine
 62
7
  6
CONTINUOUS
 10
10.6845804926
 20
6.534171472
 11
10.6847136182
 21
6.5341538692
  0
LINE
  5
45A
100
AcDbEntity
  8
0
100
AcDbLine
 62
7
  6
CONTINUOUS
 10
22.0649874896
 20
11.5462125045
 11
22.0622948402
 21
11.5477514991
  0
SPLINE
  5
45B
100
AcDbEntity
  8
0
100
AcDbSpline
 62
7
  6
CONTINUOUS
 70
0
 71
3
 72
11
 73
7
 74
0
 42
0.0000001
 43
0.0000001
 44
0.0000000001
 40
0.0
 40
0.0
 40
0.0
 40
0.0
 40
0.2620272681
 40
0.5196986062
 40
0.7673411416
 40
1.0
 40
1.0
 40
1.0
 40
1.0
 10
20.4329256367
 20
11.411391804
 30
0.0
 10
20.4329256367
 20
11.417202874
 30
0.0
 10
20.4330053068
 20
11.4287284371
 30
0.0
 10
20.4332786236
 20
11.4457440018
 30
0.0
 10
20.4336278971
 20
11.4621063803
 30
0.0
 10
20.4337677383
 20
11.4727579476
 30
0.0
 10
20.4337665977
 20
11.477917704
 30
0.0
  0
SPLINE
  5
45C
100
AcDbEntity
  8
0
100
AcDbSpline
 62
7
  6
CONTINUOUS
 70
0
 71
3
 72
42
 73
38
 74
0
 42
0.0000001
 43
0.0000001
 44
0.0000000001
 40
0.0
 40
0.0
 40
0.0
 40
0.0
 40
0.0984095975
 40
0.1963679357
 40
0.2929048897
 40
0.3871155445
 40
0.4330606954
 40
0.4780501269
 40
0.5645316538
 40
0.6452487429
 40
0.7190723884
 40
0.7850371914
 40
0.8148103513
 40
0.8424037027
 40
0.8677911463
 40
0.8909342343
 40
0.9118071934
 40
0.9304290935
 40
0.9468196455
 40
0.9609923211
 40
0.9729548934
 40
0.9781098105
 40
0.9827160213
 40
0.9867752096
 40
0.9902889919
 40
0.9932589174
 40
0.9956864677
 40
0.9966972977
 40
0.9975730592
 40
0.9983139194
 40
0.9989200418
 40
0.9993915881
 40
0.9997287202
 40
0.9998469179
 40
0.9999315276
 40
0.9999825424
 40
1.0
 40
1.0
 40
1.0
 40
1.0
 10
20.0069170761
 20
11.411391804
 30
0.0
 10
20.0069170761
 20
11.416741725
 30
0.0
 10
20.007439247
 20
11.4274235259
 30
0.0
 10
20.0097175917
 20
11.4432065586
 30
0.0
 10
20.0134495775
 20
11.4584759379
 30
0.0
 10
20.0176654317
 20
11.4706543577
 30
0.0
 10
20.0216154644
 20
11.479915564
 30
0.0
 10
20.0258087894
 20
11.4886044953
 30
0.0
 10
20.0315011105
 20
11.4986559062
 30
0.0
 10
20.0389254418
 20
11.5094714825
 30
0.0
 10
20.0465146644
 20
11.5187668439
 30
0.0
 10
20.0528733597
 20
11.5254529488
 30
0.0
 10
20.057755308
 20
11.5300503007
 30
0.0
 10
20.0611330671
 20
11.5330231198
 30
0.0
 10
20.0643248226
 20
11.535658288
 30
0.0
 10
20.0673028506
 20
11.5379757656
 30
0.0
 10
20.0700440617
 20
11.5399966331
 30
0.0
 10
20.0725340682
 20
11.5417378951
 30
0.0
 10
20.0747603624
 20
11.5432192725
 30
0.0
 10
20.0767112046
 20
11.5444600525
 30
0.0
 10
20.0781609561
 20
11.5453499877
 30
0.0
 10
20.079173071
 20
11.5459585574
 30
0.0
 10
20.0798193561
 20
11.5463417188
 30
0.0
 10
20.0803909184
 20
11.5466759446
 30
0.0
 10
20.0808873995
 20
11.5469623254
 30
0.0
 10
20.0813084248
 20
11.547201973
 30
0.0
 10
20.081612131
 20
11.5473726597
 30
0.0
 10
20.0818170239
 20
11.547486778
 30
0.0
 10
20.081941977
 20
11.5475560029
 30
0.0
 10
20.0820477411
 20
11.5476143911
 30
0.0
 10
20.0821344591
 20
11.5476620157
 30
0.0
 10
20.0822015879
 20
11.5476991757
 30
0.0
 10
20.0822462255
 20
11.5477233773
 30
0.0
 10
20.0822710968
 20
11.5477379836
 30
0.0
 10
20.0822842769
 20
11.5477444316
 30
0.0
 10
20.0822893371
 20
11.5477493244
 30
0.0
 10
20.0822947266
 20
11.5477505727
 30
0.0
 10
20.0822945202
 20
11.5477514991
 30
0.0
  0
LINE
  5
45D
100
AcDbEntity
  8
0
100
AcDbLine
 62
7
  6
CONTINUOUS
 10
20.082127828
 20
10.7120318763
 11
20.0822945103
 21
10.7118251082
  0
LINE
  5
45E
100
AcDbEntity
  8
0
100
AcDbLine
 62
7
  6
CONTINUOUS
 10
22.0624615324
 20
10.7120318763
 11
22.0622948501
 21
10.7118251082
  0
SPLINE
  5
45F
100
AcDbEntity
  8
0
100
AcDbSpline
 62
7
  6
CONTINUOUS
 70
0
 71
3
 72
11
 73
7
 74
0
 42
0.0000001
 43
0.0000001
 44
0.0000000001
 40
0.0
 40
0.0
 40
0.0
 40
0.0
 40
0.2326553732
 40
0.4802832509
 40
0.7379544541
 40
1.0
 40
1.0
 40
1.0
 40
1.0
 10
21.7108228991
 20
11.4779175145
 30
0.0
 10
21.7108221306
 20
11.4727578503
 30
0.0
 10
21.7109616597
 20
11.4621067193
 30
0.0
 10
21.7113106603
 20
11.4457447846
 30
0.0
 10
21.7115842676
 20
11.4287291969
 30
0.0
 10
21.7116637237
 20
11.4172032626
 30
0.0
 10
21.7116637237
 20
11.411391804
 30
0.0
  0
LINE
  5
460
100
AcDbEntity
  8
0
100
AcDbLine
 62
7
  6
CONTINUOUS
 10
20.0822945202
 20
11.5477514991
 11
20.079049319
 21
11.5458818648
  0
SPLINE
  5
461
100
AcDbEntity
  8
0
100
AcDbSpline
 62
7
  6
CONTINUOUS
 70
0
 71
3
 72
41
 73
37
 74
0
 42
0.0000001
 43
0.0000001
 44
0.0000000001
 40
0.0
 40
0.0
 40
0.0
 40
0.0
 40
0.0000163822
 40
0.0000663336
 40
0.0001499273
 40
0.0002671865
 40
0.0006027715
 40
0.0010732216
 40
0.0016786649
 40
0.0024192297
 40
0.0032950456
 40
0.0043062437
 40
0.0067353166
 40
0.0097075311
 40
0.0132239952
 40
0.0172858442
 40
0.0218942406
 40
0.0270503022
 40
0.0390096048
 40
0.0531747223
 40
0.0695613015
 40
0.0881901299
 40
0.1090863761
 40
0.1322476186
 40
0.1576381427
 40
0.2150036317
 40
0.2810102459
 40
0.3548536211
 40
0.4355733167
 40
0.522056747
 40
0.5670443445
 40
0.6129829996
 40
0.7071683183
 40
0.8036754483
 40
0.9016093055
 40
1.0
 40
1.0
 40
1.0
 40
1.0
 10
22.0622948402
 20
11.5477514991
 30
0.0
 10
22.0622950339
 20
11.5477523683
 30
0.0
 10
22.0622999506
 20
11.5477480996
 30
0.0
 10
22.0623056038
 20
11.547747068
 30
0.0
 10
22.062318604
 20
11.5477392331
 30
0.0
 10
22.0623437938
 20
11.5477264699
 30
0.0
 10
22.0623883732
 20
11.5477019224
 30
0.0
 10
22.0624555143
 20
11.5476654746
 30
0.0
 10
22.0625420811
 20
11.5476176872
 30
0.0
 10
22.0626476598
 20
11.5475591136
 30
0.0
 10
22.0627723675
 20
11.5474894201
 30
0.0
 10
22.0629768922
 20
11.5473744373
 30
0.0
 10
22.0632800942
 20
11.5472023974
 30
0.0
 10
22.0637006392
 20
11.5469612083
 30
0.0
 10
22.0641969029
 20
11.5466736335
 30
0.0
 10
22.0647686641
 20
11.5463389509
 30
0.0
 10
22.0654157271
 20
11.5459564805
 30
0.0
 10
22.0664296963
 20
11.5453510195
 30
0.0
 10
22.0678805396
 20
11.544463856
 30
0.0
 10
22.0698299926
 20
11.5432223847
 30
0.0
 10
22.0720546122
 20
11.5417389803
 30
0.0
 10
22.0745443808
 20
11.5399949608
 30
0.0
 10
22.0772884374
 20
11.5379736174
 30
0.0
 10
22.0802695816
 20
11.5356561861
 30
0.0
 10
22.0847105402
 20
11.5319899577
 30
0.0
 10
22.0906887634
 20
11.52653349
 30
0.0
 10
22.0980819237
 20
11.5187560647
 30
0.0
 10
22.1056736374
 20
11.5094579958
 30
0.0
 10
22.1130981312
 20
11.4986410711
 30
0.0
 10
22.1187881715
 20
11.4885882678
 30
0.0
 10
22.1229805965
 20
11.4798994069
 30
0.0
 10
22.1269302205
 20
11.4706400885
 30
0.0
 10
22.1311432451
 20
11.4584642999
 30
0.0
 10
22.1348731468
 20
11.443199054
 30
0.0
 10
22.1371504718
 20
11.4274200208
 30
0.0
 10
22.1376722844
 20
11.4167406573
 30
0.0
 10
22.1376722844
 20
11.411391804
 30
0.0
  0
SPLINE
  5
462
100
AcDbEntity
  8
0
100
AcDbSpline
 62
7
  6
CONTINUOUS
 70
0
 71
3
 72
30
 73
26
 74
0
 42
0.0000001
 43
0.0000001
 44
0.0000000001
 40
0.0
 40
0.0
 40
0.0
 40
0.0
 40
0.0503501048
 40
0.0983957483
 40
0.1444140007
 40
0.1668860936
 40
0.1891621741
 40
0.2114333292
 40
0.2339413523
 40
0.2569715588
 40
0.2808299449
 40
0.3058175931
 40
0.332195944
 40
0.3601537665
 40
0.3897908859
 40
0.4211158928
 40
0.4540554835
 40
0.4884762776
 40
0.5242102494
 40
0.5988626942
 40
0.6766468461
 40
0.7564110551
 40
0.8372850828
 40
0.9186418773
 40
1.0
 40
1.0
 40
1.0
 40
1.0
 10
21.7108227652
 20
10.7854649766
 30
0.0
 10
21.7108228806
 20
10.7804000889
 30
0.0
 10
21.7113551057
 20
10.770487967
 30
0.0
 10
21.7140660366
 20
10.7561672437
 30
0.0
 10
21.7181399414
 20
10.7450943655
 30
0.0
 10
21.7225868595
 20
10.7371013449
 30
0.0
 10
21.7265179127
 20
10.7316046789
 30
0.0
 10
21.7310991435
 20
10.7266289469
 30
0.0
 10
21.7363524329
 20
10.7222457985
 30
0.0
 10
21.7422895104
 20
10.7185322825
 30
0.0
 10
21.7489058007
 20
10.7155620335
 30
0.0
 10
21.7561793796
 20
10.7133995256
 30
0.0
 10
21.7640708912
 20
10.7120949104
 30
0.0
 10
21.7725242659
 20
10.7116767702
 30
0.0
 10
21.7814702709
 20
10.7121511494
 30
0.0
 10
21.7908303852
 20
10.7135024416
 30
0.0
 10
21.8005215929
 20
10.7156945959
 30
0.0
 10
21.810462465
 20
10.7186741741
 30
0.0
 10
21.8241467902
 20
10.7236873964
 30
0.0
 10
21.8413792447
 20
10.7315919416
 30
0.0
 10
21.8617849018
 20
10.7429944828
 30
0.0
 10
21.8819536043
 20
10.7559973335
 30
0.0
 10
21.9017162675
 20
10.7702258537
 30
0.0
 10
21.9209716563
 20
10.7853901425
 30
0.0
 10
21.9334484796
 20
10.7959905203
 30
0.0
 10
21.9395970936
 20
10.801391804
 30
0.0
  0
SPLINE
  5
463
100
AcDbEntity
  8
0
100
AcDbSpline
 62
7
  6
CONTINUOUS
 70
0
 71
3
 72
24
 73
20
 74
0
 42
0.0000001
 43
0.0000001
 44
0.0000000001
 40
0.0
 40
0.0
 40
0.0
 40
0.0
 40
0.1318143456
 40
0.1968455659
 40
0.2607520655
 40
0.3233105433
 40
0.3844526515
 40
0.4442278364
 40
0.4737162776
 40
0.5030227171
 40
0.5613734234
 40
0.5906388392
 40
0.6200862924
 40
0.6798109685
 40
0.7410300994
 40
0.8039148936
 40
0.8683477301
 40
0.9339385139
 40
1.0
 40
1.0
 40
1.0
 40
1.0
 10
21.0722946802
 20
11.5477507055
 30
0.0
 10
21.0616259797
 20
11.5477507055
 30
0.0
 10
21.0456780338
 20
11.5471048625
 30
0.0
 10
21.024704885
 20
11.5446831883
 30
0.0
 10
21.0094274156
 20
11.5420044416
 30
0.0
 10
20.9946882094
 20
11.5382849317
 30
0.0
 10
20.9806509983
 20
11.5333698156
 30
0.0
 10
20.9696362454
 20
11.5281115883
 30
0.0
 10
20.9614138636
 20
11.5231492157
 30
0.0
 10
20.9536478341
 20
11.5176998107
 30
0.0
 10
20.9464901644
 20
11.5114495824
 30
0.0
 10
20.9400796262
 20
11.5044629555
 30
0.0
 10
20.9341393433
 20
11.4969290379
 30
0.0
 10
20.9276604937
 20
11.4865745007
 30
0.0
 10
20.9214603242
 20
11.4730090937
 30
0.0
 10
20.9167634759
 20
11.4584584618
 30
0.0
 10
20.9134826826
 20
11.4431698837
 30
0.0
 10
20.9115454505
 20
11.4273994218
 30
0.0
 10
20.9111214488
 20
11.416738644
 30
0.0
 10
20.9111214488
 20
11.411391804
 30
0.0
  0
SPLINE
  5
464
100
AcDbEntity
  8
0
100
AcDbSpline
 62
7
  6
CONTINUOUS
 70
0
 71
3
 72
39
 73
35
 74
0
 42
0.0000001
 43
0.0000001
 44
0.0000000001
 40
0.0
 40
0.0
 40
0.0
 40
0.0
 40
0.0394029962
 40
0.078888011
 40
0.1183734596
 40
0.157830592
 40
0.1972750268
 40
0.2367297164
 40
0.2761643855
 40
0.2958575977
 40
0.3155153355
 40
0.3546686718
 40
0.3934911201
 40
0.4317746276
 40
0.4693668224
 40
0.5416337298
 40
0.5760004704
 40
0.6089497746
 40
0.6403336216
 40
0.6700385817
 40
0.6979478016
 40
0.7239812046
 40
0.7481041177
 40
0.7703392853
 40
0.7908484237
 40
0.8099729287
 40
0.8282850712
 40
0.8466423684
 40
0.8660350422
 40
0.8873745507
 40
0.9112536656
 40
0.9380111962
 40
0.9676767666
 40
1.0
 40
1.0
 40
1.0
 40
1.0
 10
21.9395970936
 20
11.411391804
 30
0.0
 10
21.9395970936
 20
11.4160171367
 30
0.0
 10
21.9390933713
 20
11.4252850016
 30
0.0
 10
21.9368479725
 20
11.4390238969
 30
0.0
 10
21.9331128981
 20
11.4524442185
 30
0.0
 10
21.9279148756
 20
11.4653629939
 30
0.0
 10
21.9213146154
 20
11.4776221153
 30
0.0
 10
21.9133703065
 20
11.4890515964
 30
0.0
 10
21.9057471612
 20
11.4977907244
 30
0.0
 10
21.8991216713
 20
11.5042486199
 30
0.0
 10
21.8921824864
 20
11.5103182844
 30
0.0
 10
21.8829829831
 20
11.5171875633
 30
0.0
 10
21.8713103263
 20
11.5242935918
 30
0.0
 10
21.8592210402
 20
11.5302577314
 30
0.0
 10
21.8430559607
 20
11.5367043265
 30
0.0
 10
21.8267220359
 20
11.5413527073
 30
0.0
 10
21.8106364584
 20
11.5444925376
 30
0.0
 10
21.7991654967
 20
11.5461545042
 30
0.0
 10
21.7881753622
 20
11.5472295116
 30
0.0
 10
21.7777377597
 20
11.5477558579
 30
0.0
 10
21.7679147848
 20
11.5477883876
 30
0.0
 10
21.7587576585
 20
11.5473114008
 30
0.0
 10
21.7503136748
 20
11.5462903791
 30
0.0
 10
21.7426157543
 20
11.5446962348
 30
0.0
 10
21.7356955722
 20
11.5424280875
 30
0.0
 10
21.7295859458
 20
11.5393675215
 30
0.0
 10
21.7243349997
 20
11.5353813662
 30
0.0
 10
21.7199962792
 20
11.5303690837
 30
0.0
 10
21.7166024418
 20
11.5242697859
 30
0.0
 10
21.7141283099
 20
11.5170692814
 30
0.0
 10
21.7124253729
 20
11.5087773503
 30
0.0
 10
21.7113922352
 20
11.4993985728
 30
0.0
 10
21.7108961883
 20
11.4889890288
 30
0.0
 10
21.7108234643
 20
11.481711787
 30
0.0
 10
21.7108228991
 20
11.4779175145
 30
0.0
  0
SPLINE
  5
465
100
AcDbEntity
  8
0
100
AcDbSpline
 62
7
  6
CONTINUOUS
 70
0
 71
3
 72
30
 73
26
 74
0
 42
0.0000001
 43
0.0000001
 44
0.0000000001
 40
0.0
 40
0.0
 40
0.0
 40
0.0
 40
0.0813579648
 40
0.1627145702
 40
0.24358855
 40
0.3233527154
 40
0.4011369189
 40
0.475789417
 40
0.511523556
 40
0.5459443825
 40
0.5788838937
 40
0.6102089641
 40
0.6398461314
 40
0.6678039287
 40
0.694182256
 40
0.7191699704
 40
0.7430283631
 40
0.7660584722
 40
0.7885664924
 40
0.8108376439
 40
0.8331137287
 40
0.8555858041
 40
0.9016040902
 40
0.9496497684
 40
1.0
 40
1.0
 40
1.0
 40
1.0
 10
20.2049922669
 20
10.801391804
 30
0.0
 10
20.2111408689
 20
10.7959905308
 30
0.0
 10
20.2236176672
 20
10.7853901777
 30
0.0
 10
20.2428730219
 20
10.7702259102
 30
0.0
 10
20.2626356584
 20
10.7559974015
 30
0.0
 10
20.2828043526
 20
10.7429945453
 30
0.0
 10
20.3032100121
 20
10.7315919967
 30
0.0
 10
20.320442486
 20
10.7236874273
 30
0.0
 10
20.334126836
 20
10.7186741995
 30
0.0
 10
20.3440677154
 20
10.7156946033
 30
0.0
 10
20.3537589262
 20
10.7135024553
 30
0.0
 10
20.3631190418
 20
10.7121511521
 30
0.0
 10
20.3720650558
 20
10.71167677
 30
0.0
 10
20.3805184297
 20
10.7120949092
 30
0.0
 10
20.3884099459
 20
10.7133995113
 30
0.0
 10
20.3956835263
 20
10.7155620301
 30
0.0
 10
20.4022998224
 20
10.7185322595
 30
0.0
 10
20.4082368906
 20
10.7222457735
 30
0.0
 10
20.4134901748
 20
10.7266289109
 30
0.0
 10
20.4180714139
 20
10.7316046349
 30
0.0
 10
20.4220024711
 20
10.7371012962
 30
0.0
 10
20.4264493952
 20
10.7450943157
 30
0.0
 10
20.4305233117
 20
10.7561671949
 30
0.0
 10
20.4332342565
 20
10.7704879361
 30
0.0
 10
20.4337664806
 20
10.7804000744
 30
0.0
 10
20.4337665972
 20
10.7854649749
 30
0.0
  0
SPLINE
  5
466
100
AcDbEntity
  8
0
100
AcDbSpline
 62
7
  6
CONTINUOUS
 70
0
 71
3
 72
38
 73
34
 74
0
 42
0.0000001
 43
0.0000001
 44
0.0000000001
 40
0.0
 40
0.0
 40
0.0
 40
0.0
 40
0.0323250957
 40
0.0619899921
 40
0.0887493738
 40
0.1126265516
 40
0.1339577176
 40
0.1533421642
 40
0.1716943481
 40
0.1900042791
 40
0.2091183237
 40
0.2296148571
 40
0.2518454082
 40
0.2759586918
 40
0.3019852291
 40
0.3298934633
 40
0.3595943405
 40
0.3909846266
 40
0.4582960899
 40
0.4939144367
 40
0.5306407784
 40
0.5682481428
 40
0.6065507909
 40
0.6453965764
 40
0.6845678432
 40
0.7042320611
 40
0.7239303813
 40
0.763373381
 40
0.802834644
 40
0.8422807752
 40
0.8817364217
 40
0.9212211723
 40
1.0
 40
1.0
 40
1.0
 40
1.0
 10
20.4337665977
 20
11.477917704
 30
0.0
 10
20.433765759
 20
11.4817118107
 30
0.0
 10
20.4336925766
 20
11.4889884506
 30
0.0
 10
20.4331964563
 20
11.4993972693
 30
0.0
 10
20.4321651957
 20
11.5087751518
 30
0.0
 10
20.4304644831
 20
11.5170657122
 30
0.0
 10
20.4279902657
 20
11.5242632219
 30
0.0
 10
20.4245983398
 20
11.5303593408
 30
0.0
 10
20.4202665253
 20
11.535374257
 30
0.0
 10
20.4150178702
 20
11.5393594982
 30
0.0
 10
20.4089113028
 20
11.5424178877
 30
0.0
 10
20.401995631
 20
11.5446858591
 30
0.0
 10
20.394303919
 20
11.5462906865
 30
0.0
 10
20.3858624586
 20
11.5473080086
 30
0.0
 10
20.3767084782
 20
11.5477815652
 30
0.0
 10
20.3668879119
 20
11.5477634947
 30
0.0
 10
20.3564508935
 20
11.5472318939
 30
0.0
 10
20.3414485261
 20
11.5457609725
 30
0.0
 10
20.3258704779
 20
11.5431379078
 30
0.0
 10
20.3099749493
 20
11.539102754
 30
0.0
 10
20.2976749768
 20
11.5351653024
 30
0.0
 10
20.2853828021
 20
11.530266203
 30
0.0
 10
20.2732898567
 20
11.5242981753
 30
0.0
 10
20.2616126774
 20
11.5171885027
 30
0.0
 10
20.2524087067
 20
11.5103179067
 30
0.0
 10
20.2454665672
 20
11.5042477568
 30
0.0
 10
20.2388396277
 20
11.4977892916
 30
0.0
 10
20.2312170192
 20
11.4890481246
 30
0.0
 10
20.2232727708
 20
11.477617863
 30
0.0
 10
20.2166722656
 20
11.4653602465
 30
0.0
 10
20.2114754428
 20
11.452439908
 30
0.0
 10
20.2065035747
 20
11.4345812621
 30
0.0
 10
20.2049922669
 20
11.420638344
 30
0.0
 10
20.2049922669
 20
11.411391804
 30
0.0
  0
SPLINE
  5
467
100
AcDbEntity
  8
0
100
AcDbSpline
 62
7
  6
CONTINUOUS
 70
0
 71
3
 72
13
 73
9
 74
0
 42
0.0000001
 43
0.0000001
 44
0.0000000001
 40
0.0
 40
0.0
 40
0.0
 40
0.0
 40
0.1361919399
 40
0.2704629428
 40
0.4014873292
 40
0.5286684132
 40
0.7711438764
 40
1.0
 40
1.0
 40
1.0
 40
1.0
 10
21.0722946802
 20
10.7118248749
 30
0.0
 10
21.0636183706
 20
10.7118248749
 30
0.0
 10
21.0463591189
 20
10.7131595144
 30
0.0
 10
21.0213582156
 20
10.7189541391
 30
0.0
 10
20.9979573839
 20
10.7279796925
 30
0.0
 10
20.9698359104
 20
10.7431793181
 30
0.0
 10
20.9395841461
 20
10.7668722983
 30
0.0
 10
20.9197383917
 20
10.7896311245
 30
0.0
 10
20.9111214488
 20
10.801391804
 30
0.0
  0
SPLINE
  5
468
100
AcDbEntity
  8
0
100
AcDbSpline
 62
7
  6
CONTINUOUS
 70
0
 71
3
 72
13
 73
9
 74
0
 42
0.0000001
 43
0.0000001
 44
0.0000000001
 40
0.0
 40
0.0
 40
0.0
 40
0.0
 40
0.1361907866
 40
0.2704613608
 40
0.4014854859
 40
0.5286666612
 40
0.7711427232
 40
1.0
 40
1.0
 40
1.0
 40
1.0
 10
21.0722946802
 20
10.7118248749
 30
0.0
 10
21.0809709164
 20
10.7118248749
 30
0.0
 10
21.098230068
 20
10.7131594844
 30
0.0
 10
21.1232308619
 20
10.7189540608
 30
0.0
 10
21.1466316743
 20
10.7279795558
 30
0.0
 10
21.1747531992
 20
10.7431791445
 30
0.0
 10
21.2050050979
 20
10.7668721502
 30
0.0
 10
21.2248509253
 20
10.7896310652
 30
0.0
 10
21.2334679117
 20
10.801391804
 30
0.0
  0
SPLINE
  5
469
100
AcDbEntity
  8
0
100
AcDbSpline
 62
7
  6
CONTINUOUS
 70
0
 71
3
 72
23
 73
19
 74
0
 42
0.0000001
 43
0.0000001
 44
0.0000000001
 40
0.0
 40
0.0
 40
0.0
 40
0.0
 40
0.0661003919
 40
0.1317078099
 40
0.1961398138
 40
0.2590257613
 40
0.3202511251
 40
0.3799631949
 40
0.4386288139
 40
0.4678093951
 40
0.4969998124
 40
0.5557544063
 40
0.6155270947
 40
0.6766511356
 40
0.7392223812
 40
0.8031247917
 40
0.8681449741
 40
1.0
 40
1.0
 40
1.0
 40
1.0
 10
21.2334679117
 20
11.411391804
 30
0.0
 10
21.2334679117
 20
11.4167416263
 30
0.0
 10
21.2330431671
 20
11.4274065792
 30
0.0
 10
21.2311048581
 20
11.4431807879
 30
0.0
 10
21.2278233512
 20
11.45847039
 30
0.0
 10
21.2231220987
 20
11.4730190967
 30
0.0
 10
21.2169261485
 20
11.4865867467
 30
0.0
 10
21.2091907929
 20
11.4989479807
 30
0.0
 10
21.2014248814
 20
11.5080825972
 30
0.0
 10
21.1945270815
 20
11.5145852105
 30
0.0
 10
21.1871619755
 20
11.5205656069
 30
0.0
 10
21.1770897049
 20
11.5270813361
 30
0.0
 10
21.163945656
 20
11.5333751818
 30
0.0
 10
21.1499050315
 20
11.5382836636
 30
0.0
 10
21.1351667348
 20
11.5419980332
 30
0.0
 10
21.1198912567
 20
11.544685376
 30
0.0
 10
21.0989157051
 20
11.5470991898
 30
0.0
 10
21.082966341
 20
11.5477507055
 30
0.0
 10
21.0722946802
 20
11.5477507055
 30
0.0
  0
SPLINE
  5
46A
100
AcDbEntity
  8
0
100
AcDbSpline
 62
7
  6
CONTINUOUS
 70
0
 71
3
 72
12
 73
8
 74
0
 42
0.0000001
 43
0.0000001
 44
0.0000000001
 40
0.0
 40
0.0
 40
0.0
 40
0.0
 40
0.2825568108
 40
0.5513627118
 40
0.7937077035
 40
0.9018046153
 40
1.0
 40
1.0
 40
1.0
 40
1.0
 10
12.0722946802
 20
9.7066931642
 30
0.0
 10
12.0807581535
 20
9.7066931642
 30
0.0
 10
12.0972742305
 20
9.7064762703
 30
0.0
 10
12.1210314579
 20
9.7055098188
 30
0.0
 10
12.1395362194
 20
9.7041667354
 30
0.0
 10
12.1529008408
 20
9.7027533142
 30
0.0
 10
12.1590275431
 20
9.7019416564
 30
0.0
 10
12.161936131
 20
9.7015044527
 30
0.0
  0
SPLINE
  5
46B
100
AcDbEntity
  8
0
100
AcDbSpline
 62
7
  6
CONTINUOUS
 70
0
 71
3
 72
20
 73
16
 74
0
 42
0.0000001
 43
0.0000001
 44
0.0000000001
 40
0.0
 40
0.0
 40
0.0
 40
0.0
 40
0.1264858987
 40
0.2411278537
 40
0.3457538291
 40
0.3954548381
 40
0.4446716546
 40
0.4951719577
 40
0.5488168003
 40
0.6074224067
 40
0.6734317258
 40
0.7478729612
 40
0.827927079
 40
0.9119828112
 40
1.0
 40
1.0
 40
1.0
 40
1.0
 10
12.161936131
 20
9.7015044527
 30
0.0
 10
12.1641802978
 20
9.7011671214
 30
0.0
 10
12.1684501694
 20
9.7004653371
 30
0.0
 10
12.1745321609
 20
9.6992360779
 30
0.0
 10
12.17921139
 20
9.6980419411
 30
0.0
 10
12.182696306
 20
9.6969473406
 30
0.0
 10
12.1852159901
 20
9.6960278262
 30
0.0
 10
12.1877390671
 20
9.6949259801
 30
0.0
 10
12.1903405787
 20
9.6935937512
 30
0.0
 10
12.1930299179
 20
9.6918472185
 30
0.0
 10
12.1957302196
 20
9.6894903973
 30
0.0
 10
12.1983083333
 20
9.6864689993
 30
0.0
 10
12.2005040477
 20
9.6827630477
 30
0.0
 10
12.2019542639
 20
9.6784427916
 30
0.0
 10
12.2022946802
 20
9.6753451393
 30
0.0
 10
12.2022946802
 20
9.6737659571
 30
0.0
  0
SPLINE
  5
46C
100
AcDbEntity
  8
0
100
AcDbSpline
 62
7
  6
CONTINUOUS
 70
0
 71
3
 72
22
 73
18
 74
0
 42
0.0000001
 43
0.0000001
 44
0.0000000001
 40
0.0
 40
0.0
 40
0.0
 40
0.0
 40
0.0892180274
 40
0.1738286042
 40
0.214602101
 40
0.2543172318
 40
0.3303094708
 40
0.40057969
 40
0.4630956531
 40
0.5189960566
 40
0.5709139967
 40
0.6209809362
 40
0.670544173
 40
0.7205196927
 40
0.7717950888
 40
0.8808197203
 40
1.0
 40
1.0
 40
1.0
 40
1.0
 10
11.9422946802
 20
9.6737659571
 30
0.0
 10
11.9422946802
 20
9.675229989
 30
0.0
 10
11.9425834533
 20
9.678090826
 30
0.0
 10
11.9436304313
 20
9.6814770628
 30
0.0
 10
11.9447966351
 20
9.6839264447
 30
0.0
 10
11.9461150916
 20
9.6861336731
 30
0.0
 10
11.9480059512
 20
9.6885465245
 30
0.0
 10
11.9504801593
 20
9.6909285412
 30
0.0
 10
11.9529497032
 20
9.6928074505
 30
0.0
 10
11.9553577487
 20
9.6942377476
 30
0.0
 10
11.9577076554
 20
9.6953350173
 30
0.0
 10
11.9600183358
 20
9.6962561244
 30
0.0
 10
11.9623319546
 20
9.6970789075
 30
0.0
 10
11.9646950463
 20
9.6978160155
 30
0.0
 10
11.9680223827
 20
9.698731729
 30
0.0
 10
11.9724943083
 20
9.6997582001
 30
0.0
 10
11.9761766762
 20
9.7004432068
 30
0.0
 10
11.9781042844
 20
9.7007734954
 30
0.0
  0
SPLINE
  5
46D
100
AcDbEntity
  8
0
100
AcDbSpline
 62
7
  6
CONTINUOUS
 70
0
 71
3
 72
13
 73
9
 74
0
 42
0.0000001
 43
0.0000001
 44
0.0000000001
 40
0.0
 40
0.0
 40
0.0
 40
0.0
 40
0.0944997328
 40
0.2000154286
 40
0.315911444
 40
0.4409465636
 40
0.7124654835
 40
1.0
 40
1.0
 40
1.0
 40
1.0
 10
11.9781042844
 20
9.7007734954
 30
0.0
 10
11.9810372439
 20
9.7012760472
 30
0.0
 10
11.9872681957
 20
9.7022059398
 30
0.0
 10
11.9971493022
 20
9.7033649383
 30
0.0
 10
12.0080136552
 20
9.7043646984
 30
0.0
 10
12.0241105168
 20
9.7055086449
 30
0.0
 10
12.0456355719
 20
9.7064455511
 30
0.0
 10
12.0632405026
 20
9.7066931642
 30
0.0
 10
12.0722946802
 20
9.7066931642
 30
0.0
  0
SPLINE
  5
46E
100
AcDbEntity
  8
0
100
AcDbSpline
 62
7
  6
CONTINUOUS
 70
0
 71
3
 72
12
 73
8
 74
0
 42
0.0000001
 43
0.0000001
 44
0.0000000001
 40
0.0
 40
0.0
 40
0.0
 40
0.0
 40
0.2825568108
 40
0.5513627118
 40
0.7937077035
 40
0.9018046153
 40
1.0
 40
1.0
 40
1.0
 40
1.0
 10
12.0722946802
 20
8.9300904439
 30
0.0
 10
12.0807581535
 20
8.9300904439
 30
0.0
 10
12.0972742305
 20
8.9303073377
 30
0.0
 10
12.1210314579
 20
8.9312737893
 30
0.0
 10
12.1395362194
 20
8.9326168727
 30
0.0
 10
12.1529008408
 20
8.9340302939
 30
0.0
 10
12.1590275431
 20
8.9348419517
 30
0.0
 10
12.161936131
 20
8.9352791554
 30
0.0
  0
SPLINE
  5
46F
100
AcDbEntity
  8
0
100
AcDbSpline
 62
7
  6
CONTINUOUS
 70
0
 71
3
 72
20
 73
16
 74
0
 42
0.0000001
 43
0.0000001
 44
0.0000000001
 40
0.0
 40
0.0
 40
0.0
 40
0.0
 40
0.1264858987
 40
0.2411278537
 40
0.3457538291
 40
0.3954548381
 40
0.4446716546
 40
0.4951719577
 40
0.5488168003
 40
0.6074224067
 40
0.6734317258
 40
0.7478729612
 40
0.827927079
 40
0.9119828112
 40
1.0
 40
1.0
 40
1.0
 40
1.0
 10
12.161936131
 20
8.9352791554
 30
0.0
 10
12.1641802978
 20
8.9356164867
 30
0.0
 10
12.1684501694
 20
8.936318271
 30
0.0
 10
12.1745321609
 20
8.9375475302
 30
0.0
 10
12.17921139
 20
8.938741667
 30
0.0
 10
12.182696306
 20
8.9398362675
 30
0.0
 10
12.1852159901
 20
8.9407557819
 30
0.0
 10
12.1877390671
 20
8.941857628
 30
0.0
 10
12.1903405787
 20
8.9431898569
 30
0.0
 10
12.1930299179
 20
8.9449363896
 30
0.0
 10
12.1957302196
 20
8.9472932108
 30
0.0
 10
12.1983083333
 20
8.9503146088
 30
0.0
 10
12.2005040477
 20
8.9540205604
 30
0.0
 10
12.2019542639
 20
8.9583408165
 30
0.0
 10
12.2022946802
 20
8.9614384688
 30
0.0
 10
12.2022946802
 20
8.963017651
 30
0.0
  0
SPLINE
  5
470
100
AcDbEntity
  8
0
100
AcDbSpline
 62
7
  6
CONTINUOUS
 70
0
 71
3
 72
22
 73
18
 74
0
 42
0.0000001
 43
0.0000001
 44
0.0000000001
 40
0.0
 40
0.0
 40
0.0
 40
0.0
 40
0.0892180274
 40
0.1738286042
 40
0.214602101
 40
0.2543172318
 40
0.3303094708
 40
0.40057969
 40
0.4630956531
 40
0.5189960566
 40
0.5709139967
 40
0.6209809362
 40
0.670544173
 40
0.7205196927
 40
0.7717950888
 40
0.8808197203
 40
1.0
 40
1.0
 40
1.0
 40
1.0
 10
11.9422946802
 20
8.963017651
 30
0.0
 10
11.9422946802
 20
8.9615536191
 30
0.0
 10
11.9425834533
 20
8.9586927821
 30
0.0
 10
11.9436304313
 20
8.9553065453
 30
0.0
 10
11.9447966351
 20
8.9528571634
 30
0.0
 10
11.9461150916
 20
8.950649935
 30
0.0
 10
11.9480059512
 20
8.9482370836
 30
0.0
 10
11.9504801593
 20
8.9458550669
 30
0.0
 10
11.9529497032
 20
8.9439761576
 30
0.0
 10
11.9553577487
 20
8.9425458605
 30
0.0
 10
11.9577076554
 20
8.9414485908
 30
0.0
 10
11.9600183358
 20
8.9405274837
 30
0.0
 10
11.9623319546
 20
8.9397047006
 30
0.0
 10
11.9646950463
 20
8.9389675926
 30
0.0
 10
11.9680223827
 20
8.9380518791
 30
0.0
 10
11.9724943083
 20
8.937025408
 30
0.0
 10
11.9761766762
 20
8.9363404013
 30
0.0
 10
11.9781042844
 20
8.9360101127
 30
0.0
  0
SPLINE
  5
471
100
AcDbEntity
  8
0
100
AcDbSpline
 62
7
  6
CONTINUOUS
 70
0
 71
3
 72
13
 73
9
 74
0
 42
0.0000001
 43
0.0000001
 44
0.0000000001
 40
0.0
 40
0.0
 40
0.0
 40
0.0
 40
0.0944997328
 40
0.2000154286
 40
0.315911444
 40
0.4409465636
 40
0.7124654835
 40
1.0
 40
1.0
 40
1.0
 40
1.0
 10
11.9781042844
 20
8.9360101127
 30
0.0
 10
11.9810372439
 20
8.9355075609
 30
0.0
 10
11.9872681957
 20
8.9345776683
 30
0.0
 10
11.9971493022
 20
8.9334186698
 30
0.0
 10
12.0080136552
 20
8.9324189097
 30
0.0
 10
12.0241105168
 20
8.9312749632
 30
0.0
 10
12.0456355719
 20
8.930338057
 30
0.0
 10
12.0632405026
 20
8.9300904439
 30
0.0
 10
12.0722946802
 20
8.9300904439
 30
0.0
  0
SPLINE
  5
472
100
AcDbEntity
  8
0
100
AcDbSpline
 62
7
  6
CONTINUOUS
 70
0
 71
3
 72
12
 73
8
 74
0
 42
0.0000001
 43
0.0000001
 44
0.0000000001
 40
0.0
 40
0.0
 40
0.0
 40
0.0
 40
0.2482896536
 40
0.3733979278
 40
0.4987213434
 40
0.7494703178
 40
1.0
 40
1.0
 40
1.0
 40
1.0
 10
11.7484964958
 20
9.2162707185
 30
0.0
 10
11.7429676431
 20
9.2275123632
 30
0.0
 10
11.7359015561
 20
9.2450733335
 30
0.0
 10
11.7291005115
 20
9.269316422
 30
0.0
 10
11.7240665753
 20
9.2941194071
 30
0.0
 10
11.7211771092
 20
9.3257181347
 30
0.0
 10
11.7225551715
 20
9.3510772025
 30
0.0
 10
11.7241636587
 20
9.3636151511
 30
0.0
  0
SPLINE
  5
473
100
AcDbEntity
  8
0
100
AcDbSpline
 62
7
  6
CONTINUOUS
 70
0
 71
3
 72
12
 73
8
 74
0
 42
0.0000001
 43
0.0000001
 44
0.0000000001
 40
0.0
 40
0.0
 40
0.0
 40
0.0
 40
0.2484646778
 40
0.37360668
 40
0.4989384051
 40
0.7496240397
 40
1.0
 40
1.0
 40
1.0
 40
1.0
 10
11.7127352491
 20
9.2283406618
 30
0.0
 10
11.7094386139
 20
9.2411224072
 30
0.0
 10
11.705966896
 20
9.2607682859
 30
0.0
 10
11.7043449862
 20
9.287243258
 30
0.0
 10
11.7047457974
 20
9.3138891326
 30
0.0
 10
11.7090329605
 20
9.3470222227
 30
0.0
 10
11.716432181
 20
9.3727168777
 30
0.0
 10
11.7210798055
 20
9.3851800782
 30
0.0
  0
SPLINE
  5
474
100
AcDbEntity
  8
0
100
AcDbSpline
 62
7
  6
CONTINUOUS
 70
0
 71
3
 72
12
 73
8
 74
0
 42
0.0000001
 43
0.0000001
 44
0.0000000001
 40
0.0
 40
0.0
 40
0.0
 40
0.0
 40
0.2484647055
 40
0.3736067248
 40
0.4989384638
 40
0.7496240971
 40
1.0
 40
1.0
 40
1.0
 40
1.0
 10
11.6793671082
 20
9.2283406618
 30
0.0
 10
11.6760703992
 20
9.2411226932
 30
0.0
 10
11.6725986364
 20
9.2607690222
 30
0.0
 10
11.6709768033
 20
9.2872445946
 30
0.0
 10
11.6713777813
 20
9.3138910627
 30
0.0
 10
11.6756653197
 20
9.347024858
 30
0.0
 10
11.6830650109
 20
9.3727199994
 30
0.0
 10
11.6877129076
 20
9.3851834112
 30
0.0
  0
SPLINE
  5
475
100
AcDbEntity
  8
0
100
AcDbSpline
 62
7
  6
CONTINUOUS
 70
0
 71
3
 72
13
 73
9
 74
0
 42
0.0000001
 43
0.0000001
 44
0.0000000001
 40
0.0
 40
0.0
 40
0.0
 40
0.0
 40
0.1239580497
 40
0.2487477219
 40
0.4990874937
 40
0.7497216274
 40
0.8749996472
 40
1.0
 40
1.0
 40
1.0
 40
1.0
 10
11.6459989673
 20
9.2283406618
 30
0.0
 10
11.6442157597
 20
9.235254531
 30
0.0
 10
11.641221228
 20
9.2492870695
 30
0.0
 10
11.63755158
 20
9.2778259657
 30
0.0
 10
11.6374178871
 20
9.314045826
 30
0.0
 10
11.6432213811
 20
9.3498245037
 30
0.0
 10
11.651315303
 20
9.3775462345
 30
0.0
 10
11.6564951802
 20
9.3910216373
 30
0.0
 10
11.6593537156
 20
9.3976300525
 30
0.0
  0
SPLINE
  5
476
100
AcDbEntity
  8
0
100
AcDbSpline
 62
7
  6
CONTINUOUS
 70
0
 71
3
 72
13
 73
9
 74
0
 42
0.0000001
 43
0.0000001
 44
0.0000000001
 40
0.0
 40
0.0
 40
0.0
 40
0.0
 40
0.1239358926
 40
0.248729008
 40
0.4990948047
 40
0.7497523925
 40
0.8750299329
 40
1.0
 40
1.0
 40
1.0
 40
1.0
 10
11.6152945442
 20
9.2269891393
 30
0.0
 10
11.613343504
 20
9.2339137033
 30
0.0
 10
11.6100197739
 20
9.2479855991
 30
0.0
 10
11.6057261507
 20
9.2766638645
 30
0.0
 10
11.6048883189
 20
9.313162275
 30
0.0
 10
11.6101107538
 20
9.3493212638
 30
0.0
 10
11.6178225903
 20
9.3773841063
 30
0.0
 10
11.622839152
 20
9.3910390107
 30
0.0
 10
11.6256227806
 20
9.3977378845
 30
0.0
  0
SPLINE
  5
477
100
AcDbEntity
  8
0
100
AcDbSpline
 62
7
  6
CONTINUOUS
 70
0
 71
3
 72
13
 73
9
 74
0
 42
0.0000001
 43
0.0000001
 44
0.0000000001
 40
0.0
 40
0.0
 40
0.0
 40
0.0
 40
0.1240419613
 40
0.249018905
 40
0.4996597431
 40
0.6252274503
 40
0.7506797569
 40
1.0
 40
1.0
 40
1.0
 40
1.0
 10
11.5963527547
 20
9.2239021144
 30
0.0
 10
11.5937866757
 20
9.2314942283
 30
0.0
 10
11.5893628626
 20
9.24699377
 30
0.0
 10
11.5834285516
 20
9.2787595687
 30
0.0
 10
11.5820034299
 20
9.3113350687
 30
0.0
 10
11.5851161565
 20
9.3436350577
 30
0.0
 10
11.591195739
 20
9.3754188669
 30
0.0
 10
11.599088169
 20
9.398507417
 30
0.0
 10
11.6057143499
 20
9.4131893936
 30
0.0
  0
SPLINE
  5
478
100
AcDbEntity
  8
0
100
AcDbSpline
 62
7
  6
CONTINUOUS
 70
0
 71
3
 72
12
 73
8
 74
0
 42
0.0000001
 43
0.0000001
 44
0.0000000001
 40
0.0
 40
0.0
 40
0.0
 40
0.0
 40
0.1241606246
 40
0.2492432009
 40
0.5000413586
 40
0.750876122
 40
1.0
 40
1.0
 40
1.0
 40
1.0
 10
11.5903198496
 20
9.2221431831
 30
0.0
 10
11.5873610681
 20
9.229730495
 30
0.0
 10
11.5821604865
 20
9.2452621635
 30
0.0
 10
11.5747387101
 20
9.2772489008
 30
0.0
 10
11.5712474615
 20
9.3184841867
 30
0.0
 10
11.576439599
 20
9.3677285741
 30
0.0
 10
11.586061537
 20
9.3993282191
 30
0.0
 10
11.5923081836
 20
9.4144273538
 30
0.0
  0
SPLINE
  5
479
100
AcDbEntity
  8
0
100
AcDbSpline
 62
7
  6
CONTINUOUS
 70
0
 71
3
 72
9
 73
5
 74
0
 42
0.0000001
 43
0.0000001
 44
0.0000000001
 40
0.0
 40
0.0
 40
0.0
 40
0.0
 40
0.5004431465
 40
1.0
 40
1.0
 40
1.0
 40
1.0
 10
10.736856165
 20
6.5886667187
 30
0.0
 10
10.7274357793
 20
6.5821661153
 30
0.0
 10
10.7097467027
 20
6.5674430657
 30
0.0
 10
10.6950806953
 20
6.549695784
 30
0.0
 10
10.6886641152
 20
6.540242456
 30
0.0
  0
LINE
  5
47A
100
AcDbEntity
  8
0
100
AcDbLine
 62
7
  6
CONTINUOUS
 10
10.8238662438
 20
6.621171796
 11
10.8187752533
 21
6.6207008112
  0
LINE
  5
47B
100
AcDbEntity
  8
0
100
AcDbLine
 62
7
  6
CONTINUOUS
 10
10.8183331792
 20
6.6206430056
 11
10.8083200324
 21
6.618979943
  0
LINE
  5
47C
100
AcDbEntity
  8
0
100
AcDbLine
 62
7
  6
CONTINUOUS
 10
10.8382068768
 20
6.6211855444
 11
10.8238660668
 21
6.6211720087
  0
SPLINE
  5
47D
100
AcDbEntity
  8
0
100
AcDbSpline
 62
7
  6
CONTINUOUS
 70
0
 71
3
 72
11
 73
7
 74
0
 42
0.0000001
 43
0.0000001
 44
0.0000000001
 40
0.0
 40
0.0
 40
0.0
 40
0.0
 40
0.2533802142
 40
0.5040854393
 40
0.7527093275
 40
1.0
 40
1.0
 40
1.0
 40
1.0
 10
10.7813298133
 20
6.6039886469
 30
0.0
 10
10.7727644996
 20
6.6001320026
 30
0.0
 10
10.7561974365
 20
6.5913522586
 30
0.0
 10
10.7333942107
 20
6.5751308061
 30
0.0
 10
10.7131322971
 20
6.5561534738
 30
0.0
 10
10.7015225379
 20
6.5418064603
 30
0.0
 10
10.6962773404
 20
6.5342874262
 30
0.0
  0
SPLINE
  5
47E
100
AcDbEntity
  8
0
100
AcDbSpline
 62
7
  6
CONTINUOUS
 70
0
 71
3
 72
10
 73
6
 74
0
 42
0.0000001
 43
0.0000001
 44
0.0000000001
 40
0.0
 40
0.0
 40
0.0
 40
0.0
 40
0.1893029023
 40
0.4202255327
 40
1.0
 40
1.0
 40
1.0
 40
1.0
 10
10.8534771788
 20
6.621171796
 30
0.0
 10
10.8528445861
 20
6.6211717953
 30
0.0
 10
10.8514403285
 20
6.6211390256
 30
0.0
 10
10.8481029795
 20
6.6209639286
 30
0.0
 10
10.8454034705
 20
6.620723958
 30
0.0
 10
10.8434763106
 20
6.6205247344
 30
0.0
  0
LINE
  5
47F
100
AcDbEntity
  8
0
100
AcDbLine
 62
7
  6
CONTINUOUS
 10
10.8768441137
 20
6.6211839198
 11
10.868440169
 21
6.6211773123
  0
LINE
  5
480
100
AcDbEntity
  8
0
100
AcDbLine
 62
7
  6
CONTINUOUS
 10
10.868440169
 20
6.6211773123
 11
10.8534770369
 21
6.6211719707
  0
SPLINE
  5
481
100
AcDbEntity
  8
0
100
AcDbSpline
 62
7
  6
CONTINUOUS
 70
0
 71
3
 72
11
 73
7
 74
0
 42
0.0000001
 43
0.0000001
 44
0.0000000001
 40
0.0
 40
0.0
 40
0.0
 40
0.0
 40
0.2540501803
 40
0.5052424901
 40
0.7538316758
 40
1.0
 40
1.0
 40
1.0
 40
1.0
 10
10.8311314575
 20
6.6065065177
 30
0.0
 10
10.8214418444
 20
6.6026856541
 30
0.0
 10
10.8026320301
 20
6.5938513333
 30
0.0
 10
10.7765127858
 20
6.5771696453
 30
0.0
 10
10.7530789503
 20
6.5573804819
 30
0.0
 10
10.7394645135
 20
6.5422372609
 30
0.0
 10
10.7332760685
 20
6.534264585
 30
0.0
  0
SPLINE
  5
482
100
AcDbEntity
  8
0
100
AcDbSpline
 62
7
  6
CONTINUOUS
 70
0
 71
3
 72
11
 73
7
 74
0
 42
0.0000001
 43
0.0000001
 44
0.0000000001
 40
0.0
 40
0.0
 40
0.0
 40
0.0
 40
0.1824979367
 40
0.413904772
 40
0.6885748967
 40
1.0
 40
1.0
 40
1.0
 40
1.0
 10
10.9023095939
 20
6.621171796
 30
0.0
 10
10.9008078919
 20
6.6211717946
 30
0.0
 10
10.8974022668
 20
6.6210609922
 30
0.0
 10
10.8917489699
 20
6.620671556
 30
0.0
 10
10.8850541211
 20
6.620004541
 30
0.0
 10
10.8802719485
 20
6.6193720727
 30
0.0
 10
10.8777374221
 20
6.6189938507
 30
0.0
  0
SPLINE
  5
483
100
AcDbEntity
  8
0
100
AcDbSpline
 62
7
  6
CONTINUOUS
 70
0
 71
3
 72
9
 73
5
 74
0
 42
0.0000001
 43
0.0000001
 44
0.0000000001
 40
0.0
 40
0.0
 40
0.0
 40
0.0
 40
0.2421576791
 40
1.0
 40
1.0
 40
1.0
 40
1.0
 10
10.8601446414
 20
6.6156431463
 30
0.0
 10
10.8584817215
 20
6.615254367
 30
0.0
 10
10.8516349148
 20
6.613564201
 30
0.0
 10
10.8448738455
 20
6.6115195411
 30
0.0
 10
10.8398313472
 20
6.6097483789
 30
0.0
  0
LINE
  5
484
100
AcDbEntity
  8
0
100
AcDbLine
 62
7
  6
CONTINUOUS
 10
10.9380283446
 20
6.6211855444
 11
10.902309428
 21
6.6211720087
  0
SPLINE
  5
485
100
AcDbEntity
  8
0
100
AcDbSpline
 62
7
  6
CONTINUOUS
 70
0
 71
3
 72
9
 73
5
 74
0
 42
0.0000001
 43
0.0000001
 44
0.0000000001
 40
0.0
 40
0.0
 40
0.0
 40
0.0
 40
0.5046035618
 40
1.0
 40
1.0
 40
1.0
 40
1.0
 10
10.8794675116
 20
6.6039886469
 30
0.0
 10
10.8609867458
 20
6.5963008595
 30
0.0
 10
10.8259972898
 20
6.5767666892
 30
0.0
 10
10.7966160878
 20
6.549426396
 30
0.0
 10
10.7840875056
 20
6.5342874262
 30
0.0
  0
SPLINE
  5
486
100
AcDbEntity
  8
0
100
AcDbSpline
 62
7
  6
CONTINUOUS
 70
0
 71
3
 72
9
 73
5
 74
0
 42
0.0000001
 43
0.0000001
 44
0.0000000001
 40
0.0
 40
0.0
 40
0.0
 40
0.0
 40
0.4563672883
 40
1.0
 40
1.0
 40
1.0
 40
1.0
 10
10.9695933727
 20
6.621171796
 30
0.0
 10
10.9671656702
 20
6.6211717946
 30
0.0
 10
10.9618459985
 20
6.6210434971
 30
0.0
 10
10.9565344282
 20
6.6207345
 30
0.0
 10
10.9536501241
 20
6.6205247344
 30
0.0
  0
SPLINE
  5
487
100
AcDbEntity
  8
0
100
AcDbSpline
 62
7
  6
CONTINUOUS
 70
0
 71
3
 72
9
 73
5
 74
0
 42
0.0000001
 43
0.0000001
 44
0.0000000001
 40
0.0
 40
0.0
 40
0.0
 40
0.0
 40
0.2396881749
 40
1.0
 40
1.0
 40
1.0
 40
1.0
 10
10.931459656
 20
6.6180533749
 30
0.0
 10
10.9294493127
 20
6.6177490138
 30
0.0
 10
10.9210767008
 20
6.6163857597
 30
0.0
 10
10.9127681641
 20
6.6146133791
 30
0.0
 10
10.9065245427
 20
6.6129962086
 30
0.0
  0
LINE
  5
488
100
AcDbEntity
  8
0
100
AcDbLine
 62
7
  6
CONTINUOUS
 10
11.0120449291
 20
6.6211839199
 11
10.9695932443
 21
6.6211719707
  0
SPLINE
  5
489
100
AcDbEntity
  8
0
100
AcDbSpline
 62
7
  6
CONTINUOUS
 70
0
 71
3
 72
9
 73
5
 74
0
 42
0.0000001
 43
0.0000001
 44
0.0000000001
 40
0.0
 40
0.0
 40
0.0
 40
0.0
 40
0.5032417393
 40
1.0
 40
1.0
 40
1.0
 40
1.0
 10
10.9624440918
 20
6.6029247618
 30
0.0
 10
10.9440005644
 20
6.5951960386
 30
0.0
 10
10.9089168458
 20
6.5757917711
 30
0.0
 10
10.8789604963
 20
6.5490759196
 30
0.0
 10
10.8659112233
 20
6.534264585
 30
0.0
  0
SPLINE
  5
48A
100
AcDbEntity
  8
0
100
AcDbSpline
 62
7
  6
CONTINUOUS
 70
0
 71
3
 72
12
 73
8
 74
0
 42
0.0000001
 43
0.0000001
 44
0.0000000001
 40
0.0
 40
0.0
 40
0.0
 40
0.0
 40
0.0921615184
 40
0.1983654929
 40
0.4429299326
 40
0.7150525329
 40
1.0
 40
1.0
 40
1.0
 40
1.0
 10
11.0542674098
 20
6.621171796
 30
0.0
 10
11.0519653028
 20
6.6211717946
 30
0.0
 10
11.0470101393
 20
6.6210692417
 30
0.0
 10
11.0359598097
 20
6.6205007378
 30
0.0
 10
11.0204605931
 20
6.619008328
 30
0.0
 10
11.0006972669
 20
6.6156664195
 30
0.0
 10
10.9872294107
 20
6.6120289527
 30
0.0
 10
10.980486943
 20
6.6097483789
 30
0.0
  0
LINE
  5
48B
100
AcDbEntity
  8
0
100
AcDbLine
 62
7
  6
CONTINUOUS
 10
11.1091199378
 20
6.6211855444
 11
11.0542672655
 21
6.6211720087
  0
SPLINE
  5
48C
100
AcDbEntity
  8
0
100
AcDbSpline
 62
7
  6
CONTINUOUS
 70
0
 71
3
 72
10
 73
6
 74
0
 42
0.0000001
 43
0.0000001
 44
0.0000000001
 40
0.0
 40
0.0
 40
0.0
 40
0.0
 40
0.2506020708
 40
0.5014579781
 40
1.0
 40
1.0
 40
1.0
 40
1.0
 10
11.0525549278
 20
6.6039886469
 30
0.0
 10
11.0430886146
 20
6.6001024065
 30
0.0
 10
11.024559597
 20
6.5912611997
 30
0.0
 10
10.989799459
 20
6.5697458239
 30
0.0
 10
10.9665050008
 20
6.5493771124
 30
0.0
 10
10.9528404653
 20
6.5342874262
 30
0.0
  0
SPLINE
  5
48D
100
AcDbEntity
  8
0
100
AcDbSpline
 62
7
  6
CONTINUOUS
 70
0
 71
3
 72
13
 73
9
 74
0
 42
0.0000001
 43
0.0000001
 44
0.0000000001
 40
0.0
 40
0.0
 40
0.0
 40
0.0
 40
0.1001144539
 40
0.2118001579
 40
0.4598748836
 40
0.7267738282
 40
0.8633695412
 40
1.0
 40
1.0
 40
1.0
 40
1.0
 10
11.1549963452
 20
6.621171796
 30
0.0
 10
11.1515102743
 20
6.6211717946
 30
0.0
 10
11.1441348345
 20
6.6210417596
 30
0.0
 10
11.1281380072
 20
6.6202815473
 30
0.0
 10
11.1063970932
 20
6.6182243091
 30
0.0
 10
11.0840313844
 20
6.6141309136
 30
0.0
 10
11.0659148616
 20
6.6090333974
 30
0.0
 10
11.0569560716
 20
6.6057954647
 30
0.0
 10
11.0525549278
 20
6.6039886469
 30
0.0
  0
LINE
  5
48E
100
AcDbEntity
  8
0
100
AcDbLine
 62
7
  6
CONTINUOUS
 10
11.2138651355
 20
6.6211839202
 11
11.1549962385
 21
6.6211719705
  0
SPLINE
  5
48F
100
AcDbEntity
  8
0
100
AcDbSpline
 62
7
  6
CONTINUOUS
 70
0
 71
3
 72
11
 73
7
 74
0
 42
0.0000001
 43
0.0000001
 44
0.0000000001
 40
0.0
 40
0.0
 40
0.0
 40
0.0
 40
0.2473051907
 40
0.4972169939
 40
0.7485431939
 40
1.0
 40
1.0
 40
1.0
 40
1.0
 10
11.1897448343
 20
6.6097483789
 30
0.0
 10
11.1789079295
 20
6.6059858143
 30
0.0
 10
11.1575813899
 20
6.5970228965
 30
0.0
 10
11.1273612746
 20
6.5797624192
 30
0.0
 10
11.0992646176
 20
6.5589007447
 30
0.0
 10
11.0822935653
 20
6.5428037291
 30
0.0
 10
11.0743478875
 20
6.534264585
 30
0.0
  0
SPLINE
  5
490
100
AcDbEntity
  8
0
100
AcDbSpline
 62
7
  6
CONTINUOUS
 70
0
 71
3
 72
13
 73
9
 74
0
 42
0.0000001
 43
0.0000001
 44
0.0000000001
 40
0.0
 40
0.0
 40
0.0
 40
0.0
 40
0.107145497
 40
0.2237773988
 40
0.4755351534
 40
0.7383246723
 40
0.8700302411
 40
1.0
 40
1.0
 40
1.0
 40
1.0
 10
11.2701916232
 20
6.621171796
 30
0.0
 10
11.2672776826
 20
6.6211717947
 30
0.0
 10
11.2611915353
 20
6.6210772326
 30
0.0
 10
11.2482693745
 20
6.6205281169
 30
0.0
 10
11.2311540164
 20
6.6190882305
 30
0.0
 10
11.2137686546
 20
6.6163323882
 30
0.0
 10
11.19989422
 20
6.6129953655
 30
0.0
 10
11.1930839694
 20
6.6109077239
 30
0.0
 10
11.1897448343
 20
6.6097483789
 30
0.0
  0
LINE
  5
491
100
AcDbEntity
  8
0
100
AcDbLine
 62
7
  6
CONTINUOUS
 10
11.3407313423
 20
6.6211855449
 11
11.2701915096
 21
6.6211720085
  0
SPLINE
  5
492
100
AcDbEntity
  8
0
100
AcDbSpline
 62
7
  6
CONTINUOUS
 70
0
 71
3
 72
11
 73
7
 74
0
 42
0.0000001
 43
0.0000001
 44
0.0000000001
 40
0.0
 40
0.0
 40
0.0
 40
0.0
 40
0.2451384935
 40
0.4942677213
 40
0.7462970605
 40
1.0
 40
1.0
 40
1.0
 40
1.0
 10
11.289716343
 20
6.6039886469
 30
0.0
 10
11.2806484678
 20
6.600071201
 30
0.0
 10
11.262790036
 20
6.5911524401
 30
0.0
 10
11.2373934022
 20
6.5749528971
 30
0.0
 10
11.2135157988
 20
6.556027885
 30
0.0
 10
11.1988813125
 20
6.541785996
 30
0.0
 10
11.1919328504
 20
6.5342874262
 30
0.0
  0
SPLINE
  5
493
100
AcDbEntity
  8
0
100
AcDbSpline
 62
7
  6
CONTINUOUS
 70
0
 71
3
 72
13
 73
9
 74
0
 42
0.0000001
 43
0.0000001
 44
0.0000000001
 40
0.0
 40
0.0
 40
0.0
 40
0.0
 40
0.1136948921
 40
0.2347289991
 40
0.4890002449
 40
0.7473432057
 40
0.874962131
 40
1.0
 40
1.0
 40
1.0
 40
1.0
 10
11.3980365456
 20
6.621171796
 30
0.0
 10
11.3938541622
 20
6.6211717946
 30
0.0
 10
11.3852189468
 20
6.6210504907
 30
0.0
 10
11.3672441021
 20
6.6203130095
 30
0.0
 10
11.3440025299
 20
6.6183273822
 30
0.0
 10
11.320751183
 20
6.6142272854
 30
0.0
 10
11.3026563892
 20
6.6090787035
 30
0.0
 10
11.2939388049
 20
6.6058128081
 30
0.0
 10
11.289716343
 20
6.6039886469
 30
0.0
  0
LINE
  5
494
100
AcDbEntity
  8
0
100
AcDbLine
 62
7
  6
CONTINUOUS
 10
11.4696236276
 20
6.6211839202
 11
11.3980364672
 21
6.6211719705
  0
SPLINE
  5
495
100
AcDbEntity
  8
0
100
AcDbSpline
 62
7
  6
CONTINUOUS
 70
0
 71
3
 72
9
 73
5
 74
0
 42
0.0000001
 43
0.0000001
 44
0.0000000001
 40
0.0
 40
0.0
 40
0.0
 40
0.0
 40
0.2463855188
 40
1.0
 40
1.0
 40
1.0
 40
1.0
 10
11.4544565782
 20
6.6097483789
 30
0.0
 10
11.4518405748
 20
6.6087510198
 30
0.0
 10
11.4412942405
 20
6.6045179307
 30
0.0
 10
11.4310385709
 20
6.599567204
 30
0.0
 10
11.423508798
 20
6.595488849
 30
0.0
  0
SPLINE
  5
496
100
AcDbEntity
  8
0
100
AcDbSpline
 62
7
  6
CONTINUOUS
 70
0
 71
3
 72
10
 73
6
 74
0
 42
0.0000001
 43
0.0000001
 44
0.0000000001
 40
0.0
 40
0.0
 40
0.0
 40
0.0
 40
0.4929090924
 40
0.745230345
 40
1.0
 40
1.0
 40
1.0
 40
1.0
 10
11.4156146259
 20
6.5910444483
 30
0.0
 10
11.4027766292
 20
6.5835395749
 30
0.0
 10
11.3842293199
 20
6.5706330607
 30
0.0
 10
11.3614810939
 20
6.550793952
 30
0.0
 10
11.350697807
 20
6.5399168701
 30
0.0
 10
11.3454892188
 20
6.534264585
 30
0.0
  0
SPLINE
  5
497
100
AcDbEntity
  8
0
100
AcDbSpline
 62
7
  6
CONTINUOUS
 70
0
 71
3
 72
13
 73
9
 74
0
 42
0.0000001
 43
0.0000001
 44
0.0000000001
 40
0.0
 40
0.0
 40
0.0
 40
0.0
 40
0.2462624339
 40
0.5041891178
 40
0.632524504
 40
0.7586339767
 40
0.8814768248
 40
1.0
 40
1.0
 40
1.0
 40
1.0
 10
11.5365149216
 20
6.621171796
 30
0.0
 10
11.5296805746
 20
6.6211717933
 30
0.0
 10
11.515687114
 20
6.6208092306
 30
0.0
 10
11.4981731386
 20
6.619433775
 30
0.0
 10
11.4840842882
 20
6.6174781404
 30
0.0
 10
11.473791518
 20
6.6155273084
 30
0.0
 10
11.4638976553
 20
6.6130269615
 30
0.0
 10
11.4575300717
 20
6.6109201574
 30
0.0
 10
11.4544565782
 20
6.6097483789
 30
0.0
  0
LINE
  5
498
100
AcDbEntity
  8
0
100
AcDbLine
 62
7
  6
CONTINUOUS
 10
11.6183095619
 20
6.6211855448
 11
11.5365148457
 21
6.6211720085
  0
SPLINE
  5
499
100
AcDbEntity
  8
0
100
AcDbSpline
 62
7
  6
CONTINUOUS
 70
0
 71
3
 72
11
 73
7
 74
0
 42
0.0000001
 43
0.0000001
 44
0.0000000001
 40
0.0
 40
0.0
 40
0.0
 40
0.0
 40
0.2385544401
 40
0.4855058382
 40
0.7398169263
 40
1.0
 40
1.0
 40
1.0
 40
1.0
 10
11.5693425531
 20
6.6005821996
 30
0.0
 10
11.5618343957
 20
6.596621599
 30
0.0
 10
11.5469608288
 20
6.5877692521
 30
0.0
 10
11.525662677
 20
6.572237954
 30
0.0
 10
11.5052341216
 20
6.5543887366
 30
0.0
 10
11.4924948931
 20
6.5412051334
 30
0.0
 10
11.486341607
 20
6.5342874262
 30
0.0
  0
SPLINE
  5
49A
100
AcDbEntity
  8
0
100
AcDbSpline
 62
7
  6
CONTINUOUS
 70
0
 71
3
 72
11
 73
7
 74
0
 42
0.0000001
 43
0.0000001
 44
0.0000000001
 40
0.0
 40
0.0
 40
0.0
 40
0.0
 40
0.2456414968
 40
0.4977399259
 40
0.7505473082
 40
1.0
 40
1.0
 40
1.0
 40
1.0
 10
11.6834428644
 20
6.621171796
 30
0.0
 10
11.6783385915
 20
6.6211717945
 30
0.0
 10
11.6679953473
 20
6.6210311809
 30
0.0
 10
11.6524108645
 20
6.6203734853
 30
0.0
 10
11.6367781772
 20
6.6191735837
 30
0.0
 10
11.626414073
 20
6.6178948374
 30
0.0
 10
11.6212913799
 20
6.6171034167
 30
0.0
  0
SPLINE
  5
49B
100
AcDbEntity
  8
0
100
AcDbSpline
 62
7
  6
CONTINUOUS
 70
0
 71
3
 72
10
 73
6
 74
0
 42
0.0000001
 43
0.0000001
 44
0.0000000001
 40
0.0
 40
0.0
 40
0.0
 40
0.0
 40
0.5148324933
 40
0.7616025129
 40
1.0
 40
1.0
 40
1.0
 40
1.0
 10
11.6190026162
 20
6.6167388795
 30
0.0
 10
11.611391983
 20
6.6154897412
 30
0.0
 10
11.6001958378
 20
6.6131043837
 30
0.0
 10
11.5859567784
 20
6.6084111437
 30
0.0
 10
11.5792592767
 20
6.6055555182
 30
0.0
 10
11.5760500332
 20
6.6039886469
 30
0.0
  0
LINE
  5
49C
100
AcDbEntity
  8
0
100
AcDbLine
 62
7
  6
CONTINUOUS
 10
11.7632501583
 20
6.6211839202
 11
11.6834428192
 21
6.6211719705
  0
SPLINE
  5
49D
100
AcDbEntity
  8
0
100
AcDbSpline
 62
7
  6
CONTINUOUS
 70
0
 71
3
 72
9
 73
5
 74
0
 42
0.0000001
 43
0.0000001
 44
0.0000000001
 40
0.0
 40
0.0
 40
0.0
 40
0.0
 40
0.4882354322
 40
1.0
 40
1.0
 40
1.0
 40
1.0
 10
11.7579893624
 20
6.6097483789
 30
0.0
 10
11.7522047509
 20
6.6071200392
 30
0.0
 10
11.7406154671
 20
6.60115554
 30
0.0
 10
11.7295789587
 20
6.5942306797
 30
0.0
 10
11.7240762309
 20
6.5904790569
 30
0.0
  0
SPLINE
  5
49E
100
AcDbEntity
  8
0
100
AcDbSpline
 62
7
  6
CONTINUOUS
 70
0
 71
3
 72
10
 73
6
 74
0
 42
0.0000001
 43
0.0000001
 44
0.0000000001
 40
0.0
 40
0.0
 40
0.0
 40
0.0
 40
0.4843391323
 40
0.7389001864
 40
1.0
 40
1.0
 40
1.0
 40
1.0
 10
11.7240762309
 20
6.5904790569
 30
0.0
 10
11.7129074369
 20
6.5828644511
 30
0.0
 10
11.6967401856
 20
6.5699214563
 30
0.0
 10
11.6767172919
 20
6.5504667305
 30
0.0
 10
11.6670326722
 20
6.5398043197
 30
0.0
 10
11.6622984103
 20
6.534264585
 30
0.0
  0
SPLINE
  5
49F
100
AcDbEntity
  8
0
100
AcDbSpline
 62
7
  6
CONTINUOUS
 70
0
 71
3
 72
12
 73
8
 74
0
 42
0.0000001
 43
0.0000001
 44
0.0000000001
 40
0.0
 40
0.0
 40
0.0
 40
0.0
 40
0.2635599603
 40
0.5246075759
 40
0.650517581
 40
0.7720720775
 40
1.0
 40
1.0
 40
1.0
 40
1.0
 10
11.8365032327
 20
6.621171796
 30
0.0
 10
11.8302192442
 20
6.6211717937
 30
0.0
 10
11.8177100231
 20
6.6209141098
 30
0.0
 10
11.8022255686
 20
6.6198745379
 30
0.0
 10
11.7901848861
 20
6.618417138
 30
0.0
 10
11.7790034576
 20
6.6165589071
 30
0.0
 10
11.7708855603
 20
6.6145387086
 30
0.0
 10
11.7657389602
 20
6.612793582
 30
0.0
  0
LINE
  5
4A0
100
AcDbEntity
  8
0
100
AcDbLine
 62
7
  6
CONTINUOUS
 10
11.7648412944
 20
6.6124841962
 11
11.7579893624
 21
6.6097483789
  0
LINE
  5
4A1
100
AcDbEntity
  8
0
100
AcDbLine
 62
7
  6
CONTINUOUS
 10
11.9244133363
 20
6.6211855449
 11
11.8365031993
 21
6.6211720085
  0
SPLINE
  5
4A2
100
AcDbEntity
  8
0
100
AcDbSpline
 62
7
  6
CONTINUOUS
 70
0
 71
3
 72
9
 73
5
 74
0
 42
0.0000001
 43
0.0000001
 44
0.0000000001
 40
0.0
 40
0.0
 40
0.0
 40
0.0
 40
0.4870491499
 40
1.0
 40
1.0
 40
1.0
 40
1.0
 10
11.8935645997
 20
6.6039886469
 30
0.0
 10
11.8891467237
 20
6.6013159005
 30
0.0
 10
11.8802916432
 20
6.5954669672
 30
0.0
 10
11.8718603858
 20
6.589026645
 30
0.0
 10
11.8676411755
 20
6.5855958139
 30
0.0
  0
SPLINE
  5
4A3
100
AcDbEntity
  8
0
100
AcDbSpline
 62
7
  6
CONTINUOUS
 70
0
 71
3
 72
9
 73
5
 74
0
 42
0.0000001
 43
0.0000001
 44
0.0000000001
 40
0.0
 40
0.0
 40
0.0
 40
0.0
 40
0.4818569976
 40
1.0
 40
1.0
 40
1.0
 40
1.0
 10
11.8676411755
 20
6.5855958139
 30
0.0
 10
11.85869411
 20
6.5783205497
 30
0.0
 10
11.8410850096
 20
6.5620253384
 30
0.0
 10
11.8252932923
 20
6.5439869386
 30
0.0
 10
11.8175679502
 20
6.5342874262
 30
0.0
  0
SPLINE
  5
4A4
100
AcDbEntity
  8
0
100
AcDbSpline
 62
7
  6
CONTINUOUS
 70
0
 71
3
 72
11
 73
7
 74
0
 42
0.0000001
 43
0.0000001
 44
0.0000000001
 40
0.0
 40
0.0
 40
0.0
 40
0.0
 40
0.2616970878
 40
0.5192828096
 40
0.7665333574
 40
1.0
 40
1.0
 40
1.0
 40
1.0
 10
11.9932821729
 20
6.621171796
 30
0.0
 10
11.9873161954
 20
6.6211717943
 30
0.0
 10
11.9754771605
 20
6.6210006691
 30
0.0
 10
11.958018016
 20
6.6201587948
 30
0.0
 10
11.941254696
 20
6.6185713803
 30
0.0
 10
11.9304235545
 20
6.6168073122
 30
0.0
 10
11.9252186923
 20
6.6156949463
 30
0.0
  0
LINE
  5
4A5
100
AcDbEntity
  8
0
100
AcDbLine
 62
7
  6
CONTINUOUS
 10
11.9245406964
 20
6.6155485041
 11
11.9145739046
 21
6.6129962086
  0
SPLINE
  5
4A6
100
AcDbEntity
  8
0
100
AcDbSpline
 62
7
  6
CONTINUOUS
 70
0
 71
3
 72
9
 73
5
 74
0
 42
0.0000001
 43
0.0000001
 44
0.0000000001
 40
0.0
 40
0.0
 40
0.0
 40
0.0
 40
0.5147865049
 40
1.0
 40
1.0
 40
1.0
 40
1.0
 10
11.9145739046
 20
6.6129962086
 30
0.0
 10
11.9108074532
 20
6.611873083
 30
0.0
 10
11.9035894933
 20
6.6093349874
 30
0.0
 10
11.896734236
 20
6.6059062277
 30
0.0
 10
11.8935645997
 20
6.6039886469
 30
0.0
  0
LINE
  5
4A7
100
AcDbEntity
  8
0
100
AcDbLine
 62
7
  6
CONTINUOUS
 10
12.0762950929
 20
6.6211839201
 11
11.9932821637
 21
6.6211719705
  0
SPLINE
  5
4A8
100
AcDbEntity
  8
0
100
AcDbSpline
 62
7
  6
CONTINUOUS
 70
0
 71
3
 72
9
 73
5
 74
0
 42
0.0000001
 43
0.0000001
 44
0.0000000001
 40
0.0
 40
0.0
 40
0.0
 40
0.0
 40
0.4750677025
 40
1.0
 40
1.0
 40
1.0
 40
1.0
 10
12.0812711056
 20
6.6097483789
 30
0.0
 10
12.0758753238
 20
6.6064592793
 30
0.0
 10
12.0649599222
 20
6.598802308
 30
0.0
 10
12.0548459193
 20
6.5901357698
 30
0.0
 10
12.049723175
 20
6.5853909848
 30
0.0
  0
SPLINE
  5
4A9
100
AcDbEntity
  8
0
100
AcDbSpline
 62
7
  6
CONTINUOUS
 70
0
 71
3
 72
11
 73
7
 74
0
 42
0.0000001
 43
0.0000001
 44
0.0000000001
 40
0.0
 40
0.0
 40
0.0
 40
0.0
 40
0.2318722223
 40
0.4765206175
 40
0.7330276488
 40
1.0
 40
1.0
 40
1.0
 40
1.0
 10
12.049723175
 20
6.5853909848
 30
0.0
 10
12.0458611635
 20
6.5818139149
 30
0.0
 10
12.0381387985
 20
6.5742287006
 30
0.0
 10
12.0268741078
 20
6.5619708873
 30
0.0
 10
12.0156819177
 20
6.5485905626
 30
0.0
 10
12.0084555232
 20
6.5391506
 30
0.0
 10
12.0048691753
 20
6.534264585
 30
0.0
  0
LINE
  5
4AA
100
AcDbEntity
  8
0
100
AcDbLine
 62
7
  6
CONTINUOUS
 10
10.8180881345
 20
6.6211774902
 11
10.8205142731
 21
6.6211734364
  0
LINE
  5
4AB
100
AcDbEntity
  8
0
100
AcDbLine
 62
7
  6
CONTINUOUS
 10
10.8205142731
 20
6.6211734364
 11
10.8238660667
 21
6.6211720087
  0
SPLINE
  5
4AC
100
AcDbEntity
  8
0
100
AcDbSpline
 62
7
  6
CONTINUOUS
 70
0
 71
3
 72
15
 73
11
 74
0
 42
0.0000001
 43
0.0000001
 44
0.0000000001
 40
0.0
 40
0.0
 40
0.0
 40
0.0
 40
0.1488255551
 40
0.293985074
 40
0.4328413954
 40
0.563915807
 40
0.6862326356
 40
0.799529177
 40
0.903957341
 40
1.0
 40
1.0
 40
1.0
 40
1.0
 10
12.1513071876
 20
6.621171796
 30
0.0
 10
12.1477505837
 20
6.6211717947
 30
0.0
 10
12.1407246337
 20
6.6210915818
 30
0.0
 10
12.1303866253
 20
6.6207040288
 30
0.0
 10
12.1204883535
 20
6.6200199943
 30
0.0
 10
12.111168564
 20
6.6189815066
 30
0.0
 10
12.1025210398
 20
6.6175282823
 30
0.0
 10
12.0946190896
 20
6.6155888117
 30
0.0
 10
12.0875330376
 20
6.6130958326
 30
0.0
 10
12.0832309091
 20
6.6109430138
 30
0.0
 10
12.0812711056
 20
6.6097483789
 30
0.0
  0
LINE
  5
4AD
100
AcDbEntity
  8
0
100
AcDbLine
 62
7
  6
CONTINUOUS
 10
12.2398090393
 20
6.6211855449
 11
12.1513071988
 21
6.6211720085
  0
SPLINE
  5
4AE
100
AcDbEntity
  8
0
100
AcDbSpline
 62
7
  6
CONTINUOUS
 70
0
 71
3
 72
9
 73
5
 74
0
 42
0.0000001
 43
0.0000001
 44
0.0000000001
 40
0.0
 40
0.0
 40
0.0
 40
0.0
 40
0.2380634961
 40
1.0
 40
1.0
 40
1.0
 40
1.0
 10
12.2223094344
 20
6.6039886469
 30
0.0
 10
12.2212679388
 20
6.6030860001
 30
0.0
 10
12.2169409564
 20
6.5992392077
 30
0.0
 10
12.2127965258
 20
6.5951893574
 30
0.0
 10
12.209725621
 20
6.5920228019
 30
0.0
  0
SPLINE
  5
4AF
100
AcDbEntity
  8
0
100
AcDbSpline
 62
7
  6
CONTINUOUS
 70
0
 71
3
 72
11
 73
7
 74
0
 42
0.0000001
 43
0.0000001
 44
0.0000000001
 40
0.0
 40
0.0
 40
0.0
 40
0.0
 40
0.2272894666
 40
0.4704797481
 40
0.7285611685
 40
1.0
 40
1.0
 40
1.0
 40
1.0
 10
12.2037042567
 20
6.5855958139
 30
0.0
 10
12.2004245583
 20
6.5819781642
 30
0.0
 10
12.1938278397
 20
6.5743142464
 30
0.0
 10
12.184135247
 20
6.5620191964
 30
0.0
 10
12.174362918
 20
6.5485952077
 30
0.0
 10
12.1679894412
 20
6.5391692339
 30
0.0
 10
12.1647997107
 20
6.5342874262
 30
0.0
  0
SPLINE
  5
4B0
100
AcDbEntity
  8
0
100
AcDbSpline
 62
7
  6
CONTINUOUS
 70
0
 71
3
 72
14
 73
10
 74
0
 42
0.0000001
 43
0.0000001
 44
0.0000000001
 40
0.0
 40
0.0
 40
0.0
 40
0.0
 40
0.2830308545
 40
0.41797542
 40
0.5471172043
 40
0.6700454295
 40
0.7864916937
 40
0.8963958008
 40
1.0
 40
1.0
 40
1.0
 40
1.0
 10
12.3080861278
 20
6.621171796
 30
0.0
 10
12.301728275
 20
6.6211717942
 30
0.0
 10
12.2923372121
 20
6.6210256957
 30
0.0
 10
12.2800605082
 20
6.6204307482
 30
0.0
 10
12.2713898789
 20
6.6197799458
 30
0.0
 10
12.2631588957
 20
6.6188793545
 30
0.0
 10
12.2554001192
 20
6.6176918757
 30
0.0
 10
12.2481406184
 20
6.6161767409
 30
0.0
 10
12.2435170656
 20
6.614881159
 30
0.0
 10
12.2413049707
 20
6.6141579694
 30
0.0
  0
SPLINE
  5
4B1
100
AcDbEntity
  8
0
100
AcDbSpline
 62
7
  6
CONTINUOUS
 70
0
 71
3
 72
9
 73
5
 74
0
 42
0.0000001
 43
0.0000001
 44
0.0000000001
 40
0.0
 40
0.0
 40
0.0
 40
0.0
 40
0.5154915226
 40
1.0
 40
1.0
 40
1.0
 40
1.0
 10
12.236220214
 20
6.6122919137
 30
0.0
 10
12.2336369839
 20
6.6112302108
 30
0.0
 10
12.2287457935
 20
6.6088536137
 30
0.0
 10
12.2242931292
 20
6.6057078819
 30
0.0
 10
12.2223094344
 20
6.6039886469
 30
0.0
  0
LINE
  5
4B2
100
AcDbEntity
  8
0
100
AcDbLine
 62
7
  6
CONTINUOUS
 10
12.3890886669
 20
6.6211839202
 11
12.3080861553
 21
6.6211719705
  0
LINE
  5
4B3
100
AcDbEntity
  8
0
100
AcDbLine
 62
7
  6
CONTINUOUS
 10
10.8381341444
 20
6.6211803928
 11
10.8409354882
 21
6.6211773123
  0
LINE
  5
4B4
100
AcDbEntity
  8
0
100
AcDbLine
 62
7
  6
CONTINUOUS
 10
10.8409354882
 20
6.6211773123
 11
10.8469094738
 21
6.6211732382
  0
LINE
  5
4B5
100
AcDbEntity
  8
0
100
AcDbLine
 62
7
  6
CONTINUOUS
 10
10.8469094738
 20
6.6211732382
 11
10.8534770368
 21
6.6211719706
  0
SPLINE
  5
4B6
100
AcDbEntity
  8
0
100
AcDbSpline
 62
7
  6
CONTINUOUS
 70
0
 71
3
 72
9
 73
5
 74
0
 42
0.0000001
 43
0.0000001
 44
0.0000000001
 40
0.0
 40
0.0
 40
0.0
 40
0.0
 40
0.2347159514
 40
1.0
 40
1.0
 40
1.0
 40
1.0
 10
12.4039888269
 20
6.6097483789
 30
0.0
 10
12.4033393646
 20
6.6090836737
 30
0.0
 10
12.4006044259
 20
6.6062203967
 30
0.0
 10
12.3979886843
 20
6.6032446126
 30
0.0
 10
12.3960382094
 20
6.6009258524
 30
0.0
  0
SPLINE
  5
4B7
100
AcDbEntity
  8
0
100
AcDbSpline
 62
7
  6
CONTINUOUS
 70
0
 71
3
 72
11
 73
7
 74
0
 42
0.0000001
 43
0.0000001
 44
0.0000000001
 40
0.0
 40
0.0
 40
0.0
 40
0.0
 40
0.2061271964
 40
0.4430787416
 40
0.7087204499
 40
1.0
 40
1.0
 40
1.0
 40
1.0
 10
12.3960382094
 20
6.6009258524
 30
0.0
 10
12.3924924373
 20
6.5967105737
 30
0.0
 10
12.38522546
 20
6.5873505474
 30
0.0
 10
12.374416295
 20
6.5717922199
 30
0.0
 10
12.3630500704
 20
6.5538734395
 30
0.0
 10
12.3555171958
 20
6.5410348459
 30
0.0
 10
12.3516765327
 20
6.534264585
 30
0.0
  0
SPLINE
  5
4B8
100
AcDbEntity
  8
0
100
AcDbSpline
 62
7
  6
CONTINUOUS
 70
0
 71
3
 72
15
 73
11
 74
0
 42
0.0000001
 43
0.0000001
 44
0.0000000001
 40
0.0
 40
0.0
 40
0.0
 40
0.0
 40
0.1678914615
 40
0.3256357962
 40
0.470636522
 40
0.6019272104
 40
0.7192711522
 40
0.823447742
 40
0.9161284103
 40
1.0
 40
1.0
 40
1.0
 40
1.0
 10
12.461146496
 20
6.621171796
 30
0.0
 10
12.457818279
 20
6.6211717948
 30
0.0
 10
12.451362576
 20
6.6210961356
 30
0.0
 10
12.4420390792
 20
6.6207144046
 30
0.0
 10
12.4334587757
 20
6.6200375149
 30
0.0
 10
12.4257185252
 20
6.6190079203
 30
0.0
 10
12.418865979
 20
6.6175643958
 30
0.0
 10
12.4129275656
 20
6.615629255
 30
0.0
 10
12.4079298653
 20
6.613124318
 30
0.0
 10
12.4051507755
 20
6.6109375985
 30
0.0
 10
12.4039888269
 20
6.6097483789
 30
0.0
  0
LINE
  5
4B9
100
AcDbEntity
  8
0
100
AcDbLine
 62
7
  6
CONTINUOUS
 10
12.5446791991
 20
6.6211855449
 11
12.4611465512
 21
6.6211720085
  0
SPLINE
  5
4BA
100
AcDbEntity
  8
0
100
AcDbSpline
 62
7
  6
CONTINUOUS
 70
0
 71
3
 72
9
 73
5
 74
0
 42
0.0000001
 43
0.0000001
 44
0.0000000001
 40
0.0
 40
0.0
 40
0.0
 40
0.0
 40
0.4655805806
 40
1.0
 40
1.0
 40
1.0
 40
1.0
 10
12.5416282905
 20
6.6039886469
 30
0.0
 10
12.5399890221
 20
6.601173071
 30
0.0
 10
12.5365585261
 20
6.5950729401
 30
0.0
 10
12.5332523995
 20
6.5889050449
 30
0.0
 10
12.531510391
 20
6.5855958139
 30
0.0
  0
SPLINE
  5
4BB
100
AcDbEntity
  8
0
100
AcDbSpline
 62
7
  6
CONTINUOUS
 70
0
 71
3
 72
9
 73
5
 74
0
 42
0.0000001
 43
0.0000001
 44
0.0000000001
 40
0.0
 40
0.0
 40
0.0
 40
0.0
 40
0.4584836867
 40
1.0
 40
1.0
 40
1.0
 40
1.0
 10
12.531510391
 20
6.5855958139
 30
0.0
 10
12.5274379091
 20
6.5778594661
 30
0.0
 10
12.518841539
 20
6.5608351934
 30
0.0
 10
12.5106057069
 20
6.543635469
 30
0.0
 10
12.5062190399
 20
6.5342874262
 30
0.0
  0
SPLINE
  5
4BC
100
AcDbEntity
  8
0
100
AcDbSpline
 62
7
  6
CONTINUOUS
 70
0
 71
3
 72
14
 73
10
 74
0
 42
0.0000001
 43
0.0000001
 44
0.0000000001
 40
0.0
 40
0.0
 40
0.0
 40
0.0
 40
0.3121909191
 40
0.4535430996
 40
0.5837968512
 40
0.7029916704
 40
0.811444382
 40
0.9099716288
 40
1.0
 40
1.0
 40
1.0
 40
1.0
 10
12.6080744389
 20
6.621171796
 30
0.0
 10
12.6020237155
 20
6.6211717941
 30
0.0
 10
12.5932302002
 20
6.621022516
 30
0.0
 10
12.5819343405
 20
6.620337847
 30
0.0
 10
12.57439418
 20
6.6195937618
 30
0.0
 10
12.567531551
 20
6.6185562538
 30
0.0
 10
12.5613545919
 20
6.6171783351
 30
0.0
 10
12.5558677255
 20
6.6154055543
 30
0.0
 10
12.5525412916
 20
6.6138577853
 30
0.0
 10
12.5510239571
 20
6.6129962086
 30
0.0
  0
SPLINE
  5
4BD
100
AcDbEntity
  8
0
100
AcDbSpline
 62
7
  6
CONTINUOUS
 70
0
 71
3
 72
9
 73
5
 74
0
 42
0.0000001
 43
0.0000001
 44
0.0000000001
 40
0.0
 40
0.0
 40
0.0
 40
0.0
 40
0.511861946
 40
1.0
 40
1.0
 40
1.0
 40
1.0
 10
12.5510239571
 20
6.6129962086
 30
0.0
 10
12.5493751692
 20
6.6120599897
 30
0.0
 10
12.5463037748
 20
6.609938986
 30
0.0
 10
12.5437783189
 20
6.6071748448
 30
0.0
 10
12.5427312741
 20
6.6057006728
 30
0.0
  0
LINE
  5
4BE
100
AcDbEntity
  8
0
100
AcDbLine
 62
7
  6
CONTINUOUS
 10
12.6819769097
 20
6.6211839202
 11
12.6080745012
 21
6.6211719705
  0
SPLINE
  5
4BF
100
AcDbEntity
  8
0
100
AcDbSpline
 62
7
  6
CONTINUOUS
 70
0
 71
3
 72
17
 73
13
 74
0
 42
0.0000001
 43
0.0000001
 44
0.0000000001
 40
0.0
 40
0.0
 40
0.0
 40
0.0
 40
0.189588433
 40
0.360908898
 40
0.5117094934
 40
0.6418106222
 40
0.7521408699
 40
0.800626267
 40
0.8452505036
 40
0.9254408653
 40
0.9629319121
 40
1.0
 40
1.0
 40
1.0
 40
1.0
 10
12.7465528148
 20
6.621171796
 30
0.0
 10
12.7438386942
 20
6.6211717949
 30
0.0
 10
12.7386715032
 20
6.6211096604
 30
0.0
 10
12.7313517755
 20
6.6207816502
 30
0.0
 10
12.7249003076
 20
6.6202020154
 30
0.0
 10
12.7193635324
 20
6.6193250343
 30
0.0
 10
12.7153521845
 20
6.6182639302
 30
0.0
 10
12.7126457976
 20
6.6171753511
 30
0.0
 10
12.710444355
 20
6.616027868
 30
0.0
 10
12.7085724825
 20
6.6145909364
 30
0.0
 10
12.7071853158
 20
6.6128522173
 30
0.0
 10
12.7066650544
 20
6.6119133687
 30
0.0
 10
12.7064472405
 20
6.6114294693
 30
0.0
  0
LINE
  5
4C0
100
AcDbEntity
  8
0
100
AcDbLine
 62
7
  6
CONTINUOUS
 10
12.8198677023
 20
6.6211855448
 11
12.7465529104
 21
6.6211720084
  0
SPLINE
  5
4C1
100
AcDbEntity
  8
0
100
AcDbSpline
 62
7
  6
CONTINUOUS
 70
0
 71
3
 72
13
 73
9
 74
0
 42
0.0000001
 43
0.0000001
 44
0.0000000001
 40
0.0
 40
0.0
 40
0.0
 40
0.0
 40
0.328155517
 40
0.6066140329
 40
0.7259642464
 40
0.8315920135
 40
0.9230837534
 40
1.0
 40
1.0
 40
1.0
 40
1.0
 10
12.7832435604
 20
6.5341318452
 30
0.0
 10
12.7862443859
 20
6.5424383002
 30
0.0
 10
12.7916997688
 20
6.5578266572
 30
0.0
 10
12.7979357468
 20
6.5763446535
 30
0.0
 10
12.8020307239
 20
6.5892607307
 30
0.0
 10
12.8044886318
 20
6.5974161736
 30
0.0
 10
12.8064873424
 20
6.604515928
 30
0.0
 10
12.8076079739
 20
6.6089086066
 30
0.0
 10
12.8080793408
 20
6.6109243283
 30
0.0
  0
SPLINE
  5
4C2
100
AcDbEntity
  8
0
100
AcDbSpline
 62
7
  6
CONTINUOUS
 70
0
 71
3
 72
16
 73
12
 74
0
 42
0.0000001
 43
0.0000001
 44
0.0000000001
 40
0.0
 40
0.0
 40
0.0
 40
0.0
 40
0.1891216173
 40
0.3592598199
 40
0.5089398676
 40
0.6381495809
 40
0.7483182292
 40
0.8419565176
 40
0.9235081332
 40
0.9619055268
 40
1.0
 40
1.0
 40
1.0
 40
1.0
 10
12.8743977372
 20
6.621171796
 30
0.0
 10
12.8716164303
 20
6.621171795
 30
0.0
 10
12.8663325773
 20
6.6211132631
 30
0.0
 10
12.8588530942
 20
6.6207945447
 30
0.0
 10
12.8522708771
 20
6.620228272
 30
0.0
 10
12.8466081372
 20
6.6193697571
 30
0.0
 10
12.8418508739
 20
6.6181572715
 30
0.0
 10
12.8379634891
 20
6.6165197828
 30
0.0
 10
12.8353812881
 20
6.6146609532
 30
0.0
 10
12.8338414244
 20
6.6129089738
 30
0.0
 10
12.8332347596
 20
6.6119553716
 30
0.0
 10
12.8329708395
 20
6.6114611969
 30
0.0
  0
LINE
  5
4C3
100
AcDbEntity
  8
0
100
AcDbLine
 62
7
  6
CONTINUOUS
 10
12.9365565757
 20
6.6211839202
 11
12.9324655617
 21
6.6211824119
  0
LINE
  5
4C4
100
AcDbEntity
  8
0
100
AcDbLine
 62
7
  6
CONTINUOUS
 10
12.9324655617
 20
6.6211824119
 11
12.8743978306
 21
6.6211719705
  0
SPLINE
  5
4C5
100
AcDbEntity
  8
0
100
AcDbSpline
 62
7
  6
CONTINUOUS
 70
0
 71
3
 72
11
 73
7
 74
0
 42
0.0000001
 43
0.0000001
 44
0.0000000001
 40
0.0
 40
0.0
 40
0.0
 40
0.0
 40
0.2973572472
 40
0.557653409
 40
0.7884104016
 40
1.0
 40
1.0
 40
1.0
 40
1.0
 10
12.9318854852
 20
6.6110058306
 30
0.0
 10
12.9317628794
 20
6.611686405
 30
0.0
 10
12.9315881169
 20
6.6129743264
 30
0.0
 10
12.9315711774
 20
6.6148140869
 30
0.0
 10
12.9318279432
 20
6.6164370421
 30
0.0
 10
12.9322026341
 20
6.6174063443
 30
0.0
 10
12.9324347567
 20
6.6178402243
 30
0.0
  0
SPLINE
  5
4C6
100
AcDbEntity
  8
0
100
AcDbSpline
 62
7
  6
CONTINUOUS
 70
0
 71
3
 72
15
 73
11
 74
0
 42
0.0000001
 43
0.0000001
 44
0.0000000001
 40
0.0
 40
0.0
 40
0.0
 40
0.0
 40
0.1706195292
 40
0.3289665482
 40
0.4744495917
 40
0.6066517765
 40
0.7253898879
 40
0.8305522617
 40
0.9220635211
 40
1.0
 40
1.0
 40
1.0
 40
1.0
 10
12.9228618434
 20
6.5341349783
 30
0.0
 10
12.9239057656
 20
6.5384352589
 30
0.0
 10
12.9258267759
 20
6.5467492384
 30
0.0
 10
12.9282889763
 20
6.5588071874
 30
0.0
 10
12.9302254606
 20
6.5699509765
 30
0.0
 10
12.9316349912
 20
6.5801379991
 30
0.0
 10
12.932519446
 20
6.5893345232
 30
0.0
 10
12.9328821671
 20
6.5975119289
 30
0.0
 10
12.9327272671
 20
6.6046379192
 30
0.0
 10
12.9322438641
 20
6.6090164987
 30
0.0
 10
12.9318854852
 20
6.6110058306
 30
0.0
  0
SPLINE
  5
4C7
100
AcDbEntity
  8
0
100
AcDbSpline
 62
7
  6
CONTINUOUS
 70
0
 71
3
 72
15
 73
11
 74
0
 42
0.0000001
 43
0.0000001
 44
0.0000000001
 40
0.0
 40
0.0
 40
0.0
 40
0.0
 40
0.1968931791
 40
0.3730477982
 40
0.5273982001
 40
0.6594585399
 40
0.7701899643
 40
0.8613838295
 40
0.9361444491
 40
1.0
 40
1.0
 40
1.0
 40
1.0
 10
12.9895930153
 20
6.621171796
 30
0.0
 10
12.9880512277
 20
6.6211717952
 30
0.0
 10
12.9851298594
 20
6.621141446
 30
0.0
 10
12.9810024439
 20
6.6209806693
 30
0.0
 10
12.977389896
 20
6.6207011872
 30
0.0
 10
12.9743046468
 20
6.6202939923
 30
0.0
 10
12.9717438323
 20
6.6197430819
 30
0.0
 10
12.9696901499
 20
6.6190275758
 30
0.0
 10
12.9681198251
 20
6.6181168008
 30
0.0
 10
12.9673664611
 20
6.6173010153
 30
0.0
 10
12.9671057138
 20
6.6168743576
 30
0.0
  0
LINE
  5
4C8
100
AcDbEntity
  8
0
100
AcDbLine
 62
7
  6
CONTINUOUS
 10
13.0480834427
 20
6.6211855443
 11
13.0474637459
 21
6.6211852609
  0
LINE
  5
4C9
100
AcDbEntity
  8
0
100
AcDbLine
 62
7
  6
CONTINUOUS
 10
13.0474637459
 20
6.6211852609
 11
12.9895931455
 21
6.6211720088
  0
SPLINE
  5
4CA
100
AcDbEntity
  8
0
100
AcDbSpline
 62
7
  6
CONTINUOUS
 70
0
 71
3
 72
14
 73
10
 74
0
 42
0.0000001
 43
0.0000001
 44
0.0000000001
 40
0.0
 40
0.0
 40
0.0
 40
0.0
 40
0.3508931874
 40
0.4980887308
 40
0.6274428956
 40
0.7401313986
 40
0.8378848187
 40
0.9232602388
 40
1.0
 40
1.0
 40
1.0
 40
1.0
 10
13.0502512821
 20
6.6109243283
 30
0.0
 10
13.0496729817
 20
6.6119029002
 30
0.0
 10
13.0488780941
 20
6.6133090389
 30
0.0
 10
13.0480012681
 20
6.6151436326
 30
0.0
 10
13.0475274405
 20
6.6163132498
 30
0.0
 10
13.0472005187
 20
6.6173661101
 30
0.0
 10
13.0470246077
 20
6.6183111946
 30
0.0
 10
13.0470051871
 20
6.6191573004
 30
0.0
 10
13.0471076255
 20
6.619678501
 30
0.0
 10
13.0471878594
 20
6.6199137864
 30
0.0
  0
SPLINE
  5
4CB
100
AcDbEntity
  8
0
100
AcDbSpline
 62
7
  6
CONTINUOUS
 70
0
 71
3
 72
11
 73
7
 74
0
 42
0.0000001
 43
0.0000001
 44
0.0000000001
 40
0.0
 40
0.0
 40
0.0
 40
0.0
 40
0.2910233124
 40
0.5550151982
 40
0.7912335621
 40
1.0
 40
1.0
 40
1.0
 40
1.0
 10
13.0572949937
 20
6.5341318452
 30
0.0
 10
13.0579549257
 20
6.5396661174
 30
0.0
 10
13.0589497553
 20
6.5502551004
 30
0.0
 10
13.0594532012
 20
6.5654110078
 30
0.0
 10
13.0589194669
 20
6.5789911133
 30
0.0
 10
13.0578206887
 20
6.5874603182
 30
0.0
 10
13.0570648863
 20
6.591386383
 30
0.0
  0
SPLINE
  5
4CC
100
AcDbEntity
  8
0
100
AcDbSpline
 62
7
  6
CONTINUOUS
 70
0
 71
3
 72
9
 73
5
 74
0
 42
0.0000001
 43
0.0000001
 44
0.0000000001
 40
0.0
 40
0.0
 40
0.0
 40
0.0
 40
0.5377453508
 40
1.0
 40
1.0
 40
1.0
 40
1.0
 10
13.0569331849
 20
6.5920575558
 30
0.0
 10
13.0562272427
 20
6.5955876486
 30
0.0
 10
13.0545455774
 20
6.6020889044
 30
0.0
 10
13.0518257072
 20
6.6082601619
 30
0.0
 10
13.0502512821
 20
6.6109243283
 30
0.0
  0
SPLINE
  5
4CD
100
AcDbEntity
  8
0
100
AcDbSpline
 62
7
  6
CONTINUOUS
 70
0
 71
3
 72
15
 73
11
 74
0
 42
0.0000001
 43
0.0000001
 44
0.0000000001
 40
0.0
 40
0.0
 40
0.0
 40
0.0
 40
0.1967986018
 40
0.3723761726
 40
0.5263090138
 40
0.658344438
 40
0.7691400262
 40
0.8606192763
 40
0.9358763517
 40
1.0
 40
1.0
 40
1.0
 40
1.0
 10
13.0903219506
 20
6.621171796
 30
0.0
 10
13.0888941874
 20
6.6211717953
 30
0.0
 10
13.0861924586
 20
6.6211453178
 30
0.0
 10
13.0823761466
 20
6.6210029471
 30
0.0
 10
13.0790359408
 20
6.6207531987
 30
0.0
 10
13.0761786804
 20
6.6203895156
 30
0.0
 10
13.0737998161
 20
6.6198993921
 30
0.0
 10
13.071882664
 20
6.6192615224
 30
0.0
 10
13.0704032079
 20
6.6184492514
 30
0.0
 10
13.069672241
 20
6.6177203832
 30
0.0
 10
13.0694106048
 20
6.6173357142
 30
0.0
  0
LINE
  5
4CE
100
AcDbEntity
  8
0
100
AcDbLine
 62
7
  6
CONTINUOUS
 10
13.1368314879
 20
6.6211839198
 11
13.0903220692
 21
6.6211719708
  0
SPLINE
  5
4CF
100
AcDbEntity
  8
0
100
AcDbSpline
 62
7
  6
CONTINUOUS
 70
0
 71
3
 72
14
 73
10
 74
0
 42
0.0000001
 43
0.0000001
 44
0.0000000001
 40
0.0
 40
0.0
 40
0.0
 40
0.0
 40
0.3758416692
 40
0.5314375488
 40
0.6657250089
 40
0.7790259659
 40
0.8718135218
 40
0.9448798341
 40
1.0
 40
1.0
 40
1.0
 40
1.0
 10
13.1459778684
 20
6.6110058306
 30
0.0
 10
13.1447642618
 20
6.6122279539
 30
0.0
 10
13.1430378225
 20
6.6139456739
 30
0.0
 10
13.140887045
 20
6.6161092661
 30
0.0
 10
13.1396010105
 20
6.6174361094
 30
0.0
 10
13.1385451668
 20
6.6185843282
 30
0.0
 10
13.1377251166
 20
6.6195681088
 30
0.0
 10
13.1371473068
 20
6.6204002261
 30
0.0
 10
13.136893693
 20
6.6209390491
 30
0.0
 10
13.1368314392
 20
6.621183851
 30
0.0
  0
SPLINE
  5
4D0
100
AcDbEntity
  8
0
100
AcDbSpline
 62
7
  6
CONTINUOUS
 70
0
 71
3
 72
11
 73
7
 74
0
 42
0.0000001
 43
0.0000001
 44
0.0000000001
 40
0.0
 40
0.0
 40
0.0
 40
0.0
 40
0.28552462
 40
0.5470183445
 40
0.7846839629
 40
1.0
 40
1.0
 40
1.0
 40
1.0
 10
13.1688327081
 20
6.5341349783
 30
0.0
 10
13.1688091712
 20
6.5397803571
 30
0.0
 10
13.1683749903
 20
6.550600558
 30
0.0
 10
13.1664288059
 20
6.5660150084
 30
0.0
 10
13.1632604506
 20
6.5798080102
 30
0.0
 10
13.1602154177
 20
6.5882643416
 30
0.0
 10
13.158474682
 20
6.5921494491
 30
0.0
  0
SPLINE
  5
4D1
100
AcDbEntity
  8
0
100
AcDbSpline
 62
7
  6
CONTINUOUS
 70
0
 71
3
 72
9
 73
5
 74
0
 42
0.0000001
 43
0.0000001
 44
0.0000000001
 40
0.0
 40
0.0
 40
0.0
 40
0.0
 40
0.521601039
 40
1.0
 40
1.0
 40
1.0
 40
1.0
 10
13.1580109154
 20
6.5931661319
 30
0.0
 10
13.1564291859
 20
6.5965722331
 30
0.0
 10
13.1529432213
 20
6.60290802
 30
0.0
 10
13.148404896
 20
6.6085617707
 30
0.0
 10
13.1459778684
 20
6.6110058306
 30
0.0
  0
SPLINE
  5
4D2
100
AcDbEntity
  8
0
100
AcDbSpline
 62
7
  6
CONTINUOUS
 70
0
 71
3
 72
14
 73
10
 74
0
 42
0.0000001
 43
0.0000001
 44
0.0000000001
 40
0.0
 40
0.0
 40
0.0
 40
0.0
 40
0.3803904015
 40
0.5369388512
 40
0.6709259994
 40
0.7825050705
 40
0.8726792484
 40
0.9437799284
 40
1.0
 40
1.0
 40
1.0
 40
1.0
 10
13.1749959878
 20
6.621171796
 30
0.0
 10
13.173700701
 20
6.6211717951
 30
0.0
 10
13.1718713505
 20
6.6211426216
 30
0.0
 10
13.1695915747
 20
6.6209862023
 30
0.0
 10
13.1682306918
 20
6.6208287916
 30
0.0
 10
13.1671050106
 20
6.6206229142
 30
0.0
 10
13.1662100783
 20
6.6203638228
 30
0.0
 10
13.1655361888
 20
6.620047328
 30
0.0
 10
13.165199648
 20
6.619757739
 30
0.0
 10
13.165086209
 20
6.6196035312
 30
0.0
  0
LINE
  5
4D3
100
AcDbEntity
  8
0
100
AcDbLine
 62
7
  6
CONTINUOUS
 10
13.2149867867
 20
6.6211855444
 11
13.1749961442
 21
6.6211720088
  0
SPLINE
  5
4D4
100
AcDbEntity
  8
0
100
AcDbSpline
 62
7
  6
CONTINUOUS
 70
0
 71
3
 72
11
 73
7
 74
0
 42
0.0000001
 43
0.0000001
 44
0.0000000001
 40
0.0
 40
0.0
 40
0.0
 40
0.0
 40
0.3356067292
 40
0.6145200077
 40
0.8363323053
 40
1.0
 40
1.0
 40
1.0
 40
1.0
 10
13.2283461797
 20
6.6127908981
 30
0.0
 10
13.2268964093
 20
6.613798459
 30
0.0
 10
13.2242104006
 20
6.6155988003
 30
0.0
 10
13.220477531
 20
6.6179286192
 30
0.0
 10
13.2174706282
 20
6.6197102662
 30
0.0
 10
13.2157186724
 20
6.6207320667
 30
0.0
 10
13.2149867231
 20
6.6211854607
 30
0.0
  0
SPLINE
  5
4D5
100
AcDbEntity
  8
0
100
AcDbSpline
 62
7
  6
CONTINUOUS
 70
0
 71
3
 72
11
 73
7
 74
0
 42
0.0000001
 43
0.0000001
 44
0.0000000001
 40
0.0
 40
0.0
 40
0.0
 40
0.0
 40
0.2771768412
 40
0.5353619953
 40
0.7755671783
 40
1.0
 40
1.0
 40
1.0
 40
1.0
 10
13.2694552347
 20
6.5341318452
 30
0.0
 10
13.2687162504
 20
6.5398046599
 30
0.0
 10
13.266792239
 20
6.550706333
 30
0.0
 10
13.262383014
 20
6.566127415
 30
0.0
 10
13.256621385
 20
6.5799276085
 30
0.0
 10
13.2517689738
 20
6.5882431131
 30
0.0
 10
13.2491349068
 20
6.592053421
 30
0.0
  0
SPLINE
  5
4D6
100
AcDbEntity
  8
0
100
AcDbSpline
 62
7
  6
CONTINUOUS
 70
0
 71
3
 72
9
 73
5
 74
0
 42
0.0000001
 43
0.0000001
 44
0.0000000001
 40
0.0
 40
0.0
 40
0.0
 40
0.0
 40
0.508250854
 40
1.0
 40
1.0
 40
1.0
 40
1.0
 10
13.2453674664
 20
6.5971072547
 30
0.0
 10
13.2432446119
 20
6.5997472632
 30
0.0
 10
13.2387475816
 20
6.6046943474
 30
0.0
 10
13.2336277954
 20
6.6089998358
 30
0.0
 10
13.2309746134
 20
6.6109243283
 30
0.0
  0
SPLINE
  5
4D7
100
AcDbEntity
  8
0
100
AcDbSpline
 62
7
  6
CONTINUOUS
 70
0
 71
3
 72
13
 73
9
 74
0
 42
0.0000001
 43
0.0000001
 44
0.0000000001
 40
0.0
 40
0.0
 40
0.0
 40
0.0
 40
0.3802468438
 40
0.6703153686
 40
0.7823061602
 40
0.8731471198
 40
0.9444488841
 40
1.0
 40
1.0
 40
1.0
 40
1.0
 10
13.2422797666
 20
6.621171796
 30
0.0
 10
13.2413100654
 20
6.6211717953
 30
0.0
 10
13.2396007641
 20
6.6211435299
 30
0.0
 10
13.2376079908
 20
6.6209910283
 30
0.0
 10
13.2363692039
 20
6.6207714227
 30
0.0
 10
13.2356941192
 20
6.6205829477
 30
0.0
 10
13.2351850641
 20
6.62035545
 30
0.0
 10
13.2349277405
 20
6.6201470755
 30
0.0
 10
13.234840695
 20
6.6200353067
 30
0.0
  0
LINE
  5
4D8
100
AcDbEntity
  8
0
100
AcDbLine
 62
7
  6
CONTINUOUS
 10
13.2702176377
 20
6.6211839198
 11
13.2422799029
 21
6.6211719708
  0
SPLINE
  5
4D9
100
AcDbEntity
  8
0
100
AcDbSpline
 62
7
  6
CONTINUOUS
 70
0
 71
3
 72
11
 73
7
 74
0
 42
0.0000001
 43
0.0000001
 44
0.0000000001
 40
0.0
 40
0.0
 40
0.0
 40
0.0
 40
0.2726577481
 40
0.5280385636
 40
0.7690411063
 40
1.0
 40
1.0
 40
1.0
 40
1.0
 10
13.3459040556
 20
6.5341349783
 30
0.0
 10
13.3441008444
 20
6.5413238625
 30
0.0
 10
13.3396916947
 20
6.5550417874
 30
0.0
 10
13.3303865067
 20
6.5738541726
 30
0.0
 10
13.3187890548
 20
6.5899806936
 30
0.0
 10
13.309500407
 20
6.5989549399
 30
0.0
 10
13.3045873478
 20
6.6028634385
 30
0.0
  0
LINE
  5
4DA
100
AcDbEntity
  8
0
100
AcDbLine
 62
7
  6
CONTINUOUS
 10
13.2911121816
 20
6.621171796
 11
13.2896670789
 21
6.621117342
  0
LINE
  5
4DB
100
AcDbEntity
  8
0
100
AcDbLine
 62
7
  6
CONTINUOUS
 10
13.2896670789
 20
6.621117342
 11
13.2886526074
 21
6.6208265961
  0
LINE
  5
4DC
100
AcDbEntity
  8
0
100
AcDbLine
 62
7
  6
CONTINUOUS
 10
13.3100905833
 20
6.6211855443
 11
13.2911123546
 21
6.6211720088
  0
SPLINE
  5
4DD
100
AcDbEntity
  8
0
100
AcDbSpline
 62
7
  6
CONTINUOUS
 70
0
 71
3
 72
9
 73
5
 74
0
 42
0.0000001
 43
0.0000001
 44
0.0000000001
 40
0.0
 40
0.0
 40
0.0
 40
0.0
 40
0.2861193904
 40
1.0
 40
1.0
 40
1.0
 40
1.0
 10
13.3282505008
 20
6.615550579
 30
0.0
 10
13.3265594288
 20
6.6162080085
 30
0.0
 10
13.3206060237
 20
6.6183935183
 30
0.0
 10
13.3145013128
 20
6.6201666453
 30
0.0
 10
13.3100905144
 20
6.6211854607
 30
0.0
  0
SPLINE
  5
4DE
100
AcDbEntity
  8
0
100
AcDbSpline
 62
7
  6
CONTINUOUS
 70
0
 71
3
 72
11
 73
7
 74
0
 42
0.0000001
 43
0.0000001
 44
0.0000000001
 40
0.0
 40
0.0
 40
0.0
 40
0.0
 40
0.2616544135
 40
0.5144959482
 40
0.7599051314
 40
1.0
 40
1.0
 40
1.0
 40
1.0
 10
13.4063934751
 20
6.5341318452
 30
0.0
 10
13.4042513504
 20
6.5398965253
 30
0.0
 10
13.3993945813
 20
6.5510061086
 30
0.0
 10
13.3903218555
 20
6.5664403923
 30
0.0
 10
13.3797143449
 20
6.5802309486
 30
0.0
 10
13.3716270297
 20
6.5883350836
 30
0.0
 10
13.3673858437
 20
6.5920575558
 30
0.0
  0
LINE
  5
4DF
100
AcDbEntity
  8
0
100
AcDbLine
 62
7
  6
CONTINUOUS
 10
13.3283338825
 20
6.6211839197
 11
13.3264138761
 21
6.6211773122
  0
LINE
  5
4E0
100
AcDbEntity
  8
0
100
AcDbLine
 62
7
  6
CONTINUOUS
 10
13.3264138761
 20
6.6211773122
 11
13.3207232621
 21
6.6211719707
  0
SPLINE
  5
4E1
100
AcDbEntity
  8
0
100
AcDbSpline
 62
7
  6
CONTINUOUS
 70
0
 71
3
 72
11
 73
7
 74
0
 42
0.0000001
 43
0.0000001
 44
0.0000000001
 40
0.0
 40
0.0
 40
0.0
 40
0.0
 40
0.2565237092
 40
0.5066235828
 40
0.7533421889
 40
1.0
 40
1.0
 40
1.0
 40
1.0
 10
13.4429498421
 20
6.5341349783
 30
0.0
 10
13.4389689327
 20
6.5423986438
 30
0.0
 10
13.4297323979
 20
6.5581011181
 30
0.0
 10
13.4122364494
 20
6.5787528156
 30
0.0
 10
13.3917139787
 20
6.595852861
 30
0.0
 10
13.3763356864
 20
6.6047031292
 30
0.0
 10
13.3683466673
 20
6.6084399872
 30
0.0
  0
LINE
  5
4E2
100
AcDbEntity
  8
0
100
AcDbLine
 62
7
  6
CONTINUOUS
 10
13.3284334173
 20
6.6211813904
 11
13.3302868449
 21
6.6211734364
  0
LINE
  5
4E3
100
AcDbEntity
  8
0
100
AcDbLine
 62
7
  6
CONTINUOUS
 10
13.3101859079
 20
6.6211802559
 11
13.3125522325
 21
6.6211773123
  0
LINE
  5
4E4
100
AcDbEntity
  8
0
100
AcDbLine
 62
7
  6
CONTINUOUS
 10
13.3125522325
 20
6.6211773123
 11
13.3169500394
 21
6.6211732382
  0
LINE
  5
4E5
100
AcDbEntity
  8
0
100
AcDbLine
 62
7
  6
CONTINUOUS
 10
13.3169500394
 20
6.6211732382
 11
13.3199549785
 21
6.6211720693
  0
SPLINE
  5
4E6
100
AcDbEntity
  8
0
100
AcDbSpline
 62
7
  6
CONTINUOUS
 70
0
 71
3
 72
16
 73
12
 74
0
 42
0.0000001
 43
0.0000001
 44
0.0000000001
 40
0.0
 40
0.0
 40
0.0
 40
0.0
 40
0.021908813
 40
0.0428512216
 40
0.0940269662
 40
0.1700346943
 40
0.275364379
 40
0.4111108717
 40
0.5773557927
 40
0.7738049566
 40
1.0
 40
1.0
 40
1.0
 40
1.0
 10
13.2886526074
 20
6.6208265961
 30
0.0
 10
13.2886367011
 20
6.6208073123
 30
0.0
 10
13.2886107877
 20
6.6207641558
 30
0.0
 10
13.2885996268
 20
6.6206540262
 30
0.0
 10
13.2886865592
 20
6.6204972442
 30
0.0
 10
13.2888795893
 20
6.620316605
 30
0.0
 10
13.2891754272
 20
6.620105716
 30
0.0
 10
13.2895743628
 20
6.6198674699
 30
0.0
 10
13.2900755522
 20
6.6195981954
 30
0.0
 10
13.2906765157
 20
6.6192976502
 30
0.0
 10
13.2911117185
 20
6.6190898757
 30
0.0
 10
13.2913452179
 20
6.618979943
 30
0.0
  0
LINE
  5
4E7
100
AcDbEntity
  8
0
100
AcDbLine
 62
7
  6
CONTINUOUS
 10
13.2913452179
 20
6.618979943
 11
13.2986361306
 21
6.6156431463
  0
SPLINE
  5
4E8
100
AcDbEntity
  8
0
100
AcDbSpline
 62
7
  6
CONTINUOUS
 70
0
 71
3
 72
13
 73
9
 74
0
 42
0.0000001
 43
0.0000001
 44
0.0000000001
 40
0.0
 40
0.0
 40
0.0
 40
0.0
 40
0.0849953196
 40
0.1685694987
 40
0.2599841535
 40
0.3661745345
 40
0.6376569763
 40
1.0
 40
1.0
 40
1.0
 40
1.0
 10
13.234840695
 20
6.6200353067
 30
0.0
 10
13.2347882877
 20
6.6199680143
 30
0.0
 10
13.2347025622
 20
6.6198179994
 30
0.0
 10
13.2346584068
 20
6.6195559168
 30
0.0
 10
13.2347000896
 20
6.6192732814
 30
0.0
 10
13.2348744028
 20
6.618833081
 30
0.0
 10
13.2353109301
 20
6.6182228297
 30
0.0
 10
13.2357493779
 20
6.6177621192
 30
0.0
 10
13.2360087835
 20
6.6175073243
 30
0.0
  0
LINE
  5
4E9
100
AcDbEntity
  8
0
100
AcDbLine
 62
7
  6
CONTINUOUS
 10
13.2360087835
 20
6.6175073243
 11
13.2414936487
 21
6.6129962086
  0
LINE
  5
4EA
100
AcDbEntity
  8
0
100
AcDbLine
 62
7
  6
CONTINUOUS
 10
13.2414936487
 20
6.6129962086
 11
13.2527982825
 21
6.6039886469
  0
SPLINE
  5
4EB
100
AcDbEntity
  8
0
100
AcDbSpline
 62
7
  6
CONTINUOUS
 70
0
 71
3
 72
11
 73
7
 74
0
 42
0.0000001
 43
0.0000001
 44
0.0000000001
 40
0.0
 40
0.0
 40
0.0
 40
0.0
 40
0.3201560852
 40
0.5973593681
 40
0.8262594245
 40
1.0
 40
1.0
 40
1.0
 40
1.0
 10
10.7873513104
 20
6.614524157
 30
0.0
 10
10.7905628401
 20
6.6155213092
 30
0.0
 10
10.7966082033
 20
6.6172156342
 30
0.0
 10
10.8050778559
 20
6.6191228055
 30
0.0
 10
10.8121077815
 20
6.6203869854
 30
0.0
 10
10.8162970794
 20
6.6209747202
 30
0.0
 10
10.8181093434
 20
6.6211890245
 30
0.0
  0
LINE
  5
4EC
100
AcDbEntity
  8
0
100
AcDbLine
 62
7
  6
CONTINUOUS
 10
10.6847761406
 20
6.5342648693
 11
10.6912194724
 21
6.5341320111
  0
LINE
  5
4ED
100
AcDbEntity
  8
0
100
AcDbLine
 62
7
  6
CONTINUOUS
 10
10.7014433884
 20
6.5218507817
 11
10.6960793471
 21
6.5219059163
  0
LINE
  5
4EE
100
AcDbEntity
  8
0
100
AcDbLine
 62
7
  6
CONTINUOUS
 10
10.6960793471
 20
6.5219059163
 11
10.6950329213
 21
6.5219441623
  0
SPLINE
  5
4EF
100
AcDbEntity
  8
0
100
AcDbSpline
 62
9
  6
CONTINUOUS
 70
0
 71
3
 72
46
 73
42
 74
0
 42
0.0000001
 43
0.0000001
 44
0.0000000001
 40
0.0
 40
0.0
 40
0.0
 40
0.0
 40
0.0027063911
 40
0.0042970672
 40
0.0060774231
 40
0.0102665192
 40
0.0153577462
 40
0.021385801
 40
0.0283654061
 40
0.0363008977
 40
0.0451907352
 40
0.0658060436
 40
0.0900891182
 40
0.1178486841
 40
0.1488816966
 40
0.1829432979
 40
0.2197389802
 40
0.300308002
 40
0.3878396237
 40
0.4793010258
 40
0.5715050802
 40
0.661242996
 40
0.7041935751
 40
0.7453737425
 40
0.7844409009
 40
0.821055986
 40
0.8549157823
 40
0.8857529816
 40
0.9133346479
 40
0.9258285433
 40
0.9374121059
 40
0.9480603401
 40
0.9578123733
 40
0.9666488642
 40
0.9706610462
 40
0.9743933102
 40
0.981235681
 40
0.9876065373
 40
0.9907193536
 40
0.9938268794
 40
1.0
 40
1.0
 40
1.0
 40
1.0
 10
11.7847682804
 20
9.6050678801
 30
0.0
 10
11.7849381674
 20
9.605564863
 30
0.0
 10
11.7853829683
 20
9.6062947161
 30
0.0
 10
11.7861797601
 20
9.60716398
 30
0.0
 10
11.7872849008
 20
9.6081339025
 30
0.0
 10
11.7890811356
 20
9.6093234362
 30
0.0
 10
11.7917272782
 20
9.6106813979
 30
0.0
 10
11.7949705835
 20
9.6120368714
 30
0.0
 10
11.7988059055
 20
9.6133867127
 30
0.0
 10
11.8032280841
 20
9.6147273163
 30
0.0
 10
11.8102523114
 20
9.6165903411
 30
0.0
 10
11.8204546059
 20
9.6188198873
 30
0.0
 10
11.834338409
 20
9.6212942906
 30
0.0
 10
11.8502892202
 20
9.6236520709
 30
0.0
 10
11.8681742755
 20
9.6258626512
 30
0.0
 10
11.8878436233
 20
9.6278994712
 30
0.0
 10
11.9171221197
 20
9.6304315642
 30
0.0
 10
11.9568117389
 20
9.6329423512
 30
0.0
 10
12.0071507506
 20
9.6348815718
 30
0.0
 10
12.0597785586
 20
9.6357173501
 30
0.0
 10
12.1128398296
 20
9.6354143205
 30
0.0
 10
12.156471347
 20
9.6342100688
 30
0.0
 10
12.1901788717
 20
9.632670177
 30
0.0
 10
12.2140473671
 20
9.6312759115
 30
0.0
 10
12.2366684661
 20
9.6296458565
 30
0.0
 10
12.2578471269
 20
9.6277965424
 30
0.0
 10
12.2774027415
 20
9.6257505209
 30
0.0
 10
12.2951740562
 20
9.6235311442
 30
0.0
 10
12.3087878303
 20
9.6215056823
 30
0.0
 10
12.3186670646
 20
9.6197983221
 30
0.0
 10
12.3252864485
 20
9.6185315259
 30
0.0
 10
12.3313561482
 20
9.6172305425
 30
0.0
 10
12.3368761152
 20
9.6159169621
 30
0.0
 10
12.3411194618
 20
9.6148033396
 30
0.0
 10
12.3442007103
 20
9.6138744128
 30
0.0
 10
12.3468853855
 20
9.6129754516
 30
0.0
 10
12.3499577908
 20
9.6117981145
 30
0.0
 10
12.3528629681
 20
9.6105329686
 30
0.0
 10
12.3550954095
 20
9.6095395766
 30
0.0
 10
12.3572973809
 20
9.6085720459
 30
0.0
 10
12.3589484083
 20
9.6078523799
 30
0.0
 10
12.3600443537
 20
9.607368556
 30
0.0
  0
SPLINE
  5
4F0
100
AcDbEntity
  8
0
100
AcDbSpline
 62
9
  6
CONTINUOUS
 70
0
 71
3
 72
10
 73
6
 74
0
 42
0.0000001
 43
0.0000001
 44
0.0000000001
 40
0.0
 40
0.0
 40
0.0
 40
0.0
 40
0.5371050021
 40
0.7778134812
 40
1.0
 40
1.0
 40
1.0
 40
1.0
 10
12.3640813625
 20
9.6055568952
 30
0.0
 10
12.3704869836
 20
9.6026409862
 30
0.0
 10
12.3796956761
 20
9.5982615782
 30
0.0
 10
12.3912931677
 20
9.5921589887
 30
0.0
 10
12.3965752688
 20
9.5891744334
 30
0.0
 10
12.3990832527
 20
9.5876956913
 30
0.0
  0
LINE
  5
4F1
100
AcDbEntity
  8
0
100
AcDbLine
 62
9
  6
CONTINUOUS
 10
11.7470764956
 20
9.4763020991
 11
11.6007106944
 21
9.476302112
  0
SPLINE
  5
4F2
100
AcDbEntity
  8
0
100
AcDbSpline
 62
7
  6
CONTINUOUS
 70
0
 71
3
 72
9
 73
5
 74
0
 42
0.0000001
 43
0.0000001
 44
0.0000000001
 40
0.0
 40
0.0
 40
0.0
 40
0.0
 40
0.5283464038
 40
1.0
 40
1.0
 40
1.0
 40
1.0
 10
10.7937957097
 20
6.6109243283
 30
0.0
 10
10.8013878594
 20
6.6135653819
 30
0.0
 10
10.8160719994
 20
6.6176986341
 30
0.0
 10
10.8310887125
 20
6.6202778493
 30
0.0
 10
10.8382069455
 20
6.6211854607
 30
0.0
  0
SPLINE
  5
4F3
100
AcDbEntity
  8
0
100
AcDbSpline
 62
7
  6
CONTINUOUS
 70
0
 71
3
 72
11
 73
7
 74
0
 42
0.0000001
 43
0.0000001
 44
0.0000000001
 40
0.0
 40
0.0
 40
0.0
 40
0.0
 40
0.2484990486
 40
0.4972490644
 40
0.7473464917
 40
1.0
 40
1.0
 40
1.0
 40
1.0
 10
10.6931753751
 20
6.5369302029
 30
0.0
 10
10.6984929193
 20
6.5443934505
 30
0.0
 10
10.7102404323
 20
6.5585697932
 30
0.0
 10
10.7306862781
 20
6.5771748059
 30
0.0
 10
10.7535884106
 20
6.5929211106
 30
0.0
 10
10.7701631907
 20
6.6013622184
 30
0.0
 10
10.7787166916
 20
6.6050561736
 30
0.0
  0
LINE
  5
4F4
100
AcDbEntity
  8
0
100
AcDbLine
 62
7
  6
CONTINUOUS
 10
10.6962770565
 20
6.5342877701
 11
10.7179812694
 21
6.5341351789
  0
SPLINE
  5
4F5
100
AcDbEntity
  8
0
100
AcDbSpline
 62
7
  6
CONTINUOUS
 70
0
 71
3
 72
17
 73
13
 74
0
 42
0.0000001
 43
0.0000001
 44
0.0000000001
 40
0.0
 40
0.0
 40
0.0
 40
0.0
 40
0.02557686
 40
0.0510297055
 40
0.0788604548
 40
0.1109515365
 40
0.1920225759
 40
0.2990670892
 40
0.4334628005
 40
0.5953562419
 40
0.7843803834
 40
1.0
 40
1.0
 40
1.0
 40
1.0
 10
13.165086209
 20
6.6196035312
 30
0.0
 10
13.1650172444
 20
6.6195097815
 30
0.0
 10
13.1649051636
 20
6.6193012172
 30
0.0
 10
13.1648467542
 20
6.6189412129
 30
0.0
 10
13.1648981454
 20
6.6185518493
 30
0.0
 10
13.1651187451
 20
6.6179457752
 30
0.0
 10
13.1656759265
 20
6.6171013519
 30
0.0
 10
13.1666446415
 20
6.6159985046
 30
0.0
 10
13.1679577895
 20
6.6147140018
 30
0.0
 10
13.16959992
 20
6.6132373486
 30
0.0
 10
13.171557043
 20
6.6115591108
 30
0.0
 10
13.1729687065
 20
6.6103769777
 30
0.0
 10
13.1737220359
 20
6.6097483789
 30
0.0
  0
SPLINE
  5
4F6
100
AcDbEntity
  8
0
100
AcDbSpline
 62
7
  6
CONTINUOUS
 70
0
 71
3
 72
18
 73
14
 74
0
 42
0.0000001
 43
0.0000001
 44
0.0000000001
 40
0.0
 40
0.0
 40
0.0
 40
0.0
 40
0.0155302065
 40
0.0302405256
 40
0.0488177152
 40
0.0738548833
 40
0.106413968
 40
0.1469359972
 40
0.2525257703
 40
0.3911151671
 40
0.5623966295
 40
0.765675417
 40
1.0
 40
1.0
 40
1.0
 40
1.0
 10
11.612985606
 20
9.4425492501
 30
0.0
 10
11.6130193701
 20
9.4425755167
 30
0.0
 10
11.6130981315
 20
9.4426167536
 30
0.0
 10
11.6132381608
 20
9.4425892203
 30
0.0
 10
11.6133635107
 20
9.4424830037
 30
0.0
 10
11.6134874151
 20
9.4423128971
 30
0.0
 10
11.6136137312
 20
9.4420731264
 30
0.0
 10
11.6138030334
 20
9.4416184904
 30
0.0
 10
11.6140343196
 20
9.4408677038
 30
0.0
 10
11.6143035768
 20
9.4397552785
 30
0.0
 10
11.6145785636
 20
9.4383684216
 30
0.0
 10
11.6148567214
 20
9.436714347
 30
0.0
 10
11.6150299557
 20
9.4355213785
 30
0.0
 10
11.6151173325
 20
9.4348818739
 30
0.0
  0
LINE
  5
4F7
100
AcDbEntity
  8
0
100
AcDbLine
 62
7
  6
CONTINUOUS
 10
11.6151173325
 20
9.4348818739
 11
11.6156529501
 21
9.4304138986
  0
SPLINE
  5
4F8
100
AcDbEntity
  8
0
100
AcDbSpline
 62
7
  6
CONTINUOUS
 70
0
 71
3
 72
15
 73
11
 74
0
 42
0.0000001
 43
0.0000001
 44
0.0000000001
 40
0.0
 40
0.0
 40
0.0
 40
0.0
 40
0.0894866807
 40
0.1699451842
 40
0.2542798813
 40
0.3538219626
 40
0.4754994739
 40
0.6228549009
 40
0.7975043656
 40
1.0
 40
1.0
 40
1.0
 40
1.0
 10
11.6266847631
 20
9.4421785301
 30
0.0
 10
11.6268663321
 20
9.4423213747
 30
0.0
 10
11.6272506007
 20
9.4425532877
 30
0.0
 10
11.6279208098
 20
9.4426466272
 30
0.0
 10
11.6285897513
 20
9.4424398561
 30
0.0
 10
11.6292351983
 20
9.4419711453
 30
0.0
 10
11.6298722571
 20
9.4412581652
 30
0.0
 10
11.6305060373
 20
9.4403007947
 30
0.0
 10
11.6311360223
 20
9.4391003778
 30
0.0
 10
11.6315228271
 20
9.4382059698
 30
0.0
 10
11.6317172931
 20
9.4377207122
 30
0.0
  0
SPLINE
  5
4F9
100
AcDbEntity
  8
0
100
AcDbSpline
 62
7
  6
CONTINUOUS
 70
0
 71
3
 72
11
 73
7
 74
0
 42
0.0000001
 43
0.0000001
 44
0.0000000001
 40
0.0
 40
0.0
 40
0.0
 40
0.0
 40
0.191927353
 40
0.4251547577
 40
0.6960935109
 40
1.0
 40
1.0
 40
1.0
 40
1.0
 10
11.6317172931
 20
9.4377207122
 30
0.0
 10
11.6321813711
 20
9.4365626825
 30
0.0
 10
11.6330495966
 20
9.4339338048
 30
0.0
 10
11.6341510542
 20
9.4295429569
 30
0.0
 10
11.6351456271
 20
9.4243830206
 30
0.0
 10
11.6356882354
 20
9.4206848624
 30
0.0
 10
11.6359390728
 20
9.4187254124
 30
0.0
  0
SPLINE
  5
4FA
100
AcDbEntity
  8
0
100
AcDbSpline
 62
7
  6
CONTINUOUS
 70
0
 71
3
 72
9
 73
5
 74
0
 42
0.0000001
 43
0.0000001
 44
0.0000000001
 40
0.0
 40
0.0
 40
0.0
 40
0.0
 40
0.4972621709
 40
1.0
 40
1.0
 40
1.0
 40
1.0
 10
10.7246450877
 20
6.5423678318
 30
0.0
 10
10.7332272435
 20
6.5524296323
 30
0.0
 10
10.7524583045
 20
6.571049221
 30
0.0
 10
10.7746787843
 20
6.5859303971
 30
0.0
 10
10.7863723551
 20
6.5924131857
 30
0.0
  0
SPLINE
  5
4FB
100
AcDbEntity
  8
0
100
AcDbSpline
 62
7
  6
CONTINUOUS
 70
0
 71
3
 72
15
 73
11
 74
0
 42
0.0000001
 43
0.0000001
 44
0.0000000001
 40
0.0
 40
0.0
 40
0.0
 40
0.0
 40
0.0775308412
 40
0.1595154928
 40
0.2528858955
 40
0.3623215448
 40
0.4905521325
 40
0.6390606348
 40
0.8087068303
 40
1.0
 40
1.0
 40
1.0
 40
1.0
 10
13.0694106048
 20
6.6173357142
 30
0.0
 10
13.0691983071
 20
6.6170235848
 30
0.0
 10
13.0688596661
 20
6.6163079189
 30
0.0
 10
13.0686945817
 20
6.6150725835
 30
0.0
 10
13.0688415546
 20
6.6136846012
 30
0.0
 10
13.0692740534
 20
6.6121270321
 30
0.0
 10
13.0699781551
 20
6.6103807733
 30
0.0
 10
13.0709450032
 20
6.6084326726
 30
0.0
 10
13.0721657834
 20
6.6062725565
 30
0.0
 10
13.0730872285
 20
6.6047757736
 30
0.0
 10
13.0735851164
 20
6.6039886469
 30
0.0
  0
SPLINE
  5
4FC
100
AcDbEntity
  8
0
100
AcDbSpline
 62
7
  6
CONTINUOUS
 70
0
 71
3
 72
19
 73
15
 74
0
 42
0.0000001
 43
0.0000001
 44
0.0000000001
 40
0.0
 40
0.0
 40
0.0
 40
0.0
 40
0.0415437179
 40
0.079130158
 40
0.1145944398
 40
0.1501499568
 40
0.1879996716
 40
0.2299546961
 40
0.2773001591
 40
0.3308505085
 40
0.4580760834
 40
0.6129511386
 40
0.7943924719
 40
1.0
 40
1.0
 40
1.0
 40
1.0
 10
11.6530294268
 20
9.4414000192
 30
0.0
 10
11.6533128711
 20
9.4416325861
 30
0.0
 10
11.6538901493
 20
9.4420341618
 30
0.0
 10
11.6548322906
 20
9.4424262496
 30
0.0
 10
11.6557931076
 20
9.4425601577
 30
0.0
 10
11.6567565348
 20
9.442429183
 30
0.0
 10
11.6577071118
 20
9.4420395285
 30
0.0
 10
11.6586388181
 20
9.441402507
 30
0.0
 10
11.6595507931
 20
9.4405255316
 30
0.0
 10
11.6608111158
 20
9.4389499835
 30
0.0
 10
11.662282103
 20
9.4363605165
 30
0.0
 10
11.663833829
 20
9.4325687926
 30
0.0
 10
11.6652307652
 20
9.4279888439
 30
0.0
 10
11.6659967859
 20
9.4246574782
 30
0.0
 10
11.6663559866
 20
9.4228787956
 30
0.0
  0
LINE
  5
4FD
100
AcDbEntity
  8
0
100
AcDbLine
 62
7
  6
CONTINUOUS
 10
11.6663559866
 20
9.4228787956
 11
11.6678515007
 21
9.4134730696
  0
SPLINE
  5
4FE
100
AcDbEntity
  8
0
100
AcDbSpline
 62
7
  6
CONTINUOUS
 70
0
 71
3
 72
20
 73
16
 74
0
 42
0.0000001
 43
0.0000001
 44
0.0000000001
 40
0.0
 40
0.0
 40
0.0
 40
0.0
 40
0.0415843807
 40
0.0787374778
 40
0.1134096151
 40
0.1480180701
 40
0.1849693396
 40
0.2262362903
 40
0.2732018675
 40
0.3266703916
 40
0.3870673055
 40
0.4545819976
 40
0.61066065
 40
0.793454961
 40
1.0
 40
1.0
 40
1.0
 40
1.0
 10
11.6858246916
 20
9.4401601073
 30
0.0
 10
11.6861192511
 20
9.440417015
 30
0.0
 10
11.6867173889
 20
9.4408614842
 30
0.0
 10
11.6876989983
 20
9.4413026455
 30
0.0
 10
11.6887008895
 20
9.4414584659
 30
0.0
 10
11.6897033568
 20
9.4413203111
 30
0.0
 10
11.6906875022
 20
9.440897504
 30
0.0
 10
11.6916464793
 20
9.4402030501
 30
0.0
 10
11.6925792048
 20
9.4392454995
 30
0.0
 10
11.6934866371
 20
9.4380325022
 30
0.0
 10
11.6943667168
 20
9.4365697764
 30
0.0
 10
11.6955557793
 20
9.4341775524
 30
0.0
 10
11.6969110907
 20
9.4305972097
 30
0.0
 10
11.6982995246
 20
9.425658266
 30
0.0
 10
11.699048484
 20
9.4220733415
 30
0.0
 10
11.6993943441
 20
9.4201630692
 30
0.0
  0
LINE
  5
4FF
100
AcDbEntity
  8
0
100
AcDbLine
 62
7
  6
CONTINUOUS
 10
11.6993943441
 20
9.4201630692
 11
11.700579934
 21
9.4120271909
  0
SPLINE
  5
500
100
AcDbEntity
  8
0
100
AcDbSpline
 62
7
  6
CONTINUOUS
 70
0
 71
3
 72
20
 73
16
 74
0
 42
0.0000001
 43
0.0000001
 44
0.0000000001
 40
0.0
 40
0.0
 40
0.0
 40
0.0
 40
0.0415688653
 40
0.0787087282
 40
0.1133693732
 40
0.1479690438
 40
0.1849152258
 40
0.2261807299
 40
0.2731476881
 40
0.3266194948
 40
0.3870209952
 40
0.4545411871
 40
0.6106324738
 40
0.793440507
 40
1.0
 40
1.0
 40
1.0
 40
1.0
 10
11.7191998629
 20
9.4401662544
 30
0.0
 10
11.7194943165
 20
9.4404229843
 30
0.0
 10
11.7200922496
 20
9.4408671164
 30
0.0
 10
11.7210735168
 20
9.4413077869
 30
0.0
 10
11.7220750371
 20
9.4414631306
 30
0.0
 10
11.7230770693
 20
9.441324509
 30
0.0
 10
11.7240607232
 20
9.4409012852
 30
0.0
 10
11.7250191901
 20
9.4402064828
 30
0.0
 10
11.7259514158
 20
9.4392486539
 30
0.0
 10
11.7268583582
 20
9.4380354324
 30
0.0
 10
11.7277379532
 20
9.436572531
 30
0.0
 10
11.7289263407
 20
9.4341801248
 30
0.0
 10
11.7302808379
 20
9.4305996967
 30
0.0
 10
11.7316683818
 20
9.4256608039
 30
0.0
 10
11.7324168381
 20
9.4220759954
 30
0.0
 10
11.7327624647
 20
9.4201658003
 30
0.0
  0
LINE
  5
501
100
AcDbEntity
  8
0
100
AcDbLine
 62
7
  6
CONTINUOUS
 10
11.7327624647
 20
9.4201658003
 11
11.7339476624
 21
9.4120262699
  0
SPLINE
  5
502
100
AcDbEntity
  8
0
100
AcDbSpline
 62
7
  6
CONTINUOUS
 70
0
 71
3
 72
9
 73
5
 74
0
 42
0.0000001
 43
0.0000001
 44
0.0000000001
 40
0.0
 40
0.0
 40
0.0
 40
0.0
 40
0.5152728332
 40
1.0
 40
1.0
 40
1.0
 40
1.0
 10
10.8865752307
 20
6.6109243283
 30
0.0
 10
10.8951836877
 20
6.6136271128
 30
0.0
 10
10.9122299289
 20
6.6178286048
 30
0.0
 10
10.9295862004
 20
6.6203058737
 30
0.0
 10
10.9380284078
 20
6.6211854607
 30
0.0
  0
SPLINE
  5
503
100
AcDbEntity
  8
0
100
AcDbSpline
 62
7
  6
CONTINUOUS
 70
0
 71
3
 72
9
 73
5
 74
0
 42
0.0000001
 43
0.0000001
 44
0.0000000001
 40
0.0
 40
0.0
 40
0.0
 40
0.0
 40
0.4965402646
 40
1.0
 40
1.0
 40
1.0
 40
1.0
 10
10.7759014108
 20
6.5425894666
 30
0.0
 10
10.785805219
 20
6.5531932014
 30
0.0
 10
10.807836011
 20
6.5726742162
 30
0.0
 10
10.8329229179
 20
6.5879628432
 30
0.0
 10
10.8460738958
 20
6.5945571399
 30
0.0
  0
LINE
  5
504
100
AcDbEntity
  8
0
100
AcDbLine
 62
7
  6
CONTINUOUS
 10
10.8448493158
 20
6.5218531813
 11
10.7931529255
 21
6.5219587081
  0
SPLINE
  5
505
100
AcDbEntity
  8
0
100
AcDbSpline
 62
7
  6
CONTINUOUS
 70
0
 71
3
 72
12
 73
8
 74
0
 42
0.0000001
 43
0.0000001
 44
0.0000000001
 40
0.0
 40
0.0
 40
0.0
 40
0.0
 40
0.0986411476
 40
0.1990556046
 40
0.4187538268
 40
0.6816532689
 40
1.0
 40
1.0
 40
1.0
 40
1.0
 10
12.9671057138
 20
6.6168743576
 30
0.0
 10
12.9669777369
 20
6.6166649507
 30
0.0
 10
12.9667591246
 20
6.6162165671
 30
0.0
 10
12.9664877505
 20
6.615204791
 30
0.0
 10
12.9665017862
 20
6.6137293804
 30
0.0
 10
12.9670073675
 20
6.6117910296
 30
0.0
 10
12.9675839783
 20
6.6104600603
 30
0.0
 10
12.9679315911
 20
6.6097483789
 30
0.0
  0
SPLINE
  5
506
100
AcDbEntity
  8
0
100
AcDbSpline
 62
7
  6
CONTINUOUS
 70
0
 71
3
 72
9
 73
5
 74
0
 42
0.0000001
 43
0.0000001
 44
0.0000000001
 40
0.0
 40
0.0
 40
0.0
 40
0.0
 40
0.2513212603
 40
1.0
 40
1.0
 40
1.0
 40
1.0
 10
10.9589229391
 20
6.6110058306
 30
0.0
 10
10.9603608575
 20
6.6114459827
 30
0.0
 10
10.9661004982
 20
6.6131375641
 30
0.0
 10
10.9719070902
 20
6.6145998331
 30
0.0
 10
10.9762788027
 20
6.6155775328
 30
0.0
  0
SPLINE
  5
507
100
AcDbEntity
  8
0
100
AcDbSpline
 62
7
  6
CONTINUOUS
 70
0
 71
3
 72
9
 73
5
 74
0
 42
0.0000001
 43
0.0000001
 44
0.0000000001
 40
0.0
 40
0.0
 40
0.0
 40
0.0
 40
0.252383753
 40
1.0
 40
1.0
 40
1.0
 40
1.0
 10
10.9762788027
 20
6.6155775328
 30
0.0
 10
10.977789103
 20
6.6159152999
 30
0.0
 10
10.9837855406
 20
6.6171983505
 30
0.0
 10
10.9898264682
 20
6.61827084
 30
0.0
 10
10.994357508
 20
6.6189679931
 30
0.0
  0
SPLINE
  5
508
100
AcDbEntity
  8
0
100
AcDbSpline
 62
7
  6
CONTINUOUS
 70
0
 71
3
 72
11
 73
7
 74
0
 42
0.0000001
 43
0.0000001
 44
0.0000000001
 40
0.0
 40
0.0
 40
0.0
 40
0.0
 40
0.2470160767
 40
0.4961075969
 40
0.747281762
 40
1.0
 40
1.0
 40
1.0
 40
1.0
 10
10.8513967192
 20
6.5499326239
 30
0.0
 10
10.8589229943
 20
6.5569091822
 30
0.0
 10
10.8749086006
 20
6.5700103926
 30
0.0
 10
10.9010870466
 20
6.5868183923
 30
0.0
 10
10.9291802938
 20
6.6007181364
 30
0.0
 10
10.9488834414
 20
6.6079327038
 30
0.0
 10
10.9589229391
 20
6.6110058306
 30
0.0
  0
SPLINE
  5
509
100
AcDbEntity
  8
0
100
AcDbSpline
 62
7
  6
CONTINUOUS
 70
0
 71
3
 72
9
 73
5
 74
0
 42
0.0000001
 43
0.0000001
 44
0.0000000001
 40
0.0
 40
0.0
 40
0.0
 40
0.0
 40
0.5027474954
 40
1.0
 40
1.0
 40
1.0
 40
1.0
 10
10.9227989585
 20
6.5814786837
 30
0.0
 10
10.9115138569
 20
6.5759533665
 30
0.0
 10
10.8898231186
 20
6.5633381564
 30
0.0
 10
10.870258495
 20
6.5476026564
 30
0.0
 10
10.8612297204
 20
6.5390626652
 30
0.0
  0
LINE
  5
50A
100
AcDbEntity
  8
0
100
AcDbLine
 62
7
  6
CONTINUOUS
 10
10.9358298739
 20
6.5218507817
 11
10.8742748986
 21
6.5219441623
  0
SPLINE
  5
50B
100
AcDbEntity
  8
0
100
AcDbSpline
 62
7
  6
CONTINUOUS
 70
0
 71
3
 72
9
 73
5
 74
0
 42
0.0000001
 43
0.0000001
 44
0.0000000001
 40
0.0
 40
0.0
 40
0.0
 40
0.0
 40
0.2534268437
 40
1.0
 40
1.0
 40
1.0
 40
1.0
 10
11.0538578654
 20
6.6109243283
 30
0.0
 10
11.0584061628
 20
6.6123045782
 30
0.0
 10
11.0765373726
 20
6.6171483635
 30
0.0
 10
11.0951779276
 20
6.6198885187
 30
0.0
 10
11.1091199914
 20
6.6211854607
 30
0.0
  0
SPLINE
  5
50C
100
AcDbEntity
  8
0
100
AcDbSpline
 62
7
  6
CONTINUOUS
 70
0
 71
3
 72
11
 73
7
 74
0
 42
0.0000001
 43
0.0000001
 44
0.0000000001
 40
0.0
 40
0.0
 40
0.0
 40
0.0
 40
0.2481348595
 40
0.4977571266
 40
0.7485956488
 40
1.0
 40
1.0
 40
1.0
 40
1.0
 10
10.9411096422
 20
6.54747799
 30
0.0
 10
10.9488467388
 20
6.5545346319
 30
0.0
 10
10.9652043345
 20
6.5677985945
 30
0.0
 10
10.9918376907
 20
6.5849007888
 30
0.0
 10
11.02026321
 20
6.5991279258
 30
0.0
 10
11.0401464332
 20
6.6066008046
 30
0.0
 10
11.0502598859
 20
6.6098079466
 30
0.0
  0
LINE
  5
50D
100
AcDbEntity
  8
0
100
AcDbLine
 62
7
  6
CONTINUOUS
 10
10.9528402345
 20
6.5342877701
 11
11.0313476014
 21
6.5341351789
  0
LINE
  5
50E
100
AcDbEntity
  8
0
100
AcDbLine
 62
7
  6
CONTINUOUS
 10
11.0388602242
 20
6.5218531813
 11
10.960381674
 21
6.5219587081
  0
SPLINE
  5
50F
100
AcDbEntity
  8
0
100
AcDbSpline
 62
7
  6
CONTINUOUS
 70
0
 71
3
 72
11
 73
7
 74
0
 42
0.0000001
 43
0.0000001
 44
0.0000000001
 40
0.0
 40
0.0
 40
0.0
 40
0.0
 40
0.2309882621
 40
0.4676939571
 40
0.7210519033
 40
1.0
 40
1.0
 40
1.0
 40
1.0
 10
12.9324347567
 20
6.6178402243
 30
0.0
 10
12.9326314484
 20
6.6182078773
 30
0.0
 10
12.9331086348
 20
6.6189131349
 30
0.0
 10
12.9340507902
 20
6.6198229092
 30
0.0
 10
12.9352142085
 20
6.6205917912
 30
0.0
 10
12.9360888103
 20
6.6209973589
 30
0.0
 10
12.9365565358
 20
6.621183851
 30
0.0
  0
SPLINE
  5
510
100
AcDbEntity
  8
0
100
AcDbSpline
 62
7
  6
CONTINUOUS
 70
0
 71
3
 72
9
 73
5
 74
0
 42
0.0000001
 43
0.0000001
 44
0.0000000001
 40
0.0
 40
0.0
 40
0.0
 40
0.0
 40
0.2493240998
 40
1.0
 40
1.0
 40
1.0
 40
1.0
 10
11.1587093564
 20
6.6110058306
 30
0.0
 10
11.1601539916
 20
6.6114471287
 30
0.0
 10
11.1659680133
 20
6.6131519498
 30
0.0
 10
11.1718541358
 20
6.6146078237
 30
0.0
 10
11.1762975378
 20
6.6155775328
 30
0.0
  0
SPLINE
  5
511
100
AcDbEntity
  8
0
100
AcDbSpline
 62
7
  6
CONTINUOUS
 70
0
 71
3
 72
9
 73
5
 74
0
 42
0.0000001
 43
0.0000001
 44
0.0000000001
 40
0.0
 40
0.0
 40
0.0
 40
0.0
 40
0.2501140021
 40
1.0
 40
1.0
 40
1.0
 40
1.0
 10
11.1762975378
 20
6.6155775328
 30
0.0
 10
11.1778497896
 20
6.6159162897
 30
0.0
 10
11.1840690111
 20
6.6172106684
 30
0.0
 10
11.1903348597
 20
6.6182773466
 30
0.0
 10
11.1950479881
 20
6.6189679931
 30
0.0
  0
SPLINE
  5
512
100
AcDbEntity
  8
0
100
AcDbSpline
 62
7
  6
CONTINUOUS
 70
0
 71
3
 72
9
 73
5
 74
0
 42
0.0000001
 43
0.0000001
 44
0.0000000001
 40
0.0
 40
0.0
 40
0.0
 40
0.0
 40
0.2510470336
 40
1.0
 40
1.0
 40
1.0
 40
1.0
 10
11.1950479881
 20
6.6189679931
 30
0.0
 10
11.1966168937
 20
6.6191978954
 30
0.0
 10
11.2028733754
 20
6.6200654851
 30
0.0
 10
11.2091543326
 20
6.6207527252
 30
0.0
 10
11.213865175
 20
6.621183851
 30
0.0
  0
SPLINE
  5
513
100
AcDbEntity
  8
0
100
AcDbSpline
 62
7
  6
CONTINUOUS
 70
0
 71
3
 72
11
 73
7
 74
0
 42
0.0000001
 43
0.0000001
 44
0.0000000001
 40
0.0
 40
0.0
 40
0.0
 40
0.0
 40
0.2493257088
 40
0.4997718423
 40
0.7503237722
 40
1.0
 40
1.0
 40
1.0
 40
1.0
 10
11.0313477276
 20
6.5341349783
 30
0.0
 10
11.040065184
 20
6.543070607
 30
0.0
 10
11.0587786509
 20
6.5598108395
 30
0.0
 10
11.0898050499
 20
6.5811586984
 30
0.0
 10
11.1232302321
 20
6.5985425682
 30
0.0
 10
11.1467536176
 20
6.6073536665
 30
0.0
 10
11.1587093564
 20
6.6110058306
 30
0.0
  0
SPLINE
  5
514
100
AcDbEntity
  8
0
100
AcDbSpline
 62
7
  6
CONTINUOUS
 70
0
 71
3
 72
11
 73
7
 74
0
 42
0.0000001
 43
0.0000001
 44
0.0000000001
 40
0.0
 40
0.0
 40
0.0
 40
0.0
 40
0.2494866356
 40
0.499698718
 40
0.7499614188
 40
1.0
 40
1.0
 40
1.0
 40
1.0
 10
11.1560497416
 20
6.5956292072
 30
0.0
 10
11.1477314075
 20
6.5929429862
 30
0.0
 10
11.1313134405
 20
6.5867769437
 30
0.0
 10
11.1076369205
 20
6.5752980043
 30
0.0
 10
11.08510706
 20
6.5616666676
 30
0.0
 10
11.0710069303
 20
6.5511990862
 30
0.0
 10
11.0642347883
 20
6.5456414769
 30
0.0
  0
LINE
  5
515
100
AcDbEntity
  8
0
100
AcDbLine
 62
7
  6
CONTINUOUS
 10
11.0743477171
 20
6.5342648695
 11
11.1585261027
 21
6.534132011
  0
LINE
  5
516
100
AcDbEntity
  8
0
100
AcDbLine
 62
7
  6
CONTINUOUS
 10
11.1650948713
 20
6.5218507817
 11
11.0809376267
 21
6.5219441623
  0
SPLINE
  5
517
100
AcDbEntity
  8
0
100
AcDbSpline
 62
9
  6
CONTINUOUS
 70
0
 71
3
 72
25
 73
21
 74
0
 42
0.0000001
 43
0.0000001
 44
0.0000000001
 40
0.0
 40
0.0
 40
0.0
 40
0.0
 40
0.1910273239
 40
0.3750275197
 40
0.4620452034
 40
0.5446790214
 40
0.6221717245
 40
0.6938157641
 40
0.7589179258
 40
0.8168894049
 40
0.8672596723
 40
0.9096042935
 40
0.9276868998
 40
0.9436942038
 40
0.9576317104
 40
0.969528034
 40
0.9794549813
 40
0.987578703
 40
0.9942290507
 40
1.0
 40
1.0
 40
1.0
 40
1.0
 10
12.0722946802
 20
9.6890435655
 30
0.0
 10
12.0638441741
 20
9.6890435655
 30
0.0
 10
12.0472534608
 20
9.6888541677
 30
0.0
 10
12.0268239978
 20
9.68814227
 30
0.0
 10
12.0112028136
 20
9.6872791116
 30
0.0
 10
12.0002960926
 20
9.6865157055
 30
0.0
 10
11.9900809275
 20
9.6856311849
 30
0.0
 10
11.9806553115
 20
9.6846361966
 30
0.0
 10
11.9721107732
 20
9.6835397773
 30
0.0
 10
11.9645290722
 20
9.6823532087
 30
0.0
 10
11.957982242
 20
9.6810911149
 30
0.0
 10
11.9532155276
 20
9.6799357604
 30
0.0
 10
11.949977955
 20
9.6789575544
 30
0.0
 10
11.9479730924
 20
9.6782516702
 30
0.0
 10
11.9462644666
 20
9.6775364564
 30
0.0
 10
11.9448550314
 20
9.6768134386
 30
0.0
 10
11.9437456907
 20
9.6760825759
 30
0.0
 10
11.9429352835
 20
9.6753399397
 30
0.0
 10
11.942422367
 20
9.6745741583
 30
0.0
 10
11.9422967035
 20
9.6740212473
 30
0.0
 10
11.9422964681
 20
9.673765957
 30
0.0
  0
SPLINE
  5
518
100
AcDbEntity
  8
0
100
AcDbSpline
 62
7
  6
CONTINUOUS
 70
0
 71
3
 72
9
 73
5
 74
0
 42
0.0000001
 43
0.0000001
 44
0.0000000001
 40
0.0
 40
0.0
 40
0.0
 40
0.0
 40
0.4965153359
 40
1.0
 40
1.0
 40
1.0
 40
1.0
 10
11.2851326308
 20
6.6109243283
 30
0.0
 10
11.2940762329
 20
6.6137205538
 30
0.0
 10
11.3125167714
 20
6.6180130193
 30
0.0
 10
11.3312667937
 20
6.6203424045
 30
0.0
 10
11.3407313831
 20
6.6211854607
 30
0.0
  0
SPLINE
  5
519
100
AcDbEntity
  8
0
100
AcDbSpline
 62
7
  6
CONTINUOUS
 70
0
 71
3
 72
11
 73
7
 74
0
 42
0.0000001
 43
0.0000001
 44
0.0000000001
 40
0.0
 40
0.0
 40
0.0
 40
0.0
 40
0.2523018927
 40
0.5034866829
 40
0.7530283659
 40
1.0
 40
1.0
 40
1.0
 40
1.0
 10
11.1772799054
 20
6.5514483451
 30
0.0
 10
11.1852297224
 20
6.5581885681
 30
0.0
 10
11.2017929877
 20
6.5708375613
 30
0.0
 10
11.2283155938
 20
6.5871862963
 30
0.0
 10
11.2561211855
 20
6.6007456697
 30
0.0
 10
11.2753950739
 20
6.607879872
 30
0.0
 10
11.2851326308
 20
6.6109243283
 30
0.0
  0
LINE
  5
51A
100
AcDbEntity
  8
0
100
AcDbLine
 62
7
  6
CONTINUOUS
 10
11.1919326689
 20
6.5342877703
 11
11.2922834814
 21
6.5341351788
  0
LINE
  5
51B
100
AcDbEntity
  8
0
100
AcDbLine
 62
7
  6
CONTINUOUS
 10
11.2978056201
 20
6.5218531813
 11
11.1974760061
 21
6.521958708
  0
LINE
  5
51C
100
AcDbEntity
  8
0
100
AcDbLine
 62
9
  6
CONTINUOUS
 10
11.7600401839
 20
9.47630213
 11
11.7470779517
 21
9.4763020555
  0
SPLINE
  5
51D
100
AcDbEntity
  8
0
100
AcDbSpline
 62
7
  6
CONTINUOUS
 70
0
 71
3
 72
9
 73
5
 74
0
 42
0.0000001
 43
0.0000001
 44
0.0000000001
 40
0.0
 40
0.0
 40
0.0
 40
0.0
 40
0.4941605203
 40
1.0
 40
1.0
 40
1.0
 40
1.0
 10
11.4158996996
 20
6.6110058306
 30
0.0
 10
11.4215209229
 20
6.6128340801
 30
0.0
 10
11.4330940424
 20
6.6159388898
 30
0.0
 10
11.444874116
 20
6.6180774091
 30
0.0
 10
11.4508589826
 20
6.6189679749
 30
0.0
  0
SPLINE
  5
51E
100
AcDbEntity
  8
0
100
AcDbSpline
 62
7
  6
CONTINUOUS
 70
0
 71
3
 72
9
 73
5
 74
0
 42
0.0000001
 43
0.0000001
 44
0.0000000001
 40
0.0
 40
0.0
 40
0.0
 40
0.0
 40
0.2487274006
 40
1.0
 40
1.0
 40
1.0
 40
1.0
 10
11.4508589826
 20
6.6189679749
 30
0.0
 10
11.4524086193
 20
6.6191985655
 30
0.0
 10
11.4586465474
 20
6.6200739654
 30
0.0
 10
11.4649107972
 20
6.6207568666
 30
0.0
 10
11.4696236552
 20
6.621183851
 30
0.0
  0
SPLINE
  5
51F
100
AcDbEntity
  8
0
100
AcDbSpline
 62
7
  6
CONTINUOUS
 70
0
 71
3
 72
11
 73
7
 74
0
 42
0.0000001
 43
0.0000001
 44
0.0000000001
 40
0.0
 40
0.0
 40
0.0
 40
0.0
 40
0.255257439
 40
0.5079175651
 40
0.7565548578
 40
1.0
 40
1.0
 40
1.0
 40
1.0
 10
11.2922835759
 20
6.5341349783
 30
0.0
 10
11.301074326
 20
6.5430130842
 30
0.0
 10
11.3196513294
 20
6.5596378962
 30
0.0
 10
11.3499988452
 20
6.5809979086
 30
0.0
 10
11.3821165401
 20
6.5984068446
 30
0.0
 10
11.404568215
 20
6.607320373
 30
0.0
 10
11.4158996995
 20
6.6110058306
 30
0.0
  0
SPLINE
  5
520
100
AcDbEntity
  8
0
100
AcDbSpline
 62
7
  6
CONTINUOUS
 70
0
 71
3
 72
11
 73
7
 74
0
 42
0.0000001
 43
0.0000001
 44
0.0000000001
 40
0.0
 40
0.0
 40
0.0
 40
0.0
 40
0.2428202832
 40
0.4914044453
 40
0.7443663523
 40
1.0
 40
1.0
 40
1.0
 40
1.0
 10
11.421430818
 20
6.598703851
 30
0.0
 10
11.4100286389
 20
6.5952831178
 30
0.0
 10
11.3874167367
 20
6.5867271259
 30
0.0
 10
11.3551590879
 20
6.5694625989
 30
0.0
 10
11.3248293954
 20
6.547896195
 30
0.0
 10
11.3064383089
 20
6.5309382391
 30
0.0
 10
11.2978056201
 20
6.5218531813
 30
0.0
  0
LINE
  5
521
100
AcDbEntity
  8
0
100
AcDbLine
 62
7
  6
CONTINUOUS
 10
11.3454890948
 20
6.5342648695
 11
11.4469748357
 21
6.534132011
  0
LINE
  5
522
100
AcDbEntity
  8
0
100
AcDbLine
 62
7
  6
CONTINUOUS
 10
11.4513625692
 20
6.5218507817
 11
11.3498909643
 21
6.5219441622
  0
SPLINE
  5
523
100
AcDbEntity
  8
0
100
AcDbSpline
 62
7
  6
CONTINUOUS
 70
0
 71
3
 72
9
 73
5
 74
0
 42
0.0000001
 43
0.0000001
 44
0.0000000001
 40
0.0
 40
0.0
 40
0.0
 40
0.0
 40
0.4879985908
 40
1.0
 40
1.0
 40
1.0
 40
1.0
 10
11.5658676827
 20
6.6109243283
 30
0.0
 10
11.5741000247
 20
6.6137624123
 30
0.0
 10
11.5914876191
 20
6.618096937
 30
0.0
 10
11.6092109954
 20
6.6203581422
 30
0.0
 10
11.6183095873
 20
6.6211854607
 30
0.0
  0
SPLINE
  5
524
100
AcDbEntity
  8
0
100
AcDbSpline
 62
7
  6
CONTINUOUS
 70
0
 71
3
 72
12
 73
8
 74
0
 42
0.0000001
 43
0.0000001
 44
0.0000000001
 40
0.0
 40
0.0
 40
0.0
 40
0.0
 40
0.1302275577
 40
0.2594733708
 40
0.6378681885
 40
0.8212883063
 40
1.0
 40
1.0
 40
1.0
 40
1.0
 10
11.4469748983
 20
6.5341318452
 30
0.0
 10
11.4513033719
 20
6.5385634726
 30
0.0
 10
11.4601816017
 20
6.5471509728
 30
0.0
 10
11.483143988
 20
6.5669942306
 30
0.0
 10
11.5103921204
 20
6.5857362819
 30
0.0
 10
11.5418092896
 20
6.6017400331
 30
0.0
 10
11.5578307909
 20
6.6081536253
 30
0.0
 10
11.5658676827
 20
6.6109243283
 30
0.0
  0
SPLINE
  5
525
100
AcDbEntity
  8
0
100
AcDbSpline
 62
7
  6
CONTINUOUS
 70
0
 71
3
 72
9
 73
5
 74
0
 42
0.0000001
 43
0.0000001
 44
0.0000000001
 40
0.0
 40
0.0
 40
0.0
 40
0.0
 40
0.242329765
 40
1.0
 40
1.0
 40
1.0
 40
1.0
 10
11.5574614178
 20
6.594143536
 30
0.0
 10
11.5503063481
 20
6.5914107434
 30
0.0
 10
11.5213095888
 20
6.5787739538
 30
0.0
 10
11.4945993865
 20
6.5610437331
 30
0.0
 10
11.4763293935
 20
6.5455621392
 30
0.0
  0
LINE
  5
526
100
AcDbEntity
  8
0
100
AcDbLine
 62
7
  6
CONTINUOUS
 10
11.4863414863
 20
6.5342877703
 11
11.6022303337
 21
6.5341351788
  0
LINE
  5
527
100
AcDbEntity
  8
0
100
AcDbLine
 62
7
  6
CONTINUOUS
 10
11.605415012
 20
6.5218531813
 11
11.4895384128
 21
6.521958708
  0
SPLINE
  5
528
100
AcDbEntity
  8
0
100
AcDbSpline
 62
9
  6
CONTINUOUS
 70
0
 71
3
 72
11
 73
7
 74
0
 42
0.0000001
 43
0.0000001
 44
0.0000000001
 40
0.0
 40
0.0
 40
0.0
 40
0.0
 40
0.2497850208
 40
0.4999993259
 40
0.7502130066
 40
1.0
 40
1.0
 40
1.0
 40
1.0
 10
11.7417886859
 20
9.3568255104
 30
0.0
 10
11.7409022101
 20
9.350466804
 30
0.0
 10
11.7395268519
 20
9.3376779424
 30
0.0
 10
11.7388210834
 20
9.3183915933
 30
0.0
 10
11.739527728
 20
9.2991052655
 30
0.0
 10
11.7409021067
 20
9.2863162956
 30
0.0
 10
11.741788003
 20
9.2799574573
 30
0.0
  0
SPLINE
  5
529
100
AcDbEntity
  8
0
100
AcDbSpline
 62
9
  6
CONTINUOUS
 70
0
 71
3
 72
10
 73
6
 74
0
 42
0.0000001
 43
0.0000001
 44
0.0000000001
 40
0.0
 40
0.0
 40
0.0
 40
0.0
 40
0.4958647344
 40
0.7474241855
 40
1.0
 40
1.0
 40
1.0
 40
1.0
 10
11.7583587656
 20
9.4654759218
 30
0.0
 10
11.7555504319
 20
9.4475277527
 30
0.0
 10
11.751188007
 20
9.420494536
 30
0.0
 10
11.7456587476
 20
9.3842777698
 30
0.0
 10
11.7430352096
 20
9.3659951201
 30
0.0
 10
11.7417710502
 20
9.3568284865
 30
0.0
  0
SPLINE
  5
52A
100
AcDbEntity
  8
0
100
AcDbSpline
 62
7
  6
CONTINUOUS
 70
0
 71
3
 72
18
 73
14
 74
0
 42
0.0000001
 43
0.0000001
 44
0.0000000001
 40
0.0
 40
0.0
 40
0.0
 40
0.0
 40
0.1968857287
 40
0.3690406615
 40
0.5153997863
 40
0.6365303259
 40
0.6887373436
 40
0.736290057
 40
0.7802924478
 40
0.8221637042
 40
0.8635244445
 40
0.9060336934
 40
1.0
 40
1.0
 40
1.0
 40
1.0
 10
11.7456649975
 20
9.2055025225
 30
0.0
 10
11.7453031876
 20
9.2043605545
 30
0.0
 10
11.7445577273
 20
9.2022402008
 30
0.0
 10
11.7432752136
 20
9.1993732575
 30
0.0
 10
11.7419197998
 20
9.197060291
 30
0.0
 10
11.7406780054
 20
9.1955441166
 30
0.0
 10
11.7396465055
 20
9.1946765773
 30
0.0
 10
11.738898549
 20
9.1942157665
 30
0.0
 10
11.7381385649
 20
9.1939166584
 30
0.0
 10
11.7373703481
 20
9.1937826421
 30
0.0
 10
11.7365999921
 20
9.1938152315
 30
0.0
 10
11.7355458251
 20
9.1940872106
 30
0.0
 10
11.7348200618
 20
9.1945316574
 30
0.0
 10
11.7343730418
 20
9.1948880799
 30
0.0
  0
SPLINE
  5
52B
100
AcDbEntity
  8
0
100
AcDbSpline
 62
7
  6
CONTINUOUS
 70
0
 71
3
 72
18
 73
14
 74
0
 42
0.0000001
 43
0.0000001
 44
0.0000000001
 40
0.0
 40
0.0
 40
0.0
 40
0.0
 40
0.1968760621
 40
0.3690220815
 40
0.5153739639
 40
0.636499675
 40
0.6887056014
 40
0.7362584394
 40
0.780262493
 40
0.8221371167
 40
0.8635028565
 40
0.9060184516
 40
1.0
 40
1.0
 40
1.0
 40
1.0
 10
11.7122991509
 20
9.2055018097
 30
0.0
 10
11.7119373971
 20
9.2043597605
 30
0.0
 10
11.7111919948
 20
9.2022392663
 30
0.0
 10
11.7099094367
 20
9.1993721688
 30
0.0
 10
11.7085539031
 20
9.197059109
 30
0.0
 10
11.707311968
 20
9.1955428961
 30
0.0
 10
11.7062803286
 20
9.1946753673
 30
0.0
 10
11.7055322499
 20
9.1942145778
 30
0.0
 10
11.7047721269
 20
9.1939155132
 30
0.0
 10
11.7040037582
 20
9.1937815602
 30
0.0
 10
11.7032332399
 20
9.1938142301
 30
0.0
 10
11.7021788297
 20
9.1940863419
 30
0.0
 10
11.7014528877
 20
9.194530901
 30
0.0
 10
11.7010057425
 20
9.1948874066
 30
0.0
  0
SPLINE
  5
52C
100
AcDbEntity
  8
0
100
AcDbSpline
 62
7
  6
CONTINUOUS
 70
0
 71
3
 72
18
 73
14
 74
0
 42
0.0000001
 43
0.0000001
 44
0.0000000001
 40
0.0
 40
0.0
 40
0.0
 40
0.0
 40
0.1969003215
 40
0.3690706659
 40
0.5154260308
 40
0.6365403513
 40
0.6887383902
 40
0.7362821131
 40
0.7802752503
 40
0.8221382247
 40
0.8634942765
 40
0.9060050606
 40
1.0
 40
1.0
 40
1.0
 40
1.0
 10
11.6789215284
 20
9.2055047559
 30
0.0
 10
11.6785601564
 20
9.2043626587
 30
0.0
 10
11.6778164213
 20
9.202241755
 30
0.0
 10
11.6765380467
 20
9.1993731142
 30
0.0
 10
11.6751862598
 20
9.1970582783
 30
0.0
 10
11.6739461926
 20
9.1955410428
 30
0.0
 10
11.6729155787
 20
9.1946729327
 30
0.0
 10
11.6721680946
 20
9.1942117977
 30
0.0
 10
11.6714084678
 20
9.1939123937
 30
0.0
 10
11.6706404911
 20
9.1937781219
 30
0.0
 10
11.6698702538
 20
9.19381052
 30
0.0
 10
11.668815977
 20
9.1940823629
 30
0.0
 10
11.6680900698
 20
9.1945267908
 30
0.0
 10
11.6676428729
 20
9.1948831958
 30
0.0
  0
SPLINE
  5
52D
100
AcDbEntity
  8
0
100
AcDbSpline
 62
7
  6
CONTINUOUS
 70
0
 71
3
 72
17
 73
13
 74
0
 42
0.0000001
 43
0.0000001
 44
0.0000000001
 40
0.0
 40
0.0
 40
0.0
 40
0.0
 40
0.2073792034
 40
0.3880046575
 40
0.5408816798
 40
0.6663941829
 40
0.7195277363
 40
0.7668509491
 40
0.8474273615
 40
0.8839437433
 40
0.9203310715
 40
1.0
 40
1.0
 40
1.0
 40
1.0
 10
11.6458132868
 20
9.2055380658
 30
0.0
 10
11.6454892018
 20
9.2044701207
 30
0.0
 10
11.6448293881
 20
9.2024874484
 30
0.0
 10
11.6437189158
 20
9.1997932845
 30
0.0
 10
11.64257019
 20
9.1976021054
 30
0.0
 10
11.6415438719
 20
9.1961321427
 30
0.0
 10
11.6406997981
 20
9.1952520078
 30
0.0
 10
11.6399429462
 20
9.1946381325
 30
0.0
 10
11.6391228069
 20
9.1942383101
 30
0.0
 10
11.6382921049
 20
9.1941617433
 30
0.0
 10
11.6374734288
 20
9.1942903865
 30
0.0
 10
11.6369120766
 20
9.1946139965
 30
0.0
 10
11.6365765125
 20
9.1948808703
 30
0.0
  0
SPLINE
  5
52E
100
AcDbEntity
  8
0
100
AcDbSpline
 62
7
  6
CONTINUOUS
 70
0
 71
3
 72
9
 73
5
 74
0
 42
0.0000001
 43
0.0000001
 44
0.0000000001
 40
0.0
 40
0.0
 40
0.0
 40
0.0
 40
0.4888551255
 40
1.0
 40
1.0
 40
1.0
 40
1.0
 10
11.7143337534
 20
6.6110058306
 30
0.0
 10
11.7192833656
 20
6.6128509794
 30
0.0
 10
11.7296533666
 20
6.6159809936
 30
0.0
 10
11.7402646992
 20
6.6180877094
 30
0.0
 10
11.7457173029
 20
6.6189679931
 30
0.0
  0
SPLINE
  5
52F
100
AcDbEntity
  8
0
100
AcDbSpline
 62
7
  6
CONTINUOUS
 70
0
 71
3
 72
9
 73
5
 74
0
 42
0.0000001
 43
0.0000001
 44
0.0000000001
 40
0.0
 40
0.0
 40
0.0
 40
0.0
 40
0.5113037669
 40
1.0
 40
1.0
 40
1.0
 40
1.0
 10
11.7491247673
 20
6.6057899007
 30
0.0
 10
11.7436450225
 20
6.6050714645
 30
0.0
 10
11.7329726973
 20
6.6032770604
 30
0.0
 10
11.7225170314
 20
6.6004266909
 30
0.0
 10
11.7175236081
 20
6.598703851
 30
0.0
  0
SPLINE
  5
530
100
AcDbEntity
  8
0
100
AcDbSpline
 62
7
  6
CONTINUOUS
 70
0
 71
3
 72
11
 73
7
 74
0
 42
0.0000001
 43
0.0000001
 44
0.0000000001
 40
0.0
 40
0.0
 40
0.0
 40
0.0
 40
0.2643763874
 40
0.5202150643
 40
0.765812055
 40
1.0
 40
1.0
 40
1.0
 40
1.0
 10
11.6022303906
 20
6.5341349783
 30
0.0
 10
11.6105122952
 20
6.5429219432
 30
0.0
 10
11.6277270835
 20
6.5593734681
 30
0.0
 10
11.6554914229
 20
6.5807557838
 30
0.0
 10
11.6842860601
 20
6.5982022443
 30
0.0
 10
11.7043114957
 20
6.607269668
 30
0.0
 10
11.7143337534
 20
6.6110058306
 30
0.0
  0
SPLINE
  5
531
100
AcDbEntity
  8
0
100
AcDbSpline
 62
7
  6
CONTINUOUS
 70
0
 71
3
 72
11
 73
7
 74
0
 42
0.0000001
 43
0.0000001
 44
0.0000000001
 40
0.0
 40
0.0
 40
0.0
 40
0.0
 40
0.2327603948
 40
0.4780478451
 40
0.7344803085
 40
1.0
 40
1.0
 40
1.0
 40
1.0
 10
11.7175236081
 20
6.598703851
 30
0.0
 10
11.7074595656
 20
6.5952315369
 30
0.0
 10
11.687317033
 20
6.5865077725
 30
0.0
 10
11.6584290145
 20
6.5691985091
 30
0.0
 10
11.6306648254
 20
6.5476068937
 30
0.0
 10
11.6135847457
 20
6.5308390904
 30
0.0
 10
11.605415012
 20
6.5218531813
 30
0.0
  0
LINE
  5
532
100
AcDbEntity
  8
0
100
AcDbLine
 62
7
  6
CONTINUOUS
 10
11.6622983405
 20
6.5342648695
 11
11.7747147143
 21
6.534132011
  0
LINE
  5
533
100
AcDbEntity
  8
0
100
AcDbLine
 62
7
  6
CONTINUOUS
 10
11.7766457152
 20
6.5218507817
 11
11.6642355842
 21
6.5219441623
  0
SPLINE
  5
534
100
AcDbEntity
  8
0
100
AcDbSpline
 62
9
  6
CONTINUOUS
 70
0
 71
3
 72
11
 73
7
 74
0
 42
0.0000001
 43
0.0000001
 44
0.0000000001
 40
0.0
 40
0.0
 40
0.0
 40
0.0
 40
0.252577644
 40
0.5041389988
 40
0.7538257635
 40
1.0
 40
1.0
 40
1.0
 40
1.0
 10
11.7417707712
 20
9.2799545438
 30
0.0
 10
11.7430351087
 20
9.2707878812
 30
0.0
 10
11.745658575
 20
9.252505113
 30
0.0
 10
11.7498263406
 20
9.2252039737
 30
0.0
 10
11.7541144292
 20
9.1981591825
 30
0.0
 10
11.756962952
 20
9.180217502
 30
0.0
 10
11.7583572969
 20
9.1713070892
 30
0.0
  0
SPLINE
  5
535
100
AcDbEntity
  8
0
100
AcDbSpline
 62
7
  6
CONTINUOUS
 70
0
 71
3
 72
18
 73
14
 74
0
 42
0.0000001
 43
0.0000001
 44
0.0000000001
 40
0.0
 40
0.0
 40
0.0
 40
0.0
 40
0.2281035223
 40
0.4269027216
 40
0.594671737
 40
0.7305740125
 40
0.8344486699
 40
0.8747236968
 40
0.9077305197
 40
0.9343958576
 40
0.9565123618
 40
0.9771519929
 40
1.0
 40
1.0
 40
1.0
 40
1.0
 10
11.6217502001
 20
9.2055453258
 30
0.0
 10
11.6215881371
 20
9.2045828411
 30
0.0
 10
11.6212610669
 20
9.202785311
 30
0.0
 10
11.6207196734
 20
9.2002985266
 30
0.0
 10
11.6201684291
 20
9.1982190202
 30
0.0
 10
11.6196152837
 20
9.1965644222
 30
0.0
 10
11.6191285412
 20
9.1954643916
 30
0.0
 10
11.6187250288
 20
9.1948209161
 30
0.0
 10
11.6184500512
 20
9.1944909921
 30
0.0
 10
11.6181743506
 20
9.1942699295
 30
0.0
 10
11.6178888046
 20
9.1941631725
 30
0.0
 10
11.6175998643
 20
9.1941903968
 30
0.0
 10
11.6174346633
 20
9.1942862068
 30
0.0
 10
11.6173571322
 20
9.1943457621
 30
0.0
  0
LINE
  5
536
100
AcDbEntity
  8
0
100
AcDbLine
 62
7
  6
CONTINUOUS
 10
11.6111710627
 20
9.2000894355
 11
11.610929023
 21
9.1942094432
  0
SPLINE
  5
537
100
AcDbEntity
  8
0
100
AcDbSpline
 62
7
  6
CONTINUOUS
 70
0
 71
3
 72
11
 73
7
 74
0
 42
0.0000001
 43
0.0000001
 44
0.0000000001
 40
0.0
 40
0.0
 40
0.0
 40
0.0
 40
0.2343759494
 40
0.4789633734
 40
0.7341829477
 40
1.0
 40
1.0
 40
1.0
 40
1.0
 10
11.8784234054
 20
6.6109243283
 30
0.0
 10
11.8818370639
 20
6.6123345681
 30
0.0
 10
11.8889754159
 20
6.6148321822
 30
0.0
 10
11.9002026664
 20
6.6176724703
 30
0.0
 10
11.9120892589
 20
6.6197888387
 30
0.0
 10
11.9202448552
 20
6.6207718311
 30
0.0
 10
11.9244133445
 20
6.6211854607
 30
0.0
  0
SPLINE
  5
538
100
AcDbEntity
  8
0
100
AcDbSpline
 62
7
  6
CONTINUOUS
 70
0
 71
3
 72
9
 73
5
 74
0
 42
0.0000001
 43
0.0000001
 44
0.0000000001
 40
0.0
 40
0.0
 40
0.0
 40
0.0
 40
0.2538502347
 40
1.0
 40
1.0
 40
1.0
 40
1.0
 10
11.8902291486
 20
6.601855089
 30
0.0
 10
11.8893818503
 20
6.6016209309
 30
0.0
 10
11.8860542689
 20
6.6006623208
 30
0.0
 10
11.8827694648
 20
6.599552449
 30
0.0
 10
11.8803568606
 20
6.5986274659
 30
0.0
  0
SPLINE
  5
539
100
AcDbEntity
  8
0
100
AcDbSpline
 62
7
  6
CONTINUOUS
 70
0
 71
3
 72
11
 73
7
 74
0
 42
0.0000001
 43
0.0000001
 44
0.0000000001
 40
0.0
 40
0.0
 40
0.0
 40
0.0
 40
0.2704302672
 40
0.5283396618
 40
0.7719046047
 40
1.0
 40
1.0
 40
1.0
 40
1.0
 10
11.7747147441
 20
6.5341318452
 30
0.0
 10
11.782547232
 20
6.5428511242
 30
0.0
 10
11.7986724411
 20
6.5591697879
 30
0.0
 10
11.8244936267
 20
6.5805341466
 30
0.0
 10
11.8509397535
 20
6.5979812391
 30
0.0
 10
11.8692865532
 20
6.6071497409
 30
0.0
 10
11.8784234054
 20
6.6109243283
 30
0.0
  0
SPLINE
  5
53A
100
AcDbEntity
  8
0
100
AcDbSpline
 62
7
  6
CONTINUOUS
 70
0
 71
3
 72
11
 73
7
 74
0
 42
0.0000001
 43
0.0000001
 44
0.0000000001
 40
0.0
 40
0.0
 40
0.0
 40
0.0
 40
0.2261421001
 40
0.4692236054
 40
0.7279135269
 40
1.0
 40
1.0
 40
1.0
 40
1.0
 10
11.8803568606
 20
6.5986274659
 30
0.0
 10
11.8711927579
 20
6.5951139844
 30
0.0
 10
11.8527526063
 20
6.5862770161
 30
0.0
 10
11.8262402687
 20
6.5689624126
 30
0.0
 10
11.8004105576
 20
6.5473879729
 30
0.0
 10
11.7843914814
 20
6.5307639434
 30
0.0
 10
11.7766457152
 20
6.5218507817
 30
0.0
  0
LINE
  5
53B
100
AcDbEntity
  8
0
100
AcDbLine
 62
7
  6
CONTINUOUS
 10
11.8175678979
 20
6.5342877703
 11
11.9417130576
 21
6.5341351788
  0
LINE
  5
53C
100
AcDbEntity
  8
0
100
AcDbLine
 62
7
  6
CONTINUOUS
 10
11.9423601706
 20
6.5218531813
 11
11.8182175389
 21
6.521958708
  0
LINE
  5
53D
100
AcDbEntity
  8
0
100
AcDbLine
 62
9
  6
CONTINUOUS
 10
11.6031315885
 20
9.2091705165
 11
11.5998204653
 21
9.2111182641
  0
SPLINE
  5
53E
100
AcDbEntity
  8
0
100
AcDbSpline
 62
9
  6
CONTINUOUS
 70
0
 71
3
 72
11
 73
7
 74
0
 42
0.0000001
 43
0.0000001
 44
0.0000000001
 40
0.0
 40
0.0
 40
0.0
 40
0.0
 40
0.2883133117
 40
0.5492841065
 40
0.7851405329
 40
1.0
 40
1.0
 40
1.0
 40
1.0
 10
11.5998204653
 20
9.2111182641
 30
0.0
 10
11.5987361541
 20
9.2118227643
 30
0.0
 10
11.5967330241
 20
9.2132667345
 30
0.0
 10
11.5941408831
 20
9.2156657513
 30
0.0
 10
11.592138765
 20
9.2181690124
 30
0.0
 10
11.5911796781
 20
9.2199670535
 30
0.0
 10
11.5908246162
 20
9.2208628952
 30
0.0
  0
LINE
  5
53F
100
AcDbEntity
  8
0
100
AcDbLine
 62
9
  6
CONTINUOUS
 10
11.7600351246
 20
9.1604846514
 11
11.7470788352
 21
9.1604816908
  0
LINE
  5
540
100
AcDbEntity
  8
0
100
AcDbLine
 62
7
  6
CONTINUOUS
 10
12.8089164176
 20
6.6134313981
 11
12.8101493419
 21
6.615550579
  0
SPLINE
  5
541
100
AcDbEntity
  8
0
100
AcDbSpline
 62
7
  6
CONTINUOUS
 70
0
 71
3
 72
11
 73
7
 74
0
 42
0.0000001
 43
0.0000001
 44
0.0000000001
 40
0.0
 40
0.0
 40
0.0
 40
0.0
 40
0.2231358956
 40
0.4572200558
 40
0.7134094258
 40
1.0
 40
1.0
 40
1.0
 40
1.0
 10
12.8101493419
 20
6.615550579
 30
0.0
 10
12.8106541821
 20
6.6162364028
 30
0.0
 10
12.8118562631
 20
6.6175253327
 30
0.0
 10
12.8141114423
 20
6.6190805963
 30
0.0
 10
12.8168199529
 20
6.620314908
 30
0.0
 10
12.8188074553
 20
6.6209165706
 30
0.0
 10
12.8198676603
 20
6.6211854607
 30
0.0
  0
SPLINE
  5
542
100
AcDbEntity
  8
0
100
AcDbSpline
 62
9
  6
CONTINUOUS
 70
0
 71
3
 72
15
 73
11
 74
0
 42
0.0000001
 43
0.0000001
 44
0.0000000001
 40
0.0
 40
0.0
 40
0.0
 40
0.0
 40
0.1122899783
 40
0.2209527806
 40
0.3301269019
 40
0.443811067
 40
0.5654255464
 40
0.6976236296
 40
0.8421400442
 40
1.0
 40
1.0
 40
1.0
 40
1.0
 10
11.7354516318
 20
9.4127958149
 30
0.0
 10
11.735204537
 20
9.4120623048
 30
0.0
 10
11.7348507382
 20
9.4105683395
 30
0.0
 10
11.7348100982
 20
9.408275354
 30
0.0
 10
11.7352745291
 20
9.4060195441
 30
0.0
 10
11.7362293313
 20
9.4038288054
 30
0.0
 10
11.7376592242
 20
9.4017226486
 30
0.0
 10
11.7395489288
 20
9.3997174407
 30
0.0
 10
11.7418778977
 20
9.3978225237
 30
0.0
 10
11.7436333584
 20
9.396691181
 30
0.0
 10
11.7445734913
 20
9.3961433105
 30
0.0
  0
SPLINE
  5
543
100
AcDbEntity
  8
0
100
AcDbSpline
 62
7
  6
CONTINUOUS
 70
0
 71
3
 72
11
 73
7
 74
0
 42
0.0000001
 43
0.0000001
 44
0.0000000001
 40
0.0
 40
0.0
 40
0.0
 40
0.0
 40
0.2312141217
 40
0.4742613757
 40
0.730333136
 40
1.0
 40
1.0
 40
1.0
 40
1.0
 10
12.0352598087
 20
6.6110058306
 30
0.0
 10
12.0382198587
 20
6.6124008951
 30
0.0
 10
12.0444765446
 20
6.6148784164
 30
0.0
 10
12.0544353235
 20
6.6176937825
 30
0.0
 10
12.06512008
 20
6.6197973912
 30
0.0
 10
12.0725008318
 20
6.6207721016
 30
0.0
 10
12.0762950927
 20
6.621183851
 30
0.0
  0
SPLINE
  5
544
100
AcDbEntity
  8
0
100
AcDbSpline
 62
7
  6
CONTINUOUS
 70
0
 71
3
 72
11
 73
7
 74
0
 42
0.0000001
 43
0.0000001
 44
0.0000000001
 40
0.0
 40
0.0
 40
0.0
 40
0.0
 40
0.2702046487
 40
0.526372905
 40
0.7692041636
 40
1.0
 40
1.0
 40
1.0
 40
1.0
 10
12.0770164472
 20
6.6074926633
 30
0.0
 10
12.0732244217
 20
6.6072058412
 30
0.0
 10
12.0658475933
 20
6.6064837258
 30
0.0
 10
12.0551512864
 20
6.6047538336
 30
0.0
 10
12.0451683528
 20
6.6022820377
 30
0.0
 10
12.0388829361
 20
6.6000078808
 30
0.0
 10
12.0359079693
 20
6.598703851
 30
0.0
  0
SPLINE
  5
545
100
AcDbEntity
  8
0
100
AcDbSpline
 62
7
  6
CONTINUOUS
 70
0
 71
3
 72
12
 73
8
 74
0
 42
0.0000001
 43
0.0000001
 44
0.0000000001
 40
0.0
 40
0.0
 40
0.0
 40
0.0
 40
0.2777828373
 40
0.538250405
 40
0.7793429602
 40
0.8923180415
 40
1.0
 40
1.0
 40
1.0
 40
1.0
 10
11.9417130734
 20
6.5341349783
 30
0.0
 10
11.948953521
 20
6.5427993179
 30
0.0
 10
11.9637030363
 20
6.5590061663
 30
0.0
 10
11.9871295796
 20
6.5803976637
 30
0.0
 10
12.0072644136
 20
6.5952821347
 30
0.0
 10
12.0233289686
 20
6.6050088599
 30
0.0
 10
12.0313004332
 20
6.6091397864
 30
0.0
 10
12.0352598087
 20
6.6110058306
 30
0.0
  0
SPLINE
  5
546
100
AcDbEntity
  8
0
100
AcDbSpline
 62
7
  6
CONTINUOUS
 70
0
 71
3
 72
13
 73
9
 74
0
 42
0.0000001
 43
0.0000001
 44
0.0000000001
 40
0.0
 40
0.0
 40
0.0
 40
0.0
 40
0.1061209305
 40
0.2180361437
 40
0.3355664366
 40
0.4585166285
 40
0.7199686289
 40
1.0
 40
1.0
 40
1.0
 40
1.0
 10
12.0359079693
 20
6.598703851
 30
0.0
 10
12.0319517892
 20
6.5969697219
 30
0.0
 10
12.0239739167
 20
6.5930563067
 30
0.0
 10
12.0121814628
 20
6.5861435034
 30
0.0
 10
12.0003104327
 20
6.5780739226
 30
0.0
 10
11.9841399136
 20
6.5655692107
 30
0.0
 10
11.964211613
 20
6.5472043882
 30
0.0
 10
11.9495399796
 20
6.5307061118
 30
0.0
 10
11.9423601706
 20
6.5218531813
 30
0.0
  0
LINE
  5
547
100
AcDbEntity
  8
0
100
AcDbLine
 62
7
  6
CONTINUOUS
 10
12.004869164
 20
6.5342648695
 11
12.1211526365
 21
6.534132011
  0
LINE
  5
548
100
AcDbEntity
  8
0
100
AcDbLine
 62
7
  6
CONTINUOUS
 10
12.1205055731
 20
6.5218507817
 11
12.0042200579
 21
6.5219441622
  0
SPLINE
  5
549
100
AcDbEntity
  8
0
100
AcDbSpline
 62
7
  6
CONTINUOUS
 70
0
 71
3
 72
10
 73
6
 74
0
 42
0.0000001
 43
0.0000001
 44
0.0000000001
 40
0.0
 40
0.0
 40
0.0
 40
0.0
 40
0.4679176169
 40
0.7251958297
 40
1.0
 40
1.0
 40
1.0
 40
1.0
 10
12.2031607732
 20
6.6109243283
 30
0.0
 10
12.2083680615
 20
6.6138359001
 30
0.0
 10
12.2171536538
 20
6.617085321
 30
0.0
 10
12.2296058807
 20
6.619810628
 30
0.0
 10
12.2363291108
 20
6.6207772468
 30
0.0
 10
12.2398090298
 20
6.6211854607
 30
0.0
  0
SPLINE
  5
54A
100
AcDbEntity
  8
0
100
AcDbSpline
 62
7
  6
CONTINUOUS
 70
0
 71
3
 72
9
 73
5
 74
0
 42
0.0000001
 43
0.0000001
 44
0.0000000001
 40
0.0
 40
0.0
 40
0.0
 40
0.0
 40
0.2586724451
 40
1.0
 40
1.0
 40
1.0
 40
1.0
 10
12.2252233667
 20
6.6057877574
 30
0.0
 10
12.2241386521
 20
6.6056002712
 30
0.0
 10
12.2199558139
 20
6.6048182755
 30
0.0
 10
12.2158159558
 20
6.6037871348
 30
0.0
 10
12.2128073575
 20
6.6028379716
 30
0.0
  0
SPLINE
  5
54B
100
AcDbEntity
  8
0
100
AcDbSpline
 62
7
  6
CONTINUOUS
 70
0
 71
3
 72
9
 73
5
 74
0
 42
0.0000001
 43
0.0000001
 44
0.0000000001
 40
0.0
 40
0.0
 40
0.0
 40
0.0
 40
0.2570825896
 40
1.0
 40
1.0
 40
1.0
 40
1.0
 10
12.2128073575
 20
6.6028379716
 30
0.0
 10
12.2118977753
 20
6.6025510134
 30
0.0
 10
12.2083813287
 20
6.601368971
 30
0.0
 10
12.2049560006
 20
6.5999033584
 30
0.0
 10
12.2025128823
 20
6.5986274659
 30
0.0
  0
SPLINE
  5
54C
100
AcDbEntity
  8
0
100
AcDbSpline
 62
7
  6
CONTINUOUS
 70
0
 71
3
 72
13
 73
9
 74
0
 42
0.0000001
 43
0.0000001
 44
0.0000000001
 40
0.0
 40
0.0
 40
0.0
 40
0.0
 40
0.2865316922
 40
0.5500527779
 40
0.6724291615
 40
0.7883254462
 40
0.8975667745
 40
1.0
 40
1.0
 40
1.0
 40
1.0
 10
12.1211526316
 20
6.5341318452
 30
0.0
 10
12.1277048365
 20
6.5427144975
 30
0.0
 10
12.1408803871
 20
6.5587464426
 30
0.0
 10
12.1585382587
 20
6.5769719535
 30
0.0
 10
12.1726653636
 20
6.5895532617
 30
0.0
 10
12.1828982272
 20
6.5977371737
 30
0.0
 10
12.1929811795
 20
6.6048715059
 30
0.0
 10
12.1997915196
 20
6.609040464
 30
0.0
 10
12.2031607732
 20
6.6109243283
 30
0.0
  0
SPLINE
  5
54D
100
AcDbEntity
  8
0
100
AcDbSpline
 62
7
  6
CONTINUOUS
 70
0
 71
3
 72
14
 73
10
 74
0
 42
0.0000001
 43
0.0000001
 44
0.0000000001
 40
0.0
 40
0.0
 40
0.0
 40
0.0
 40
0.1004100747
 40
0.208264386
 40
0.323393313
 40
0.4455905224
 40
0.5746862603
 40
0.7104628057
 40
1.0
 40
1.0
 40
1.0
 40
1.0
 10
12.2025128823
 20
6.5986274659
 30
0.0
 10
12.1991548336
 20
6.5968737608
 30
0.0
 10
12.1923536594
 20
6.5929175408
 30
0.0
 10
12.1822888676
 20
6.5860041857
 30
0.0
 10
12.1720517584
 20
6.5779400296
 30
0.0
 10
12.1617014594
 20
6.5687647506
 30
0.0
 10
12.1512908102
 20
6.5585139803
 30
0.0
 10
12.1371024438
 20
6.5431365048
 30
0.0
 10
12.1270246819
 20
6.530616376
 30
0.0
 10
12.1205055731
 20
6.5218507817
 30
0.0
  0
LINE
  5
54E
100
AcDbEntity
  8
0
100
AcDbLine
 62
7
  6
CONTINUOUS
 10
12.1647997301
 20
6.5342877703
 11
12.2894007051
 21
6.5341351788
  0
LINE
  5
54F
100
AcDbEntity
  8
0
100
AcDbLine
 62
7
  6
CONTINUOUS
 10
12.2874695923
 20
6.5218531812
 11
12.1628612663
 21
6.521958708
  0
SPLINE
  5
550
100
AcDbEntity
  8
0
100
AcDbSpline
 62
7
  6
CONTINUOUS
 70
0
 71
3
 72
11
 73
7
 74
0
 42
0.0000001
 43
0.0000001
 44
0.0000000001
 40
0.0
 40
0.0
 40
0.0
 40
0.0
 40
0.2243695379
 40
0.4631480467
 40
0.7207304518
 40
1.0
 40
1.0
 40
1.0
 40
1.0
 10
12.3585129013
 20
6.6110058306
 30
0.0
 10
12.3605043379
 20
6.6124006069
 30
0.0
 10
12.3648875676
 20
6.6149013352
 30
0.0
 10
12.3721920117
 20
6.6177235919
 30
0.0
 10
12.3803451502
 20
6.6198237347
 30
0.0
 10
12.386089734
 20
6.6207783851
 30
0.0
 10
12.3890886523
 20
6.621183851
 30
0.0
  0
SPLINE
  5
551
100
AcDbEntity
  8
0
100
AcDbSpline
 62
7
  6
CONTINUOUS
 70
0
 71
3
 72
11
 73
7
 74
0
 42
0.0000001
 43
0.0000001
 44
0.0000000001
 40
0.0
 40
0.0
 40
0.0
 40
0.0
 40
0.2806217701
 40
0.5384924149
 40
0.7767179772
 40
1.0
 40
1.0
 40
1.0
 40
1.0
 10
12.3869359651
 20
6.6074926633
 30
0.0
 10
12.3839660157
 20
6.6072104885
 30
0.0
 10
12.3782792512
 20
6.6065058791
 30
0.0
 10
12.3701891744
 20
6.6047815842
 30
0.0
 10
12.3629306773
 20
6.6023055746
 30
0.0
 10
12.3585621023
 20
6.6000078893
 30
0.0
 10
12.3565786414
 20
6.598703851
 30
0.0
  0
SPLINE
  5
552
100
AcDbEntity
  8
0
100
AcDbSpline
 62
7
  6
CONTINUOUS
 70
0
 71
3
 72
14
 73
10
 74
0
 42
0.0000001
 43
0.0000001
 44
0.0000000001
 40
0.0
 40
0.0
 40
0.0
 40
0.0
 40
0.296947581
 40
0.434568675
 40
0.5643085593
 40
0.6859288703
 40
0.7992303972
 40
0.9039861421
 40
1.0
 40
1.0
 40
1.0
 40
1.0
 10
12.2894006788
 20
6.5341349783
 30
0.0
 10
12.2951604541
 20
6.5426516772
 30
0.0
 10
12.3039436381
 20
6.5548853313
 30
0.0
 10
12.316149422
 20
6.5701464725
 30
0.0
 10
12.3249519554
 20
6.5803446423
 30
0.0
 10
12.3335958277
 20
6.5895534138
 30
0.0
 10
12.3420443783
 20
6.5977426911
 30
0.0
 10
12.3502565777
 20
6.6048795159
 30
0.0
 10
12.3557899594
 20
6.6090987176
 30
0.0
 10
12.3585129013
 20
6.6110058306
 30
0.0
  0
SPLINE
  5
553
100
AcDbEntity
  8
0
100
AcDbSpline
 62
7
  6
CONTINUOUS
 70
0
 71
3
 72
14
 73
10
 74
0
 42
0.0000001
 43
0.0000001
 44
0.0000000001
 40
0.0
 40
0.0
 40
0.0
 40
0.0
 40
0.09339495
 40
0.1963602956
 40
0.3086766602
 40
0.4300746136
 40
0.5603156146
 40
0.6991105056
 40
1.0
 40
1.0
 40
1.0
 40
1.0
 10
12.3565786414
 20
6.598703851
 30
0.0
 10
12.3538744689
 20
6.5969259765
 30
0.0
 10
12.3483662819
 20
6.592915717
 30
0.0
 10
12.3401965494
 20
6.5860012339
 30
0.0
 10
12.331761156
 20
6.5779329717
 30
0.0
 10
12.3231089742
 20
6.5687508495
 30
0.0
 10
12.3142835622
 20
6.5584910415
 30
0.0
 10
12.3020169119
 20
6.5430091225
 30
0.0
 10
12.2932242293
 20
6.5305474539
 30
0.0
 10
12.2874695923
 20
6.5218531813
 30
0.0
  0
LINE
  5
554
100
AcDbEntity
  8
0
100
AcDbLine
 62
7
  6
CONTINUOUS
 10
12.3516765807
 20
6.5342648695
 11
12.4645206337
 21
6.534132011
  0
LINE
  5
555
100
AcDbEntity
  8
0
100
AcDbLine
 62
7
  6
CONTINUOUS
 10
12.4613361632
 20
6.5218507817
 11
12.3484819104
 21
6.5219441623
  0
SPLINE
  5
556
100
AcDbEntity
  8
0
100
AcDbSpline
 62
9
  6
CONTINUOUS
 70
0
 71
3
 72
14
 73
10
 74
0
 42
0.0000001
 43
0.0000001
 44
0.0000000001
 40
0.0
 40
0.0
 40
0.0
 40
0.0
 40
0.2412296941
 40
0.3651879126
 40
0.4907912687
 40
0.6176380333
 40
0.7451462421
 40
0.8727548073
 40
1.0
 40
1.0
 40
1.0
 40
1.0
 10
12.3990832705
 20
9.0490879802
 30
0.0
 10
12.398017612
 20
9.0456078625
 30
0.0
 10
12.3959273489
 20
9.0404690776
 30
0.0
 10
12.3922487051
 20
9.0340343149
 30
0.0
 10
12.3889744487
 20
9.029382669
 30
0.0
 10
12.3852393889
 20
9.0250227918
 30
0.0
 10
12.3810917019
 20
9.0210093646
 30
0.0
 10
12.3765769092
 20
9.0174040235
 30
0.0
 10
12.3733445509
 20
9.0153081456
 30
0.0
 10
12.3716857541
 20
9.0143416002
 30
0.0
  0
SPLINE
  5
557
100
AcDbEntity
  8
0
100
AcDbSpline
 62
7
  6
CONTINUOUS
 70
0
 71
3
 72
11
 73
7
 74
0
 42
0.0000001
 43
0.0000001
 44
0.0000000001
 40
0.0
 40
0.0
 40
0.0
 40
0.0
 40
0.2215636989
 40
0.4570744386
 40
0.7147197422
 40
1.0
 40
1.0
 40
1.0
 40
1.0
 10
12.5196753432
 20
6.6109243283
 30
0.0
 10
12.5211379186
 20
6.6123253155
 30
0.0
 10
12.5244996294
 20
6.6148697509
 30
0.0
 10
12.5304054752
 20
6.6177334679
 30
0.0
 10
12.5372215216
 20
6.6198445417
 30
0.0
 10
12.5421023457
 20
6.6207850848
 30
0.0
 10
12.5446791726
 20
6.6211854607
 30
0.0
  0
SPLINE
  5
558
100
AcDbEntity
  8
0
100
AcDbSpline
 62
7
  6
CONTINUOUS
 70
0
 71
3
 72
9
 73
5
 74
0
 42
0.0000001
 43
0.0000001
 44
0.0000000001
 40
0.0
 40
0.0
 40
0.0
 40
0.0
 40
0.2641732789
 40
1.0
 40
1.0
 40
1.0
 40
1.0
 10
12.541128879
 20
6.6074934142
 30
0.0
 10
12.5402381583
 20
6.6073957839
 30
0.0
 10
12.5368716781
 20
6.6069845394
 30
0.0
 10
12.533523691
 20
6.6063878392
 30
0.0
 10
12.5311010364
 20
6.6057877574
 30
0.0
  0
SPLINE
  5
559
100
AcDbEntity
  8
0
100
AcDbSpline
 62
7
  6
CONTINUOUS
 70
0
 71
3
 72
11
 73
7
 74
0
 42
0.0000001
 43
0.0000001
 44
0.0000000001
 40
0.0
 40
0.0
 40
0.0
 40
0.0
 40
0.2708304241
 40
0.524969209
 40
0.7664102903
 40
1.0
 40
1.0
 40
1.0
 40
1.0
 10
12.5311010364
 20
6.6057877574
 30
0.0
 10
12.5296610711
 20
6.6054310839
 30
0.0
 10
12.5268952001
 20
6.6046275743
 30
0.0
 10
12.5229979099
 20
6.6030431227
 30
0.0
 10
12.5195043628
 20
6.6010836838
 30
0.0
 10
12.5174339835
 20
6.5994876853
 30
0.0
 10
12.5164868154
 20
6.5986274659
 30
0.0
  0
SPLINE
  5
55A
100
AcDbEntity
  8
0
100
AcDbSpline
 62
7
  6
CONTINUOUS
 70
0
 71
3
 72
14
 73
10
 74
0
 42
0.0000001
 43
0.0000001
 44
0.0000000001
 40
0.0
 40
0.0
 40
0.0
 40
0.0
 40
0.308477263
 40
0.4491456747
 40
0.5800431307
 40
0.7008656134
 40
0.8113382902
 40
0.9111482041
 40
1.0
 40
1.0
 40
1.0
 40
1.0
 10
12.4645205944
 20
6.5341318452
 30
0.0
 10
12.469415045
 20
6.5425620592
 30
0.0
 10
12.4767718583
 20
6.5547069335
 30
0.0
 10
12.4868344557
 20
6.570029387
 30
0.0
 10
12.4939175197
 20
6.5802090497
 30
0.0
 10
12.5007406436
 20
6.5894008789
 30
0.0
 10
12.5072759707
 20
6.5975754748
 30
0.0
 10
12.5134924218
 20
6.6047007189
 30
0.0
 10
12.5176477248
 20
6.6089820917
 30
0.0
 10
12.5196753432
 20
6.6109243283
 30
0.0
  0
SPLINE
  5
55B
100
AcDbEntity
  8
0
100
AcDbSpline
 62
7
  6
CONTINUOUS
 70
0
 71
3
 72
14
 73
10
 74
0
 42
0.0000001
 43
0.0000001
 44
0.0000000001
 40
0.0
 40
0.0
 40
0.0
 40
0.0
 40
0.0855320326
 40
0.1830924206
 40
0.2923362805
 40
0.4128870028
 40
0.5444138561
 40
0.6865487615
 40
1.0
 40
1.0
 40
1.0
 40
1.0
 10
12.5164868154
 20
6.5986274659
 30
0.0
 10
12.5144852032
 20
6.596809599
 30
0.0
 10
12.5103723095
 20
6.5927283242
 30
0.0
 10
12.5042216046
 20
6.5858257739
 30
0.0
 10
12.497716475
 20
6.5777729369
 30
0.0
 10
12.4908942808
 20
6.5686087333
 30
0.0
 10
12.483788373
 20
6.5583684961
 30
0.0
 10
12.4736496866
 20
6.5428199357
 30
0.0
 10
12.4662540305
 20
6.5304533386
 30
0.0
 10
12.4613361632
 20
6.5218507817
 30
0.0
  0
LINE
  5
55C
100
AcDbEntity
  8
0
100
AcDbLine
 62
7
  6
CONTINUOUS
 10
12.5062191298
 20
6.5342877703
 11
12.6234467826
 21
6.5341351788
  0
LINE
  5
55D
100
AcDbEntity
  8
0
100
AcDbLine
 62
7
  6
CONTINUOUS
 10
12.6190587828
 20
6.5218531813
 11
12.501814362
 21
6.521958708
  0
SPLINE
  5
55E
100
AcDbEntity
  8
0
100
AcDbSpline
 62
9
  6
CONTINUOUS
 70
0
 71
3
 72
9
 73
5
 74
0
 42
0.0000001
 43
0.0000001
 44
0.0000000001
 40
0.0
 40
0.0
 40
0.0
 40
0.0
 40
0.5350822397
 40
1.0
 40
1.0
 40
1.0
 40
1.0
 10
11.6217502001
 20
9.2055453258
 30
0.0
 10
11.6185821134
 20
9.2066126462
 30
0.0
 10
11.6127605081
 20
9.2089205262
 30
0.0
 10
11.6072950424
 20
9.2120192012
 30
0.0
 10
11.6049325645
 20
9.213709125
 30
0.0
  0
SPLINE
  5
55F
100
AcDbEntity
  8
0
100
AcDbSpline
 62
9
  6
CONTINUOUS
 70
0
 71
3
 72
10
 73
6
 74
0
 42
0.0000001
 43
0.0000001
 44
0.0000000001
 40
0.0
 40
0.0
 40
0.0
 40
0.0
 40
0.2895433063
 40
0.5512699545
 40
1.0
 40
1.0
 40
1.0
 40
1.0
 10
11.6049325645
 20
9.213709125
 30
0.0
 10
11.6038732961
 20
9.2144668391
 30
0.0
 10
11.6019217318
 20
9.2160105238
 30
0.0
 10
11.5987600245
 20
9.2192083219
 30
0.0
 10
11.5969998826
 20
9.2219902134
 30
0.0
 10
11.5963529081
 20
9.2239021155
 30
0.0
  0
SPLINE
  5
560
100
AcDbEntity
  8
0
100
AcDbSpline
 62
7
  6
CONTINUOUS
 70
0
 71
3
 72
12
 73
8
 74
0
 42
0.0000001
 43
0.0000001
 44
0.0000000001
 40
0.0
 40
0.0
 40
0.0
 40
0.0
 40
0.1125152687
 40
0.2247355307
 40
0.4566163579
 40
0.7114696976
 40
1.0
 40
1.0
 40
1.0
 40
1.0
 10
12.6637818503
 20
6.6110058306
 30
0.0
 10
12.6642168831
 20
6.611681295
 30
0.0
 10
12.665177181
 20
6.6129742826
 30
0.0
 10
12.667460536
 20
6.6153137219
 30
0.0
 10
12.6710274725
 20
6.6177544194
 30
0.0
 10
12.6761751157
 20
6.6198634894
 30
0.0
 10
12.6799548967
 20
6.6207883721
 30
0.0
 10
12.6819768816
 20
6.621183851
 30
0.0
  0
SPLINE
  5
561
100
AcDbEntity
  8
0
100
AcDbSpline
 62
7
  6
CONTINUOUS
 70
0
 71
3
 72
13
 73
9
 74
0
 42
0.0000001
 43
0.0000001
 44
0.0000000001
 40
0.0
 40
0.0
 40
0.0
 40
0.0
 40
0.2923433376
 40
0.547550717
 40
0.6648597729
 40
0.777771676
 40
0.8886231745
 40
1.0
 40
1.0
 40
1.0
 40
1.0
 10
12.6770854139
 20
6.6074926633
 30
0.0
 10
12.6751192958
 20
6.6072183821
 30
0.0
 10
12.6714543723
 20
6.6065440235
 30
0.0
 10
12.6671584126
 20
6.6050629367
 30
0.0
 10
12.6642598695
 20
6.603477486
 30
0.0
 10
12.6623784844
 20
6.6021148486
 30
0.0
 10
12.6607329075
 20
6.6005320783
 30
0.0
 10
12.6598055428
 20
6.5993335911
 30
0.0
 10
12.6593867067
 20
6.598703851
 30
0.0
  0
SPLINE
  5
562
100
AcDbEntity
  8
0
100
AcDbSpline
 62
7
  6
CONTINUOUS
 70
0
 71
3
 72
13
 73
9
 74
0
 42
0.0000001
 43
0.0000001
 44
0.0000000001
 40
0.0
 40
0.0
 40
0.0
 40
0.0
 40
0.3200008515
 40
0.5958417995
 40
0.7159147982
 40
0.8235926441
 40
0.9184411418
 40
1.0
 40
1.0
 40
1.0
 40
1.0
 10
12.6234467158
 20
6.5341349783
 30
0.0
 10
12.6274178656
 20
6.5425053477
 30
0.0
 10
12.6349275158
 20
6.5580366507
 30
0.0
 10
12.6443046563
 20
6.5765235152
 30
0.0
 10
12.6511654488
 20
6.5893888712
 30
0.0
 10
12.655692833
 20
6.5975586677
 30
0.0
 10
12.6598233996
 20
6.6046716816
 30
0.0
 10
12.6625032955
 20
6.6090206507
 30
0.0
 10
12.6637818503
 20
6.6110058306
 30
0.0
  0
SPLINE
  5
563
100
AcDbEntity
  8
0
100
AcDbSpline
 62
7
  6
CONTINUOUS
 70
0
 71
3
 72
13
 73
9
 74
0
 42
0.0000001
 43
0.0000001
 44
0.0000000001
 40
0.0
 40
0.0
 40
0.0
 40
0.0
 40
0.0774710835
 40
0.1695893649
 40
0.2757939991
 40
0.3955553994
 40
0.6739471526
 40
1.0
 40
1.0
 40
1.0
 40
1.0
 10
12.6593867067
 20
6.598703851
 30
0.0
 10
12.6581447528
 20
6.5968365136
 30
0.0
 10
12.6555287558
 20
6.5926805286
 30
0.0
 10
12.6514847123
 20
6.5857960702
 30
0.0
 10
12.6470027815
 20
6.5777518008
 30
0.0
 10
12.6401249842
 20
6.5648724888
 30
0.0
 10
12.6306629628
 20
6.5461622764
 30
0.0
 10
12.6230818244
 20
6.5303914373
 30
0.0
 10
12.6190587828
 20
6.5218531813
 30
0.0
  0
LINE
  5
564
100
AcDbEntity
  8
0
100
AcDbLine
 62
7
  6
CONTINUOUS
 10
12.6809294051
 20
6.5342648695
 11
12.7832436317
 21
6.534132011
  0
LINE
  5
565
100
AcDbEntity
  8
0
100
AcDbLine
 62
7
  6
CONTINUOUS
 10
12.7777218461
 20
6.5218507817
 11
12.6753899035
 21
6.5219441623
  0
LINE
  5
566
100
AcDbEntity
  8
0
100
AcDbLine
 62
7
  6
CONTINUOUS
 10
12.7058649852
 20
6.6097483789
 11
12.7030262447
 21
6.5994546669
  0
SPLINE
  5
567
100
AcDbEntity
  8
0
100
AcDbSpline
 62
7
  6
CONTINUOUS
 70
0
 71
3
 72
11
 73
7
 74
0
 42
0.0000001
 43
0.0000001
 44
0.0000000001
 40
0.0
 40
0.0
 40
0.0
 40
0.0
 40
0.1957635749
 40
0.4293832813
 40
0.6985221896
 40
1.0
 40
1.0
 40
1.0
 40
1.0
 10
12.7030262447
 20
6.5994546669
 30
0.0
 10
12.7017597529
 20
6.5951445847
 30
0.0
 10
12.6988347799
 20
6.5857342231
 30
0.0
 10
12.6937898672
 20
6.5705188517
 30
0.0
 10
12.6877346978
 20
6.5530846303
 30
0.0
 10
12.683300921
 20
6.5407635719
 30
0.0
 10
12.6809293009
 20
6.534264585
 30
0.0
  0
SPLINE
  5
568
100
AcDbEntity
  8
0
100
AcDbSpline
 62
7
  6
CONTINUOUS
 70
0
 71
3
 72
13
 73
9
 74
0
 42
0.0000001
 43
0.0000001
 44
0.0000000001
 40
0.0
 40
0.0
 40
0.0
 40
0.0
 40
0.3279798104
 40
0.6076634646
 40
0.727535434
 40
0.8333220462
 40
0.9243727084
 40
1.0
 40
1.0
 40
1.0
 40
1.0
 10
12.6753899617
 20
6.5219443215
 30
0.0
 10
12.6783916962
 20
6.5301163393
 30
0.0
 10
12.6838660818
 20
6.5452892028
 30
0.0
 10
12.6901443123
 20
6.5635532085
 30
0.0
 10
12.6942855739
 20
6.5763120365
 30
0.0
 10
12.6967686817
 20
6.5843440774
 30
0.0
 10
12.6987784884
 20
6.5912918891
 30
0.0
 10
12.6999013845
 20
6.5955722908
 30
0.0
 10
12.7003689893
 20
6.5975245168
 30
0.0
  0
SPLINE
  5
569
100
AcDbEntity
  8
0
100
AcDbSpline
 62
9
  6
CONTINUOUS
 70
0
 71
3
 72
25
 73
21
 74
0
 42
0.0000001
 43
0.0000001
 44
0.0000000001
 40
0.0
 40
0.0
 40
0.0
 40
0.0
 40
0.1910239743
 40
0.3750283109
 40
0.4620463412
 40
0.5446798961
 40
0.622171194
 40
0.6938146033
 40
0.7589185358
 40
0.8168891086
 40
0.8672588871
 40
0.9096054502
 40
0.9276872739
 40
0.9436933644
 40
0.9576301148
 40
0.9695269468
 40
0.9794557232
 40
0.9875796749
 40
0.9942293643
 40
1.0
 40
1.0
 40
1.0
 40
1.0
 10
12.0722946802
 20
8.9477400426
 30
0.0
 10
12.0807450382
 20
8.9477400426
 30
0.0
 10
12.0973357858
 20
8.9479294776
 30
0.0
 10
12.1177653018
 20
8.9486413166
 30
0.0
 10
12.1333866709
 20
8.9495045168
 30
0.0
 10
12.1442933361
 20
8.9502678838
 30
0.0
 10
12.1545083983
 20
8.9511524229
 30
0.0
 10
12.1639339961
 20
8.9521474652
 30
0.0
 10
12.172478557
 20
8.9532437864
 30
0.0
 10
12.180060272
 20
8.9544303929
 30
0.0
 10
12.1866071045
 20
8.9556925801
 30
0.0
 10
12.1913738876
 20
8.9568477827
 30
0.0
 10
12.1946114453
 20
8.9578260368
 30
0.0
 10
12.1966161685
 20
8.9585319482
 30
0.0
 10
12.1983247155
 20
8.9592471884
 30
0.0
 10
12.199734195
 20
8.9599702544
 30
0.0
 10
12.2008437635
 20
8.9607009732
 30
0.0
 10
12.2016542703
 20
8.9614436125
 30
0.0
 10
12.2021670595
 20
8.9622094653
 30
0.0
 10
12.202292535
 20
8.9627623746
 30
0.0
 10
12.2022927091
 20
8.963017651
 30
0.0
  0
SPLINE
  5
56A
100
AcDbEntity
  8
0
100
AcDbSpline
 62
7
  6
CONTINUOUS
 70
0
 71
3
 72
9
 73
5
 74
0
 42
0.0000001
 43
0.0000001
 44
0.0000000001
 40
0.0
 40
0.0
 40
0.0
 40
0.0
 40
0.5320143907
 40
1.0
 40
1.0
 40
1.0
 40
1.0
 10
12.813711551
 20
6.6074934142
 30
0.0
 10
12.8126944665
 20
6.6073072292
 30
0.0
 10
12.8107957472
 20
6.6068747971
 30
0.0
 10
12.8089665378
 20
6.6061888648
 30
0.0
 10
12.8081502153
 20
6.6057877574
 30
0.0
  0
LINE
  5
56B
100
AcDbEntity
  8
0
100
AcDbLine
 62
7
  6
CONTINUOUS
 10
12.8203734604
 20
6.5342877703
 11
12.9228619465
 21
6.5341351788
  0
LINE
  5
56C
100
AcDbEntity
  8
0
100
AcDbLine
 62
7
  6
CONTINUOUS
 10
12.916292774
 20
6.5218531812
 11
12.8137791565
 21
6.521958708
  0
SPLINE
  5
56D
100
AcDbEntity
  8
0
100
AcDbSpline
 62
7
  6
CONTINUOUS
 70
0
 71
3
 72
13
 73
9
 74
0
 42
0.0000001
 43
0.0000001
 44
0.0000000001
 40
0.0
 40
0.0
 40
0.0
 40
0.0
 40
0.0878683835
 40
0.1868785464
 40
0.2967993414
 40
0.4173677285
 40
0.6893841046
 40
1.0
 40
1.0
 40
1.0
 40
1.0
 10
12.8314571897
 20
6.6039886469
 30
0.0
 10
12.8315110102
 20
6.6019168976
 30
0.0
 10
12.8314618662
 20
6.5975060708
 30
0.0
 10
12.8310094103
 20
6.590518173
 30
0.0
 10
12.8301747896
 20
6.5827895278
 30
0.0
 10
12.8284840239
 20
6.5710567597
 30
0.0
 10
12.825364213
 20
6.5547587496
 30
0.0
 10
12.8221878349
 20
6.5413852918
 30
0.0
 10
12.8203733057
 20
6.5342874262
 30
0.0
  0
SPLINE
  5
56E
100
AcDbEntity
  8
0
100
AcDbSpline
 62
7
  6
CONTINUOUS
 70
0
 71
3
 72
14
 73
10
 74
0
 42
0.0000001
 43
0.0000001
 44
0.0000000001
 40
0.0
 40
0.0
 40
0.0
 40
0.0
 40
0.3153051759
 40
0.4577444416
 40
0.5892865659
 40
0.7095861028
 40
0.8183391737
 40
0.9152320838
 40
1.0
 40
1.0
 40
1.0
 40
1.0
 10
12.8137792428
 20
6.5219589004
 30
0.0
 10
12.8156864117
 20
6.5291947083
 30
0.0
 10
12.8182703575
 20
6.5397509098
 30
0.0
 10
12.8210976731
 20
6.5534485596
 30
0.0
 10
12.8227371714
 20
6.5626624565
 30
0.0
 10
12.8239651927
 20
6.5711333456
 30
0.0
 10
12.824778524
 20
6.5788284286
 30
0.0
 10
12.8251751858
 20
6.5857119672
 30
0.0
 10
12.8251604718
 20
6.5900277173
 30
0.0
 10
12.8250648023
 20
6.5920371817
 30
0.0
  0
LINE
  5
56F
100
AcDbEntity
  8
0
100
AcDbLine
 62
7
  6
CONTINUOUS
 10
12.9719394713
 20
6.5342648695
 11
13.0572950924
 21
6.534132011
  0
LINE
  5
570
100
AcDbEntity
  8
0
100
AcDbLine
 62
7
  6
CONTINUOUS
 10
13.0497829458
 20
6.5218507817
 11
12.9644032057
 21
6.5219441623
  0
SPLINE
  5
571
100
AcDbEntity
  8
0
100
AcDbSpline
 62
7
  6
CONTINUOUS
 70
0
 71
3
 72
15
 73
11
 74
0
 42
0.0000001
 43
0.0000001
 44
0.0000000001
 40
0.0
 40
0.0
 40
0.0
 40
0.0
 40
0.0864220915
 40
0.1833669125
 40
0.2913522117
 40
0.410622148
 40
0.5412850534
 40
0.6833036172
 40
0.8363723776
 40
1.0
 40
1.0
 40
1.0
 40
1.0
 10
12.9679315911
 20
6.6097483789
 30
0.0
 10
12.968898717
 20
6.6077683438
 30
0.0
 10
12.9706136345
 20
6.6034000158
 30
0.0
 10
12.9724935352
 20
6.5962004524
 30
0.0
 10
12.9738207035
 20
6.5880307075
 30
0.0
 10
12.9745881652
 20
6.578929544
 30
0.0
 10
12.974791844
 20
6.5689318762
 30
0.0
 10
12.9744266956
 20
6.558077656
 30
0.0
 10
12.9734907684
 20
6.5464152294
 30
0.0
 10
12.972516282
 20
6.538396702
 30
0.0
 10
12.9719393174
 20
6.534264585
 30
0.0
  0
SPLINE
  5
572
100
AcDbEntity
  8
0
100
AcDbSpline
 62
7
  6
CONTINUOUS
 70
0
 71
3
 72
15
 73
11
 74
0
 42
0.0000001
 43
0.0000001
 44
0.0000000001
 40
0.0
 40
0.0
 40
0.0
 40
0.0
 40
0.1667404883
 40
0.32215974
 40
0.4656423036
 40
0.5967983563
 40
0.715567874
 40
0.8220792626
 40
0.9166525065
 40
1.0
 40
1.0
 40
1.0
 40
1.0
 10
12.9644032918
 20
6.5219443215
 30
0.0
 10
12.9650485948
 20
6.5261622515
 30
0.0
 10
12.9661438717
 20
6.5343361292
 30
0.0
 10
12.9672185711
 20
6.5462076971
 30
0.0
 10
12.9676715654
 20
6.5572090209
 30
0.0
 10
12.9675045926
 20
6.5672818835
 30
0.0
 10
12.9667232906
 20
6.5763784312
 30
0.0
 10
12.9653317974
 20
6.5844575406
 30
0.0
 10
12.963337825
 20
6.5914736025
 30
0.0
 10
12.9614957087
 20
6.5956629839
 30
0.0
 10
12.960454532
 20
6.5975245168
 30
0.0
  0
SPLINE
  5
573
100
AcDbEntity
  8
0
100
AcDbSpline
 62
7
  6
CONTINUOUS
 70
0
 71
3
 72
12
 73
8
 74
0
 42
0.0000001
 43
0.0000001
 44
0.0000000001
 40
0.0
 40
0.0
 40
0.0
 40
0.0
 40
0.3308895236
 40
0.5973394741
 40
0.8118477908
 40
0.9071781713
 40
1.0
 40
1.0
 40
1.0
 40
1.0
 10
12.960454532
 20
6.5975245168
 30
0.0
 10
12.9600834211
 20
6.5981880308
 30
0.0
 10
12.9594599033
 20
6.5994146779
 30
0.0
 10
12.9588560173
 20
6.6011878931
 30
0.0
 10
12.9587442261
 20
6.6025332149
 30
0.0
 10
12.9589461291
 20
6.6034428054
 30
0.0
 10
12.9591315394
 20
6.6038379183
 30
0.0
 10
12.9592426962
 20
6.6040199251
 30
0.0
  0
LINE
  5
574
100
AcDbEntity
  8
0
100
AcDbLine
 62
7
  6
CONTINUOUS
 10
13.08752325
 20
6.5342877703
 11
13.1688328409
 21
6.5341351788
  0
LINE
  5
575
100
AcDbEntity
  8
0
100
AcDbLine
 62
7
  6
CONTINUOUS
 10
13.1604952609
 20
6.5218531813
 11
13.0791537544
 21
6.5219587082
  0
SPLINE
  5
576
100
AcDbEntity
  8
0
100
AcDbSpline
 62
7
  6
CONTINUOUS
 70
0
 71
3
 72
13
 73
9
 74
0
 42
0.0000001
 43
0.0000001
 44
0.0000000001
 40
0.0
 40
0.0
 40
0.0
 40
0.0
 40
0.2040767349
 40
0.3169887586
 40
0.4375797722
 40
0.566123303
 40
0.7027800345
 40
1.0
 40
1.0
 40
1.0
 40
1.0
 10
13.0735851164
 20
6.6039886469
 30
0.0
 10
13.076203308
 20
6.5998494656
 30
0.0
 10
13.0794709503
 20
6.5929009944
 30
0.0
 10
13.0826785172
 20
6.5828980301
 30
0.0
 10
13.0846757366
 20
6.5744315854
 30
0.0
 10
13.0861739454
 20
6.5652885831
 30
0.0
 10
13.087533836
 20
6.5518530188
 30
0.0
 10
13.0877081901
 20
6.5414181381
 30
0.0
 10
13.0875230402
 20
6.5342874262
 30
0.0
  0
SPLINE
  5
577
100
AcDbEntity
  8
0
100
AcDbSpline
 62
7
  6
CONTINUOUS
 70
0
 71
3
 72
13
 73
9
 74
0
 42
0.0000001
 43
0.0000001
 44
0.0000000001
 40
0.0
 40
0.0
 40
0.0
 40
0.0
 40
0.3010156099
 40
0.4386386152
 40
0.5674659048
 40
0.6876696678
 40
0.7995654033
 40
1.0
 40
1.0
 40
1.0
 40
1.0
 10
13.0791538715
 20
6.5219589004
 30
0.0
 10
13.0794772384
 20
6.5292245902
 30
0.0
 10
13.0794763836
 20
6.5398492482
 30
0.0
 10
13.0782530426
 20
6.553512691
 30
0.0
 10
13.0768095284
 20
6.5627496342
 30
0.0
 10
13.0748212118
 20
6.5712526027
 30
0.0
 10
13.0715779794
 20
6.5811900256
 30
0.0
 10
13.0682035474
 20
6.588038406
 30
0.0
 10
13.0654719137
 20
6.5920371817
 30
0.0
  0
SPLINE
  5
578
100
AcDbEntity
  8
0
100
AcDbSpline
 62
7
  6
CONTINUOUS
 70
0
 71
3
 72
15
 73
11
 74
0
 42
0.0000001
 43
0.0000001
 44
0.0000000001
 40
0.0
 40
0.0
 40
0.0
 40
0.0
 40
0.1987408426
 40
0.3738460041
 40
0.5257702254
 40
0.6552658497
 40
0.7636529407
 40
0.853502195
 40
0.9296442972
 40
1.0
 40
1.0
 40
1.0
 40
1.0
 10
13.0654719137
 20
6.5920371817
 30
0.0
 10
13.0649545542
 20
6.5927945324
 30
0.0
 10
13.0639935397
 20
6.5942276102
 30
0.0
 10
13.0627006252
 20
6.5962814687
 30
0.0
 10
13.0616573588
 20
6.5981130433
 30
0.0
 10
13.0608725255
 20
6.5997339519
 30
0.0
 10
13.0603539617
 20
6.6011588237
 30
0.0
 10
13.0601132684
 20
6.6024102549
 30
0.0
 10
13.0601790997
 20
6.6035153363
 30
0.0
 10
13.0604588566
 20
6.6041502902
 30
0.0
 10
13.0606415836
 20
6.6044186857
 30
0.0
  0
SPLINE
  5
579
100
AcDbEntity
  8
0
100
AcDbSpline
 62
9
  6
CONTINUOUS
 70
0
 71
3
 72
9
 73
5
 74
0
 42
0.0000001
 43
0.0000001
 44
0.0000000001
 40
0.0
 40
0.0
 40
0.0
 40
0.0
 40
0.5063803772
 40
1.0
 40
1.0
 40
1.0
 40
1.0
 10
11.7394370602
 20
9.4241991834
 30
0.0
 10
11.7389358336
 20
9.4233315223
 30
0.0
 10
11.7381651358
 20
9.4214746034
 30
0.0
 10
11.7379976892
 20
9.4194674266
 30
0.0
 10
11.7380605841
 20
9.4184926748
 30
0.0
  0
LINE
  5
57A
100
AcDbEntity
  8
0
100
AcDbLine
 62
7
  6
CONTINUOUS
 10
13.2064215467
 20
6.5342648695
 11
13.2694553546
 21
6.534132011
  0
LINE
  5
57B
100
AcDbEntity
  8
0
100
AcDbLine
 62
7
  6
CONTINUOUS
 10
13.2604248629
 20
6.5218507817
 11
13.1973620485
 21
6.5219441625
  0
SPLINE
  5
57C
100
AcDbEntity
  8
0
100
AcDbSpline
 62
7
  6
CONTINUOUS
 70
0
 71
3
 72
13
 73
9
 74
0
 42
0.0000001
 43
0.0000001
 44
0.0000000001
 40
0.0
 40
0.0
 40
0.0
 40
0.0
 40
0.1053698646
 40
0.2147978989
 40
0.3292596199
 40
0.4495706985
 40
0.7101692676
 40
1.0
 40
1.0
 40
1.0
 40
1.0
 10
13.1737220359
 20
6.6097483789
 30
0.0
 10
13.175994265
 20
6.6078523683
 30
0.0
 10
13.180360814
 20
6.6036593142
 30
0.0
 10
13.1861763932
 20
6.5964419594
 30
0.0
 10
13.1913382539
 20
6.5882442391
 30
0.0
 10
13.1974766983
 20
6.5757342903
 30
0.0
 10
13.2032530122
 20
6.5576953292
 30
0.0
 10
13.2056560405
 20
6.5423685872
 30
0.0
 10
13.2064213527
 20
6.534264585
 30
0.0
  0
SPLINE
  5
57D
100
AcDbEntity
  8
0
100
AcDbSpline
 62
7
  6
CONTINUOUS
 70
0
 71
3
 72
15
 73
11
 74
0
 42
0.0000001
 43
0.0000001
 44
0.0000000001
 40
0.0
 40
0.0
 40
0.0
 40
0.0
 40
0.1505961837
 40
0.293194332
 40
0.4277854929
 40
0.5546293437
 40
0.674348826
 40
0.7877873792
 40
0.895935276
 40
1.0
 40
1.0
 40
1.0
 40
1.0
 10
13.1973621568
 20
6.5219443215
 30
0.0
 10
13.1970611034
 20
6.5261874562
 30
0.0
 10
13.1961970189
 20
6.5344323427
 30
0.0
 10
13.1940371396
 20
6.5463333372
 30
0.0
 10
13.1910720118
 20
6.5573691045
 30
0.0
 10
13.1873217409
 20
6.5674793993
 30
0.0
 10
13.1828087292
 20
6.576614392
 30
0.0
 10
13.1775532805
 20
6.5847258114
 30
0.0
 10
13.1715845797
 20
6.5917594466
 30
0.0
 10
13.1670786807
 20
6.5957520677
 30
0.0
 10
13.1647337249
 20
6.5975245168
 30
0.0
  0
SPLINE
  5
57E
100
AcDbEntity
  8
0
100
AcDbSpline
 62
7
  6
CONTINUOUS
 70
0
 71
3
 72
18
 73
14
 74
0
 42
0.0000001
 43
0.0000001
 44
0.0000000001
 40
0.0
 40
0.0
 40
0.0
 40
0.0
 40
0.2211734555
 40
0.4147773105
 40
0.580196869
 40
0.7168908482
 40
0.8246074119
 40
0.8677471645
 40
0.9040015218
 40
0.9338607597
 40
0.9583262171
 40
0.9793395909
 40
1.0
 40
1.0
 40
1.0
 40
1.0
 10
13.1647337249
 20
6.5975245168
 30
0.0
 10
13.1639522813
 20
6.5981151757
 30
0.0
 10
13.1624840621
 20
6.5992192557
 30
0.0
 10
13.1604321064
 20
6.600765959
 30
0.0
 10
13.1586923751
 20
6.6021055473
 30
0.0
 10
13.157282859
 20
6.6032491028
 30
0.0
 10
13.1563337015
 20
6.6041009062
 30
0.0
 10
13.1557691105
 20
6.6047084332
 30
0.0
 10
13.1554716983
 20
6.6050912996
 30
0.0
 10
13.1552693405
 20
6.6054396476
 30
0.0
 10
13.1551645251
 20
6.6057605969
 30
0.0
 10
13.1551703571
 20
6.6060608716
 30
0.0
 10
13.1552541824
 20
6.6062322638
 30
0.0
 10
13.1553084019
 20
6.606305973
 30
0.0
  0
SPLINE
  5
57F
100
AcDbEntity
  8
0
100
AcDbSpline
 62
9
  6
CONTINUOUS
 70
0
 71
3
 72
17
 73
13
 74
0
 42
0.0000001
 43
0.0000001
 44
0.0000000001
 40
0.0
 40
0.0
 40
0.0
 40
0.0
 40
0.0462054917
 40
0.0909420711
 40
0.1352961843
 40
0.1803847524
 40
0.2765760938
 40
0.3861657394
 40
0.5127155468
 40
0.6575424485
 40
0.8204578172
 40
1.0
 40
1.0
 40
1.0
 40
1.0
 10
11.7060689191
 20
9.4241991835
 30
0.0
 10
11.7057782451
 20
9.4236960041
 30
0.0
 10
11.7052796569
 20
9.4226602394
 30
0.0
 10
11.70480533
 20
9.4210177565
 30
0.0
 10
11.7046247601
 20
9.4193311535
 30
0.0
 10
11.7047801746
 20
9.4169909186
 30
0.0
 10
11.7057865974
 20
9.4139461897
 30
0.0
 10
11.7080893018
 20
9.4104196863
 30
0.0
 10
11.7114447466
 20
9.4069682679
 30
0.0
 10
11.7157898352
 20
9.4036351084
 30
0.0
 10
11.7210510993
 20
9.400472661
 30
0.0
 10
11.7249363017
 20
9.3986004915
 30
0.0
 10
11.7270049383
 20
9.3976953076
 30
0.0
  0
LINE
  5
580
100
AcDbEntity
  8
0
100
AcDbLine
 62
7
  6
CONTINUOUS
 10
13.2908824948
 20
6.5342877702
 11
13.3459042099
 21
6.5341351788
  0
LINE
  5
581
100
AcDbEntity
  8
0
100
AcDbLine
 62
7
  6
CONTINUOUS
 10
13.3363221033
 20
6.5218531812
 11
13.2812636937
 21
6.5219587082
  0
SPLINE
  5
582
100
AcDbEntity
  8
0
100
AcDbSpline
 62
7
  6
CONTINUOUS
 70
0
 71
3
 72
11
 73
7
 74
0
 42
0.0000001
 43
0.0000001
 44
0.0000000001
 40
0.0
 40
0.0
 40
0.0
 40
0.0
 40
0.2287462726
 40
0.469196223
 40
0.7253866417
 40
1.0
 40
1.0
 40
1.0
 40
1.0
 10
13.2527982825
 20
6.6039886469
 30
0.0
 10
13.2575329095
 20
6.6000409993
 30
0.0
 10
13.2664117702
 20
6.5909014537
 30
0.0
 10
13.2772167764
 20
6.5744934792
 30
0.0
 10
13.285617689
 20
6.5553896289
 30
0.0
 10
13.2893936375
 20
6.5415366971
 30
0.0
 10
13.2908822431
 20
6.5342874262
 30
0.0
  0
SPLINE
  5
583
100
AcDbEntity
  8
0
100
AcDbSpline
 62
7
  6
CONTINUOUS
 70
0
 71
3
 72
9
 73
5
 74
0
 42
0.0000001
 43
0.0000001
 44
0.0000000001
 40
0.0
 40
0.0
 40
0.0
 40
0.0
 40
0.2547218889
 40
1.0
 40
1.0
 40
1.0
 40
1.0
 10
13.2812638342
 20
6.5219589004
 30
0.0
 10
13.2810371092
 20
6.5232372457
 30
0.0
 10
13.2800881624
 20
6.5282451458
 30
0.0
 10
13.2789011514
 20
6.5332085233
 30
0.0
 10
13.2778742599
 20
6.5368657069
 30
0.0
  0
SPLINE
  5
584
100
AcDbEntity
  8
0
100
AcDbSpline
 62
7
  6
CONTINUOUS
 70
0
 71
3
 72
10
 73
6
 74
0
 42
0.0000001
 43
0.0000001
 44
0.0000000001
 40
0.0
 40
0.0
 40
0.0
 40
0.0
 40
0.5207175093
 40
0.7648434376
 40
1.0
 40
1.0
 40
1.0
 40
1.0
 10
13.2778742599
 20
6.5368657069
 30
0.0
 10
13.2755829425
 20
6.545026032
 30
0.0
 10
13.271154089
 20
6.5567797508
 30
0.0
 10
13.2629913922
 20
6.570891747
 30
0.0
 10
13.2583165023
 20
6.5771665274
 30
0.0
 10
13.2558407042
 20
6.580085763
 30
0.0
  0
SPLINE
  5
585
100
AcDbEntity
  8
0
100
AcDbSpline
 62
9
  6
CONTINUOUS
 70
0
 71
3
 72
17
 73
13
 74
0
 42
0.0000001
 43
0.0000001
 44
0.0000000001
 40
0.0
 40
0.0
 40
0.0
 40
0.0
 40
0.0462056868
 40
0.0909423135
 40
0.135296435
 40
0.1803849922
 40
0.2765762969
 40
0.3861659633
 40
0.5127156664
 40
0.6575425056
 40
0.8204577471
 40
1.0
 40
1.0
 40
1.0
 40
1.0
 10
11.6727007735
 20
9.4241991817
 30
0.0
 10
11.6724100943
 20
9.4236960019
 30
0.0
 10
11.6719115001
 20
9.4226602348
 30
0.0
 10
11.6714371756
 20
9.4210177457
 30
0.0
 10
11.6712566144
 20
9.4193311396
 30
0.0
 10
11.6714120349
 20
9.4169909035
 30
0.0
 10
11.6724184632
 20
9.4139461734
 30
0.0
 10
11.6747211765
 20
9.4104196729
 30
0.0
 10
11.6780766225
 20
9.4069682519
 30
0.0
 10
11.6824217183
 20
9.4036350987
 30
0.0
 10
11.6876829825
 20
9.4004726437
 30
0.0
 10
11.6915681858
 20
9.3986004675
 30
0.0
 10
11.6936368253
 20
9.3976952821
 30
0.0
  0
SPLINE
  5
586
100
AcDbEntity
  8
0
100
AcDbSpline
 62
9
  6
CONTINUOUS
 70
0
 71
3
 72
17
 73
13
 74
0
 42
0.0000001
 43
0.0000001
 44
0.0000000001
 40
0.0
 40
0.0
 40
0.0
 40
0.0
 40
0.0463053757
 40
0.091160744
 40
0.1356456561
 40
0.1808659086
 40
0.2772250245
 40
0.3870044658
 40
0.5136549028
 40
0.6584128849
 40
0.8209663798
 40
1.0
 40
1.0
 40
1.0
 40
1.0
 10
11.6378208508
 20
9.4230989406
 30
0.0
 10
11.6375331357
 20
9.422576338
 30
0.0
 10
11.6370425936
 20
9.4215027758
 30
0.0
 10
11.6365886161
 20
9.4198065883
 30
0.0
 10
11.636438908
 20
9.4180703788
 30
0.0
 10
11.6366470105
 20
9.4156715101
 30
0.0
 10
11.6377361105
 20
9.4125651133
 30
0.0
 10
11.6401803322
 20
9.4090013082
 30
0.0
 10
11.6436938661
 20
9.4055379965
 30
0.0
 10
11.6482185416
 20
9.4022280161
 30
0.0
 10
11.653670598
 20
9.3991190835
 30
0.0
 10
11.6576855692
 20
9.3973020581
 30
0.0
 10
11.6598209309
 20
9.3964300429
 30
0.0
  0
LINE
  5
587
100
AcDbEntity
  8
0
100
AcDbLine
 62
7
  6
CONTINUOUS
 10
13.3964121909
 20
6.5218507817
 11
13.3596287707
 21
6.5219441625
  0
SPLINE
  5
588
100
AcDbEntity
  8
0
100
AcDbSpline
 62
7
  6
CONTINUOUS
 70
0
 71
3
 72
11
 73
7
 74
0
 42
0.0000001
 43
0.0000001
 44
0.0000000001
 40
0.0
 40
0.0
 40
0.0
 40
0.0
 40
0.2385283694
 40
0.4830680841
 40
0.7363291874
 40
1.0
 40
1.0
 40
1.0
 40
1.0
 10
13.328693005
 20
6.5972168446
 30
0.0
 10
13.33333398
 20
6.5933417845
 30
0.0
 10
13.3421311626
 20
6.5847441986
 30
0.0
 10
13.3534221641
 20
6.5698036432
 30
0.0
 10
13.3627992738
 20
6.5528659092
 30
0.0
 10
13.3675903046
 20
6.540625205
 30
0.0
 10
13.3696420382
 20
6.534264585
 30
0.0
  0
SPLINE
  5
589
100
AcDbEntity
  8
0
100
AcDbSpline
 62
7
  6
CONTINUOUS
 70
0
 71
3
 72
11
 73
7
 74
0
 42
0.0000001
 43
0.0000001
 44
0.0000000001
 40
0.0
 40
0.0
 40
0.0
 40
0.0
 40
0.2601140341
 40
0.5125703325
 40
0.7586434606
 40
1.0
 40
1.0
 40
1.0
 40
1.0
 10
13.3539894993
 20
6.5379369188
 30
0.0
 10
13.3522069057
 20
6.5421875622
 30
0.0
 10
13.3482823979
 20
6.5503991489
 30
0.0
 10
13.341240066
 20
6.5618796898
 30
0.0
 10
13.3331876739
 20
6.5722597255
 30
0.0
 10
13.3271338387
 20
6.578452726
 30
0.0
 10
13.3239680087
 20
6.581328393
 30
0.0
  0
SPLINE
  5
58A
100
AcDbEntity
  8
0
100
AcDbSpline
 62
9
  6
CONTINUOUS
 70
0
 71
3
 72
25
 73
21
 74
0
 42
0.0000001
 43
0.0000001
 44
0.0000000001
 40
0.0
 40
0.0
 40
0.0
 40
0.0
 40
0.0059083005
 40
0.0126466422
 40
0.020798299
 40
0.0306857935
 40
0.0424724107
 40
0.0562411945
 40
0.0720328996
 40
0.0898647615
 40
0.1316223325
 40
0.1812932403
 40
0.2385329017
 40
0.3029364558
 40
0.3739477531
 40
0.4509583891
 40
0.5333404693
 40
0.620403717
 40
0.8056840927
 40
1.0
 40
1.0
 40
1.0
 40
1.0
 10
12.2022928924
 20
9.6737659571
 30
0.0
 10
12.2022931168
 20
9.6740092373
 30
0.0
 10
12.2021810713
 20
9.6745335065
 30
0.0
 10
12.2017148696
 20
9.6752659296
 30
0.0
 10
12.2009739503
 20
9.6759763518
 30
0.0
 10
12.1999604522
 20
9.6766760273
 30
0.0
 10
12.1986737044
 20
9.6773689298
 30
0.0
 10
12.1971140139
 20
9.6780547669
 30
0.0
 10
12.1952830691
 20
9.6787324036
 30
0.0
 10
12.192324079
 20
9.6796725908
 30
0.0
 10
12.1879617681
 20
9.6807862017
 30
0.0
 10
12.1819624105
 20
9.6820102434
 30
0.0
 10
12.1750026486
 20
9.6831676776
 30
0.0
 10
12.1671426806
 20
9.6842457372
 30
0.0
 10
12.1584513893
 20
9.6852356056
 30
0.0
 10
12.1490058101
 20
9.6861277912
 30
0.0
 10
12.1388877088
 20
9.6869127084
 30
0.0
 10
12.1243097294
 20
9.6878272448
 30
0.0
 10
12.1051095208
 20
9.6886382039
 30
0.0
 10
12.0894806997
 20
9.6889387833
 30
0.0
 10
12.0814798197
 20
9.689005384
 30
0.0
  0
SPLINE
  5
58B
100
AcDbEntity
  8
0
100
AcDbSpline
 62
9
  6
CONTINUOUS
 70
0
 71
3
 72
16
 73
12
 74
0
 42
0.0000001
 43
0.0000001
 44
0.0000000001
 40
0.0
 40
0.0
 40
0.0
 40
0.0
 40
0.0980299523
 40
0.1936018871
 40
0.293612872
 40
0.4039476049
 40
0.4643095062
 40
0.5285117626
 40
0.6690844315
 40
0.8263585782
 40
1.0
 40
1.0
 40
1.0
 40
1.0
 10
11.6091239646
 20
9.4204360364
 30
0.0
 10
11.6086557487
 20
9.4194807341
 30
0.0
 10
11.6079711516
 20
9.417458106
 30
0.0
 10
11.607904775
 20
9.4142236545
 30
0.0
 10
11.6088296722
 20
9.4109900186
 30
0.0
 10
11.6103339612
 20
9.4084366446
 30
0.0
 10
11.6119299503
 20
9.4064460118
 30
0.0
 10
11.6139233565
 20
9.4043660086
 30
0.0
 10
11.6169733301
 20
9.4018665491
 30
0.0
 10
11.6213015408
 20
9.399120519
 30
0.0
 10
11.6245153208
 20
9.3975045082
 30
0.0
 10
11.6262311256
 20
9.3967252972
 30
0.0
  0
LINE
  5
58C
100
AcDbEntity
  8
0
100
AcDbLine
 62
7
  6
CONTINUOUS
 10
13.4176733856
 20
6.5342877702
 11
13.4429500081
 21
6.5341351788
  0
LINE
  5
58D
100
AcDbEntity
  8
0
100
AcDbLine
 62
7
  6
CONTINUOUS
 10
13.4327254538
 20
6.5218531812
 11
13.4074096636
 21
6.5219587082
  0
SPLINE
  5
58E
100
AcDbEntity
  8
0
100
AcDbSpline
 62
7
  6
CONTINUOUS
 70
0
 71
3
 72
11
 73
7
 74
0
 42
0.0000001
 43
0.0000001
 44
0.0000000001
 40
0.0
 40
0.0
 40
0.0
 40
0.0
 40
0.2453277752
 40
0.4921763119
 40
0.7429562087
 40
1.0
 40
1.0
 40
1.0
 40
1.0
 10
13.3578360657
 20
6.6039886469
 30
0.0
 10
13.3640301602
 20
6.6003252574
 30
0.0
 10
13.3759005646
 20
6.5919871585
 30
0.0
 10
13.391645583
 20
6.5767995768
 30
0.0
 10
13.4051129554
 20
6.5591285221
 30
0.0
 10
13.4123321438
 20
6.5460288394
 30
0.0
 10
13.4155011575
 20
6.5391871251
 30
0.0
  0
SPLINE
  5
58F
100
AcDbEntity
  8
0
100
AcDbSpline
 62
9
  6
CONTINUOUS
 70
0
 71
3
 72
25
 73
21
 74
0
 42
0.0000001
 43
0.0000001
 44
0.0000000001
 40
0.0
 40
0.0
 40
0.0
 40
0.0
 40
0.005865112
 40
0.0125743101
 40
0.0207159454
 40
0.0306147678
 40
0.0424317384
 40
0.0562469985
 40
0.0720985571
 40
0.0900011102
 40
0.1319295518
 40
0.1818016671
 40
0.2392521351
 40
0.3038604572
 40
0.3750555253
 40
0.452206061
 40
0.5346630259
 40
0.6217160479
 40
0.8066354811
 40
1.0
 40
1.0
 40
1.0
 40
1.0
 10
11.9422966514
 20
8.963017651
 30
0.0
 10
11.942296483
 20
8.962770839
 30
0.0
 10
11.9424122462
 20
8.9622381378
 30
0.0
 10
11.9428918942
 20
8.9614956956
 30
0.0
 10
11.943653262
 20
8.9607757694
 30
0.0
 10
11.9446949371
 20
8.9600669761
 30
0.0
 10
11.9460174772
 20
8.959365069
 30
0.0
 10
11.9476204782
 20
8.9586704735
 30
0.0
 10
11.9495019737
 20
8.957984399
 30
0.0
 10
11.9525422321
 20
8.9570328065
 30
0.0
 10
11.9570227068
 20
8.9559068663
 30
0.0
 10
11.9631820702
 20
8.954671189
 30
0.0
 10
11.9703238553
 20
8.9535047553
 30
0.0
 10
11.9783845263
 20
8.952420939
 30
0.0
 10
11.9872915035
 20
8.9514289628
 30
0.0
 10
11.9969635895
 20
8.9505384017
 30
0.0
 10
12.0073145493
 20
8.9497591756
 30
0.0
 10
12.0222026764
 20
8.9488587164
 30
0.0
 10
12.04177123
 20
8.9480756829
 30
0.0
 10
12.0576891703
 20
8.9478066078
 30
0.0
 10
12.0658260792
 20
8.9477589672
 30
0.0
  0
SPLINE
  5
590
100
AcDbEntity
  8
0
100
AcDbSpline
 62
9
  6
CONTINUOUS
 70
0
 71
3
 72
9
 73
5
 74
0
 42
0.0000001
 43
0.0000001
 44
0.0000000001
 40
0.0
 40
0.0
 40
0.0
 40
0.0
 40
0.5076261589
 40
1.0
 40
1.0
 40
1.0
 40
1.0
 10
11.5936425867
 20
9.4175890275
 30
0.0
 10
11.5932706416
 20
9.4167226221
 30
0.0
 10
11.5927253766
 20
9.4149252817
 30
0.0
 10
11.5926611083
 20
9.4130445346
 30
0.0
 10
11.5927495587
 20
9.4121342829
 30
0.0
  0
SPLINE
  5
591
100
AcDbEntity
  8
0
100
AcDbSpline
 62
9
  6
CONTINUOUS
 70
0
 71
3
 72
10
 73
6
 74
0
 42
0.0000001
 43
0.0000001
 44
0.0000000001
 40
0.0
 40
0.0
 40
0.0
 40
0.0
 40
0.2314033961
 40
0.4723541967
 40
1.0
 40
1.0
 40
1.0
 40
1.0
 10
11.5927495587
 20
9.4121342829
 30
0.0
 10
11.5928124904
 20
9.4114866476
 30
0.0
 10
11.5930641284
 20
9.4101738111
 30
0.0
 10
11.5940593211
 20
9.4075331443
 30
0.0
 10
11.5952947293
 20
9.4057156092
 30
0.0
 10
11.5962567193
 20
9.4045860429
 30
0.0
  0
SPLINE
  5
592
100
AcDbEntity
  8
0
100
AcDbSpline
 62
9
  6
CONTINUOUS
 70
0
 71
3
 72
9
 73
5
 74
0
 42
0.0000001
 43
0.0000001
 44
0.0000000001
 40
0.0
 40
0.0
 40
0.0
 40
0.0
 40
0.2331166315
 40
1.0
 40
1.0
 40
1.0
 40
1.0
 10
11.5962567193
 20
9.4045860429
 30
0.0
 10
11.5965869431
 20
9.4041982949
 30
0.0
 10
11.5980660353
 20
9.4025882481
 30
0.0
 10
11.5997625013
 20
9.4011867798
 30
0.0
 10
11.6011248344
 20
9.400211452
 30
0.0
  0
LINE
  5
593
100
AcDbEntity
  8
0
100
AcDbLine
 62
9
  6
CONTINUOUS
 10
11.5915815979
 20
9.4146036918
 11
11.5909546903
 21
9.4121346316
  0
SPLINE
  5
594
100
AcDbEntity
  8
0
100
AcDbSpline
 62
9
  6
CONTINUOUS
 70
0
 71
3
 72
15
 73
11
 74
0
 42
0.0000001
 43
0.0000001
 44
0.0000000001
 40
0.0
 40
0.0
 40
0.0
 40
0.0
 40
0.079731639
 40
0.1699986057
 40
0.2726343851
 40
0.3887909049
 40
0.5192098285
 40
0.664367863
 40
0.8245685855
 40
1.0
 40
1.0
 40
1.0
 40
1.0
 10
12.4316600693
 20
9.0790153924
 30
0.0
 10
12.431314273
 20
9.0778693987
 30
0.0
 10
12.430308987
 20
9.0755041154
 30
0.0
 10
12.4281045629
 20
9.07204042
 30
0.0
 10
12.4251343379
 20
9.0684629821
 30
0.0
 10
12.4214020641
 20
9.0647719556
 30
0.0
 10
12.4169102634
 20
9.0609684345
 30
0.0
 10
12.4116618458
 20
9.0570566629
 30
0.0
 10
12.4056603335
 20
9.0530416523
 30
0.0
 10
12.4013558059
 20
9.0504193086
 30
0.0
 10
12.3990832717
 20
9.0490879801
 30
0.0
  0
LINE
  5
595
100
AcDbEntity
  8
0
100
AcDbLine
 62
7
  6
CONTINUOUS
 10
11.6496935529
 20
9.2194132104
 11
11.6458132868
 21
9.2055380658
  0
SPLINE
  5
596
100
AcDbEntity
  8
0
100
AcDbSpline
 62
9
  6
CONTINUOUS
 70
0
 71
3
 72
15
 73
11
 74
0
 42
0.0000001
 43
0.0000001
 44
0.0000000001
 40
0.0
 40
0.0
 40
0.0
 40
0.0
 40
0.1644171761
 40
0.3197712643
 40
0.4640942371
 40
0.5961251444
 40
0.7153190616
 40
0.8216549165
 40
0.9159278649
 40
1.0
 40
1.0
 40
1.0
 40
1.0
 10
11.6458132868
 20
9.2055380658
 30
0.0
 10
11.6438012871
 20
9.2061781709
 30
0.0
 10
11.6399225159
 20
9.2075351419
 30
0.0
 10
11.6344290475
 20
9.2098570867
 30
0.0
 10
11.629488101
 20
9.2123839067
 30
0.0
 10
11.6251744952
 20
9.2150798643
 30
0.0
 10
11.6215434027
 20
9.2179063526
 30
0.0
 10
11.6186430324
 20
9.2208340626
 30
0.0
 10
11.6165092413
 20
9.2238253181
 30
0.0
 10
11.6155879719
 20
9.225949783
 30
0.0
 10
11.6152957082
 20
9.226989086
 30
0.0
  0
SPLINE
  5
597
100
AcDbEntity
  8
0
100
AcDbSpline
 62
7
  6
CONTINUOUS
 70
0
 71
3
 72
9
 73
5
 74
0
 42
0.0000001
 43
0.0000001
 44
0.0000000001
 40
0.0
 40
0.0
 40
0.0
 40
0.0
 40
0.2587192581
 40
1.0
 40
1.0
 40
1.0
 40
1.0
 10
11.6830311265
 20
9.219921002
 30
0.0
 10
11.682708058
 20
9.2186691472
 30
0.0
 10
11.6814320686
 20
9.2138376519
 30
0.0
 10
11.6800413635
 20
9.2090357734
 30
0.0
 10
11.6789239084
 20
9.2055040163
 30
0.0
  0
SPLINE
  5
598
100
AcDbEntity
  8
0
100
AcDbSpline
 62
9
  6
CONTINUOUS
 70
0
 71
3
 72
15
 73
11
 74
0
 42
0.0000001
 43
0.0000001
 44
0.0000000001
 40
0.0
 40
0.0
 40
0.0
 40
0.0
 40
0.1653273092
 40
0.3218015212
 40
0.4671294279
 40
0.5998646267
 40
0.7192266462
 40
0.8250341027
 40
0.9179566548
 40
1.0
 40
1.0
 40
1.0
 40
1.0
 10
11.6789239084
 20
9.2055040163
 30
0.0
 10
11.6767441023
 20
9.2061813972
 30
0.0
 10
11.6725378248
 20
9.2076222326
 30
0.0
 10
11.6665764679
 20
9.2100960262
 30
0.0
 10
11.6612118519
 20
9.2127960207
 30
0.0
 10
11.6565324596
 20
9.2156769629
 30
0.0
 10
11.6526066325
 20
9.2186956874
 30
0.0
 10
11.6494902307
 20
9.2218128847
 30
0.0
 10
11.6472290922
 20
9.2249880162
 30
0.0
 10
11.6462834724
 20
9.2272437014
 30
0.0
 10
11.6460005436
 20
9.2283405492
 30
0.0
  0
SPLINE
  5
599
100
AcDbEntity
  8
0
100
AcDbSpline
 62
9
  6
CONTINUOUS
 70
0
 71
3
 72
14
 73
10
 74
0
 42
0.0000001
 43
0.0000001
 44
0.0000000001
 40
0.0
 40
0.0
 40
0.0
 40
0.0
 40
0.2401847864
 40
0.3638570743
 40
0.4893589715
 40
0.6162895025
 40
0.7440596075
 40
0.8721143269
 40
1.0
 40
1.0
 40
1.0
 40
1.0
 10
12.3990832651
 20
9.5876956256
 30
0.0
 10
12.3980222818
 20
9.5911604764
 30
0.0
 10
12.3959422692
 20
9.596280909
 30
0.0
 10
12.3922800694
 20
9.6026996802
 30
0.0
 10
12.3890132294
 20
9.6073505048
 30
0.0
 10
12.3852808919
 20
9.611717138
 30
0.0
 10
12.381128851
 20
9.6157428793
 30
0.0
 10
12.3766005406
 20
9.6193635606
 30
0.0
 10
12.3733549105
 20
9.6214688738
 30
0.0
 10
12.3716879014
 20
9.6224403066
 30
0.0
  0
LINE
  5
59A
100
AcDbEntity
  8
0
100
AcDbLine
 62
9
  6
CONTINUOUS
 10
12.4434549048
 20
9.5170806254
 11
12.5119212378
 21
9.5170806257
  0
LINE
  5
59B
100
AcDbEntity
  8
0
100
AcDbLine
 62
7
  6
CONTINUOUS
 10
13.3306455894
 20
6.621171796
 11
13.3332318964
 21
6.6207008112
  0
SPLINE
  5
59C
100
AcDbEntity
  8
0
100
AcDbSpline
 62
7
  6
CONTINUOUS
 70
0
 71
3
 72
11
 73
7
 74
0
 42
0.0000001
 43
0.0000001
 44
0.0000000001
 40
0.0
 40
0.0
 40
0.0
 40
0.0
 40
0.250458365
 40
0.4991277135
 40
0.7481895253
 40
1.0
 40
1.0
 40
1.0
 40
1.0
 10
13.369100674
 20
6.6097483789
 30
0.0
 10
13.3774791244
 20
6.6061870473
 30
0.0
 10
13.3936350563
 20
6.5977274909
 30
0.0
 10
13.4154523928
 20
6.5812941959
 30
0.0
 10
13.43431506
 20
6.5614699206
 30
0.0
 10
13.4445906934
 20
6.5463246905
 30
0.0
 10
13.4491006504
 20
6.5383598242
 30
0.0
  0
LINE
  5
59D
100
AcDbEntity
  8
0
100
AcDbLine
 62
7
  6
CONTINUOUS
 10
13.4513458535
 20
6.5342648695
 11
13.4595055208
 21
6.534132011
  0
LINE
  5
59E
100
AcDbEntity
  8
0
100
AcDbLine
 62
7
  6
CONTINUOUS
 10
13.449200346
 20
6.5218507817
 11
13.4410075575
 21
6.5219441625
  0
LINE
  5
59F
100
AcDbEntity
  8
0
100
AcDbLine
 62
9
  6
CONTINUOUS
 10
12.5119213721
 20
9.1197034768
 11
12.4434829323
 21
9.1197034764
  0
SPLINE
  5
5A0
100
AcDbEntity
  8
0
100
AcDbSpline
 62
7
  6
CONTINUOUS
 70
0
 71
3
 72
9
 73
5
 74
0
 42
0.0000001
 43
0.0000001
 44
0.0000000001
 40
0.0
 40
0.0
 40
0.0
 40
0.0
 40
0.2587194116
 40
1.0
 40
1.0
 40
1.0
 40
1.0
 10
11.7164061738
 20
9.2199104995
 30
0.0
 10
11.7160832247
 20
9.2186593283
 30
0.0
 10
11.7148076103
 20
9.2138305039
 30
0.0
 10
11.7134168353
 20
9.2090314102
 30
0.0
 10
11.7122988316
 20
9.2055019089
 30
0.0
  0
LINE
  5
5A1
100
AcDbEntity
  8
0
100
AcDbLine
 62
9
  6
CONTINUOUS
 10
11.7470763531
 20
9.1604814384
 11
11.600710259
 21
9.1604813494
  0
SPLINE
  5
5A2
100
AcDbEntity
  8
0
100
AcDbSpline
 62
9
  6
CONTINUOUS
 70
0
 71
3
 72
15
 73
11
 74
0
 42
0.0000001
 43
0.0000001
 44
0.0000000001
 40
0.0
 40
0.0
 40
0.0
 40
0.0
 40
0.1653282849
 40
0.3218035964
 40
0.4671331635
 40
0.5998696519
 40
0.7192320988
 40
0.8250387792
 40
0.9179596126
 40
1.0
 40
1.0
 40
1.0
 40
1.0
 10
11.7122988316
 20
9.2055019089
 30
0.0
 10
11.7101185978
 20
9.2061792775
 30
0.0
 10
11.7059114879
 20
9.2076201247
 30
0.0
 10
11.6999489263
 20
9.2100940356
 30
0.0
 10
11.6945831908
 20
9.2127942205
 30
0.0
 10
11.6899028024
 20
9.2156754299
 30
0.0
 10
11.6859761279
 20
9.2186944678
 30
0.0
 10
11.6828590683
 20
9.2218120365
 30
0.0
 10
11.6805974489
 20
9.2249875554
 30
0.0
 10
11.6796516462
 20
9.2272435561
 30
0.0
 10
11.6793686815
 20
9.2283405529
 30
0.0
  0
SPLINE
  5
5A3
100
AcDbEntity
  8
0
100
AcDbSpline
 62
9
  6
CONTINUOUS
 70
0
 71
3
 72
15
 73
11
 74
0
 42
0.0000001
 43
0.0000001
 44
0.0000000001
 40
0.0
 40
0.0
 40
0.0
 40
0.0
 40
0.1754355079
 40
0.3356396928
 40
0.4808001436
 40
0.6112200785
 40
0.7273759439
 40
0.830009318
 40
0.9202723705
 40
1.0
 40
1.0
 40
1.0
 40
1.0
 10
12.3990832717
 20
9.587695628
 30
0.0
 10
12.4013558738
 20
9.5863642244
 30
0.0
 10
12.405660532
 20
9.5837417487
 30
0.0
 10
12.4116622312
 20
9.579726576
 30
0.0
 10
12.4169107957
 20
9.5758146828
 30
0.0
 10
12.4214026819
 20
9.5720110764
 30
0.0
 10
12.4251349582
 20
9.5683199951
 30
0.0
 10
12.4281050845
 20
9.5647425269
 30
0.0
 10
12.4303092865
 20
9.5612788005
 30
0.0
 10
12.4313143185
 20
9.5589134948
 30
0.0
 10
12.4316599782
 20
9.5577675061
 30
0.0
  0
SPLINE
  5
5A4
100
AcDbEntity
  8
0
100
AcDbSpline
 62
7
  6
CONTINUOUS
 70
0
 71
3
 72
21
 73
17
 74
0
 42
0.0000001
 43
0.0000001
 44
0.0000000001
 40
0.0
 40
0.0
 40
0.0
 40
0.0
 40
0.003763894
 40
0.0076250136
 40
0.0125994303
 40
0.0192021054
 40
0.0380263391
 40
0.0648129481
 40
0.0997295023
 40
0.1428187553
 40
0.1940394406
 40
0.2532799326
 40
0.320413491
 40
0.3953073202
 40
0.5678317782
 40
1.0
 40
1.0
 40
1.0
 40
1.0
 10
13.3199078004
 20
6.6210596846
 30
0.0
 10
13.3199009841
 20
6.6210513749
 30
0.0
 10
13.3198905555
 20
6.621030587
 30
0.0
 10
13.3198973305
 20
6.6209934225
 30
0.0
 10
13.3199224696
 20
6.6209564948
 30
0.0
 10
13.3199854542
 20
6.6208963036
 30
0.0
 10
13.320112244
 20
6.6208160392
 30
0.0
 10
13.320317029
 20
6.6207117051
 30
0.0
 10
13.3205913137
 20
6.6205915445
 30
0.0
 10
13.320934172
 20
6.6204551307
 30
0.0
 10
13.3213451339
 20
6.6203021909
 30
0.0
 10
13.3218227757
 20
6.6201318112
 30
0.0
 10
13.3223656914
 20
6.6199432742
 30
0.0
 10
13.3232155658
 20
6.619652639
 30
0.0
 10
13.3250536198
 20
6.6190303638
 30
0.0
 10
13.3266859779
 20
6.6184672388
 30
0.0
 10
13.3278485539
 20
6.6180533749
 30
0.0
  0
SPLINE
  5
5A5
100
AcDbEntity
  8
0
100
AcDbSpline
 62
7
  6
CONTINUOUS
 70
0
 71
3
 72
9
 73
5
 74
0
 42
0.0000001
 43
0.0000001
 44
0.0000000001
 40
0.0
 40
0.0
 40
0.0
 40
0.0
 40
0.4481729304
 40
1.0
 40
1.0
 40
1.0
 40
1.0
 10
13.3278485539
 20
6.6180533749
 30
0.0
 10
13.3297637882
 20
6.6173715731
 30
0.0
 10
13.334013645
 20
6.615783041
 30
0.0
 10
13.3381955807
 20
6.6140207994
 30
0.0
 10
13.3404794438
 20
6.6129962086
 30
0.0
  0
SPLINE
  5
5A6
100
AcDbEntity
  8
0
100
AcDbSpline
 62
9
  6
CONTINUOUS
 70
0
 71
3
 72
44
 73
40
 74
0
 42
0.0000001
 43
0.0000001
 44
0.0000000001
 40
0.0
 40
0.0
 40
0.0
 40
0.0
 40
0.002689284
 40
0.006031374
 40
0.0101853871
 40
0.0152280583
 40
0.0211959853
 40
0.028105136
 40
0.0359591889
 40
0.0447552049
 40
0.0651275877
 40
0.0891002908
 40
0.1165006682
 40
0.1471157683
 40
0.1807004738
 40
0.2169824835
 40
0.296419449
 40
0.3827859483
 40
0.4731751586
 40
0.5645272636
 40
0.6537435369
 40
0.696604523
 40
0.7378139463
 40
0.7770256832
 40
0.8139096331
 40
0.8481646179
 40
0.8795275588
 40
0.8940485658
 40
0.9077455491
 40
0.9205801693
 40
0.9325339598
 40
0.9435979606
 40
0.953750244
 40
0.9629534138
 40
0.9712264877
 40
0.978826071
 40
0.9860625463
 40
0.9931051817
 40
1.0
 40
1.0
 40
1.0
 40
1.0
 10
11.7847670789
 20
9.03171538
 30
0.0
 10
11.784935401
 20
9.0312219355
 30
0.0
 10
11.7855576276
 20
9.0302002874
 30
0.0
 10
11.7870047638
 20
9.0288403536
 30
0.0
 10
11.7890332105
 20
9.0274865586
 30
0.0
 10
11.7916493829
 20
9.0261368817
 30
0.0
 10
11.7948542387
 20
9.0247893093
 30
0.0
 10
11.7986446214
 20
9.0234479354
 30
0.0
 10
11.80301464
 20
9.0221158675
 30
0.0
 10
11.8099509137
 20
9.0202665049
 30
0.0
 10
11.8200169095
 20
9.0180514458
 30
0.0
 10
11.833708823
 20
9.0155908592
 30
0.0
 10
11.8494320943
 20
9.0132484775
 30
0.0
 10
11.867054883
 20
9.0110486761
 30
0.0
 10
11.8864299728
 20
9.0090179257
 30
0.0
 10
11.9152657137
 20
9.0064918262
 30
0.0
 10
11.9543675731
 20
9.0039684006
 30
0.0
 10
12.0039998304
 20
9.001994649
 30
0.0
 10
12.055973487
 20
9.001091443
 30
0.0
 10
12.1085066294
 20
9.0013043091
 30
0.0
 10
12.1518119685
 20
9.0024160115
 30
0.0
 10
12.1853757426
 20
9.0038703374
 30
0.0
 10
12.2092396583
 20
9.0052017589
 30
0.0
 10
12.2319276259
 20
9.0067729407
 30
0.0
 10
12.2532472446
 20
9.0085575921
 30
0.0
 10
12.2730215898
 20
9.0105314992
 30
0.0
 10
12.2884495144
 20
9.0123763884
 30
0.0
 10
12.2998894042
 20
9.0139753252
 30
0.0
 10
12.3077570727
 20
9.0151773364
 30
0.0
 10
12.3151176944
 20
9.016398711
 30
0.0
 10
12.3219589335
 20
9.0176279068
 30
0.0
 10
12.3282731891
 20
9.0188466453
 30
0.0
 10
12.3340443991
 20
9.020061559
 30
0.0
 10
12.3392485962
 20
9.0213371761
 30
0.0
 10
12.3438988496
 20
9.0227642198
 30
0.0
 10
12.3481055717
 20
9.0243094599
 30
0.0
 10
12.3520358648
 20
9.0259053373
 30
0.0
 10
12.3558098088
 20
9.0275206007
 30
0.0
 10
12.3582794344
 20
9.02861699
 30
0.0
 10
12.3594997363
 20
9.0291624903
 30
0.0
  0
SPLINE
  5
5A7
100
AcDbEntity
  8
0
100
AcDbSpline
 62
9
  6
CONTINUOUS
 70
0
 71
3
 72
9
 73
5
 74
0
 42
0.0000001
 43
0.0000001
 44
0.0000000001
 40
0.0
 40
0.0
 40
0.0
 40
0.0
 40
0.5373094328
 40
1.0
 40
1.0
 40
1.0
 40
1.0
 10
12.3640033669
 20
9.0311940618
 30
0.0
 10
12.3704244129
 20
9.0341181963
 30
0.0
 10
12.3822884947
 20
9.0397545815
 30
0.0
 10
12.3938517413
 20
9.0459984709
 30
0.0
 10
12.3990832705
 20
9.0490879802
 30
0.0
  0
LINE
  5
5A8
100
AcDbEntity
  8
0
100
AcDbLine
 62
7
  6
CONTINUOUS
 10
11.7487021057
 20
9.2158678021
 11
11.7456649561
 21
9.2055025354
  0
SPLINE
  5
5A9
100
AcDbEntity
  8
0
100
AcDbSpline
 62
9
  6
CONTINUOUS
 70
0
 71
3
 72
15
 73
11
 74
0
 42
0.0000001
 43
0.0000001
 44
0.0000000001
 40
0.0
 40
0.0
 40
0.0
 40
0.0
 40
0.165323787
 40
0.3215321816
 40
0.4664917342
 40
0.5989413597
 40
0.7181758891
 40
0.824083935
 40
0.9173639559
 40
1.0
 40
1.0
 40
1.0
 40
1.0
 10
11.744385054
 20
9.2059082248
 30
0.0
 10
11.7422832191
 20
9.2065877399
 30
0.0
 10
11.7382316768
 20
9.2080255963
 30
0.0
 10
11.7324964193
 20
9.2104778407
 30
0.0
 10
11.727344089
 20
9.2131405021
 30
0.0
 10
11.7228536562
 20
9.2159696826
 30
0.0
 10
11.719087645
 20
9.2189267508
 30
0.0
 10
11.716096804
 20
9.2219740711
 30
0.0
 10
11.7139242057
 20
9.2250744603
 30
0.0
 10
11.7130125988
 20
9.2272714195
 30
0.0
 10
11.7127368221
 20
9.2283405533
 30
0.0
  0
ENDSEC
  0
SECTION
  2
OBJECTS
  0
DICTIONARY
  5
C
100
AcDbDictionary
280
0
281
1
  3
ACAD_GROUP
350
D
  3
ACAD_MLINESTYLE
350
17
  3
ACAD_LAYOUT
350
1A
  3
ACAD_PLOTSETTINGS
350
19
  3
ACAD_PLOTSTYLENAME
350
E
  0
DICTIONARY
  5
D
102
{ACAD_REACTORS
330
C
102
}
100
AcDbDictionary
280
0
281
1
  0
ACDBDICTIONARYWDFLT
  5
E
102
{ACAD_REACTORS
330
C
102
}
100
AcDbDictionary
281
1
  3
Normal
350
F
100
AcDbDictionaryWithDefault
340
F
  0
DICTIONARY
  5
17
102
{ACAD_REACTORS
330
C
102
}
100
AcDbDictionary
280
0
281
1
  3
Standard
350
18
  0
DICTIONARY
  5
19
102
{ACAD_REACTORS
330
C
102
}
100
AcDbDictionary
281
1
  0
DICTIONARY
  5
1A
102
{ACAD_REACTORS
330
C
102
}
100
AcDbDictionary
281
1
  3
Model
350
5AA
  3
Layout1
350
5AB
  0
ACDBPLACEHOLDER
  5
F
102
{ACAD_REACTORS
330
E
102
}
  0
MLINESTYLE
  5
18
102
{ACAD_REACTORS
330
17
102
}
100
AcDbMlineStyle
  2
STANDARD
 70
0
  3

 62
256
 51
90.0
 52
90.0
 71
2
 49
0.5
 62
256
  6
BYLAYER
 49
-0.5
 62
256
  6
BYLAYER
  0
LAYOUT
  5
5AA
102
{ACAD_REACTORS
330
1A
102
}
100
AcDbPlotSettings
  1

  2
none_device
  4
ANSI_C_(22.00_x_17.00_Inches)
  6

 40
0.0
 41
0.0
 42
0.0
 43
0.0
 44
558.8
 45
431.8
 46
0.0
 47
0.0
 48
0.0
 49
0.0
140
0.0
141
0.0
142
1.0
143
1.0
 70
1024
 72
0
 73
0
 74
0
  7

 75
0
147
1.0
148
0.0
149
0.0
100
AcDbLayout
  1
Model
 70
0
 71
0
 10
0.0
 20
0.0
 11
22.0
 21
17.0
 12
0.0
 22
0.0
 32
0.0
 14
0.0
 24
0.0
 34
0.0
 15
0.0
 25
0.0
 35
0.0
146
0.0
 13
0.0
 23
0.0
 33
0.0
 16
1.0
 26
0.0
 36
0.0
 17
0.0
 27
1.0
 37
0.0
 76
0
330
202
345
0
346
0
  0
LAYOUT
  5
5AB
102
{ACAD_REACTORS
330
1A
102
}
100
AcDbPlotSettings
  1

  2
none_device
  4
ANSI_C_(22.00_x_17.00_Inches)
  6

 40
0.0
 41
0.0
 42
0.0
 43
0.0
 44
558.8
 45
431.8
 46
0.0
 47
0.0
 48
0.0
 49
0.0
140
0.0
141
0.0
142
1.0
143
1.0
 70
0
 72
0
 73
0
 74
0
  7

 75
0
147
1.0
148
0.0
149
0.0
100
AcDbLayout
  1
Layout1
 70
0
 71
1
 10
0.0
 20
0.0
 11
22.0
 21
17.0
 12
0.0
 22
0.0
 32
0.0
 14
0.0
 24
0.0
 34
0.0
 15
0.0
 25
0.0
 35
0.0
146
0.0
 13
0.0
 23
0.0
 33
0.0
 16
1.0
 26
0.0
 36
0.0
 17
0.0
 27
1.0
 37
0.0
 76
0
330
203
345
0
346
0
  0
ENDSEC
  0
EOF
