999
DXF file: 990-1570_top.dxf
999
Pro/ENGINEER 2019352 by Parametric Technology Corporation
  0
SECTION
  2
HEADER
  9
$ACADVER
  1
AC1032
  9
$DWGCODEPAGE
  3
ANSI_1252
  9
$EXTMAX
 10
11.0
 20
8.5
 30
0.0
  9
$EXTMIN
 10
0.0
 20
0.0
 30
0.0
  9
$LIMMIN
 10
0.0
 20
0.0
  9
$LIMMAX
 10
11.0
 20
8.5
  9
$VIEWCTR
 10
5.5
 20
4.25
  9
$VIEWSIZE
 40
8.5
  9
$CLAYER
  8
0
  9
$LTSCALE
 40
0.605
  9
$CELTYPE
  6
BYLAYER
  9
$DIMSCALE
 40
1.0
  9
$DIMASZ
 40
0.1
  9
$DIMEXO
 40
0.0625
  9
$DIMDLI
 40
0.418
  9
$DIMEXE
 40
0.125
  9
$DIMCEN
 40
0.099
  9
$DIMLFAC
 40
1.0
  9
$DIMBLK
  1
_FILLED
  9
$DIMALT
 70
1
  9
$DIMALTD
 70
2
  9
$DIMALTTD
 70
2
  9
$DIMALTF
 40
25.4
  9
$DIMTXT
 40
0.08
  9
$DIMTOL
 70
1
  9
$DIMLIM
 70
0
  9
$DIMTFAC
 40
1.0
  9
$DIMTP
 40
0.001
  9
$DIMTM
 40
0.001
  9
$DIMGAP
 40
0.09
  9
$DIMDSEP
 70
46
  9
$AUNITS
 70
0
  9
$PDMODE
 70
3
  9
$PDSIZE
 40
0.3125
  9
$HANDSEED
  5
22F
  9
$TILEMODE
 70
1
  9
$MEASUREMENT
 70
0
  9
$INSUNITS
 70
1
  0
ENDSEC
  0
SECTION
  2
CLASSES
  0
CLASS
  1
ACDBDICTIONARYWDFLT
  2
AcDbDictionaryWithDefault
  3
AutoCAD 2000
 90
0
 91
1
280
0
281
0
  0
CLASS
  1
ACDBPLACEHOLDER
  2
AcDbPlaceHolder
  3
AutoCAD 2000
 90
0
 91
1
280
0
281
0
  0
CLASS
  1
LAYOUT
  2
AcDbLayout
  3
AutoCAD 2000
 90
0
 91
0
280
0
281
0
  0
ENDSEC
  0
SECTION
  2
TABLES
  0
TABLE
  2
VPORT
  5
8
100
AcDbSymbolTable
 70
2
  0
VPORT
  5
1F4
100
AcDbSymbolTableRecord
100
AcDbViewportTableRecord
  2
*ACTIVE
 70
0
 10
0.0
 20
0.0
 11
1.0
 21
1.0
 12
5.5
 22
4.25
 13
0.0
 23
0.0
 14
1.0
 24
1.0
 15
0.0
 25
0.0
 16
0.0
 26
0.0
 36
1.0
 17
0.0
 27
0.0
 37
0.0
 40
8.5
 41
1.2941176471
 42
50.0
 43
0.0
 44
0.0
 50
0.0
 51
0.0
 71
0
 72
100
 73
1
 74
1
 75
0
 76
0
 77
0
 78
0
  0
ENDTAB
  0
TABLE
  2
LTYPE
  5
5
100
AcDbSymbolTable
 70
6
  0
LTYPE
  5
14
100
AcDbSymbolTableRecord
100
AcDbLinetypeTableRecord
  2
BYBLOCK
 70
0
  3

 72
65
 73
0
 40
0.0
  0
LTYPE
  5
15
100
AcDbSymbolTableRecord
100
AcDbLinetypeTableRecord
  2
BYLAYER
 70
0
  3

 72
65
 73
0
 40
0.0
  0
LTYPE
  5
16
100
AcDbSymbolTableRecord
100
AcDbLinetypeTableRecord
  2
CONTINUOUS
 70
64
  3
Solid line
 72
65
 73
0
 40
0.0
  0
LTYPE
  5
1F5
100
AcDbSymbolTableRecord
100
AcDbLinetypeTableRecord
  2
CENTER
 70
64
  3
____ _ ____ _ ____ _ ____ _ ____ _ ____ _ ____
 72
65
 73
4
 40
0.6
 49
0.375
 74
0
 49
-0.075
 74
0
 49
0.075
 74
0
 49
-0.075
 74
0
  0
LTYPE
  5
1F6
100
AcDbSymbolTableRecord
100
AcDbLinetypeTableRecord
  2
HIDDEN
 70
64
  3
- - - - - - - - - - - - - - - - - - - -
 72
65
 73
2
 40
0.2
 49
0.1
 74
0
 49
-0.1
 74
0
  0
LTYPE
  5
1F7
100
AcDbSymbolTableRecord
100
AcDbLinetypeTableRecord
  2
PHANTOM
 70
64
  3
_____ _ _ _____ _ _ _____ _ _ _____
 72
65
 73
6
 40
0.8
 49
0.45
 74
0
 49
-0.05
 74
0
 49
0.1
 74
0
 49
-0.05
 74
0
 49
0.1
 74
0
 49
-0.05
 74
0
  0
LTYPE
  5
1F8
100
AcDbSymbolTableRecord
100
AcDbLinetypeTableRecord
  2
DOT
 70
64
  3
. . . . . . . . . . . . . . . . . . . .
 72
65
 73
2
 40
0.2
 49
0.1
 74
0
 49
-0.1
 74
0
  0
LTYPE
  5
1F9
100
AcDbSymbolTableRecord
100
AcDbLinetypeTableRecord
  2
DASHED
 70
64
  3
- - - - - - - - - - - - - - - - - - - -
 72
65
 73
2
 40
0.2
 49
0.1
 74
0
 49
-0.1
 74
0
  0
ENDTAB
  0
TABLE
  2
LAYER
  5
2
100
AcDbSymbolTable
 70
36
  0
LAYER
  5
10
100
AcDbSymbolTableRecord
100
AcDbLayerTableRecord
  2
0
 70
0
 62
7
  6
CONTINUOUS
370
-3
390
F
  0
LAYER
  5
1FA
100
AcDbSymbolTableRecord
100
AcDbLayerTableRecord
  2
DEFAULT_1
 70
0
 62
7
  6
CENTER
370
-3
390
F
  0
LAYER
  5
1FB
100
AcDbSymbolTableRecord
100
AcDbLayerTableRecord
  2
DEFAULT_2
 70
0
 62
8
  6
HIDDEN
370
-3
390
F
  0
LAYER
  5
1FC
100
AcDbSymbolTableRecord
100
AcDbLayerTableRecord
  2
DEFAULT_3
 70
0
 62
7
  6
PHANTOM
370
-3
390
F
  0
LAYER
  5
1FD
100
AcDbSymbolTableRecord
100
AcDbLayerTableRecord
  2
DEFAULT_COORDINATE_SYSTEM
 70
0
 62
7
  6
CONTINUOUS
370
-3
390
F
  0
LAYER
  5
1FE
100
AcDbSymbolTableRecord
100
AcDbLayerTableRecord
  2
DEFAULT_DATUM_AXES
 70
0
 62
7
  6
CONTINUOUS
370
-3
390
F
  0
LAYER
  5
1FF
100
AcDbSymbolTableRecord
100
AcDbLayerTableRecord
  2
DEFAULT_DATUM_PLANES
 70
0
 62
7
  6
CONTINUOUS
370
-3
390
F
  0
ENDTAB
  0
TABLE
  2
STYLE
  5
3
100
AcDbSymbolTable
 70
1
  0
STYLE
  5
11
100
AcDbSymbolTableRecord
100
AcDbTextStyleTableRecord
  2
STANDARD
 70
0
 40
0.0
 41
0.8
 50
0.0
 71
0
 42
0.2
  3
txt
  4

  0
STYLE
  5
200
100
AcDbSymbolTableRecord
100
AcDbTextStyleTableRecord
  2
TEXTSTYLE_1
 70
0
 40
0.0
 41
0.8
 50
0.0
 71
0
 42
0.2
  3
gdt
  4

  0
ENDTAB
  0
TABLE
  2
VIEW
  5
6
100
AcDbSymbolTable
 70
0
  0
ENDTAB
  0
TABLE
  2
UCS
  5
7
100
AcDbSymbolTable
 70
0
  0
ENDTAB
  0
TABLE
  2
APPID
  5
9
100
AcDbSymbolTable
 70
1
  0
APPID
  5
201
100
AcDbSymbolTableRecord
100
AcDbRegAppTableRecord
  2
ACAD
 70
0
  0
ENDTAB
  0
TABLE
  2
BLOCK_RECORD
  5
1
100
AcDbSymbolTable
 70
0
  0
BLOCK_RECORD
  5
202
100
AcDbSymbolTableRecord
100
AcDbBlockTableRecord
  2
*Model_Space
  0
BLOCK_RECORD
  5
203
100
AcDbSymbolTableRecord
100
AcDbBlockTableRecord
  2
*Paper_Space
  0
BLOCK_RECORD
  5
204
100
AcDbSymbolTableRecord
100
AcDbBlockTableRecord
  2
_FILLED
  0
ENDTAB
  0
TABLE
  2
DIMSTYLE
  5
A
100
AcDbSymbolTable
 70
1
100
AcDbDimStyleTable
 71
0
  0
DIMSTYLE
105
205
100
AcDbSymbolTableRecord
100
AcDbDimStyleTableRecord
  2
STANDARD
 70
0
  3

  4

 40
1.0
 41
0.1
 42
0.0625
 43
0.38
 44
0.125
 45
0.0
 46
0.0
 47
0.001
 48
0.001
140
0.08
141
0.09
142
0.0
143
25.4
144
1.0
145
0.0
146
1.0
147
0.09
 71
1.0
 72
0.0
 73
1
 74
1
 75
0
 76
0
 77
0
 78
4
 79
1
170
1
171
2
172
0
173
0
174
0
175
0
176
0
177
0
178
0
270
2
179
3
271
3
272
3
273
2
274
2
275
0
280
0
281
0
282
0
283
1
284
4
285
0
286
0
287
3
288
0
340
11
278
46
341
204
342
204
343
204
344
204
  0
ENDTAB
  0
ENDSEC
  0
SECTION
  2
BLOCKS
  0
BLOCK
  5
20
100
AcDbEntity
  8
0
100
AcDbBlockBegin
  2
*Model_Space
 70
0
 10
0.0
 20
0.0
 30
0.0
  3
*Model_Space
  1

  0
ENDBLK
  5
21
100
AcDbEntity
  8
0
100
AcDbBlockEnd
  0
BLOCK
  5
1C
100
AcDbEntity
  8
0
100
AcDbBlockBegin
  2
*Paper_Space
 70
0
 10
0.0
 20
0.0
 30
0.0
  3
*Paper_Space
  1

  0
ENDBLK
  5
1D
100
AcDbEntity
  8
0
100
AcDbBlockEnd
  0
BLOCK
  5
206
100
AcDbEntity
  8
0
100
AcDbBlockBegin
  2
_FILLED
 70
64
 10
0.0
 20
0.0
  3
_FILLED
  1

  0
SOLID
  5
207
100
AcDbEntity
  8
0
  6
BYBLOCK
 62
0
100
AcDbTrace
 10
0.0
 20
0.0
 11
-1.0
 21
0.2
 12
-1.0
 22
-0.2
 13
-1.0
 23
-0.2
  0
ENDBLK
  5
208
100
AcDbEntity
  8
0
  6
BYBLOCK
 62
0
100
AcDbBlockEnd
  0
ENDSEC
  0
SECTION
  2
ENTITIES
  0
MTEXT
  5
209
100
AcDbEntity
  8
0
100
AcDbMText
 62
2
  6
CONTINUOUS
  7
STANDARD
 71
3
 72
1
 10
5.0749490276
 20
2.7267295797
 30
0.0
 11
1.0
 21
0.0
 31
0.0
 73
2
 44
0.9
  1
SCALE 1.000
 40
0.08
 41
0.704
  0
LINE
  5
20A
100
AcDbEntity
  8
0
100
AcDbLine
 62
7
  6
CONTINUOUS
 10
0.0
 20
0.0
 11
0.0
 21
8.5
  0
LINE
  5
20B
100
AcDbEntity
  8
0
100
AcDbLine
 62
7
  6
CONTINUOUS
 10
0.0
 20
0.0
 11
11.0
 21
0.0
  0
LINE
  5
20C
100
AcDbEntity
  8
0
100
AcDbLine
 62
7
  6
CONTINUOUS
 10
0.0
 20
8.5
 11
11.0
 21
8.5
  0
LINE
  5
20D
100
AcDbEntity
  8
0
100
AcDbLine
 62
7
  6
CONTINUOUS
 10
11.0
 20
0.0
 11
11.0
 21
8.5
  0
LINE
  5
20E
100
AcDbEntity
  8
0
100
AcDbLine
 62
7
  6
CONTINUOUS
 10
2.0698990276
 20
3.9037295797
 11
2.0698990276
 21
2.8417295797
  0
LINE
  5
20F
100
AcDbEntity
  8
0
100
AcDbLine
 62
7
  6
CONTINUOUS
 10
2.0898990276
 20
2.8217295797
 11
2.0898990276
 21
3.9237295797
  0
LINE
  5
210
100
AcDbEntity
  8
0
100
AcDbLine
 62
7
  6
CONTINUOUS
 10
2.2098990276
 20
3.9237295797
 11
2.2098990276
 21
2.8217295797
  0
LINE
  5
211
100
AcDbEntity
  8
0
100
AcDbLine
 62
7
  6
CONTINUOUS
 10
2.2298990276
 20
3.9037295768
 11
2.2298990276
 21
2.8417295797
  0
LINE
  5
212
100
AcDbEntity
  8
0
100
AcDbLine
 62
7
  6
CONTINUOUS
 10
2.0898990276
 20
2.8217295797
 11
2.2098990276
 21
2.8217295797
  0
LINE
  5
213
100
AcDbEntity
  8
0
100
AcDbLine
 62
7
  6
CONTINUOUS
 10
2.2298990276
 20
3.0182295797
 11
6.7766213596
 21
3.0182295797
  0
LINE
  5
214
100
AcDbEntity
  8
0
100
AcDbLine
 62
7
  6
CONTINUOUS
 10
6.8506990276
 20
3.0186295797
 11
7.5592990276
 21
3.0186295797
  0
LINE
  5
215
100
AcDbEntity
  8
0
100
AcDbLine
 62
7
  6
CONTINUOUS
 10
6.849501046
 20
3.1177295797
 11
6.8506990276
 21
3.1177295797
  0
LINE
  5
216
100
AcDbEntity
  8
0
100
AcDbLine
 62
7
  6
CONTINUOUS
 10
6.8495010467
 20
3.6277295797
 11
6.8506990276
 21
3.6277295797
  0
LINE
  5
217
100
AcDbEntity
  8
0
100
AcDbLine
 62
7
  6
CONTINUOUS
 10
2.2298990276
 20
3.7272295797
 11
6.7766213596
 21
3.7272295797
  0
LINE
  5
218
100
AcDbEntity
  8
0
100
AcDbLine
 62
7
  6
CONTINUOUS
 10
2.0898990276
 20
3.9237295797
 11
2.2098990276
 21
3.9237295797
  0
LINE
  5
219
100
AcDbEntity
  8
0
100
AcDbLine
 62
7
  6
CONTINUOUS
 10
6.3299990276
 20
6.1486295797
 11
6.3299990276
 21
6.3886295797
  0
LINE
  5
21A
100
AcDbEntity
  8
0
100
AcDbLine
 62
7
  6
CONTINUOUS
 10
8.0599990073
 20
6.1286295797
 11
6.3499990479
 21
6.1286295797
  0
LINE
  5
21B
100
AcDbEntity
  8
0
100
AcDbLine
 62
7
  6
CONTINUOUS
 10
8.0799990276
 20
6.1486295797
 11
6.3299990276
 21
6.1486295797
  0
LINE
  5
21C
100
AcDbEntity
  8
0
100
AcDbLine
 62
7
  6
CONTINUOUS
 10
6.8506990276
 20
6.1286295797
 11
6.8506990276
 21
3.6277295797
  0
LINE
  5
21D
100
AcDbEntity
  8
0
100
AcDbLine
 62
7
  6
CONTINUOUS
 10
6.8506990276
 20
3.1177295797
 11
6.8506990276
 21
3.0186295797
  0
LINE
  5
21E
100
AcDbEntity
  8
0
100
AcDbLine
 62
7
  6
CONTINUOUS
 10
6.3299990276
 20
6.3886295797
 11
8.0799990276
 21
6.3886295797
  0
LINE
  5
21F
100
AcDbEntity
  8
0
100
AcDbLine
 62
7
  6
CONTINUOUS
 10
7.5592990276
 20
6.1286295797
 11
7.5592990276
 21
3.0186295797
  0
LINE
  5
220
100
AcDbEntity
  8
0
100
AcDbLine
 62
7
  6
CONTINUOUS
 10
8.0799990276
 20
6.1486295797
 11
8.0799990276
 21
6.3886295797
  0
ARC
  5
221
100
AcDbEntity
  8
0
100
AcDbCircle
 62
7
  6
CONTINUOUS
 10
2.0898990276
 20
2.8417295797
 40
0.02
100
AcDbArc
 50
180.0
 51
270.0
  0
ARC
  5
222
100
AcDbEntity
  8
0
100
AcDbCircle
 62
7
  6
CONTINUOUS
 10
2.0898990276
 20
3.9037295797
 40
0.02
100
AcDbArc
 50
90.0
 51
180.0
  0
ARC
  5
223
100
AcDbEntity
  8
0
100
AcDbCircle
 62
7
  6
CONTINUOUS
 10
2.2098990276
 20
2.8417295797
 40
0.02
100
AcDbArc
 50
270.0
 51
360.0
  0
ARC
  5
224
100
AcDbEntity
  8
0
100
AcDbCircle
 62
7
  6
CONTINUOUS
 10
2.2098990276
 20
3.9037295797
 40
0.02
100
AcDbArc
 50
0.0
 51
90.0
  0
ARC
  5
225
100
AcDbEntity
  8
0
100
AcDbCircle
 62
7
  6
CONTINUOUS
 10
8.0599990276
 20
6.1486295797
 40
0.02
100
AcDbArc
 50
270.0
 51
360.0
  0
ARC
  5
226
100
AcDbEntity
  8
0
100
AcDbCircle
 62
7
  6
CONTINUOUS
 10
6.3499990276
 20
6.1486295797
 40
0.02
100
AcDbArc
 50
180.0
 51
270.0
  0
SPLINE
  5
227
100
AcDbEntity
  8
0
100
AcDbSpline
 62
7
  6
CONTINUOUS
 70
0
 71
3
 72
43
 73
39
 74
0
 42
0.0000001
 43
0.0000001
 44
0.0000000001
 40
0.0
 40
0.0
 40
0.0
 40
0.0
 40
0.0229238543
 40
0.0458323024
 40
0.0687104275
 40
0.0915436006
 40
0.1143179885
 40
0.1370205746
 40
0.1596392742
 40
0.1821629425
 40
0.2045813441
 40
0.2268850847
 40
0.2711117317
 40
0.2930219507
 40
0.3147861722
 40
0.3363975334
 40
0.3578493422
 40
0.3791349875
 40
0.4002478512
 40
0.4211812347
 40
0.4419282961
 40
0.4624819986
 40
0.4828350713
 40
0.5229082037
 40
0.5620839498
 40
0.6002917998
 40
0.6374544679
 40
0.673487229
 40
0.7082974379
 40
0.7417840923
 40
0.7738376554
 40
0.8043399915
 40
0.8331646963
 40
0.8601777231
 40
0.9082018567
 40
0.947247561
 40
0.976170706
 40
1.0
 40
1.0
 40
1.0
 40
1.0
 10
6.9478990276
 20
3.3727295797
 30
0.0
 10
6.9478990276
 20
3.3696672905
 30
0.0
 10
6.9477989515
 20
3.3635443
 30
0.0
 10
6.9473500786
 20
3.3543750495
 30
0.0
 10
6.9466069618
 20
3.3452370437
 30
0.0
 10
6.9455768501
 20
3.3361450429
 30
0.0
 10
6.9442694529
 20
3.3271125254
 30
0.0
 10
6.9426965362
 20
3.3181516281
 30
0.0
 10
6.9408714945
 20
3.3092729507
 30
0.0
 10
6.9388089146
 20
3.3004855448
 30
0.0
 10
6.9365241183
 20
3.2917968262
 30
0.0
 10
6.9332120239
 20
3.2803845009
 30
0.0
 10
6.9295119731
 20
3.2691593263
 30
0.0
 10
6.9254774807
 20
3.2581313018
 30
0.0
 10
6.9223157936
 20
3.250002697
 30
0.0
 10
6.9190232316
 20
3.2419925401
 30
0.0
 10
6.9156132257
 20
3.2341013125
 30
0.0
 10
6.9120985506
 20
3.2263292354
 30
0.0
 10
6.9084912828
 20
3.2186762426
 30
0.0
 10
6.9048028321
 20
3.2111421154
 30
0.0
 10
6.9010439733
 20
3.2037265592
 30
0.0
 10
6.8972248867
 20
3.1964292513
 30
0.0
 10
6.892092068
 20
3.1869065405
 30
0.0
 10
6.8855793827
 20
3.1753027612
 30
0.0
 10
6.8776253546
 20
3.1617767517
 30
0.0
 10
6.8696353646
 20
3.1487259336
 30
0.0
 10
6.861666553
 20
3.1361568032
 30
0.0
 10
6.8537725483
 20
3.1240794452
 30
0.0
 10
6.846004616
 20
3.1125077104
 30
0.0
 10
6.8384123858
 20
3.1014592987
 30
0.0
 10
6.8310445745
 20
3.0909557075
 30
0.0
 10
6.8239494255
 20
3.0810221592
 30
0.0
 10
6.8171750724
 20
3.0716873821
 30
0.0
 10
6.8089514559
 20
3.0605126916
 30
0.0
 10
6.7998155124
 20
3.0483145433
 30
0.0
 10
6.7904180553
 20
3.035994412
 30
0.0
 10
6.782919373
 20
3.0262913562
 30
0.0
 10
6.7785844816
 20
3.0207354122
 30
0.0
 10
6.776621361
 20
3.018229581
 30
0.0
  0
SPLINE
  5
228
100
AcDbEntity
  8
0
100
AcDbSpline
 62
7
  6
CONTINUOUS
 70
0
 71
3
 72
43
 73
39
 74
0
 42
0.0000001
 43
0.0000001
 44
0.0000000001
 40
0.0
 40
0.0
 40
0.0
 40
0.0
 40
0.0238292939
 40
0.052752439
 40
0.0917981432
 40
0.1398222768
 40
0.1668353036
 40
0.1956600084
 40
0.2261623445
 40
0.2582159075
 40
0.291702562
 40
0.3265127709
 40
0.362545532
 40
0.3997082
 40
0.4379160501
 40
0.4770917962
 40
0.5171649286
 40
0.5375180013
 40
0.5580717037
 40
0.5788187652
 40
0.5997521487
 40
0.6208650124
 40
0.6421506576
 40
0.6636024664
 40
0.6852138275
 40
0.706978049
 40
0.728888268
 40
0.7731149151
 40
0.7954186556
 40
0.8178370573
 40
0.8403607256
 40
0.8629794252
 40
0.8856820113
 40
0.9084563992
 40
0.9312895724
 40
0.9541676975
 40
0.9770761457
 40
1.0
 40
1.0
 40
1.0
 40
1.0
 10
6.776621361
 20
3.7272295783
 30
0.0
 10
6.7785844816
 20
3.7247237472
 30
0.0
 10
6.782919373
 20
3.7191678032
 30
0.0
 10
6.7904180553
 20
3.7094647474
 30
0.0
 10
6.7998155124
 20
3.6971446161
 30
0.0
 10
6.8089514559
 20
3.6849464678
 30
0.0
 10
6.8171750724
 20
3.6737717773
 30
0.0
 10
6.8239494254
 20
3.6644370002
 30
0.0
 10
6.8310445744
 20
3.6545034519
 30
0.0
 10
6.8384123858
 20
3.6439998607
 30
0.0
 10
6.846004616
 20
3.632951449
 30
0.0
 10
6.8537725483
 20
3.6213797142
 30
0.0
 10
6.861666553
 20
3.6093023562
 30
0.0
 10
6.8696353646
 20
3.5967332257
 30
0.0
 10
6.8776253546
 20
3.5836824077
 30
0.0
 10
6.8855793827
 20
3.5701563982
 30
0.0
 10
6.892092068
 20
3.5585526189
 30
0.0
 10
6.8972248866
 20
3.5490299081
 30
0.0
 10
6.9010439733
 20
3.5417326002
 30
0.0
 10
6.9048028321
 20
3.534317044
 30
0.0
 10
6.9084912827
 20
3.5267829168
 30
0.0
 10
6.9120985506
 20
3.519129924
 30
0.0
 10
6.9156132256
 20
3.5113578469
 30
0.0
 10
6.9190232316
 20
3.5034666194
 30
0.0
 10
6.9223157936
 20
3.4954564625
 30
0.0
 10
6.9254774807
 20
3.4873278576
 30
0.0
 10
6.929511973
 20
3.4762998331
 30
0.0
 10
6.9332120239
 20
3.4650746586
 30
0.0
 10
6.9365241182
 20
3.4536623332
 30
0.0
 10
6.9388089146
 20
3.4449736146
 30
0.0
 10
6.9408714945
 20
3.4361862087
 30
0.0
 10
6.9426965362
 20
3.4273075313
 30
0.0
 10
6.9442694529
 20
3.418346634
 30
0.0
 10
6.9455768501
 20
3.4093141166
 30
0.0
 10
6.9466069618
 20
3.4002221157
 30
0.0
 10
6.9473500786
 20
3.3910841099
 30
0.0
 10
6.9477989515
 20
3.3819148594
 30
0.0
 10
6.9478990276
 20
3.3757918689
 30
0.0
 10
6.9478990276
 20
3.3727295797
 30
0.0
  0
SPLINE
  5
229
100
AcDbEntity
  8
0
100
AcDbSpline
 62
7
  6
CONTINUOUS
 70
0
 71
3
 72
37
 73
33
 74
0
 42
0.0000001
 43
0.0000001
 44
0.0000000001
 40
0.0
 40
0.0
 40
0.0
 40
0.0
 40
0.0231953117
 40
0.0463756174
 40
0.0695255988
 40
0.0926308274
 40
0.1156770375
 40
0.1386507063
 40
0.1615389383
 40
0.1843295764
 40
0.2070111998
 40
0.2295731165
 40
0.2742960252
 40
0.3184276519
 40
0.361901851
 40
0.4046568514
 40
0.4466328575
 40
0.4877697524
 40
0.5280052622
 40
0.5672735073
 40
0.6055038392
 40
0.6426198876
 40
0.67853885
 40
0.7131709771
 40
0.7464192006
 40
0.7781789742
 40
0.8083383934
 40
0.863374091
 40
0.9105093512
 40
0.9486792756
 40
0.9768552379
 40
1.0
 40
1.0
 40
1.0
 40
1.0
 10
6.9590244557
 20
3.3727295797
 30
0.0
 10
6.9590244557
 20
3.3749066614
 30
0.0
 10
6.9589666384
 20
3.3792596373
 30
0.0
 10
6.9587070943
 20
3.3857807783
 30
0.0
 10
6.9582766736
 20
3.3922844317
 30
0.0
 10
6.9576785532
 20
3.398762136
 30
0.0
 10
6.9569170184
 20
3.4052059788
 30
0.0
 10
6.9559973681
 20
3.4116085519
 30
0.0
 10
6.954925749
 20
3.4179630885
 30
0.0
 10
6.9537090135
 20
3.4242634792
 30
0.0
 10
6.952354546
 20
3.4305043492
 30
0.0
 10
6.9503812663
 20
3.4387152635
 30
0.0
 10
6.9476142813
 20
3.4488032984
 30
0.0
 10
6.9438622171
 20
3.4606461324
 30
0.0
 10
6.9397528021
 20
3.4721734086
 30
0.0
 10
6.935347799
 20
3.4833733348
 30
0.0
 10
6.9307050331
 20
3.494238231
 30
0.0
 10
6.9258781146
 20
3.504762615
 30
0.0
 10
6.9209165722
 20
3.5149419329
 30
0.0
 10
6.9158662319
 20
3.5247715252
 30
0.0
 10
6.9107697193
 20
3.5342458802
 30
0.0
 10
6.9056670285
 20
3.5433581096
 30
0.0
 10
6.9005960556
 20
3.552099581
 30
0.0
 10
6.8955930879
 20
3.5604596789
 30
0.0
 10
6.8906932261
 20
3.5684256577
 30
0.0
 10
6.885930728
 20
3.5759825948
 30
0.0
 10
6.8799878747
 20
3.5852121728
 30
0.0
 10
6.8731325949
 20
3.5955699765
 30
0.0
 10
6.8657144577
 20
3.6064551065
 30
0.0
 10
6.8596255741
 20
3.6151944684
 30
0.0
 10
6.8547726015
 20
3.6220501731
 30
0.0
 10
6.8519680183
 20
3.6259664211
 30
0.0
 10
6.8506990299
 20
3.6277295775
 30
0.0
  0
LINE
  5
22A
100
AcDbEntity
  8
0
100
AcDbLine
 62
7
  6
CONTINUOUS
 10
6.8506990276
 20
3.0186295797
 11
7.2049990276
 21
3.3729295797
  0
SPLINE
  5
22B
100
AcDbEntity
  8
0
100
AcDbSpline
 62
7
  6
CONTINUOUS
 70
0
 71
3
 72
37
 73
33
 74
0
 42
0.0000001
 43
0.0000001
 44
0.0000000001
 40
0.0
 40
0.0
 40
0.0
 40
0.0
 40
0.0231447621
 40
0.0513207244
 40
0.0894906488
 40
0.1366259091
 40
0.1916616066
 40
0.2218210259
 40
0.2535807995
 40
0.2868290229
 40
0.32146115
 40
0.3573801123
 40
0.3944961607
 40
0.4327264926
 40
0.4719947377
 40
0.5122302474
 40
0.5533671424
 40
0.5953431484
 40
0.6380981488
 40
0.6815723479
 40
0.7257039747
 40
0.7704268834
 40
0.7929888001
 40
0.8156704233
 40
0.8384610615
 40
0.8613492935
 40
0.8843229622
 40
0.9073691724
 40
0.9304744011
 40
0.9536243826
 40
0.9768046883
 40
1.0
 40
1.0
 40
1.0
 40
1.0
 10
6.8506990299
 20
3.1177295819
 30
0.0
 10
6.8519680183
 20
3.1194927383
 30
0.0
 10
6.8547726015
 20
3.1234089863
 30
0.0
 10
6.8596255741
 20
3.1302646909
 30
0.0
 10
6.8657144577
 20
3.1390040529
 30
0.0
 10
6.8731325949
 20
3.1498891828
 30
0.0
 10
6.8799878747
 20
3.1602469866
 30
0.0
 10
6.885930728
 20
3.1694765645
 30
0.0
 10
6.8906932261
 20
3.1770335017
 30
0.0
 10
6.8955930879
 20
3.1849994804
 30
0.0
 10
6.9005960556
 20
3.1933595784
 30
0.0
 10
6.9056670285
 20
3.2021010497
 30
0.0
 10
6.9107697192
 20
3.2112132791
 30
0.0
 10
6.9158662319
 20
3.2206876341
 30
0.0
 10
6.9209165722
 20
3.2305172264
 30
0.0
 10
6.9258781146
 20
3.2406965444
 30
0.0
 10
6.9307050331
 20
3.2512209283
 30
0.0
 10
6.935347799
 20
3.2620858245
 30
0.0
 10
6.9397528021
 20
3.2732857507
 30
0.0
 10
6.9438622171
 20
3.284813027
 30
0.0
 10
6.9476142813
 20
3.2966558609
 30
0.0
 10
6.9503812663
 20
3.3067438958
 30
0.0
 10
6.952354546
 20
3.3149548101
 30
0.0
 10
6.9537090135
 20
3.32119568
 30
0.0
 10
6.954925749
 20
3.3274960708
 30
0.0
 10
6.9559973681
 20
3.3338506074
 30
0.0
 10
6.9569170183
 20
3.3402531804
 30
0.0
 10
6.9576785531
 20
3.3466970233
 30
0.0
 10
6.9582766736
 20
3.3531747276
 30
0.0
 10
6.9587070943
 20
3.359678381
 30
0.0
 10
6.9589666384
 20
3.366199522
 30
0.0
 10
6.9590244557
 20
3.370552498
 30
0.0
 10
6.9590244557
 20
3.3727295797
 30
0.0
  0
LINE
  5
22C
100
AcDbEntity
  8
0
100
AcDbLine
 62
7
  6
CONTINUOUS
 10
7.2049990276
 20
3.3729295797
 11
7.5592990276
 21
3.0186295797
  0
ENDSEC
  0
SECTION
  2
OBJECTS
  0
DICTIONARY
  5
C
100
AcDbDictionary
280
0
281
1
  3
ACAD_GROUP
350
D
  3
ACAD_MLINESTYLE
350
17
  3
ACAD_LAYOUT
350
1A
  3
ACAD_PLOTSETTINGS
350
19
  3
ACAD_PLOTSTYLENAME
350
E
  0
DICTIONARY
  5
D
102
{ACAD_REACTORS
330
C
102
}
100
AcDbDictionary
280
0
281
1
  0
ACDBDICTIONARYWDFLT
  5
E
102
{ACAD_REACTORS
330
C
102
}
100
AcDbDictionary
281
1
  3
Normal
350
F
100
AcDbDictionaryWithDefault
340
F
  0
DICTIONARY
  5
17
102
{ACAD_REACTORS
330
C
102
}
100
AcDbDictionary
280
0
281
1
  3
Standard
350
18
  0
DICTIONARY
  5
19
102
{ACAD_REACTORS
330
C
102
}
100
AcDbDictionary
281
1
  0
DICTIONARY
  5
1A
102
{ACAD_REACTORS
330
C
102
}
100
AcDbDictionary
281
1
  3
Model
350
22D
  3
Layout1
350
22E
  0
ACDBPLACEHOLDER
  5
F
102
{ACAD_REACTORS
330
E
102
}
  0
MLINESTYLE
  5
18
102
{ACAD_REACTORS
330
17
102
}
100
AcDbMlineStyle
  2
STANDARD
 70
0
  3

 62
256
 51
90.0
 52
90.0
 71
2
 49
0.5
 62
256
  6
BYLAYER
 49
-0.5
 62
256
  6
BYLAYER
  0
LAYOUT
  5
22D
102
{ACAD_REACTORS
330
1A
102
}
100
AcDbPlotSettings
  1

  2
none_device
  4
ANSI_A_(11.00_x_8.50_Inches)
  6

 40
0.0
 41
0.0
 42
0.0
 43
0.0
 44
279.4
 45
215.9
 46
0.0
 47
0.0
 48
0.0
 49
0.0
140
0.0
141
0.0
142
1.0
143
1.0
 70
1024
 72
0
 73
0
 74
0
  7

 75
0
147
1.0
148
0.0
149
0.0
100
AcDbLayout
  1
Model
 70
0
 71
0
 10
0.0
 20
0.0
 11
11.0
 21
8.5
 12
0.0
 22
0.0
 32
0.0
 14
0.0
 24
0.0
 34
0.0
 15
0.0
 25
0.0
 35
0.0
146
0.0
 13
0.0
 23
0.0
 33
0.0
 16
1.0
 26
0.0
 36
0.0
 17
0.0
 27
1.0
 37
0.0
 76
0
330
202
345
0
346
0
  0
LAYOUT
  5
22E
102
{ACAD_REACTORS
330
1A
102
}
100
AcDbPlotSettings
  1

  2
none_device
  4
ANSI_A_(11.00_x_8.50_Inches)
  6

 40
0.0
 41
0.0
 42
0.0
 43
0.0
 44
279.4
 45
215.9
 46
0.0
 47
0.0
 48
0.0
 49
0.0
140
0.0
141
0.0
142
1.0
143
1.0
 70
0
 72
0
 73
0
 74
0
  7

 75
0
147
1.0
148
0.0
149
0.0
100
AcDbLayout
  1
Layout1
 70
0
 71
1
 10
0.0
 20
0.0
 11
11.0
 21
8.5
 12
0.0
 22
0.0
 32
0.0
 14
0.0
 24
0.0
 34
0.0
 15
0.0
 25
0.0
 35
0.0
146
0.0
 13
0.0
 23
0.0
 33
0.0
 16
1.0
 26
0.0
 36
0.0
 17
0.0
 27
1.0
 37
0.0
 76
0
330
203
345
0
346
0
  0
ENDSEC
  0
EOF
