999
DXF file: E:\BT Custom\CADOUTPUT\_FRONT.dxf
999
Pro/ENGINEER 2018400 by Parametric Technology Corporation
  0
SECTION
  2
HEADER
  9
$ACADVER
  1
AC1018
  9
$DWGCODEPAGE
  3
ANSI_1252
  9
$EXTMAX
 10
22.0
 20
17.0
 30
0.0
  9
$EXTMIN
 10
0.0
 20
0.0
 30
0.0
  9
$LIMMIN
 10
0.0
 20
0.0
  9
$LIMMAX
 10
22.0
 20
17.0
  9
$VIEWCTR
 10
11.0
 20
8.5
  9
$VIEWSIZE
 40
17.0
  9
$CLAYER
  8
0
  9
$LTSCALE
 40
1.21
  9
$CELTYPE
  6
BYLAYER
  9
$DIMSCALE
 40
1.0
  9
$DIMASZ
 40
0.1
  9
$DIMEXO
 40
0.0625
  9
$DIMDLI
 40
0.836
  9
$DIMEXE
 40
0.125
  9
$DIMCEN
 40
0.198
  9
$DIMLFAC
 40
1.0
  9
$DIMBLK
  1
_FILLED
  9
$DIMALT
 70
1
  9
$DIMALTD
 70
2
  9
$DIMALTTD
 70
2
  9
$DIMALTF
 40
25.4
  9
$DIMTXT
 40
0.08
  9
$DIMTOL
 70
1
  9
$DIMLIM
 70
0
  9
$DIMTFAC
 40
1.0
  9
$DIMTP
 40
0.001
  9
$DIMTM
 40
0.001
  9
$DIMGAP
 40
0.09
  9
$DIMDSEP
 70
46
  9
$AUNITS
 70
0
  9
$PDMODE
 70
3
  9
$PDSIZE
 40
0.06
  9
$HANDSEED
  5
291
  9
$TILEMODE
 70
1
  9
$MEASUREMENT
 70
0
  9
$INSUNITS
 70
1
  0
ENDSEC
  0
SECTION
  2
CLASSES
  0
CLASS
  1
ACDBDICTIONARYWDFLT
  2
AcDbDictionaryWithDefault
  3
AutoCAD 2000
 90
0
 91
1
280
0
281
0
  0
CLASS
  1
ACDBPLACEHOLDER
  2
AcDbPlaceHolder
  3
AutoCAD 2000
 90
0
 91
1
280
0
281
0
  0
CLASS
  1
LAYOUT
  2
AcDbLayout
  3
AutoCAD 2000
 90
0
 91
0
280
0
281
0
  0
ENDSEC
  0
SECTION
  2
TABLES
  0
TABLE
  2
VPORT
  5
8
100
AcDbSymbolTable
 70
2
  0
VPORT
  5
1F4
100
AcDbSymbolTableRecord
100
AcDbViewportTableRecord
  2
*ACTIVE
 70
0
 10
0.0
 20
0.0
 11
1.0
 21
1.0
 12
11.0
 22
8.5
 13
0.0
 23
0.0
 14
1.0
 24
1.0
 15
0.0
 25
0.0
 16
0.0
 26
0.0
 36
1.0
 17
0.0
 27
0.0
 37
0.0
 40
17.0
 41
1.2941176471
 42
50.0
 43
0.0
 44
0.0
 50
0.0
 51
0.0
 71
0
 72
100
 73
1
 74
1
 75
0
 76
0
 77
0
 78
0
  0
ENDTAB
  0
TABLE
  2
LTYPE
  5
5
100
AcDbSymbolTable
 70
6
  0
LTYPE
  5
14
100
AcDbSymbolTableRecord
100
AcDbLinetypeTableRecord
  2
BYBLOCK
 70
0
  3

 72
65
 73
0
 40
0.0
  0
LTYPE
  5
15
100
AcDbSymbolTableRecord
100
AcDbLinetypeTableRecord
  2
BYLAYER
 70
0
  3

 72
65
 73
0
 40
0.0
  0
LTYPE
  5
16
100
AcDbSymbolTableRecord
100
AcDbLinetypeTableRecord
  2
CONTINUOUS
 70
64
  3
Solid line
 72
65
 73
0
 40
0.0
  0
LTYPE
  5
1F5
100
AcDbSymbolTableRecord
100
AcDbLinetypeTableRecord
  2
CENTER
 70
64
  3
____ _ ____ _ ____ _ ____ _ ____ _ ____ _ ____
 72
65
 73
4
 40
0.6
 49
0.375
 74
0
 49
-0.075
 74
0
 49
0.075
 74
0
 49
-0.075
 74
0
  0
LTYPE
  5
1F6
100
AcDbSymbolTableRecord
100
AcDbLinetypeTableRecord
  2
HIDDEN
 70
64
  3
- - - - - - - - - - - - - - - - - - - -
 72
65
 73
2
 40
0.2
 49
0.1
 74
0
 49
-0.1
 74
0
  0
LTYPE
  5
1F7
100
AcDbSymbolTableRecord
100
AcDbLinetypeTableRecord
  2
PHANTOM
 70
64
  3
_____ _ _ _____ _ _ _____ _ _ _____
 72
65
 73
6
 40
0.8
 49
0.45
 74
0
 49
-0.05
 74
0
 49
0.1
 74
0
 49
-0.05
 74
0
 49
0.1
 74
0
 49
-0.05
 74
0
  0
LTYPE
  5
1F8
100
AcDbSymbolTableRecord
100
AcDbLinetypeTableRecord
  2
DOT
 70
64
  3
. . . . . . . . . . . . . . . . . . . .
 72
65
 73
2
 40
0.2
 49
0.1
 74
0
 49
-0.1
 74
0
  0
LTYPE
  5
1F9
100
AcDbSymbolTableRecord
100
AcDbLinetypeTableRecord
  2
DASHED
 70
64
  3
- - - - - - - - - - - - - - - - - - - -
 72
65
 73
2
 40
0.2
 49
0.1
 74
0
 49
-0.1
 74
0
  0
ENDTAB
  0
TABLE
  2
LAYER
  5
2
100
AcDbSymbolTable
 70
36
  0
LAYER
  5
10
100
AcDbSymbolTableRecord
100
AcDbLayerTableRecord
  2
0
 70
0
 62
7
  6
CONTINUOUS
370
-3
390
F
  0
LAYER
  5
1FA
100
AcDbSymbolTableRecord
100
AcDbLayerTableRecord
  2
DEFAULT_1
 70
0
 62
7
  6
CENTER
370
-3
390
F
  0
LAYER
  5
1FB
100
AcDbSymbolTableRecord
100
AcDbLayerTableRecord
  2
DEFAULT_2
 70
0
 62
8
  6
HIDDEN
370
-3
390
F
  0
LAYER
  5
1FC
100
AcDbSymbolTableRecord
100
AcDbLayerTableRecord
  2
DEFAULT_3
 70
0
 62
7
  6
PHANTOM
370
-3
390
F
  0
LAYER
  5
1FD
100
AcDbSymbolTableRecord
100
AcDbLayerTableRecord
  2
ALL_FEATURES
 70
0
 62
7
  6
CONTINUOUS
370
-3
390
F
  0
LAYER
  5
1FE
100
AcDbSymbolTableRecord
100
AcDbLayerTableRecord
  2
AXES_FEATURES
 70
0
 62
7
  6
CONTINUOUS
370
-3
390
F
  0
LAYER
  5
1FF
100
AcDbSymbolTableRecord
100
AcDbLayerTableRecord
  2
DIMENSIONS
 70
0
 62
7
  6
CONTINUOUS
370
-3
390
F
  0
ENDTAB
  0
TABLE
  2
STYLE
  5
3
100
AcDbSymbolTable
 70
1
  0
STYLE
  5
11
100
AcDbSymbolTableRecord
100
AcDbTextStyleTableRecord
  2
STANDARD
 70
0
 40
0.0
 41
0.8
 50
0.0
 71
0
 42
0.2
  3
txt
  4

  0
STYLE
  5
200
100
AcDbSymbolTableRecord
100
AcDbTextStyleTableRecord
  2
TEXTSTYLE_1
 70
0
 40
0.0
 41
0.8
 50
0.0
 71
0
 42
0.2
  3
gdt
  4

  0
ENDTAB
  0
TABLE
  2
VIEW
  5
6
100
AcDbSymbolTable
 70
0
  0
ENDTAB
  0
TABLE
  2
UCS
  5
7
100
AcDbSymbolTable
 70
0
  0
ENDTAB
  0
TABLE
  2
APPID
  5
9
100
AcDbSymbolTable
 70
1
  0
APPID
  5
201
100
AcDbSymbolTableRecord
100
AcDbRegAppTableRecord
  2
ACAD
 70
0
  0
ENDTAB
  0
TABLE
  2
BLOCK_RECORD
  5
1
100
AcDbSymbolTable
 70
0
  0
BLOCK_RECORD
  5
202
100
AcDbSymbolTableRecord
100
AcDbBlockTableRecord
  2
*Model_Space
  0
BLOCK_RECORD
  5
203
100
AcDbSymbolTableRecord
100
AcDbBlockTableRecord
  2
*Paper_Space
  0
BLOCK_RECORD
  5
204
100
AcDbSymbolTableRecord
100
AcDbBlockTableRecord
  2
_FILLED
  0
ENDTAB
  0
TABLE
  2
DIMSTYLE
  5
A
100
AcDbSymbolTable
 70
1
100
AcDbDimStyleTable
 71
0
  0
DIMSTYLE
105
205
100
AcDbSymbolTableRecord
100
AcDbDimStyleTableRecord
  2
STANDARD
 70
0
  3

  4

 40
1.0
 41
0.1
 42
0.0625
 43
0.38
 44
0.125
 45
0.0
 46
0.0
 47
0.001
 48
0.001
140
0.08
141
0.09
142
0.0
143
25.4
144
1.0
145
0.0
146
1.0
147
0.09
 71
1.0
 72
0.0
 73
1
 74
1
 75
0
 76
0
 77
0
 78
4
 79
1
170
1
171
2
172
0
173
0
174
0
175
0
176
0
177
0
178
0
270
2
179
3
271
3
272
3
273
2
274
2
275
0
280
0
281
0
282
0
283
1
284
4
285
0
286
0
287
3
288
0
340
11
278
46
341
204
342
204
343
204
344
204
  0
ENDTAB
  0
ENDSEC
  0
SECTION
  2
BLOCKS
  0
BLOCK
  5
20
100
AcDbEntity
  8
0
100
AcDbBlockBegin
  2
*Model_Space
 70
0
 10
0.0
 20
0.0
 30
0.0
  3
*Model_Space
  1

  0
ENDBLK
  5
21
100
AcDbEntity
  8
0
100
AcDbBlockEnd
  0
BLOCK
  5
1C
100
AcDbEntity
  8
0
100
AcDbBlockBegin
  2
*Paper_Space
 70
0
 10
0.0
 20
0.0
 30
0.0
  3
*Paper_Space
  1

  0
ENDBLK
  5
1D
100
AcDbEntity
  8
0
100
AcDbBlockEnd
  0
BLOCK
  5
206
100
AcDbEntity
  8
0
100
AcDbBlockBegin
  2
_FILLED
 70
64
 10
0.0
 20
0.0
  3
_FILLED
  1

  0
SOLID
  5
207
100
AcDbEntity
  8
0
  6
BYBLOCK
 62
0
100
AcDbTrace
 10
0.0
 20
0.0
 11
-1.0
 21
0.2
 12
-1.0
 22
-0.2
 13
-1.0
 23
-0.2
  0
ENDBLK
  5
208
100
AcDbEntity
  8
0
  6
BYBLOCK
 62
0
100
AcDbBlockEnd
  0
ENDSEC
  0
SECTION
  2
ENTITIES
  0
LINE
  5
209
100
AcDbEntity
  8
0
100
AcDbLine
 62
7
  6
CONTINUOUS
 10
5.7502021789
 20
3.4950825466
 11
8.1251825066
 21
3.4950825466
  0
LINE
  5
20A
100
AcDbEntity
  8
0
100
AcDbLine
 62
7
  6
CONTINUOUS
 10
9.7502021789
 20
3.4950825466
 11
12.1251825066
 21
3.4950825466
  0
LINE
  5
20B
100
AcDbEntity
  8
0
100
AcDbLine
 62
7
  6
CONTINUOUS
 10
13.7502021789
 20
3.4950825466
 11
16.1251825066
 21
3.4950825466
  0
LINE
  5
20C
100
AcDbEntity
  8
0
100
AcDbLine
 62
7
  6
CONTINUOUS
 10
5.5626923427
 20
6.5205823142
 11
5.5626923427
 21
6.075582779
  0
LINE
  5
20D
100
AcDbEntity
  8
0
100
AcDbLine
 62
7
  6
CONTINUOUS
 10
16.1251825066
 20
3.8700825466
 11
13.7502021789
 21
3.8700825466
  0
LINE
  5
20E
100
AcDbEntity
  8
0
100
AcDbLine
 62
7
  6
CONTINUOUS
 10
12.1251825066
 20
3.8700825466
 11
9.7502021789
 21
3.8700825466
  0
LINE
  5
20F
100
AcDbEntity
  8
0
100
AcDbLine
 62
7
  6
CONTINUOUS
 10
8.1251825066
 20
3.8700825466
 11
5.7502021789
 21
3.8700825466
  0
LINE
  5
210
100
AcDbEntity
  8
0
100
AcDbLine
 62
7
  6
CONTINUOUS
 10
5.7501923427
 20
3.8700825466
 11
5.7501923427
 21
3.4950825466
  0
LINE
  5
211
100
AcDbEntity
  8
0
100
AcDbLine
 62
7
  6
CONTINUOUS
 10
6.2814423427
 20
5.4380825466
 11
6.2814423427
 21
5.2835825466
  0
LINE
  5
212
100
AcDbEntity
  8
0
100
AcDbLine
 62
7
  6
CONTINUOUS
 10
6.2814423427
 20
5.1125825466
 11
6.2814423427
 21
4.9980825466
  0
LINE
  5
213
100
AcDbEntity
  8
0
100
AcDbLine
 62
7
  6
CONTINUOUS
 10
6.2814423427
 20
4.9780825466
 11
6.2814423427
 21
3.8700825466
  0
LINE
  5
214
100
AcDbEntity
  8
0
100
AcDbLine
 62
7
  6
CONTINUOUS
 10
6.5626923427
 20
6.5980825466
 11
6.5626923427
 21
6.5330825466
  0
LINE
  5
215
100
AcDbEntity
  8
0
100
AcDbLine
 62
7
  6
CONTINUOUS
 10
6.5626923427
 20
6.0630825466
 11
6.5626923427
 21
5.9980825466
  0
LINE
  5
216
100
AcDbEntity
  8
0
100
AcDbLine
 62
7
  6
CONTINUOUS
 10
6.6876923427
 20
5.9980825466
 11
6.6876923427
 21
5.4380825466
  0
LINE
  5
217
100
AcDbEntity
  8
0
100
AcDbLine
 62
7
  6
CONTINUOUS
 10
6.7539432158
 20
4.9780825466
 11
6.7539432158
 21
4.9980825466
  0
LINE
  5
218
100
AcDbEntity
  8
0
100
AcDbLine
 62
7
  6
CONTINUOUS
 10
6.7597114215
 20
4.9980825466
 11
6.7597114215
 21
4.9780825466
  0
LINE
  5
219
100
AcDbEntity
  8
0
100
AcDbLine
 62
7
  6
CONTINUOUS
 10
6.776149149
 20
4.9780825466
 11
6.776149149
 21
4.9980825466
  0
LINE
  5
21A
100
AcDbEntity
  8
0
100
AcDbLine
 62
7
  6
CONTINUOUS
 10
6.7925756091
 20
4.9980825466
 11
6.7925756091
 21
4.9780825466
  0
LINE
  5
21B
100
AcDbEntity
  8
0
100
AcDbLine
 62
7
  6
CONTINUOUS
 10
15.5939419789
 20
4.9780825466
 11
14.2814427065
 21
4.9780825466
  0
LINE
  5
21C
100
AcDbEntity
  8
0
100
AcDbLine
 62
7
  6
CONTINUOUS
 10
7.5939419789
 20
4.9780825466
 11
6.2814427065
 21
4.9780825466
  0
LINE
  5
21D
100
AcDbEntity
  8
0
100
AcDbLine
 62
7
  6
CONTINUOUS
 10
6.2814427052
 20
4.9980825466
 11
7.5939419803
 21
4.9980825466
  0
LINE
  5
21E
100
AcDbEntity
  8
0
100
AcDbLine
 62
7
  6
CONTINUOUS
 10
14.2814427052
 20
4.9980825466
 11
15.5939419803
 21
4.9980825466
  0
LINE
  5
21F
100
AcDbEntity
  8
0
100
AcDbLine
 62
7
  6
CONTINUOUS
 10
6.8154766683
 20
4.9780825466
 11
6.8154766683
 21
4.9980825466
  0
LINE
  5
220
100
AcDbEntity
  8
0
100
AcDbLine
 62
7
  6
CONTINUOUS
 10
6.822948569
 20
4.9780825466
 11
6.822948569
 21
4.9980825466
  0
LINE
  5
221
100
AcDbEntity
  8
0
100
AcDbLine
 62
7
  6
CONTINUOUS
 10
6.8475325038
 20
4.9980825466
 11
6.8475325038
 21
4.9780825466
  0
LINE
  5
222
100
AcDbEntity
  8
0
100
AcDbLine
 62
7
  6
CONTINUOUS
 10
6.8663420556
 20
4.9780825466
 11
6.8663420556
 21
4.9980825466
  0
LINE
  5
223
100
AcDbEntity
  8
0
100
AcDbLine
 62
7
  6
CONTINUOUS
 10
6.8841220533
 20
4.9980825466
 11
6.8841220533
 21
4.9780825466
  0
LINE
  5
224
100
AcDbEntity
  8
0
100
AcDbLine
 62
7
  6
CONTINUOUS
 10
6.8872166885
 20
4.9780825466
 11
6.8872166885
 21
4.9980825466
  0
LINE
  5
225
100
AcDbEntity
  8
0
100
AcDbLine
 62
7
  6
CONTINUOUS
 10
6.9162154168
 20
4.9980825466
 11
6.9162154168
 21
4.9780825466
  0
LINE
  5
226
100
AcDbEntity
  8
0
100
AcDbLine
 62
7
  6
CONTINUOUS
 10
6.9280698774
 20
4.9780825466
 11
6.9280698774
 21
4.9980825466
  0
LINE
  5
227
100
AcDbEntity
  8
0
100
AcDbLine
 62
7
  6
CONTINUOUS
 10
6.9473148081
 20
4.9980825466
 11
6.9473148081
 21
4.9780825466
  0
LINE
  5
228
100
AcDbEntity
  8
0
100
AcDbLine
 62
7
  6
CONTINUOUS
 10
6.9591692687
 20
4.9780825466
 11
6.9591692687
 21
4.9980825466
  0
LINE
  5
229
100
AcDbEntity
  8
0
100
AcDbLine
 62
7
  6
CONTINUOUS
 10
6.988167997
 20
4.9980825466
 11
6.988167997
 21
4.9780825466
  0
LINE
  5
22A
100
AcDbEntity
  8
0
100
AcDbLine
 62
7
  6
CONTINUOUS
 10
6.9912626322
 20
4.9780825466
 11
6.9912626322
 21
4.9980825466
  0
LINE
  5
22B
100
AcDbEntity
  8
0
100
AcDbLine
 62
7
  6
CONTINUOUS
 10
7.0090426298
 20
4.9980825466
 11
7.0090426298
 21
4.9780825466
  0
LINE
  5
22C
100
AcDbEntity
  8
0
100
AcDbLine
 62
7
  6
CONTINUOUS
 10
7.0278521816
 20
4.9780825466
 11
7.0278521816
 21
4.9980825466
  0
LINE
  5
22D
100
AcDbEntity
  8
0
100
AcDbLine
 62
7
  6
CONTINUOUS
 10
7.0524361165
 20
4.9980825466
 11
7.0524361165
 21
4.9780825466
  0
LINE
  5
22E
100
AcDbEntity
  8
0
100
AcDbLine
 62
7
  6
CONTINUOUS
 10
7.0599080171
 20
4.9980825466
 11
7.0599080171
 21
4.9780825466
  0
LINE
  5
22F
100
AcDbEntity
  8
0
100
AcDbLine
 62
7
  6
CONTINUOUS
 10
7.0828090764
 20
4.9780825466
 11
7.0828090764
 21
4.9980825466
  0
LINE
  5
230
100
AcDbEntity
  8
0
100
AcDbLine
 62
7
  6
CONTINUOUS
 10
7.0992355365
 20
4.9980825466
 11
7.0992355365
 21
4.9780825466
  0
LINE
  5
231
100
AcDbEntity
  8
0
100
AcDbLine
 62
7
  6
CONTINUOUS
 10
7.115673264
 20
4.9780825466
 11
7.115673264
 21
4.9980825466
  0
LINE
  5
232
100
AcDbEntity
  8
0
100
AcDbLine
 62
7
  6
CONTINUOUS
 10
7.1214414697
 20
4.9980825466
 11
7.1214414697
 21
4.9780825466
  0
LINE
  5
233
100
AcDbEntity
  8
0
100
AcDbLine
 62
7
  6
CONTINUOUS
 10
7.1876923427
 20
5.9980825466
 11
7.1876923427
 21
5.4380825466
  0
LINE
  5
234
100
AcDbEntity
  8
0
100
AcDbLine
 62
7
  6
CONTINUOUS
 10
7.3126923427
 20
6.5980825466
 11
7.3126923427
 21
6.5330825466
  0
LINE
  5
235
100
AcDbEntity
  8
0
100
AcDbLine
 62
7
  6
CONTINUOUS
 10
7.3126923427
 20
6.0630825466
 11
7.3126923427
 21
5.9980825466
  0
LINE
  5
236
100
AcDbEntity
  8
0
100
AcDbLine
 62
7
  6
CONTINUOUS
 10
15.5939419803
 20
5.4380825466
 11
14.2814427052
 21
5.4380825466
  0
LINE
  5
237
100
AcDbEntity
  8
0
100
AcDbLine
 62
7
  6
CONTINUOUS
 10
7.5939419803
 20
5.4380825466
 11
6.2814427052
 21
5.4380825466
  0
LINE
  5
238
100
AcDbEntity
  8
0
100
AcDbLine
 62
7
  6
CONTINUOUS
 10
7.5939423427
 20
5.4380825466
 11
7.5939423427
 21
4.9980825466
  0
LINE
  5
239
100
AcDbEntity
  8
0
100
AcDbLine
 62
7
  6
CONTINUOUS
 10
7.5939423427
 20
4.9780825466
 11
7.5939423427
 21
3.8700825466
  0
LINE
  5
23A
100
AcDbEntity
  8
0
100
AcDbLine
 62
7
  6
CONTINUOUS
 10
6.5626984447
 20
5.9980825466
 11
7.3126862408
 21
5.9980825466
  0
LINE
  5
23B
100
AcDbEntity
  8
0
100
AcDbLine
 62
7
  6
CONTINUOUS
 10
14.5626984447
 20
5.9980825466
 11
15.3126862408
 21
5.9980825466
  0
LINE
  5
23C
100
AcDbEntity
  8
0
100
AcDbLine
 62
7
  6
CONTINUOUS
 10
16.3126923427
 20
6.0755825466
 11
15.3049907731
 21
6.0755825466
  0
LINE
  5
23D
100
AcDbEntity
  8
0
100
AcDbLine
 62
7
  6
CONTINUOUS
 10
8.3126923427
 20
6.0755825466
 11
7.3049907731
 21
6.0755825466
  0
LINE
  5
23E
100
AcDbEntity
  8
0
100
AcDbLine
 62
7
  6
CONTINUOUS
 10
5.5626923427
 20
6.0755825466
 11
6.5703939487
 21
6.0755825466
  0
LINE
  5
23F
100
AcDbEntity
  8
0
100
AcDbLine
 62
7
  6
CONTINUOUS
 10
13.5626923427
 20
6.0755825466
 11
14.5703939487
 21
6.0755825466
  0
LINE
  5
240
100
AcDbEntity
  8
0
100
AcDbLine
 62
7
  6
CONTINUOUS
 10
8.1251923427
 20
3.8700825466
 11
8.1251923427
 21
3.4950825466
  0
LINE
  5
241
100
AcDbEntity
  8
0
100
AcDbLine
 62
7
  6
CONTINUOUS
 10
8.3126923427
 20
6.075582779
 11
8.3126923427
 21
6.5205823142
  0
LINE
  5
242
100
AcDbEntity
  8
0
100
AcDbLine
 62
7
  6
CONTINUOUS
 10
16.3126923427
 20
6.5205825466
 11
15.3049907367
 21
6.5205825466
  0
LINE
  5
243
100
AcDbEntity
  8
0
100
AcDbLine
 62
7
  6
CONTINUOUS
 10
8.3126923427
 20
6.5205825466
 11
7.3049907367
 21
6.5205825466
  0
LINE
  5
244
100
AcDbEntity
  8
0
100
AcDbLine
 62
7
  6
CONTINUOUS
 10
5.5626923427
 20
6.5205825466
 11
6.5703939124
 21
6.5205825466
  0
LINE
  5
245
100
AcDbEntity
  8
0
100
AcDbLine
 62
7
  6
CONTINUOUS
 10
13.5626923427
 20
6.5205825466
 11
14.5703939124
 21
6.5205825466
  0
LINE
  5
246
100
AcDbEntity
  8
0
100
AcDbLine
 62
7
  6
CONTINUOUS
 10
15.3126862408
 20
6.5980825466
 11
14.5626984447
 21
6.5980825466
  0
LINE
  5
247
100
AcDbEntity
  8
0
100
AcDbLine
 62
7
  6
CONTINUOUS
 10
7.3126862408
 20
6.5980825466
 11
6.5626984447
 21
6.5980825466
  0
LINE
  5
248
100
AcDbEntity
  8
0
100
AcDbLine
 62
9
  6
CONTINUOUS
 10
11.6176923427
 20
6.6500825466
 11
10.2576923427
 21
6.6500825466
  0
LINE
  5
249
100
AcDbEntity
  8
0
100
AcDbLine
 62
7
  6
CONTINUOUS
 10
11.5876923427
 20
6.6800825466
 11
10.2876923427
 21
6.6800825466
  0
LINE
  5
24A
100
AcDbEntity
  8
0
100
AcDbLine
 62
7
  6
CONTINUOUS
 10
9.7501923427
 20
3.8700825466
 11
9.7501923427
 21
3.4950825466
  0
LINE
  5
24B
100
AcDbEntity
  8
0
100
AcDbLine
 62
7
  6
CONTINUOUS
 10
10.2576923427
 20
6.6500825466
 11
10.2576923427
 21
3.8700825466
  0
LINE
  5
24C
100
AcDbEntity
  8
0
100
AcDbLine
 62
7
  6
CONTINUOUS
 10
10.5001923427
 20
6.6800825466
 11
10.5001923427
 21
14.6120825466
  0
LINE
  5
24D
100
AcDbEntity
  8
0
100
AcDbLine
 62
7
  6
CONTINUOUS
 10
11.3751923427
 20
6.6800825466
 11
11.3751923427
 21
14.6120825466
  0
LINE
  5
24E
100
AcDbEntity
  8
0
100
AcDbLine
 62
7
  6
CONTINUOUS
 10
10.5001923427
 20
9.4900825466
 11
11.3751923427
 21
9.4900825466
  0
LINE
  5
24F
100
AcDbEntity
  8
0
100
AcDbLine
 62
7
  6
CONTINUOUS
 10
11.6176923427
 20
6.6500825466
 11
11.6176923427
 21
3.8700825466
  0
LINE
  5
250
100
AcDbEntity
  8
0
100
AcDbLine
 62
7
  6
CONTINUOUS
 10
11.3751923427
 20
10.3000825466
 11
10.5001923427
 21
10.3000825466
  0
LINE
  5
251
100
AcDbEntity
  8
0
100
AcDbLine
 62
7
  6
CONTINUOUS
 10
12.1251923427
 20
3.8700825466
 11
12.1251923427
 21
3.4950825466
  0
LINE
  5
252
100
AcDbEntity
  8
0
100
AcDbLine
 62
9
  6
CONTINUOUS
 10
11.3751923427
 20
11.0490825466
 11
10.5001923427
 21
11.0490825466
  0
LINE
  5
253
100
AcDbEntity
  8
0
100
AcDbLine
 62
7
  6
CONTINUOUS
 10
13.5626923427
 20
6.5205823142
 11
13.5626923427
 21
6.075582779
  0
LINE
  5
254
100
AcDbEntity
  8
0
100
AcDbLine
 62
7
  6
CONTINUOUS
 10
13.7501923427
 20
3.8700825466
 11
13.7501923427
 21
3.4950825466
  0
LINE
  5
255
100
AcDbEntity
  8
0
100
AcDbLine
 62
7
  6
CONTINUOUS
 10
14.2814423427
 20
5.4380825466
 11
14.2814423427
 21
5.2835825466
  0
LINE
  5
256
100
AcDbEntity
  8
0
100
AcDbLine
 62
7
  6
CONTINUOUS
 10
14.2814423427
 20
5.1125825466
 11
14.2814423427
 21
4.9980825466
  0
LINE
  5
257
100
AcDbEntity
  8
0
100
AcDbLine
 62
7
  6
CONTINUOUS
 10
14.2814423427
 20
4.9780825466
 11
14.2814423427
 21
3.8700825466
  0
LINE
  5
258
100
AcDbEntity
  8
0
100
AcDbLine
 62
7
  6
CONTINUOUS
 10
14.5626923427
 20
6.5980825466
 11
14.5626923427
 21
6.5330825466
  0
LINE
  5
259
100
AcDbEntity
  8
0
100
AcDbLine
 62
7
  6
CONTINUOUS
 10
14.5626923427
 20
6.0630825466
 11
14.5626923427
 21
5.9980825466
  0
LINE
  5
25A
100
AcDbEntity
  8
0
100
AcDbLine
 62
7
  6
CONTINUOUS
 10
14.6876923427
 20
5.9980825466
 11
14.6876923427
 21
5.4380825466
  0
LINE
  5
25B
100
AcDbEntity
  8
0
100
AcDbLine
 62
7
  6
CONTINUOUS
 10
14.7539432158
 20
4.9780825466
 11
14.7539432158
 21
4.9980825466
  0
LINE
  5
25C
100
AcDbEntity
  8
0
100
AcDbLine
 62
7
  6
CONTINUOUS
 10
14.7597114215
 20
4.9980825466
 11
14.7597114215
 21
4.9780825466
  0
LINE
  5
25D
100
AcDbEntity
  8
0
100
AcDbLine
 62
7
  6
CONTINUOUS
 10
14.776149149
 20
4.9780825466
 11
14.776149149
 21
4.9980825466
  0
LINE
  5
25E
100
AcDbEntity
  8
0
100
AcDbLine
 62
7
  6
CONTINUOUS
 10
14.7925756091
 20
4.9980825466
 11
14.7925756091
 21
4.9780825466
  0
LINE
  5
25F
100
AcDbEntity
  8
0
100
AcDbLine
 62
7
  6
CONTINUOUS
 10
14.8154766683
 20
4.9780825466
 11
14.8154766683
 21
4.9980825466
  0
LINE
  5
260
100
AcDbEntity
  8
0
100
AcDbLine
 62
7
  6
CONTINUOUS
 10
14.822948569
 20
4.9780825466
 11
14.822948569
 21
4.9980825466
  0
LINE
  5
261
100
AcDbEntity
  8
0
100
AcDbLine
 62
7
  6
CONTINUOUS
 10
14.8475325038
 20
4.9980825466
 11
14.8475325038
 21
4.9780825466
  0
LINE
  5
262
100
AcDbEntity
  8
0
100
AcDbLine
 62
7
  6
CONTINUOUS
 10
14.8663420556
 20
4.9780825466
 11
14.8663420556
 21
4.9980825466
  0
LINE
  5
263
100
AcDbEntity
  8
0
100
AcDbLine
 62
7
  6
CONTINUOUS
 10
14.8841220533
 20
4.9980825466
 11
14.8841220533
 21
4.9780825466
  0
LINE
  5
264
100
AcDbEntity
  8
0
100
AcDbLine
 62
7
  6
CONTINUOUS
 10
14.8872166885
 20
4.9780825466
 11
14.8872166885
 21
4.9980825466
  0
LINE
  5
265
100
AcDbEntity
  8
0
100
AcDbLine
 62
7
  6
CONTINUOUS
 10
14.9162154168
 20
4.9980825466
 11
14.9162154168
 21
4.9780825466
  0
LINE
  5
266
100
AcDbEntity
  8
0
100
AcDbLine
 62
7
  6
CONTINUOUS
 10
14.9280698774
 20
4.9780825466
 11
14.9280698774
 21
4.9980825466
  0
LINE
  5
267
100
AcDbEntity
  8
0
100
AcDbLine
 62
7
  6
CONTINUOUS
 10
14.9473148081
 20
4.9980825466
 11
14.9473148081
 21
4.9780825466
  0
LINE
  5
268
100
AcDbEntity
  8
0
100
AcDbLine
 62
7
  6
CONTINUOUS
 10
14.9591692687
 20
4.9780825466
 11
14.9591692687
 21
4.9980825466
  0
LINE
  5
269
100
AcDbEntity
  8
0
100
AcDbLine
 62
7
  6
CONTINUOUS
 10
14.988167997
 20
4.9980825466
 11
14.988167997
 21
4.9780825466
  0
LINE
  5
26A
100
AcDbEntity
  8
0
100
AcDbLine
 62
7
  6
CONTINUOUS
 10
14.9912626322
 20
4.9780825466
 11
14.9912626322
 21
4.9980825466
  0
LINE
  5
26B
100
AcDbEntity
  8
0
100
AcDbLine
 62
7
  6
CONTINUOUS
 10
15.0090426298
 20
4.9980825466
 11
15.0090426298
 21
4.9780825466
  0
LINE
  5
26C
100
AcDbEntity
  8
0
100
AcDbLine
 62
7
  6
CONTINUOUS
 10
15.0278521816
 20
4.9780825466
 11
15.0278521816
 21
4.9980825466
  0
LINE
  5
26D
100
AcDbEntity
  8
0
100
AcDbLine
 62
7
  6
CONTINUOUS
 10
15.0524361165
 20
4.9980825466
 11
15.0524361165
 21
4.9780825466
  0
LINE
  5
26E
100
AcDbEntity
  8
0
100
AcDbLine
 62
7
  6
CONTINUOUS
 10
15.0599080171
 20
4.9980825466
 11
15.0599080171
 21
4.9780825466
  0
LINE
  5
26F
100
AcDbEntity
  8
0
100
AcDbLine
 62
7
  6
CONTINUOUS
 10
15.0828090764
 20
4.9780825466
 11
15.0828090764
 21
4.9980825466
  0
LINE
  5
270
100
AcDbEntity
  8
0
100
AcDbLine
 62
7
  6
CONTINUOUS
 10
15.0992355365
 20
4.9980825466
 11
15.0992355365
 21
4.9780825466
  0
LINE
  5
271
100
AcDbEntity
  8
0
100
AcDbLine
 62
7
  6
CONTINUOUS
 10
15.115673264
 20
4.9780825466
 11
15.115673264
 21
4.9980825466
  0
LINE
  5
272
100
AcDbEntity
  8
0
100
AcDbLine
 62
7
  6
CONTINUOUS
 10
15.1214414697
 20
4.9980825466
 11
15.1214414697
 21
4.9780825466
  0
LINE
  5
273
100
AcDbEntity
  8
0
100
AcDbLine
 62
7
  6
CONTINUOUS
 10
15.1876923427
 20
5.9980825466
 11
15.1876923427
 21
5.4380825466
  0
LINE
  5
274
100
AcDbEntity
  8
0
100
AcDbLine
 62
7
  6
CONTINUOUS
 10
15.3126923427
 20
6.5980825466
 11
15.3126923427
 21
6.5330825466
  0
LINE
  5
275
100
AcDbEntity
  8
0
100
AcDbLine
 62
7
  6
CONTINUOUS
 10
15.3126923427
 20
6.0630825466
 11
15.3126923427
 21
5.9980825466
  0
LINE
  5
276
100
AcDbEntity
  8
0
100
AcDbLine
 62
7
  6
CONTINUOUS
 10
15.5939423427
 20
5.4380825466
 11
15.5939423427
 21
4.9980825466
  0
LINE
  5
277
100
AcDbEntity
  8
0
100
AcDbLine
 62
7
  6
CONTINUOUS
 10
15.5939423427
 20
4.9780825466
 11
15.5939423427
 21
3.8700825466
  0
LINE
  5
278
100
AcDbEntity
  8
0
100
AcDbLine
 62
7
  6
CONTINUOUS
 10
16.1251923427
 20
3.8700825466
 11
16.1251923427
 21
3.4950825466
  0
LINE
  5
279
100
AcDbEntity
  8
0
100
AcDbLine
 62
7
  6
CONTINUOUS
 10
16.3126923427
 20
6.075582779
 11
16.3126923427
 21
6.5205823142
  0
ARC
  5
27A
100
AcDbEntity
  8
0
100
AcDbCircle
 62
7
  6
CONTINUOUS
 10
10.9376923427
 20
14.6120825466
 40
0.4375
100
AcDbArc
 50
0.0
 51
180.0
  0
CIRCLE
  5
27B
100
AcDbEntity
  8
0
100
AcDbCircle
 62
7
  6
CONTINUOUS
 10
14.9376923427
 20
6.2980825466
 40
0.235
  0
CIRCLE
  5
27C
100
AcDbEntity
  8
0
100
AcDbCircle
 62
7
  6
CONTINUOUS
 10
6.9376923427
 20
6.2980825466
 40
0.235
  0
CIRCLE
  5
27D
100
AcDbEntity
  8
0
100
AcDbCircle
 62
7
  6
CONTINUOUS
 10
14.9376923427
 20
6.2980825466
 40
0.2225
  0
CIRCLE
  5
27E
100
AcDbEntity
  8
0
100
AcDbCircle
 62
7
  6
CONTINUOUS
 10
6.9376923427
 20
6.2980825466
 40
0.2225
  0
ARC
  5
27F
100
AcDbEntity
  8
0
100
AcDbCircle
 62
7
  6
CONTINUOUS
 10
10.2876923427
 20
6.6500825466
 40
0.03
100
AcDbArc
 50
90.0
 51
180.0
  0
ARC
  5
280
100
AcDbEntity
  8
0
100
AcDbCircle
 62
7
  6
CONTINUOUS
 10
11.5876923427
 20
6.6500825466
 40
0.03
100
AcDbArc
 50
0.0
 51
90.0
  0
SPLINE
  5
281
100
AcDbEntity
  8
0
100
AcDbSpline
 62
7
  6
CONTINUOUS
 70
0
 71
3
 72
17
 73
13
 74
0
 42
0.0000001
 43
0.0000001
 44
0.0000000001
 40
0.0
 40
0.0
 40
0.0
 40
0.0
 40
0.0383179079
 40
0.1469433655
 40
0.2226935059
 40
0.3089922768
 40
0.4999923846
 40
0.6909894712
 40
0.777293711
 40
0.8530450148
 40
0.9616809632
 40
1.0
 40
1.0
 40
1.0
 40
1.0
 10
14.2814423427
 20
5.1125825466
 30
0.0
 10
14.2817252457
 20
5.1147543755
 30
0.0
 10
14.2827703575
 20
5.1230883751
 30
0.0
 10
14.2841205429
 20
5.1357473555
 30
0.0
 10
14.2853944041
 20
5.1511671776
 30
0.0
 10
14.286637754
 20
5.1713101489
 30
0.0
 10
14.2873088205
 20
5.1980810723
 30
0.0
 10
14.2866375589
 20
5.2248522833
 30
0.0
 10
14.2853947534
 20
5.2449954978
 30
0.0
 10
14.2841205914
 20
5.2604162776
 30
0.0
 10
14.2827705437
 20
5.273076007
 30
0.0
 10
14.2817252918
 20
5.2814106581
 30
0.0
 10
14.2814423427
 20
5.2835825466
 30
0.0
  0
SPLINE
  5
282
100
AcDbEntity
  8
0
100
AcDbSpline
 62
7
  6
CONTINUOUS
 70
0
 71
3
 72
41
 73
37
 74
0
 42
0.0000001
 43
0.0000001
 44
0.0000000001
 40
0.0
 40
0.0
 40
0.0
 40
0.0
 40
0.0000219845
 40
0.000087916
 40
0.0001977589
 40
0.0003514781
 40
0.0007904034
 40
0.001404409
 40
0.002193212
 40
0.0031565294
 40
0.0042940697
 40
0.0056052977
 40
0.0087455855
 40
0.0125708616
 40
0.0170745348
 40
0.0222484405
 40
0.0280825465
 40
0.0345667203
 40
0.0494407799
 40
0.0667716592
 40
0.0864529864
 40
0.1083714494
 40
0.1324113157
 40
0.1584557304
 40
0.1863897592
 40
0.2161007694
 40
0.247481238
 40
0.3148413754
 40
0.3877125339
 40
0.4654225221
 40
0.5473703247
 40
0.6329975468
 40
0.7217443927
 40
0.8129962187
 40
0.9060289199
 40
1.0
 40
1.0
 40
1.0
 40
1.0
 10
14.5626923427
 20
6.0630825466
 30
0.0
 10
14.5626910506
 20
6.0630812224
 30
0.0
 10
14.5627005211
 20
6.0630945299
 30
0.0
 10
14.5627040158
 20
6.0631018347
 30
0.0
 10
14.5627217715
 20
6.0631291752
 30
0.0
 10
14.562751329
 20
6.06317693
 30
0.0
 10
14.5628066137
 20
6.0632647228
 30
0.0
 10
14.5628882205
 20
6.0633952475
 30
0.0
 10
14.5629941317
 20
6.0635643618
 30
0.0
 10
14.563123026
 20
6.0637704058
 30
0.0
 10
14.5632753148
 20
6.0640139115
 30
0.0
 10
14.5635245956
 20
6.0644127607
 30
0.0
 10
14.5638934391
 20
6.0650036639
 30
0.0
 10
14.5644037701
 20
6.0658229425
 30
0.0
 10
14.5650036046
 20
6.0667881096
 30
0.0
 10
14.5656913374
 20
6.0678976937
 30
0.0
 10
14.5664650553
 20
6.0691500767
 30
0.0
 10
14.5676647127
 20
6.0710988822
 30
0.0
 10
14.569363896
 20
6.0738763561
 30
0.0
 10
14.5716264458
 20
6.0776111376
 30
0.0
 10
14.5741745455
 20
6.0818660116
 30
0.0
 10
14.5769846297
 20
6.0866220126
 30
0.0
 10
14.5800316918
 20
6.0918598446
 30
0.0
 10
14.5832898434
 20
6.0975603703
 30
0.0
 10
14.5867319291
 20
6.1037052187
 30
0.0
 10
14.5903306708
 20
6.1102766976
 30
0.0
 10
14.595421309
 20
6.1198134776
 30
0.0
 10
14.6019909233
 20
6.1326772344
 30
0.0
 10
14.6098618405
 20
6.1492473655
 30
0.0
 10
14.6176428444
 20
6.1672082079
 30
0.0
 10
14.6250587567
 20
6.1864803237
 30
0.0
 10
14.6318089457
 20
6.2069792978
 30
0.0
 10
14.6375691027
 20
6.2285937109
 30
0.0
 10
14.6420066295
 20
6.2511585779
 30
0.0
 10
14.6448177967
 20
6.2744289083
 30
0.0
 10
14.6454595588
 20
6.290174128
 30
0.0
 10
14.6454595588
 20
6.2980825466
 30
0.0
  0
SPLINE
  5
283
100
AcDbEntity
  8
0
100
AcDbSpline
 62
7
  6
CONTINUOUS
 70
0
 71
3
 72
41
 73
37
 74
0
 42
0.0000001
 43
0.0000001
 44
0.0000000001
 40
0.0
 40
0.0
 40
0.0
 40
0.0
 40
0.0000219845
 40
0.000087916
 40
0.0001977589
 40
0.0003514781
 40
0.0007904034
 40
0.001404409
 40
0.002193212
 40
0.0031565294
 40
0.0042940697
 40
0.0056052977
 40
0.0087455855
 40
0.0125708616
 40
0.0170745348
 40
0.0222484405
 40
0.0280825465
 40
0.0345667203
 40
0.0494407799
 40
0.0667716592
 40
0.0864529864
 40
0.1083714493
 40
0.1324113157
 40
0.1584557304
 40
0.1863897591
 40
0.2161007694
 40
0.247481238
 40
0.3148413753
 40
0.3877125338
 40
0.4654225221
 40
0.5473703246
 40
0.6329975468
 40
0.7217443927
 40
0.8129962186
 40
0.9060289198
 40
1.0
 40
1.0
 40
1.0
 40
1.0
 10
15.3126923427
 20
6.5330825466
 30
0.0
 10
15.3126936349
 20
6.5330838708
 30
0.0
 10
15.3126841644
 20
6.5330705632
 30
0.0
 10
15.3126806697
 20
6.5330632584
 30
0.0
 10
15.312662914
 20
6.5330359179
 30
0.0
 10
15.3126333565
 20
6.5329881632
 30
0.0
 10
15.3125780718
 20
6.5329003703
 30
0.0
 10
15.312496465
 20
6.5327698457
 30
0.0
 10
15.3123905538
 20
6.5326007313
 30
0.0
 10
15.3122616594
 20
6.5323946873
 30
0.0
 10
15.3121093707
 20
6.5321511816
 30
0.0
 10
15.3118600899
 20
6.5317523325
 30
0.0
 10
15.3114912464
 20
6.5311614292
 30
0.0
 10
15.3109809154
 20
6.5303421507
 30
0.0
 10
15.3103810808
 20
6.5293769835
 30
0.0
 10
15.3096933481
 20
6.5282673995
 30
0.0
 10
15.3089196302
 20
6.5270150164
 30
0.0
 10
15.3077199728
 20
6.5250662109
 30
0.0
 10
15.3060207895
 20
6.522288737
 30
0.0
 10
15.3037582397
 20
6.5185539555
 30
0.0
 10
15.30121014
 20
6.5142990815
 30
0.0
 10
15.2984000557
 20
6.5095430806
 30
0.0
 10
15.2953529936
 20
6.5043052485
 30
0.0
 10
15.2920948421
 20
6.4986047228
 30
0.0
 10
15.2886527564
 20
6.4924598745
 30
0.0
 10
15.2850540147
 20
6.4858883956
 30
0.0
 10
15.2799633765
 20
6.4763516155
 30
0.0
 10
15.2733937622
 20
6.4634878588
 30
0.0
 10
15.265522845
 20
6.4469177277
 30
0.0
 10
15.2577418411
 20
6.4289568853
 30
0.0
 10
15.2503259288
 20
6.4096847695
 30
0.0
 10
15.2435757398
 20
6.3891857954
 30
0.0
 10
15.2378155828
 20
6.3675713822
 30
0.0
 10
15.233378056
 20
6.3450065152
 30
0.0
 10
15.2305668888
 20
6.3217361849
 30
0.0
 10
15.2299251267
 20
6.3059909651
 30
0.0
 10
15.2299251267
 20
6.2980825466
 30
0.0
  0
LINE
  5
284
100
AcDbEntity
  8
0
100
AcDbLine
 62
7
  6
CONTINUOUS
 10
14.5631942159
 20
6.0638842395
 11
14.5626923427
 21
6.0630825466
  0
SPLINE
  5
285
100
AcDbEntity
  8
0
100
AcDbSpline
 62
7
  6
CONTINUOUS
 70
0
 71
3
 72
40
 73
36
 74
0
 42
0.0000001
 43
0.0000001
 44
0.0000000001
 40
0.0
 40
0.0
 40
0.0
 40
0.0
 40
0.0939711495
 40
0.1870038456
 40
0.2782556706
 40
0.3670026178
 40
0.4526299145
 40
0.5345779031
 40
0.6122879163
 40
0.6851591792
 40
0.752519323
 40
0.8136099978
 40
0.841544045
 40
0.8675884819
 40
0.8916283867
 40
0.9135468839
 40
0.9332282372
 40
0.9505591406
 40
0.9654332274
 40
0.9719174114
 40
0.9777515273
 40
0.9829254418
 40
0.9874291221
 40
0.9912544031
 40
0.9943946941
 40
0.9957059235
 40
0.996843465
 40
0.997806783
 40
0.9985955863
 40
0.9992095923
 40
0.9996485183
 40
0.999802238
 40
0.9999120817
 40
0.9999780142
 40
1.0
 40
1.0
 40
1.0
 40
1.0
 10
14.6454595588
 20
6.2980825466
 30
0.0
 10
14.6454595588
 20
6.305990964
 30
0.0
 10
14.6448177984
 20
6.3217361755
 30
0.0
 10
14.6420066326
 20
6.3450064907
 30
0.0
 10
14.6375691124
 20
6.3675713466
 30
0.0
 10
14.6318089572
 20
6.3891857556
 30
0.0
 10
14.6250587681
 20
6.4096847408
 30
0.0
 10
14.6176428508
 20
6.4289568651
 30
0.0
 10
14.609861856
 20
6.4469177075
 30
0.0
 10
14.6019909004
 20
6.4634878648
 30
0.0
 10
14.5942840621
 20
6.4785785487
 30
0.0
 10
14.588022569
 20
6.490155862
 30
0.0
 10
14.5832898519
 20
6.4986046983
 30
0.0
 10
14.5800317028
 20
6.5043052325
 30
0.0
 10
14.5769846384
 20
6.5095430649
 30
0.0
 10
14.574174553
 20
6.5142990696
 30
0.0
 10
14.5716264514
 20
6.5185539455
 30
0.0
 10
14.5693639008
 20
6.5222887298
 30
0.0
 10
14.5676647159
 20
6.5250662054
 30
0.0
 10
14.5664650577
 20
6.5270150127
 30
0.0
 10
14.5656913393
 20
6.5282673966
 30
0.0
 10
14.5650036055
 20
6.529376982
 30
0.0
 10
14.5644037718
 20
6.5303421484
 30
0.0
 10
14.5638934367
 20
6.5311614313
 30
0.0
 10
14.5635246026
 20
6.531752325
 30
0.0
 10
14.5632753063
 20
6.5321511901
 30
0.0
 10
14.5631230536
 20
6.5323946589
 30
0.0
 10
14.5629940538
 20
6.5326008109
 30
0.0
 10
14.5628884346
 20
6.5327696261
 30
0.0
 10
14.5628060787
 20
6.5329009185
 30
0.0
 10
14.5627523481
 20
6.5329871187
 30
0.0
 10
14.5627207005
 20
6.5330370156
 30
0.0
 10
14.5627063821
 20
6.5330608333
 30
0.0
 10
14.5626968142
 20
6.5330743623
 30
0.0
 10
14.562693635
 20
6.5330812223
 30
0.0
 10
14.5626923427
 20
6.5330825466
 30
0.0
  0
SPLINE
  5
286
100
AcDbEntity
  8
0
100
AcDbSpline
 62
7
  6
CONTINUOUS
 70
0
 71
3
 72
40
 73
36
 74
0
 42
0.0000001
 43
0.0000001
 44
0.0000000001
 40
0.0
 40
0.0
 40
0.0
 40
0.0
 40
0.0939711495
 40
0.1870038455
 40
0.2782556705
 40
0.3670026177
 40
0.4526299145
 40
0.5345779031
 40
0.6122879163
 40
0.6851591791
 40
0.752519323
 40
0.8136099978
 40
0.841544045
 40
0.8675884819
 40
0.8916283867
 40
0.9135468839
 40
0.9332282371
 40
0.9505591406
 40
0.9654332274
 40
0.9719174114
 40
0.9777515273
 40
0.9829254418
 40
0.9874291221
 40
0.9912544031
 40
0.9943946941
 40
0.9957059235
 40
0.996843465
 40
0.997806783
 40
0.9985955863
 40
0.9992095923
 40
0.9996485183
 40
0.999802238
 40
0.9999120817
 40
0.9999780142
 40
1.0
 40
1.0
 40
1.0
 40
1.0
 10
15.2299251267
 20
6.2980825466
 30
0.0
 10
15.2299251267
 20
6.2901741291
 30
0.0
 10
15.2305668871
 20
6.2744289176
 30
0.0
 10
15.2333780529
 20
6.2511586024
 30
0.0
 10
15.2378155731
 20
6.2285937466
 30
0.0
 10
15.2435757283
 20
6.2069793376
 30
0.0
 10
15.2503259174
 20
6.1864803524
 30
0.0
 10
15.2577418346
 20
6.1672082281
 30
0.0
 10
15.2655228295
 20
6.1492473856
 30
0.0
 10
15.273393785
 20
6.1326772284
 30
0.0
 10
15.2811006234
 20
6.1175865444
 30
0.0
 10
15.2873621164
 20
6.1060092311
 30
0.0
 10
15.2920948336
 20
6.0975603949
 30
0.0
 10
15.2953529827
 20
6.0918598606
 30
0.0
 10
15.2984000471
 20
6.0866220283
 30
0.0
 10
15.3012101324
 20
6.0818660236
 30
0.0
 10
15.3037582341
 20
6.0776111476
 30
0.0
 10
15.3060207847
 20
6.0738763634
 30
0.0
 10
15.3077199696
 20
6.0710988877
 30
0.0
 10
15.3089196278
 20
6.0691500804
 30
0.0
 10
15.3096933462
 20
6.0678976965
 30
0.0
 10
15.31038108
 20
6.0667881111
 30
0.0
 10
15.3109809137
 20
6.0658229447
 30
0.0
 10
15.3114912488
 20
6.0650036619
 30
0.0
 10
15.3118600829
 20
6.0644127681
 30
0.0
 10
15.3121093792
 20
6.0640139031
 30
0.0
 10
15.3122616319
 20
6.0637704343
 30
0.0
 10
15.3123906316
 20
6.0635642823
 30
0.0
 10
15.3124962509
 20
6.063395467
 30
0.0
 10
15.3125786068
 20
6.0632641746
 30
0.0
 10
15.3126323374
 20
6.0631779745
 30
0.0
 10
15.312663985
 20
6.0631280776
 30
0.0
 10
15.3126783034
 20
6.0631042599
 30
0.0
 10
15.3126878713
 20
6.0630907309
 30
0.0
 10
15.3126910505
 20
6.0630838709
 30
0.0
 10
15.3126923427
 20
6.0630825466
 30
0.0
  0
LINE
  5
287
100
AcDbEntity
  8
0
100
AcDbLine
 62
7
  6
CONTINUOUS
 10
15.3121904692
 20
6.5322808531
 11
15.3126923427
 21
6.5330825466
  0
SPLINE
  5
288
100
AcDbEntity
  8
0
100
AcDbSpline
 62
7
  6
CONTINUOUS
 70
0
 71
3
 72
17
 73
13
 74
0
 42
0.0000001
 43
0.0000001
 44
0.0000000001
 40
0.0
 40
0.0
 40
0.0
 40
0.0
 40
0.0383179079
 40
0.1469433655
 40
0.2226935059
 40
0.3089922768
 40
0.4999923846
 40
0.6909894712
 40
0.777293711
 40
0.8530450148
 40
0.9616809632
 40
1.0
 40
1.0
 40
1.0
 40
1.0
 10
6.2814423427
 20
5.1125825466
 30
0.0
 10
6.2817252457
 20
5.1147543755
 30
0.0
 10
6.2827703575
 20
5.1230883751
 30
0.0
 10
6.2841205429
 20
5.1357473555
 30
0.0
 10
6.2853944041
 20
5.1511671776
 30
0.0
 10
6.286637754
 20
5.1713101489
 30
0.0
 10
6.2873088205
 20
5.1980810723
 30
0.0
 10
6.2866375589
 20
5.2248522833
 30
0.0
 10
6.2853947534
 20
5.2449954978
 30
0.0
 10
6.2841205914
 20
5.2604162776
 30
0.0
 10
6.2827705437
 20
5.273076007
 30
0.0
 10
6.2817252918
 20
5.2814106581
 30
0.0
 10
6.2814423427
 20
5.2835825466
 30
0.0
  0
SPLINE
  5
289
100
AcDbEntity
  8
0
100
AcDbSpline
 62
7
  6
CONTINUOUS
 70
0
 71
3
 72
41
 73
37
 74
0
 42
0.0000001
 43
0.0000001
 44
0.0000000001
 40
0.0
 40
0.0
 40
0.0
 40
0.0
 40
0.0000219845
 40
0.000087916
 40
0.0001977589
 40
0.0003514781
 40
0.0007904034
 40
0.001404409
 40
0.002193212
 40
0.0031565294
 40
0.0042940697
 40
0.0056052977
 40
0.0087455855
 40
0.0125708616
 40
0.0170745348
 40
0.0222484405
 40
0.0280825465
 40
0.0345667203
 40
0.0494407799
 40
0.0667716592
 40
0.0864529864
 40
0.1083714494
 40
0.1324113157
 40
0.1584557304
 40
0.1863897592
 40
0.2161007694
 40
0.247481238
 40
0.3148413754
 40
0.3877125339
 40
0.4654225221
 40
0.5473703247
 40
0.6329975468
 40
0.7217443927
 40
0.8129962187
 40
0.9060289199
 40
1.0
 40
1.0
 40
1.0
 40
1.0
 10
6.5626923427
 20
6.0630825466
 30
0.0
 10
6.5626910506
 20
6.0630812224
 30
0.0
 10
6.5627005211
 20
6.0630945299
 30
0.0
 10
6.5627040158
 20
6.0631018347
 30
0.0
 10
6.5627217715
 20
6.0631291752
 30
0.0
 10
6.562751329
 20
6.06317693
 30
0.0
 10
6.5628066137
 20
6.0632647228
 30
0.0
 10
6.5628882205
 20
6.0633952475
 30
0.0
 10
6.5629941317
 20
6.0635643618
 30
0.0
 10
6.563123026
 20
6.0637704058
 30
0.0
 10
6.5632753148
 20
6.0640139115
 30
0.0
 10
6.5635245956
 20
6.0644127607
 30
0.0
 10
6.5638934391
 20
6.0650036639
 30
0.0
 10
6.5644037701
 20
6.0658229425
 30
0.0
 10
6.5650036046
 20
6.0667881096
 30
0.0
 10
6.5656913374
 20
6.0678976937
 30
0.0
 10
6.5664650553
 20
6.0691500767
 30
0.0
 10
6.5676647127
 20
6.0710988822
 30
0.0
 10
6.569363896
 20
6.0738763561
 30
0.0
 10
6.5716264458
 20
6.0776111376
 30
0.0
 10
6.5741745455
 20
6.0818660116
 30
0.0
 10
6.5769846297
 20
6.0866220126
 30
0.0
 10
6.5800316918
 20
6.0918598446
 30
0.0
 10
6.5832898434
 20
6.0975603703
 30
0.0
 10
6.5867319291
 20
6.1037052187
 30
0.0
 10
6.5903306708
 20
6.1102766976
 30
0.0
 10
6.595421309
 20
6.1198134776
 30
0.0
 10
6.6019909233
 20
6.1326772344
 30
0.0
 10
6.6098618405
 20
6.1492473655
 30
0.0
 10
6.6176428444
 20
6.1672082079
 30
0.0
 10
6.6250587567
 20
6.1864803237
 30
0.0
 10
6.6318089457
 20
6.2069792978
 30
0.0
 10
6.6375691027
 20
6.2285937109
 30
0.0
 10
6.6420066295
 20
6.2511585779
 30
0.0
 10
6.6448177967
 20
6.2744289083
 30
0.0
 10
6.6454595588
 20
6.290174128
 30
0.0
 10
6.6454595588
 20
6.2980825466
 30
0.0
  0
SPLINE
  5
28A
100
AcDbEntity
  8
0
100
AcDbSpline
 62
7
  6
CONTINUOUS
 70
0
 71
3
 72
41
 73
37
 74
0
 42
0.0000001
 43
0.0000001
 44
0.0000000001
 40
0.0
 40
0.0
 40
0.0
 40
0.0
 40
0.0000219845
 40
0.000087916
 40
0.0001977589
 40
0.0003514781
 40
0.0007904034
 40
0.001404409
 40
0.002193212
 40
0.0031565294
 40
0.0042940697
 40
0.0056052977
 40
0.0087455855
 40
0.0125708616
 40
0.0170745348
 40
0.0222484405
 40
0.0280825465
 40
0.0345667203
 40
0.0494407799
 40
0.0667716592
 40
0.0864529864
 40
0.1083714493
 40
0.1324113157
 40
0.1584557304
 40
0.1863897591
 40
0.2161007694
 40
0.247481238
 40
0.3148413753
 40
0.3877125338
 40
0.4654225221
 40
0.5473703246
 40
0.6329975468
 40
0.7217443927
 40
0.8129962186
 40
0.9060289198
 40
1.0
 40
1.0
 40
1.0
 40
1.0
 10
7.3126923427
 20
6.5330825466
 30
0.0
 10
7.3126936349
 20
6.5330838708
 30
0.0
 10
7.3126841644
 20
6.5330705632
 30
0.0
 10
7.3126806697
 20
6.5330632584
 30
0.0
 10
7.312662914
 20
6.5330359179
 30
0.0
 10
7.3126333565
 20
6.5329881632
 30
0.0
 10
7.3125780718
 20
6.5329003703
 30
0.0
 10
7.312496465
 20
6.5327698457
 30
0.0
 10
7.3123905538
 20
6.5326007313
 30
0.0
 10
7.3122616594
 20
6.5323946873
 30
0.0
 10
7.3121093707
 20
6.5321511816
 30
0.0
 10
7.3118600899
 20
6.5317523325
 30
0.0
 10
7.3114912464
 20
6.5311614292
 30
0.0
 10
7.3109809154
 20
6.5303421507
 30
0.0
 10
7.3103810808
 20
6.5293769835
 30
0.0
 10
7.3096933481
 20
6.5282673995
 30
0.0
 10
7.3089196302
 20
6.5270150164
 30
0.0
 10
7.3077199728
 20
6.5250662109
 30
0.0
 10
7.3060207895
 20
6.522288737
 30
0.0
 10
7.3037582397
 20
6.5185539555
 30
0.0
 10
7.30121014
 20
6.5142990815
 30
0.0
 10
7.2984000557
 20
6.5095430806
 30
0.0
 10
7.2953529936
 20
6.5043052485
 30
0.0
 10
7.2920948421
 20
6.4986047228
 30
0.0
 10
7.2886527564
 20
6.4924598745
 30
0.0
 10
7.2850540147
 20
6.4858883956
 30
0.0
 10
7.2799633765
 20
6.4763516155
 30
0.0
 10
7.2733937622
 20
6.4634878588
 30
0.0
 10
7.265522845
 20
6.4469177277
 30
0.0
 10
7.2577418411
 20
6.4289568853
 30
0.0
 10
7.2503259288
 20
6.4096847695
 30
0.0
 10
7.2435757398
 20
6.3891857954
 30
0.0
 10
7.2378155828
 20
6.3675713822
 30
0.0
 10
7.233378056
 20
6.3450065152
 30
0.0
 10
7.2305668888
 20
6.3217361849
 30
0.0
 10
7.2299251267
 20
6.3059909651
 30
0.0
 10
7.2299251267
 20
6.2980825466
 30
0.0
  0
LINE
  5
28B
100
AcDbEntity
  8
0
100
AcDbLine
 62
7
  6
CONTINUOUS
 10
6.5631942159
 20
6.0638842395
 11
6.5626923427
 21
6.0630825466
  0
SPLINE
  5
28C
100
AcDbEntity
  8
0
100
AcDbSpline
 62
7
  6
CONTINUOUS
 70
0
 71
3
 72
40
 73
36
 74
0
 42
0.0000001
 43
0.0000001
 44
0.0000000001
 40
0.0
 40
0.0
 40
0.0
 40
0.0
 40
0.0939711495
 40
0.1870038456
 40
0.2782556706
 40
0.3670026178
 40
0.4526299145
 40
0.5345779031
 40
0.6122879163
 40
0.6851591792
 40
0.752519323
 40
0.8136099978
 40
0.841544045
 40
0.8675884819
 40
0.8916283867
 40
0.9135468839
 40
0.9332282372
 40
0.9505591406
 40
0.9654332274
 40
0.9719174114
 40
0.9777515273
 40
0.9829254418
 40
0.9874291221
 40
0.9912544031
 40
0.9943946941
 40
0.9957059235
 40
0.996843465
 40
0.997806783
 40
0.9985955863
 40
0.9992095923
 40
0.9996485183
 40
0.999802238
 40
0.9999120817
 40
0.9999780142
 40
1.0
 40
1.0
 40
1.0
 40
1.0
 10
6.6454595588
 20
6.2980825466
 30
0.0
 10
6.6454595588
 20
6.305990964
 30
0.0
 10
6.6448177984
 20
6.3217361755
 30
0.0
 10
6.6420066326
 20
6.3450064907
 30
0.0
 10
6.6375691124
 20
6.3675713466
 30
0.0
 10
6.6318089572
 20
6.3891857556
 30
0.0
 10
6.6250587681
 20
6.4096847408
 30
0.0
 10
6.6176428508
 20
6.4289568651
 30
0.0
 10
6.609861856
 20
6.4469177075
 30
0.0
 10
6.6019909004
 20
6.4634878648
 30
0.0
 10
6.5942840621
 20
6.4785785487
 30
0.0
 10
6.588022569
 20
6.490155862
 30
0.0
 10
6.5832898519
 20
6.4986046983
 30
0.0
 10
6.5800317028
 20
6.5043052325
 30
0.0
 10
6.5769846384
 20
6.5095430649
 30
0.0
 10
6.574174553
 20
6.5142990696
 30
0.0
 10
6.5716264514
 20
6.5185539455
 30
0.0
 10
6.5693639008
 20
6.5222887298
 30
0.0
 10
6.5676647159
 20
6.5250662054
 30
0.0
 10
6.5664650577
 20
6.5270150127
 30
0.0
 10
6.5656913393
 20
6.5282673966
 30
0.0
 10
6.5650036055
 20
6.529376982
 30
0.0
 10
6.5644037718
 20
6.5303421484
 30
0.0
 10
6.5638934367
 20
6.5311614313
 30
0.0
 10
6.5635246026
 20
6.531752325
 30
0.0
 10
6.5632753063
 20
6.5321511901
 30
0.0
 10
6.5631230536
 20
6.5323946589
 30
0.0
 10
6.5629940538
 20
6.5326008109
 30
0.0
 10
6.5628884346
 20
6.5327696261
 30
0.0
 10
6.5628060787
 20
6.5329009185
 30
0.0
 10
6.5627523481
 20
6.5329871187
 30
0.0
 10
6.5627207005
 20
6.5330370156
 30
0.0
 10
6.5627063821
 20
6.5330608333
 30
0.0
 10
6.5626968142
 20
6.5330743623
 30
0.0
 10
6.562693635
 20
6.5330812223
 30
0.0
 10
6.5626923427
 20
6.5330825466
 30
0.0
  0
SPLINE
  5
28D
100
AcDbEntity
  8
0
100
AcDbSpline
 62
7
  6
CONTINUOUS
 70
0
 71
3
 72
40
 73
36
 74
0
 42
0.0000001
 43
0.0000001
 44
0.0000000001
 40
0.0
 40
0.0
 40
0.0
 40
0.0
 40
0.0939711495
 40
0.1870038455
 40
0.2782556705
 40
0.3670026177
 40
0.4526299145
 40
0.5345779031
 40
0.6122879163
 40
0.6851591791
 40
0.752519323
 40
0.8136099978
 40
0.841544045
 40
0.8675884819
 40
0.8916283867
 40
0.9135468839
 40
0.9332282371
 40
0.9505591406
 40
0.9654332274
 40
0.9719174114
 40
0.9777515273
 40
0.9829254418
 40
0.9874291221
 40
0.9912544031
 40
0.9943946941
 40
0.9957059235
 40
0.996843465
 40
0.997806783
 40
0.9985955863
 40
0.9992095923
 40
0.9996485183
 40
0.999802238
 40
0.9999120817
 40
0.9999780142
 40
1.0
 40
1.0
 40
1.0
 40
1.0
 10
7.2299251267
 20
6.2980825466
 30
0.0
 10
7.2299251267
 20
6.2901741291
 30
0.0
 10
7.2305668871
 20
6.2744289176
 30
0.0
 10
7.2333780529
 20
6.2511586024
 30
0.0
 10
7.2378155731
 20
6.2285937466
 30
0.0
 10
7.2435757283
 20
6.2069793376
 30
0.0
 10
7.2503259174
 20
6.1864803524
 30
0.0
 10
7.2577418346
 20
6.1672082281
 30
0.0
 10
7.2655228295
 20
6.1492473856
 30
0.0
 10
7.273393785
 20
6.1326772284
 30
0.0
 10
7.2811006234
 20
6.1175865444
 30
0.0
 10
7.2873621164
 20
6.1060092311
 30
0.0
 10
7.2920948336
 20
6.0975603949
 30
0.0
 10
7.2953529827
 20
6.0918598606
 30
0.0
 10
7.2984000471
 20
6.0866220283
 30
0.0
 10
7.3012101324
 20
6.0818660236
 30
0.0
 10
7.3037582341
 20
6.0776111476
 30
0.0
 10
7.3060207847
 20
6.0738763634
 30
0.0
 10
7.3077199696
 20
6.0710988877
 30
0.0
 10
7.3089196278
 20
6.0691500804
 30
0.0
 10
7.3096933462
 20
6.0678976965
 30
0.0
 10
7.31038108
 20
6.0667881111
 30
0.0
 10
7.3109809137
 20
6.0658229447
 30
0.0
 10
7.3114912488
 20
6.0650036619
 30
0.0
 10
7.3118600829
 20
6.0644127681
 30
0.0
 10
7.3121093792
 20
6.0640139031
 30
0.0
 10
7.3122616319
 20
6.0637704343
 30
0.0
 10
7.3123906316
 20
6.0635642823
 30
0.0
 10
7.3124962509
 20
6.063395467
 30
0.0
 10
7.3125786068
 20
6.0632641746
 30
0.0
 10
7.3126323374
 20
6.0631779745
 30
0.0
 10
7.312663985
 20
6.0631280776
 30
0.0
 10
7.3126783034
 20
6.0631042599
 30
0.0
 10
7.3126878713
 20
6.0630907309
 30
0.0
 10
7.3126910505
 20
6.0630838709
 30
0.0
 10
7.3126923427
 20
6.0630825466
 30
0.0
  0
LINE
  5
28E
100
AcDbEntity
  8
0
100
AcDbLine
 62
7
  6
CONTINUOUS
 10
7.3121904692
 20
6.5322808531
 11
7.3126923427
 21
6.5330825466
  0
ENDSEC
  0
SECTION
  2
OBJECTS
  0
DICTIONARY
  5
C
100
AcDbDictionary
280
0
281
1
  3
ACAD_GROUP
350
D
  3
ACAD_MLINESTYLE
350
17
  3
ACAD_LAYOUT
350
1A
  3
ACAD_PLOTSETTINGS
350
19
  3
ACAD_PLOTSTYLENAME
350
E
  0
DICTIONARY
  5
D
102
{ACAD_REACTORS
330
C
102
}
100
AcDbDictionary
280
0
281
1
  0
ACDBDICTIONARYWDFLT
  5
E
102
{ACAD_REACTORS
330
C
102
}
100
AcDbDictionary
281
1
  3
Normal
350
F
100
AcDbDictionaryWithDefault
340
F
  0
DICTIONARY
  5
17
102
{ACAD_REACTORS
330
C
102
}
100
AcDbDictionary
280
0
281
1
  3
Standard
350
18
  0
DICTIONARY
  5
19
102
{ACAD_REACTORS
330
C
102
}
100
AcDbDictionary
281
1
  0
DICTIONARY
  5
1A
102
{ACAD_REACTORS
330
C
102
}
100
AcDbDictionary
281
1
  3
Model
350
28F
  3
Layout1
350
290
  0
ACDBPLACEHOLDER
  5
F
102
{ACAD_REACTORS
330
E
102
}
  0
MLINESTYLE
  5
18
102
{ACAD_REACTORS
330
17
102
}
100
AcDbMlineStyle
  2
STANDARD
 70
0
  3

 62
256
 51
90.0
 52
90.0
 71
2
 49
0.5
 62
256
  6
BYLAYER
 49
-0.5
 62
256
  6
BYLAYER
  0
LAYOUT
  5
28F
102
{ACAD_REACTORS
330
1A
102
}
100
AcDbPlotSettings
  1

  2
none_device
  4
ANSI_C_(22.00_x_17.00_Inches)
  6

 40
0.0
 41
0.0
 42
0.0
 43
0.0
 44
558.8
 45
431.8
 46
0.0
 47
0.0
 48
0.0
 49
0.0
140
0.0
141
0.0
142
1.0
143
1.0
 70
1024
 72
0
 73
0
 74
0
  7

 75
0
147
1.0
148
0.0
149
0.0
100
AcDbLayout
  1
Model
 70
0
 71
0
 10
0.0
 20
0.0
 11
22.0
 21
17.0
 12
0.0
 22
0.0
 32
0.0
 14
0.0
 24
0.0
 34
0.0
 15
0.0
 25
0.0
 35
0.0
146
0.0
 13
0.0
 23
0.0
 33
0.0
 16
1.0
 26
0.0
 36
0.0
 17
0.0
 27
1.0
 37
0.0
 76
0
330
202
345
0
346
0
  0
LAYOUT
  5
290
102
{ACAD_REACTORS
330
1A
102
}
100
AcDbPlotSettings
  1

  2
none_device
  4
ANSI_C_(22.00_x_17.00_Inches)
  6

 40
0.0
 41
0.0
 42
0.0
 43
0.0
 44
558.8
 45
431.8
 46
0.0
 47
0.0
 48
0.0
 49
0.0
140
0.0
141
0.0
142
1.0
143
1.0
 70
0
 72
0
 73
0
 74
0
  7

 75
0
147
1.0
148
0.0
149
0.0
100
AcDbLayout
  1
Layout1
 70
0
 71
1
 10
0.0
 20
0.0
 11
22.0
 21
17.0
 12
0.0
 22
0.0
 32
0.0
 14
0.0
 24
0.0
 34
0.0
 15
0.0
 25
0.0
 35
0.0
146
0.0
 13
0.0
 23
0.0
 33
0.0
 16
1.0
 26
0.0
 36
0.0
 17
0.0
 27
1.0
 37
0.0
 76
0
330
203
345
0
346
0
  0
ENDSEC
  0
EOF
