999
DXF file: E:\BT Custom\CADOUTPUT\_FRONT.dxf
999
Pro/ENGINEER 2018400 by Parametric Technology Corporation
  0
SECTION
  2
HEADER
  9
$ACADVER
  1
AC1018
  9
$DWGCODEPAGE
  3
ANSI_1252
  9
$EXTMAX
 10
22.0
 20
17.0
 30
0.0
  9
$EXTMIN
 10
0.0
 20
0.0
 30
0.0
  9
$LIMMIN
 10
0.0
 20
0.0
  9
$LIMMAX
 10
22.0
 20
17.0
  9
$VIEWCTR
 10
11.0
 20
8.5
  9
$VIEWSIZE
 40
17.0
  9
$CLAYER
  8
0
  9
$LTSCALE
 40
1.21
  9
$CELTYPE
  6
BYLAYER
  9
$DIMSCALE
 40
1.0
  9
$DIMASZ
 40
0.1
  9
$DIMEXO
 40
0.0625
  9
$DIMDLI
 40
0.836
  9
$DIMEXE
 40
0.125
  9
$DIMCEN
 40
0.198
  9
$DIMLFAC
 40
1.0
  9
$DIMBLK
  1
_FILLED
  9
$DIMALT
 70
1
  9
$DIMALTD
 70
2
  9
$DIMALTTD
 70
2
  9
$DIMALTF
 40
25.4
  9
$DIMTXT
 40
0.08
  9
$DIMTOL
 70
1
  9
$DIMLIM
 70
0
  9
$DIMTFAC
 40
1.0
  9
$DIMTP
 40
0.001
  9
$DIMTM
 40
0.001
  9
$DIMGAP
 40
0.09
  9
$DIMDSEP
 70
46
  9
$AUNITS
 70
0
  9
$PDMODE
 70
3
  9
$PDSIZE
 40
0.06
  9
$HANDSEED
  5
2A3
  9
$TILEMODE
 70
1
  9
$MEASUREMENT
 70
0
  9
$INSUNITS
 70
1
  0
ENDSEC
  0
SECTION
  2
CLASSES
  0
CLASS
  1
ACDBDICTIONARYWDFLT
  2
AcDbDictionaryWithDefault
  3
AutoCAD 2000
 90
0
 91
1
280
0
281
0
  0
CLASS
  1
ACDBPLACEHOLDER
  2
AcDbPlaceHolder
  3
AutoCAD 2000
 90
0
 91
1
280
0
281
0
  0
CLASS
  1
LAYOUT
  2
AcDbLayout
  3
AutoCAD 2000
 90
0
 91
0
280
0
281
0
  0
ENDSEC
  0
SECTION
  2
TABLES
  0
TABLE
  2
VPORT
  5
8
100
AcDbSymbolTable
 70
2
  0
VPORT
  5
1F4
100
AcDbSymbolTableRecord
100
AcDbViewportTableRecord
  2
*ACTIVE
 70
0
 10
0.0
 20
0.0
 11
1.0
 21
1.0
 12
11.0
 22
8.5
 13
0.0
 23
0.0
 14
1.0
 24
1.0
 15
0.0
 25
0.0
 16
0.0
 26
0.0
 36
1.0
 17
0.0
 27
0.0
 37
0.0
 40
17.0
 41
1.2941176471
 42
50.0
 43
0.0
 44
0.0
 50
0.0
 51
0.0
 71
0
 72
100
 73
1
 74
1
 75
0
 76
0
 77
0
 78
0
  0
ENDTAB
  0
TABLE
  2
LTYPE
  5
5
100
AcDbSymbolTable
 70
6
  0
LTYPE
  5
14
100
AcDbSymbolTableRecord
100
AcDbLinetypeTableRecord
  2
BYBLOCK
 70
0
  3

 72
65
 73
0
 40
0.0
  0
LTYPE
  5
15
100
AcDbSymbolTableRecord
100
AcDbLinetypeTableRecord
  2
BYLAYER
 70
0
  3

 72
65
 73
0
 40
0.0
  0
LTYPE
  5
16
100
AcDbSymbolTableRecord
100
AcDbLinetypeTableRecord
  2
CONTINUOUS
 70
64
  3
Solid line
 72
65
 73
0
 40
0.0
  0
LTYPE
  5
1F5
100
AcDbSymbolTableRecord
100
AcDbLinetypeTableRecord
  2
CENTER
 70
64
  3
____ _ ____ _ ____ _ ____ _ ____ _ ____ _ ____
 72
65
 73
4
 40
0.6
 49
0.375
 74
0
 49
-0.075
 74
0
 49
0.075
 74
0
 49
-0.075
 74
0
  0
LTYPE
  5
1F6
100
AcDbSymbolTableRecord
100
AcDbLinetypeTableRecord
  2
HIDDEN
 70
64
  3
- - - - - - - - - - - - - - - - - - - -
 72
65
 73
2
 40
0.2
 49
0.1
 74
0
 49
-0.1
 74
0
  0
LTYPE
  5
1F7
100
AcDbSymbolTableRecord
100
AcDbLinetypeTableRecord
  2
PHANTOM
 70
64
  3
_____ _ _ _____ _ _ _____ _ _ _____
 72
65
 73
6
 40
0.8
 49
0.45
 74
0
 49
-0.05
 74
0
 49
0.1
 74
0
 49
-0.05
 74
0
 49
0.1
 74
0
 49
-0.05
 74
0
  0
LTYPE
  5
1F8
100
AcDbSymbolTableRecord
100
AcDbLinetypeTableRecord
  2
DOT
 70
64
  3
. . . . . . . . . . . . . . . . . . . .
 72
65
 73
2
 40
0.2
 49
0.1
 74
0
 49
-0.1
 74
0
  0
LTYPE
  5
1F9
100
AcDbSymbolTableRecord
100
AcDbLinetypeTableRecord
  2
DASHED
 70
64
  3
- - - - - - - - - - - - - - - - - - - -
 72
65
 73
2
 40
0.2
 49
0.1
 74
0
 49
-0.1
 74
0
  0
ENDTAB
  0
TABLE
  2
LAYER
  5
2
100
AcDbSymbolTable
 70
36
  0
LAYER
  5
10
100
AcDbSymbolTableRecord
100
AcDbLayerTableRecord
  2
0
 70
0
 62
7
  6
CONTINUOUS
370
-3
390
F
  0
LAYER
  5
1FA
100
AcDbSymbolTableRecord
100
AcDbLayerTableRecord
  2
DEFAULT_1
 70
0
 62
7
  6
CENTER
370
-3
390
F
  0
LAYER
  5
1FB
100
AcDbSymbolTableRecord
100
AcDbLayerTableRecord
  2
DEFAULT_2
 70
0
 62
8
  6
HIDDEN
370
-3
390
F
  0
LAYER
  5
1FC
100
AcDbSymbolTableRecord
100
AcDbLayerTableRecord
  2
DEFAULT_3
 70
0
 62
7
  6
PHANTOM
370
-3
390
F
  0
LAYER
  5
1FD
100
AcDbSymbolTableRecord
100
AcDbLayerTableRecord
  2
ALL_FEATURES
 70
0
 62
7
  6
CONTINUOUS
370
-3
390
F
  0
LAYER
  5
1FE
100
AcDbSymbolTableRecord
100
AcDbLayerTableRecord
  2
AXES_FEATURES
 70
0
 62
7
  6
CONTINUOUS
370
-3
390
F
  0
LAYER
  5
1FF
100
AcDbSymbolTableRecord
100
AcDbLayerTableRecord
  2
DIMENSIONS
 70
0
 62
7
  6
CONTINUOUS
370
-3
390
F
  0
ENDTAB
  0
TABLE
  2
STYLE
  5
3
100
AcDbSymbolTable
 70
1
  0
STYLE
  5
11
100
AcDbSymbolTableRecord
100
AcDbTextStyleTableRecord
  2
STANDARD
 70
0
 40
0.0
 41
0.8
 50
0.0
 71
0
 42
0.2
  3
txt
  4

  0
STYLE
  5
200
100
AcDbSymbolTableRecord
100
AcDbTextStyleTableRecord
  2
TEXTSTYLE_1
 70
0
 40
0.0
 41
0.8
 50
0.0
 71
0
 42
0.2
  3
gdt
  4

  0
ENDTAB
  0
TABLE
  2
VIEW
  5
6
100
AcDbSymbolTable
 70
0
  0
ENDTAB
  0
TABLE
  2
UCS
  5
7
100
AcDbSymbolTable
 70
0
  0
ENDTAB
  0
TABLE
  2
APPID
  5
9
100
AcDbSymbolTable
 70
1
  0
APPID
  5
201
100
AcDbSymbolTableRecord
100
AcDbRegAppTableRecord
  2
ACAD
 70
0
  0
ENDTAB
  0
TABLE
  2
BLOCK_RECORD
  5
1
100
AcDbSymbolTable
 70
0
  0
BLOCK_RECORD
  5
202
100
AcDbSymbolTableRecord
100
AcDbBlockTableRecord
  2
*Model_Space
  0
BLOCK_RECORD
  5
203
100
AcDbSymbolTableRecord
100
AcDbBlockTableRecord
  2
*Paper_Space
  0
BLOCK_RECORD
  5
204
100
AcDbSymbolTableRecord
100
AcDbBlockTableRecord
  2
_FILLED
  0
ENDTAB
  0
TABLE
  2
DIMSTYLE
  5
A
100
AcDbSymbolTable
 70
1
100
AcDbDimStyleTable
 71
0
  0
DIMSTYLE
105
205
100
AcDbSymbolTableRecord
100
AcDbDimStyleTableRecord
  2
STANDARD
 70
0
  3

  4

 40
1.0
 41
0.1
 42
0.0625
 43
0.38
 44
0.125
 45
0.0
 46
0.0
 47
0.001
 48
0.001
140
0.08
141
0.09
142
0.0
143
25.4
144
1.0
145
0.0
146
1.0
147
0.09
 71
1.0
 72
0.0
 73
1
 74
1
 75
0
 76
0
 77
0
 78
4
 79
1
170
1
171
2
172
0
173
0
174
0
175
0
176
0
177
0
178
0
270
2
179
3
271
3
272
3
273
2
274
2
275
0
280
0
281
0
282
0
283
1
284
4
285
0
286
0
287
3
288
0
340
11
278
46
341
204
342
204
343
204
344
204
  0
ENDTAB
  0
ENDSEC
  0
SECTION
  2
BLOCKS
  0
BLOCK
  5
20
100
AcDbEntity
  8
0
100
AcDbBlockBegin
  2
*Model_Space
 70
0
 10
0.0
 20
0.0
 30
0.0
  3
*Model_Space
  1

  0
ENDBLK
  5
21
100
AcDbEntity
  8
0
100
AcDbBlockEnd
  0
BLOCK
  5
1C
100
AcDbEntity
  8
0
100
AcDbBlockBegin
  2
*Paper_Space
 70
0
 10
0.0
 20
0.0
 30
0.0
  3
*Paper_Space
  1

  0
ENDBLK
  5
1D
100
AcDbEntity
  8
0
100
AcDbBlockEnd
  0
BLOCK
  5
206
100
AcDbEntity
  8
0
100
AcDbBlockBegin
  2
_FILLED
 70
64
 10
0.0
 20
0.0
  3
_FILLED
  1

  0
SOLID
  5
207
100
AcDbEntity
  8
0
  6
BYBLOCK
 62
0
100
AcDbTrace
 10
0.0
 20
0.0
 11
-1.0
 21
0.2
 12
-1.0
 22
-0.2
 13
-1.0
 23
-0.2
  0
ENDBLK
  5
208
100
AcDbEntity
  8
0
  6
BYBLOCK
 62
0
100
AcDbBlockEnd
  0
ENDSEC
  0
SECTION
  2
ENTITIES
  0
LINE
  5
209
100
AcDbEntity
  8
0
100
AcDbLine
 62
7
  6
CONTINUOUS
 10
5.5626923427
 20
9.6166688271
 11
5.5626923427
 21
9.1716701771
  0
LINE
  5
20A
100
AcDbEntity
  8
0
100
AcDbLine
 62
7
  6
CONTINUOUS
 10
5.7501923427
 20
6.9661695021
 11
5.7501923427
 21
6.5911695021
  0
LINE
  5
20B
100
AcDbEntity
  8
0
100
AcDbLine
 62
7
  6
CONTINUOUS
 10
6.2814423427
 20
8.5341695021
 11
6.2814423427
 21
8.0941695021
  0
LINE
  5
20C
100
AcDbEntity
  8
0
100
AcDbLine
 62
7
  6
CONTINUOUS
 10
6.2814423427
 20
8.0741695021
 11
6.2814423427
 21
6.9661695021
  0
LINE
  5
20D
100
AcDbEntity
  8
0
100
AcDbLine
 62
7
  6
CONTINUOUS
 10
6.5626923427
 20
9.6941695021
 11
6.5626923427
 21
9.6291695021
  0
LINE
  5
20E
100
AcDbEntity
  8
0
100
AcDbLine
 62
7
  6
CONTINUOUS
 10
6.5626923427
 20
9.1591695021
 11
6.5626923427
 21
9.0941695021
  0
LINE
  5
20F
100
AcDbEntity
  8
0
100
AcDbLine
 62
7
  6
CONTINUOUS
 10
6.6876923427
 20
9.0941695021
 11
6.6876923427
 21
8.5341695021
  0
LINE
  5
210
100
AcDbEntity
  8
0
100
AcDbLine
 62
7
  6
CONTINUOUS
 10
6.7376923427
 20
8.0941695021
 11
6.7376923427
 21
8.0741695021
  0
LINE
  5
211
100
AcDbEntity
  8
0
100
AcDbLine
 62
7
  6
CONTINUOUS
 10
7.1376923427
 20
8.0941695021
 11
7.1376923427
 21
8.0741695021
  0
LINE
  5
212
100
AcDbEntity
  8
0
100
AcDbLine
 62
7
  6
CONTINUOUS
 10
7.1876923427
 20
9.0941695021
 11
7.1876923427
 21
8.5341695021
  0
LINE
  5
213
100
AcDbEntity
  8
0
100
AcDbLine
 62
7
  6
CONTINUOUS
 10
7.3126923427
 20
9.6941695021
 11
7.3126923427
 21
9.6291695021
  0
LINE
  5
214
100
AcDbEntity
  8
0
100
AcDbLine
 62
7
  6
CONTINUOUS
 10
7.3126923427
 20
9.1591695021
 11
7.3126923427
 21
9.0941695021
  0
LINE
  5
215
100
AcDbEntity
  8
0
100
AcDbLine
 62
7
  6
CONTINUOUS
 10
7.5939423427
 20
8.5341695021
 11
7.5939423427
 21
8.0941695021
  0
LINE
  5
216
100
AcDbEntity
  8
0
100
AcDbLine
 62
7
  6
CONTINUOUS
 10
7.5939423427
 20
8.0741695021
 11
7.5939423427
 21
6.9661695021
  0
LINE
  5
217
100
AcDbEntity
  8
0
100
AcDbLine
 62
7
  6
CONTINUOUS
 10
8.1251923427
 20
6.9661695021
 11
8.1251923427
 21
6.5911695021
  0
LINE
  5
218
100
AcDbEntity
  8
0
100
AcDbLine
 62
7
  6
CONTINUOUS
 10
8.3126923427
 20
9.1716701771
 11
8.3126923427
 21
9.6166688271
  0
LINE
  5
219
100
AcDbEntity
  8
0
100
AcDbLine
 62
7
  6
CONTINUOUS
 10
5.7502076451
 20
6.5911695021
 11
8.1251770404
 21
6.5911695021
  0
LINE
  5
21A
100
AcDbEntity
  8
0
100
AcDbLine
 62
7
  6
CONTINUOUS
 10
9.9251923427
 20
6.5911695021
 11
11.9501923427
 21
6.5911695021
  0
LINE
  5
21B
100
AcDbEntity
  8
0
100
AcDbLine
 62
7
  6
CONTINUOUS
 10
13.7502076451
 20
6.5911695021
 11
16.1251770404
 21
6.5911695021
  0
LINE
  5
21C
100
AcDbEntity
  8
0
100
AcDbLine
 62
9
  6
CONTINUOUS
 10
11.9501923427
 20
6.8401369698
 11
11.6344325794
 21
6.8401369698
  0
LINE
  5
21D
100
AcDbEntity
  8
0
100
AcDbLine
 62
9
  6
CONTINUOUS
 10
10.240952106
 20
6.8401369698
 11
9.9251923427
 21
6.8401369698
  0
LINE
  5
21E
100
AcDbEntity
  8
0
100
AcDbLine
 62
7
  6
CONTINUOUS
 10
11.9126923427
 20
6.9111695021
 11
11.5924278532
 21
6.9111695021
  0
LINE
  5
21F
100
AcDbEntity
  8
0
100
AcDbLine
 62
7
  6
CONTINUOUS
 10
10.2829568323
 20
6.9111695021
 11
9.9626923427
 21
6.9111695021
  0
LINE
  5
220
100
AcDbEntity
  8
0
100
AcDbLine
 62
7
  6
CONTINUOUS
 10
16.1251770404
 20
6.9661695021
 11
13.7502076451
 21
6.9661695021
  0
LINE
  5
221
100
AcDbEntity
  8
0
100
AcDbLine
 62
7
  6
CONTINUOUS
 10
8.1251770404
 20
6.9661695021
 11
5.7502076451
 21
6.9661695021
  0
LINE
  5
222
100
AcDbEntity
  8
0
100
AcDbLine
 62
7
  6
CONTINUOUS
 10
11.4326923427
 20
7.0911695021
 11
10.4426923427
 21
7.0911695021
  0
LINE
  5
223
100
AcDbEntity
  8
0
100
AcDbLine
 62
9
  6
CONTINUOUS
 10
11.4001923427
 20
7.1711695021
 11
10.4751923427
 21
7.1711695021
  0
LINE
  5
224
100
AcDbEntity
  8
0
100
AcDbLine
 62
9
  6
CONTINUOUS
 10
10.5104088365
 20
7.3352720662
 11
11.3649804298
 21
7.3352720662
  0
LINE
  5
225
100
AcDbEntity
  8
0
100
AcDbLine
 62
7
  6
CONTINUOUS
 10
11.3558607276
 20
7.3411695021
 11
10.5195284409
 21
7.3411695021
  0
LINE
  5
226
100
AcDbEntity
  8
0
100
AcDbLine
 62
9
  6
CONTINUOUS
 10
10.2295001452
 20
7.7519146422
 11
11.6458845403
 21
7.7519146422
  0
LINE
  5
227
100
AcDbEntity
  8
0
100
AcDbLine
 62
9
  6
CONTINUOUS
 10
10.2808217393
 20
7.894510275
 11
11.5945629461
 21
7.894510275
  0
LINE
  5
228
100
AcDbEntity
  8
0
100
AcDbLine
 62
7
  6
CONTINUOUS
 10
15.5939414316
 20
8.0741695021
 11
14.2814432538
 21
8.0741695021
  0
LINE
  5
229
100
AcDbEntity
  8
0
100
AcDbLine
 62
7
  6
CONTINUOUS
 10
7.5939414316
 20
8.0741695021
 11
6.2814432538
 21
8.0741695021
  0
LINE
  5
22A
100
AcDbEntity
  8
0
100
AcDbLine
 62
7
  6
CONTINUOUS
 10
6.2814432538
 20
8.0941695021
 11
7.5939414316
 21
8.0941695021
  0
LINE
  5
22B
100
AcDbEntity
  8
0
100
AcDbLine
 62
7
  6
CONTINUOUS
 10
14.2814432538
 20
8.0941695021
 11
15.5939414316
 21
8.0941695021
  0
LINE
  5
22C
100
AcDbEntity
  8
0
100
AcDbLine
 62
7
  6
CONTINUOUS
 10
9.8723147386
 20
11.0591695021
 11
9.8723147386
 21
11.6691695021
  0
LINE
  5
22D
100
AcDbEntity
  8
0
100
AcDbLine
 62
7
  6
CONTINUOUS
 10
9.9251923427
 20
6.8401369698
 11
9.9251923427
 21
6.5911695021
  0
LINE
  5
22E
100
AcDbEntity
  8
0
100
AcDbLine
 62
7
  6
CONTINUOUS
 10
10.0703899294
 20
11.0591695021
 11
10.0703899294
 21
11.6691695021
  0
LINE
  5
22F
100
AcDbEntity
  8
0
100
AcDbLine
 62
7
  6
CONTINUOUS
 10
10.1776923427
 20
10.693430271
 11
10.1776923427
 21
10.1340026499
  0
LINE
  5
230
100
AcDbEntity
  8
0
100
AcDbLine
 62
7
  6
CONTINUOUS
 10
10.2991642053
 20
11.0432445437
 11
10.2983232992
 21
11.0591695021
  0
LINE
  5
231
100
AcDbEntity
  8
0
100
AcDbLine
 62
7
  6
CONTINUOUS
 10
10.2983232992
 20
11.0591695021
 11
10.2983232992
 21
11.6691695021
  0
LINE
  5
232
100
AcDbEntity
  8
0
100
AcDbLine
 62
7
  6
CONTINUOUS
 10
10.4751923427
 20
7.0911695021
 11
10.4751923427
 21
7.1711695021
  0
LINE
  5
233
100
AcDbEntity
  8
0
100
AcDbLine
 62
7
  6
CONTINUOUS
 10
10.3621034099
 20
10.0591695021
 11
10.2808217393
 21
7.894510275
  0
LINE
  5
234
100
AcDbEntity
  8
0
100
AcDbLine
 62
7
  6
CONTINUOUS
 10
11.9276923427
 20
10.969602573
 11
11.7261611215
 21
10.7633107717
  0
LINE
  5
235
100
AcDbEntity
  8
0
100
AcDbLine
 62
7
  6
CONTINUOUS
 10
15.5939414316
 20
8.5341695021
 11
14.2814432538
 21
8.5341695021
  0
LINE
  5
236
100
AcDbEntity
  8
0
100
AcDbLine
 62
7
  6
CONTINUOUS
 10
7.5939414316
 20
8.5341695021
 11
6.2814432538
 21
8.5341695021
  0
LINE
  5
237
100
AcDbEntity
  8
0
100
AcDbLine
 62
7
  6
CONTINUOUS
 10
10.7765191113
 20
11.0591695021
 11
10.7765191113
 21
11.6691695021
  0
LINE
  5
238
100
AcDbEntity
  8
0
100
AcDbLine
 62
7
  6
CONTINUOUS
 10
6.5626930535
 20
9.0941695021
 11
7.3126916319
 21
9.0941695021
  0
LINE
  5
239
100
AcDbEntity
  8
0
100
AcDbLine
 62
7
  6
CONTINUOUS
 10
14.5626930535
 20
9.0941695021
 11
15.3126916319
 21
9.0941695021
  0
LINE
  5
23A
100
AcDbEntity
  8
0
100
AcDbLine
 62
7
  6
CONTINUOUS
 10
16.3126923427
 20
9.1716695021
 11
15.3049990787
 21
9.1716695021
  0
LINE
  5
23B
100
AcDbEntity
  8
0
100
AcDbLine
 62
7
  6
CONTINUOUS
 10
8.3126923427
 20
9.1716695021
 11
7.3049990816
 21
9.1716695021
  0
LINE
  5
23C
100
AcDbEntity
  8
0
100
AcDbLine
 62
7
  6
CONTINUOUS
 10
5.5626923427
 20
9.1716695021
 11
6.5703856122
 21
9.1716695021
  0
LINE
  5
23D
100
AcDbEntity
  8
0
100
AcDbLine
 62
7
  6
CONTINUOUS
 10
13.5626923427
 20
9.1716695021
 11
14.5703856116
 21
9.1716695021
  0
LINE
  5
23E
100
AcDbEntity
  8
0
100
AcDbLine
 62
7
  6
CONTINUOUS
 10
11.0988655742
 20
11.0591695021
 11
11.0988655742
 21
11.6691695021
  0
LINE
  5
23F
100
AcDbEntity
  8
0
100
AcDbLine
 62
7
  6
CONTINUOUS
 10
16.3126923427
 20
9.6166695021
 11
15.3049990739
 21
9.6166695021
  0
LINE
  5
240
100
AcDbEntity
  8
0
100
AcDbLine
 62
7
  6
CONTINUOUS
 10
8.3126923427
 20
9.6166695021
 11
7.3049990733
 21
9.6166695021
  0
LINE
  5
241
100
AcDbEntity
  8
0
100
AcDbLine
 62
7
  6
CONTINUOUS
 10
5.5626923427
 20
9.6166695021
 11
6.5703856039
 21
9.6166695021
  0
LINE
  5
242
100
AcDbEntity
  8
0
100
AcDbLine
 62
7
  6
CONTINUOUS
 10
13.5626923427
 20
9.6166695021
 11
14.5703856068
 21
9.6166695021
  0
LINE
  5
243
100
AcDbEntity
  8
0
100
AcDbLine
 62
7
  6
CONTINUOUS
 10
15.3126916319
 20
9.6941695021
 11
14.5626930535
 21
9.6941695021
  0
LINE
  5
244
100
AcDbEntity
  8
0
100
AcDbLine
 62
7
  6
CONTINUOUS
 10
7.3126916319
 20
9.6941695021
 11
6.5626930535
 21
9.6941695021
  0
LINE
  5
245
100
AcDbEntity
  8
0
100
AcDbLine
 62
7
  6
CONTINUOUS
 10
11.5132812755
 20
10.0591695021
 11
11.5945629461
 21
7.894510275
  0
LINE
  5
246
100
AcDbEntity
  8
0
100
AcDbLine
 62
7
  6
CONTINUOUS
 10
11.4001923427
 20
7.0911695021
 11
11.4001923427
 21
7.1711695021
  0
LINE
  5
247
100
AcDbEntity
  8
0
100
AcDbLine
 62
7
  6
CONTINUOUS
 10
11.5770613863
 20
11.0591695021
 11
11.5770613863
 21
11.6691695021
  0
LINE
  5
248
100
AcDbEntity
  8
0
100
AcDbLine
 62
7
  6
CONTINUOUS
 10
11.6976923427
 20
10.693430271
 11
11.6976923427
 21
10.1340026499
  0
LINE
  5
249
100
AcDbEntity
  8
0
100
AcDbLine
 62
7
  6
CONTINUOUS
 10
11.5770613863
 20
11.0591695021
 11
11.5762204802
 21
11.0432443047
  0
LINE
  5
24A
100
AcDbEntity
  8
0
100
AcDbLine
 62
7
  6
CONTINUOUS
 10
10.1976923427
 20
10.0591695021
 11
11.6776923427
 21
10.0591695021
  0
LINE
  5
24B
100
AcDbEntity
  8
0
100
AcDbLine
 62
7
  6
CONTINUOUS
 10
9.9476923427
 20
10.969602573
 11
10.149223564
 21
10.7633107717
  0
LINE
  5
24C
100
AcDbEntity
  8
0
100
AcDbLine
 62
7
  6
CONTINUOUS
 10
11.8049947561
 20
11.0591695021
 11
11.8049947561
 21
11.6691695021
  0
LINE
  5
24D
100
AcDbEntity
  8
0
100
AcDbLine
 62
7
  6
CONTINUOUS
 10
11.9501923427
 20
6.8401369698
 11
11.9501923427
 21
6.5911695021
  0
LINE
  5
24E
100
AcDbEntity
  8
0
100
AcDbLine
 62
7
  6
CONTINUOUS
 10
12.0030699469
 20
11.0591695021
 11
12.0030699469
 21
11.6691695021
  0
LINE
  5
24F
100
AcDbEntity
  8
0
100
AcDbLine
 62
9
  6
CONTINUOUS
 10
10.1776923427
 20
10.1340026499
 11
11.6976923427
 21
10.1340026499
  0
LINE
  5
250
100
AcDbEntity
  8
0
100
AcDbLine
 62
9
  6
CONTINUOUS
 10
11.6976923427
 20
10.693430271
 11
10.1777068276
 21
10.693430271
  0
LINE
  5
251
100
AcDbEntity
  8
0
100
AcDbLine
 62
9
  6
CONTINUOUS
 10
10.149223564
 20
10.7633107717
 11
11.7261611215
 21
10.7633107717
  0
LINE
  5
252
100
AcDbEntity
  8
0
100
AcDbLine
 62
7
  6
CONTINUOUS
 10
9.8723147386
 20
11.0591695021
 11
10.0703899294
 21
11.0591695021
  0
LINE
  5
253
100
AcDbEntity
  8
0
100
AcDbLine
 62
7
  6
CONTINUOUS
 10
10.2983232992
 20
11.0591695021
 11
10.7765191113
 21
11.0591695021
  0
LINE
  5
254
100
AcDbEntity
  8
0
100
AcDbLine
 62
7
  6
CONTINUOUS
 10
11.0988655742
 20
11.0591695021
 11
11.5770613863
 21
11.0591695021
  0
LINE
  5
255
100
AcDbEntity
  8
0
100
AcDbLine
 62
7
  6
CONTINUOUS
 10
11.8049947561
 20
11.0591695021
 11
12.0030699469
 21
11.0591695021
  0
LINE
  5
256
100
AcDbEntity
  8
0
100
AcDbLine
 62
9
  6
CONTINUOUS
 10
12.0030699469
 20
11.6691695021
 11
11.8049947561
 21
11.6691695021
  0
LINE
  5
257
100
AcDbEntity
  8
0
100
AcDbLine
 62
9
  6
CONTINUOUS
 10
11.5770613863
 20
11.6691695021
 11
11.0988655742
 21
11.6691695021
  0
LINE
  5
258
100
AcDbEntity
  8
0
100
AcDbLine
 62
9
  6
CONTINUOUS
 10
10.7765191113
 20
11.6691695021
 11
10.2983232992
 21
11.6691695021
  0
LINE
  5
259
100
AcDbEntity
  8
0
100
AcDbLine
 62
9
  6
CONTINUOUS
 10
10.0703899294
 20
11.6691695021
 11
9.8723147386
 21
11.6691695021
  0
LINE
  5
25A
100
AcDbEntity
  8
0
100
AcDbLine
 62
7
  6
CONTINUOUS
 10
13.5626923427
 20
9.6166688271
 11
13.5626923427
 21
9.1716701771
  0
LINE
  5
25B
100
AcDbEntity
  8
0
100
AcDbLine
 62
7
  6
CONTINUOUS
 10
13.7501923427
 20
6.9661695021
 11
13.7501923427
 21
6.5911695021
  0
LINE
  5
25C
100
AcDbEntity
  8
0
100
AcDbLine
 62
7
  6
CONTINUOUS
 10
11.8651923427
 20
11.8191695021
 11
10.0101923427
 21
11.8191695021
  0
LINE
  5
25D
100
AcDbEntity
  8
0
100
AcDbLine
 62
9
  6
CONTINUOUS
 10
10.0285559097
 20
11.8791695021
 11
11.8468287758
 21
11.8791695021
  0
LINE
  5
25E
100
AcDbEntity
  8
0
100
AcDbLine
 62
7
  6
CONTINUOUS
 10
14.2814423427
 20
8.5341695021
 11
14.2814423427
 21
8.0941695021
  0
LINE
  5
25F
100
AcDbEntity
  8
0
100
AcDbLine
 62
7
  6
CONTINUOUS
 10
14.2814423427
 20
8.0741695021
 11
14.2814423427
 21
6.9661695021
  0
LINE
  5
260
100
AcDbEntity
  8
0
100
AcDbLine
 62
7
  6
CONTINUOUS
 10
14.5626923427
 20
9.6941695021
 11
14.5626923427
 21
9.6291695021
  0
LINE
  5
261
100
AcDbEntity
  8
0
100
AcDbLine
 62
7
  6
CONTINUOUS
 10
14.5626923427
 20
9.1591695021
 11
14.5626923427
 21
9.0941695021
  0
LINE
  5
262
100
AcDbEntity
  8
0
100
AcDbLine
 62
7
  6
CONTINUOUS
 10
14.6876923427
 20
9.0941695021
 11
14.6876923427
 21
8.5341695021
  0
LINE
  5
263
100
AcDbEntity
  8
0
100
AcDbLine
 62
7
  6
CONTINUOUS
 10
14.7376923427
 20
8.0941695021
 11
14.7376923427
 21
8.0741695021
  0
LINE
  5
264
100
AcDbEntity
  8
0
100
AcDbLine
 62
7
  6
CONTINUOUS
 10
15.1376923427
 20
8.0941695021
 11
15.1376923427
 21
8.0741695021
  0
LINE
  5
265
100
AcDbEntity
  8
0
100
AcDbLine
 62
7
  6
CONTINUOUS
 10
15.1876923427
 20
9.0941695021
 11
15.1876923427
 21
8.5341695021
  0
LINE
  5
266
100
AcDbEntity
  8
0
100
AcDbLine
 62
7
  6
CONTINUOUS
 10
15.3126923427
 20
9.6941695021
 11
15.3126923427
 21
9.6291695021
  0
LINE
  5
267
100
AcDbEntity
  8
0
100
AcDbLine
 62
7
  6
CONTINUOUS
 10
15.3126923427
 20
9.1591695021
 11
15.3126923427
 21
9.0941695021
  0
LINE
  5
268
100
AcDbEntity
  8
0
100
AcDbLine
 62
7
  6
CONTINUOUS
 10
15.5939423427
 20
8.5341695021
 11
15.5939423427
 21
8.0941695021
  0
LINE
  5
269
100
AcDbEntity
  8
0
100
AcDbLine
 62
7
  6
CONTINUOUS
 10
15.5939423427
 20
8.0741695021
 11
15.5939423427
 21
6.9661695021
  0
LINE
  5
26A
100
AcDbEntity
  8
0
100
AcDbLine
 62
7
  6
CONTINUOUS
 10
16.1251923427
 20
6.9661695021
 11
16.1251923427
 21
6.5911695021
  0
LINE
  5
26B
100
AcDbEntity
  8
0
100
AcDbLine
 62
7
  6
CONTINUOUS
 10
16.3126923427
 20
9.1716701771
 11
16.3126923427
 21
9.6166688271
  0
ARC
  5
26C
100
AcDbEntity
  8
0
100
AcDbCircle
 62
7
  6
CONTINUOUS
 10
10.6136723347
 20
6.9616374993
 40
1.3
100
AcDbArc
 50
357.7751307225
 51
37.4382101819
  0
ARC
  5
26D
100
AcDbEntity
  8
0
100
AcDbCircle
 62
7
  6
CONTINUOUS
 10
10.8464719365
 20
6.4082744624
 40
0.9
100
AcDbArc
 50
11.7251268757
 51
49.3560828237
  0
ARC
  5
26E
100
AcDbEntity
  8
0
100
AcDbCircle
 62
7
  6
CONTINUOUS
 10
10.8751923427
 20
7.1711695021
 40
0.4
100
AcDbArc
 50
155.7790568907
 51
180.0
  0
ARC
  5
26F
100
AcDbEntity
  8
0
100
AcDbCircle
 62
7
  6
CONTINUOUS
 10
10.0309977979
 20
7.9038910159
 40
0.25
100
AcDbArc
 50
322.5617898181
 51
357.849587733
  0
ARC
  5
270
100
AcDbEntity
  8
0
100
AcDbCircle
 62
7
  6
CONTINUOUS
 10
10.0112172848
 20
6.8401369698
 40
0.0860249421
100
AcDbArc
 50
124.338423378
 51
180.0
  0
ARC
  5
271
100
AcDbEntity
  8
0
100
AcDbCircle
 62
7
  6
CONTINUOUS
 10
10.5195239579
 20
7.3311695021
 40
0.01
100
AcDbArc
 50
90.0
 51
155.7790568908
  0
ARC
  5
272
100
AcDbEntity
  8
0
100
AcDbCircle
 62
7
  6
CONTINUOUS
 10
7.7763594554
 20
9.218756994
 40
2.7892914421
100
AcDbArc
 50
38.8808295252
 51
41.2856606114
  0
CIRCLE
  5
273
100
AcDbEntity
  8
0
100
AcDbCircle
 62
7
  6
CONTINUOUS
 10
6.9376923427
 20
9.3941695021
 40
0.235
  0
CIRCLE
  5
274
100
AcDbEntity
  8
0
100
AcDbCircle
 62
7
  6
CONTINUOUS
 10
6.9376923427
 20
9.3941695021
 40
0.2225
  0
ARC
  5
275
100
AcDbEntity
  8
0
100
AcDbCircle
 62
7
  6
CONTINUOUS
 10
10.0101923427
 20
11.6691695021
 40
0.15
100
AcDbArc
 50
90.0
 51
114.6243183522
  0
ARC
  5
276
100
AcDbEntity
  8
0
100
AcDbCircle
 62
7
  6
CONTINUOUS
 10
10.3276923427
 20
10.1340026499
 40
0.15
100
AcDbArc
 50
180.0
 51
209.9264348665
  0
ARC
  5
277
100
AcDbEntity
  8
0
100
AcDbCircle
 62
7
  6
CONTINUOUS
 10
10.0776923427
 20
10.693430271
 40
0.1
100
AcDbArc
 50
0.0
 51
44.3312080467
  0
ARC
  5
278
100
AcDbEntity
  8
0
100
AcDbCircle
 62
7
  6
CONTINUOUS
 10
10.0328456949
 20
11.8493228543
 40
0.0301533521
100
AcDbArc
 50
98.1789688981
 51
270.0
  0
ARC
  5
279
100
AcDbEntity
  8
0
100
AcDbCircle
 62
7
  6
CONTINUOUS
 10
10.9376923427
 20
5.553753703
 40
6.3904157991
100
AcDbArc
 50
81.821031102
 51
98.178968898
  0
ARC
  5
27A
100
AcDbEntity
  8
0
100
AcDbCircle
 62
7
  6
CONTINUOUS
 10
11.2617123508
 20
6.9616374993
 40
1.3
100
AcDbArc
 50
142.5617898182
 51
182.2248692774
  0
ARC
  5
27B
100
AcDbEntity
  8
0
100
AcDbCircle
 62
7
  6
CONTINUOUS
 10
11.028912749
 20
6.4082744624
 40
0.9
100
AcDbArc
 50
130.6439171763
 51
168.2748731243
  0
ARC
  5
27C
100
AcDbEntity
  8
0
100
AcDbCircle
 62
7
  6
CONTINUOUS
 10
11.0001923427
 20
7.1711695021
 40
0.4
100
AcDbArc
 50
0.0
 51
24.2209431093
  0
ARC
  5
27D
100
AcDbEntity
  8
0
100
AcDbCircle
 62
7
  6
CONTINUOUS
 10
11.8443868875
 20
7.9038910159
 40
0.25
100
AcDbArc
 50
182.150412267
 51
217.4382101819
  0
ARC
  5
27E
100
AcDbEntity
  8
0
100
AcDbCircle
 62
7
  6
CONTINUOUS
 10
11.8641674007
 20
6.8401369698
 40
0.0860249421
100
AcDbArc
 50
0.0
 51
55.661576622
  0
ARC
  5
27F
100
AcDbEntity
  8
0
100
AcDbCircle
 62
7
  6
CONTINUOUS
 10
11.3558607276
 20
7.3311695021
 40
0.01
100
AcDbArc
 50
24.2209431092
 51
90.0
  0
ARC
  5
280
100
AcDbEntity
  8
0
100
AcDbCircle
 62
7
  6
CONTINUOUS
 10
14.0990265942
 20
9.2187558461
 40
2.7892932246
100
AcDbArc
 50
138.7143401571
 51
141.1191697063
  0
CIRCLE
  5
281
100
AcDbEntity
  8
0
100
AcDbCircle
 62
7
  6
CONTINUOUS
 10
14.9376923427
 20
9.3941695021
 40
0.235
  0
CIRCLE
  5
282
100
AcDbEntity
  8
0
100
AcDbCircle
 62
7
  6
CONTINUOUS
 10
14.9376923427
 20
9.3941695021
 40
0.2225
  0
ARC
  5
283
100
AcDbEntity
  8
0
100
AcDbCircle
 62
7
  6
CONTINUOUS
 10
11.8651923427
 20
11.6691695021
 40
0.15
100
AcDbArc
 50
65.3756816478
 51
90.0
  0
ARC
  5
284
100
AcDbEntity
  8
0
100
AcDbCircle
 62
7
  6
CONTINUOUS
 10
11.5476923427
 20
10.1340026499
 40
0.15
100
AcDbArc
 50
330.0735651335
 51
360.0
  0
ARC
  5
285
100
AcDbEntity
  8
0
100
AcDbCircle
 62
7
  6
CONTINUOUS
 10
11.7976923427
 20
10.693430271
 40
0.1
100
AcDbArc
 50
135.6687919533
 51
180.0
  0
ARC
  5
286
100
AcDbEntity
  8
0
100
AcDbCircle
 62
7
  6
CONTINUOUS
 10
11.8425389906
 20
11.8493228543
 40
0.0301533521
100
AcDbArc
 50
270.0
 51
81.8210311019
  0
SPLINE
  5
287
100
AcDbEntity
  8
0
100
AcDbSpline
 62
7
  6
CONTINUOUS
 70
0
 71
3
 72
11
 73
7
 74
0
 42
0.0000001
 43
0.0000001
 44
0.0000000001
 40
0.0
 40
0.0
 40
0.0
 40
0.0
 40
0.2326591603
 40
0.4802957483
 40
0.7379667831
 40
1.0
 40
1.0
 40
1.0
 40
1.0
 10
11.5762204766
 20
11.7356953338
 30
0.0
 10
11.5762194761
 20
11.7305355761
 30
0.0
 10
11.5763592072
 20
11.7198841464
 30
0.0
 10
11.576708365
 20
11.7035219133
 30
0.0
 10
11.5769817728
 20
11.6865063749
 30
0.0
 10
11.5770613863
 20
11.674980698
 30
0.0
 10
11.5770613863
 20
11.6691695021
 30
0.0
  0
SPLINE
  5
288
100
AcDbEntity
  8
0
100
AcDbSpline
 62
7
  6
CONTINUOUS
 70
0
 71
3
 72
11
 73
7
 74
0
 42
0.0000001
 43
0.0000001
 44
0.0000000001
 40
0.0
 40
0.0
 40
0.0
 40
0.0
 40
0.2620153245
 40
0.5196866788
 40
0.7673373331
 40
1.0
 40
1.0
 40
1.0
 40
1.0
 10
10.2983232992
 20
11.6691695021
 30
0.0
 10
10.2983232992
 20
11.674980311
 30
0.0
 10
10.2984031376
 20
11.6865056156
 30
0.0
 10
10.2986762657
 20
11.7035211102
 30
0.0
 10
10.2990256192
 20
11.7198837607
 30
0.0
 10
10.299165729
 20
11.7305356002
 30
0.0
 10
10.2991643936
 20
11.7356954443
 30
0.0
  0
SPLINE
  5
289
100
AcDbEntity
  8
0
100
AcDbSpline
 62
7
  6
CONTINUOUS
 70
0
 71
3
 72
17
 73
13
 74
0
 42
0.0000001
 43
0.0000001
 44
0.0000000001
 40
0.0
 40
0.0
 40
0.0
 40
0.0
 40
0.0984995848
 40
0.196500395
 40
0.2930556735
 40
0.3873026825
 40
0.4782824066
 40
0.5647897835
 40
0.6455586464
 40
0.7194286827
 40
0.9304077404
 40
1.0
 40
1.0
 40
1.0
 40
1.0
 10
9.8723147386
 20
11.6691695021
 30
0.0
 10
9.8723147386
 20
11.6745212782
 30
0.0
 10
9.8728349932
 20
11.6852043703
 30
0.0
 10
9.8751152987
 20
11.7009862545
 30
0.0
 10
9.8788468048
 20
11.7162523094
 30
0.0
 10
9.8838597121
 20
11.7307419154
 30
0.0
 10
9.8899720942
 20
11.7442040429
 30
0.0
 10
9.8968903104
 20
11.7564319996
 30
0.0
 10
9.9043254476
 20
11.7672425227
 30
0.0
 10
9.9168762279
 20
11.7826491778
 30
0.0
 10
9.9314057618
 20
11.7956660045
 30
0.0
 10
9.9443883623
 20
11.8036932531
 30
0.0
 10
9.9476923427
 20
11.8055284036
 30
0.0
  0
SPLINE
  5
28A
100
AcDbEntity
  8
0
100
AcDbSpline
 62
7
  6
CONTINUOUS
 70
0
 71
3
 72
24
 73
20
 74
0
 42
0.0000001
 43
0.0000001
 44
0.0000000001
 40
0.0
 40
0.0
 40
0.0
 40
0.0
 40
0.00431135
 40
0.0172898187
 40
0.0390114902
 40
0.0695588797
 40
0.1090639833
 40
0.1576142767
 40
0.214984437
 40
0.2809745867
 40
0.3548236926
 40
0.435544673
 40
0.478166205
 40
0.5220578932
 40
0.6129768348
 40
0.7071756065
 40
0.8036839909
 40
0.9016087421
 40
1.0
 40
1.0
 40
1.0
 40
1.0
 10
11.9276923427
 20
11.8055284036
 30
0.0
 10
11.9278984851
 20
11.8054168525
 30
0.0
 10
11.9287219894
 20
11.8049637574
 30
0.0
 10
11.9305560152
 20
11.8038983851
 30
0.0
 10
11.933591011
 20
11.8020621
 30
0.0
 10
11.9377718949
 20
11.7993370604
 30
0.0
 10
11.9430056069
 20
11.7955670969
 30
0.0
 10
11.9491761708
 20
11.7906180742
 30
0.0
 10
11.9560846247
 20
11.7843134629
 30
0.0
 10
11.9634779445
 20
11.7765364848
 30
0.0
 10
11.9710681118
 20
11.7672387402
 30
0.0
 10
11.977144702
 20
11.758390155
 30
0.0
 10
11.9818004246
 20
11.750578617
 30
0.0
 10
11.9863757581
 20
11.7420841347
 30
0.0
 10
11.9915297534
 20
11.7307305734
 30
0.0
 10
11.9965397365
 20
11.7162407361
 30
0.0
 10
12.0002716793
 20
11.7009754162
 30
0.0
 10
12.0025490642
 20
11.6851970964
 30
0.0
 10
12.0030699469
 20
11.6745183032
 30
0.0
 10
12.0030699469
 20
11.6691695021
 30
0.0
  0
SPLINE
  5
28B
100
AcDbEntity
  8
0
100
AcDbSpline
 62
7
  6
CONTINUOUS
 70
0
 71
3
 72
39
 73
35
 74
0
 42
0.0000001
 43
0.0000001
 44
0.0000000001
 40
0.0
 40
0.0
 40
0.0
 40
0.0
 40
0.039403912
 40
0.0788911318
 40
0.1183804095
 40
0.1578418178
 40
0.1972890875
 40
0.2367444135
 40
0.2761797328
 40
0.2958730783
 40
0.3155302279
 40
0.3546804969
 40
0.3935003082
 40
0.4317820901
 40
0.4693719371
 40
0.5416359941
 40
0.5760030136
 40
0.6089522898
 40
0.640337202
 40
0.670043714
 40
0.697954106
 40
0.7239882077
 40
0.7481114887
 40
0.7703465492
 40
0.7908548869
 40
0.8099785351
 40
0.8282899746
 40
0.8466463419
 40
0.8660379258
 40
0.8873747445
 40
0.9112516641
 40
0.9380111931
 40
0.967676522
 40
1.0
 40
1.0
 40
1.0
 40
1.0
 10
11.8049947561
 20
11.6691695021
 30
0.0
 10
11.8049947561
 20
11.6737949434
 30
0.0
 10
11.8044909758
 20
11.6830631803
 30
0.0
 10
11.8022452657
 20
11.6968028512
 30
0.0
 10
11.7985097234
 20
11.7102243269
 30
0.0
 10
11.793310442
 20
11.7231439801
 30
0.0
 10
11.7867098873
 20
11.7354039505
 30
0.0
 10
11.7787649505
 20
11.7468336712
 30
0.0
 10
11.77114058
 20
11.755571925
 30
0.0
 10
11.7645152783
 20
11.7620300156
 30
0.0
 10
11.7575769103
 20
11.7681000025
 30
0.0
 10
11.7483775235
 20
11.7749682942
 30
0.0
 10
11.7367050769
 20
11.782072942
 30
0.0
 10
11.7246164264
 20
11.7880365656
 30
0.0
 10
11.7084519847
 20
11.7944825992
 30
0.0
 10
11.6921184925
 20
11.7991303711
 30
0.0
 10
11.6760332349
 20
11.8022701808
 30
0.0
 10
11.6645622067
 20
11.8039328152
 30
0.0
 10
11.6535717213
 20
11.8050075107
 30
0.0
 10
11.643133661
 20
11.8055335323
 30
0.0
 10
11.6333102857
 20
11.8055661377
 30
0.0
 10
11.6241528898
 20
11.8050891184
 30
0.0
 10
11.61570883
 20
11.8040676599
 30
0.0
 10
11.6080111059
 20
11.8024729022
 30
0.0
 10
11.6010911838
 20
11.8002046696
 30
0.0
 10
11.5949818397
 20
11.7971441525
 30
0.0
 10
11.5897311949
 20
11.7931580869
 30
0.0
 10
11.5853928506
 20
11.7881458478
 30
0.0
 10
11.5820000468
 20
11.7820466398
 30
0.0
 10
11.5795255987
 20
11.774847059
 30
0.0
 10
11.5778222098
 20
11.7665555035
 30
0.0
 10
11.5767903011
 20
11.7571766308
 30
0.0
 10
11.576294174
 20
11.7467668813
 30
0.0
 10
11.5762212124
 20
11.7394896359
 30
0.0
 10
11.5762204766
 20
11.7356953338
 30
0.0
  0
SPLINE
  5
28C
100
AcDbEntity
  8
0
100
AcDbSpline
 62
7
  6
CONTINUOUS
 70
0
 71
3
 72
30
 73
26
 74
0
 42
0.0000001
 43
0.0000001
 44
0.0000000001
 40
0.0
 40
0.0
 40
0.0
 40
0.0
 40
0.0813579671
 40
0.162714573
 40
0.2435885526
 40
0.323352715
 40
0.4011369174
 40
0.4757894134
 40
0.5115235529
 40
0.5459443786
 40
0.5788838883
 40
0.6102089613
 40
0.6398461311
 40
0.6678039298
 40
0.694182258
 40
0.7191699734
 40
0.7430283672
 40
0.7660584764
 40
0.7885664962
 40
0.810837647
 40
0.8331137306
 40
0.8555858055
 40
0.901604091
 40
0.949649768
 40
1.0
 40
1.0
 40
1.0
 40
1.0
 10
10.0703899294
 20
11.0591695021
 30
0.0
 10
10.0765385316
 20
11.0537682288
 30
0.0
 10
10.08901533
 20
11.0431678754
 30
0.0
 10
10.1082706851
 20
11.0280036078
 30
0.0
 10
10.1280333214
 20
11.0137750993
 30
0.0
 10
10.1482020152
 20
11.0007722434
 30
0.0
 10
10.1686076741
 20
10.9893696951
 30
0.0
 10
10.1858401477
 20
10.9814651257
 30
0.0
 10
10.1995244975
 20
10.976451898
 30
0.0
 10
10.2094653767
 20
10.9734723016
 30
0.0
 10
10.2191565875
 20
10.9712801537
 30
0.0
 10
10.2285167035
 20
10.9699288502
 30
0.0
 10
10.2374627181
 20
10.9694544681
 30
0.0
 10
10.2459160925
 20
10.9698726073
 30
0.0
 10
10.253807609
 20
10.9711772095
 30
0.0
 10
10.2610811897
 20
10.9733397286
 30
0.0
 10
10.2676974859
 20
10.976309958
 30
0.0
 10
10.2736345541
 20
10.9800234724
 30
0.0
 10
10.2788878381
 20
10.9844066097
 30
0.0
 10
10.2834690769
 20
10.9893823337
 30
0.0
 10
10.2874001339
 20
10.9948789949
 30
0.0
 10
10.2918470578
 20
11.0028720142
 30
0.0
 10
10.2959209742
 20
11.0139448932
 30
0.0
 10
10.298631919
 20
11.0282656342
 30
0.0
 10
10.2991641431
 20
11.0381777724
 30
0.0
 10
10.2991642598
 20
11.043242673
 30
0.0
  0
SPLINE
  5
28D
100
AcDbEntity
  8
0
100
AcDbSpline
 62
7
  6
CONTINUOUS
 70
0
 71
3
 72
21
 73
17
 74
0
 42
0.0000001
 43
0.0000001
 44
0.0000000001
 40
0.0
 40
0.0
 40
0.0
 40
0.0
 40
0.1143909982
 40
0.174140735
 40
0.2357520793
 40
0.2993212847
 40
0.3648128816
 40
0.4319268651
 40
0.4999999051
 40
0.568072857
 40
0.6351868944
 40
0.7006783839
 40
0.7642475562
 40
0.8258589471
 40
0.8856087456
 40
1.0
 40
1.0
 40
1.0
 40
1.0
 10
10.7765191113
 20
11.0591695021
 30
0.0
 10
10.7851360817
 20
11.0474087852
 30
0.0
 10
10.7998268574
 20
11.0305687082
 30
0.0
 10
10.8225692882
 20
11.0108750572
 30
0.0
 10
10.84192586
 20
10.997340297
 30
0.0
 10
10.8633560805
 20
10.9857567196
 30
0.0
 10
10.8867546823
 20
10.9767322937
 30
0.0
 10
10.9117607235
 20
10.9709367906
 30
0.0
 10
10.9376922959
 20
10.968931085
 30
0.0
 10
10.9636238746
 20
10.9709367815
 30
0.0
 10
10.9886299046
 20
10.9767322553
 30
0.0
 10
11.0120284979
 20
10.9857566728
 30
0.0
 10
11.0334587166
 20
10.9973402273
 30
0.0
 10
11.0528153047
 20
11.0108749814
 30
0.0
 10
11.0755577825
 20
11.0305686495
 30
0.0
 10
11.0902485845
 20
11.0474087588
 30
0.0
 10
11.0988655742
 20
11.0591695021
 30
0.0
  0
SPLINE
  5
28E
100
AcDbEntity
  8
0
100
AcDbSpline
 62
7
  6
CONTINUOUS
 70
0
 71
3
 72
42
 73
38
 74
0
 42
0.0000001
 43
0.0000001
 44
0.0000000001
 40
0.0
 40
0.0
 40
0.0
 40
0.0
 40
0.0330348836
 40
0.0658417799
 40
0.0980698194
 40
0.1295161803
 40
0.1601230698
 40
0.1899807505
 40
0.2047030126
 40
0.2193328102
 40
0.2484979644
 40
0.2631451887
 40
0.277882441
 40
0.3077533396
 40
0.3383120186
 40
0.3695940084
 40
0.401549021
 40
0.4340405718
 40
0.4669039513
 40
0.4999619685
 40
0.533019801
 40
0.5658891063
 40
0.5983936666
 40
0.6303568004
 40
0.6616526129
 40
0.6922275958
 40
0.7221113404
 40
0.7514928375
 40
0.7806686975
 40
0.795301892
 40
0.8100266478
 40
0.8398879827
 40
0.8704951911
 40
0.9019381551
 40
0.9341615817
 40
0.9669658008
 40
1.0
 40
1.0
 40
1.0
 40
1.0
 10
11.0988655742
 20
11.6691695021
 30
0.0
 10
11.0988655742
 20
11.6745171044
 30
0.0
 10
11.0984415864
 20
11.6851806019
 30
0.0
 10
11.0965033033
 20
11.7009557061
 30
0.0
 10
11.0932196458
 20
11.716248457
 30
0.0
 10
11.0885216703
 20
11.7308010713
 30
0.0
 10
11.082321003
 20
11.7443662934
 30
0.0
 10
11.0758371881
 20
11.7547160866
 30
0.0
 10
11.069899724
 20
11.7622504079
 30
0.0
 10
11.0634922775
 20
11.7692370308
 30
0.0
 10
11.0563342518
 20
11.7754826679
 30
0.0
 10
11.0485699641
 20
11.780928148
 30
0.0
 10
11.0403519461
 20
11.7858887041
 30
0.0
 10
11.029343042
 20
11.7911461011
 30
0.0
 10
11.0153098042
 20
11.7960606348
 30
0.0
 10
11.0005709619
 20
11.7997779296
 30
0.0
 10
10.9852970238
 20
11.8024570058
 30
0.0
 10
10.9696419114
 20
11.8042699612
 30
0.0
 10
10.9537389083
 20
11.8053063187
 30
0.0
 10
10.9377152508
 20
11.8056392951
 30
0.0
 10
10.9216901905
 20
11.8053132671
 30
0.0
 10
10.9057849541
 20
11.8042668336
 30
0.0
 10
10.890123946
 20
11.8024679728
 30
0.0
 10
10.8748443025
 20
11.7997864
 30
0.0
 10
10.8601003233
 20
11.7960657791
 30
0.0
 10
10.8460583475
 20
11.7911530764
 30
0.0
 10
10.8329008455
 20
11.7848750855
 30
0.0
 10
10.8208560446
 20
11.7770553969
 30
0.0
 10
10.8118944946
 20
11.7692362072
 30
0.0
 10
10.8054832017
 20
11.7622488162
 30
0.0
 10
10.7995444439
 20
11.7547136131
 30
0.0
 10
10.79306187
 20
11.7443617082
 30
0.0
 10
10.7868612493
 20
11.7307964889
 30
0.0
 10
10.7821638463
 20
11.7162449499
 30
0.0
 10
10.7788812287
 20
11.7009537595
 30
0.0
 10
10.776943182
 20
11.6851799452
 30
0.0
 10
10.7765191113
 20
11.6745169936
 30
0.0
 10
10.7765191113
 20
11.6691695021
 30
0.0
  0
SPLINE
  5
28F
100
AcDbEntity
  8
0
100
AcDbSpline
 62
7
  6
CONTINUOUS
 70
0
 71
3
 72
39
 73
35
 74
0
 42
0.0000001
 43
0.0000001
 44
0.0000000001
 40
0.0
 40
0.0
 40
0.0
 40
0.0
 40
0.0323218388
 40
0.0619828827
 40
0.0887409777
 40
0.1126136782
 40
0.1339401973
 40
0.1533212833
 40
0.1716703417
 40
0.1899774278
 40
0.2090883362
 40
0.2295820066
 40
0.2518103166
 40
0.2759212538
 40
0.301945696
 40
0.3298520713
 40
0.3595507909
 40
0.3909381932
 40
0.4582428454
 40
0.4938558978
 40
0.5305754085
 40
0.5681760413
 40
0.6064727294
 40
0.6453110994
 40
0.6844743171
 40
0.7041355035
 40
0.7238316645
 40
0.7632709128
 40
0.8027283171
 40
0.842172591
 40
0.8816279717
 40
0.9211120143
 40
0.9605967234
 40
1.0
 40
1.0
 40
1.0
 40
1.0
 10
10.2991643936
 20
11.7356954443
 30
0.0
 10
10.2991634116
 20
11.7394896084
 30
0.0
 10
10.2990899629
 20
11.7467662588
 30
0.0
 10
10.298593695
 20
11.7571752649
 30
0.0
 10
10.2975635427
 20
11.7665532417
 30
0.0
 10
10.2958624462
 20
11.7748435218
 30
0.0
 10
10.2933880758
 20
11.7820403008
 30
0.0
 10
10.2899969432
 20
11.7881362632
 30
0.0
 10
10.2856654324
 20
11.7931510454
 30
0.0
 10
10.2804170182
 20
11.7971360749
 30
0.0
 10
10.2743107895
 20
11.8001945459
 30
0.0
 10
10.2673954001
 20
11.8024629278
 30
0.0
 10
10.2597037965
 20
11.8040685074
 30
0.0
 10
10.2512621006
 20
11.8050857027
 30
0.0
 10
10.242107803
 20
11.8055591636
 30
0.0
 10
10.2322868184
 20
11.8055413499
 30
0.0
 10
10.2218493844
 20
11.8050099013
 30
0.0
 10
10.206846702
 20
11.8035384953
 30
0.0
 10
10.191268626
 20
11.8009153751
 30
0.0
 10
10.175373295
 20
11.7968807435
 30
0.0
 10
10.1630739956
 20
11.7929435393
 30
0.0
 10
10.1507824783
 20
11.7880448352
 30
0.0
 10
10.1386902375
 20
11.7820772297
 30
0.0
 10
10.1270131901
 20
11.7749692004
 30
0.0
 10
10.1178093655
 20
11.7680997186
 30
0.0
 10
10.1108681293
 20
11.7620292556
 30
0.0
 10
10.1042415419
 20
11.7555704361
 30
0.0
 10
10.0966177069
 20
11.7468300863
 30
0.0
 10
10.0886726041
 20
11.7353999175
 30
0.0
 10
10.082071865
 20
11.7231406935
 30
0.0
 10
10.076874213
 20
11.7102219614
 30
0.0
 10
10.0731392067
 20
11.6968018472
 30
0.0
 10
10.0708937162
 20
11.6830629315
 30
0.0
 10
10.0703899294
 20
11.6737949352
 30
0.0
 10
10.0703899294
 20
11.6691695021
 30
0.0
  0
SPLINE
  5
290
100
AcDbEntity
  8
0
100
AcDbSpline
 62
7
  6
CONTINUOUS
 70
0
 71
3
 72
30
 73
26
 74
0
 42
0.0000001
 43
0.0000001
 44
0.0000000001
 40
0.0
 40
0.0
 40
0.0
 40
0.0
 40
0.0503501051
 40
0.0983957485
 40
0.1444139992
 40
0.1668860915
 40
0.1891621721
 40
0.2114333266
 40
0.2339413488
 40
0.2569715556
 40
0.2808299407
 40
0.3058175878
 40
0.3321959404
 40
0.3601537652
 40
0.3897908859
 40
0.421115894
 40
0.4540554866
 40
0.4884762823
 40
0.5242102548
 40
0.5988626982
 40
0.6766468471
 40
0.756411055
 40
0.8372850808
 40
0.918641876
 40
1.0
 40
1.0
 40
1.0
 40
1.0
 10
11.5762204277
 20
11.0432426747
 30
0.0
 10
11.5762205431
 20
11.0381777869
 30
0.0
 10
11.5767527682
 20
11.028265665
 30
0.0
 10
11.5794636991
 20
11.0139449419
 30
0.0
 10
11.5835376038
 20
11.0028720639
 30
0.0
 10
11.5879845218
 20
10.9948790435
 30
0.0
 10
11.5919155748
 20
10.9893823775
 30
0.0
 10
11.5964968053
 20
10.9844066455
 30
0.0
 10
11.6017500947
 20
10.9800234972
 30
0.0
 10
11.607687172
 20
10.9763099812
 30
0.0
 10
11.6143034619
 20
10.9733397319
 30
0.0
 10
11.6215770408
 20
10.9711772241
 30
0.0
 10
11.6294685527
 20
10.9698726085
 30
0.0
 10
11.6379219279
 20
10.9694544684
 30
0.0
 10
11.6468679334
 20
10.9699288475
 30
0.0
 10
11.6562280481
 20
10.9712801398
 30
0.0
 10
11.6659192562
 20
10.9734722944
 30
0.0
 10
11.6758601288
 20
10.9764518726
 30
0.0
 10
11.6895444541
 20
10.9814650951
 30
0.0
 10
11.7067769081
 20
10.9893696402
 30
0.0
 10
11.7271825647
 20
11.0007721812
 30
0.0
 10
11.7473512667
 20
11.0137750316
 30
0.0
 10
11.7671139298
 20
11.0280035516
 30
0.0
 10
11.7863693186
 20
11.0431678403
 30
0.0
 10
11.798846142
 20
11.0537682183
 30
0.0
 10
11.8049947561
 20
11.0591695021
 30
0.0
  0
SPLINE
  5
291
100
AcDbEntity
  8
0
100
AcDbSpline
 62
7
  6
CONTINUOUS
 70
0
 71
3
 72
38
 73
34
 74
0
 42
0.0000001
 43
0.0000001
 44
0.0000000001
 40
0.0
 40
0.0
 40
0.0
 40
0.0
 40
0.0939728142
 40
0.1870076338
 40
0.2782603673
 40
0.3670070509
 40
0.4526335623
 40
0.5345800109
 40
0.6122888516
 40
0.6851592266
 40
0.7525184814
 40
0.8136084323
 40
0.8415423736
 40
0.86758668
 40
0.8916266752
 40
0.9135454193
 40
0.9332266485
 40
0.9505582894
 40
0.9654318469
 40
0.9719166376
 40
0.9777512883
 40
0.982924659
 40
0.9874281745
 40
0.991254106
 40
0.9943947206
 40
0.9968429504
 40
0.9978061863
 40
0.9985950504
 40
0.9992092031
 40
0.9996483053
 40
0.9998021063
 40
0.9999120174
 40
1.0
 40
1.0
 40
1.0
 40
1.0
 10
7.2299251267
 20
9.3941695021
 30
0.0
 10
7.2299251267
 20
9.3862609437
 30
0.0
 10
7.2305668197
 20
9.3705154087
 30
0.0
 10
7.2333780758
 20
9.3472446981
 30
0.0
 10
7.2378157599
 20
9.3246796343
 30
0.0
 10
7.2435760067
 20
9.3030652595
 30
0.0
 10
7.2503262217
 20
9.2825665103
 30
0.0
 10
7.2577420413
 20
9.2632946636
 30
0.0
 10
7.2655228371
 20
9.2453340628
 30
0.0
 10
7.2733936772
 20
9.2287641223
 30
0.0
 10
7.2811004575
 20
9.2136736423
 30
0.0
 10
7.2873619295
 20
9.202096481
 30
0.0
 10
7.2920945909
 20
9.1936477046
 30
0.0
 10
7.2953527848
 20
9.1879472097
 30
0.0
 10
7.2983997652
 20
9.1827093072
 30
0.0
 10
7.3012099878
 20
9.1779533623
 30
0.0
 10
7.3037579654
 20
9.1736983268
 30
0.0
 10
7.3060207011
 20
9.1699636459
 30
0.0
 10
7.3077197594
 20
9.1671860122
 30
0.0
 10
7.3089195
 20
9.1652371946
 30
0.0
 10
7.3096933105
 20
9.1639848083
 30
0.0
 10
7.3103809702
 20
9.1628751942
 30
0.0
 10
7.3109807681
 20
9.1619100109
 30
0.0
 10
7.3114911876
 20
9.161090701
 30
0.0
 10
7.3119107608
 20
9.1604185808
 30
0.0
 10
7.3122030545
 20
9.1599510213
 30
0.0
 10
7.3123904934
 20
9.1596513089
 30
0.0
 10
7.312496246
 20
9.1594825875
 30
0.0
 10
7.3125783011
 20
9.1593510097
 30
0.0
 10
7.3126327323
 20
9.1592653303
 30
0.0
 10
7.312663494
 20
9.159214682
 30
0.0
 10
7.3126803726
 20
9.1591905472
 30
0.0
 10
7.312686993
 20
9.1591746213
 30
0.0
 10
7.3126923427
 20
9.1591695021
 30
0.0
  0
LINE
  5
292
100
AcDbEntity
  8
0
100
AcDbLine
 62
7
  6
CONTINUOUS
 10
7.31196792
 20
9.6280117732
 11
7.3126923427
 21
9.6291695021
  0
LINE
  5
293
100
AcDbEntity
  8
0
100
AcDbLine
 62
7
  6
CONTINUOUS
 10
6.5634167655
 20
9.1603272311
 11
6.5626923427
 21
9.1591695021
  0
SPLINE
  5
294
100
AcDbEntity
  8
0
100
AcDbSpline
 62
7
  6
CONTINUOUS
 70
0
 71
3
 72
38
 73
34
 74
0
 42
0.0000001
 43
0.0000001
 44
0.0000000001
 40
0.0
 40
0.0
 40
0.0
 40
0.0
 40
0.0939728142
 40
0.1870076338
 40
0.2782603673
 40
0.3670070509
 40
0.4526335623
 40
0.5345800109
 40
0.6122888516
 40
0.6851592266
 40
0.7525184814
 40
0.8136084323
 40
0.8415423736
 40
0.86758668
 40
0.8916266752
 40
0.9135454193
 40
0.9332266485
 40
0.9505582894
 40
0.9654318469
 40
0.9719166376
 40
0.9777512883
 40
0.982924659
 40
0.9874281745
 40
0.991254106
 40
0.9943947206
 40
0.9968429504
 40
0.9978061863
 40
0.9985950504
 40
0.9992092031
 40
0.9996483053
 40
0.9998021063
 40
0.9999120174
 40
1.0
 40
1.0
 40
1.0
 40
1.0
 10
6.6454595588
 20
9.3941695021
 30
0.0
 10
6.6454595588
 20
9.4020780606
 30
0.0
 10
6.6448178658
 20
9.4178235956
 30
0.0
 10
6.6420066097
 20
9.4410943062
 30
0.0
 10
6.6375689256
 20
9.46365937
 30
0.0
 10
6.6318086788
 20
9.4852737448
 30
0.0
 10
6.6250584638
 20
9.505772494
 30
0.0
 10
6.6176426442
 20
9.5250443407
 30
0.0
 10
6.6098618483
 20
9.5430049415
 30
0.0
 10
6.6019910082
 20
9.559574882
 30
0.0
 10
6.5942842279
 20
9.574665362
 30
0.0
 10
6.588022756
 20
9.5862425232
 30
0.0
 10
6.5832900946
 20
9.5946912997
 30
0.0
 10
6.5800319007
 20
9.6003917946
 30
0.0
 10
6.5769849202
 20
9.6056296971
 30
0.0
 10
6.5741746977
 20
9.610385642
 30
0.0
 10
6.5716267201
 20
9.6146406775
 30
0.0
 10
6.5693639844
 20
9.6183753584
 30
0.0
 10
6.5676649261
 20
9.6211529921
 30
0.0
 10
6.5664651854
 20
9.6231018097
 30
0.0
 10
6.565691375
 20
9.6243541959
 30
0.0
 10
6.5650037153
 20
9.6254638101
 30
0.0
 10
6.5644039173
 20
9.6264289934
 30
0.0
 10
6.5638934978
 20
9.6272483033
 30
0.0
 10
6.5634739247
 20
9.6279204234
 30
0.0
 10
6.563181631
 20
9.628387983
 30
0.0
 10
6.562994192
 20
9.6286876954
 30
0.0
 10
6.5628884395
 20
9.6288564168
 30
0.0
 10
6.5628063843
 20
9.6289879945
 30
0.0
 10
6.5627519532
 20
9.629073674
 30
0.0
 10
6.5627211914
 20
9.6291243222
 30
0.0
 10
6.5627043129
 20
9.6291484571
 30
0.0
 10
6.5626976925
 20
9.629164383
 30
0.0
 10
6.5626923427
 20
9.6291695021
 30
0.0
  0
SPLINE
  5
295
100
AcDbEntity
  8
0
100
AcDbSpline
 62
7
  6
CONTINUOUS
 70
0
 71
3
 72
37
 73
33
 74
0
 42
0.0000001
 43
0.0000001
 44
0.0000000001
 40
0.0
 40
0.0
 40
0.0
 40
0.0
 40
0.0000879762
 40
0.0003516868
 40
0.0007907908
 40
0.0014049472
 40
0.002193815
 40
0.0031570533
 40
0.0056052775
 40
0.0087458865
 40
0.0125718204
 40
0.0170753365
 40
0.022248696
 40
0.0280833297
 40
0.0345681063
 40
0.0494416449
 40
0.0667732784
 40
0.0864544923
 40
0.1083731948
 40
0.1324131525
 40
0.1584574671
 40
0.1863914416
 40
0.2474813646
 40
0.3148406983
 40
0.3877110561
 40
0.4654196905
 40
0.5473661663
 40
0.6329925148
 40
0.7217392424
 40
0.8129921104
 40
0.9060271847
 40
1.0
 40
1.0
 40
1.0
 40
1.0
 10
6.5626923427
 20
9.1591695021
 30
0.0
 10
6.5626869934
 20
9.1591643833
 30
0.0
 10
6.5627253194
 20
9.159217178
 30
0.0
 10
6.5627388585
 20
9.1592468006
 30
0.0
 10
6.562810139
 20
9.1593559598
 30
0.0
 10
6.562886944
 20
9.159480616
 30
0.0
 10
6.5629947288
 20
9.1596520161
 30
0.0
 10
6.5631812007
 20
9.1599504532
 30
0.0
 10
6.563474126
 20
9.1604188466
 30
0.0
 10
6.563893423
 20
9.161090603
 30
0.0
 10
6.5644039421
 20
9.1619100433
 30
0.0
 10
6.5650037061
 20
9.162875181
 30
0.0
 10
6.5656913753
 20
9.1639848082
 30
0.0
 10
6.5664651799
 20
9.165237187
 30
0.0
 10
6.5676649199
 20
9.1671860028
 30
0.0
 10
6.5693639762
 20
9.1699636322
 30
0.0
 10
6.5716267105
 20
9.1736983104
 30
0.0
 10
6.5741746852
 20
9.1779533411
 30
0.0
 10
6.5769849032
 20
9.1827092795
 30
0.0
 10
6.5800318809
 20
9.1879471767
 30
0.0
 10
6.5832900768
 20
9.1936476709
 30
0.0
 10
6.5880227381
 20
9.2020964487
 30
0.0
 10
6.5942842125
 20
9.2136736166
 30
0.0
 10
6.6019909994
 20
9.2287640965
 30
0.0
 10
6.6098618281
 20
9.2453340289
 30
0.0
 10
6.6176426252
 20
9.263294611
 30
0.0
 10
6.6250584342
 20
9.2825664311
 30
0.0
 10
6.6318086515
 20
9.3030651713
 30
0.0
 10
6.6375689053
 20
9.3246795455
 30
0.0
 10
6.6420066052
 20
9.3472446436
 30
0.0
 10
6.6448178629
 20
9.3705153872
 30
0.0
 10
6.6454595588
 20
9.3862609436
 30
0.0
 10
6.6454595588
 20
9.3941695021
 30
0.0
  0
LINE
  5
296
100
AcDbEntity
  8
0
100
AcDbLine
 62
7
  6
CONTINUOUS
 10
6.5626923427
 20
9.6291695021
 11
6.5634147053
 21
9.6280150706
  0
SPLINE
  5
297
100
AcDbEntity
  8
0
100
AcDbSpline
 62
7
  6
CONTINUOUS
 70
0
 71
3
 72
37
 73
33
 74
0
 42
0.0000001
 43
0.0000001
 44
0.0000000001
 40
0.0
 40
0.0
 40
0.0
 40
0.0
 40
0.0000879762
 40
0.0003516868
 40
0.0007907908
 40
0.0014049472
 40
0.002193815
 40
0.0031570533
 40
0.0056052775
 40
0.0087458865
 40
0.0125718204
 40
0.0170753365
 40
0.022248696
 40
0.0280833297
 40
0.0345681063
 40
0.0494416449
 40
0.0667732784
 40
0.0864544923
 40
0.1083731948
 40
0.1324131525
 40
0.1584574671
 40
0.1863914416
 40
0.2474813646
 40
0.3148406983
 40
0.3877110561
 40
0.4654196905
 40
0.5473661663
 40
0.6329925148
 40
0.7217392424
 40
0.8129921104
 40
0.9060271847
 40
1.0
 40
1.0
 40
1.0
 40
1.0
 10
7.3126923427
 20
9.6291695021
 30
0.0
 10
7.3126976921
 20
9.6291746209
 30
0.0
 10
7.312659366
 20
9.6291218262
 30
0.0
 10
7.312645827
 20
9.6290922037
 30
0.0
 10
7.3125745464
 20
9.6289830445
 30
0.0
 10
7.3124977415
 20
9.6288583883
 30
0.0
 10
7.3123899567
 20
9.6286869882
 30
0.0
 10
7.3122034848
 20
9.6283885511
 30
0.0
 10
7.3119105594
 20
9.6279201577
 30
0.0
 10
7.3114912625
 20
9.6272484013
 30
0.0
 10
7.3109807434
 20
9.626428961
 30
0.0
 10
7.3103809794
 20
9.6254638233
 30
0.0
 10
7.3096933102
 20
9.6243541961
 30
0.0
 10
7.3089195056
 20
9.6231018173
 30
0.0
 10
7.3077197656
 20
9.6211530015
 30
0.0
 10
7.3060207093
 20
9.6183753721
 30
0.0
 10
7.303757975
 20
9.6146406939
 30
0.0
 10
7.3012100003
 20
9.6103856631
 30
0.0
 10
7.2983997822
 20
9.6056297248
 30
0.0
 10
7.2953528046
 20
9.6003918276
 30
0.0
 10
7.2920946087
 20
9.5946913334
 30
0.0
 10
7.2873619474
 20
9.5862425556
 30
0.0
 10
7.281100473
 20
9.5746653877
 30
0.0
 10
7.2733936861
 20
9.5595749077
 30
0.0
 10
7.2655228573
 20
9.5430049753
 30
0.0
 10
7.2577420602
 20
9.5250443933
 30
0.0
 10
7.2503262513
 20
9.5057725732
 30
0.0
 10
7.243576034
 20
9.485273833
 30
0.0
 10
7.2378157802
 20
9.4636594588
 30
0.0
 10
7.2333780803
 20
9.4410943607
 30
0.0
 10
7.2305668226
 20
9.4178236171
 30
0.0
 10
7.2299251267
 20
9.4020780607
 30
0.0
 10
7.2299251267
 20
9.3941695021
 30
0.0
  0
LINE
  5
298
100
AcDbEntity
  8
0
100
AcDbLine
 62
7
  6
CONTINUOUS
 10
7.3126923427
 20
9.1591695021
 11
7.3119699802
 21
9.1603239336
  0
SPLINE
  5
299
100
AcDbEntity
  8
0
100
AcDbSpline
 62
7
  6
CONTINUOUS
 70
0
 71
3
 72
38
 73
34
 74
0
 42
0.0000001
 43
0.0000001
 44
0.0000000001
 40
0.0
 40
0.0
 40
0.0
 40
0.0
 40
0.0939728189
 40
0.1870076543
 40
0.2782603879
 40
0.3670070695
 40
0.4526335739
 40
0.5345800244
 40
0.6122888595
 40
0.6851592347
 40
0.752518492
 40
0.81360844
 40
0.8415423809
 40
0.8675866865
 40
0.8916266799
 40
0.913545422
 40
0.9332266498
 40
0.9505582896
 40
0.9654318467
 40
0.9719166374
 40
0.9777512878
 40
0.9829246583
 40
0.987428174
 40
0.9912541058
 40
0.9943947201
 40
0.9968429497
 40
0.9978061858
 40
0.9985950501
 40
0.9992092032
 40
0.9996483055
 40
0.9998021066
 40
0.9999120176
 40
1.0
 40
1.0
 40
1.0
 40
1.0
 10
15.2299251267
 20
9.3941695021
 30
0.0
 10
15.2299251267
 20
9.3862609433
 30
0.0
 10
15.2305668199
 20
9.3705154065
 30
0.0
 10
15.2333780761
 20
9.3472446942
 30
0.0
 10
15.2378157611
 20
9.3246796294
 30
0.0
 10
15.243576008
 20
9.3030652554
 30
0.0
 10
15.250326223
 20
9.2825665068
 30
0.0
 10
15.2577420423
 20
9.263294661
 30
0.0
 10
15.2655228383
 20
9.2453340606
 30
0.0
 10
15.2733936781
 20
9.2287641202
 30
0.0
 10
15.2811004586
 20
9.2136736404
 30
0.0
 10
15.2873619306
 20
9.2020964792
 30
0.0
 10
15.2920945917
 20
9.193647703
 30
0.0
 10
15.2953527856
 20
9.1879472084
 30
0.0
 10
15.2983997659
 20
9.1827093062
 30
0.0
 10
15.3012099882
 20
9.1779533617
 30
0.0
 10
15.3037579656
 20
9.1736983265
 30
0.0
 10
15.3060207011
 20
9.1699636458
 30
0.0
 10
15.3077197594
 20
9.1671860122
 30
0.0
 10
15.3089195
 20
9.1652371947
 30
0.0
 10
15.3096933104
 20
9.1639848085
 30
0.0
 10
15.3103809701
 20
9.1628751943
 30
0.0
 10
15.3109807681
 20
9.161910011
 30
0.0
 10
15.3114911876
 20
9.1610907011
 30
0.0
 10
15.3119107608
 20
9.1604185809
 30
0.0
 10
15.3122030544
 20
9.1599510214
 30
0.0
 10
15.3123904933
 20
9.1596513089
 30
0.0
 10
15.3124962462
 20
9.1594825877
 30
0.0
 10
15.3125783007
 20
9.1593510093
 30
0.0
 10
15.3126327332
 20
9.1592653312
 30
0.0
 10
15.3126634932
 20
9.1592146811
 30
0.0
 10
15.3126803748
 20
9.1591905495
 30
0.0
 10
15.3126869892
 20
9.1591746173
 30
0.0
 10
15.3126923427
 20
9.1591695021
 30
0.0
  0
LINE
  5
29A
100
AcDbEntity
  8
0
100
AcDbLine
 62
7
  6
CONTINUOUS
 10
15.3119677729
 20
9.6280115377
 11
15.3126923427
 21
9.6291695021
  0
LINE
  5
29B
100
AcDbEntity
  8
0
100
AcDbLine
 62
7
  6
CONTINUOUS
 10
14.5634169126
 20
9.1603274666
 11
14.5626923427
 21
9.1591695021
  0
SPLINE
  5
29C
100
AcDbEntity
  8
0
100
AcDbSpline
 62
7
  6
CONTINUOUS
 70
0
 71
3
 72
38
 73
34
 74
0
 42
0.0000001
 43
0.0000001
 44
0.0000000001
 40
0.0
 40
0.0
 40
0.0
 40
0.0
 40
0.0939728189
 40
0.1870076543
 40
0.2782603879
 40
0.3670070695
 40
0.4526335739
 40
0.5345800244
 40
0.6122888595
 40
0.6851592347
 40
0.752518492
 40
0.81360844
 40
0.8415423809
 40
0.8675866865
 40
0.8916266799
 40
0.913545422
 40
0.9332266498
 40
0.9505582896
 40
0.9654318467
 40
0.9719166374
 40
0.9777512878
 40
0.9829246583
 40
0.987428174
 40
0.9912541058
 40
0.9943947201
 40
0.9968429497
 40
0.9978061858
 40
0.9985950501
 40
0.9992092032
 40
0.9996483055
 40
0.9998021066
 40
0.9999120176
 40
1.0
 40
1.0
 40
1.0
 40
1.0
 10
14.6454595588
 20
9.3941695021
 30
0.0
 10
14.6454595588
 20
9.402078061
 30
0.0
 10
14.6448178656
 20
9.4178235977
 30
0.0
 10
14.6420066094
 20
9.4410943101
 30
0.0
 10
14.6375689244
 20
9.4636593749
 30
0.0
 10
14.6318086775
 20
9.4852737489
 30
0.0
 10
14.6250584625
 20
9.5057724975
 30
0.0
 10
14.6176426432
 20
9.5250443433
 30
0.0
 10
14.6098618472
 20
9.5430049437
 30
0.0
 10
14.6019910074
 20
9.559574884
 30
0.0
 10
14.5942842268
 20
9.5746653639
 30
0.0
 10
14.5880227549
 20
9.5862425251
 30
0.0
 10
14.5832900937
 20
9.5946913012
 30
0.0
 10
14.5800318999
 20
9.6003917959
 30
0.0
 10
14.5769849196
 20
9.6056296981
 30
0.0
 10
14.5741746973
 20
9.6103856426
 30
0.0
 10
14.5716267199
 20
9.6146406778
 30
0.0
 10
14.5693639844
 20
9.6183753585
 30
0.0
 10
14.5676649261
 20
9.6211529921
 30
0.0
 10
14.5664651855
 20
9.6231018096
 30
0.0
 10
14.565691375
 20
9.6243541958
 30
0.0
 10
14.5650037154
 20
9.62546381
 30
0.0
 10
14.5644039174
 20
9.6264289933
 30
0.0
 10
14.5638934979
 20
9.6272483032
 30
0.0
 10
14.5634739247
 20
9.6279204234
 30
0.0
 10
14.5631816311
 20
9.6283879828
 30
0.0
 10
14.5629941922
 20
9.6286876954
 30
0.0
 10
14.5628884393
 20
9.6288564166
 30
0.0
 10
14.5628063848
 20
9.628987995
 30
0.0
 10
14.5627519523
 20
9.6290736731
 30
0.0
 10
14.5627211923
 20
9.6291243232
 30
0.0
 10
14.5627043106
 20
9.6291484548
 30
0.0
 10
14.5626976963
 20
9.6291643869
 30
0.0
 10
14.5626923427
 20
9.6291695021
 30
0.0
  0
SPLINE
  5
29D
100
AcDbEntity
  8
0
100
AcDbSpline
 62
7
  6
CONTINUOUS
 70
0
 71
3
 72
37
 73
33
 74
0
 42
0.0000001
 43
0.0000001
 44
0.0000000001
 40
0.0
 40
0.0
 40
0.0
 40
0.0
 40
0.0000879765
 40
0.0003516874
 40
0.0007907914
 40
0.0014049478
 40
0.0021938156
 40
0.0031570538
 40
0.0056052781
 40
0.0087458869
 40
0.0125718206
 40
0.0170753365
 40
0.0222486962
 40
0.0280833303
 40
0.0345681069
 40
0.049441645
 40
0.0667732768
 40
0.0864544885
 40
0.1083731897
 40
0.1324131459
 40
0.1584574586
 40
0.1863914313
 40
0.2474813525
 40
0.3148406853
 40
0.38771104
 40
0.4654196757
 40
0.5473661556
 40
0.6329924915
 40
0.7217392173
 40
0.8129920825
 40
0.9060271785
 40
1.0
 40
1.0
 40
1.0
 40
1.0
 10
14.5626923427
 20
9.1591695021
 30
0.0
 10
14.5626869896
 20
9.1591643873
 30
0.0
 10
14.562725325
 20
9.1592171724
 30
0.0
 10
14.5627388551
 20
9.1592468043
 30
0.0
 10
14.5628101408
 20
9.1593559582
 30
0.0
 10
14.5628869435
 20
9.1594806168
 30
0.0
 10
14.5629947291
 20
9.159652016
 30
0.0
 10
14.5631812006
 20
9.1599504535
 30
0.0
 10
14.5634741262
 20
9.1604188466
 30
0.0
 10
14.563893423
 20
9.1610906031
 30
0.0
 10
14.5644039421
 20
9.1619100433
 30
0.0
 10
14.5650037061
 20
9.162875181
 30
0.0
 10
14.5656913753
 20
9.1639848083
 30
0.0
 10
14.56646518
 20
9.1652371871
 30
0.0
 10
14.56766492
 20
9.1671860029
 30
0.0
 10
14.5693639761
 20
9.1699636321
 30
0.0
 10
14.5716267102
 20
9.1736983101
 30
0.0
 10
14.5741746847
 20
9.1779533404
 30
0.0
 10
14.5769849026
 20
9.1827092784
 30
0.0
 10
14.58003188
 20
9.1879471753
 30
0.0
 10
14.5832900758
 20
9.193647669
 30
0.0
 10
14.5880227367
 20
9.2020964465
 30
0.0
 10
14.5942842111
 20
9.213673614
 30
0.0
 10
14.6019909978
 20
9.2287640935
 30
0.0
 10
14.6098618267
 20
9.2453340255
 30
0.0
 10
14.617642624
 20
9.2632946078
 30
0.0
 10
14.6250584327
 20
9.2825664273
 30
0.0
 10
14.63180865
 20
9.3030651665
 30
0.0
 10
14.6375689037
 20
9.3246795393
 30
0.0
 10
14.6420066048
 20
9.3472446386
 30
0.0
 10
14.6448178626
 20
9.3705153844
 30
0.0
 10
14.6454595588
 20
9.3862609431
 30
0.0
 10
14.6454595588
 20
9.3941695021
 30
0.0
  0
LINE
  5
29E
100
AcDbEntity
  8
0
100
AcDbLine
 62
7
  6
CONTINUOUS
 10
14.5626923427
 20
9.6291695021
 11
14.5634150214
 21
9.6280145647
  0
SPLINE
  5
29F
100
AcDbEntity
  8
0
100
AcDbSpline
 62
7
  6
CONTINUOUS
 70
0
 71
3
 72
37
 73
33
 74
0
 42
0.0000001
 43
0.0000001
 44
0.0000000001
 40
0.0
 40
0.0
 40
0.0
 40
0.0
 40
0.0000879765
 40
0.0003516874
 40
0.0007907914
 40
0.0014049478
 40
0.0021938156
 40
0.0031570538
 40
0.0056052781
 40
0.0087458869
 40
0.0125718206
 40
0.0170753365
 40
0.0222486962
 40
0.0280833303
 40
0.0345681069
 40
0.049441645
 40
0.0667732768
 40
0.0864544885
 40
0.1083731897
 40
0.1324131459
 40
0.1584574586
 40
0.1863914313
 40
0.2474813525
 40
0.3148406853
 40
0.38771104
 40
0.4654196757
 40
0.5473661556
 40
0.6329924915
 40
0.7217392173
 40
0.8129920825
 40
0.9060271785
 40
1.0
 40
1.0
 40
1.0
 40
1.0
 10
15.3126923427
 20
9.6291695021
 30
0.0
 10
15.3126976959
 20
9.629174617
 30
0.0
 10
15.3126593605
 20
9.6291218319
 30
0.0
 10
15.3126458304
 20
9.6290922
 30
0.0
 10
15.3125745447
 20
9.6289830461
 30
0.0
 10
15.312497742
 20
9.6288583875
 30
0.0
 10
15.3123899564
 20
9.6286869883
 30
0.0
 10
15.3122034849
 20
9.6283885507
 30
0.0
 10
15.3119105593
 20
9.6279201577
 30
0.0
 10
15.3114912625
 20
9.6272484011
 30
0.0
 10
15.3109807434
 20
9.626428961
 30
0.0
 10
15.3103809794
 20
9.6254638233
 30
0.0
 10
15.3096933101
 20
9.624354196
 30
0.0
 10
15.3089195055
 20
9.6231018172
 30
0.0
 10
15.3077197655
 20
9.6211530014
 30
0.0
 10
15.3060207093
 20
9.6183753722
 30
0.0
 10
15.3037579753
 20
9.6146406942
 30
0.0
 10
15.3012100007
 20
9.6103856639
 30
0.0
 10
15.2983997829
 20
9.6056297259
 30
0.0
 10
15.2953528055
 20
9.600391829
 30
0.0
 10
15.2920946097
 20
9.5946913353
 30
0.0
 10
15.2873619488
 20
9.5862425578
 30
0.0
 10
15.2811004743
 20
9.5746653903
 30
0.0
 10
15.2733936877
 20
9.5595749108
 30
0.0
 10
15.2655228588
 20
9.5430049788
 30
0.0
 10
15.2577420615
 20
9.5250443965
 30
0.0
 10
15.2503262527
 20
9.505772577
 30
0.0
 10
15.2435760355
 20
9.4852738378
 30
0.0
 10
15.2378157818
 20
9.463659465
 30
0.0
 10
15.2333780806
 20
9.4410943657
 30
0.0
 10
15.2305668229
 20
9.4178236199
 30
0.0
 10
15.2299251267
 20
9.4020780612
 30
0.0
 10
15.2299251267
 20
9.3941695021
 30
0.0
  0
LINE
  5
2A0
100
AcDbEntity
  8
0
100
AcDbLine
 62
7
  6
CONTINUOUS
 10
15.3126923427
 20
9.1591695021
 11
15.3119696641
 21
9.1603244396
  0
ENDSEC
  0
SECTION
  2
OBJECTS
  0
DICTIONARY
  5
C
100
AcDbDictionary
280
0
281
1
  3
ACAD_GROUP
350
D
  3
ACAD_MLINESTYLE
350
17
  3
ACAD_LAYOUT
350
1A
  3
ACAD_PLOTSETTINGS
350
19
  3
ACAD_PLOTSTYLENAME
350
E
  0
DICTIONARY
  5
D
102
{ACAD_REACTORS
330
C
102
}
100
AcDbDictionary
280
0
281
1
  0
ACDBDICTIONARYWDFLT
  5
E
102
{ACAD_REACTORS
330
C
102
}
100
AcDbDictionary
281
1
  3
Normal
350
F
100
AcDbDictionaryWithDefault
340
F
  0
DICTIONARY
  5
17
102
{ACAD_REACTORS
330
C
102
}
100
AcDbDictionary
280
0
281
1
  3
Standard
350
18
  0
DICTIONARY
  5
19
102
{ACAD_REACTORS
330
C
102
}
100
AcDbDictionary
281
1
  0
DICTIONARY
  5
1A
102
{ACAD_REACTORS
330
C
102
}
100
AcDbDictionary
281
1
  3
Model
350
2A1
  3
Layout1
350
2A2
  0
ACDBPLACEHOLDER
  5
F
102
{ACAD_REACTORS
330
E
102
}
  0
MLINESTYLE
  5
18
102
{ACAD_REACTORS
330
17
102
}
100
AcDbMlineStyle
  2
STANDARD
 70
0
  3

 62
256
 51
90.0
 52
90.0
 71
2
 49
0.5
 62
256
  6
BYLAYER
 49
-0.5
 62
256
  6
BYLAYER
  0
LAYOUT
  5
2A1
102
{ACAD_REACTORS
330
1A
102
}
100
AcDbPlotSettings
  1

  2
none_device
  4
ANSI_C_(22.00_x_17.00_Inches)
  6

 40
0.0
 41
0.0
 42
0.0
 43
0.0
 44
558.8
 45
431.8
 46
0.0
 47
0.0
 48
0.0
 49
0.0
140
0.0
141
0.0
142
1.0
143
1.0
 70
1024
 72
0
 73
0
 74
0
  7

 75
0
147
1.0
148
0.0
149
0.0
100
AcDbLayout
  1
Model
 70
0
 71
0
 10
0.0
 20
0.0
 11
22.0
 21
17.0
 12
0.0
 22
0.0
 32
0.0
 14
0.0
 24
0.0
 34
0.0
 15
0.0
 25
0.0
 35
0.0
146
0.0
 13
0.0
 23
0.0
 33
0.0
 16
1.0
 26
0.0
 36
0.0
 17
0.0
 27
1.0
 37
0.0
 76
0
330
202
345
0
346
0
  0
LAYOUT
  5
2A2
102
{ACAD_REACTORS
330
1A
102
}
100
AcDbPlotSettings
  1

  2
none_device
  4
ANSI_C_(22.00_x_17.00_Inches)
  6

 40
0.0
 41
0.0
 42
0.0
 43
0.0
 44
558.8
 45
431.8
 46
0.0
 47
0.0
 48
0.0
 49
0.0
140
0.0
141
0.0
142
1.0
143
1.0
 70
0
 72
0
 73
0
 74
0
  7

 75
0
147
1.0
148
0.0
149
0.0
100
AcDbLayout
  1
Layout1
 70
0
 71
1
 10
0.0
 20
0.0
 11
22.0
 21
17.0
 12
0.0
 22
0.0
 32
0.0
 14
0.0
 24
0.0
 34
0.0
 15
0.0
 25
0.0
 35
0.0
146
0.0
 13
0.0
 23
0.0
 33
0.0
 16
1.0
 26
0.0
 36
0.0
 17
0.0
 27
1.0
 37
0.0
 76
0
330
203
345
0
346
0
  0
ENDSEC
  0
EOF
