999
DXF file: 1-339_Right.dxf
999
Pro/ENGINEER 2023134 by Parametric Technology Corporation
  0
SECTION
  2
HEADER
  9
$ACADVER
  1
AC1032
  9
$DWGCODEPAGE
  3
ANSI_1252
  9
$EXTMAX
 10
11.0
 20
8.5
 30
0.0
  9
$EXTMIN
 10
0.0
 20
0.0
 30
0.0
  9
$LIMMIN
 10
0.0
 20
0.0
  9
$LIMMAX
 10
11.0
 20
8.5
  9
$VIEWCTR
 10
5.5
 20
4.25
  9
$VIEWSIZE
 40
8.5
  9
$CLAYER
  8
0
  9
$LTSCALE
 40
0.605
  9
$CELTYPE
  6
BYLAYER
  9
$DIMSCALE
 40
1.0
  9
$DIMASZ
 40
0.1
  9
$DIMEXO
 40
0.0625
  9
$DIMDLI
 40
0.418
  9
$DIMEXE
 40
0.125
  9
$DIMCEN
 40
0.099
  9
$DIMLFAC
 40
1.0
  9
$DIMBLK
  1
_FILLED
  9
$DIMALT
 70
1
  9
$DIMALTD
 70
2
  9
$DIMALTTD
 70
2
  9
$DIMALTF
 40
25.4
  9
$DIMTXT
 40
0.08
  9
$DIMTOL
 70
1
  9
$DIMLIM
 70
0
  9
$DIMTFAC
 40
1.0
  9
$DIMTP
 40
0.001
  9
$DIMTM
 40
0.001
  9
$DIMGAP
 40
0.09
  9
$DIMDSEP
 70
46
  9
$AUNITS
 70
0
  9
$PDMODE
 70
3
  9
$PDSIZE
 40
0.3125
  9
$HANDSEED
  5
340
  9
$TILEMODE
 70
1
  9
$MEASUREMENT
 70
0
  9
$INSUNITS
 70
1
  0
ENDSEC
  0
SECTION
  2
CLASSES
  0
CLASS
  1
ACDBDICTIONARYWDFLT
  2
AcDbDictionaryWithDefault
  3
AutoCAD 2000
 90
0
 91
1
280
0
281
0
  0
CLASS
  1
ACDBPLACEHOLDER
  2
AcDbPlaceHolder
  3
AutoCAD 2000
 90
0
 91
1
280
0
281
0
  0
CLASS
  1
LAYOUT
  2
AcDbLayout
  3
AutoCAD 2000
 90
0
 91
0
280
0
281
0
  0
ENDSEC
  0
SECTION
  2
TABLES
  0
TABLE
  2
VPORT
  5
8
100
AcDbSymbolTable
 70
2
  0
VPORT
  5
1F4
100
AcDbSymbolTableRecord
100
AcDbViewportTableRecord
  2
*ACTIVE
 70
0
 10
0.0
 20
0.0
 11
1.0
 21
1.0
 12
5.5
 22
4.25
 13
0.0
 23
0.0
 14
1.0
 24
1.0
 15
0.0
 25
0.0
 16
0.0
 26
0.0
 36
1.0
 17
0.0
 27
0.0
 37
0.0
 40
8.5
 41
1.2941176471
 42
50.0
 43
0.0
 44
0.0
 50
0.0
 51
0.0
 71
0
 72
100
 73
1
 74
1
 75
0
 76
0
 77
0
 78
0
  0
ENDTAB
  0
TABLE
  2
LTYPE
  5
5
100
AcDbSymbolTable
 70
6
  0
LTYPE
  5
14
100
AcDbSymbolTableRecord
100
AcDbLinetypeTableRecord
  2
BYBLOCK
 70
0
  3

 72
65
 73
0
 40
0.0
  0
LTYPE
  5
15
100
AcDbSymbolTableRecord
100
AcDbLinetypeTableRecord
  2
BYLAYER
 70
0
  3

 72
65
 73
0
 40
0.0
  0
LTYPE
  5
16
100
AcDbSymbolTableRecord
100
AcDbLinetypeTableRecord
  2
CONTINUOUS
 70
64
  3
Solid line
 72
65
 73
0
 40
0.0
  0
LTYPE
  5
1F5
100
AcDbSymbolTableRecord
100
AcDbLinetypeTableRecord
  2
CENTER
 70
64
  3
____ _ ____ _ ____ _ ____ _ ____ _ ____ _ ____
 72
65
 73
4
 40
0.6
 49
0.375
 74
0
 49
-0.075
 74
0
 49
0.075
 74
0
 49
-0.075
 74
0
  0
LTYPE
  5
1F6
100
AcDbSymbolTableRecord
100
AcDbLinetypeTableRecord
  2
HIDDEN
 70
64
  3
- - - - - - - - - - - - - - - - - - - -
 72
65
 73
2
 40
0.2
 49
0.1
 74
0
 49
-0.1
 74
0
  0
LTYPE
  5
1F7
100
AcDbSymbolTableRecord
100
AcDbLinetypeTableRecord
  2
PHANTOM
 70
64
  3
_____ _ _ _____ _ _ _____ _ _ _____
 72
65
 73
6
 40
0.8
 49
0.45
 74
0
 49
-0.05
 74
0
 49
0.1
 74
0
 49
-0.05
 74
0
 49
0.1
 74
0
 49
-0.05
 74
0
  0
LTYPE
  5
1F8
100
AcDbSymbolTableRecord
100
AcDbLinetypeTableRecord
  2
DOT
 70
64
  3
. . . . . . . . . . . . . . . . . . . .
 72
65
 73
2
 40
0.2
 49
0.1
 74
0
 49
-0.1
 74
0
  0
LTYPE
  5
1F9
100
AcDbSymbolTableRecord
100
AcDbLinetypeTableRecord
  2
DASHED
 70
64
  3
- - - - - - - - - - - - - - - - - - - -
 72
65
 73
2
 40
0.2
 49
0.1
 74
0
 49
-0.1
 74
0
  0
ENDTAB
  0
TABLE
  2
LAYER
  5
2
100
AcDbSymbolTable
 70
36
  0
LAYER
  5
10
100
AcDbSymbolTableRecord
100
AcDbLayerTableRecord
  2
0
 70
0
 62
7
  6
CONTINUOUS
370
-3
390
F
  0
LAYER
  5
1FA
100
AcDbSymbolTableRecord
100
AcDbLayerTableRecord
  2
DEFAULT_1
 70
0
 62
7
  6
CENTER
370
-3
390
F
  0
LAYER
  5
1FB
100
AcDbSymbolTableRecord
100
AcDbLayerTableRecord
  2
DEFAULT_2
 70
0
 62
8
  6
HIDDEN
370
-3
390
F
  0
LAYER
  5
1FC
100
AcDbSymbolTableRecord
100
AcDbLayerTableRecord
  2
DEFAULT_3
 70
0
 62
7
  6
PHANTOM
370
-3
390
F
  0
LAYER
  5
1FD
100
AcDbSymbolTableRecord
100
AcDbLayerTableRecord
  2
DEFAULT_COORDINATE_SYSTEM
 70
0
 62
7
  6
CONTINUOUS
370
-3
390
F
  0
LAYER
  5
1FE
100
AcDbSymbolTableRecord
100
AcDbLayerTableRecord
  2
DEFAULT_DATUM_AXES
 70
0
 62
7
  6
CONTINUOUS
370
-3
390
F
  0
LAYER
  5
1FF
100
AcDbSymbolTableRecord
100
AcDbLayerTableRecord
  2
DEFAULT_DATUM_CURVES
 70
0
 62
7
  6
CONTINUOUS
370
-3
390
F
  0
LAYER
  5
200
100
AcDbSymbolTableRecord
100
AcDbLayerTableRecord
  2
DEFAULT_DATUM_PLANES
 70
0
 62
7
  6
CONTINUOUS
370
-3
390
F
  0
ENDTAB
  0
TABLE
  2
STYLE
  5
3
100
AcDbSymbolTable
 70
1
  0
STYLE
  5
11
100
AcDbSymbolTableRecord
100
AcDbTextStyleTableRecord
  2
STANDARD
 70
0
 40
0.0
 41
0.8
 50
0.0
 71
0
 42
0.2
  3
txt
  4

  0
STYLE
  5
201
100
AcDbSymbolTableRecord
100
AcDbTextStyleTableRecord
  2
TEXTSTYLE_1
 70
0
 40
0.0
 41
0.8
 50
0.0
 71
0
 42
0.2
  3
gdt
  4

  0
ENDTAB
  0
TABLE
  2
VIEW
  5
6
100
AcDbSymbolTable
 70
0
  0
ENDTAB
  0
TABLE
  2
UCS
  5
7
100
AcDbSymbolTable
 70
0
  0
ENDTAB
  0
TABLE
  2
APPID
  5
9
100
AcDbSymbolTable
 70
1
  0
APPID
  5
202
100
AcDbSymbolTableRecord
100
AcDbRegAppTableRecord
  2
ACAD
 70
0
  0
ENDTAB
  0
TABLE
  2
BLOCK_RECORD
  5
1
100
AcDbSymbolTable
 70
0
  0
BLOCK_RECORD
  5
203
100
AcDbSymbolTableRecord
100
AcDbBlockTableRecord
  2
*Model_Space
  0
BLOCK_RECORD
  5
204
100
AcDbSymbolTableRecord
100
AcDbBlockTableRecord
  2
*Paper_Space
  0
BLOCK_RECORD
  5
205
100
AcDbSymbolTableRecord
100
AcDbBlockTableRecord
  2
_FILLED
  0
ENDTAB
  0
TABLE
  2
DIMSTYLE
  5
A
100
AcDbSymbolTable
 70
1
100
AcDbDimStyleTable
 71
0
  0
DIMSTYLE
105
206
100
AcDbSymbolTableRecord
100
AcDbDimStyleTableRecord
  2
STANDARD
 70
0
  3

  4

 40
1.0
 41
0.1
 42
0.0625
 43
0.38
 44
0.125
 45
0.0
 46
0.0
 47
0.001
 48
0.001
140
0.08
141
0.09
142
0.0
143
25.4
144
1.0
145
0.0
146
1.0
147
0.09
 71
1
 72
0
 73
1
 74
1
 75
0
 76
0
 77
0
 78
4
 79
1
170
1
171
2
172
0
173
0
174
0
175
0
176
0
177
0
178
0
270
2
179
3
271
3
272
3
273
2
274
2
275
0
280
0
281
0
282
0
283
1
284
4
285
0
286
0
287
3
288
0
340
11
278
46
341
205
342
205
343
205
344
205
  0
ENDTAB
  0
ENDSEC
  0
SECTION
  2
BLOCKS
  0
BLOCK
  5
20
100
AcDbEntity
  8
0
100
AcDbBlockBegin
  2
*Model_Space
 70
0
 10
0.0
 20
0.0
 30
0.0
  3
*Model_Space
  1

  0
ENDBLK
  5
21
100
AcDbEntity
  8
0
100
AcDbBlockEnd
  0
BLOCK
  5
1C
100
AcDbEntity
  8
0
100
AcDbBlockBegin
  2
*Paper_Space
 70
0
 10
0.0
 20
0.0
 30
0.0
  3
*Paper_Space
  1

  0
ENDBLK
  5
1D
100
AcDbEntity
  8
0
100
AcDbBlockEnd
  0
BLOCK
  5
207
100
AcDbEntity
  8
0
100
AcDbBlockBegin
  2
_FILLED
 70
64
 10
0.0
 20
0.0
  3
_FILLED
  1

  0
SOLID
  5
208
100
AcDbEntity
  8
0
  6
BYBLOCK
 62
0
100
AcDbTrace
 10
0.0
 20
0.0
 11
-1.0
 21
0.2
 12
-1.0
 22
-0.2
 13
-1.0
 23
-0.2
  0
ENDBLK
  5
209
100
AcDbEntity
  8
0
  6
BYBLOCK
 62
0
100
AcDbBlockEnd
  0
ENDSEC
  0
SECTION
  2
ENTITIES
  0
MTEXT
  5
20A
100
AcDbEntity
  8
0
100
AcDbMText
 62
2
  6
CONTINUOUS
  7
STANDARD
 71
2
 72
1
 10
5.6329973591
 20
1.4954902129
 30
0.0
 11
1.0
 21
0.0
 31
0.0
 73
2
 44
0.9
  1
SCALE 1.000
 40
0.08
 41
0.704
  0
LINE
  5
20B
100
AcDbEntity
  8
0
100
AcDbLine
 62
7
  6
CONTINUOUS
 10
0.0
 20
0.0
 11
0.0
 21
8.5
  0
LINE
  5
20C
100
AcDbEntity
  8
0
100
AcDbLine
 62
7
  6
CONTINUOUS
 10
0.0
 20
0.0
 11
11.0
 21
0.0
  0
LINE
  5
20D
100
AcDbEntity
  8
0
100
AcDbLine
 62
7
  6
CONTINUOUS
 10
0.0
 20
8.5
 11
11.0
 21
8.5
  0
LINE
  5
20E
100
AcDbEntity
  8
0
100
AcDbLine
 62
7
  6
CONTINUOUS
 10
11.0
 20
0.0
 11
11.0
 21
8.5
  0
LINE
  5
20F
100
AcDbEntity
  8
0
100
AcDbLine
 62
7
  6
CONTINUOUS
 10
1.9015063605
 20
2.4633525069
 11
1.9015063605
 21
2.2633525069
  0
LINE
  5
210
100
AcDbEntity
  8
0
100
AcDbLine
 62
7
  6
CONTINUOUS
 10
2.8265063605
 20
6.7633525069
 11
2.8265063605
 21
2.5433525069
  0
LINE
  5
211
100
AcDbEntity
  8
0
100
AcDbLine
 62
7
  6
CONTINUOUS
 10
2.8965063605
 20
6.7933525069
 11
2.8965063605
 21
6.7633525069
  0
LINE
  5
212
100
AcDbEntity
  8
0
100
AcDbLine
 62
7
  6
CONTINUOUS
 10
1.9015063605
 20
2.2633525069
 11
9.1015063605
 21
2.2633525069
  0
LINE
  5
213
100
AcDbEntity
  8
0
100
AcDbLine
 62
7
  6
CONTINUOUS
 10
1.9015063605
 20
2.4633525069
 11
9.1015063605
 21
2.4633525069
  0
LINE
  5
214
100
AcDbEntity
  8
0
100
AcDbLine
 62
7
  6
CONTINUOUS
 10
2.8265063605
 20
2.5433525069
 11
8.1765063605
 21
2.5433525069
  0
LINE
  5
215
100
AcDbEntity
  8
0
100
AcDbLine
 62
7
  6
CONTINUOUS
 10
9.2278851434
 20
2.9896378682
 11
9.2278801434
 21
2.9896377014
  0
LINE
  5
216
100
AcDbEntity
  8
0
100
AcDbLine
 62
7
  6
CONTINUOUS
 10
8.7690974466
 20
2.9398668073
 11
8.7779213605
 21
2.9400802891
  0
LINE
  5
217
100
AcDbEntity
  8
0
100
AcDbLine
 62
7
  6
CONTINUOUS
 10
8.8405437587
 20
2.9415953471
 11
8.8493513605
 21
2.9418084343
  0
LINE
  5
218
100
AcDbEntity
  8
0
100
AcDbLine
 62
7
  6
CONTINUOUS
 10
8.9119737587
 20
2.9433234923
 11
8.9207813605
 21
2.9435365794
  0
LINE
  5
219
100
AcDbEntity
  8
0
100
AcDbLine
 62
7
  6
CONTINUOUS
 10
8.9834037587
 20
2.9450516375
 11
8.9922113605
 21
2.9452647246
  0
LINE
  5
21A
100
AcDbEntity
  8
0
100
AcDbLine
 62
7
  6
CONTINUOUS
 10
9.0548337587
 20
2.9467797826
 11
9.0636413605
 21
2.9469928698
  0
LINE
  5
21B
100
AcDbEntity
  8
0
100
AcDbLine
 62
7
  6
CONTINUOUS
 10
9.1262637587
 20
2.9485079278
 11
9.1350713605
 21
2.9487210149
  0
LINE
  5
21C
100
AcDbEntity
  8
0
100
AcDbLine
 62
7
  6
CONTINUOUS
 10
9.1976937587
 20
2.9502360729
 11
9.2065013605
 21
2.9504491601
  0
LINE
  5
21D
100
AcDbEntity
  8
0
100
AcDbLine
 62
7
  6
CONTINUOUS
 10
9.2691237587
 20
2.9519642181
 11
9.2779313605
 21
2.9521773053
  0
LINE
  5
21E
100
AcDbEntity
  8
0
100
AcDbLine
 62
7
  6
CONTINUOUS
 10
8.7451648912
 20
2.9774971103
 11
8.7273901104
 21
2.9770674589
  0
LINE
  5
21F
100
AcDbEntity
  8
0
100
AcDbLine
 62
7
  6
CONTINUOUS
 10
9.3170770864
 20
2.991795692
 11
9.2993101434
 21
2.9913658466
  0
LINE
  5
220
100
AcDbEntity
  8
0
100
AcDbLine
 62
7
  6
CONTINUOUS
 10
9.2456479147
 20
2.9900675669
 11
9.2278801434
 21
2.9896377014
  0
LINE
  5
221
100
AcDbEntity
  8
0
100
AcDbLine
 62
7
  6
CONTINUOUS
 10
9.1742187394
 20
2.9883394417
 11
9.1564501434
 21
2.9879095563
  0
LINE
  5
222
100
AcDbEntity
  8
0
100
AcDbLine
 62
7
  6
CONTINUOUS
 10
9.1027895581
 20
2.9866113163
 11
9.0850201434
 21
2.9861814111
  0
LINE
  5
223
100
AcDbEntity
  8
0
100
AcDbLine
 62
7
  6
CONTINUOUS
 10
9.0313603708
 20
2.9848831908
 11
9.0135901434
 21
2.984453266
  0
LINE
  5
224
100
AcDbEntity
  8
0
100
AcDbLine
 62
7
  6
CONTINUOUS
 10
8.9599311778
 20
2.9831550652
 11
8.9421601434
 21
2.9827251208
  0
LINE
  5
225
100
AcDbEntity
  8
0
100
AcDbLine
 62
7
  6
CONTINUOUS
 10
8.888501979
 20
2.9814269394
 11
8.8707301434
 21
2.9809969756
  0
LINE
  5
226
100
AcDbEntity
  8
0
100
AcDbLine
 62
7
  6
CONTINUOUS
 10
8.8170727744
 20
2.9796988135
 11
8.7993001434
 21
2.9792688305
  0
LINE
  5
227
100
AcDbEntity
  8
0
100
AcDbLine
 62
7
  6
CONTINUOUS
 10
8.7449432
 20
2.9779541657
 11
8.7278851434
 21
2.9775414711
  0
LINE
  5
228
100
AcDbEntity
  8
0
100
AcDbLine
 62
7
  6
CONTINUOUS
 10
8.1765063605
 20
2.9318525069
 11
8.3765063605
 21
2.9318525069
  0
LINE
  5
229
100
AcDbEntity
  8
0
100
AcDbLine
 62
7
  6
CONTINUOUS
 10
8.7065063605
 20
2.9383525069
 11
8.3765063605
 21
2.9383525069
  0
LINE
  5
22A
100
AcDbEntity
  8
0
100
AcDbLine
 62
7
  6
CONTINUOUS
 10
8.1765063605
 20
2.96839712
 11
8.3765063605
 21
2.96839712
  0
LINE
  5
22B
100
AcDbEntity
  8
0
100
AcDbLine
 62
7
  6
CONTINUOUS
 10
9.2278851434
 20
3.4896378682
 11
9.2278801434
 21
3.4896377014
  0
LINE
  5
22C
100
AcDbEntity
  8
0
100
AcDbLine
 62
7
  6
CONTINUOUS
 10
8.7690974466
 20
3.4398668073
 11
8.7779213605
 21
3.4400802891
  0
LINE
  5
22D
100
AcDbEntity
  8
0
100
AcDbLine
 62
7
  6
CONTINUOUS
 10
8.8405437587
 20
3.4415953471
 11
8.8493513605
 21
3.4418084343
  0
LINE
  5
22E
100
AcDbEntity
  8
0
100
AcDbLine
 62
7
  6
CONTINUOUS
 10
8.9119737587
 20
3.4433234923
 11
8.9207813605
 21
3.4435365794
  0
LINE
  5
22F
100
AcDbEntity
  8
0
100
AcDbLine
 62
7
  6
CONTINUOUS
 10
8.9834037587
 20
3.4450516375
 11
8.9922113605
 21
3.4452647246
  0
LINE
  5
230
100
AcDbEntity
  8
0
100
AcDbLine
 62
7
  6
CONTINUOUS
 10
9.0548337587
 20
3.4467797826
 11
9.0636413605
 21
3.4469928698
  0
LINE
  5
231
100
AcDbEntity
  8
0
100
AcDbLine
 62
7
  6
CONTINUOUS
 10
9.1262637587
 20
3.4485079278
 11
9.1350713605
 21
3.4487210149
  0
LINE
  5
232
100
AcDbEntity
  8
0
100
AcDbLine
 62
7
  6
CONTINUOUS
 10
9.1976937587
 20
3.4502360729
 11
9.2065013605
 21
3.4504491601
  0
LINE
  5
233
100
AcDbEntity
  8
0
100
AcDbLine
 62
7
  6
CONTINUOUS
 10
9.2691237587
 20
3.4519642181
 11
9.2779313605
 21
3.4521773053
  0
LINE
  5
234
100
AcDbEntity
  8
0
100
AcDbLine
 62
7
  6
CONTINUOUS
 10
8.7451648912
 20
3.4774971103
 11
8.7273901104
 21
3.4770674589
  0
LINE
  5
235
100
AcDbEntity
  8
0
100
AcDbLine
 62
7
  6
CONTINUOUS
 10
9.3170770864
 20
3.491795692
 11
9.2993101434
 21
3.4913658466
  0
LINE
  5
236
100
AcDbEntity
  8
0
100
AcDbLine
 62
7
  6
CONTINUOUS
 10
9.2456479147
 20
3.4900675669
 11
9.2278801434
 21
3.4896377014
  0
LINE
  5
237
100
AcDbEntity
  8
0
100
AcDbLine
 62
7
  6
CONTINUOUS
 10
9.1742187394
 20
3.4883394417
 11
9.1564501434
 21
3.4879095563
  0
LINE
  5
238
100
AcDbEntity
  8
0
100
AcDbLine
 62
7
  6
CONTINUOUS
 10
9.1027895581
 20
3.4866113163
 11
9.0850201434
 21
3.4861814111
  0
LINE
  5
239
100
AcDbEntity
  8
0
100
AcDbLine
 62
7
  6
CONTINUOUS
 10
9.0313603708
 20
3.4848831908
 11
9.0135901434
 21
3.484453266
  0
LINE
  5
23A
100
AcDbEntity
  8
0
100
AcDbLine
 62
7
  6
CONTINUOUS
 10
8.9599311778
 20
3.4831550652
 11
8.9421601434
 21
3.4827251208
  0
LINE
  5
23B
100
AcDbEntity
  8
0
100
AcDbLine
 62
7
  6
CONTINUOUS
 10
8.888501979
 20
3.4814269394
 11
8.8707301434
 21
3.4809969756
  0
LINE
  5
23C
100
AcDbEntity
  8
0
100
AcDbLine
 62
7
  6
CONTINUOUS
 10
8.8170727744
 20
3.4796988135
 11
8.7993001434
 21
3.4792688305
  0
LINE
  5
23D
100
AcDbEntity
  8
0
100
AcDbLine
 62
7
  6
CONTINUOUS
 10
8.7449432
 20
3.4779541657
 11
8.7278851434
 21
3.4775414711
  0
LINE
  5
23E
100
AcDbEntity
  8
0
100
AcDbLine
 62
7
  6
CONTINUOUS
 10
8.1765063605
 20
3.4268078937
 11
8.3765063605
 21
3.4268078937
  0
LINE
  5
23F
100
AcDbEntity
  8
0
100
AcDbLine
 62
7
  6
CONTINUOUS
 10
8.1765063605
 20
3.4318525069
 11
8.3765063605
 21
3.4318525069
  0
LINE
  5
240
100
AcDbEntity
  8
0
100
AcDbLine
 62
7
  6
CONTINUOUS
 10
8.7065063605
 20
3.4383525069
 11
8.3765063605
 21
3.4383525069
  0
LINE
  5
241
100
AcDbEntity
  8
0
100
AcDbLine
 62
7
  6
CONTINUOUS
 10
8.1765063605
 20
3.46839712
 11
8.3765063605
 21
3.46839712
  0
LINE
  5
242
100
AcDbEntity
  8
0
100
AcDbLine
 62
7
  6
CONTINUOUS
 10
7.6303832163
 20
3.9133525069
 11
8.1765063605
 21
3.9133525069
  0
LINE
  5
243
100
AcDbEntity
  8
0
100
AcDbLine
 62
7
  6
CONTINUOUS
 10
8.1765063605
 20
3.9268078937
 11
8.3765063605
 21
3.9268078937
  0
LINE
  5
244
100
AcDbEntity
  8
0
100
AcDbLine
 62
7
  6
CONTINUOUS
 10
8.1765063605
 20
3.99989712
 11
8.3765063605
 21
3.99989712
  0
LINE
  5
245
100
AcDbEntity
  8
0
100
AcDbLine
 62
7
  6
CONTINUOUS
 10
8.7065063605
 20
4.1227194254
 11
8.7245010949
 21
4.1225872703
  0
LINE
  5
246
100
AcDbEntity
  8
0
100
AcDbLine
 62
7
  6
CONTINUOUS
 10
9.3199800518
 20
2.987041022
 11
9.320261525
 21
2.9869547593
  0
LINE
  5
247
100
AcDbEntity
  8
0
100
AcDbLine
 62
7
  6
CONTINUOUS
 10
8.1765063605
 20
4.4583078937
 11
8.3765063605
 21
4.4583078937
  0
LINE
  5
248
100
AcDbEntity
  8
0
100
AcDbLine
 62
7
  6
CONTINUOUS
 10
8.7065063605
 20
4.4883525069
 11
8.3765063605
 21
4.4883525069
  0
LINE
  5
249
100
AcDbEntity
  8
0
100
AcDbLine
 62
7
  6
CONTINUOUS
 10
8.1765063605
 20
4.4948525069
 11
8.3765063605
 21
4.4948525069
  0
LINE
  5
24A
100
AcDbEntity
  8
0
100
AcDbLine
 62
7
  6
CONTINUOUS
 10
8.7638260075
 20
4.4482944285
 11
8.7815798778
 21
4.4478648994
  0
LINE
  5
24B
100
AcDbEntity
  8
0
100
AcDbLine
 62
7
  6
CONTINUOUS
 10
8.8352568676
 20
4.4465662625
 11
8.8530098778
 21
4.4461367542
  0
LINE
  5
24C
100
AcDbEntity
  8
0
100
AcDbLine
 62
7
  6
CONTINUOUS
 10
8.906687734
 20
4.4448380964
 11
8.9244398778
 21
4.444408609
  0
LINE
  5
24D
100
AcDbEntity
  8
0
100
AcDbLine
 62
7
  6
CONTINUOUS
 10
8.9781186066
 20
4.4431099301
 11
8.9958698778
 21
4.4426804639
  0
LINE
  5
24E
100
AcDbEntity
  8
0
100
AcDbLine
 62
7
  6
CONTINUOUS
 10
9.0495494854
 20
4.4413817637
 11
9.0672998778
 21
4.4409523187
  0
LINE
  5
24F
100
AcDbEntity
  8
0
100
AcDbLine
 62
7
  6
CONTINUOUS
 10
9.1209803707
 20
4.4396535971
 11
9.1387298778
 21
4.4392241736
  0
LINE
  5
250
100
AcDbEntity
  8
0
100
AcDbLine
 62
7
  6
CONTINUOUS
 10
9.1924112623
 20
4.4379254304
 11
9.2101598778
 21
4.4374960284
  0
LINE
  5
251
100
AcDbEntity
  8
0
100
AcDbLine
 62
7
  6
CONTINUOUS
 10
9.2638421605
 20
4.4361972635
 11
9.2815898778
 21
4.4357678832
  0
LINE
  5
252
100
AcDbEntity
  8
0
100
AcDbLine
 62
7
  6
CONTINUOUS
 10
8.7065063605
 20
4.4883525069
 11
8.7422063605
 21
4.4874887972
  0
LINE
  5
253
100
AcDbEntity
  8
0
100
AcDbLine
 62
7
  6
CONTINUOUS
 10
8.8048287587
 20
4.4859737392
 11
8.8136363605
 21
4.485760652
  0
LINE
  5
254
100
AcDbEntity
  8
0
100
AcDbLine
 62
7
  6
CONTINUOUS
 10
8.8762587587
 20
4.484245594
 11
8.8850663605
 21
4.4840325069
  0
LINE
  5
255
100
AcDbEntity
  8
0
100
AcDbLine
 62
7
  6
CONTINUOUS
 10
8.9476887587
 20
4.4825174488
 11
8.9564963605
 21
4.4823043617
  0
LINE
  5
256
100
AcDbEntity
  8
0
100
AcDbLine
 62
7
  6
CONTINUOUS
 10
9.0191187587
 20
4.4807893037
 11
9.0279263605
 21
4.4805762165
  0
LINE
  5
257
100
AcDbEntity
  8
0
100
AcDbLine
 62
7
  6
CONTINUOUS
 10
9.0905487587
 20
4.4790611585
 11
9.0993563605
 21
4.4788480714
  0
LINE
  5
258
100
AcDbEntity
  8
0
100
AcDbLine
 62
7
  6
CONTINUOUS
 10
9.1619787587
 20
4.4773330134
 11
9.1707863605
 21
4.4771199262
  0
LINE
  5
259
100
AcDbEntity
  8
0
100
AcDbLine
 62
7
  6
CONTINUOUS
 10
9.2334087587
 20
4.4756048682
 11
9.2422163605
 21
4.4753917811
  0
LINE
  5
25A
100
AcDbEntity
  8
0
100
AcDbLine
 62
7
  6
CONTINUOUS
 10
8.0905457576
 20
4.6633525069
 11
8.1765063605
 21
4.6633525069
  0
LINE
  5
25B
100
AcDbEntity
  8
0
100
AcDbLine
 62
7
  6
CONTINUOUS
 10
8.1765063605
 20
4.7133525069
 11
8.0430404476
 21
4.7133525069
  0
LINE
  5
25C
100
AcDbEntity
  8
0
100
AcDbLine
 62
7
  6
CONTINUOUS
 10
8.9958798778
 20
4.4426800365
 11
8.9958698778
 21
4.4426804639
  0
LINE
  5
25D
100
AcDbEntity
  8
0
100
AcDbLine
 62
7
  6
CONTINUOUS
 10
9.0191187587
 20
4.4807893037
 11
9.0191287587
 21
4.4807888616
  0
LINE
  5
25E
100
AcDbEntity
  8
0
100
AcDbLine
 62
7
  6
CONTINUOUS
 10
8.9565063605
 20
4.482303919
 11
8.9564963605
 21
4.4823043617
  0
LINE
  5
25F
100
AcDbEntity
  8
0
100
AcDbLine
 62
7
  6
CONTINUOUS
 10
9.3199800518
 20
3.487041022
 11
9.320261525
 21
3.4869547593
  0
LINE
  5
260
100
AcDbEntity
  8
0
100
AcDbLine
 62
7
  6
CONTINUOUS
 10
8.7673114912
 20
2.9413054444
 11
8.7690974466
 21
2.9398668073
  0
LINE
  5
261
100
AcDbEntity
  8
0
100
AcDbLine
 62
7
  6
CONTINUOUS
 10
8.8401319252
 20
2.9419277102
 11
8.8405437587
 21
2.9415953471
  0
LINE
  5
262
100
AcDbEntity
  8
0
100
AcDbLine
 62
7
  6
CONTINUOUS
 10
8.9115605579
 20
2.9436569576
 11
8.9119737587
 21
2.9433234923
  0
LINE
  5
263
100
AcDbEntity
  8
0
100
AcDbLine
 62
7
  6
CONTINUOUS
 10
8.9829891814
 20
2.9453862123
 11
8.9834037587
 21
2.9450516375
  0
LINE
  5
264
100
AcDbEntity
  8
0
100
AcDbLine
 62
7
  6
CONTINUOUS
 10
9.2976900985
 20
4.462516829
 11
9.2979587167
 21
4.4625991731
  0
LINE
  5
265
100
AcDbEntity
  8
0
100
AcDbLine
 62
7
  6
CONTINUOUS
 10
9.2687059718
 20
2.9522994039
 11
9.2691237587
 21
2.9519642181
  0
LINE
  5
266
100
AcDbEntity
  8
0
100
AcDbLine
 62
7
  6
CONTINUOUS
 10
8.7673114912
 20
3.4413054444
 11
8.7690974466
 21
3.4398668073
  0
LINE
  5
267
100
AcDbEntity
  8
0
100
AcDbLine
 62
7
  6
CONTINUOUS
 10
9.0544177958
 20
2.9471154745
 11
9.0548337587
 21
2.9467797826
  0
LINE
  5
268
100
AcDbEntity
  8
0
100
AcDbLine
 62
7
  6
CONTINUOUS
 10
9.1258464009
 20
2.9488447441
 11
9.1262637587
 21
2.9485079278
  0
LINE
  5
269
100
AcDbEntity
  8
0
100
AcDbLine
 62
7
  6
CONTINUOUS
 10
9.1972749966
 20
2.9505740212
 11
9.1976937587
 21
2.9502360729
  0
LINE
  5
26A
100
AcDbEntity
  8
0
100
AcDbLine
 62
7
  6
CONTINUOUS
 10
8.8401319252
 20
3.4419277102
 11
8.8405437587
 21
3.4415953471
  0
LINE
  5
26B
100
AcDbEntity
  8
0
100
AcDbLine
 62
7
  6
CONTINUOUS
 10
9.2687059718
 20
3.4522994039
 11
9.2691237587
 21
3.4519642181
  0
LINE
  5
26C
100
AcDbEntity
  8
0
100
AcDbLine
 62
7
  6
CONTINUOUS
 10
8.9115605579
 20
3.4436569576
 11
8.9119737587
 21
3.4433234923
  0
LINE
  5
26D
100
AcDbEntity
  8
0
100
AcDbLine
 62
7
  6
CONTINUOUS
 10
8.9829891814
 20
3.4453862123
 11
8.9834037587
 21
3.4450516375
  0
LINE
  5
26E
100
AcDbEntity
  8
0
100
AcDbLine
 62
7
  6
CONTINUOUS
 10
9.0544177958
 20
3.4471154745
 11
9.0548337587
 21
3.4467797826
  0
LINE
  5
26F
100
AcDbEntity
  8
0
100
AcDbLine
 62
7
  6
CONTINUOUS
 10
9.1258464009
 20
3.4488447441
 11
9.1262637587
 21
3.4485079278
  0
LINE
  5
270
100
AcDbEntity
  8
0
100
AcDbLine
 62
7
  6
CONTINUOUS
 10
9.1972749966
 20
3.4505740212
 11
9.1976937587
 21
3.4502360729
  0
LINE
  5
271
100
AcDbEntity
  8
0
100
AcDbLine
 62
7
  6
CONTINUOUS
 10
7.6303832163
 20
3.9133525069
 11
7.6303832163
 21
2.5433525069
  0
LINE
  5
272
100
AcDbEntity
  8
0
100
AcDbLine
 62
7
  6
CONTINUOUS
 10
7.6701753071
 20
3.9133525069
 11
7.6701753071
 21
2.5433525069
  0
LINE
  5
273
100
AcDbEntity
  8
0
100
AcDbLine
 62
7
  6
CONTINUOUS
 10
8.8044176055
 20
4.4856419245
 11
8.8048287587
 21
4.4859737392
  0
LINE
  5
274
100
AcDbEntity
  8
0
100
AcDbLine
 62
7
  6
CONTINUOUS
 10
8.7673114912
 20
2.9413054444
 11
8.7449455886
 21
2.9778554363
  0
LINE
  5
275
100
AcDbEntity
  8
0
100
AcDbLine
 62
7
  6
CONTINUOUS
 10
8.8401319252
 20
2.9419277102
 11
8.8168506273
 21
2.9800626786
  0
LINE
  5
276
100
AcDbEntity
  8
0
100
AcDbLine
 62
7
  6
CONTINUOUS
 10
8.9115605579
 20
2.9436569576
 11
8.888279036
 21
2.9817921062
  0
LINE
  5
277
100
AcDbEntity
  8
0
100
AcDbLine
 62
7
  6
CONTINUOUS
 10
8.9829891814
 20
2.9453862123
 11
8.9597074332
 21
2.983521543
  0
LINE
  5
278
100
AcDbEntity
  8
0
100
AcDbLine
 62
7
  6
CONTINUOUS
 10
8.8758462427
 20
4.4839126807
 11
8.8762587587
 21
4.484245594
  0
LINE
  5
279
100
AcDbEntity
  8
0
100
AcDbLine
 62
7
  6
CONTINUOUS
 10
8.9472748708
 20
4.4821834297
 11
8.9476887587
 21
4.4825174488
  0
LINE
  5
27A
100
AcDbEntity
  8
0
100
AcDbLine
 62
7
  6
CONTINUOUS
 10
9.0187034898
 20
4.4804541712
 11
9.0191187587
 21
4.4807893037
  0
LINE
  5
27B
100
AcDbEntity
  8
0
100
AcDbLine
 62
7
  6
CONTINUOUS
 10
9.0901320995
 20
4.4787249054
 11
9.0905487587
 21
4.4790611585
  0
LINE
  5
27C
100
AcDbEntity
  8
0
100
AcDbLine
 62
7
  6
CONTINUOUS
 10
9.1615606999
 20
4.476995632
 11
9.1619787587
 21
4.4773330134
  0
LINE
  5
27D
100
AcDbEntity
  8
0
100
AcDbLine
 62
7
  6
CONTINUOUS
 10
9.2329892909
 20
4.4752663511
 11
9.2334087587
 21
4.4756048682
  0
LINE
  5
27E
100
AcDbEntity
  8
0
100
AcDbLine
 62
7
  6
CONTINUOUS
 10
2.8265063605
 20
6.7633525069
 11
8.1765063605
 21
6.7633525069
  0
LINE
  5
27F
100
AcDbEntity
  8
0
100
AcDbLine
 62
7
  6
CONTINUOUS
 10
2.8965063605
 20
6.7933525069
 11
8.1065063605
 21
6.7933525069
  0
LINE
  5
280
100
AcDbEntity
  8
0
100
AcDbLine
 62
7
  6
CONTINUOUS
 10
8.8140836434
 20
4.4853455546
 11
8.8136363605
 21
4.485760652
  0
LINE
  5
281
100
AcDbEntity
  8
0
100
AcDbLine
 62
7
  6
CONTINUOUS
 10
8.8855151265
 20
4.4836160349
 11
8.8850663605
 21
4.4840325069
  0
LINE
  5
282
100
AcDbEntity
  8
0
100
AcDbLine
 62
7
  6
CONTINUOUS
 10
9.0283781223
 20
4.4801569679
 11
9.0279263605
 21
4.4805762165
  0
LINE
  5
283
100
AcDbEntity
  8
0
100
AcDbLine
 62
7
  6
CONTINUOUS
 10
9.0998096352
 20
4.4784274205
 11
9.0993563605
 21
4.4788480714
  0
LINE
  5
284
100
AcDbEntity
  8
0
100
AcDbLine
 62
7
  6
CONTINUOUS
 10
8.7426521701
 20
4.4870750654
 11
8.7422063605
 21
4.4874887972
  0
LINE
  5
285
100
AcDbEntity
  8
0
100
AcDbLine
 62
7
  6
CONTINUOUS
 10
8.9569466194
 20
4.481886506
 11
8.9565063605
 21
4.482303919
  0
LINE
  5
286
100
AcDbEntity
  8
0
100
AcDbLine
 62
7
  6
CONTINUOUS
 10
8.7673114912
 20
3.4413054444
 11
8.7449455886
 21
3.4778554363
  0
LINE
  5
287
100
AcDbEntity
  8
0
100
AcDbLine
 62
7
  6
CONTINUOUS
 10
9.0544177958
 20
2.9471154745
 11
9.0311358188
 21
2.9852509892
  0
LINE
  5
288
100
AcDbEntity
  8
0
100
AcDbLine
 62
7
  6
CONTINUOUS
 10
9.1258464009
 20
2.9488447441
 11
9.1025641928
 21
2.9869804447
  0
LINE
  5
289
100
AcDbEntity
  8
0
100
AcDbLine
 62
7
  6
CONTINUOUS
 10
8.8401319252
 20
3.4419277102
 11
8.8168506273
 21
3.4800626786
  0
LINE
  5
28A
100
AcDbEntity
  8
0
100
AcDbLine
 62
7
  6
CONTINUOUS
 10
9.1972749966
 20
2.9505740212
 11
9.1739925549
 21
2.9887099097
  0
LINE
  5
28B
100
AcDbEntity
  8
0
100
AcDbLine
 62
7
  6
CONTINUOUS
 10
8.9115605579
 20
3.4436569576
 11
8.888279036
 21
3.4817921062
  0
LINE
  5
28C
100
AcDbEntity
  8
0
100
AcDbLine
 62
7
  6
CONTINUOUS
 10
9.2687035828
 20
2.952303306
 11
9.2454209051
 21
2.9904393843
  0
LINE
  5
28D
100
AcDbEntity
  8
0
100
AcDbLine
 62
7
  6
CONTINUOUS
 10
8.9829891814
 20
3.4453862123
 11
8.9597074332
 21
3.483521543
  0
LINE
  5
28E
100
AcDbEntity
  8
0
100
AcDbLine
 62
7
  6
CONTINUOUS
 10
8.1065063605
 20
6.7933525069
 11
8.1065063605
 21
6.7633525069
  0
LINE
  5
28F
100
AcDbEntity
  8
0
100
AcDbLine
 62
7
  6
CONTINUOUS
 10
8.1765063605
 20
2.5433525069
 11
8.1765063605
 21
6.7633525069
  0
LINE
  5
290
100
AcDbEntity
  8
0
100
AcDbLine
 62
7
  6
CONTINUOUS
 10
9.1712411583
 20
4.4766978636
 11
9.1707863605
 21
4.4771199262
  0
LINE
  5
291
100
AcDbEntity
  8
0
100
AcDbLine
 62
7
  6
CONTINUOUS
 10
9.2422163605
 20
4.4753917811
 11
9.2426726917
 21
4.4749682973
  0
LINE
  5
292
100
AcDbEntity
  8
0
100
AcDbLine
 62
7
  6
CONTINUOUS
 10
9.3265063605
 20
4.4333525069
 11
9.2979587167
 21
4.4625991731
  0
LINE
  5
293
100
AcDbEntity
  8
0
100
AcDbLine
 62
7
  6
CONTINUOUS
 10
9.3199800518
 20
2.987041022
 11
9.3168492432
 21
2.9921688687
  0
LINE
  5
294
100
AcDbEntity
  8
0
100
AcDbLine
 62
7
  6
CONTINUOUS
 10
9.0544177958
 20
3.4471154745
 11
9.0311358188
 21
3.4852509892
  0
LINE
  5
295
100
AcDbEntity
  8
0
100
AcDbLine
 62
7
  6
CONTINUOUS
 10
9.1258464009
 20
3.4488447441
 11
9.1025641928
 21
3.4869804447
  0
LINE
  5
296
100
AcDbEntity
  8
0
100
AcDbLine
 62
7
  6
CONTINUOUS
 10
9.1972749966
 20
3.4505740212
 11
9.1739925549
 21
3.4887099097
  0
LINE
  5
297
100
AcDbEntity
  8
0
100
AcDbLine
 62
7
  6
CONTINUOUS
 10
9.2687035828
 20
3.452303306
 11
9.2454209051
 21
3.4904393843
  0
LINE
  5
298
100
AcDbEntity
  8
0
100
AcDbLine
 62
7
  6
CONTINUOUS
 10
9.3199800518
 20
3.487041022
 11
9.3168492432
 21
3.4921688687
  0
LINE
  5
299
100
AcDbEntity
  8
0
100
AcDbLine
 62
7
  6
CONTINUOUS
 10
8.3765063605
 20
4.4948525069
 11
8.3765063605
 21
2.9318525069
  0
LINE
  5
29A
100
AcDbEntity
  8
0
100
AcDbLine
 62
7
  6
CONTINUOUS
 10
8.781415984
 20
4.4479649596
 11
8.8044176055
 21
4.4856419245
  0
LINE
  5
29B
100
AcDbEntity
  8
0
100
AcDbLine
 62
7
  6
CONTINUOUS
 10
8.8528453985
 20
4.4462371725
 11
8.8758462427
 21
4.4839126807
  0
LINE
  5
29C
100
AcDbEntity
  8
0
100
AcDbLine
 62
7
  6
CONTINUOUS
 10
8.9242748088
 20
4.4445093878
 11
8.9472748708
 21
4.4821834297
  0
LINE
  5
29D
100
AcDbEntity
  8
0
100
AcDbLine
 62
7
  6
CONTINUOUS
 10
8.9957042149
 20
4.4427816058
 11
9.0187034898
 21
4.4804541712
  0
LINE
  5
29E
100
AcDbEntity
  8
0
100
AcDbLine
 62
7
  6
CONTINUOUS
 10
8.7069364371
 20
3.4387651964
 11
8.7065063605
 21
3.4383529639
  0
LINE
  5
29F
100
AcDbEntity
  8
0
100
AcDbLine
 62
7
  6
CONTINUOUS
 10
8.7426521701
 20
4.4870750654
 11
8.764066939
 21
4.4478531743
  0
LINE
  5
2A0
100
AcDbEntity
  8
0
100
AcDbLine
 62
7
  6
CONTINUOUS
 10
8.8140836434
 20
4.4853455546
 11
8.8354986601
 21
4.4461234344
  0
LINE
  5
2A1
100
AcDbEntity
  8
0
100
AcDbLine
 62
7
  6
CONTINUOUS
 10
8.8855151265
 20
4.4836160349
 11
8.9069303935
 21
4.4443936831
  0
LINE
  5
2A2
100
AcDbEntity
  8
0
100
AcDbLine
 62
7
  6
CONTINUOUS
 10
8.9569466194
 20
4.481886506
 11
8.9783621393
 21
4.4426639203
  0
LINE
  5
2A3
100
AcDbEntity
  8
0
100
AcDbLine
 62
7
  6
CONTINUOUS
 10
8.8533684793
 20
3.4423086255
 11
8.8532227233
 21
3.448488145
  0
LINE
  5
2A4
100
AcDbEntity
  8
0
100
AcDbLine
 62
7
  6
CONTINUOUS
 10
8.7819773435
 20
3.4405797818
 11
8.7818304021
 21
3.4468299955
  0
LINE
  5
2A5
100
AcDbEntity
  8
0
100
AcDbLine
 62
7
  6
CONTINUOUS
 10
8.7065063605
 20
4.4883525069
 11
8.7065063605
 21
2.9383525069
  0
LINE
  5
2A6
100
AcDbEntity
  8
0
100
AcDbLine
 62
7
  6
CONTINUOUS
 10
9.0671336167
 20
4.4410538264
 11
9.0901320995
 21
4.4787249054
  0
LINE
  5
2A7
100
AcDbEntity
  8
0
100
AcDbLine
 62
7
  6
CONTINUOUS
 10
9.1385630142
 20
4.4393260497
 11
9.1615606999
 21
4.476995632
  0
LINE
  5
2A8
100
AcDbEntity
  8
0
100
AcDbLine
 62
7
  6
CONTINUOUS
 10
9.2099924073
 20
4.4375982756
 11
9.2329892909
 21
4.4752663511
  0
LINE
  5
2A9
100
AcDbEntity
  8
0
100
AcDbLine
 62
7
  6
CONTINUOUS
 10
9.281421796
 20
4.4358705043
 11
9.2976900985
 21
4.462516829
  0
LINE
  5
2AA
100
AcDbEntity
  8
0
100
AcDbLine
 62
7
  6
CONTINUOUS
 10
8.7783679056
 20
3.4404947026
 11
8.7779213605
 21
3.4400802891
  0
LINE
  5
2AB
100
AcDbEntity
  8
0
100
AcDbLine
 62
7
  6
CONTINUOUS
 10
8.8497993837
 20
3.4422242179
 11
8.8493513605
 21
3.4418084343
  0
LINE
  5
2AC
100
AcDbEntity
  8
0
100
AcDbLine
 62
7
  6
CONTINUOUS
 10
8.9212308717
 20
3.4439537422
 11
8.9207813605
 21
3.4435365794
  0
LINE
  5
2AD
100
AcDbEntity
  8
0
100
AcDbLine
 62
7
  6
CONTINUOUS
 10
8.9926623696
 20
3.4456832757
 11
8.9922113605
 21
3.4452647246
  0
LINE
  5
2AE
100
AcDbEntity
  8
0
100
AcDbLine
 62
7
  6
CONTINUOUS
 10
9.0640938775
 20
3.4474128184
 11
9.0636413605
 21
3.4469928698
  0
LINE
  5
2AF
100
AcDbEntity
  8
0
100
AcDbLine
 62
7
  6
CONTINUOUS
 10
9.1355253955
 20
3.4491423705
 11
9.1350713605
 21
3.4487210149
  0
LINE
  5
2B0
100
AcDbEntity
  8
0
100
AcDbLine
 62
7
  6
CONTINUOUS
 10
9.0283781223
 20
4.4801569679
 11
9.0497938978
 21
4.4409341459
  0
LINE
  5
2B1
100
AcDbEntity
  8
0
100
AcDbLine
 62
7
  6
CONTINUOUS
 10
9.0998096352
 20
4.4784274205
 11
9.121225669
 21
4.4392043596
  0
LINE
  5
2B2
100
AcDbEntity
  8
0
100
AcDbLine
 62
7
  6
CONTINUOUS
 10
9.1712411583
 20
4.4766978636
 11
9.1926574531
 21
4.4374745615
  0
LINE
  5
2B3
100
AcDbEntity
  8
0
100
AcDbLine
 62
7
  6
CONTINUOUS
 10
9.2426726917
 20
4.4749682973
 11
9.2640892502
 21
4.4357447513
  0
LINE
  5
2B4
100
AcDbEntity
  8
0
100
AcDbLine
 62
7
  6
CONTINUOUS
 10
9.1389306792
 20
3.4492238764
 11
9.1387895348
 21
3.4551208336
  0
LINE
  5
2B5
100
AcDbEntity
  8
0
100
AcDbLine
 62
7
  6
CONTINUOUS
 10
8.9961501245
 20
3.445754437
 11
8.9960067365
 21
3.4517971045
  0
LINE
  5
2B6
100
AcDbEntity
  8
0
100
AcDbLine
 62
7
  6
CONTINUOUS
 10
9.067540564
 20
3.4474949236
 11
9.0673983437
 21
3.4534651761
  0
LINE
  5
2B7
100
AcDbEntity
  8
0
100
AcDbLine
 62
7
  6
CONTINUOUS
 10
8.9247894208
 20
3.4427611507
 11
8.9246148497
 21
3.4501432565
  0
LINE
  5
2B8
100
AcDbEntity
  8
0
100
AcDbLine
 62
7
  6
CONTINUOUS
 10
9.1015063605
 20
2.4633525069
 11
9.1015063605
 21
2.2633525069
  0
LINE
  5
2B9
100
AcDbEntity
  8
0
100
AcDbLine
 62
7
  6
CONTINUOUS
 10
8.7275725016
 20
3.4769679578
 11
8.7067785011
 21
3.4388513562
  0
LINE
  5
2BA
100
AcDbEntity
  8
0
100
AcDbLine
 62
7
  6
CONTINUOUS
 10
8.7275725016
 20
2.9769679578
 11
8.7067785011
 21
2.9388513562
  0
LINE
  5
2BB
100
AcDbEntity
  8
0
100
AcDbLine
 62
7
  6
CONTINUOUS
 10
8.7278551531
 20
3.4770786999
 11
8.7069364371
 21
3.4387651964
  0
LINE
  5
2BC
100
AcDbEntity
  8
0
100
AcDbLine
 62
7
  6
CONTINUOUS
 10
8.799483565
 20
3.4791686792
 11
8.7783679056
 21
3.4404947026
  0
LINE
  5
2BD
100
AcDbEntity
  8
0
100
AcDbLine
 62
7
  6
CONTINUOUS
 10
8.8709142206
 20
3.4808964657
 11
8.8497993837
 21
3.4422242179
  0
LINE
  5
2BE
100
AcDbEntity
  8
0
100
AcDbLine
 62
7
  6
CONTINUOUS
 10
8.942344881
 20
3.4826242497
 11
8.9212308717
 21
3.4439537422
  0
LINE
  5
2BF
100
AcDbEntity
  8
0
100
AcDbLine
 62
7
  6
CONTINUOUS
 10
8.7278551531
 20
2.9770786999
 11
8.7069364371
 21
2.9387651964
  0
LINE
  5
2C0
100
AcDbEntity
  8
0
100
AcDbLine
 62
7
  6
CONTINUOUS
 10
9.0137755461
 20
3.484352031
 11
8.9926623696
 21
3.4456832757
  0
LINE
  5
2C1
100
AcDbEntity
  8
0
100
AcDbLine
 62
7
  6
CONTINUOUS
 10
9.3265063605
 20
3.4933525069
 11
9.320261525
 21
3.4869547593
  0
LINE
  5
2C2
100
AcDbEntity
  8
0
100
AcDbLine
 62
7
  6
CONTINUOUS
 10
8.7069364371
 20
2.9387651964
 11
8.7065063605
 21
2.9383529639
  0
LINE
  5
2C3
100
AcDbEntity
  8
0
100
AcDbLine
 62
7
  6
CONTINUOUS
 10
9.2069591416
 20
3.450876004
 11
9.2065013605
 21
3.4504491601
  0
LINE
  5
2C4
100
AcDbEntity
  8
0
100
AcDbLine
 62
7
  6
CONTINUOUS
 10
8.7783679056
 20
2.9404947026
 11
8.7779213605
 21
2.9400802891
  0
LINE
  5
2C5
100
AcDbEntity
  8
0
100
AcDbLine
 62
7
  6
CONTINUOUS
 10
8.8497993837
 20
2.9422242179
 11
8.8493513605
 21
2.9418084343
  0
LINE
  5
2C6
100
AcDbEntity
  8
0
100
AcDbLine
 62
7
  6
CONTINUOUS
 10
8.9212308717
 20
2.9439537422
 11
8.9207813605
 21
2.9435365794
  0
LINE
  5
2C7
100
AcDbEntity
  8
0
100
AcDbLine
 62
7
  6
CONTINUOUS
 10
8.9926623696
 20
2.9456832757
 11
8.9922113605
 21
2.9452647246
  0
LINE
  5
2C8
100
AcDbEntity
  8
0
100
AcDbLine
 62
7
  6
CONTINUOUS
 10
9.0640938775
 20
2.9474128184
 11
9.0636413605
 21
2.9469928698
  0
LINE
  5
2C9
100
AcDbEntity
  8
0
100
AcDbLine
 62
7
  6
CONTINUOUS
 10
9.281709497
 20
3.4526814527
 11
9.2815710934
 21
3.4584306136
  0
LINE
  5
2CA
100
AcDbEntity
  8
0
100
AcDbLine
 62
7
  6
CONTINUOUS
 10
9.2103200147
 20
3.4509526006
 11
9.2101803376
 21
3.4567757709
  0
LINE
  5
2CB
100
AcDbEntity
  8
0
100
AcDbLine
 62
7
  6
CONTINUOUS
 10
9.3265063605
 20
4.4333525069
 11
9.3265063605
 21
2.9933525069
  0
LINE
  5
2CC
100
AcDbEntity
  8
0
100
AcDbLine
 62
7
  6
CONTINUOUS
 10
8.799483565
 20
2.9791686792
 11
8.7783679056
 21
2.9404947026
  0
LINE
  5
2CD
100
AcDbEntity
  8
0
100
AcDbLine
 62
7
  6
CONTINUOUS
 10
9.085206216
 20
3.4860798097
 11
9.0640938775
 21
3.4474128184
  0
LINE
  5
2CE
100
AcDbEntity
  8
0
100
AcDbLine
 62
7
  6
CONTINUOUS
 10
8.8709142206
 20
2.9808964657
 11
8.8497993837
 21
2.9422242179
  0
LINE
  5
2CF
100
AcDbEntity
  8
0
100
AcDbLine
 62
7
  6
CONTINUOUS
 10
9.1566368908
 20
3.4878075858
 11
9.1355253955
 21
3.4491423705
  0
LINE
  5
2D0
100
AcDbEntity
  8
0
100
AcDbLine
 62
7
  6
CONTINUOUS
 10
8.942344881
 20
2.9826242497
 11
8.9212308717
 21
2.9439537422
  0
LINE
  5
2D1
100
AcDbEntity
  8
0
100
AcDbLine
 62
7
  6
CONTINUOUS
 10
9.2280675705
 20
3.4895353591
 11
9.2069569237
 21
3.450871932
  0
LINE
  5
2D2
100
AcDbEntity
  8
0
100
AcDbLine
 62
7
  6
CONTINUOUS
 10
9.0137755461
 20
2.984352031
 11
8.9926623696
 21
2.9456832757
  0
LINE
  5
2D3
100
AcDbEntity
  8
0
100
AcDbLine
 62
7
  6
CONTINUOUS
 10
9.2994982551
 20
3.4912631298
 11
9.2783884623
 21
3.4526015031
  0
LINE
  5
2D4
100
AcDbEntity
  8
0
100
AcDbLine
 62
7
  6
CONTINUOUS
 10
9.085206216
 20
2.9860798097
 11
9.0640938775
 21
2.9474128184
  0
LINE
  5
2D5
100
AcDbEntity
  8
0
100
AcDbLine
 62
7
  6
CONTINUOUS
 10
9.3265063605
 20
2.9933525069
 11
9.320261525
 21
2.9869547593
  0
LINE
  5
2D6
100
AcDbEntity
  8
0
100
AcDbLine
 62
7
  6
CONTINUOUS
 10
9.2069591416
 20
2.950876004
 11
9.2065013605
 21
2.9504491601
  0
LINE
  5
2D7
100
AcDbEntity
  8
0
100
AcDbLine
 62
7
  6
CONTINUOUS
 10
9.1355253955
 20
2.9491423705
 11
9.1350713605
 21
2.9487210149
  0
LINE
  5
2D8
100
AcDbEntity
  8
0
100
AcDbLine
 62
7
  6
CONTINUOUS
 10
9.1566368908
 20
2.9878075858
 11
9.1355253955
 21
2.9491423705
  0
LINE
  5
2D9
100
AcDbEntity
  8
0
100
AcDbLine
 62
7
  6
CONTINUOUS
 10
9.2280675705
 20
2.9895353591
 11
9.2069569237
 21
2.950871932
  0
LINE
  5
2DA
100
AcDbEntity
  8
0
100
AcDbLine
 62
7
  6
CONTINUOUS
 10
9.2994982551
 20
2.9912631298
 11
9.2783884623
 21
2.9526015031
  0
ARC
  5
2DB
100
AcDbEntity
  8
0
100
AcDbCircle
 62
7
  6
CONTINUOUS
 10
8.2565063605
 20
2.5433525069
 40
0.08
100
AcDbArc
 50
180.0
 51
270.0
  0
ARC
  5
2DC
100
AcDbEntity
  8
0
100
AcDbCircle
 62
7
  6
CONTINUOUS
 10
2.7465063605
 20
2.5433525069
 40
0.08
100
AcDbArc
 50
270.0
 51
360.0
  0
LINE
  5
2DD
100
AcDbEntity
  8
0
100
AcDbLine
 62
7
  6
CONTINUOUS
 10
9.2779313604
 20
2.9521773277
 11
9.2783884623
 21
2.9526015715
  0
LINE
  5
2DE
100
AcDbEntity
  8
0
100
AcDbLine
 62
7
  6
CONTINUOUS
 10
9.2779313604
 20
3.4521773277
 11
9.2783884623
 21
3.4526015715
  0
SPLINE
  5
2DF
100
AcDbEntity
  8
0
100
AcDbSpline
 62
7
  6
CONTINUOUS
 70
0
 71
3
 72
43
 73
39
 74
0
 42
0.0000001
 43
0.0000001
 44
0.0000000001
 40
0.0
 40
0.0
 40
0.0
 40
0.0
 40
0.0001480849
 40
0.0003043936
 40
0.0004767407
 40
0.0006710078
 40
0.0011399335
 40
0.0017318974
 40
0.002456475
 40
0.0033187886
 40
0.0043218125
 40
0.0054673902
 40
0.0067567115
 40
0.0081904766
 40
0.011492656
 40
0.0153755435
 40
0.0198391896
 40
0.0248827532
 40
0.0305040953
 40
0.0367004983
 40
0.0434690655
 40
0.0587090181
 40
0.0761906869
 40
0.0958764679
 40
0.1177216384
 40
0.1416778723
 40
0.1676902927
 40
0.195700738
 40
0.2256449261
 40
0.2910595271
 40
0.3633393773
 40
0.4418268808
 40
0.5258075404
 40
0.6145168956
 40
0.7071472754
 40
0.8028554049
 40
0.9007700827
 40
1.0
 40
1.0
 40
1.0
 40
1.0
 10
8.9421601435
 20
2.9827251226
 30
0.0
 10
8.9421374047
 20
2.9827245703
 30
0.0
 10
8.9420903219
 20
2.9827295263
 30
0.0
 10
8.9420209851
 20
2.982754864
 30
0.0
 10
8.9419523744
 20
2.9827974982
 30
0.0
 10
8.9418555532
 20
2.9828823937
 30
0.0
 10
8.941737211
 20
2.9830364819
 30
0.0
 10
8.941603598
 20
2.9832764494
 30
0.0
 10
8.9414696595
 20
2.9835835994
 30
0.0
 10
8.9413354093
 20
2.9839582619
 30
0.0
 10
8.9412008502
 20
2.9844008728
 30
0.0
 10
8.941066066
 20
2.9849115298
 30
0.0
 10
8.940931096
 20
2.9854902833
 30
0.0
 10
8.9407419369
 20
2.9863962766
 30
0.0
 10
8.940509368
 20
2.9876997802
 30
0.0
 10
8.9402407532
 20
2.9894688353
 30
0.0
 10
8.9399715376
 20
2.9915079285
 30
0.0
 10
8.9397018455
 20
2.9938159951
 30
0.0
 10
8.9394318236
 20
2.9963917816
 30
0.0
 10
8.9391615254
 20
2.9992338007
 30
0.0
 10
8.9387858562
 20
3.0035497195
 30
0.0
 10
8.9383222411
 20
3.0095977165
 30
0.0
 10
8.9377840742
 20
3.0176294241
 30
0.0
 10
8.9372450523
 20
3.0266776311
 30
0.0
 10
8.9367052631
 20
3.0367218368
 30
0.0
 10
8.9361650052
 20
3.0477390425
 30
0.0
 10
8.9356243399
 20
3.0597042381
 30
0.0
 10
8.9350833896
 20
3.0725900215
 30
0.0
 10
8.9343397104
 20
3.091524625
 30
0.0
 10
8.9334193102
 20
3.1172570924
 30
0.0
 10
8.9323428691
 20
3.150444649
 30
0.0
 10
8.9312652039
 20
3.1864852371
 30
0.0
 10
8.9301865851
 20
3.2250503675
 30
0.0
 10
8.9291073275
 20
3.2657885867
 30
0.0
 10
8.9280276184
 20
3.3083287028
 30
0.0
 10
8.9269476127
 20
3.3522831621
 30
0.0
 10
8.9258674288
 20
3.3972515855
 30
0.0
 10
8.9251498554
 20
3.4275239638
 30
0.0
 10
8.9247894208
 20
3.4427611507
 30
0.0
  0
SPLINE
  5
2E0
100
AcDbEntity
  8
0
100
AcDbSpline
 62
7
  6
CONTINUOUS
 70
0
 71
3
 72
43
 73
39
 74
0
 42
0.0000001
 43
0.0000001
 44
0.0000000001
 40
0.0
 40
0.0
 40
0.0
 40
0.0
 40
0.0001489357
 40
0.0003060866
 40
0.0004792803
 40
0.0006744252
 40
0.0011453171
 40
0.0017396808
 40
0.0024671313
 40
0.0033327784
 40
0.0043395646
 40
0.0054892924
 40
0.0067831163
 40
0.0082217984
 40
0.0115354587
 40
0.0154320097
 40
0.0199110685
 40
0.0249714909
 40
0.0306116343
 40
0.036828829
 40
0.043619715
 40
0.0589083724
 40
0.0764448889
 40
0.0961896327
 40
0.1180981729
 40
0.1421200537
 40
0.1682004122
 40
0.1962788278
 40
0.2262907819
 40
0.2918329784
 40
0.3642208622
 40
0.4427844698
 40
0.5267964025
 40
0.6154786453
 40
0.7080100171
 40
0.8035335764
 40
0.9011648907
 40
1.0
 40
1.0
 40
1.0
 40
1.0
 10
9.1564501435
 20
2.9879096426
 30
0.0
 10
9.1564272109
 20
2.9879090831
 30
0.0
 10
9.1563797363
 20
2.9879140537
 30
0.0
 10
9.1563098078
 20
2.9879395088
 30
0.0
 10
9.1562406052
 20
2.9879823658
 30
0.0
 10
9.1561429574
 20
2.9880677246
 30
0.0
 10
9.1560235883
 20
2.9882227338
 30
0.0
 10
9.1558888293
 20
2.9884642137
 30
0.0
 10
9.1557537416
 20
2.9887733225
 30
0.0
 10
9.1556183409
 20
2.9891503746
 30
0.0
 10
9.155482628
 20
2.9895957834
 30
0.0
 10
9.1553466878
 20
2.9901096244
 30
0.0
 10
9.1552105547
 20
2.990691941
 30
0.0
 10
9.1550197615
 20
2.9916034975
 30
0.0
 10
9.1547851988
 20
2.9929150714
 30
0.0
 10
9.1545142952
 20
2.9946951043
 30
0.0
 10
9.1542427766
 20
2.9967467692
 30
0.0
 10
9.1539707521
 20
2.999068955
 30
0.0
 10
9.1536984148
 20
3.0016604449
 30
0.0
 10
9.1534258086
 20
3.004519756
 30
0.0
 10
9.1530469317
 20
3.0088616195
 30
0.0
 10
9.1525793261
 20
3.0149455833
 30
0.0
 10
9.1520365786
 20
3.023024388
 30
0.0
 10
9.1514929093
 20
3.0321247736
 30
0.0
 10
9.1509485201
 20
3.0422255909
 30
0.0
 10
9.1504036115
 20
3.0533034885
 30
0.0
 10
9.1498583333
 20
3.0653327162
 30
0.0
 10
9.1493127327
 20
3.0782854088
 30
0.0
 10
9.1485627783
 20
3.0973128121
 30
0.0
 10
9.1476345912
 20
3.1231630304
 30
0.0
 10
9.1465489641
 20
3.1564902252
 30
0.0
 10
9.1454621021
 20
3.1926635124
 30
0.0
 10
9.1443742843
 20
3.2313475115
 30
0.0
 10
9.1432858266
 20
3.2721836384
 30
0.0
 10
9.1421969199
 20
3.3147933984
 30
0.0
 10
9.1411077211
 20
3.3587819397
 30
0.0
 10
9.1400183511
 20
3.4037416815
 30
0.0
 10
9.1392942527
 20
3.4339932055
 30
0.0
 10
9.1389305175
 20
3.4492116592
 30
0.0
  0
LINE
  5
2E1
100
AcDbEntity
  8
0
100
AcDbLine
 62
7
  6
CONTINUOUS
 10
9.3168492433
 20
2.9921689508
 11
9.3164838049
 21
2.9930107301
  0
SPLINE
  5
2E2
100
AcDbEntity
  8
0
100
AcDbSpline
 62
7
  6
CONTINUOUS
 70
0
 71
3
 72
33
 73
29
 74
0
 42
0.0000001
 43
0.0000001
 44
0.0000000001
 40
0.0
 40
0.0
 40
0.0
 40
0.0
 40
0.0009367267
 40
0.0020075641
 40
0.004555192
 40
0.007647729
 40
0.0112868919
 40
0.015472819
 40
0.0202040934
 40
0.0254787088
 40
0.0312943986
 40
0.0445370429
 40
0.0599027989
 40
0.0773577905
 40
0.0968611833
 40
0.1183683738
 40
0.1418284784
 40
0.1671871361
 40
0.1943842021
 40
0.254034502
 40
0.3202177768
 40
0.3923103577
 40
0.4696324787
 40
0.5514550643
 40
0.6370064343
 40
0.7254798604
 40
0.8160410886
 40
1.0
 40
1.0
 40
1.0
 40
1.0
 10
9.3164838049
 20
2.9930107301
 30
0.0
 10
9.3164342268
 20
2.9931579358
 30
0.0
 10
9.316336453
 20
2.9934762911
 30
0.0
 10
9.3161421288
 20
2.9942063404
 30
0.0
 10
9.3159049445
 20
2.9952941191
 30
0.0
 10
9.3156325552
 20
2.9968087172
 30
0.0
 10
9.3153592822
 20
2.9985985353
 30
0.0
 10
9.3150852797
 20
3.0006626467
 30
0.0
 10
9.314810807
 20
3.0029999787
 30
0.0
 10
9.3145359531
 20
3.0056091636
 30
0.0
 10
9.3141523431
 20
3.0096258855
 30
0.0
 10
9.3136799544
 20
3.0153147934
 30
0.0
 10
9.3131328818
 20
3.0229336183
 30
0.0
 10
9.3125847568
 20
3.0315928858
 30
0.0
 10
9.3120357038
 20
3.0412722795
 30
0.0
 10
9.3114860872
 20
3.051948865
 30
0.0
 10
9.3109359964
 20
3.0635975292
 30
0.0
 10
9.3103855688
 20
3.0761906534
 30
0.0
 10
9.3096277676
 20
3.094781507
 30
0.0
 10
9.3086905304
 20
3.1201401872
 30
0.0
 10
9.3075954436
 20
3.1529425454
 30
0.0
 10
9.3064989979
 20
3.1886767331
 30
0.0
 10
9.3054014963
 20
3.2270053616
 30
0.0
 10
9.3043032926
 20
3.2675665968
 30
0.0
 10
9.3032045956
 20
3.3099775978
 30
0.0
 10
9.3021055711
 20
3.35383812
 30
0.0
 10
9.3006323088
 20
3.4140125486
 30
0.0
 10
9.2995404702
 20
3.4595210383
 30
0.0
 10
9.2988048097
 20
3.4900166718
 30
0.0
  0
SPLINE
  5
2E3
100
AcDbEntity
  8
0
100
AcDbSpline
 62
7
  6
CONTINUOUS
 70
0
 71
3
 72
43
 73
39
 74
0
 42
0.0000001
 43
0.0000001
 44
0.0000000001
 40
0.0
 40
0.0
 40
0.0
 40
0.0
 40
0.0001492296
 40
0.0003067042
 40
0.0004802502
 40
0.0006757674
 40
0.0011474177
 40
0.001742513
 40
0.0024707108
 40
0.0033371857
 40
0.0043449465
 40
0.0054958615
 40
0.0067911134
 40
0.0082313815
 40
0.0115483179
 40
0.0154483419
 40
0.0199315414
 40
0.0249969672
 40
0.0306423394
 40
0.0368649307
 40
0.0436618335
 40
0.0589642165
 40
0.076515344
 40
0.096276588
 40
0.1182020875
 40
0.1422422312
 40
0.1683407798
 40
0.1964380494
 40
0.2264681942
 40
0.2920451656
 40
0.3644624444
 40
0.4430467458
 40
0.5270670402
 40
0.6157417684
 40
0.7082459124
 40
0.8037189386
 40
0.9012727744
 40
1.0
 40
1.0
 40
1.0
 40
1.0
 10
9.2278801434
 20
2.9896377015
 30
0.0
 10
9.227857165
 20
2.9896371462
 30
0.0
 10
9.2278095952
 20
2.9896421386
 30
0.0
 10
9.2277395275
 20
2.9896676523
 30
0.0
 10
9.2276701815
 20
2.9897105872
 30
0.0
 10
9.2275723337
 20
2.9897960674
 30
0.0
 10
9.2274527005
 20
2.9899512384
 30
0.0
 10
9.2273176102
 20
2.9901929351
 30
0.0
 10
9.2271821885
 20
2.9905022937
 30
0.0
 10
9.2270464514
 20
2.9908796512
 30
0.0
 10
9.226910403
 20
2.991325449
 30
0.0
 10
9.2267741327
 20
2.9918397855
 30
0.0
 10
9.2266376813
 20
2.9924227042
 30
0.0
 10
9.2264464549
 20
2.9933351779
 30
0.0
 10
9.226211352
 20
2.9946479854
 30
0.0
 10
9.225939815
 20
2.9964296534
 30
0.0
 10
9.2256676763
 20
2.9984832363
 30
0.0
 10
9.2253950489
 20
3.0008076251
 30
0.0
 10
9.2251220801
 20
3.0034015185
 30
0.0
 10
9.2248488308
 20
3.0062633977
 30
0.0
 10
9.2244690778
 20
3.0106091543
 30
0.0
 10
9.2240004202
 20
3.0166984599
 30
0.0
 10
9.2234563939
 20
3.0247842534
 30
0.0
 10
9.2229115001
 20
3.0338921557
 30
0.0
 10
9.2223658319
 20
3.0440010731
 30
0.0
 10
9.22181969
 20
3.0550873564
 30
0.0
 10
9.2212731378
 20
3.0671252811
 30
0.0
 10
9.220726297
 20
3.0800866812
 30
0.0
 10
9.2199746237
 20
3.0991254467
 30
0.0
 10
9.2190443381
 20
3.1249887716
 30
0.0
 10
9.2179562177
 20
3.1583295924
 30
0.0
 10
9.2168668641
 20
3.1945124943
 30
0.0
 10
9.2157765526
 20
3.2332004724
 30
0.0
 10
9.2146856018
 20
3.2740332386
 30
0.0
 10
9.2135942024
 20
3.3166305999
 30
0.0
 10
9.2125025124
 20
3.3605959912
 30
0.0
 10
9.2114106532
 20
3.4055201763
 30
0.0
 10
9.2106847844
 20
3.43574367
 30
0.0
 10
9.2103201535
 20
3.4509457679
 30
0.0
  0
SPLINE
  5
2E4
100
AcDbEntity
  8
0
100
AcDbSpline
 62
7
  6
CONTINUOUS
 70
0
 71
3
 72
67
 73
63
 74
0
 42
0.0000001
 43
0.0000001
 44
0.0000000001
 40
0.0
 40
0.0
 40
0.0
 40
0.0
 40
0.0000721742
 40
0.0001482006
 40
0.0002317709
 40
0.000325688
 40
0.0005516025
 40
0.0008359896
 40
0.0011835358
 40
0.0015967601
 40
0.0020771287
 40
0.0026255513
 40
0.0039286091
 40
0.005508486
 40
0.0073659037
 40
0.0095008977
 40
0.0119131007
 40
0.0146015594
 40
0.0175649651
 40
0.0208019179
 40
0.0280900364
 40
0.0364501327
 40
0.0458642566
 40
0.0563111294
 40
0.0677676717
 40
0.0802077534
 40
0.0936036052
 40
0.1079245913
 40
0.1392107071
 40
0.1737824097
 40
0.2113259316
 40
0.2515003563
 40
0.2939408855
 40
0.3382620415
 40
0.3840613573
 40
0.4309229183
 40
0.4784212277
 40
0.5261250938
 40
0.5736014569
 40
0.6204194892
 40
0.6661543315
 40
0.7103911222
 40
0.7527286618
 40
0.7927830962
 40
0.8301914647
 40
0.8646149125
 40
0.8957419472
 40
0.9099800555
 40
0.9232912455
 40
0.935645167
 40
0.9470144059
 40
0.9573731077
 40
0.9666985658
 40
0.9749697876
 40
0.982169203
 40
0.9882812722
 40
0.9909259002
 40
0.9932945935
 40
0.9953863874
 40
0.9972009676
 40
0.998738525
 40
1.0
 40
1.0
 40
1.0
 40
1.0
 10
9.2993101435
 20
3.491365856
 30
0.0
 10
9.2992874379
 20
3.4913653023
 30
0.0
 10
9.2992404817
 20
3.4913701152
 30
0.0
 10
9.2991712599
 20
3.4913948594
 30
0.0
 10
9.2991027267
 20
3.4914365662
 30
0.0
 10
9.2990061143
 20
3.4915195711
 30
0.0
 10
9.29888789
 20
3.4916703868
 30
0.0
 10
9.2987543673
 20
3.4919054967
 30
0.0
 10
9.2986205487
 20
3.4922063981
 30
0.0
 10
9.2984864427
 20
3.4925734244
 30
0.0
 10
9.2983520169
 20
3.4930069945
 30
0.0
 10
9.2981613786
 20
3.493715735
 30
0.0
 10
9.297928631
 20
3.4947706532
 30
0.0
 10
9.2976613012
 20
3.496238415
 30
0.0
 10
9.2973931016
 20
3.4979714841
 30
0.0
 10
9.2971241727
 20
3.4999690065
 30
0.0
 10
9.2968548101
 20
3.5022300604
 30
0.0
 10
9.2965851106
 20
3.5047533988
 30
0.0
 10
9.2963151392
 20
3.5075375782
 30
0.0
 10
9.295939922
 20
3.5117656556
 30
0.0
 10
9.2954768642
 20
3.5176906728
 30
0.0
 10
9.2949393454
 20
3.5255592241
 30
0.0
 10
9.2944009702
 20
3.5344237875
 30
0.0
 10
9.2938618328
 20
3.5442643152
 30
0.0
 10
9.2933222246
 20
3.5550583421
 30
0.0
 10
9.2927822127
 20
3.5667814153
 30
0.0
 10
9.2922419141
 20
3.5794067632
 30
0.0
 10
9.2914991235
 20
3.5979594164
 30
0.0
 10
9.2905798202
 20
3.6231740173
 30
0.0
 10
9.2895046765
 20
3.655695411
 30
0.0
 10
9.2884283106
 20
3.6910152052
 30
0.0
 10
9.2873509931
 20
3.7288122554
 30
0.0
 10
9.286273038
 20
3.7687429392
 30
0.0
 10
9.2851946323
 20
3.8104443074
 30
0.0
 10
9.2841159305
 20
3.853537359
 30
0.0
 10
9.2830370517
 20
3.8976305212
 30
0.0
 10
9.2819580979
 20
3.9423231958
 30
0.0
 10
9.280879161
 20
3.9872093973
 30
0.0
 10
9.2798003292
 20
4.0318814647
 30
0.0
 10
9.2787216948
 20
4.0759337275
 30
0.0
 10
9.2776433598
 20
4.1189662338
 30
0.0
 10
9.2765654446
 20
4.160588341
 30
0.0
 10
9.2754881044
 20
4.2004222886
 30
0.0
 10
9.2744115281
 20
4.2381066143
 30
0.0
 10
9.2733360334
 20
4.273299432
 30
0.0
 10
9.2722618929
 20
4.3056815374
 30
0.0
 10
9.2713433855
 20
4.3307732913
 30
0.0
 10
9.270601233
 20
4.3492231042
 30
0.0
 10
9.2700615673
 20
4.36176857
 30
0.0
 10
9.269522222
 20
4.3734103592
 30
0.0
 10
9.2689833159
 20
4.3841219847
 30
0.0
 10
9.2684449326
 20
4.39387931
 30
0.0
 10
9.2679073113
 20
4.4026601423
 30
0.0
 10
9.2673707535
 20
4.4104448036
 30
0.0
 10
9.2668355913
 20
4.4172156197
 30
0.0
 10
9.2663721086
 20
4.4222156509
 30
0.0
 10
9.2659946431
 20
4.4256963354
 30
0.0
 10
9.2657257479
 20
4.427916075
 30
0.0
 10
9.265457349
 20
4.4298725314
 30
0.0
 10
9.2651896891
 20
4.4315648161
 30
0.0
 10
9.2649230367
 20
4.432992147
 30
0.0
 10
9.2647273842
 20
4.4338514446
 30
0.0
 10
9.2646261273
 20
4.4342352839
 30
0.0
  0
LINE
  5
2E5
100
AcDbEntity
  8
0
100
AcDbLine
 62
7
  6
CONTINUOUS
 10
9.2646261273
 20
4.4342352839
 11
9.2640892502
 21
4.4357446501
  0
SPLINE
  5
2E6
100
AcDbEntity
  8
0
100
AcDbSpline
 62
7
  6
CONTINUOUS
 70
0
 71
3
 72
38
 73
34
 74
0
 42
0.0000001
 43
0.0000001
 44
0.0000000001
 40
0.0
 40
0.0
 40
0.0
 40
0.0
 40
0.0005983726
 40
0.0013277419
 40
0.0021923459
 40
0.0031946663
 40
0.0043362504
 40
0.0056180929
 40
0.0086044217
 40
0.0121558476
 40
0.0162726146
 40
0.0209540701
 40
0.026198421
 40
0.0320029609
 40
0.0383647655
 40
0.0527468663
 40
0.0693119602
 40
0.088022464
 40
0.1088338177
 40
0.1316975361
 40
0.1565586395
 40
0.1833586371
 40
0.212032943
 40
0.2425137511
 40
0.3085979902
 40
0.3809797263
 40
0.4589666763
 40
0.5418128203
 40
0.6287255916
 40
0.7188734878
 40
0.8113942093
 40
0.9054027161
 40
1.0
 40
1.0
 40
1.0
 40
1.0
 10
8.8882790359
 20
2.9817921885
 30
0.0
 10
8.8882271943
 20
2.981877112
 30
0.0
 10
8.8881263021
 20
2.9820741302
 30
0.0
 10
8.887989018
 20
2.982412076
 30
0.0
 10
8.8878513416
 20
2.9828214762
 30
0.0
 10
8.8877133733
 20
2.9833024441
 30
0.0
 10
8.8875751559
 20
2.9838551414
 30
0.0
 10
8.8873806068
 20
2.9847334619
 30
0.0
 10
8.887142009
 20
2.9860119441
 30
0.0
 10
8.8868670104
 20
2.9877622298
 30
0.0
 10
8.8865912921
 20
2.9897972418
 30
0.0
 10
8.8863149954
 20
2.9921158886
 30
0.0
 10
8.8860383263
 20
2.9947168891
 30
0.0
 10
8.8857613362
 20
2.9975986718
 30
0.0
 10
8.8853757789
 20
3.0019962782
 30
0.0
 10
8.8849003412
 20
3.008181885
 30
0.0
 10
8.88434892
 20
3.0164205443
 30
0.0
 10
8.8837965511
 20
3.0257302967
 30
0.0
 10
8.8832433446
 20
3.0360889589
 30
0.0
 10
8.8826896255
 20
3.0474716236
 30
0.0
 10
8.8821354615
 20
3.059851124
 30
0.0
 10
8.8815810146
 20
3.0731976796
 30
0.0
 10
8.8810262853
 20
3.0874794088
 30
0.0
 10
8.8802657817
 20
3.1082901394
 30
0.0
 10
8.8793236829
 20
3.1363666106
 30
0.0
 10
8.8782197495
 20
3.172341169
 30
0.0
 10
8.8771147295
 20
3.2111040492
 30
0.0
 10
8.8760088774
 20
3.2522840187
 30
0.0
 10
8.8749024716
 20
3.2954867669
 30
0.0
 10
8.8737956882
 20
3.3402986842
 30
0.0
 10
8.8726886745
 20
3.3862908121
 30
0.0
 10
8.8715815481
 20
3.4330229842
 30
0.0
 10
8.8708434074
 20
3.4643753772
 30
0.0
 10
8.8704725772
 20
3.4801004963
 30
0.0
  0
LINE
  5
2E7
100
AcDbEntity
  8
0
100
AcDbLine
 62
7
  6
CONTINUOUS
 10
9.3168492433
 20
3.4921689508
 11
9.3164838049
 21
3.4930107301
  0
SPLINE
  5
2E8
100
AcDbEntity
  8
0
100
AcDbSpline
 62
7
  6
CONTINUOUS
 70
0
 71
3
 72
69
 73
65
 74
0
 42
0.0000001
 43
0.0000001
 44
0.0000000001
 40
0.0
 40
0.0
 40
0.0
 40
0.0
 40
0.0004869454
 40
0.001042776
 40
0.0023629457
 40
0.0039630032
 40
0.0058438475
 40
0.0080055872
 40
0.0104475341
 40
0.013168682
 40
0.0161678902
 40
0.0229945848
 40
0.0309129533
 40
0.0399060494
 40
0.0499533465
 40
0.0610325105
 40
0.0731179479
 40
0.0861824314
 40
0.1001956952
 40
0.1309386116
 40
0.1650645765
 40
0.2022601375
 40
0.2421834173
 40
0.2844674712
 40
0.3287235621
 40
0.374544872
 40
0.4215102258
 40
0.4691879307
 40
0.5171398836
 40
0.5649254329
 40
0.6121056262
 40
0.6582470883
 40
0.7029261146
 40
0.7457325518
 40
0.7862735116
 40
0.8241771253
 40
0.8590958288
 40
0.8907097499
 40
0.9051856856
 40
0.9187296391
 40
0.9313104243
 40
0.942899683
 40
0.9534708186
 40
0.9630002509
 40
0.9714663317
 40
0.9788506977
 40
0.9821320315
 40
0.985137285
 40
0.9878650007
 40
0.9903138176
 40
0.9924827905
 40
0.9943715142
 40
0.995979959
 40
0.9973087669
 40
0.997868989
 40
0.9983604138
 40
0.9987839088
 40
0.9991408676
 40
0.9994336732
 40
0.9996667314
 40
0.9997635589
 40
0.9998494543
 40
0.9999270765
 40
1.0
 40
1.0
 40
1.0
 40
1.0
 10
9.3164838049
 20
3.4930107301
 30
0.0
 10
9.3164349001
 20
3.4931559366
 30
0.0
 10
9.316338422
 20
3.4934696819
 30
0.0
 10
9.3161466507
 20
3.4941881591
 30
0.0
 10
9.3159124853
 20
3.4952570643
 30
0.0
 10
9.3156434988
 20
3.4967437912
 30
0.0
 10
9.3153736538
 20
3.4984988325
 30
0.0
 10
9.315103103
 20
3.5005213094
 30
0.0
 10
9.3148320956
 20
3.5028102011
 30
0.0
 10
9.3145607171
 20
3.5053641969
 30
0.0
 10
9.3141820115
 20
3.5092940568
 30
0.0
 10
9.3137156223
 20
3.5148581005
 30
0.0
 10
9.3131754541
 20
3.5223080157
 30
0.0
 10
9.3126342584
 20
3.530773576
 30
0.0
 10
9.3120921492
 20
3.5402354348
 30
0.0
 10
9.3115494907
 20
3.5506717255
 30
0.0
 10
9.3110063623
 20
3.5620585363
 30
0.0
 10
9.3104629069
 20
3.5743695315
 30
0.0
 10
9.3097146316
 20
3.5925478244
 30
0.0
 10
9.308789145
 20
3.6173514569
 30
0.0
 10
9.307707874
 20
3.6494485668
 30
0.0
 10
9.3066252624
 20
3.6844357916
 30
0.0
 10
9.3055416062
 20
3.7219911142
 30
0.0
 10
9.3044572528
 20
3.7617689276
 30
0.0
 10
9.3033724054
 20
3.8034032366
 30
0.0
 10
9.3022872301
 20
3.8465110197
 30
0.0
 10
9.3012018543
 20
3.8906957626
 30
0.0
 10
9.3001163855
 20
3.9355511226
 30
0.0
 10
9.2990309193
 20
3.9806646374
 30
0.0
 10
9.297945547
 20
4.0256215638
 30
0.0
 10
9.2968603626
 20
4.0700086445
 30
0.0
 10
9.2957754694
 20
4.1134179471
 30
0.0
 10
9.2946909884
 20
4.1554505875
 30
0.0
 10
9.2936070745
 20
4.1957203997
 30
0.0
 10
9.2925239159
 20
4.2338574948
 30
0.0
 10
9.2914418269
 20
4.2695116359
 30
0.0
 10
9.2903610789
 20
4.3023554736
 30
0.0
 10
9.2894371658
 20
4.3278286965
 30
0.0
 10
9.288690734
 20
4.3465780474
 30
0.0
 10
9.2881477491
 20
4.3593418004
 30
0.0
 10
9.2876050833
 20
4.3711963765
 30
0.0
 10
9.2870628472
 20
4.3821145022
 30
0.0
 10
9.2865211143
 20
4.3920712394
 30
0.0
 10
9.285980167
 20
4.4010437062
 30
0.0
 10
9.2854401073
 20
4.4090114576
 30
0.0
 10
9.2849749328
 20
4.4150135579
 30
0.0
 10
9.2845980508
 20
4.4192987117
 30
0.0
 10
9.2843268404
 20
4.4221221644
 30
0.0
 10
9.2840559079
 20
4.4246823712
 30
0.0
 10
9.2837853116
 20
4.4269778601
 30
0.0
 10
9.283515155
 20
4.4290073669
 30
0.0
 10
9.283245726
 20
4.4307699477
 30
0.0
 10
9.2829771656
 20
4.4322647148
 30
0.0
 10
9.282743413
 20
4.4333405861
 30
0.0
 10
9.2825520361
 20
4.434064879
 30
0.0
 10
9.2824170048
 20
4.4345091143
 30
0.0
 10
9.2822822899
 20
4.434886156
 30
0.0
 10
9.282147878
 20
4.4351963955
 30
0.0
 10
9.2820137822
 20
4.4354401315
 30
0.0
 10
9.2818952256
 20
4.435597875
 30
0.0
 10
9.2817982781
 20
4.4356863153
 30
0.0
 10
9.2817295761
 20
4.4357317054
 30
0.0
 10
9.2816602022
 20
4.4357600683
 30
0.0
 10
9.281612817
 20
4.4357673161
 30
0.0
 10
9.2815898777
 20
4.4357678656
 30
0.0
  0
SPLINE
  5
2E9
100
AcDbEntity
  8
0
100
AcDbSpline
 62
7
  6
CONTINUOUS
 70
0
 71
3
 72
45
 73
41
 74
0
 42
0.0000001
 43
0.0000001
 44
0.0000000001
 40
0.0
 40
0.0
 40
0.0
 40
0.0
 40
0.0072119532
 40
0.0146190699
 40
0.0301040801
 40
0.0382275936
 40
0.0466252824
 40
0.0553107427
 40
0.0642948381
 40
0.073585193
 40
0.0831874297
 40
0.0931056442
 40
0.1033426295
 40
0.1139000578
 40
0.1247786165
 40
0.1474955579
 40
0.1714842888
 40
0.1967248405
 40
0.2231919567
 40
0.2508565306
 40
0.2796870164
 40
0.3096507377
 40
0.3407149171
 40
0.3728464566
 40
0.4060124182
 40
0.4401799787
 40
0.4753168485
 40
0.5113893306
 40
0.5861916298
 40
0.6248552386
 40
0.664299162
 40
0.7044724418
 40
0.7453174794
 40
0.78676624
 40
0.8287414609
 40
0.8711553295
 40
0.9139076905
 40
0.9353800082
 40
0.9568982391
 40
1.0
 40
1.0
 40
1.0
 40
1.0
 10
8.0905457576
 20
4.6633525069
 30
0.0
 10
8.0883511314
 20
4.6633523979
 30
0.0
 10
8.0839010346
 20
4.6631927702
 30
0.0
 10
8.0747832959
 20
4.6622544429
 30
0.0
 10
8.0655033668
 20
4.6603958776
 30
0.0
 10
8.0561350125
 20
4.6577230932
 30
0.0
 10
8.0488710813
 20
4.6552483907
 30
0.0
 10
8.041487945
 20
4.652341091
 30
0.0
 10
8.0339896474
 20
4.6490062897
 30
0.0
 10
8.0263818095
 20
4.6452489148
 30
0.0
 10
8.0186702622
 20
4.6410739778
 30
0.0
 10
8.0108609803
 20
4.6364865133
 30
0.0
 10
8.0029599718
 20
4.6314915036
 30
0.0
 10
7.994973183
 20
4.626093896
 30
0.0
 10
7.9840602714
 20
4.6182534014
 30
0.0
 10
7.9702534125
 20
4.6074493342
 30
0.0
 10
7.9536765234
 20
4.5931366035
 30
0.0
 10
7.9369121531
 20
4.5773293531
 30
0.0
 10
7.9200168193
 20
4.560060287
 30
0.0
 10
7.9030475251
 20
4.5413607769
 30
0.0
 10
7.8860661584
 20
4.5212582146
 30
0.0
 10
7.8691357499
 20
4.4997792395
 30
0.0
 10
7.8523231814
 20
4.4769478533
 30
0.0
 10
7.8356983796
 20
4.4527867584
 30
0.0
 10
7.8193370814
 20
4.4273163183
 30
0.0
 10
7.8033185424
 20
4.4005572012
 30
0.0
 10
7.7877258368
 20
4.372530271
 30
0.0
 10
7.7673785439
 20
4.3330247221
 30
0.0
 10
7.7485537941
 20
4.2915511896
 30
0.0
 10
7.7314959386
 20
4.2482518501
 30
0.0
 10
7.7194900262
 20
4.2143112349
 30
0.0
 10
7.7085268315
 20
4.1793233056
 30
0.0
 10
7.6987217616
 20
4.1433597128
 30
0.0
 10
7.6901878601
 20
4.1065097801
 30
0.0
 10
7.6830322791
 20
4.0688807619
 30
0.0
 10
7.6773531303
 20
4.0305994396
 30
0.0
 10
7.6739244112
 20
3.9983202465
 30
0.0
 10
7.6719864878
 20
3.972298642
 30
0.0
 10
7.6705947128
 20
3.946136009
 30
0.0
 10
7.67017534
 20
3.9264685452
 30
0.0
 10
7.6701753071
 20
3.9133525069
 30
0.0
  0
SPLINE
  5
2EA
100
AcDbEntity
  8
0
100
AcDbSpline
 62
7
  6
CONTINUOUS
 70
0
 71
3
 72
26
 73
22
 74
0
 42
0.0000001
 43
0.0000001
 44
0.0000000001
 40
0.0
 40
0.0
 40
0.0
 40
0.0
 40
0.0742033702
 40
0.1480195298
 40
0.2210149724
 40
0.2928414417
 40
0.3631377529
 40
0.4316128762
 40
0.4980321331
 40
0.5621806057
 40
0.5933845333
 40
0.6240043918
 40
0.6834444166
 40
0.7404907042
 40
0.7681942848
 40
0.7954027994
 40
0.8484361674
 40
0.8999116435
 40
0.9252381184
 40
0.9503696026
 40
1.0
 40
1.0
 40
1.0
 40
1.0
 10
7.6303832117
 20
2.5433525069
 30
0.0
 10
7.6303834543
 20
2.5407158018
 30
0.0
 10
7.6305618269
 20
2.535454431
 30
0.0
 10
7.6313593944
 20
2.5276357543
 30
0.0
 10
7.6326813292
 20
2.5199734916
 30
0.0
 10
7.6345152384
 20
2.5125460892
 30
0.0
 10
7.6368333712
 20
2.5054237211
 30
0.0
 10
7.6396155684
 20
2.4986760001
 30
0.0
 10
7.6428355643
 20
2.4923700667
 30
0.0
 10
7.6458774385
 20
2.4874829588
 30
0.0
 10
7.6485012285
 20
2.4838544526
 30
0.0
 10
7.6511916919
 20
2.4804868869
 30
0.0
 10
7.6547505163
 20
2.4766456772
 30
0.0
 10
7.6586135678
 20
2.4732632347
 30
0.0
 10
7.661823635
 20
2.4709096899
 30
0.0
 10
7.6650485593
 20
2.4688295078
 30
0.0
 10
7.6692080598
 20
2.4666555347
 30
0.0
 10
7.6735533786
 20
2.4650618186
 30
0.0
 10
7.6770679655
 20
2.4641744454
 30
0.0
 10
7.6805710828
 20
2.4635488171
 30
0.0
 10
7.6832320024
 20
2.4633558837
 30
0.0
 10
7.6849955407
 20
2.4633525069
 30
0.0
  0
SPLINE
  5
2EB
100
AcDbEntity
  8
0
100
AcDbSpline
 62
7
  6
CONTINUOUS
 70
0
 71
3
 72
47
 73
43
 74
0
 42
0.0000001
 43
0.0000001
 44
0.0000000001
 40
0.0
 40
0.0
 40
0.0
 40
0.0
 40
0.0001323444
 40
0.000276433
 40
0.0004423388
 40
0.0006367651
 40
0.0008638975
 40
0.0011263556
 40
0.0017632051
 40
0.002555515
 40
0.0035069764
 40
0.0046195355
 40
0.0058942618
 40
0.0073317393
 40
0.0089322634
 40
0.0106958895
 40
0.0126224123
 40
0.0169628075
 40
0.0219504215
 40
0.0275814217
 40
0.0338505221
 40
0.0407518385
 40
0.0482792756
 40
0.0651832645
 40
0.084499762
 40
0.1061572597
 40
0.1300771715
 40
0.1561728945
 40
0.1843512965
 40
0.2145129636
 40
0.2465519742
 40
0.2803574662
 40
0.3158130494
 40
0.3527977376
 40
0.3911866117
 40
0.4716578052
 40
0.5561595126
 40
0.6435873996
 40
0.7328146504
 40
0.8227076696
 40
0.9121370398
 40
1.0
 40
1.0
 40
1.0
 40
1.0
 10
8.7273901103
 20
3.4770676866
 30
0.0
 10
8.7273616015
 20
3.477067004
 30
0.0
 10
8.7273014622
 20
3.4770756116
 30
0.0
 10
8.7272144637
 20
3.4771171138
 30
0.0
 10
8.7271291067
 20
3.4771855232
 30
0.0
 10
8.7270446153
 20
3.4772803326
 30
0.0
 10
8.7269604121
 20
3.4774016205
 30
0.0
 10
8.7268404352
 20
3.4776128926
 30
0.0
 10
8.7266946366
 20
3.47794788
 30
0.0
 10
8.7265283479
 20
3.4784334114
 30
0.0
 10
8.7263615727
 20
3.4790261245
 30
0.0
 10
8.7261943806
 20
3.479725974
 30
0.0
 10
8.726026952
 20
3.4805330322
 30
0.0
 10
8.7258593678
 20
3.4814471503
 30
0.0
 10
8.7256917029
 20
3.4824681582
 30
0.0
 10
8.7255239914
 20
3.4835958029
 30
0.0
 10
8.7252909974
 20
3.4853104703
 30
0.0
 10
8.7250036249
 20
3.4877186176
 30
0.0
 10
8.7246705658
 20
3.4909247526
 30
0.0
 10
8.7243374001
 20
3.4945484335
 30
0.0
 10
8.7240041939
 20
3.4985860047
 30
0.0
 10
8.7236710548
 20
3.5030334685
 30
0.0
 10
8.7232090598
 20
3.5097691278
 30
0.0
 10
8.7226399574
 20
3.5191787007
 30
0.0
 10
8.7219805046
 20
3.5316326377
 30
0.0
 10
8.7213215066
 20
3.5456002335
 30
0.0
 10
8.7206632046
 20
3.5610300664
 30
0.0
 10
8.7200058494
 20
3.5778661951
 30
0.0
 10
8.7193495853
 20
3.5960482513
 30
0.0
 10
8.7186945285
 20
3.6155117567
 30
0.0
 10
8.7180407309
 20
3.6361884461
 30
0.0
 10
8.7173882581
 20
3.6580064237
 30
0.0
 10
8.7167371397
 20
3.680890566
 30
0.0
 10
8.7160873874
 20
3.7047627353
 30
0.0
 10
8.7152090972
 20
3.7383320347
 30
0.0
 10
8.7141224186
 20
3.7821381304
 30
0.0
 10
8.7128427902
 20
3.8365093589
 30
0.0
 10
8.7115682856
 20
3.8927679236
 30
0.0
 10
8.7102990572
 20
3.9501885911
 30
0.0
 10
8.7090352767
 20
4.0080407526
 30
0.0
 10
8.7077770549
 20
4.0655989935
 30
0.0
 10
8.7069311473
 20
4.103791845
 30
0.0
 10
8.7065063605
 20
4.1227194254
 30
0.0
  0
LINE
  5
2EC
100
AcDbEntity
  8
0
100
AcDbLine
 62
7
  6
CONTINUOUS
 10
9.0311358188
 20
2.9852510925
 11
9.0306149894
 21
2.9866054368
  0
SPLINE
  5
2ED
100
AcDbEntity
  8
0
100
AcDbSpline
 62
7
  6
CONTINUOUS
 70
0
 71
3
 72
32
 73
28
 74
0
 42
0.0000001
 43
0.0000001
 44
0.0000000001
 40
0.0
 40
0.0
 40
0.0
 40
0.0
 40
0.0022840214
 40
0.0051005155
 40
0.0084518805
 40
0.0123387959
 40
0.016760852
 40
0.0217163208
 40
0.0272029626
 40
0.0332183403
 40
0.0468232755
 40
0.0625017231
 40
0.0802201994
 40
0.099938539
 40
0.1216132571
 40
0.1451947538
 40
0.1706304098
 40
0.1978618786
 40
0.2574623692
 40
0.3234548818
 40
0.395239493
 40
0.4721632373
 40
0.5535264313
 40
0.6385888159
 40
0.7265766183
 40
0.8166894634
 40
1.0
 40
1.0
 40
1.0
 40
1.0
 10
9.0306149894
 20
2.9866054368
 30
0.0
 10
9.0305126789
 20
2.9869699011
 30
0.0
 10
9.0303158529
 20
2.9877926093
 30
0.0
 10
9.0300489271
 20
2.9891679484
 30
0.0
 10
9.0297808742
 20
2.9908129338
 30
0.0
 10
9.0295119853
 20
2.9927268166
 30
0.0
 10
9.029242583
 20
2.9949087695
 30
0.0
 10
9.0289727866
 20
2.9973575828
 30
0.0
 10
9.0287026834
 20
3.0000718707
 30
0.0
 10
9.028326657
 20
3.0042160965
 30
0.0
 10
9.027862991
 20
3.0100482569
 30
0.0
 10
9.0273252752
 20
3.0178198189
 30
0.0
 10
9.0267866378
 20
3.0266066846
 30
0.0
 10
9.0262471752
 20
3.0363889711
 30
0.0
 10
9.025707213
 20
3.047144297
 30
0.0
 10
9.0251668184
 20
3.0588482737
 30
0.0
 10
9.0246261225
 20
3.071474113
 30
0.0
 10
9.0238822862
 20
3.0900664129
 30
0.0
 10
9.0229619405
 20
3.1153787863
 30
0.0
 10
9.0218860621
 20
3.1480743561
 30
0.0
 10
9.0208089131
 20
3.1836424495
 30
0.0
 10
9.0197307737
 20
3.2217591166
 30
0.0
 10
9.0186519708
 20
3.26207724
 30
0.0
 10
9.0175726993
 20
3.3042297231
 30
0.0
 10
9.0164931119
 20
3.3478328155
 30
0.0
 10
9.015045211
 20
3.4077153456
 30
0.0
 10
9.0139731379
 20
3.4530196588
 30
0.0
 10
9.0132515158
 20
3.4833928442
 30
0.0
  0
SPLINE
  5
2EE
100
AcDbEntity
  8
0
100
AcDbSpline
 62
7
  6
CONTINUOUS
 70
0
 71
3
 72
38
 73
34
 74
0
 42
0.0000001
 43
0.0000001
 44
0.0000000001
 40
0.0
 40
0.0
 40
0.0
 40
0.0
 40
0.0005624563
 40
0.0012717783
 40
0.0021326965
 40
0.0031476526
 40
0.004317987
 40
0.0056444483
 40
0.0087670369
 40
0.0125160771
 40
0.0168894295
 40
0.0218840602
 40
0.0274961858
 40
0.0337206621
 40
0.0405519325
 40
0.0560106368
 40
0.0738166523
 40
0.0939070739
 40
0.1162109911
 40
0.1406506061
 40
0.167142013
 40
0.1955944036
 40
0.2259119012
 40
0.2579928844
 40
0.32701475
 40
0.4017558582
 40
0.4812524848
 40
0.5644945745
 40
0.6504394761
 40
0.7380251893
 40
0.8261846915
 40
0.9138553921
 40
1.0
 40
1.0
 40
1.0
 40
1.0
 10
8.7449455887
 20
3.4778555201
 30
0.0
 10
8.7448824132
 20
3.4779586941
 30
0.0
 10
8.7447609583
 20
3.4782048854
 30
0.0
 10
8.7445982937
 20
3.4786340893
 30
0.0
 10
8.7444350031
 20
3.4791659632
 30
0.0
 10
8.7442712949
 20
3.4798005384
 30
0.0
 10
8.7441072814
 20
3.4805379813
 30
0.0
 10
8.7438755903
 20
3.4817243494
 30
0.0
 10
8.7435924526
 20
3.4834651984
 30
0.0
 10
8.7432670372
 20
3.4858620584
 30
0.0
 10
8.7429410145
 20
3.4886646563
 30
0.0
 10
8.7426145712
 20
3.4918702467
 30
0.0
 10
8.7422880453
 20
3.495475803
 30
0.0
 10
8.7419614932
 20
3.499477841
 30
0.0
 10
8.7415073013
 20
3.505594253
 30
0.0
 10
8.7409486218
 20
3.51420061
 30
0.0
 10
8.7403022185
 20
3.5256587028
 30
0.0
 10
8.739656135
 20
3.5385912172
 30
0.0
 10
8.7390105722
 20
3.5529521593
 30
0.0
 10
8.7383658485
 20
3.5686911891
 30
0.0
 10
8.7377221342
 20
3.5857537531
 30
0.0
 10
8.7370795293
 20
3.6040814685
 30
0.0
 10
8.7364381078
 20
3.6236121807
 30
0.0
 10
8.735563086
 20
3.6518660156
 30
0.0
 10
8.7344832206
 20
3.6896731484
 30
0.0
 10
8.7332206353
 20
3.7376777625
 30
0.0
 10
8.7319624613
 20
3.7887421176
 30
0.0
 10
8.7307089578
 20
3.8422171096
 30
0.0
 10
8.7294604025
 20
3.897432564
 30
0.0
 10
8.7282169559
 20
3.9537060863
 30
0.0
 10
8.7269787597
 20
4.0103510169
 30
0.0
 10
8.7257459122
 20
4.0666860211
 30
0.0
 10
8.7249171712
 20
4.1040629901
 30
0.0
 10
8.7245010949
 20
4.1225872703
 30
0.0
  0
SPLINE
  5
2EF
100
AcDbEntity
  8
0
100
AcDbSpline
 62
7
  6
CONTINUOUS
 70
0
 71
3
 72
37
 73
33
 74
0
 42
0.0000001
 43
0.0000001
 44
0.0000000001
 40
0.0
 40
0.0
 40
0.0
 40
0.0
 40
0.0473604554
 40
0.0946318453
 40
0.1416760002
 40
0.1883641917
 40
0.2345876242
 40
0.2802393602
 40
0.3693956148
 40
0.4126879854
 40
0.4549870835
 40
0.4961969777
 40
0.5362218345
 40
0.6123640431
 40
0.6827615571
 40
0.7156233888
 40
0.7468341341
 40
0.7763392297
 40
0.8040942306
 40
0.8300602335
 40
0.8542022675
 40
0.8764875042
 40
0.8968908124
 40
0.9154170467
 40
0.932094868
 40
0.9469759482
 40
0.9601354815
 40
0.9716941054
 40
0.9818720138
 40
0.9911041489
 40
0.9955555715
 40
1.0
 40
1.0
 40
1.0
 40
1.0
 10
7.6701752842
 20
2.5433525069
 30
0.0
 10
7.6701754746
 20
2.5420334324
 30
0.0
 10
7.6701861327
 20
2.5393977509
 30
0.0
 10
7.670236616
 20
2.5354520864
 30
0.0
 10
7.6703256676
 20
2.5315258127
 30
0.0
 10
7.6704560646
 20
2.5276299029
 30
0.0
 10
7.670623088
 20
2.5237742157
 30
0.0
 10
7.6708865463
 20
2.5187390205
 30
0.0
 10
7.671209809
 20
2.5137887451
 30
0.0
 10
7.6716103747
 20
2.5089381112
 30
0.0
 10
7.6719436448
 20
2.5054221376
 30
0.0
 10
7.6723088474
 20
2.5020008469
 30
0.0
 10
7.672825337
 20
2.497648081
 30
0.0
 10
7.6735313835
 20
2.4924994258
 30
0.0
 10
7.6743634651
 20
2.4875715018
 30
0.0
 10
7.6750848998
 20
2.4838962327
 30
0.0
 10
7.6756332651
 20
2.4813480973
 30
0.0
 10
7.6762019022
 20
2.4789503226
 30
0.0
 10
7.6767922087
 20
2.4767084554
 30
0.0
 10
7.677406017
 20
2.4746281426
 30
0.0
 10
7.6780394982
 20
2.4727135412
 30
0.0
 10
7.6786879418
 20
2.4709683116
 30
0.0
 10
7.6793468826
 20
2.469395239
 30
0.0
 10
7.6800158786
 20
2.4679975527
 30
0.0
 10
7.6806951493
 20
2.4667778785
 30
0.0
 10
7.6813849965
 20
2.4657390099
 30
0.0
 10
7.6820832349
 20
2.464882437
 30
0.0
 10
7.6827887581
 20
2.4642092624
 30
0.0
 10
7.6835049446
 20
2.4637199719
 30
0.0
 10
7.6841272793
 20
2.4634681593
 30
0.0
 10
7.6846237922
 20
2.4633703182
 30
0.0
 10
7.6848717581
 20
2.4633533393
 30
0.0
 10
7.6849955407
 20
2.4633525069
 30
0.0
  0
SPLINE
  5
2F0
100
AcDbEntity
  8
0
100
AcDbSpline
 62
7
  6
CONTINUOUS
 70
0
 71
3
 72
43
 73
39
 74
0
 42
0.0000001
 43
0.0000001
 44
0.0000000001
 40
0.0
 40
0.0
 40
0.0
 40
0.0
 40
0.0001475048
 40
0.0003034098
 40
0.0004756754
 40
0.0006702593
 40
0.0011411056
 40
0.0017367088
 40
0.0024665941
 40
0.003335742
 40
0.0043469317
 40
0.0055018184
 40
0.0068014203
 40
0.0082463711
 40
0.0115736064
 40
0.0154849693
 40
0.019979556
 40
0.0250554243
 40
0.0307102044
 40
0.0369411287
 40
0.0437444417
 40
0.059051352
 40
0.0765954166
 40
0.0963339928
 40
0.1182209001
 40
0.1422037835
 40
0.1682272059
 40
0.1962301768
 40
0.2261489191
 40
0.291455898
 40
0.3635598591
 40
0.4418207871
 40
0.5255534241
 40
0.6140340906
 40
0.7065074696
 40
0.802193386
 40
0.9002939426
 40
1.0
 40
1.0
 40
1.0
 40
1.0
 10
8.7273901103
 20
2.9770676866
 30
0.0
 10
8.7273673776
 20
2.9770671423
 30
0.0
 10
8.7273202703
 20
2.9770722051
 30
0.0
 10
8.7272509586
 20
2.9770979503
 30
0.0
 10
8.7271824155
 20
2.9771412102
 30
0.0
 10
8.7270856426
 20
2.9772273777
 30
0.0
 10
8.7269675044
 20
2.9773836554
 30
0.0
 10
8.7268342215
 20
2.9776268574
 30
0.0
 10
8.7267006734
 20
2.9779381604
 30
0.0
 10
8.726566872
 20
2.9783178465
 30
0.0
 10
8.726432824
 20
2.9787662915
 30
0.0
 10
8.7262986161
 20
2.9792835182
 30
0.0
 10
8.7261642836
 20
2.9798695194
 30
0.0
 10
8.7259761247
 20
2.9807865011
 30
0.0
 10
8.7257449679
 20
2.9821053017
 30
0.0
 10
8.7254782521
 20
2.9838944308
 30
0.0
 10
8.7252111918
 20
2.9859556547
 30
0.0
 10
8.7249438901
 20
2.9882875614
 30
0.0
 10
8.7246765245
 20
2.9908886914
 30
0.0
 10
8.7244091711
 20
2.9937573838
 30
0.0
 10
8.7240380531
 20
2.998110685
 30
0.0
 10
8.723580689
 20
3.0042067846
 30
0.0
 10
8.7230507868
 20
3.0122967031
 30
0.0
 10
8.7225209858
 20
3.0214029143
 30
0.0
 10
8.7219915201
 20
3.0315032377
 30
0.0
 10
8.7214625509
 20
3.0425736565
 30
0.0
 10
8.720934247
 20
3.0545879359
 30
0.0
 10
8.7204066264
 20
3.0675181282
 30
0.0
 10
8.7196828976
 20
3.0865012204
 30
0.0
 10
8.7187896947
 20
3.1122812762
 30
0.0
 10
8.7177487129
 20
3.1455128689
 30
0.0
 10
8.7167103829
 20
3.1815863009
 30
0.0
 10
8.715674936
 20
3.2201853986
 30
0.0
 10
8.7146426354
 20
3.2609762989
 30
0.0
 10
8.7136136206
 20
3.3036105492
 30
0.0
 10
8.7125879962
 20
3.3477282894
 30
0.0
 10
8.7115658302
 20
3.3929613853
 30
0.0
 10
8.7108903589
 20
3.4234476589
 30
0.0
 10
8.710551807
 20
3.4388145591
 30
0.0
  0
LINE
  5
2F1
100
AcDbEntity
  8
0
100
AcDbLine
 62
7
  6
CONTINUOUS
 10
8.710551807
 20
3.4388145591
 11
8.7104134918
 21
3.4450974422
  0
LINE
  5
2F2
100
AcDbEntity
  8
0
100
AcDbLine
 62
7
  6
CONTINUOUS
 10
9.1025641928
 20
2.9869804991
 11
9.1023046317
 21
2.9875297026
  0
SPLINE
  5
2F3
100
AcDbEntity
  8
0
100
AcDbSpline
 62
7
  6
CONTINUOUS
 70
0
 71
3
 72
36
 73
32
 74
0
 42
0.0000001
 43
0.0000001
 44
0.0000000001
 40
0.0
 40
0.0
 40
0.0
 40
0.0
 40
0.0008369383
 40
0.0018078942
 40
0.0029143827
 40
0.0041573595
 40
0.0070548926
 40
0.0105033647
 40
0.0145034322
 40
0.0190540104
 40
0.0241533313
 40
0.0297993184
 40
0.0427199559
 40
0.0577877621
 40
0.0749697658
 40
0.0942258992
 40
0.1155122775
 40
0.1387786435
 40
0.1639712227
 40
0.1910303325
 40
0.2198929981
 40
0.2504908579
 40
0.3166013636
 40
0.3887398684
 40
0.4662273437
 40
0.5483343129
 40
0.634287661
 40
0.7232782122
 40
0.8144681104
 40
0.9069990138
 40
1.0
 40
1.0
 40
1.0
 40
1.0
 10
9.1023046317
 20
2.9875297026
 30
0.0
 10
9.1022546596
 20
2.9876593377
 30
0.0
 10
9.1021564264
 20
2.9879431199
 30
0.0
 10
9.1020195628
 20
2.9884072615
 30
0.0
 10
9.1018824542
 20
2.9889412319
 30
0.0
 10
9.1016894112
 20
2.9897906677
 30
0.0
 10
9.1014526761
 20
2.9910283506
 30
0.0
 10
9.1011798767
 20
2.9927241588
 30
0.0
 10
9.1009063889
 20
2.9946972991
 30
0.0
 10
9.1006323035
 20
2.9969466561
 30
0.0
 10
9.1003578038
 20
2.9994709785
 30
0.0
 10
9.0999739532
 20
3.0033808276
 30
0.0
 10
9.0995017469
 20
3.0089444256
 30
0.0
 10
9.0989554192
 20
3.0164229807
 30
0.0
 10
9.098407959
 20
3.0249556086
 30
0.0
 10
9.0978595012
 20
3.0345223319
 30
0.0
 10
9.0973104443
 20
3.0451005259
 30
0.0
 10
9.096760879
 20
3.0566653582
 30
0.0
 10
9.0962109816
 20
3.0691894513
 30
0.0
 10
9.0956607925
 20
3.0826433562
 30
0.0
 10
9.095110393
 20
3.096995239
 30
0.0
 10
9.0943567142
 20
3.1178266463
 30
0.0
 10
9.0934226377
 20
3.1458400264
 30
0.0
 10
9.0923271273
 20
3.1816359527
 30
0.0
 10
9.0912306291
 20
3.220088443
 30
0.0
 10
9.0901333708
 20
3.2608350725
 30
0.0
 10
9.0890356075
 20
3.3034918772
 30
0.0
 10
9.087937502
 20
3.347656935
 30
0.0
 10
9.0868391916
 20
3.3929142012
 30
0.0
 10
9.0857407871
 20
3.4388373967
 30
0.0
 10
9.0850080784
 20
3.4696273171
 30
0.0
 10
9.0846400053
 20
3.4850612648
 30
0.0
  0
SPLINE
  5
2F4
100
AcDbEntity
  8
0
100
AcDbSpline
 62
7
  6
CONTINUOUS
 70
0
 71
3
 72
38
 73
34
 74
0
 42
0.0000001
 43
0.0000001
 44
0.0000000001
 40
0.0
 40
0.0
 40
0.0
 40
0.0
 40
0.0006036809
 40
0.0013388789
 40
0.0022097985
 40
0.003218886
 40
0.00436765
 40
0.0056570595
 40
0.0086600247
 40
0.0122303698
 40
0.0163680141
 40
0.0210719426
 40
0.0263406168
 40
0.0321715652
 40
0.0385614738
 40
0.0530040638
 40
0.0696359905
 40
0.0884177533
 40
0.1093048469
 40
0.1322467968
 40
0.1571883329
 40
0.184068903
 40
0.2128232975
 40
0.2433816847
 40
0.3096087395
 40
0.382105747
 40
0.4601670769
 40
0.5430326798
 40
0.6298957545
 40
0.7199105388
 40
0.8122006667
 40
0.9058677324
 40
1.0
 40
1.0
 40
1.0
 40
1.0
 10
9.1739925549
 20
2.9887099154
 30
0.0
 10
9.1739402815
 20
2.9887955407
 30
0.0
 10
9.1738385258
 20
2.988994051
 30
0.0
 10
9.1737000123
 20
2.9893343994
 30
0.0
 10
9.1735611068
 20
2.9897464363
 30
0.0
 10
9.1734219095
 20
2.9902302514
 30
0.0
 10
9.1732824624
 20
2.9907859837
 30
0.0
 10
9.1730861979
 20
2.991668728
 30
0.0
 10
9.1728454787
 20
2.9929533343
 30
0.0
 10
9.1725680497
 20
2.9947116849
 30
0.0
 10
9.1722898898
 20
2.9967555988
 30
0.0
 10
9.1720111274
 20
2.9990839041
 30
0.0
 10
9.1717319962
 20
3.0016953404
 30
0.0
 10
9.17145256
 20
3.0045883505
 30
0.0
 10
9.1710636165
 20
3.0090022556
 30
0.0
 10
9.1705839563
 20
3.0152098094
 30
0.0
 10
9.1700276777
 20
3.0234763839
 30
0.0
 10
9.1694703882
 20
3.0328159841
 30
0.0
 10
9.1689123047
 20
3.0432057996
 30
0.0
 10
9.1683536638
 20
3.0546205589
 30
0.0
 10
9.1677946095
 20
3.0670323901
 30
0.0
 10
9.1672352422
 20
3.0804110303
 30
0.0
 10
9.1666756142
 20
3.094723834
 30
0.0
 10
9.1659084769
 20
3.1155721158
 30
0.0
 10
9.1649581819
 20
3.1436877038
 30
0.0
 10
9.1638445139
 20
3.1796962022
 30
0.0
 10
9.1627297577
 20
3.2184709045
 30
0.0
 10
9.1616141677
 20
3.2596338747
 30
0.0
 10
9.1604980264
 20
3.302783962
 30
0.0
 10
9.1593815124
 20
3.3475007216
 30
0.0
 10
9.1582647758
 20
3.3933485133
 30
0.0
 10
9.1571479372
 20
3.43988075
 30
0.0
 10
9.1564028099
 20
3.4710805953
 30
0.0
 10
9.156028439
 20
3.4867191397
 30
0.0
  0
SPLINE
  5
2F5
100
AcDbEntity
  8
0
100
AcDbSpline
 62
7
  6
CONTINUOUS
 70
0
 71
3
 72
38
 73
34
 74
0
 42
0.0000001
 43
0.0000001
 44
0.0000000001
 40
0.0
 40
0.0
 40
0.0
 40
0.0
 40
0.0005964482
 40
0.0013251784
 40
0.0021904094
 40
0.0031945125
 40
0.004338899
 40
0.005624432
 40
0.0086207207
 40
0.0121855736
 40
0.016318604
 40
0.0210180294
 40
0.0262815596
 40
0.0321065363
 40
0.038489373
 40
0.0529118336
 40
0.0695136587
 40
0.0882524536
 40
0.1090820277
 40
0.1319499925
 40
0.1568007255
 40
0.1835729814
 40
0.2122026568
 40
0.2426205041
 40
0.308529007
 40
0.3806793195
 40
0.4584032866
 40
0.5409908179
 40
0.6276971329
 40
0.7177497497
 40
0.8103559919
 40
0.9047100234
 40
1.0
 40
1.0
 40
1.0
 40
1.0
 10
8.7449455887
 20
2.9778555201
 30
0.0
 10
8.7448937331
 20
2.9779402073
 30
0.0
 10
8.7447929126
 20
2.9781371177
 30
0.0
 10
8.7446559614
 20
2.9784753518
 30
0.0
 10
8.7445186784
 20
2.978885776
 30
0.0
 10
8.7443811679
 20
2.9793684373
 30
0.0
 10
8.7442434741
 20
2.9799234295
 30
0.0
 10
8.744049717
 20
2.9808058972
 30
0.0
 10
8.7438123132
 20
2.9820908629
 30
0.0
 10
8.7435390066
 20
2.9838503665
 30
0.0
 10
8.7432652572
 20
2.9858962756
 30
0.0
 10
8.7429911739
 20
2.9882271183
 30
0.0
 10
8.7427169817
 20
2.9908413544
 30
0.0
 10
8.7424427705
 20
2.9937372308
 30
0.0
 10
8.7420615384
 20
2.9981545039
 30
0.0
 10
8.7415921236
 20
3.0043648369
 30
0.0
 10
8.7410487734
 20
3.0126321019
 30
0.0
 10
8.7405054847
 20
3.0219681099
 30
0.0
 10
8.7399625104
 20
3.0323489402
 30
0.0
 10
8.7394200408
 20
3.0437486219
 30
0.0
 10
8.738878252
 20
3.0561387464
 30
0.0
 10
8.7383371981
 20
3.069489008
 30
0.0
 10
8.7377969642
 20
3.0837668722
 30
0.0
 10
8.7370578836
 20
3.1045575831
 30
0.0
 10
8.736145008
 20
3.1325923308
 30
0.0
 10
8.7350791587
 20
3.1685020527
 30
0.0
 10
8.7340162782
 20
3.2071898613
 30
0.0
 10
8.7329565646
 20
3.2483020188
 30
0.0
 10
8.7319002457
 20
3.2914674907
 30
0.0
 10
8.7308474437
 20
3.3363015293
 30
0.0
 10
8.7297982513
 20
3.3824092512
 30
0.0
 10
8.7287527294
 20
3.4293892386
 30
0.0
 10
8.7280596415
 20
3.4609553102
 30
0.0
 10
8.727712245
 20
3.4768162583
 30
0.0
  0
SPLINE
  5
2F6
100
AcDbEntity
  8
0
100
AcDbSpline
 62
7
  6
CONTINUOUS
 70
0
 71
3
 72
38
 73
34
 74
0
 42
0.0000001
 43
0.0000001
 44
0.0000000001
 40
0.0
 40
0.0
 40
0.0
 40
0.0
 40
0.0006050482
 40
0.0013416754
 40
0.0022141401
 40
0.0032249488
 40
0.0043756684
 40
0.0056672446
 40
0.0086747744
 40
0.0122498078
 40
0.0163926864
 40
0.0211027156
 40
0.0263778178
 40
0.0322153081
 40
0.0386123048
 40
0.0530707893
 40
0.0697194608
 40
0.0885197549
 40
0.1094258739
 40
0.1323879836
 40
0.157349727
 40
0.1842509297
 40
0.2130254977
 40
0.2436036426
 40
0.3098667233
 40
0.3823927622
 40
0.460472644
 40
0.5433428846
 40
0.6301930391
 40
0.7201737616
 40
0.8124052264
 40
0.9059855602
 40
1.0
 40
1.0
 40
1.0
 40
1.0
 10
9.2454209052
 20
2.9904396009
 30
0.0
 10
9.2453685275
 20
2.9905254056
 30
0.0
 10
9.2452665492
 20
2.9907242732
 30
0.0
 10
9.2451277043
 20
2.9910651882
 30
0.0
 10
9.2449884668
 20
2.9914778465
 30
0.0
 10
9.2448489397
 20
2.9919623669
 30
0.0
 10
9.2447091736
 20
2.9925189044
 30
0.0
 10
9.2445124854
 20
2.993402851
 30
0.0
 10
9.2442712452
 20
2.9946890288
 30
0.0
 10
9.2439931903
 20
2.9964493633
 30
0.0
 10
9.2437144188
 20
2.9984954717
 30
0.0
 10
9.2434350669
 20
3.0008262143
 30
0.0
 10
9.2431553229
 20
3.0034402521
 30
0.0
 10
9.2428752552
 20
3.006335975
 30
0.0
 10
9.2424854535
 20
3.0107538541
 30
0.0
 10
9.2420047692
 20
3.016966721
 30
0.0
 10
9.2414472365
 20
3.0252400988
 30
0.0
 10
9.2408887483
 20
3.0345868219
 30
0.0
 10
9.240329415
 20
3.0449841238
 30
0.0
 10
9.2397695639
 20
3.0564064529
 30
0.0
 10
9.2392092678
 20
3.0688259267
 30
0.0
 10
9.2386486818
 20
3.0822120256
 30
0.0
 10
9.2380878172
 20
3.0965320311
 30
0.0
 10
9.2373190272
 20
3.1173887738
 30
0.0
 10
9.2363666756
 20
3.1455128548
 30
0.0
 10
9.2352505718
 20
3.1815280853
 30
0.0
 10
9.2341333771
 20
3.220303763
 30
0.0
 10
9.2330153491
 20
3.26146027
 30
0.0
 10
9.2318967703
 20
3.3045947618
 30
0.0
 10
9.2307778201
 20
3.3492850995
 30
0.0
 10
9.2296586494
 20
3.3950939815
 30
0.0
 10
9.2285393792
 20
3.4415732535
 30
0.0
 10
9.2277925001
 20
3.4727329183
 30
0.0
 10
9.2274172406
 20
3.4883487805
 30
0.0
  0
SPLINE
  5
2F7
100
AcDbEntity
  8
0
100
AcDbSpline
 62
7
  6
CONTINUOUS
 70
0
 71
3
 72
38
 73
34
 74
0
 42
0.0000001
 43
0.0000001
 44
0.0000000001
 40
0.0
 40
0.0
 40
0.0
 40
0.0
 40
0.0005996653
 40
0.0013304387
 40
0.0021965675
 40
0.0032005435
 40
0.0043439231
 40
0.0056276818
 40
0.0086181482
 40
0.0121741652
 40
0.0162960315
 40
0.0209831024
 40
0.0262334586
 40
0.03204442
 40
0.0384131066
 40
0.0528101675
 40
0.0693915979
 40
0.0881196891
 40
0.1089495822
 40
0.1318325709
 40
0.1567133771
 40
0.1835331989
 40
0.2122271492
 40
0.2427270247
 40
0.3088463162
 40
0.3812563598
 40
0.4592615635
 40
0.5421124926
 40
0.6290130587
 40
0.7191282621
 40
0.8115923508
 40
0.9055169671
 40
1.0
 40
1.0
 40
1.0
 40
1.0
 10
8.9597074331
 20
2.9835216348
 30
0.0
 10
8.9596554862
 20
2.9836067278
 30
0.0
 10
8.959554381
 20
2.9838041019
 30
0.0
 10
8.959416792
 20
2.984142621
 30
0.0
 10
8.9592788114
 20
2.9845526527
 30
0.0
 10
8.9591405393
 20
2.9850343137
 30
0.0
 10
8.9590020201
 20
2.9855877646
 30
0.0
 10
8.958807053
 20
2.9864671865
 30
0.0
 10
8.9585679328
 20
2.9877471672
 30
0.0
 10
8.9582923286
 20
2.9894994075
 30
0.0
 10
8.9580160056
 20
2.9915365848
 30
0.0
 10
8.9577391081
 20
2.9938575954
 30
0.0
 10
8.9574618314
 20
2.9964611406
 30
0.0
 10
8.9571842341
 20
2.9993456395
 30
0.0
 10
8.9567978409
 20
3.0037472033
 30
0.0
 10
8.9563213696
 20
3.0099381334
 30
0.0
 10
8.955768741
 20
3.0181835757
 30
0.0
 10
8.9552151668
 20
3.0275005473
 30
0.0
 10
8.9546607511
 20
3.0378667592
 30
0.0
 10
8.9541058235
 20
3.049257171
 30
0.0
 10
8.9535504497
 20
3.0616444811
 30
0.0
 10
8.9529947922
 20
3.0749987616
 30
0.0
 10
8.9524388531
 20
3.0892879676
 30
0.0
 10
8.9516767148
 20
3.1101076827
 30
0.0
 10
8.9507325936
 20
3.1381934442
 30
0.0
 10
8.9496262599
 20
3.1741759268
 30
0.0
 10
8.9485188388
 20
3.21294127
 30
0.0
 10
8.9474105853
 20
3.2541165941
 30
0.0
 10
8.9463017786
 20
3.2973059141
 30
0.0
 10
8.9451925954
 20
3.3420939423
 30
0.0
 10
8.9440831839
 20
3.3880500791
 30
0.0
 10
8.9429736621
 20
3.4347325836
 30
0.0
 10
8.9422338
 20
3.4660471267
 30
0.0
 10
8.9418620974
 20
3.4817507885
 30
0.0
  0
SPLINE
  5
2F8
100
AcDbEntity
  8
0
100
AcDbSpline
 62
7
  6
CONTINUOUS
 70
0
 71
3
 72
31
 73
27
 74
0
 42
0.0000001
 43
0.0000001
 44
0.0000000001
 40
0.0
 40
0.0
 40
0.0
 40
0.0
 40
0.0184488329
 40
0.0374304456
 40
0.0570254134
 40
0.0773028924
 40
0.0983220087
 40
0.1201326524
 40
0.1427761472
 40
0.1662847315
 40
0.1906831176
 40
0.2159903835
 40
0.2422198128
 40
0.269379233
 40
0.2974727336
 40
0.3265012199
 40
0.3564628153
 40
0.387353463
 40
0.4518923709
 40
0.5200584846
 40
0.5917695235
 40
0.6669301336
 40
0.7454388057
 40
0.8271920674
 40
0.912082169
 40
1.0
 40
1.0
 40
1.0
 40
1.0
 10
8.0430404476
 20
4.7133525069
 30
0.0
 10
8.0408329743
 20
4.7133522664
 30
0.0
 10
8.0363526551
 20
4.7131722303
 30
0.0
 10
8.0295685143
 20
4.7123925127
 30
0.0
 10
8.0226395099
 20
4.7111061215
 30
0.0
 10
8.0155713908
 20
4.7093192799
 30
0.0
 10
8.0083691387
 20
4.7070373845
 30
0.0
 10
8.0010378973
 20
4.7042656329
 30
0.0
 10
7.9935829187
 20
4.7010092247
 30
0.0
 10
7.9860097861
 20
4.6972734504
 30
0.0
 10
7.9783244152
 20
4.6930636511
 30
0.0
 10
7.9705330148
 20
4.6883851866
 30
0.0
 10
7.9626419084
 20
4.6832438045
 30
0.0
 10
7.954657471
 20
4.6776456849
 30
0.0
 10
7.9465862702
 20
4.6715970193
 30
0.0
 10
7.9384349681
 20
4.6651039812
 30
0.0
 10
7.930210592
 20
4.658172245
 30
0.0
 10
7.9189929245
 20
4.6482066943
 30
0.0
 10
7.9048478045
 20
4.6346642081
 30
0.0
 10
7.8879389607
 20
4.6169814475
 30
0.0
 10
7.8709171668
 20
4.5976777638
 30
0.0
 10
7.8538467297
 20
4.576793106
 30
0.0
 10
7.8367945003
 20
4.5543646361
 30
0.0
 10
7.8198314586
 20
4.5304268755
 30
0.0
 10
7.8030311708
 20
4.5050140063
 30
0.0
 10
7.7921749362
 20
4.4874114388
 30
0.0
 10
7.7867902613
 20
4.4783743235
 30
0.0
  0
SPLINE
  5
2F9
100
AcDbEntity
  8
0
100
AcDbSpline
 62
7
  6
CONTINUOUS
 70
0
 71
3
 72
21
 73
17
 74
0
 42
0.0000001
 43
0.0000001
 44
0.0000000001
 40
0.0
 40
0.0
 40
0.0
 40
0.0
 40
0.0531541132
 40
0.107903364
 40
0.1641876366
 40
0.221945203
 40
0.2811124088
 40
0.3416211877
 40
0.4033999115
 40
0.4663685828
 40
0.5954947483
 40
0.7281828501
 40
0.7955610664
 40
0.8634278019
 40
0.9316327047
 40
1.0
 40
1.0
 40
1.0
 40
1.0
 10
7.7867902613
 20
4.4783743235
 30
0.0
 10
7.7814102932
 20
4.4693451077
 30
0.0
 10
7.7707681566
 20
4.4508478229
 30
0.0
 10
7.7554235382
 20
4.4222318366
 30
0.0
 10
7.7405364197
 20
4.3923540587
 30
0.0
 10
7.7261916198
 20
4.361247294
 30
0.0
 10
7.7124778235
 20
4.3289473341
 30
0.0
 10
7.6994881082
 20
4.2954947361
 30
0.0
 10
7.6873185827
 20
4.2609363091
 30
0.0
 10
7.6721917188
 20
4.2130617149
 30
0.0
 10
7.6559387397
 20
4.1508763853
 30
0.0
 10
7.6439091671
 20
4.0868434136
 30
0.0
 10
7.6369728138
 20
4.0343091771
 30
0.0
 10
7.6331869109
 20
3.9942483585
 30
0.0
 10
7.6308949727
 20
3.9538793371
 30
0.0
 10
7.6303832466
 20
3.9268712172
 30
0.0
 10
7.6303832163
 20
3.9133525069
 30
0.0
  0
SPLINE
  5
2FA
100
AcDbEntity
  8
0
100
AcDbSpline
 62
7
  6
CONTINUOUS
 70
0
 71
3
 72
68
 73
64
 74
0
 42
0.0000001
 43
0.0000001
 44
0.0000000001
 40
0.0
 40
0.0
 40
0.0
 40
0.0
 40
0.0000710362
 40
0.0001459658
 40
0.0002284928
 40
0.0003214152
 40
0.0005454332
 40
0.0008279497
 40
0.0011735763
 40
0.0015847905
 40
0.0020630376
 40
0.0026092111
 40
0.0032238446
 40
0.0039072629
 40
0.0054811393
 40
0.0073317216
 40
0.0094591304
 40
0.0118628654
 40
0.0145418787
 40
0.0174949691
 40
0.0207208432
 40
0.0279841143
 40
0.0363160185
 40
0.0456986971
 40
0.0561110259
 40
0.0675300685
 40
0.079929883
 40
0.0932828756
 40
0.1075586287
 40
0.1387480365
 40
0.1732163175
 40
0.2106517985
 40
0.2507157928
 40
0.2930458471
 40
0.3372589106
 40
0.3829549718
 40
0.4297206002
 40
0.4771327218
 40
0.5247625247
 40
0.5721792093
 40
0.6189540731
 40
0.6646642155
 40
0.70889651
 40
0.7512512822
 40
0.7913459103
 40
0.8288184001
 40
0.8633305401
 40
0.8945711516
 40
0.908875386
 40
0.9222588819
 40
0.934691225
 40
0.9461449157
 40
0.9565939868
 40
0.96601559
 40
0.9743885514
 40
0.9816950888
 40
0.9879193822
 40
0.9906219235
 40
0.9930496447
 40
0.9952015018
 40
0.9970770691
 40
0.998676358
 40
1.0
 40
1.0
 40
1.0
 40
1.0
 10
9.0135901434
 20
3.484453281
 30
0.0
 10
9.0135674756
 20
3.4844527377
 30
0.0
 10
9.0135205618
 20
3.4844576463
 30
0.0
 10
9.0134514507
 20
3.4844827222
 30
0.0
 10
9.0133830492
 20
3.4845249246
 30
0.0
 10
9.0132865582
 20
3.4846089325
 30
0.0
 10
9.0131685685
 20
3.4847614576
 30
0.0
 10
9.013035339
 20
3.4849990786
 30
0.0
 10
9.0129017962
 20
3.4853032248
 30
0.0
 10
9.0127679501
 20
3.4856742381
 30
0.0
 10
9.0126337999
 20
3.4861125591
 30
0.0
 10
9.0124994331
 20
3.4866182789
 30
0.0
 10
9.0123648761
 20
3.4871914279
 30
0.0
 10
9.0121762999
 20
3.4880885902
 30
0.0
 10
9.0119444396
 20
3.4893794
 30
0.0
 10
9.0116766415
 20
3.4911312935
 30
0.0
 10
9.0114082607
 20
3.49315065
 30
0.0
 10
9.0111393962
 20
3.4954363936
 30
0.0
 10
9.0108701977
 20
3.4979872676
 30
0.0
 10
9.0106007253
 20
3.5008018449
 30
0.0
 10
9.0102262175
 20
3.5050761846
 30
0.0
 10
9.0097640122
 20
3.5110660941
 30
0.0
 10
9.0092275007
 20
3.5190208789
 30
0.0
 10
9.0086901281
 20
3.5279827857
 30
0.0
 10
9.0081519969
 20
3.5379316171
 30
0.0
 10
9.0076133938
 20
3.5488447491
 30
0.0
 10
9.0070743885
 20
3.5606975473
 30
0.0
 10
9.0065350958
 20
3.5734630471
 30
0.0
 10
9.0057936709
 20
3.5922228088
 30
0.0
 10
9.0048760557
 20
3.6177206374
 30
0.0
 10
9.003802906
 20
3.6506098735
 30
0.0
 10
9.0027285348
 20
3.6863331637
 30
0.0
 10
9.001653212
 20
3.7245669035
 30
0.0
 10
9.0005772509
 20
3.7649647916
 30
0.0
 10
8.9995008382
 20
3.8071609943
 30
0.0
 10
8.9984241275
 20
3.85077344
 30
0.0
 10
8.9973472378
 20
3.8954073029
 30
0.0
 10
8.9962702704
 20
3.9406585783
 30
0.0
 10
8.9951933164
 20
3.9861177254
 30
0.0
 10
8.9941164634
 20
4.0313734091
 30
0.0
 10
8.9930398025
 20
4.076016179
 30
0.0
 10
8.9919634345
 20
4.1196422181
 30
0.0
 10
8.9908874776
 20
4.1618569613
 30
0.0
 10
8.9898120842
 20
4.2022786792
 30
0.0
 10
8.9887374393
 20
4.2405419303
 30
0.0
 10
8.987663853
 20
4.2763008504
 30
0.0
 10
8.9865915916
 20
4.3092322937
 30
0.0
 10
8.9856749129
 20
4.3347696149
 30
0.0
 10
8.9849343505
 20
4.3535646092
 30
0.0
 10
8.9843956474
 20
4.3663593699
 30
0.0
 10
8.9838572545
 20
4.3782434067
 30
0.0
 10
8.9833192869
 20
4.3891897793
 30
0.0
 10
8.9827818212
 20
4.3991739111
 30
0.0
 10
8.9822450899
 20
4.4081731723
 30
0.0
 10
8.9817093727
 20
4.4161674579
 30
0.0
 10
8.981174988
 20
4.4231386758
 30
0.0
 10
8.9807124661
 20
4.4282998375
 30
0.0
 10
8.9803360669
 20
4.4319046067
 30
0.0
 10
8.9800675758
 20
4.4342135237
 30
0.0
 10
8.9797995478
 20
4.4362565458
 30
0.0
 10
8.9795321912
 20
4.4380327085
 30
0.0
 10
8.9792657434
 20
4.4395411694
 30
0.0
 10
8.9790709709
 20
4.4404539958
 30
0.0
 10
8.9789704679
 20
4.4408643663
 30
0.0
  0
LINE
  5
2FB
100
AcDbEntity
  8
0
100
AcDbLine
 62
7
  6
CONTINUOUS
 10
8.9789704679
 20
4.4408643663
 11
8.9783621392
 21
4.4426636976
  0
SPLINE
  5
2FC
100
AcDbEntity
  8
0
100
AcDbSpline
 62
7
  6
CONTINUOUS
 70
0
 71
3
 72
73
 73
69
 74
0
 42
0.0000001
 43
0.0000001
 44
0.0000000001
 40
0.0
 40
0.0
 40
0.0
 40
0.0
 40
0.0000724115
 40
0.0001488996
 40
0.0002333246
 40
0.0003285857
 40
0.0005588123
 40
0.0008497609
 40
0.0012061375
 40
0.001630462
 40
0.0021241536
 40
0.0026880573
 40
0.0033227042
 40
0.0040284353
 40
0.0056538989
 40
0.0075654413
 40
0.00976299
 40
0.0122457831
 40
0.0150128308
 40
0.0180629957
 40
0.021394729
 40
0.0288951818
 40
0.0374980214
 40
0.04718344
 40
0.0579294987
 40
0.0697110106
 40
0.0825009085
 40
0.0962690524
 40
0.1109835971
 40
0.1431114906
 40
0.178584038
 40
0.2170690836
 40
0.2582061782
 40
0.301609944
 40
0.3468737761
 40
0.3935736626
 40
0.4412721533
 40
0.4895225411
 40
0.5378729574
 40
0.585870723
 40
0.633066502
 40
0.6790185807
 40
0.7232969906
 40
0.7654875193
 40
0.8051956676
 40
0.8420502694
 40
0.8757070947
 40
0.891236964
 40
0.9058520759
 40
0.9195185022
 40
0.9322043603
 40
0.9438802927
 40
0.9545192029
 40
0.9640966687
 40
0.9725907712
 40
0.9799824605
 40
0.9832597022
 40
0.9862556422
 40
0.9889687192
 40
0.9913975714
 40
0.9935414176
 40
0.99539982
 40
0.9969727391
 40
0.9982610117
 40
0.9987992755
 40
0.9992677247
 40
0.9996673938
 40
1.0
 40
1.0
 40
1.0
 40
1.0
 10
9.0850201434
 20
3.4861814956
 30
0.0
 10
9.0849970741
 20
3.4861809424
 30
0.0
 10
9.0849492883
 20
3.4861860278
 30
0.0
 10
9.0848789416
 20
3.4862119334
 30
0.0
 10
9.0848093434
 20
3.4862554919
 30
0.0
 10
9.0847110917
 20
3.4863422451
 30
0.0
 10
9.0845910467
 20
3.4864996647
 30
0.0
 10
9.0844555297
 20
3.4867447687
 30
0.0
 10
9.084319674
 20
3.4870585541
 30
0.0
 10
9.0841835041
 20
3.4874413624
 30
0.0
 10
9.0840470166
 20
3.4878936148
 30
0.0
 10
9.0839102966
 20
3.4884153677
 30
0.0
 10
9.0837733802
 20
3.4890066401
 30
0.0
 10
9.0835814883
 20
3.4899321674
 30
0.0
 10
9.083345553
 20
3.4912637504
 30
0.0
 10
9.0830730787
 20
3.4930709175
 30
0.0
 10
9.0828000057
 20
3.4951538814
 30
0.0
 10
9.0825264167
 20
3.4975114361
 30
0.0
 10
9.0822524919
 20
3.5001422841
 30
0.0
 10
9.0819783047
 20
3.5030449575
 30
0.0
 10
9.0815972587
 20
3.5074525392
 30
0.0
 10
9.0811269395
 20
3.513628305
 30
0.0
 10
9.0805810653
 20
3.5218285051
 30
0.0
 10
9.0800342462
 20
3.5310649681
 30
0.0
 10
9.0794867172
 20
3.5413159368
 30
0.0
 10
9.0789386529
 20
3.5525574808
 30
0.0
 10
9.0783902292
 20
3.564763122
 30
0.0
 10
9.0778414695
 20
3.5779043094
 30
0.0
 10
9.0770872406
 20
3.5972047915
 30
0.0
 10
9.0761537583
 20
3.6234201413
 30
0.0
 10
9.0750618786
 20
3.6572095427
 30
0.0
 10
9.0739687569
 20
3.693871303
 30
0.0
 10
9.0728746769
 20
3.7330615709
 30
0.0
 10
9.071779956
 20
3.774412856
 30
0.0
 10
9.0706847872
 20
3.8175374539
 30
0.0
 10
9.0695893286
 20
3.8620310993
 30
0.0
 10
9.0684937044
 20
3.9074767676
 30
0.0
 10
9.0673980214
 20
3.9534485704
 30
0.0
 10
9.0663023773
 20
3.999515773
 30
0.0
 10
9.065206868
 20
4.0452468041
 30
0.0
 10
9.0641115951
 20
4.0902133246
 30
0.0
 10
9.0630166733
 20
4.1339942223
 30
0.0
 10
9.0619222443
 20
4.1761795613
 30
0.0
 10
9.0608284781
 20
4.2163744244
 30
0.0
 10
9.0597356444
 20
4.2542025979
 30
0.0
 10
9.0586439863
 20
4.2893100994
 30
0.0
 10
9.0577125472
 20
4.3167137124
 30
0.0
 10
9.0569607988
 20
4.3370319894
 30
0.0
 10
9.0564124197
 20
4.3509829157
 30
0.0
 10
9.0558643277
 20
4.364026789
 30
0.0
 10
9.0553165551
 20
4.3761331435
 30
0.0
 10
9.0547692184
 20
4.3872736566
 30
0.0
 10
9.0542224252
 20
4.3974223254
 30
0.0
 10
9.0536764314
 20
4.4065554575
 30
0.0
 10
9.0531313966
 20
4.4146517695
 30
0.0
 10
9.052661689
 20
4.4207406571
 30
0.0
 10
9.0522809809
 20
4.4250787016
 30
0.0
 10
9.0520072505
 20
4.4279293415
 30
0.0
 10
9.0517338163
 20
4.4305082884
 30
0.0
 10
9.0514607349
 20
4.4328140571
 30
0.0
 10
9.0511881491
 20
4.4348453886
 30
0.0
 10
9.050916375
 20
4.4366013414
 30
0.0
 10
9.0506455569
 20
4.4380809737
 30
0.0
 10
9.0504094916
 20
4.4391388241
 30
0.0
 10
9.0502158128
 20
4.4398442172
 30
0.0
 10
9.0500796356
 20
4.440271398
 30
0.0
 10
9.0499438202
 20
4.4406293294
 30
0.0
 10
9.0498446891
 20
4.4408410609
 30
0.0
 10
9.0497938979
 20
4.4409340929
 30
0.0
  0
SPLINE
  5
2FD
100
AcDbEntity
  8
0
100
AcDbSpline
 62
7
  6
CONTINUOUS
 70
0
 71
3
 72
73
 73
69
 74
0
 42
0.0000001
 43
0.0000001
 44
0.0000000001
 40
0.0
 40
0.0
 40
0.0
 40
0.0
 40
0.0000726642
 40
0.0001493832
 40
0.0002340119
 40
0.0003294525
 40
0.0005599919
 40
0.0008512227
 40
0.0012078281
 40
0.0016322925
 40
0.0021260448
 40
0.0026899596
 40
0.0033245963
 40
0.0040303236
 40
0.0056558765
 40
0.0075674299
 40
0.0097647758
 40
0.0122473379
 40
0.0150142896
 40
0.0180642825
 40
0.0213956524
 40
0.0288954973
 40
0.0374975171
 40
0.047182085
 40
0.057927088
 40
0.0697075515
 40
0.0824961857
 40
0.0962630913
 40
0.110976191
 40
0.1431011245
 40
0.1785704581
 40
0.217052136
 40
0.2581857617
 40
0.3015860251
 40
0.3468464266
 40
0.3935429831
 40
0.441238378
 40
0.4894859215
 40
0.5378338588
 40
0.5858295694
 40
0.6330237699
 40
0.6789748449
 40
0.7232528306
 40
0.7654436174
 40
0.805152699
 40
0.842008972
 40
0.8756682268
 40
0.8911994794
 40
0.905816397
 40
0.9194846036
 40
0.9321726633
 40
0.9438507557
 40
0.9544922496
 40
0.9640722677
 40
0.9725693455
 40
0.9799639759
 40
0.9832429137
 40
0.9862405096
 40
0.9889551568
 40
0.9913857757
 40
0.9935315214
 40
0.9953917803
 40
0.9969664868
 40
0.9982567616
 40
0.9987960893
 40
0.9992656155
 40
0.9996663538
 40
1.0
 40
1.0
 40
1.0
 40
1.0
 10
9.1564501435
 20
3.4879096426
 30
0.0
 10
9.1564270776
 20
3.4879090799
 30
0.0
 10
9.1563793093
 20
3.4879141186
 30
0.0
 10
9.1563089697
 20
3.4879398884
 30
0.0
 10
9.1562393716
 20
3.487983256
 30
0.0
 10
9.1561411357
 20
3.488069647
 30
0.0
 10
9.1560210898
 20
3.4882264834
 30
0.0
 10
9.1558855788
 20
3.4884707367
 30
0.0
 10
9.1557497282
 20
3.4887834042
 30
0.0
 10
9.1556135568
 20
3.4891647994
 30
0.0
 10
9.1554770689
 20
3.4896153396
 30
0.0
 10
9.1553403509
 20
3.4901350991
 30
0.0
 10
9.155203438
 20
3.4907241209
 30
0.0
 10
9.1550115481
 20
3.4916461856
 30
0.0
 10
9.1547756413
 20
3.4929728445
 30
0.0
 10
9.1545031849
 20
3.4947733038
 30
0.0
 10
9.1542301096
 20
3.4968484773
 30
0.0
 10
9.1539565253
 20
3.4991972309
 30
0.0
 10
9.1536826272
 20
3.5018183142
 30
0.0
 10
9.153408457
 20
3.5047102068
 30
0.0
 10
9.1530274105
 20
3.5091013804
 30
0.0
 10
9.1525571321
 20
3.5152541372
 30
0.0
 10
9.1520112711
 20
3.5234238544
 30
0.0
 10
9.1514644884
 20
3.5326259641
 30
0.0
 10
9.1509169762
 20
3.5428388514
 30
0.0
 10
9.1503689469
 20
3.5540386139
 30
0.0
 10
9.1498205409
 20
3.5661989389
 30
0.0
 10
9.1492718158
 20
3.5792913111
 30
0.0
 10
9.1485176155
 20
3.5985201611
 30
0.0
 10
9.1475841828
 20
3.6246382551
 30
0.0
 10
9.1464923545
 20
3.6583024171
 30
0.0
 10
9.1453992866
 20
3.6948284083
 30
0.0
 10
9.1443052599
 20
3.7338736871
 30
0.0
 10
9.1432105928
 20
3.775072161
 30
0.0
 10
9.142115478
 20
3.8180375891
 30
0.0
 10
9.1410200735
 20
3.8623672503
 30
0.0
 10
9.1399245037
 20
3.9076456831
 30
0.0
 10
9.1388288752
 20
3.9534486208
 30
0.0
 10
9.1377332857
 20
3.9993469444
 30
0.0
 10
9.1366378312
 20
4.0449107125
 30
0.0
 10
9.1355426131
 20
4.0897131992
 30
0.0
 10
9.1344477462
 20
4.1333348622
 30
0.0
 10
9.133353372
 20
4.1753673111
 30
0.0
 10
9.1322596604
 20
4.2154170862
 30
0.0
 10
9.1311668818
 20
4.253109382
 30
0.0
 10
9.130075275
 20
4.2880915169
 30
0.0
 10
9.129143896
 20
4.3153977498
 30
0.0
 10
9.1283921798
 20
4.3356443019
 30
0.0
 10
9.1278438423
 20
4.3495463258
 30
0.0
 10
9.1272957623
 20
4.3625448276
 30
0.0
 10
9.1267480342
 20
4.3746093061
 30
0.0
 10
9.1262007058
 20
4.3857116793
 30
0.0
 10
9.12565396
 20
4.395825897
 30
0.0
 10
9.1251079683
 20
4.4049284932
 30
0.0
 10
9.1245629845
 20
4.4129981193
 30
0.0
 10
9.1240932776
 20
4.4190673017
 30
0.0
 10
9.1237126145
 20
4.4233915618
 30
0.0
 10
9.1234389027
 20
4.4262333794
 30
0.0
 10
9.1231654628
 20
4.4288044974
 30
0.0
 10
9.1228923954
 20
4.4311034946
 30
0.0
 10
9.1226198299
 20
4.4331291268
 30
0.0
 10
9.122348073
 20
4.434880368
 30
0.0
 10
9.1220772273
 20
4.4363562936
 30
0.0
 10
9.1218411815
 20
4.4374117152
 30
0.0
 10
9.1216475396
 20
4.4381157421
 30
0.0
 10
9.1215113663
 20
4.4385422936
 30
0.0
 10
9.1213755536
 20
4.4388998291
 30
0.0
 10
9.1212764436
 20
4.4391113765
 30
0.0
 10
9.121225669
 20
4.4392043576
 30
0.0
  0
SPLINE
  5
2FE
100
AcDbEntity
  8
0
100
AcDbSpline
 62
7
  6
CONTINUOUS
 70
0
 71
3
 72
69
 73
65
 74
0
 42
0.0000001
 43
0.0000001
 44
0.0000000001
 40
0.0
 40
0.0
 40
0.0
 40
0.0
 40
0.0000721497
 40
0.0001482217
 40
0.0002319508
 40
0.0003261629
 40
0.0005531061
 40
0.0008391132
 40
0.001188863
 40
0.0016048686
 40
0.0020885931
 40
0.0026409464
 40
0.0032625081
 40
0.0039536138
 40
0.0055451268
 40
0.0074163226
 40
0.0095672674
 40
0.0119975479
 40
0.0147061085
 40
0.0176916594
 40
0.0209528228
 40
0.0282952992
 40
0.0367174276
 40
0.046201011
 40
0.0567243792
 40
0.068264135
 40
0.0807936889
 40
0.0942848781
 40
0.1087065586
 40
0.1402082136
 40
0.175010635
 40
0.2127953928
 40
0.253216563
 40
0.2959041034
 40
0.3404671449
 40
0.3864976887
 40
0.4335743496
 40
0.4812661519
 40
0.5291366366
 40
0.5767476824
 40
0.6236637016
 40
0.6694555073
 40
0.7137042945
 40
0.7560055244
 40
0.7959725205
 40
0.8332401811
 40
0.8674681915
 40
0.898344307
 40
0.9124361389
 40
0.9255872665
 40
0.9377674502
 40
0.9489494739
 40
0.9591077148
 40
0.9682197735
 40
0.9762650047
 40
0.983226295
 40
0.9862956187
 40
0.9890887141
 40
0.9916043777
 40
0.9938415218
 40
0.9957993504
 40
0.9974777987
 40
0.9988774552
 40
1.0
 40
1.0
 40
1.0
 40
1.0
 10
9.2278801434
 20
3.4896377015
 30
0.0
 10
9.2278573501
 20
3.4896371507
 30
0.0
 10
9.2278101876
 20
3.4896420491
 30
0.0
 10
9.2277406908
 20
3.4896671293
 30
0.0
 10
9.2276718944
 20
3.4897093606
 30
0.0
 10
9.2275748635
 20
3.4897934192
 30
0.0
 10
9.2274561716
 20
3.4899460736
 30
0.0
 10
9.2273221264
 20
3.4901839494
 30
0.0
 10
9.2271877652
 20
3.4904884054
 30
0.0
 10
9.227053099
 20
3.4908597784
 30
0.0
 10
9.2269181274
 20
3.491298504
 30
0.0
 10
9.2267829372
 20
3.4918046823
 30
0.0
 10
9.2266475684
 20
3.4923783593
 30
0.0
 10
9.2264578652
 20
3.493276355
 30
0.0
 10
9.2262246306
 20
3.4945683796
 30
0.0
 10
9.2259552504
 20
3.4963218999
 30
0.0
 10
9.225685273
 20
3.498343082
 30
0.0
 10
9.2254148124
 20
3.500630858
 30
0.0
 10
9.2251440144
 20
3.5031839723
 30
0.0
 10
9.2248729381
 20
3.5060009486
 30
0.0
 10
9.2244961957
 20
3.5102787424
 30
0.0
 10
9.2240312562
 20
3.5162732186
 30
0.0
 10
9.2234915506
 20
3.5242336946
 30
0.0
 10
9.222950987
 20
3.5332013463
 30
0.0
 10
9.2224096529
 20
3.5431557428
 30
0.0
 10
9.2218678507
 20
3.554073958
 30
0.0
 10
9.2213256397
 20
3.5659310677
 30
0.0
 10
9.2207831438
 20
3.5786997593
 30
0.0
 10
9.2200373664
 20
3.5974605177
 30
0.0
 10
9.2191143723
 20
3.6229540022
 30
0.0
 10
9.2180348669
 20
3.6558293895
 30
0.0
 10
9.2169541358
 20
3.6915247808
 30
0.0
 10
9.2158724507
 20
3.7297129722
 30
0.0
 10
9.2147901272
 20
3.7700439557
 30
0.0
 10
9.2137073537
 20
3.8121481497
 30
0.0
 10
9.2126242854
 20
3.8556397812
 30
0.0
 10
9.2115410431
 20
3.9001204245
 30
0.0
 10
9.2104577296
 20
3.9451826741
 30
0.0
 10
9.2093744385
 20
3.9904138433
 30
0.0
 10
9.2082912599
 20
4.03539979
 30
0.0
 10
9.2072082883
 20
4.0797286674
 30
0.0
 10
9.2061256291
 20
4.1229947241
 30
0.0
 10
9.2050434069
 20
4.1648020055
 30
0.0
 10
9.2039617838
 20
4.2047679679
 30
0.0
 10
9.2028809573
 20
4.2425270025
 30
0.0
 10
9.2018012633
 20
4.277733751
 30
0.0
 10
9.2007229885
 20
4.3100662817
 30
0.0
 10
9.1998004463
 20
4.3350760358
 30
0.0
 10
9.1990547725
 20
4.3534270952
 30
0.0
 10
9.1985129866
 20
4.3658734191
 30
0.0
 10
9.1979715426
 20
4.3773992978
 30
0.0
 10
9.1974305773
 20
4.3879782945
 30
0.0
 10
9.1968901621
 20
4.3975863826
 30
0.0
 10
9.1963506397
 20
4.4062015522
 30
0.0
 10
9.1958121127
 20
4.4138042975
 30
0.0
 10
9.195347504
 20
4.4194976955
 30
0.0
 10
9.1949705269
 20
4.4235325829
 30
0.0
 10
9.194700032
 20
4.4261663285
 30
0.0
 10
9.1944298749
 20
4.4285356127
 30
0.0
 10
9.1941601543
 20
4.4306391079
 30
0.0
 10
9.1938910035
 20
4.4324756605
 30
0.0
 10
9.1936227909
 20
4.4340445477
 30
0.0
 10
9.1933558342
 20
4.435345087
 30
0.0
 10
9.1931580822
 20
4.4361179218
 30
0.0
 10
9.1930548536
 20
4.4364573046
 30
0.0
  0
LINE
  5
2FF
100
AcDbEntity
  8
0
100
AcDbLine
 62
7
  6
CONTINUOUS
 10
9.1930548536
 20
4.4364573046
 11
9.192657453
 21
4.4374744725
  0
LINE
  5
300
100
AcDbEntity
  8
0
100
AcDbLine
 62
7
  6
CONTINUOUS
 10
9.0311358188
 20
3.4852510925
 11
9.0306149894
 21
3.4866054368
  0
SPLINE
  5
301
100
AcDbEntity
  8
0
100
AcDbSpline
 62
7
  6
CONTINUOUS
 70
0
 71
3
 72
68
 73
64
 74
0
 42
0.0000001
 43
0.0000001
 44
0.0000000001
 40
0.0
 40
0.0
 40
0.0
 40
0.0
 40
0.0011872779
 40
0.0026515113
 40
0.0043939473
 40
0.0064149386
 40
0.0087142703
 40
0.0112910417
 40
0.0141440864
 40
0.0172721357
 40
0.02434698
 40
0.0325002622
 40
0.0417145439
 40
0.0519689092
 40
0.063240712
 40
0.0755041237
 40
0.088731742
 40
0.1028931835
 40
0.1338874086
 40
0.1682049018
 40
0.2055332687
 40
0.2455325061
 40
0.2878382981
 40
0.3320652191
 40
0.3778104159
 40
0.4246572095
 40
0.4721789122
 40
0.5199428067
 40
0.5675139481
 40
0.6144593174
 40
0.6603515937
 40
0.7047731863
 40
0.7473199881
 40
0.7876050319
 40
0.8252621343
 40
0.8599491096
 40
0.8913510755
 40
0.9057298612
 40
0.9191833021
 40
0.9316806158
 40
0.943193969
 40
0.9536970815
 40
0.9631668263
 40
0.9715817761
 40
0.9789239298
 40
0.9821875508
 40
0.9851773292
 40
0.9878918894
 40
0.9903299386
 40
0.9924904181
 40
0.9943728938
 40
0.9959773764
 40
0.9973045048
 40
0.9978646633
 40
0.9983564872
 40
0.9987808015
 40
0.9991389235
 40
0.9994330908
 40
0.9996674186
 40
0.9997646616
 40
0.9998506814
 40
0.9999279852
 40
1.0
 40
1.0
 40
1.0
 40
1.0
 10
9.0306149894
 20
3.4866054368
 30
0.0
 10
9.0305126019
 20
3.4869701752
 30
0.0
 10
9.0303156371
 20
3.4877935598
 30
0.0
 10
9.0300485355
 20
3.4891701005
 30
0.0
 10
9.0297803047
 20
3.4908166499
 30
0.0
 10
9.0295112364
 20
3.4927324571
 30
0.0
 10
9.0292416538
 20
3.4949166926
 30
0.0
 10
9.0289716764
 20
3.4973681436
 30
0.0
 10
9.0287013918
 20
3.5000854214
 30
0.0
 10
9.0283251098
 20
3.5042343259
 30
0.0
 10
9.0278611308
 20
3.5100731837
 30
0.0
 10
9.0273230546
 20
3.5178537765
 30
0.0
 10
9.0267840556
 20
3.5266509644
 30
0.0
 10
9.0262442306
 20
3.5364448141
 30
0.0
 10
9.0257039055
 20
3.5472128877
 30
0.0
 10
9.0251631474
 20
3.5589307345
 30
0.0
 10
9.0246220879
 20
3.5715714986
 30
0.0
 10
9.0238777545
 20
3.5901855922
 30
0.0
 10
9.0229567958
 20
3.615527256
 30
0.0
 10
9.0218801964
 20
3.6482600169
 30
0.0
 10
9.0208023256
 20
3.6838674785
 30
0.0
 10
9.0197234636
 20
3.7220248958
 30
0.0
 10
9.0186439383
 20
3.7623843124
 30
0.0
 10
9.017563943
 20
3.804577761
 30
0.0
 10
9.0164836369
 20
3.8482206011
 30
0.0
 10
9.0154031422
 20
3.8929150487
 30
0.0
 10
9.0143225629
 20
3.9382538052
 30
0.0
 10
9.0132419921
 20
3.9838237518
 30
0.0
 10
9.0121615189
 20
4.0292097525
 30
0.0
 10
9.0110812356
 20
4.0739983911
 30
0.0
 10
9.0100012439
 20
4.1177817811
 30
0.0
 10
9.0089216634
 20
4.1601612479
 30
0.0
 10
9.0078426473
 20
4.2007509716
 30
0.0
 10
9.006764382
 20
4.2391815025
 30
0.0
 10
9.0056871792
 20
4.2751031074
 30
0.0
 10
9.0046113069
 20
4.3081889678
 30
0.0
 10
9.0036915565
 20
4.3338482234
 30
0.0
 10
9.0029485025
 20
4.3527340876
 30
0.0
 10
9.0024079792
 20
4.3655911066
 30
0.0
 10
9.0018677662
 20
4.3775329728
 30
0.0
 10
9.0013279856
 20
4.3885324327
 30
0.0
 10
9.0007886949
 20
4.3985646175
 30
0.0
 10
9.0002501907
 20
4.4076066502
 30
0.0
 10
8.9997125578
 20
4.4156381431
 30
0.0
 10
8.9992495079
 20
4.4216897406
 30
0.0
 10
8.9988743703
 20
4.4260115979
 30
0.0
 10
8.9986043776
 20
4.4288603664
 30
0.0
 10
8.9983346593
 20
4.4314444497
 30
0.0
 10
8.9980652888
 20
4.4337623798
 30
0.0
 10
8.9977963521
 20
4.4358128661
 30
0.0
 10
8.997528125
 20
4.4375949382
 30
0.0
 10
8.9972607391
 20
4.4391077396
 30
0.0
 10
8.9970280613
 20
4.4401977884
 30
0.0
 10
8.9968375965
 20
4.4409327562
 30
0.0
 10
8.9967031464
 20
4.4413843591
 30
0.0
 10
8.9965690095
 20
4.4417683695
 30
0.0
 10
8.9964351911
 20
4.4420851667
 30
0.0
 10
8.9963017134
 20
4.4423350325
 30
0.0
 10
8.9961838264
 20
4.4424978035
 30
0.0
 10
8.9960873682
 20
4.4425902717
 30
0.0
 10
8.9960190841
 20
4.442638405
 30
0.0
 10
8.9959501523
 20
4.4426695005
 30
0.0
 10
8.9959028133
 20
4.442678631
 30
0.0
 10
8.9958798778
 20
4.4426800365
 30
0.0
  0
LINE
  5
302
100
AcDbEntity
  8
0
100
AcDbLine
 62
7
  6
CONTINUOUS
 10
9.1025641928
 20
3.4869804991
 11
9.1023046317
 21
3.4875297026
  0
SPLINE
  5
303
100
AcDbEntity
  8
0
100
AcDbSpline
 62
7
  6
CONTINUOUS
 70
0
 71
3
 72
71
 73
67
 74
0
 42
0.0000001
 43
0.0000001
 44
0.0000000001
 40
0.0
 40
0.0
 40
0.0
 40
0.0
 40
0.000432482
 40
0.0009336501
 40
0.0015042789
 40
0.0021448583
 40
0.003636959
 40
0.005411438
 40
0.0074686594
 40
0.0098080953
 40
0.0124288569
 40
0.0153298963
 40
0.021967165
 40
0.0297057065
 40
0.0385289355
 40
0.0484166213
 40
0.0593466703
 40
0.0712936938
 40
0.0842306144
 40
0.0981272715
 40
0.1129519465
 40
0.1286700797
 40
0.1626400734
 40
0.1997232362
 40
0.2395765899
 40
0.2818314923
 40
0.3260969929
 40
0.3719636295
 40
0.4190070735
 40
0.4667922192
 40
0.5148771324
 40
0.5628171532
 40
0.6101690969
 40
0.6564952182
 40
0.7013674395
 40
0.744371152
 40
0.7851091838
 40
0.8232054318
 40
0.8583083404
 40
0.8900942809
 40
0.9046505889
 40
0.9182705286
 40
0.9309226852
 40
0.9425781859
 40
0.9532102626
 40
0.9627948665
 40
0.971310254
 40
0.9787376202
 40
0.9820380881
 40
0.9850608588
 40
0.9878043886
 40
0.9902672788
 40
0.9924486719
 40
0.9943480899
 40
0.995965406
 40
0.9973012079
 40
0.9978642471
 40
0.9983580155
 40
0.9987833552
 40
0.9991416272
 40
0.9994351709
 40
0.9996683381
 40
0.9997649699
 40
0.9998505101
 40
0.9999276446
 40
1.0
 40
1.0
 40
1.0
 40
1.0
 10
9.1023046317
 20
3.4875297026
 30
0.0
 10
9.1022551312
 20
3.4876581141
 30
0.0
 10
9.1021577977
 20
3.4879390146
 30
0.0
 10
9.1020221148
 20
3.4883981752
 30
0.0
 10
9.1018861938
 20
3.4889259513
 30
0.0
 10
9.1016948814
 20
3.4897647246
 30
0.0
 10
9.1014602264
 20
3.490986031
 30
0.0
 10
9.1011897875
 20
3.4926585602
 30
0.0
 10
9.1009186738
 20
3.4946036279
 30
0.0
 10
9.1006469745
 20
3.496820156
 30
0.0
 10
9.1003748681
 20
3.4993069299
 30
0.0
 10
9.0999943989
 20
3.5031574256
 30
0.0
 10
9.0995263261
 20
3.5086354303
 30
0.0
 10
9.0989847534
 20
3.5159979143
 30
0.0
 10
9.0984420663
 20
3.5243970909
 30
0.0
 10
9.0978983916
 20
3.5338136482
 30
0.0
 10
9.0973541281
 20
3.5442256953
 30
0.0
 10
9.0968093592
 20
3.5556092285
 30
0.0
 10
9.0962642653
 20
3.5679377554
 30
0.0
 10
9.0957188794
 20
3.5811828078
 30
0.0
 10
9.0951732886
 20
3.5953135736
 30
0.0
 10
9.0944261222
 20
3.6158288932
 30
0.0
 10
9.0935001007
 20
3.6434252975
 30
0.0
 10
9.0924141214
 20
3.6787006728
 30
0.0
 10
9.091327162
 20
3.7166135522
 30
0.0
 10
9.090239446
 20
3.7568128111
 30
0.0
 10
9.0891512251
 20
3.7989262342
 30
0.0
 10
9.0880626594
 20
3.8425639191
 30
0.0
 10
9.0869738831
 20
3.8873219384
 30
0.0
 10
9.0858850056
 20
3.9327860474
 30
0.0
 10
9.0847961248
 20
3.9785355407
 30
0.0
 10
9.0837073332
 20
4.0241471462
 30
0.0
 10
9.0826187262
 20
4.0691989226
 30
0.0
 10
9.0815304081
 20
4.1132741985
 30
0.0
 10
9.0804425008
 20
4.1559653824
 30
0.0
 10
9.0793551602
 20
4.1968777728
 30
0.0
 10
9.0782685756
 20
4.2356331742
 30
0.0
 10
9.077183062
 20
4.271873414
 30
0.0
 10
9.0760988936
 20
4.3052636355
 30
0.0
 10
9.0751720815
 20
4.3311641633
 30
0.0
 10
9.0744233113
 20
4.350230321
 30
0.0
 10
9.0738785965
 20
4.363211105
 30
0.0
 10
9.0733342123
 20
4.375267956
 30
0.0
 10
9.0727902468
 20
4.3863730036
 30
0.0
 10
9.0722468008
 20
4.3965006667
 30
0.0
 10
9.0717041264
 20
4.4056275752
 30
0.0
 10
9.0711623617
 20
4.4137327445
 30
0.0
 10
9.0706957031
 20
4.4198385617
 30
0.0
 10
9.0703176242
 20
4.4241978753
 30
0.0
 10
9.0700455546
 20
4.4270702321
 30
0.0
 10
9.0697737639
 20
4.4296747845
 30
0.0
 10
9.0695023007
 20
4.4320100373
 30
0.0
 10
9.0692312907
 20
4.4340747163
 30
0.0
 10
9.0689610146
 20
4.4358678509
 30
0.0
 10
9.0686916148
 20
4.4373884922
 30
0.0
 10
9.0684571098
 20
4.4384830081
 30
0.0
 10
9.0682651155
 20
4.439219892
 30
0.0
 10
9.0681296641
 20
4.4396718101
 30
0.0
 10
9.0679945366
 20
4.440055362
 30
0.0
 10
9.0678597273
 20
4.4403709372
 30
0.0
 10
9.0677252563
 20
4.4406188235
 30
0.0
 10
9.0676063387
 20
4.4407793341
 30
0.0
 10
9.0675090142
 20
4.4408693509
 30
0.0
 10
9.0674400963
 20
4.440915506
 30
0.0
 10
9.0673704825
 20
4.4409443532
 30
0.0
 10
9.0673228957
 20
4.4409517203
 30
0.0
 10
9.0672998777
 20
4.4409522705
 30
0.0
  0
SPLINE
  5
304
100
AcDbEntity
  8
0
100
AcDbSpline
 62
7
  6
CONTINUOUS
 70
0
 71
3
 72
44
 73
40
 74
0
 42
0.0000001
 43
0.0000001
 44
0.0000000001
 40
0.0
 40
0.0
 40
0.0
 40
0.0
 40
0.097747825
 40
0.1946031544
 40
0.2896267447
 40
0.381897144
 40
0.470519432
 40
0.5546340509
 40
0.6334251918
 40
0.7061286825
 40
0.7399749161
 40
0.772039686
 40
0.8022457744
 40
0.8305194784
 40
0.8567929878
 40
0.8810021733
 40
0.903089296
 40
0.9230006883
 40
0.9406893573
 40
0.9561130732
 40
0.9629644837
 40
0.9692366709
 40
0.9749264242
 40
0.9800310841
 40
0.9845482229
 40
0.9884760117
 40
0.9918141479
 40
0.9932624309
 40
0.9945638756
 40
0.9957190174
 40
0.9967287319
 40
0.9975945329
 40
0.9983190091
 40
0.9989066743
 40
0.9993661538
 40
0.9995533728
 40
0.9997170079
 40
0.9998630909
 40
1.0
 40
1.0
 40
1.0
 40
1.0
 10
9.2600026478
 20
3.4665572375
 30
0.0
 10
9.2603755061
 20
3.4497779316
 30
0.0
 10
9.261117624
 20
3.4163725204
 30
0.0
 10
9.2622322561
 20
3.3666556666
 30
0.0
 10
9.2633467329
 20
3.3178795307
 30
0.0
 10
9.2644609239
 20
3.2705173908
 30
0.0
 10
9.2655746743
 20
3.2250288625
 30
0.0
 10
9.2666877534
 20
3.181855449
 30
0.0
 10
9.2677999467
 20
3.1414162556
 30
0.0
 10
9.2687467872
 20
3.1096069972
 30
0.0
 10
9.2695102677
 20
3.0858189194
 30
0.0
 10
9.2700690051
 20
3.0693249214
 30
0.0
 10
9.2706275298
 20
3.0537883073
 30
0.0
 10
9.2711858438
 20
3.0392467354
 30
0.0
 10
9.2717438359
 20
3.0257356385
 30
0.0
 10
9.2723014553
 20
3.0132877445
 30
0.0
 10
9.2728585314
 20
3.0019334
 30
0.0
 10
9.2734148779
 20
2.9917000698
 30
0.0
 10
9.2739702669
 20
2.9826126878
 30
0.0
 10
9.2744487663
 20
2.9757674042
 30
0.0
 10
9.274836451
 20
2.9708811085
 30
0.0
 10
9.2751154224
 20
2.9676628625
 30
0.0
 10
9.2753941164
 20
2.9647457378
 30
0.0
 10
9.2756724631
 20
2.9621314369
 30
0.0
 10
9.2759502798
 20
2.9598214996
 30
0.0
 10
9.2762274909
 20
2.957817296
 30
0.0
 10
9.2764675295
 20
2.956340185
 30
0.0
 10
9.2766627996
 20
2.9553132282
 30
0.0
 10
9.2768020826
 20
2.954657318
 30
0.0
 10
9.2769411533
 20
2.9540785383
 30
0.0
 10
9.2770799699
 20
2.9535768815
 30
0.0
 10
9.2772184347
 20
2.9531522948
 30
0.0
 10
9.2773564797
 20
2.9528042973
 30
0.0
 10
9.2774940464
 20
2.9525325753
 30
0.0
 10
9.2776160277
 20
2.9523573325
 30
0.0
 10
9.2777163967
 20
2.9522602973
 30
0.0
 10
9.2777871627
 20
2.9522117045
 30
0.0
 10
9.2778588816
 20
2.9521825973
 30
0.0
 10
9.2779078597
 20
2.9521767652
 30
0.0
 10
9.2779313604
 20
2.9521773277
 30
0.0
  0
SPLINE
  5
305
100
AcDbEntity
  8
0
100
AcDbSpline
 62
7
  6
CONTINUOUS
 70
0
 71
3
 72
73
 73
69
 74
0
 42
0.0000001
 43
0.0000001
 44
0.0000000001
 40
0.0
 40
0.0
 40
0.0
 40
0.0
 40
0.0003098849
 40
0.0006861388
 40
0.0011308769
 40
0.0016453395
 40
0.0022302962
 40
0.0028862444
 40
0.0044122598
 40
0.0062247787
 40
0.0083238185
 40
0.0107089081
 40
0.0133793153
 40
0.0163338988
 40
0.019571043
 40
0.0268860704
 40
0.0353087626
 40
0.0448197501
 40
0.0553974836
 40
0.0670171743
 40
0.0796520349
 40
0.0932723034
 40
0.1078463438
 40
0.1233398123
 40
0.1569380364
 40
0.1937518369
 40
0.2334357577
 40
0.2756172697
 40
0.319900386
 40
0.3658694012
 40
0.4130927679
 40
0.4611272722
 40
0.5095220699
 40
0.557823074
 40
0.6055771085
 40
0.6523362298
 40
0.697661944
 40
0.741129266
 40
0.7823308219
 40
0.820880567
 40
0.8564175437
 40
0.888609231
 40
0.9033553353
 40
0.9171548
 40
0.9299757562
 40
0.941788048
 40
0.9525646158
 40
0.9622802389
 40
0.9709130333
 40
0.9784431287
 40
0.9817895495
 40
0.9848544401
 40
0.9876361061
 40
0.9901333586
 40
0.992345312
 40
0.9942712888
 40
0.9959110415
 40
0.9972654077
 40
0.9978362848
 40
0.998336902
 40
0.9987680851
 40
0.9991311846
 40
0.9994285498
 40
0.999664615
 40
0.9997623947
 40
0.9998489119
 40
0.9999268869
 40
1.0
 40
1.0
 40
1.0
 40
1.0
 10
9.1739925549
 20
3.4887099154
 30
0.0
 10
9.173941326
 20
3.4887938298
 30
0.0
 10
9.1738415108
 20
3.488987899
 30
0.0
 10
9.1737054495
 20
3.4893201276
 30
0.0
 10
9.1735690202
 20
3.4897214825
 30
0.0
 10
9.1734323159
 20
3.4901920492
 30
0.0
 10
9.1732953741
 20
3.4907319592
 30
0.0
 10
9.1731027174
 20
3.491588491
 30
0.0
 10
9.172866361
 20
3.4928338962
 30
0.0
 10
9.1725939153
 20
3.4945375457
 30
0.0
 10
9.1723207627
 20
3.4965166197
 30
0.0
 10
9.172047027
 20
3.4987700179
 30
0.0
 10
9.1717729297
 20
3.5012965745
 30
0.0
 10
9.1714985401
 20
3.5040948469
 30
0.0
 10
9.1711166544
 20
3.5083630701
 30
0.0
 10
9.1706456559
 20
3.5143648627
 30
0.0
 10
9.1700994175
 20
3.5223568568
 30
0.0
 10
9.1695521779
 20
3.5313860591
 30
0.0
 10
9.1690041772
 20
3.5414311649
 30
0.0
 10
9.168455617
 20
3.552468671
 30
0.0
 10
9.1679066668
 20
3.5644725376
 30
0.0
 10
9.1673573955
 20
3.5774146071
 30
0.0
 10
9.1668078828
 20
3.5912643643
 30
0.0
 10
9.1660544374
 20
3.6114492843
 30
0.0
 10
9.1651210825
 20
3.6386882389
 30
0.0
 10
9.1640274535
 20
3.6736008302
 30
0.0
 10
9.1629327533
 20
3.7112378047
 30
0.0
 10
9.1618372265
 20
3.7512454474
 30
0.0
 10
9.1607411486
 20
3.793247828
 30
0.0
 10
9.159644692
 20
3.8368503279
 30
0.0
 10
9.1585480007
 20
3.881643373
 30
0.0
 10
9.1574511905
 20
3.9272062585
 30
0.0
 10
9.1563543638
 20
3.9731111388
 30
0.0
 10
9.1552576173
 20
4.0189270123
 30
0.0
 10
9.1541610489
 20
4.0642237963
 30
0.0
 10
9.1530647655
 20
4.108576349
 30
0.0
 10
9.1519688913
 20
4.1515684591
 30
0.0
 10
9.1508735839
 20
4.1927967662
 30
0.0
 10
9.1497790358
 20
4.2318745172
 30
0.0
 10
9.1486855629
 20
4.268435231
 30
0.0
 10
9.1475934474
 20
4.3021360886
 30
0.0
 10
9.1466599016
 20
4.328285933
 30
0.0
 10
9.1459057064
 20
4.3475410432
 30
0.0
 10
9.1453569705
 20
4.3606537705
 30
0.0
 10
9.1448085989
 20
4.3728348442
 30
0.0
 10
9.1442606136
 20
4.3840558295
 30
0.0
 10
9.1437131925
 20
4.3942903522
 30
0.0
 10
9.1431665023
 20
4.4035145966
 30
0.0
 10
9.142620782
 20
4.4117068894
 30
0.0
 10
9.142150671
 20
4.417878802
 30
0.0
 10
9.1417698302
 20
4.4222855447
 30
0.0
 10
9.1414957671
 20
4.4251892942
 30
0.0
 10
9.1412219618
 20
4.4278223494
 30
0.0
 10
9.1409485
 20
4.4301832315
 30
0.0
 10
9.1406755056
 20
4.432270662
 30
0.0
 10
9.1404032571
 20
4.4340835588
 30
0.0
 10
9.1401318519
 20
4.4356209385
 30
0.0
 10
9.1398956217
 20
4.4367275211
 30
0.0
 10
9.1397022212
 20
4.4374725948
 30
0.0
 10
9.1395657784
 20
4.4379295481
 30
0.0
 10
9.1394296645
 20
4.4383173615
 30
0.0
 10
9.1392938768
 20
4.4386364103
 30
0.0
 10
9.1391584244
 20
4.4388869795
 30
0.0
 10
9.1390386247
 20
4.4390492216
 30
0.0
 10
9.1389405686
 20
4.4391402187
 30
0.0
 10
9.1388711464
 20
4.4391868769
 30
0.0
 10
9.1388010177
 20
4.4392160506
 30
0.0
 10
9.1387530673
 20
4.4392235101
 30
0.0
 10
9.1387298778
 20
4.4392240707
 30
0.0
  0
SPLINE
  5
306
100
AcDbEntity
  8
0
100
AcDbSpline
 62
7
  6
CONTINUOUS
 70
0
 71
3
 72
73
 73
69
 74
0
 42
0.0000001
 43
0.0000001
 44
0.0000000001
 40
0.0
 40
0.0
 40
0.0
 40
0.0
 40
0.0003108867
 40
0.0006880976
 40
0.0011337714
 40
0.0016491772
 40
0.0022351144
 40
0.002892075
 40
0.0044200158
 40
0.0062342095
 40
0.0083348782
 40
0.0107217437
 40
0.0133938586
 40
0.0163499155
 40
0.0195885041
 40
0.0269066298
 40
0.0353318783
 40
0.0448455969
 40
0.0554255381
 40
0.0670475756
 40
0.0796842764
 40
0.0933065073
 40
0.1078820435
 40
0.123377095
 40
0.1569776371
 40
0.1937930537
 40
0.2334778708
 40
0.2756596095
 40
0.3199423251
 40
0.3659103243
 40
0.4131321709
 40
0.4611646441
 40
0.5095570262
 40
0.5578552528
 40
0.6056062352
 40
0.6523621219
 40
0.6976844527
 40
0.7411483773
 40
0.7823465374
 40
0.8208930111
 40
0.8564268808
 40
0.8886156982
 40
0.9033604157
 40
0.9171587181
 40
0.9299784377
 40
0.9417897683
 40
0.9525653002
 40
0.9622802051
 40
0.9709121831
 40
0.9784418201
 40
0.9817880215
 40
0.9848525766
 40
0.9876340986
 40
0.9901313556
 40
0.9923432476
 40
0.9942690663
 40
0.9959088804
 40
0.997263473
 40
0.9978344633
 40
0.9983351647
 40
0.9987664219
 40
0.9991296464
 40
0.9994272429
 40
0.9996636528
 40
0.9997616445
 40
0.9998483971
 40
0.9999266256
 40
1.0
 40
1.0
 40
1.0
 40
1.0
 10
9.2454209052
 20
3.4904396009
 30
0.0
 10
9.2453697009
 20
3.4905234833
 30
0.0
 10
9.245269904
 20
3.4907173646
 30
0.0
 10
9.2451338166
 20
3.4910491641
 30
0.0
 10
9.2449973634
 20
3.4914498327
 30
0.0
 10
9.2448606389
 20
3.4919194836
 30
0.0
 10
9.2447236879
 20
3.4924582637
 30
0.0
 10
9.2445310533
 20
3.4933128046
 30
0.0
 10
9.2442947189
 20
3.4945550163
 30
0.0
 10
9.2440222659
 20
3.4962539983
 30
0.0
 10
9.2437491214
 20
3.4982273761
 30
0.0
 10
9.2434754172
 20
3.5004741079
 30
0.0
 10
9.2432013373
 20
3.5029929658
 30
0.0
 10
9.2429269435
 20
3.5057824543
 30
0.0
 10
9.2425450685
 20
3.5100369745
 30
0.0
 10
9.2420741284
 20
3.5160191086
 30
0.0
 10
9.2415278734
 20
3.52398462
 30
0.0
 10
9.2409806912
 20
3.5329833121
 30
0.0
 10
9.2404326823
 20
3.5429941614
 30
0.0
 10
9.2398841727
 20
3.5539935396
 30
0.0
 10
9.2393352237
 20
3.5659556985
 30
0.0
 10
9.2387859977
 20
3.5788523945
 30
0.0
 10
9.2382364923
 20
3.5926534063
 30
0.0
 10
9.2374831032
 20
3.6127666816
 30
0.0
 10
9.2365497855
 20
3.6399084154
 30
0.0
 10
9.2354562089
 20
3.6746957125
 30
0.0
 10
9.2343615577
 20
3.712196853
 30
0.0
 10
9.2332660819
 20
3.7520594272
 30
0.0
 10
9.2321700553
 20
3.7939089005
 30
0.0
 10
9.2310736505
 20
3.8373521376
 30
0.0
 10
9.2299770114
 20
3.8819810864
 30
0.0
 10
9.2288802536
 20
3.9273766409
 30
0.0
 10
9.2277834798
 20
3.9731125521
 30
0.0
 10
9.2266867864
 20
4.0187594566
 30
0.0
 10
9.2255902714
 20
4.0638888954
 30
0.0
 10
9.2244940417
 20
4.1080773359
 30
0.0
 10
9.2233982213
 20
4.1509101587
 30
0.0
 10
9.2223029681
 20
4.1919855242
 30
0.0
 10
9.221208474
 20
4.2309181678
 30
0.0
 10
9.220115056
 20
4.2673429931
 30
0.0
 10
9.2190229932
 20
4.3009184971
 30
0.0
 10
9.2180894996
 20
4.3269709946
 30
0.0
 10
9.2173353334
 20
4.3461544068
 30
0.0
 10
9.2167866354
 20
4.3592182679
 30
0.0
 10
9.2162382793
 20
4.3713539839
 30
0.0
 10
9.2156903365
 20
4.3825331294
 30
0.0
 10
9.2151429257
 20
4.3927295454
 30
0.0
 10
9.2145962828
 20
4.4019193862
 30
0.0
 10
9.2140505694
 20
4.4100811863
 30
0.0
 10
9.2135804929
 20
4.4162301005
 30
0.0
 10
9.2131996815
 20
4.4206204126
 30
0.0
 10
9.212925615
 20
4.4235133083
 30
0.0
 10
9.2126518246
 20
4.4261365554
 30
0.0
 10
9.2123783882
 20
4.428488694
 30
0.0
 10
9.2121054157
 20
4.4305683545
 30
0.0
 10
9.2118331526
 20
4.4323744721
 30
0.0
 10
9.2115617599
 20
4.4339061429
 30
0.0
 10
9.2113255566
 20
4.4350086648
 30
0.0
 10
9.211132173
 20
4.4357509959
 30
0.0
 10
9.2109957357
 20
4.4362062352
 30
0.0
 10
9.2108596182
 20
4.4365925629
 30
0.0
 10
9.2107238194
 20
4.4369103885
 30
0.0
 10
9.2105883588
 20
4.4371600328
 30
0.0
 10
9.2104685681
 20
4.437321683
 30
0.0
 10
9.2103705386
 20
4.437412363
 30
0.0
 10
9.2103011205
 20
4.4374588792
 30
0.0
 10
9.2102310019
 20
4.4374879734
 30
0.0
 10
9.2101830656
 20
4.4374954241
 30
0.0
 10
9.2101598779
 20
4.4374959917
 30
0.0
  0
SPLINE
  5
307
100
AcDbEntity
  8
0
100
AcDbSpline
 62
7
  6
CONTINUOUS
 70
0
 71
3
 72
38
 73
34
 74
0
 42
0.0000001
 43
0.0000001
 44
0.0000000001
 40
0.0
 40
0.0
 40
0.0
 40
0.0
 40
0.0947173316
 40
0.1888498978
 40
0.2814936201
 40
0.3717584886
 40
0.4587773616
 40
0.5417141503
 40
0.6197719877
 40
0.6922009665
 40
0.7583053127
 40
0.7887848485
 40
0.8174504293
 40
0.8442331873
 40
0.8690689529
 40
0.8918984251
 40
0.9126669013
 40
0.9313253624
 40
0.9478293393
 40
0.9621409453
 40
0.9684640117
 40
0.9742272501
 40
0.9794278872
 40
0.9840633364
 40
0.9881315134
 40
0.9916316078
 40
0.994563793
 40
0.9958174477
 40
0.9969300109
 40
0.9979023903
 40
0.9987361528
 40
0.999433862
 40
1.0
 40
1.0
 40
1.0
 40
1.0
 10
9.2508620809
 20
3.481545569
 30
0.0
 10
9.2512337131
 20
3.4648241888
 30
0.0
 10
9.2519734338
 20
3.4314846348
 30
0.0
 10
9.2530828838
 20
3.3817899135
 30
0.0
 10
9.2541922168
 20
3.3328816185
 30
0.0
 10
9.2553013142
 20
3.2852298075
 30
0.0
 10
9.2564100267
 20
3.2392925484
 30
0.0
 10
9.2575181769
 20
3.1955114878
 30
0.0
 10
9.2586254816
 20
3.1543076045
 30
0.0
 10
9.2597316876
 20
3.1160771679
 30
0.0
 10
9.2606757922
 20
3.0862471783
 30
0.0
 10
9.2614379757
 20
3.0641433238
 30
0.0
 10
9.2619938407
 20
3.0489800577
 30
0.0
 10
9.2625494408
 20
3.0348140897
 30
0.0
 10
9.2631047336
 20
3.0216795173
 30
0.0
 10
9.2636595939
 20
3.0096079704
 30
0.0
 10
9.2642138971
 20
2.9986284602
 30
0.0
 10
9.2647673591
 20
2.9887674384
 30
0.0
 10
9.2653199022
 20
2.9800485502
 30
0.0
 10
9.2657964083
 20
2.9735076523
 30
0.0
 10
9.2661827839
 20
2.9688622198
 30
0.0
 10
9.2664602372
 20
2.9658222284
 30
0.0
 10
9.2667374274
 20
2.9630815732
 30
0.0
 10
9.267014347
 20
2.9606419041
 30
0.0
 10
9.2672908738
 20
2.9585046198
 30
0.0
 10
9.2675666076
 20
2.9566708911
 30
0.0
 10
9.2678057392
 20
2.9553345878
 30
0.0
 10
9.2680005731
 20
2.9544194049
 30
0.0
 10
9.2681385831
 20
2.9538461525
 30
0.0
 10
9.2682761696
 20
2.9533493421
 30
0.0
 10
9.2684134082
 20
2.9529287912
 30
0.0
 10
9.2685502988
 20
2.9525843625
 30
0.0
 10
9.2686515744
 20
2.9523847508
 30
0.0
 10
9.2687038609
 20
2.9522995438
 30
0.0
  0
SPLINE
  5
308
100
AcDbEntity
  8
0
100
AcDbSpline
 62
7
  6
CONTINUOUS
 70
0
 71
3
 72
17
 73
13
 74
0
 42
0.0000001
 43
0.0000001
 44
0.0000000001
 40
0.0
 40
0.0
 40
0.0
 40
0.0
 40
0.0262613981
 40
0.054152201
 40
0.0851292802
 40
0.1202666937
 40
0.2056388866
 40
0.3139274831
 40
0.4467935013
 40
0.6051192873
 40
0.7894158568
 40
1.0
 40
1.0
 40
1.0
 40
1.0
 10
9.2065013605
 20
2.9504491601
 30
0.0
 10
9.2064796682
 20
2.9504486353
 30
0.0
 10
9.2064345958
 20
2.950453636
 30
0.0
 10
9.2063682969
 20
2.950478863
 30
0.0
 10
9.2063026199
 20
2.9505211664
 30
0.0
 10
9.2062095645
 20
2.9506055002
 30
0.0
 10
9.2060957694
 20
2.9507582495
 30
0.0
 10
9.2059670126
 20
2.9509957681
 30
0.0
 10
9.2058376665
 20
2.9512998734
 30
0.0
 10
9.2057078608
 20
2.9516708699
 30
0.0
 10
9.205577719
 20
2.9521091833
 30
0.0
 10
9.2054963058
 20
2.9524252006
 30
0.0
 10
9.2054551671
 20
2.9525942641
 30
0.0
  0
SPLINE
  5
309
100
AcDbEntity
  8
0
100
AcDbSpline
 62
7
  6
CONTINUOUS
 70
0
 71
3
 72
31
 73
27
 74
0
 42
0.0000001
 43
0.0000001
 44
0.0000000001
 40
0.0
 40
0.0
 40
0.0
 40
0.0
 40
0.0024392883
 40
0.0054016759
 40
0.0088885598
 40
0.0129001051
 40
0.0174356128
 40
0.0224932237
 40
0.0341654203
 40
0.0478956155
 40
0.063655526
 40
0.0814132993
 40
0.1011309849
 40
0.1227675843
 40
0.1462764775
 40
0.1716082552
 40
0.1987082396
 40
0.2579787946
 40
0.3235814525
 40
0.3949549882
 40
0.4714884619
 40
0.5525267487
 40
0.6373760898
 40
0.725310078
 40
0.8155760448
 40
1.0
 40
1.0
 40
1.0
 40
1.0
 10
9.2054551671
 20
2.9525942641
 30
0.0
 10
9.2053566315
 20
2.9529992057
 30
0.0
 10
9.205166311
 20
2.9539026775
 30
0.0
 10
9.2049069517
 20
2.9553991576
 30
0.0
 10
9.2046468856
 20
2.9571675511
 30
0.0
 10
9.2043861469
 20
2.9592070591
 30
0.0
 10
9.2041247591
 20
2.9615167677
 30
0.0
 10
9.2037578742
 20
2.9651314829
 30
0.0
 10
9.2033070924
 20
2.9703163274
 30
0.0
 10
9.2027867007
 20
2.9773298276
 30
0.0
 10
9.2022650564
 20
2.9853854536
 30
0.0
 10
9.2017423714
 20
2.9944658576
 30
0.0
 10
9.2012189705
 20
3.0045517519
 30
0.0
 10
9.2006951098
 20
3.0156214077
 30
0.0
 10
9.2001708607
 20
3.0276512064
 30
0.0
 10
9.1996463262
 20
3.0406152414
 30
0.0
 10
9.1989249152
 20
3.0596862007
 30
0.0
 10
9.1980320677
 20
3.0856358669
 30
0.0
 10
9.1969881876
 20
3.1191488319
 30
0.0
 10
9.1959431054
 20
3.1556124748
 30
0.0
 10
9.1948970804
 20
3.1947143004
 30
0.0
 10
9.1938504162
 20
3.2361192519
 30
0.0
 10
9.1928032947
 20
3.2794725845
 30
0.0
 10
9.1917558535
 20
3.3244029193
 30
0.0
 10
9.1903489853
 20
3.386342022
 30
0.0
 10
9.1893102547
 20
3.4332618922
 30
0.0
 10
9.1886126146
 20
3.464763398
 30
0.0
  0
SPLINE
  5
30A
100
AcDbEntity
  8
0
100
AcDbSpline
 62
7
  6
CONTINUOUS
 70
0
 71
3
 72
38
 73
34
 74
0
 42
0.0000001
 43
0.0000001
 44
0.0000000001
 40
0.0
 40
0.0
 40
0.0
 40
0.0
 40
0.0948206416
 40
0.1890258942
 40
0.2817152395
 40
0.3720024151
 40
0.4590241534
 40
0.5419482691
 40
0.6199817754
 40
0.69237853
 40
0.7584463477
 40
0.7889070767
 40
0.8175539706
 40
0.8443185967
 40
0.8691370681
 40
0.8919504669
 40
0.9127043301
 40
0.9313499536
 40
0.9478430622
 40
0.9621460169
 40
0.9684656349
 40
0.9742260511
 40
0.9794244853
 40
0.9840583369
 40
0.98812553
 40
0.9916253033
 40
0.9945578988
 40
0.9958120696
 40
0.9969253855
 40
0.9978987541
 40
0.9987336911
 40
0.9994326682
 40
1.0
 40
1.0
 40
1.0
 40
1.0
 10
9.1794732384
 20
3.479748776
 30
0.0
 10
9.1798439296
 20
3.4630114399
 30
0.0
 10
9.1805817933
 20
3.4296453688
 30
0.0
 10
9.181688647
 20
3.3799183156
 30
0.0
 10
9.1827953812
 20
3.3309918842
 30
0.0
 10
9.1839018782
 20
3.2833340924
 30
0.0
 10
9.1850079896
 20
3.2374009092
 30
0.0
 10
9.1861135387
 20
3.1936318608
 30
0.0
 10
9.1872182434
 20
3.1524458279
 30
0.0
 10
9.1883218512
 20
3.1142370407
 30
0.0
 10
9.1892637576
 20
3.0844265716
 30
0.0
 10
9.1900241596
 20
3.0623387881
 30
0.0
 10
9.1905787153
 20
3.0471873982
 30
0.0
 10
9.1911330053
 20
3.0330328993
 30
0.0
 10
9.1916869873
 20
3.0199091891
 30
0.0
 10
9.1922405348
 20
3.0078477326
 30
0.0
 10
9.1927935455
 20
2.9968773714
 30
0.0
 10
9.1933457146
 20
2.9870244193
 30
0.0
 10
9.1938969045
 20
2.9783123791
 30
0.0
 10
9.1943722633
 20
2.9717763717
 30
0.0
 10
9.1947578329
 20
2.9671341617
 30
0.0
 10
9.1950347216
 20
2.9640960446
 30
0.0
 10
9.1953112779
 20
2.9613568834
 30
0.0
 10
9.1955874284
 20
2.95891832
 30
0.0
 10
9.1958629702
 20
2.9567817267
 30
0.0
 10
9.1961377644
 20
2.9549482763
 30
0.0
 10
9.1963763347
 20
2.9536119511
 30
0.0
 10
9.196571032
 20
2.9526965665
 30
0.0
 10
9.1967091568
 20
2.9521230138
 30
0.0
 10
9.1968470129
 20
2.9516258161
 30
0.0
 10
9.1969845348
 20
2.9512047868
 30
0.0
 10
9.197121598
 20
2.9508597932
 30
0.0
 10
9.1972228124
 20
2.950659717
 30
0.0
 10
9.1972749966
 20
2.9505742165
 30
0.0
  0
SPLINE
  5
30B
100
AcDbEntity
  8
0
100
AcDbSpline
 62
7
  6
CONTINUOUS
 70
0
 71
3
 72
44
 73
40
 74
0
 42
0.0000001
 43
0.0000001
 44
0.0000000001
 40
0.0
 40
0.0
 40
0.0
 40
0.0
 40
0.0001362956
 40
0.0002817806
 40
0.0004448331
 40
0.000631474
 40
0.0010897556
 40
0.0016760801
 40
0.0023990001
 40
0.0032629768
 40
0.0042705618
 40
0.005423317
 40
0.0067221751
 40
0.0081676521
 40
0.0114994264
 40
0.0154197035
 40
0.019928202
 40
0.0250234025
 40
0.0307027531
 40
0.0369634401
 40
0.0438024254
 40
0.0591990674
 40
0.0768573312
 40
0.0967359839
 40
0.1187880135
 40
0.1429607523
 40
0.1691967036
 40
0.1974326779
 40
0.2276013993
 40
0.259629944
 40
0.2934418937
 40
0.3660858522
 40
0.4448352015
 40
0.5289329641
 40
0.6175707207
 40
0.7098963207
 40
0.805022324
 40
0.9020343222
 40
1.0
 40
1.0
 40
1.0
 40
1.0
 10
9.1350713605
 20
2.9487210149
 30
0.0
 10
9.1350479713
 20
2.9487204491
 30
0.0
 10
9.1349992125
 20
2.9487262658
 30
0.0
 10
9.134927825
 20
2.9487553171
 30
0.0
 10
9.1348573883
 20
2.9488038146
 30
0.0
 10
9.1347574649
 20
2.9489006734
 30
0.0
 10
9.1346360365
 20
2.9490755726
 30
0.0
 10
9.1344990839
 20
2.9493467243
 30
0.0
 10
9.1343616437
 20
2.9496939821
 30
0.0
 10
9.1342237792
 20
2.9501176455
 30
0.0
 10
9.1340855581
 20
2.9506181958
 30
0.0
 10
9.13394709
 20
2.951195706
 30
0.0
 10
9.1338084215
 20
2.951850202
 30
0.0
 10
9.1336140153
 20
2.9528749908
 30
0.0
 10
9.1333750538
 20
2.9543489783
 30
0.0
 10
9.1330990841
 20
2.9563489175
 30
0.0
 10
9.1328224993
 20
2.9586539619
 30
0.0
 10
9.1325453977
 20
2.9612627838
 30
0.0
 10
9.1322679445
 20
2.9641738494
 30
0.0
 10
9.1319902055
 20
2.9673854399
 30
0.0
 10
9.1316042306
 20
2.9722618043
 30
0.0
 10
9.1311278669
 20
2.97909341
 30
0.0
 10
9.1305749301
 20
2.9881630424
 30
0.0
 10
9.1300210656
 20
2.9983769371
 30
0.0
 10
9.1294664522
 20
3.0097105064
 30
0.0
 10
9.128911316
 20
3.022136506
 30
0.0
 10
9.1283557955
 20
3.035624972
 30
0.0
 10
9.1277999625
 20
3.0501434816
 30
0.0
 10
9.127243915
 20
3.0656569982
 30
0.0
 10
9.1266876567
 20
3.082128237
 30
0.0
 10
9.1259275132
 20
3.1058878656
 30
0.0
 10
9.1249848042
 20
3.1376656393
 30
0.0
 10
9.1238775265
 20
3.1780740989
 30
0.0
 10
9.1227693645
 20
3.2212289359
 30
0.0
 10
9.1216605311
 20
3.2667149313
 30
0.0
 10
9.1205512553
 20
3.314094523
 30
0.0
 10
9.1194416907
 20
3.3629119818
 30
0.0
 10
9.1183319663
 20
3.4126978374
 30
0.0
 10
9.1175933569
 20
3.4461588981
 30
0.0
 10
9.1172222753
 20
3.4629712618
 30
0.0
  0
SPLINE
  5
30C
100
AcDbEntity
  8
0
100
AcDbSpline
 62
7
  6
CONTINUOUS
 70
0
 71
3
 72
38
 73
34
 74
0
 42
0.0000001
 43
0.0000001
 44
0.0000000001
 40
0.0
 40
0.0
 40
0.0
 40
0.0
 40
0.0949348217
 40
0.1892236393
 40
0.2819691178
 40
0.3722883718
 40
0.4593216477
 40
0.5422403245
 40
0.6202549797
 40
0.6926229486
 40
0.7586553843
 40
0.7890969507
 40
0.8177241588
 40
0.8444689817
 40
0.8692678097
 40
0.892062083
 40
0.9127975805
 40
0.9314258976
 40
0.9479029653
 40
0.9621913769
 40
0.9685043317
 40
0.9742585306
 40
0.9794512028
 40
0.9840797564
 40
0.9881421358
 40
0.9916375938
 40
0.9945663734
 40
0.9958188229
 40
0.9969305419
 40
0.997902439
 40
0.9987360279
 40
0.9994337778
 40
1.0
 40
1.0
 40
1.0
 40
1.0
 10
9.1080841043
 20
3.4779524763
 30
0.0
 10
9.1084539112
 20
3.4611971319
 30
0.0
 10
9.1091900293
 20
3.4278004369
 30
0.0
 10
9.1102944511
 20
3.3780349564
 30
0.0
 10
9.1113987509
 20
3.3290844902
 30
0.0
 10
9.1125028117
 20
3.281415216
 30
0.0
 10
9.1136064858
 20
3.235481197
 30
0.0
 10
9.1147095972
 20
3.1917200229
 30
0.0
 10
9.1158118647
 20
3.1505486466
 30
0.0
 10
9.1169130362
 20
3.1123594137
 30
0.0
 10
9.117852889
 20
3.0825674705
 30
0.0
 10
9.1186116307
 20
3.0604956119
 30
0.0
 10
9.1191649586
 20
3.0453565071
 30
0.0
 10
9.1197180195
 20
3.0312142468
 30
0.0
 10
9.1202707747
 20
3.0181025404
 30
0.0
 10
9.1208230944
 20
3.0060526931
 30
0.0
 10
9.1213748799
 20
2.9950933837
 30
0.0
 10
9.1219258237
 20
2.9852507893
 30
0.0
 10
9.1224757915
 20
2.9765482785
 30
0.0
 10
9.122950099
 20
2.9700196406
 30
0.0
 10
9.1233348186
 20
2.9653828246
 30
0.0
 10
9.1236110925
 20
2.9623483538
 30
0.0
 10
9.1238870343
 20
2.9596125555
 30
0.0
 10
9.1241625714
 20
2.9571770635
 30
0.0
 10
9.1244375007
 20
2.9550432414
 30
0.0
 10
9.1247116829
 20
2.9532122537
 30
0.0
 10
9.1249497249
 20
2.9518777806
 30
0.0
 10
9.1251439942
 20
2.9509637169
 30
0.0
 10
9.1252818117
 20
2.9503910388
 30
0.0
 10
9.1254193602
 20
2.9498946347
 30
0.0
 10
9.1255565745
 20
2.9494743172
 30
0.0
 10
9.1256933298
 20
2.9491299536
 30
0.0
 10
9.1257943258
 20
2.9489302618
 30
0.0
 10
9.1258464009
 20
2.9488449394
 30
0.0
  0
SPLINE
  5
30D
100
AcDbEntity
  8
0
100
AcDbSpline
 62
7
  6
CONTINUOUS
 70
0
 71
3
 72
38
 73
34
 74
0
 42
0.0000001
 43
0.0000001
 44
0.0000000001
 40
0.0
 40
0.0
 40
0.0
 40
0.0
 40
0.0950479035
 40
0.1894194689
 40
0.282220521
 40
0.3725715268
 40
0.4596162158
 40
0.5425295008
 40
0.6205254888
 40
0.6928649584
 40
0.7588623673
 40
0.7892849628
 40
0.817892685
 40
0.8446179029
 40
0.8693972873
 40
0.8921726259
 40
0.9128899436
 40
0.9315011257
 40
0.9479623127
 40
0.9622363233
 40
0.9685426805
 40
0.9742907218
 40
0.9794776865
 40
0.984100992
 40
0.9881586027
 40
0.991649784
 40
0.9945747809
 40
0.9958255239
 40
0.9969356594
 40
0.9979060968
 40
0.9987383482
 40
0.9994348797
 40
1.0
 40
1.0
 40
1.0
 40
1.0
 10
9.0366946794
 20
3.4761568002
 30
0.0
 10
9.0370636089
 20
3.4593836271
 30
0.0
 10
9.0377979947
 20
3.425956616
 30
0.0
 10
9.0389000016
 20
3.3761530983
 30
0.0
 10
9.0400018842
 20
3.3271788482
 30
0.0
 10
9.041103526
 20
3.2794982184
 30
0.0
 10
9.0422047802
 20
3.2335633826
 30
0.0
 10
9.0433054712
 20
3.1898100118
 30
0.0
 10
9.0444053187
 20
3.14865315
 30
0.0
 10
9.0455040713
 20
3.110483277
 30
0.0
 10
9.0464418848
 20
3.0807096738
 30
0.0
 10
9.0471989779
 20
3.0586535789
 30
0.0
 10
9.0477510867
 20
3.0435266348
 30
0.0
 10
9.0483029274
 20
3.0293964884
 30
0.0
 10
9.0488544644
 20
3.0162966638
 30
0.0
 10
9.0494055652
 20
3.0042583074
 30
0.0
 10
9.0499561341
 20
2.9933099377
 30
0.0
 10
9.0505058614
 20
2.9834775961
 30
0.0
 10
9.0510546158
 20
2.9747845188
 30
0.0
 10
9.0515278796
 20
2.9682631764
 30
0.0
 10
9.0519117552
 20
2.9636317008
 30
0.0
 10
9.0521874186
 20
2.9606008405
 30
0.0
 10
9.0524627504
 20
2.9578683722
 30
0.0
 10
9.0527376784
 20
2.955435922
 30
0.0
 10
9.0530119994
 20
2.9533048446
 30
0.0
 10
9.0532855742
 20
2.9514762966
 30
0.0
 10
9.0535230916
 20
2.9501436588
 30
0.0
 10
9.0537169359
 20
2.9492309042
 30
0.0
 10
9.0538544482
 20
2.948659093
 30
0.0
 10
9.0539916914
 20
2.9481634757
 30
0.0
 10
9.0541286002
 20
2.9477438641
 30
0.0
 10
9.0542650498
 20
2.9474001255
 30
0.0
 10
9.054365829
 20
2.9472008154
 30
0.0
 10
9.0544177959
 20
2.9471156698
 30
0.0
  0
SPLINE
  5
30E
100
AcDbEntity
  8
0
100
AcDbSpline
 62
7
  6
CONTINUOUS
 70
0
 71
3
 72
44
 73
40
 74
0
 42
0.0000001
 43
0.0000001
 44
0.0000000001
 40
0.0
 40
0.0
 40
0.0
 40
0.0
 40
0.0001360145
 40
0.0002812202
 40
0.0004439931
 40
0.000630349
 40
0.001088023
 40
0.0016736603
 40
0.0023957925
 40
0.0032588685
 40
0.0042654325
 40
0.0054170422
 40
0.0067146295
 40
0.008158709
 40
0.011487306
 40
0.0154038934
 40
0.0199081931
 40
0.0249987072
 40
0.0306728951
 40
0.0369279518
 40
0.0437608567
 40
0.0591441095
 40
0.076787463
 40
0.0966499407
 40
0.1186847366
 40
0.1428394998
 40
0.1690569875
 40
0.1972743741
 40
0.2274246888
 40
0.259435404
 40
0.293230459
 40
0.3658450787
 40
0.444573834
 40
0.5286632739
 40
0.6173086198
 40
0.7096613984
 40
0.804837813
 40
0.9019269995
 40
1.0
 40
1.0
 40
1.0
 40
1.0
 10
9.0636413605
 20
2.9469928698
 30
0.0
 10
9.0636180225
 20
2.9469923051
 30
0.0
 10
9.0635693664
 20
2.9469981182
 30
0.0
 10
9.0634981348
 20
2.9470271433
 30
0.0
 10
9.0634278545
 20
2.9470755922
 30
0.0
 10
9.0633281469
 20
2.9471723577
 30
0.0
 10
9.0632069892
 20
2.9473470776
 30
0.0
 10
9.0630703431
 20
2.9476179383
 30
0.0
 10
9.0629332089
 20
2.9479648259
 30
0.0
 10
9.06279565
 20
2.9483880388
 30
0.0
 10
9.0626577348
 20
2.9488880577
 30
0.0
 10
9.0625195728
 20
2.9494649557
 30
0.0
 10
9.0623812107
 20
2.9501187594
 30
0.0
 10
9.0621872331
 20
2.9511424714
 30
0.0
 10
9.0619487992
 20
2.9526149122
 30
0.0
 10
9.0616734394
 20
2.9546127557
 30
0.0
 10
9.0613974653
 20
2.9569153984
 30
0.0
 10
9.0611209759
 20
2.9595215212
 30
0.0
 10
9.0608441357
 20
2.9624295983
 30
0.0
 10
9.0605670101
 20
2.9656379187
 30
0.0
 10
9.0601818842
 20
2.9705093974
 30
0.0
 10
9.0597065704
 20
2.9773342778
 30
0.0
 10
9.0591548526
 20
2.9863951656
 30
0.0
 10
9.058602211
 20
2.9965995034
 30
0.0
 10
9.0580488202
 20
3.007922841
 30
0.0
 10
9.0574949093
 20
3.0203380724
 30
0.0
 10
9.0569406133
 20
3.0338153982
 30
0.0
 10
9.0563860068
 20
3.0483225588
 30
0.0
 10
9.055831185
 20
3.0638247054
 30
0.0
 10
9.0552761536
 20
3.0802847401
 30
0.0
 10
9.0545176605
 20
3.1040303609
 30
0.0
 10
9.053576996
 20
3.1357926289
 30
0.0
 10
9.0524721502
 20
3.1761859508
 30
0.0
 10
9.0513664209
 20
3.2193316335
 30
0.0
 10
9.0502600201
 20
3.2648163738
 30
0.0
 10
9.0491531761
 20
3.3122045481
 30
0.0
 10
9.0480460419
 20
3.3610423513
 30
0.0
 10
9.0469387457
 20
3.4108621843
 30
0.0
 10
9.0462018706
 20
3.444350653
 30
0.0
 10
9.0458316673
 20
3.4611792971
 30
0.0
  0
SPLINE
  5
30F
100
AcDbEntity
  8
0
100
AcDbSpline
 62
7
  6
CONTINUOUS
 70
0
 71
3
 72
44
 73
40
 74
0
 42
0.0000001
 43
0.0000001
 44
0.0000000001
 40
0.0
 40
0.0
 40
0.0
 40
0.0
 40
0.0001357352
 40
0.0002806637
 40
0.0004431592
 40
0.0006292322
 40
0.0010863039
 40
0.0016712601
 40
0.0023926117
 40
0.0032547957
 40
0.0042603487
 40
0.0054108242
 40
0.0067071529
 40
0.0081498486
 40
0.0114752992
 40
0.0153882334
 40
0.0198883766
 40
0.0249742504
 40
0.0306433262
 40
0.0368928087
 40
0.0437196941
 40
0.0590896893
 40
0.0767182811
 40
0.096564742
 40
0.1185824751
 40
0.1427194379
 40
0.1689186434
 40
0.1971176228
 40
0.2272497091
 40
0.2592427669
 40
0.2930210876
 40
0.3656066449
 40
0.444314993
 40
0.5283961753
 40
0.617049021
 40
0.7094287026
 40
0.8046550368
 40
0.9018206769
 40
1.0
 40
1.0
 40
1.0
 40
1.0
 10
8.9922113605
 20
2.9452647246
 30
0.0
 10
8.9921880734
 20
2.9452641612
 30
0.0
 10
8.9921395192
 20
2.9452699706
 30
0.0
 10
8.9920684425
 20
2.9452989697
 30
0.0
 10
8.9919983176
 20
2.9453473706
 30
0.0
 10
8.9918988242
 20
2.9454440436
 30
0.0
 10
8.9917779354
 20
2.9456185859
 30
0.0
 10
8.9916415938
 20
2.9458891581
 30
0.0
 10
8.9915047635
 20
2.9462356789
 30
0.0
 10
8.9913675083
 20
2.9466584454
 30
0.0
 10
8.991229897
 20
2.9471579378
 30
0.0
 10
8.991092039
 20
2.9477342294
 30
0.0
 10
8.9909539814
 20
2.9483873469
 30
0.0
 10
8.9907604295
 20
2.949409992
 30
0.0
 10
8.9905225197
 20
2.9508808999
 30
0.0
 10
8.9902477657
 20
2.9528766669
 30
0.0
 10
8.9899723982
 20
2.9551769298
 30
0.0
 10
8.989696517
 20
2.9577803777
 30
0.0
 10
8.9894202855
 20
2.9606854933
 30
0.0
 10
8.9891437692
 20
2.9638905731
 30
0.0
 10
8.9887594869
 20
2.9687572102
 30
0.0
 10
8.9882852157
 20
2.9755754254
 30
0.0
 10
8.9877347089
 20
2.9846276465
 30
0.0
 10
8.9871832821
 20
2.994822512
 30
0.0
 10
8.9866311057
 20
3.0061357077
 30
0.0
 10
8.986078412
 20
3.0185402645
 30
0.0
 10
8.9855253324
 20
3.0320065457
 30
0.0
 10
8.9849719442
 20
3.0465024537
 30
0.0
 10
8.9844183399
 20
3.0619933251
 30
0.0
 10
8.9838645272
 20
3.0784422471
 30
0.0
 10
8.9831076737
 20
3.1021739694
 30
0.0
 10
8.9821690405
 20
3.1339208444
 30
0.0
 10
8.9810666104
 20
3.1742991253
 30
0.0
 10
8.9799632976
 20
3.2174356864
 30
0.0
 10
8.9788593133
 20
3.262919123
 30
0.0
 10
8.9777548851
 20
3.3103157331
 30
0.0
 10
8.9766501653
 20
3.3591736203
 30
0.0
 10
8.9755452813
 20
3.4090270425
 30
0.0
 10
8.9748101281
 20
3.4425426161
 30
0.0
 10
8.9744407966
 20
3.4593873657
 30
0.0
  0
SPLINE
  5
310
100
AcDbEntity
  8
0
100
AcDbSpline
 62
7
  6
CONTINUOUS
 70
0
 71
3
 72
38
 73
34
 74
0
 42
0.0000001
 43
0.0000001
 44
0.0000000001
 40
0.0
 40
0.0
 40
0.0
 40
0.0
 40
0.0951599195
 40
0.1896134379
 40
0.2824695199
 40
0.3728519587
 40
0.459907937
 40
0.5428158746
 40
0.6207933717
 40
0.6931046194
 40
0.7590673457
 40
0.7894711609
 40
0.8180595865
 40
0.8447653969
 40
0.8695255273
 40
0.8922821207
 40
0.9129814359
 40
0.9315756532
 40
0.9480211136
 40
0.962280863
 40
0.968580685
 40
0.974322628
 40
0.9795039398
 40
0.9841220455
 40
0.9881749306
 40
0.9916618743
 40
0.9945831219
 40
0.9958321728
 40
0.9969407376
 40
0.9979097271
 40
0.9987406513
 40
0.9994359737
 40
1.0
 40
1.0
 40
1.0
 40
1.0
 10
8.9653049733
 20
3.4743614647
 30
0.0
 10
8.9656730319
 20
3.4575706453
 30
0.0
 10
8.9664056984
 20
3.4241136342
 30
0.0
 10
8.967505307
 20
3.374272483
 30
0.0
 10
8.9686047889
 20
3.3252747179
 30
0.0
 10
8.9697040285
 20
3.2775828805
 30
0.0
 10
8.9708028793
 20
3.2316472705
 30
0.0
 10
8.9719011665
 20
3.1879016573
 30
0.0
 10
8.9729986108
 20
3.1467591932
 30
0.0
 10
8.9740949611
 20
3.1086085111
 30
0.0
 10
8.9750307493
 20
3.0788530818
 30
0.0
 10
8.9757862049
 20
3.0568126056
 30
0.0
 10
8.9763371034
 20
3.0416977078
 30
0.0
 10
8.9768877321
 20
3.027579562
 30
0.0
 10
8.9774380596
 20
3.0144915067
 30
0.0
 10
8.9779879496
 20
3.0024645328
 30
0.0
 10
8.9785373106
 20
2.9915269988
 30
0.0
 10
8.9790858297
 20
2.9817048129
 30
0.0
 10
8.9796333792
 20
2.9730210799
 30
0.0
 10
8.9801056064
 20
2.9665069646
 30
0.0
 10
8.9804886439
 20
2.9618807793
 30
0.0
 10
8.9807637011
 20
2.9588534957
 30
0.0
 10
8.981038427
 20
2.9561243266
 30
0.0
 10
8.9813127502
 20
2.9536948904
 30
0.0
 10
8.9815864672
 20
2.9515665331
 30
0.0
 10
8.9818594388
 20
2.9497404031
 30
0.0
 10
8.9820964352
 20
2.9484095842
 30
0.0
 10
8.9822898575
 20
2.9474981273
 30
0.0
 10
8.9824270668
 20
2.946927176
 30
0.0
 10
8.9825640069
 20
2.9464323391
 30
0.0
 10
8.9827006123
 20
2.9460134278
 30
0.0
 10
8.9828367582
 20
2.9456703095
 30
0.0
 10
8.9829373221
 20
2.945471378
 30
0.0
 10
8.9829891815
 20
2.945386408
 30
0.0
  0
SPLINE
  5
311
100
AcDbEntity
  8
0
100
AcDbSpline
 62
7
  6
CONTINUOUS
 70
0
 71
3
 72
44
 73
40
 74
0
 42
0.0000001
 43
0.0000001
 44
0.0000000001
 40
0.0
 40
0.0
 40
0.0
 40
0.0
 40
0.0001354579
 40
0.000280111
 40
0.0004423311
 40
0.0006281236
 40
0.001084598
 40
0.0016688795
 40
0.0023894578
 40
0.003250758
 40
0.0042553094
 40
0.0054046611
 40
0.0066997435
 40
0.0081410689
 40
0.0114634042
 40
0.015372721
 40
0.0198687469
 40
0.0249500261
 40
0.0306140408
 40
0.0368580036
 40
0.0436789264
 40
0.0590357953
 40
0.0766497668
 40
0.0964803695
 40
0.1184812019
 40
0.1426005393
 40
0.1687816352
 40
0.1969623875
 40
0.2270764156
 40
0.2590519865
 40
0.2928137271
 40
0.3653704919
 40
0.4440586157
 40
0.5281316052
 40
0.6167918631
 40
0.7091981787
 40
0.8044739526
 40
0.9017153293
 40
1.0
 40
1.0
 40
1.0
 40
1.0
 10
8.9207813605
 20
2.9435365794
 30
0.0
 10
8.920758124
 20
2.9435360173
 30
0.0
 10
8.920709671
 20
2.9435418231
 30
0.0
 10
8.9206387482
 20
2.9435707965
 30
0.0
 10
8.9205687777
 20
2.9436191497
 30
0.0
 10
8.9204694973
 20
2.9437157312
 30
0.0
 10
8.9203488756
 20
2.9438900975
 30
0.0
 10
8.9202128365
 20
2.9441603837
 30
0.0
 10
8.9200763081
 20
2.9445065409
 30
0.0
 10
8.9199393545
 20
2.9449288648
 30
0.0
 10
8.9198020452
 20
2.9454278352
 30
0.0
 10
8.9196644891
 20
2.9460035253
 30
0.0
 10
8.9195267339
 20
2.9466559627
 30
0.0
 10
8.919333605
 20
2.9476775502
 30
0.0
 10
8.9190962158
 20
2.9491469385
 30
0.0
 10
8.9188220636
 20
2.9511406467
 30
0.0
 10
8.9185472987
 20
2.9534385502
 30
0.0
 10
8.9182720218
 20
2.9560393462
 30
0.0
 10
8.9179963952
 20
2.9589415258
 30
0.0
 10
8.9177204842
 20
2.9621433924
 30
0.0
 10
8.9173370398
 20
2.9670052289
 30
0.0
 10
8.9168638047
 20
2.973816835
 30
0.0
 10
8.9163145008
 20
2.9828604625
 30
0.0
 10
8.915764281
 20
2.9930459341
 30
0.0
 10
8.9152133109
 20
3.0043490719
 30
0.0
 10
8.9146618266
 20
3.0167430406
 30
0.0
 10
8.9141099553
 20
3.0301983664
 30
0.0
 10
8.9135577776
 20
3.0446831099
 30
0.0
 10
8.9130053827
 20
3.0601627935
 30
0.0
 10
8.912452781
 20
3.0766006854
 30
0.0
 10
8.9116975564
 20
3.1003186077
 30
0.0
 10
8.9107609414
 20
3.132050188
 30
0.0
 10
8.9096609114
 20
3.1724135083
 30
0.0
 10
8.9085599995
 20
3.2155409645
 30
0.0
 10
8.9074584161
 20
3.2610230338
 30
0.0
 10
8.9063563881
 20
3.3084279197
 30
0.0
 10
8.905254067
 20
3.3573056194
 30
0.0
 10
8.9041515797
 20
3.4071922343
 30
0.0
 10
8.9034181363
 20
3.4407346053
 30
0.0
 10
8.9030496705
 20
3.4575952836
 30
0.0
  0
SPLINE
  5
312
100
AcDbEntity
  8
0
100
AcDbSpline
 62
7
  6
CONTINUOUS
 70
0
 71
3
 72
38
 73
34
 74
0
 42
0.0000001
 43
0.0000001
 44
0.0000000001
 40
0.0
 40
0.0
 40
0.0
 40
0.0
 40
0.0952708609
 40
0.1898055343
 40
0.2827161004
 40
0.3731296536
 40
0.4601968023
 40
0.5430994384
 40
0.6210586254
 40
0.6933419306
 40
0.7592703215
 40
0.7896555435
 40
0.8182248681
 40
0.8449114637
 40
0.8696525354
 40
0.8923905697
 40
0.9130720639
 40
0.9316494834
 40
0.9480793734
 40
0.9623250002
 40
0.9686183508
 40
0.9743542538
 40
0.9795299656
 40
0.98414292
 40
0.9881911234
 40
0.9916738672
 40
0.9945913978
 40
0.9958387708
 40
0.996945778
 40
0.9979133311
 40
0.9987429382
 40
0.9994370603
 40
1.0
 40
1.0
 40
1.0
 40
1.0
 10
8.8939149803
 20
3.4725668815
 30
0.0
 10
8.8942821749
 20
3.4557585868
 30
0.0
 10
8.8950131351
 20
3.4222718674
 30
0.0
 10
8.8961103624
 20
3.3723934501
 30
0.0
 10
8.8972074605
 20
3.3233724013
 30
0.0
 10
8.8983043147
 20
3.2756694665
 30
0.0
 10
8.8994007792
 20
3.2297330876
 30
0.0
 10
8.9004966799
 20
3.1859951503
 30
0.0
 10
8.9015917379
 20
3.1448669339
 30
0.0
 10
8.902685703
 20
3.1067352425
 30
0.0
 10
8.9036194801
 20
3.0769977977
 30
0.0
 10
8.9043733099
 20
3.0549727767
 30
0.0
 10
8.9049230064
 20
3.0398697999
 30
0.0
 10
8.9054724319
 20
3.0257635291
 30
0.0
 10
8.9060215583
 20
3.0126871206
 30
0.0
 10
8.9065702465
 20
3.0006714105
 30
0.0
 10
8.907118408
 20
2.9897446001
 30
0.0
 10
8.9076657277
 20
2.9799324649
 30
0.0
 10
8.9082120806
 20
2.9712579805
 30
0.0
 10
8.9086832789
 20
2.9647510183
 30
0.0
 10
8.9090654842
 20
2.9601300699
 30
0.0
 10
8.9093399394
 20
2.9571063272
 30
0.0
 10
8.9096140638
 20
2.9543804247
 30
0.0
 10
8.9098877866
 20
2.951953973
 30
0.0
 10
8.9101609039
 20
2.9498283094
 30
0.0
 10
8.9104332765
 20
2.9480045744
 30
0.0
 10
8.9106697557
 20
2.9466755577
 30
0.0
 10
8.910862759
 20
2.9457653869
 30
0.0
 10
8.9109996675
 20
2.9451952877
 30
0.0
 10
8.9111363064
 20
2.9447012245
 30
0.0
 10
8.9112726106
 20
2.9442830078
 30
0.0
 10
8.9114084551
 20
2.9439405048
 30
0.0
 10
8.9115088053
 20
2.9437419491
 30
0.0
 10
8.911560558
 20
2.9436571533
 30
0.0
  0
SPLINE
  5
313
100
AcDbEntity
  8
0
100
AcDbSpline
 62
7
  6
CONTINUOUS
 70
0
 71
3
 72
44
 73
40
 74
0
 42
0.0000001
 43
0.0000001
 44
0.0000000001
 40
0.0
 40
0.0
 40
0.0
 40
0.0
 40
0.0001351824
 40
0.0002795622
 40
0.0004415089
 40
0.000627023
 40
0.0010829053
 40
0.0016665179
 40
0.0023863301
 40
0.0032467548
 40
0.0042503144
 40
0.0053985534
 40
0.0066924015
 40
0.0081323699
 40
0.0114516202
 40
0.0153573551
 40
0.0198493049
 40
0.0249260344
 40
0.0305850375
 40
0.0368235354
 40
0.0436385552
 40
0.0589824263
 40
0.0765819225
 40
0.0963968215
 40
0.1183809203
 40
0.1424828038
 40
0.1686459673
 40
0.1968086685
 40
0.2269048132
 40
0.2588630657
 40
0.2926083836
 40
0.3651366256
 40
0.4438047086
 40
0.5278695689
 40
0.6165371524
 40
0.7089698332
 40
0.804294566
 40
0.9016109616
 40
1.0
 40
1.0
 40
1.0
 40
1.0
 10
8.8493513605
 20
2.9418084343
 30
0.0
 10
8.8493281743
 20
2.9418078733
 30
0.0
 10
8.8492798218
 20
2.9418136756
 30
0.0
 10
8.8492090518
 20
2.9418426235
 30
0.0
 10
8.8491392348
 20
2.9418909296
 30
0.0
 10
8.8490401657
 20
2.9419874204
 30
0.0
 10
8.8489198094
 20
2.9421616123
 30
0.0
 10
8.8487840708
 20
2.9424316152
 30
0.0
 10
8.8486478423
 20
2.9427774121
 30
0.0
 10
8.8485111884
 20
2.9431992976
 30
0.0
 10
8.8483741789
 20
2.9436977508
 30
0.0
 10
8.8482369228
 20
2.9442728452
 30
0.0
 10
8.848099468
 20
2.9449246087
 30
0.0
 10
8.8479067593
 20
2.9459451483
 30
0.0
 10
8.8476698873
 20
2.9474130312
 30
0.0
 10
8.8473963329
 20
2.9494046996
 30
0.0
 10
8.8471221667
 20
2.9517002655
 30
0.0
 10
8.8468474898
 20
2.9542984341
 30
0.0
 10
8.8465724641
 20
2.9571977047
 30
0.0
 10
8.8462971543
 20
2.9603963879
 30
0.0
 10
8.8459145423
 20
2.9652534679
 30
0.0
 10
8.8454423364
 20
2.9720585254
 30
0.0
 10
8.8448942274
 20
2.9810936374
 30
0.0
 10
8.8443452065
 20
2.9912698005
 30
0.0
 10
8.8437954348
 20
3.0025629707
 30
0.0
 10
8.8432451518
 20
3.0149464459
 30
0.0
 10
8.8426944807
 20
3.0283909131
 30
0.0
 10
8.8421435054
 20
3.0428645897
 30
0.0
 10
8.8415923119
 20
3.0583331822
 30
0.0
 10
8.8410409131
 20
3.0747601377
 30
0.0
 10
8.8402873066
 20
3.0984643726
 30
0.0
 10
8.8393526968
 20
3.1301807764
 30
0.0
 10
8.8382550508
 20
3.1705292408
 30
0.0
 10
8.837156524
 20
3.2136476348
 30
0.0
 10
8.8360573256
 20
3.2591283007
 30
0.0
 10
8.8349576818
 20
3.3065413309
 30
0.0
 10
8.8338577436
 20
3.3554386009
 30
0.0
 10
8.8327576373
 20
3.4053580411
 30
0.0
 10
8.8320258915
 20
3.4389269212
 30
0.0
 10
8.831658285
 20
3.455803361
 30
0.0
  0
SPLINE
  5
314
100
AcDbEntity
  8
0
100
AcDbSpline
 62
7
  6
CONTINUOUS
 70
0
 71
3
 72
38
 73
34
 74
0
 42
0.0000001
 43
0.0000001
 44
0.0000000001
 40
0.0
 40
0.0
 40
0.0
 40
0.0
 40
0.0953807471
 40
0.1899957908
 40
0.2829603046
 40
0.3734046592
 40
0.4604828604
 40
0.5433802405
 40
0.6213212939
 40
0.6935769312
 40
0.7594713274
 40
0.7898381411
 40
0.8183885553
 40
0.8450561274
 40
0.8697783305
 40
0.89249799
 40
0.9131618402
 40
0.931722627
 40
0.9481370997
 40
0.9623687404
 40
0.968655682
 40
0.9743856025
 40
0.979555767
 40
0.9841636179
 40
0.9882071822
 40
0.9916857636
 40
0.9945996094
 40
0.9958453185
 40
0.9969507808
 40
0.9979169089
 40
0.998745209
 40
0.9994381394
 40
1.0
 40
1.0
 40
1.0
 40
1.0
 10
8.822524705
 20
3.4707729947
 30
0.0
 10
8.8228910421
 20
3.4539473938
 30
0.0
 10
8.8236203091
 20
3.4204312554
 30
0.0
 10
8.8247151716
 20
3.3705159367
 30
0.0
 10
8.8258099027
 20
3.3214718355
 30
0.0
 10
8.8269043883
 20
3.2737579155
 30
0.0
 10
8.8279984833
 20
3.2278207772
 30
0.0
 10
8.829092014
 20
3.1840904394
 30
0.0
 10
8.8301847026
 20
3.1429763266
 30
0.0
 10
8.8312762992
 20
3.1048634325
 30
0.0
 10
8.8322080792
 20
3.0751437883
 30
0.0
 10
8.8329602946
 20
3.0531340642
 30
0.0
 10
8.8335087976
 20
3.038042886
 30
0.0
 10
8.8340570284
 20
3.0239483683
 30
0.0
 10
8.8346049623
 20
3.0108834872
 30
0.0
 10
8.8351524571
 20
2.9988789255
 30
0.0
 10
8.8356994275
 20
2.9879627293
 30
0.0
 10
8.8362455563
 20
2.9781605426
 30
0.0
 10
8.8367907212
 20
2.9694952132
 30
0.0
 10
8.8372608977
 20
2.9629953322
 30
0.0
 10
8.8376422767
 20
2.9583795684
 30
0.0
 10
8.8379161342
 20
2.9553593317
 30
0.0
 10
8.8381896614
 20
2.9526366638
 30
0.0
 10
8.8384627879
 20
2.9502131677
 30
0.0
 10
8.8387353098
 20
2.9480901722
 30
0.0
 10
8.8390070876
 20
2.9462688099
 30
0.0
 10
8.8392430533
 20
2.9449415787
 30
0.0
 10
8.8394356406
 20
2.9440326823
 30
0.0
 10
8.8395722503
 20
2.943463428
 30
0.0
 10
8.8397085903
 20
2.9429701319
 30
0.0
 10
8.8398445955
 20
2.9425526041
 30
0.0
 10
8.8399801405
 20
2.9422107116
 30
0.0
 10
8.8400802786
 20
2.9420125288
 30
0.0
 10
8.8401319253
 20
2.9419279061
 30
0.0
  0
SPLINE
  5
315
100
AcDbEntity
  8
0
100
AcDbSpline
 62
7
  6
CONTINUOUS
 70
0
 71
3
 72
68
 73
64
 74
0
 42
0.0000001
 43
0.0000001
 44
0.0000000001
 40
0.0
 40
0.0
 40
0.0
 40
0.0
 40
0.0000703683
 40
0.0001446871
 40
0.000226704
 40
0.0003192326
 40
0.0005428024
 40
0.00082526
 40
0.0011711473
 40
0.0015828894
 40
0.0020618918
 40
0.0026090246
 40
0.0032248516
 40
0.0039097131
 40
0.0054871549
 40
0.0073420915
 40
0.0094745227
 40
0.0118840494
 40
0.0145696758
 40
0.0175300902
 40
0.0207638947
 40
0.0280452026
 40
0.0363977709
 40
0.0458036691
 40
0.0562416168
 40
0.0676885804
 40
0.0801184421
 40
0.0935034854
 40
0.1078131116
 40
0.1390751065
 40
0.1736211613
 40
0.21113804
 40
0.2512853669
 40
0.2936989208
 40
0.3379938455
 40
0.383768254
 40
0.4306068846
 40
0.4780848064
 40
0.5257714327
 40
0.5732342534
 40
0.6200429482
 40
0.665773154
 40
0.7100103935
 40
0.7523538536
 40
0.7924199391
 40
0.8298459086
 40
0.8642930317
 40
0.8954498411
 40
0.9097051148
 40
0.9230349655
 40
0.935409013
 40
0.9467998125
 40
0.957181471
 40
0.966531227
 40
0.9748280171
 40
0.9820541844
 40
0.9881940713
 40
0.990852954
 40
0.9932360937
 40
0.9953424846
 40
0.9971717527
 40
0.9987239965
 40
1.0
 40
1.0
 40
1.0
 40
1.0
 10
8.7993001435
 20
3.4792688359
 30
0.0
 10
8.799277442
 20
3.4792682832
 30
0.0
 10
8.7992304195
 20
3.4792732641
 30
0.0
 10
8.7991611908
 20
3.4792987137
 30
0.0
 10
8.7990926982
 20
3.4793415225
 30
0.0
 10
8.7989960152
 20
3.4794267838
 30
0.0
 10
8.798877882
 20
3.4795814953
 30
0.0
 10
8.7987445167
 20
3.4798223667
 30
0.0
 10
8.7986108178
 20
3.4801306823
 30
0.0
 10
8.7984768019
 20
3.4805067681
 30
0.0
 10
8.7983424752
 20
3.4809510592
 30
0.0
 10
8.798207922
 20
3.4814636513
 30
0.0
 10
8.7980731815
 20
3.4820445974
 30
0.0
 10
8.7978843414
 20
3.4829540494
 30
0.0
 10
8.7976521686
 20
3.4842625205
 30
0.0
 10
8.7973840134
 20
3.4860382984
 30
0.0
 10
8.7971152559
 20
3.4880851417
 30
0.0
 10
8.7968460212
 20
3.4904019901
 30
0.0
 10
8.7965764597
 20
3.4929875948
 30
0.0
 10
8.7963066218
 20
3.4958404655
 30
0.0
 10
8.7959315874
 20
3.5001729158
 30
0.0
 10
8.7954687577
 20
3.5062441409
 30
0.0
 10
8.7949315057
 20
3.5143067936
 30
0.0
 10
8.7943933982
 20
3.5233900504
 30
0.0
 10
8.793854526
 20
3.5334733954
 30
0.0
 10
8.7933151841
 20
3.5445338239
 30
0.0
 10
8.7927754368
 20
3.5565463072
 30
0.0
 10
8.7922354035
 20
3.5694834332
 30
0.0
 10
8.7914929703
 20
3.5884945515
 30
0.0
 10
8.7905741096
 20
3.6143326434
 30
0.0
 10
8.7894994876
 20
3.6476587999
 30
0.0
 10
8.7884236424
 20
3.6838536207
 30
0.0
 10
8.7873468442
 20
3.7225883287
 30
0.0
 10
8.7862694068
 20
3.7635111205
 30
0.0
 10
8.7851915174
 20
3.8062503841
 30
0.0
 10
8.7841133299
 20
3.8504180698
 30
0.0
 10
8.7830349638
 20
3.8956132164
 30
0.0
 10
8.7819565206
 20
3.941425615
 30
0.0
 10
8.7808780922
 20
3.9874394982
 30
0.0
 10
8.7797997667
 20
4.0332373619
 30
0.0
 10
8.7787216358
 20
4.0784037079
 30
0.0
 10
8.7776438016
 20
4.1225288495
 30
0.0
 10
8.7765663837
 20
4.1652126081
 30
0.0
 10
8.7754895366
 20
4.2060679403
 30
0.0
 10
8.7744134483
 20
4.2447244646
 30
0.0
 10
8.7733384347
 20
4.2808317922
 30
0.0
 10
8.7722647668
 20
4.3140627238
 30
0.0
 10
8.7713467184
 20
4.3398173831
 30
0.0
 10
8.770604964
 20
4.3587591807
 30
0.0
 10
8.7700655389
 20
4.3716429234
 30
0.0
 10
8.7695264315
 20
4.3836014345
 30
0.0
 10
8.7689877596
 20
4.39460753
 30
0.0
 10
8.7684496052
 20
4.4046364317
 30
0.0
 10
8.7679122057
 20
4.4136653468
 30
0.0
 10
8.7673758574
 20
4.4216740508
 30
0.0
 10
8.76684089
 20
4.4286443711
 30
0.0
 10
8.7663776481
 20
4.4337951685
 30
0.0
 10
8.766000445
 20
4.4373839206
 30
0.0
 10
8.7657316507
 20
4.4396751057
 30
0.0
 10
8.7654633439
 20
4.4416965742
 30
0.0
 10
8.7651957629
 20
4.4434473902
 30
0.0
 10
8.7649291713
 20
4.4449267333
 30
0.0
 10
8.7647337311
 20
4.4458187016
 30
0.0
 10
8.7646326449
 20
4.4462178733
 30
0.0
  0
LINE
  5
316
100
AcDbEntity
  8
0
100
AcDbLine
 62
7
  6
CONTINUOUS
 10
8.7646326449
 20
4.4462178733
 11
8.764066939
 21
4.4478530713
  0
SPLINE
  5
317
100
AcDbEntity
  8
0
100
AcDbSpline
 62
7
  6
CONTINUOUS
 70
0
 71
3
 72
75
 73
71
 74
0
 42
0.0000001
 43
0.0000001
 44
0.0000000001
 40
0.0
 40
0.0
 40
0.0
 40
0.0
 40
0.0000680766
 40
0.0001413527
 40
0.000223683
 40
0.0003178134
 40
0.0005479883
 40
0.0008408555
 40
0.0012004317
 40
0.0016288399
 40
0.0021273064
 40
0.0026965885
 40
0.0033371462
 40
0.0040492351
 40
0.005688489
 40
0.0076148954
 40
0.0098283469
 40
0.012328172
 40
0.0151131627
 40
0.018181972
 40
0.0215331601
 40
0.029075069
 40
0.0377220058
 40
0.0474544488
 40
0.0582498966
 40
0.0700833658
 40
0.0829273193
 40
0.0967517328
 40
0.1115243843
 40
0.12721056
 40
0.1437736667
 40
0.1793730258
 40
0.2179886077
 40
0.2592579944
 40
0.3027937144
 40
0.3481868282
 40
0.3950108767
 40
0.4428258084
 40
0.491182198
 40
0.5396254439
 40
0.5877000302
 40
0.6349538951
 40
0.6809425708
 40
0.7252335155
 40
0.767410079
 40
0.8070755198
 40
0.8438567509
 40
0.8774078521
 40
0.8928723036
 40
0.9074134957
 40
0.920997353
 40
0.9335918996
 40
0.9451678081
 40
0.9556978336
 40
0.965157739
 40
0.9735253983
 40
0.9807820834
 40
0.9839885369
 40
0.9869114476
 40
0.9895494341
 40
0.9919012099
 40
0.9939657647
 40
0.9957427273
 40
0.9972322095
 40
0.9978694224
 40
0.9984352267
 40
0.9989300905
 40
0.9993548127
 40
0.9997106943
 40
1.0
 40
1.0
 40
1.0
 40
1.0
 10
9.2334087587
 20
4.4756048682
 30
0.0
 10
9.2334320004
 20
4.4756043059
 30
0.0
 10
9.2334802965
 20
4.475596251
 30
0.0
 10
9.2335505779
 20
4.475564716
 30
0.0
 10
9.2336200148
 20
4.4755143943
 30
0.0
 10
9.2337184905
 20
4.4754158796
 30
0.0
 10
9.233838292
 20
4.4752407253
 30
0.0
 10
9.2339736384
 20
4.4749710017
 30
0.0
 10
9.2341094407
 20
4.4746273512
 30
0.0
 10
9.2342456475
 20
4.4742094946
 30
0.0
 10
9.2343821917
 20
4.4737169929
 30
0.0
 10
9.234518973
 20
4.4731497744
 30
0.0
 10
9.2346559458
 20
4.4725078142
 30
0.0
 10
9.2348478834
 20
4.4715041934
 30
0.0
 10
9.2350838803
 20
4.4700622658
 30
0.0
 10
9.2353564959
 20
4.4681074745
 30
0.0
 10
9.2356297169
 20
4.4658564108
 30
0.0
 10
9.2359034428
 20
4.4633103248
 30
0.0
 10
9.2361775181
 20
4.4604706679
 30
0.0
 10
9.2364518797
 20
4.4573390779
 30
0.0
 10
9.2368331235
 20
4.4525862449
 30
0.0
 10
9.2373036989
 20
4.4459296906
 30
0.0
 10
9.2378499941
 20
4.4370942309
 30
0.0
 10
9.2383972157
 20
4.4271458493
 30
0.0
 10
9.2389452105
 20
4.4161078279
 30
0.0
 10
9.2394937367
 20
4.4040060495
 30
0.0
 10
9.240042678
 20
4.3908689106
 30
0.0
 10
9.2405919465
 20
4.3767272297
 30
0.0
 10
9.2411414619
 20
4.3616142432
 30
0.0
 10
9.2416912072
 20
4.345565407
 30
0.0
 10
9.2424425978
 20
4.3224069139
 30
0.0
 10
9.2433745509
 20
4.2914196992
 30
0.0
 10
9.244469179
 20
4.2519963616
 30
0.0
 10
9.2455647948
 20
4.2098617695
 30
0.0
 10
9.246661191
 20
4.1654118998
 30
0.0
 10
9.2477581431
 20
4.1190645475
 30
0.0
 10
9.2488555017
 20
4.0712554373
 30
0.0
 10
9.2499531402
 20
4.0224340997
 30
0.0
 10
9.2510509516
 20
3.9730596642
 30
0.0
 10
9.2521488376
 20
3.9235965352
 30
0.0
 10
9.2532467011
 20
3.8745100165
 30
0.0
 10
9.2543444386
 20
3.8262619556
 30
0.0
 10
9.2554419338
 20
3.7793063639
 30
0.0
 10
9.256539041
 20
3.7340851759
 30
0.0
 10
9.2576355862
 20
3.6910240538
 30
0.0
 10
9.2587312908
 20
3.6505283898
 30
0.0
 10
9.2598259046
 20
3.6129794894
 30
0.0
 10
9.2607602144
 20
3.5836942759
 30
0.0
 10
9.26151447
 20
3.5620024071
 30
0.0
 10
9.2620644922
 20
3.547126513
 30
0.0
 10
9.2626142452
 20
3.5332314087
 30
0.0
 10
9.2631637029
 20
3.5203498005
 30
0.0
 10
9.2637127242
 20
3.5085120943
 30
0.0
 10
9.2642612023
 20
3.4977461114
 30
0.0
 10
9.2648088481
 20
3.4880772717
 30
0.0
 10
9.2653555943
 20
3.4795282503
 30
0.0
 10
9.2658270761
 20
3.4731145781
 30
0.0
 10
9.2662093681
 20
3.4685591447
 30
0.0
 10
9.2664839073
 20
3.4655776222
 30
0.0
 10
9.2667581916
 20
3.4628893039
 30
0.0
 10
9.2670322195
 20
3.4604957803
 30
0.0
 10
9.2673058549
 20
3.4583983892
 30
0.0
 10
9.2675786947
 20
3.4565982476
 30
0.0
 10
9.2678152876
 20
3.4552859661
 30
0.0
 10
9.2680080243
 20
3.454386807
 30
0.0
 10
9.2681445816
 20
3.4538231897
 30
0.0
 10
9.2682807316
 20
3.4533344155
 30
0.0
 10
9.2684165489
 20
3.4529203066
 30
0.0
 10
9.2685520348
 20
3.4525807284
 30
0.0
 10
9.268652187
 20
3.4523837526
 30
0.0
 10
9.2687038609
 20
3.4522995438
 30
0.0
  0
SPLINE
  5
318
100
AcDbEntity
  8
0
100
AcDbSpline
 62
7
  6
CONTINUOUS
 70
0
 71
3
 72
17
 73
13
 74
0
 42
0.0000001
 43
0.0000001
 44
0.0000000001
 40
0.0
 40
0.0
 40
0.0
 40
0.0
 40
0.0262613981
 40
0.054152201
 40
0.0851292802
 40
0.1202666937
 40
0.2056388866
 40
0.3139274831
 40
0.4467935013
 40
0.6051192873
 40
0.7894158568
 40
1.0
 40
1.0
 40
1.0
 40
1.0
 10
9.2065013605
 20
3.4504491601
 30
0.0
 10
9.2064796682
 20
3.4504486353
 30
0.0
 10
9.2064345958
 20
3.450453636
 30
0.0
 10
9.2063682969
 20
3.450478863
 30
0.0
 10
9.2063026199
 20
3.4505211664
 30
0.0
 10
9.2062095645
 20
3.4506055002
 30
0.0
 10
9.2060957694
 20
3.4507582495
 30
0.0
 10
9.2059670126
 20
3.4509957681
 30
0.0
 10
9.2058376665
 20
3.4512998734
 30
0.0
 10
9.2057078608
 20
3.4516708699
 30
0.0
 10
9.205577719
 20
3.4521091833
 30
0.0
 10
9.2054963058
 20
3.4524252006
 30
0.0
 10
9.2054551671
 20
3.4525942641
 30
0.0
  0
SPLINE
  5
319
100
AcDbEntity
  8
0
100
AcDbSpline
 62
7
  6
CONTINUOUS
 70
0
 71
3
 72
62
 73
58
 74
0
 42
0.0000001
 43
0.0000001
 44
0.0000000001
 40
0.0
 40
0.0
 40
0.0
 40
0.0
 40
0.0012416001
 40
0.0027533015
 40
0.0045358175
 40
0.0065892171
 40
0.0089130986
 40
0.0115064583
 40
0.0174966853
 40
0.0245486335
 40
0.0326472983
 40
0.0417757089
 40
0.051913749
 40
0.0630395856
 40
0.075128517
 40
0.0881542333
 40
0.1020877747
 40
0.1325539171
 40
0.1662580146
 40
0.2029023462
 40
0.242163054
 40
0.2836931538
 40
0.3271255599
 40
0.3720763852
 40
0.4181483758
 40
0.4649343595
 40
0.5120209634
 40
0.5589921648
 40
0.6054330547
 40
0.6509334791
 40
0.6950916422
 40
0.7375177346
 40
0.7778372905
 40
0.8156945961
 40
0.8507557853
 40
0.8827118398
 40
0.8974364468
 40
0.9112814074
 40
0.9242165914
 40
0.9362132982
 40
0.9472455773
 40
0.9572890045
 40
0.9663221
 40
0.9743250473
 40
0.9812812203
 40
0.9843620309
 40
0.9871759917
 40
0.9897218416
 40
0.9919984034
 40
0.9940047803
 40
0.9957406625
 40
0.9972061603
 40
0.9984020775
 40
0.9988996749
 40
0.999331088
 40
0.9996973094
 40
1.0
 40
1.0
 40
1.0
 40
1.0
 10
9.2054551671
 20
3.4525942641
 30
0.0
 10
9.2053548711
 20
3.4530064403
 30
0.0
 10
9.205161344
 20
3.4539274476
 30
0.0
 10
9.2048979034
 20
3.4554547579
 30
0.0
 10
9.2046337129
 20
3.4572627838
 30
0.0
 10
9.2043688056
 20
3.4593506781
 30
0.0
 10
9.2041032211
 20
3.4617174704
 30
0.0
 10
9.2037303247
 20
3.4654254603
 30
0.0
 10
9.2032722725
 20
3.4707480529
 30
0.0
 10
9.2027435707
 20
3.4779517399
 30
0.0
 10
9.2022135667
 20
3.4862300249
 30
0.0
 10
9.201682487
 20
3.495564514
 30
0.0
 10
9.2011506823
 20
3.5059347167
 30
0.0
 10
9.2006184022
 20
3.5173175826
 30
0.0
 10
9.2000857265
 20
3.5296880151
 30
0.0
 10
9.1995527542
 20
3.5430185317
 30
0.0
 10
9.1988198101
 20
3.5626247352
 30
0.0
 10
9.1979127319
 20
3.589294215
 30
0.0
 10
9.1968521262
 20
3.6237220849
 30
0.0
 10
9.1957902962
 20
3.6611559605
 30
0.0
 10
9.1947275091
 20
3.7012646231
 30
0.0
 10
9.1936640766
 20
3.7436932369
 30
0.0
 10
9.1926001834
 20
3.7880664962
 30
0.0
 10
9.1915359808
 20
3.8339919523
 30
0.0
 10
9.1904715852
 20
3.8810634808
 30
0.0
 10
9.1894070949
 20
3.9288648969
 30
0.0
 10
9.1883425974
 20
3.9769736111
 30
0.0
 10
9.1872781754
 20
4.024964394
 30
0.0
 10
9.1862139135
 20
4.0724131146
 30
0.0
 10
9.1851499041
 20
4.1189004971
 30
0.0
 10
9.1840862535
 20
4.1640158303
 30
0.0
 10
9.1830230964
 20
4.2073605792
 30
0.0
 10
9.1819605955
 20
4.2485519268
 30
0.0
 10
9.1808990119
 20
4.2872261358
 30
0.0
 10
9.1798385816
 20
4.3230417626
 30
0.0
 10
9.1789334231
 20
4.3509549541
 30
0.0
 10
9.1782028807
 20
4.3716211583
 30
0.0
 10
9.1776702205
 20
4.3857916193
 30
0.0
 10
9.177137855
 20
4.3990293811
 30
0.0
 10
9.1766057848
 20
4.4113053469
 30
0.0
 10
9.1760741617
 20
4.4225923402
 30
0.0
 10
9.1755430469
 20
4.4328655937
 30
0.0
 10
9.1750127472
 20
4.4421023837
 30
0.0
 10
9.1744833613
 20
4.4502824976
 30
0.0
 10
9.174027056
 20
4.4564292342
 30
0.0
 10
9.1736571364
 20
4.4608042958
 30
0.0
 10
9.1733912623
 20
4.4636758613
 30
0.0
 10
9.1731256858
 20
4.4662713901
 30
0.0
 10
9.1728604893
 20
4.4685894558
 30
0.0
 10
9.172595775
 20
4.4706288204
 30
0.0
 10
9.172331877
 20
4.4723885961
 30
0.0
 10
9.172068934
 20
4.4738679616
 30
0.0
 10
9.1718396331
 20
4.4749231753
 30
0.0
 10
9.1716512713
 20
4.475624458
 30
0.0
 10
9.1715190552
 20
4.4760469631
 30
0.0
 10
9.1713872282
 20
4.4763992281
 30
0.0
 10
9.1712907099
 20
4.4766068836
 30
0.0
 10
9.1712411582
 20
4.4766976563
 30
0.0
  0
SPLINE
  5
31A
100
AcDbEntity
  8
0
100
AcDbSpline
 62
7
  6
CONTINUOUS
 70
0
 71
3
 72
75
 73
71
 74
0
 42
0.0000001
 43
0.0000001
 44
0.0000000001
 40
0.0
 40
0.0
 40
0.0
 40
0.0
 40
0.0000678513
 40
0.0001409163
 40
0.0002230567
 40
0.0003170191
 40
0.0005469132
 40
0.0008395521
 40
0.0011989347
 40
0.0016271731
 40
0.0021254865
 40
0.0026946271
 40
0.0033350521
 40
0.0040470145
 40
0.0056860281
 40
0.0076122036
 40
0.0098254282
 40
0.0123250263
 40
0.0151097876
 40
0.0181783635
 40
0.0215293131
 40
0.0290707257
 40
0.0377171377
 40
0.0474490246
 40
0.0582438853
 40
0.0700767359
 40
0.0829200417
 40
0.0967437787
 40
0.1115157286
 40
0.1272011784
 40
0.1437635396
 40
0.1793613585
 40
0.2179753584
 40
0.2592431525
 40
0.3027773019
 40
0.3481689012
 40
0.3949915271
 40
0.4428051629
 40
0.4911604192
 40
0.5396027277
 40
0.587676606
 40
0.6349300223
 40
0.6809185365
 40
0.7252096318
 40
0.7673866779
 40
0.8070529504
 40
0.8438353731
 40
0.8773880321
 40
0.8928534014
 40
0.9073955987
 40
0.9209805538
 40
0.9335762832
 40
0.9451534633
 40
0.9556848404
 40
0.9651461771
 40
0.9735153361
 40
0.9807735899
 40
0.9839808512
 40
0.9869045849
 40
0.9895433989
 40
0.9918959929
 40
0.9939613513
 40
0.9957391189
 40
0.9972294374
 40
0.9978670972
 40
0.9984333812
 40
0.9989287553
 40
0.9993539917
 40
0.9997103454
 40
1.0
 40
1.0
 40
1.0
 40
1.0
 10
9.1619787587
 20
4.4773330134
 30
0.0
 10
9.1620020015
 20
4.477332451
 30
0.0
 10
9.1620503109
 20
4.477324369
 30
0.0
 10
9.1621205947
 20
4.4772927271
 30
0.0
 10
9.1621900274
 20
4.4772422402
 30
0.0
 10
9.1622885149
 20
4.4771433848
 30
0.0
 10
9.1624083078
 20
4.4769676452
 30
0.0
 10
9.1625436398
 20
4.4766970504
 30
0.0
 10
9.1626794323
 20
4.476352278
 30
0.0
 10
9.1628156325
 20
4.4759330501
 30
0.0
 10
9.1629521713
 20
4.4754389269
 30
0.0
 10
9.163088948
 20
4.4748698373
 30
0.0
 10
9.1632259167
 20
4.4742257567
 30
0.0
 10
9.1634178508
 20
4.4732188066
 30
0.0
 10
9.1636538417
 20
4.4717721012
 30
0.0
 10
9.1639264494
 20
4.4698108401
 30
0.0
 10
9.1641996628
 20
4.4675523199
 30
0.0
 10
9.1644733814
 20
4.4649977956
 30
0.0
 10
9.1647474494
 20
4.4621487236
 30
0.0
 10
9.1650218038
 20
4.4590067472
 30
0.0
 10
9.1654030385
 20
4.4542381374
 30
0.0
 10
9.165873602
 20
4.4475594866
 30
0.0
 10
9.1664198829
 20
4.4386946991
 30
0.0
 10
9.1669670902
 20
4.4287132848
 30
0.0
 10
9.1675150707
 20
4.4176386029
 30
0.0
 10
9.1680635827
 20
4.4054966206
 30
0.0
 10
9.1686125097
 20
4.3923158281
 30
0.0
 10
9.1691617639
 20
4.3781271444
 30
0.0
 10
9.1697112649
 20
4.3629639152
 30
0.0
 10
9.1702609959
 20
4.3468617123
 30
0.0
 10
9.1710123671
 20
4.3236261775
 30
0.0
 10
9.1719442961
 20
4.2925358375
 30
0.0
 10
9.1730388952
 20
4.2529812461
 30
0.0
 10
9.1741344817
 20
4.2107062862
 30
0.0
 10
9.1752308485
 20
4.1661082331
 30
0.0
 10
9.1763277709
 20
4.1196062526
 30
0.0
 10
9.1774250998
 20
4.0716374997
 30
0.0
 10
9.1785227084
 20
4.0226529816
 30
0.0
 10
9.1796204897
 20
3.9731133375
 30
0.0
 10
9.1807183454
 20
3.9234844998
 30
0.0
 10
9.1818161785
 20
3.8742333055
 30
0.0
 10
9.1829138856
 20
3.8258231252
 30
0.0
 10
9.1840113501
 20
3.7787094704
 30
0.0
 10
9.1851084267
 20
3.7333357378
 30
0.0
 10
9.1862049412
 20
3.6901290008
 30
0.0
 10
9.1873006152
 20
3.6494959991
 30
0.0
 10
9.1883951986
 20
3.6118193086
 30
0.0
 10
9.1893294793
 20
3.5824341125
 30
0.0
 10
9.1900837092
 20
3.5606679089
 30
0.0
 10
9.1906337166
 20
3.5457408122
 30
0.0
 10
9.1911834546
 20
3.5317977126
 30
0.0
 10
9.1917328935
 20
3.518871425
 30
0.0
 10
9.1922818963
 20
3.5069924609
 30
0.0
 10
9.1928303731
 20
3.4961887363
 30
0.0
 10
9.1933780119
 20
3.4864857607
 30
0.0
 10
9.1939246866
 20
3.4779062822
 30
0.0
 10
9.1943961409
 20
3.4714695607
 30
0.0
 10
9.1947785358
 20
3.4668975866
 30
0.0
 10
9.1950531521
 20
3.4639050997
 30
0.0
 10
9.19532744
 20
3.4612067847
 30
0.0
 10
9.1956013285
 20
3.4588042359
 30
0.0
 10
9.1958746173
 20
3.4566987795
 30
0.0
 10
9.1961471685
 20
3.4548915466
 30
0.0
 10
9.1963837745
 20
3.4535739746
 30
0.0
 10
9.196576847
 20
3.4526711009
 30
0.0
 10
9.1967138452
 20
3.4521050726
 30
0.0
 10
9.1968505801
 20
3.4516141514
 30
0.0
 10
9.1969869895
 20
3.4511981543
 30
0.0
 10
9.1971229525
 20
3.4508569508
 30
0.0
 10
9.1972232895
 20
3.4506589353
 30
0.0
 10
9.1972749966
 20
3.4505742165
 30
0.0
  0
SPLINE
  5
31B
100
AcDbEntity
  8
0
100
AcDbSpline
 62
7
  6
CONTINUOUS
 70
0
 71
3
 72
75
 73
71
 74
0
 42
0.0000001
 43
0.0000001
 44
0.0000000001
 40
0.0
 40
0.0
 40
0.0
 40
0.0
 40
0.0000672662
 40
0.0001389611
 40
0.000219143
 40
0.0003107462
 40
0.0005351983
 40
0.0008219022
 40
0.0011750976
 40
0.0015970031
 40
0.0020888903
 40
0.0026515396
 40
0.0032854241
 40
0.0039908065
 40
0.0056165637
 40
0.0075293771
 40
0.009729147
 40
0.0122152043
 40
0.0149863428
 40
0.018041216
 40
0.0213783842
 40
0.0288919981
 40
0.0375102993
 40
0.0472137621
 40
0.057979888
 40
0.0697836967
 40
0.0825976621
 40
0.0963917724
 40
0.1111338268
 40
0.1267891361
 40
0.1433211407
 40
0.1788577529
 40
0.2174102162
 40
0.2586166488
 40
0.302090249
 40
0.3474228845
 40
0.394189039
 40
0.4419497317
 40
0.4902567281
 40
0.5386567197
 40
0.5866955706
 40
0.63392266
 40
0.6798949977
 40
0.7241815258
 40
0.7663670505
 40
0.8060562265
 40
0.8428772644
 40
0.8764854052
 40
0.8919851473
 40
0.9065663055
 40
0.9201948639
 40
0.9328389501
 40
0.9444692598
 40
0.9550586137
 40
0.9645827554
 40
0.9730195701
 40
0.9803502639
 40
0.9835955319
 40
0.9865584179
 40
0.9892375248
 40
0.9916315412
 40
0.9937393885
 40
0.9955606298
 40
0.9970953138
 40
0.9977554317
 40
0.9983443044
 40
0.9988623147
 40
0.9993101154
 40
0.9996887528
 40
1.0
 40
1.0
 40
1.0
 40
1.0
 10
9.1350713605
 20
3.4487210149
 30
0.0
 10
9.1350482521
 20
3.4487204559
 30
0.0
 10
9.135000122
 20
3.4487261101
 30
0.0
 10
9.1349295977
 20
3.4487544293
 30
0.0
 10
9.1348599854
 20
3.4488017524
 30
0.0
 10
9.1347612964
 20
3.4488962303
 30
0.0
 10
9.1346412798
 20
3.4490669408
 30
0.0
 10
9.1345059061
 20
3.4493317365
 30
0.0
 10
9.1343700675
 20
3.4496708312
 30
0.0
 10
9.1342338218
 20
3.4500845276
 30
0.0
 10
9.1340972278
 20
3.4505732987
 30
0.0
 10
9.1339603916
 20
3.4511372219
 30
0.0
 10
9.1338233595
 20
3.4517763277
 30
0.0
 10
9.1336312542
 20
3.4527770071
 30
0.0
 10
9.1333951158
 20
3.4542163874
 30
0.0
 10
9.1331224051
 20
3.4561694578
 30
0.0
 10
9.1328490856
 20
3.4584205599
 30
0.0
 10
9.1325752593
 20
3.4609684355
 30
0.0
 10
9.1323010858
 20
3.463811625
 30
0.0
 10
9.1320266293
 20
3.4669484802
 30
0.0
 10
9.1316452019
 20
3.4717117616
 30
0.0
 10
9.1311744584
 20
3.4783856155
 30
0.0
 10
9.1306280461
 20
3.4872468453
 30
0.0
 10
9.1300807282
 20
3.4972275806
 30
0.0
 10
9.1295326595
 20
3.5083043958
 30
0.0
 10
9.128984084
 20
3.5204512537
 30
0.0
 10
9.1284351193
 20
3.5336395905
 30
0.0
 10
9.1278858541
 20
3.5478384117
 30
0.0
 10
9.1273363691
 20
3.5630142944
 30
0.0
 10
9.1267866816
 20
3.579131589
 30
0.0
 10
9.126035378
 20
3.6023918982
 30
0.0
 10
9.1251036224
 20
3.6335187317
 30
0.0
 10
9.1240093702
 20
3.6731234144
 30
0.0
 10
9.1229142396
 20
3.7154564823
 30
0.0
 10
9.1218184385
 20
3.7601201813
 30
0.0
 10
9.1207221922
 20
3.8066949419
 30
0.0
 10
9.1196256503
 20
3.8547432909
 30
0.0
 10
9.1185289395
 20
3.9038139947
 30
0.0
 10
9.1174321667
 20
3.9534462814
 30
0.0
 10
9.11633543
 20
4.0031741773
 30
0.0
 10
9.1152388258
 20
4.0525308901
 30
0.0
 10
9.1141424566
 20
4.1010531691
 30
0.0
 10
9.1130464378
 20
4.1482856844
 30
0.0
 10
9.1119509128
 20
4.1937852643
 30
0.0
 10
9.1108560533
 20
4.2371250839
 30
0.0
 10
9.1097621329
 20
4.2778986518
 30
0.0
 10
9.108669397
 20
4.3157236144
 30
0.0
 10
9.1077369208
 20
4.3452372792
 30
0.0
 10
9.1069842749
 20
4.3671102421
 30
0.0
 10
9.1064353405
 20
4.3821203977
 30
0.0
 10
9.1058866953
 20
4.3961485585
 30
0.0
 10
9.1053383726
 20
4.4091618828
 30
0.0
 10
9.1047905001
 20
4.4211298468
 30
0.0
 10
9.1042431697
 20
4.4320244874
 30
0.0
 10
9.1036966759
 20
4.4418202577
 30
0.0
 10
9.1031511459
 20
4.4504943399
 30
0.0
 10
9.1026808796
 20
4.4570110367
 30
0.0
 10
9.1022996044
 20
4.4616478706
 30
0.0
 10
9.1020256072
 20
4.4646895809
 30
0.0
 10
9.101751928
 20
4.467437505
 30
0.0
 10
9.101478635
 20
4.469890037
 30
0.0
 10
9.1012059089
 20
4.472045818
 30
0.0
 10
9.1009338785
 20
4.473903688
 30
0.0
 10
9.100697953
 20
4.4752637268
 30
0.0
 10
9.1005056656
 20
4.4762008492
 30
0.0
 10
9.1003689532
 20
4.4767925466
 30
0.0
 10
9.1002324764
 20
4.477309172
 30
0.0
 10
9.1000962994
 20
4.4777508513
 30
0.0
 10
9.0999605301
 20
4.4781176797
 30
0.0
 10
9.0998608822
 20
4.4783333337
 30
0.0
 10
9.0998096351
 20
4.478427213
 30
0.0
  0
SPLINE
  5
31C
100
AcDbEntity
  8
0
100
AcDbSpline
 62
7
  6
CONTINUOUS
 70
0
 71
3
 72
75
 73
71
 74
0
 42
0.0000001
 43
0.0000001
 44
0.0000000001
 40
0.0
 40
0.0
 40
0.0
 40
0.0
 40
0.0000676319
 40
0.0001404926
 40
0.0002224518
 40
0.0003162565
 40
0.0005458967
 40
0.0008383434
 40
0.0011975777
 40
0.0016257007
 40
0.0021239247
 40
0.0026929972
 40
0.0033333721
 40
0.0040453001
 40
0.0056842858
 40
0.0076104803
 40
0.0098237648
 40
0.0123234598
 40
0.0151083523
 40
0.0181770915
 40
0.0215282348
 40
0.0290701205
 40
0.0377171131
 40
0.0474496802
 40
0.0582453147
 40
0.0700790259
 40
0.0829232739
 40
0.096748028
 40
0.1115210641
 40
0.1272076626
 40
0.1437712287
 40
0.1793715987
 40
0.2179882915
 40
0.2592588618
 40
0.30279581
 40
0.3481901691
 40
0.3950154532
 40
0.4428315833
 40
0.4911891091
 40
0.5396334027
 40
0.587708926
 40
0.634963594
 40
0.6809529188
 40
0.7252443406
 40
0.7674211914
 40
0.8070867168
 40
0.843867816
 40
0.8774185585
 40
0.8928827443
 40
0.9074236055
 40
0.9210070739
 40
0.9336011641
 40
0.9451765549
 40
0.9557059916
 40
0.965165239
 40
0.973532159
 40
0.9807880253
 40
0.983994036
 40
0.9869164818
 40
0.9895539693
 40
0.9919051964
 40
0.9939691468
 40
0.9957454634
 40
0.9972342835
 40
0.9978711742
 40
0.9984366745
 40
0.9989312499
 40
0.9993556712
 40
0.9997111929
 40
1.0
 40
1.0
 40
1.0
 40
1.0
 10
9.0905487587
 20
4.4790611585
 30
0.0
 10
9.0905720042
 20
4.4790605961
 30
0.0
 10
9.0906203306
 20
4.4790524858
 30
0.0
 10
9.0906906215
 20
4.4790207327
 30
0.0
 10
9.0907600546
 20
4.4789700739
 30
0.0
 10
9.0908585608
 20
4.4788708641
 30
0.0
 10
9.0909783528
 20
4.4786945154
 30
0.0
 10
9.0911136795
 20
4.4784230135
 30
0.0
 10
9.0912494712
 20
4.478077073
 30
0.0
 10
9.091385674
 20
4.4776564176
 30
0.0
 10
9.0915222166
 20
4.4771606066
 30
0.0
 10
9.0916589979
 20
4.4765895695
 30
0.0
 10
9.0917959716
 20
4.475943282
 30
0.0
 10
9.0919879154
 20
4.4749328672
 30
0.0
 10
9.0922239162
 20
4.4734811897
 30
0.0
 10
9.0924965343
 20
4.4715131956
 30
0.0
 10
9.0927697584
 20
4.4692469164
 30
0.0
 10
9.0930434881
 20
4.4666836119
 30
0.0
 10
9.0933175674
 20
4.4638247441
 30
0.0
 10
9.0935919332
 20
4.4606719623
 30
0.0
 10
9.0939731843
 20
4.4558869419
 30
0.0
 10
9.0944437677
 20
4.4491853105
 30
0.0
 10
9.094990071
 20
4.4402900269
 30
0.0
 10
9.095537301
 20
4.4302742732
 30
0.0
 10
9.0960853041
 20
4.4191614915
 30
0.0
 10
9.0966338388
 20
4.4069777407
 30
0.0
 10
9.0971827885
 20
4.3937516117
 30
0.0
 10
9.0977320654
 20
4.3795141325
 30
0.0
 10
9.0982815891
 20
4.3642987667
 30
0.0
 10
9.0988313427
 20
4.3481412112
 30
0.0
 10
9.0995827446
 20
4.324825832
 30
0.0
 10
9.1005147112
 20
4.2936287108
 30
0.0
 10
9.1016093548
 20
4.253938348
 30
0.0
 10
9.1027049856
 20
4.2115183969
 30
0.0
 10
9.1038013966
 20
4.1667675283
 30
0.0
 10
9.1048983631
 20
4.1201063787
 30
0.0
 10
9.1059957358
 20
4.0719736355
 30
0.0
 10
9.1070933879
 20
4.0228218841
 30
0.0
 10
9.1081912127
 20
3.9731133737
 30
0.0
 10
9.1092891115
 20
3.9233156622
 30
0.0
 10
9.1103869875
 20
3.8738972125
 30
0.0
 10
9.1114847371
 20
3.8253230054
 30
0.0
 10
9.1125822439
 20
3.7780501314
 30
0.0
 10
9.1136793624
 20
3.7325235207
 30
0.0
 10
9.1147759183
 20
3.6891717186
 30
0.0
 10
9.1158716331
 20
3.6484028619
 30
0.0
 10
9.1169662565
 20
3.610600835
 30
0.0
 10
9.1179005759
 20
3.5811183213
 30
0.0
 10
9.118654839
 20
3.5592804178
 30
0.0
 10
9.1192048667
 20
3.5443044738
 30
0.0
 10
9.1197546248
 20
3.5303159856
 30
0.0
 10
9.1203040835
 20
3.5173478766
 30
0.0
 10
9.1208531057
 20
3.5054307602
 30
0.0
 10
9.1214016015
 20
3.4945926436
 30
0.0
 10
9.1219492582
 20
3.4848591201
 30
0.0
 10
9.1224959498
 20
3.4762530108
 30
0.0
 10
9.1229674243
 20
3.4697965729
 30
0.0
 10
9.1233498403
 20
3.4652108301
 30
0.0
 10
9.1236244654
 20
3.4622095386
 30
0.0
 10
9.1238987613
 20
3.4595034399
 30
0.0
 10
9.1241726571
 20
3.4570941337
 30
0.0
 10
9.1244459516
 20
3.4549829497
 30
0.0
 10
9.1247185065
 20
3.4531710223
 30
0.0
 10
9.1249551232
 20
3.4518501822
 30
0.0
 10
9.1251482135
 20
3.4509452129
 30
0.0
 10
9.1252852135
 20
3.4503780037
 30
0.0
 10
9.1254219486
 20
3.4498861609
 30
0.0
 10
9.1255583557
 20
3.4494694999
 30
0.0
 10
9.1256943128
 20
3.4491278895
 30
0.0
 10
9.1257946721
 20
3.4489296944
 30
0.0
 10
9.1258464009
 20
3.4488449394
 30
0.0
  0
SPLINE
  5
31D
100
AcDbEntity
  8
0
100
AcDbSpline
 62
7
  6
CONTINUOUS
 70
0
 71
3
 72
72
 73
68
 74
0
 42
0.0000001
 43
0.0000001
 44
0.0000000001
 40
0.0
 40
0.0
 40
0.0
 40
0.0
 40
0.0001516665
 40
0.0002439241
 40
0.0003496952
 40
0.000606237
 40
0.0009275387
 40
0.0013165227
 40
0.0017747981
 40
0.0023033246
 40
0.0029027033
 40
0.0043151872
 40
0.0060136551
 40
0.0079983843
 40
0.0102691527
 40
0.0128251433
 40
0.0156650968
 40
0.0221912671
 40
0.0298340701
 40
0.0385764273
 40
0.0483985318
 40
0.0592778159
 40
0.0711890819
 40
0.0841047773
 40
0.0979947264
 40
0.1128267281
 40
0.1285659802
 40
0.1451759407
 40
0.1808503472
 40
0.2195165099
 40
0.2608127667
 40
0.3043527092
 40
0.3497287508
 40
0.3965160501
 40
0.4442763996
 40
0.4925624268
 40
0.5409217418
 40
0.5889011786
 40
0.6360511157
 40
0.6819295832
 40
0.7261065587
 40
0.7681678879
 40
0.8077192742
 40
0.8443899772
 40
0.8778363
 40
0.8932511759
 40
0.9077449734
 40
0.9212838716
 40
0.9338360828
 40
0.9453725009
 40
0.9558660429
 40
0.965292652
 40
0.9736303339
 40
0.9808605001
 40
0.9840550212
 40
0.986966905
 40
0.9895947658
 40
0.9919373084
 40
0.9939935271
 40
0.9957630702
 40
0.9972460741
 40
0.9978804145
 40
0.9984436019
 40
0.9989361007
 40
0.9993586787
 40
0.9997125856
 40
1.0
 40
1.0
 40
1.0
 40
1.0
 10
9.0191813174
 20
4.4807799487
 30
0.0
 10
9.0192317613
 20
4.480766081
 30
0.0
 10
9.0193063301
 20
4.4807205641
 30
0.0
 10
9.0193921863
 20
4.4806360214
 30
0.0
 10
9.0194900796
 20
4.4805129482
 30
0.0
 10
9.0196089958
 20
4.4803082721
 30
0.0
 10
9.0197443447
 20
4.4800031186
 30
0.0
 10
9.0198800715
 20
4.4796232732
 30
0.0
 10
9.020016208
 20
4.4791685114
 30
0.0
 10
9.0201526462
 20
4.4786385519
 30
0.0
 10
9.0203455479
 20
4.4777836741
 30
0.0
 10
9.0205814931
 20
4.4765254013
 30
0.0
 10
9.0208529107
 20
4.4747886463
 30
0.0
 10
9.0211251449
 20
4.4727528902
 30
0.0
 10
9.0213980438
 20
4.4704191828
 30
0.0
 10
9.0216714005
 20
4.4677887576
 30
0.0
 10
9.0220543024
 20
4.4636941896
 30
0.0
 10
9.0225249785
 20
4.4578458696
 30
0.0
 10
9.0230690741
 20
4.449961556
 30
0.0
 10
9.0236144509
 20
4.440938082
 30
0.0
 10
9.0241608695
 20
4.4307965053
 30
0.0
 10
9.0247079784
 20
4.4195604708
 30
0.0
 10
9.0252556225
 20
4.407256224
 30
0.0
 10
9.0258036582
 20
4.393912563
 30
0.0
 10
9.0263520184
 20
4.3795606607
 30
0.0
 10
9.026900614
 20
4.3642341565
 30
0.0
 10
9.0274494377
 20
4.3479688643
 30
0.0
 10
9.0281993734
 20
4.3245169899
 30
0.0
 10
9.0291296131
 20
4.2931585546
 30
0.0
 10
9.0302224337
 20
4.2532861038
 30
0.0
 10
9.0313162235
 20
4.210699617
 30
0.0
 10
9.0324107788
 20
4.1657979479
 30
0.0
 10
9.0335058798
 20
4.1190016927
 30
0.0
 10
9.0346013794
 20
4.0707492889
 30
0.0
 10
9.035697153
 20
4.0214928783
 30
0.0
 10
9.0367930948
 20
3.9716940933
 30
0.0
 10
9.0378891075
 20
3.9218197205
 30
0.0
 10
9.0389850948
 20
3.8723373212
 30
0.0
 10
9.0400809539
 20
3.8237108669
 30
0.0
 10
9.0411765687
 20
3.7763963559
 30
0.0
 10
9.0422717944
 20
3.7308375687
 30
0.0
 10
9.0433664571
 20
3.6874618679
 30
0.0
 10
9.044460279
 20
3.646676201
 30
0.0
 10
9.0455530102
 20
3.6088632802
 30
0.0
 10
9.046485735
 20
3.5793748654
 30
0.0
 10
9.0472387096
 20
3.5575343553
 30
0.0
 10
9.0477877837
 20
3.542557735
 30
0.0
 10
9.0483365873
 20
3.5285692487
 30
0.0
 10
9.0488850931
 20
3.5156016996
 30
0.0
 10
9.0494331617
 20
3.5036855989
 30
0.0
 10
9.0499807055
 20
3.4928488495
 30
0.0
 10
9.0505274103
 20
3.4831169566
 30
0.0
 10
9.051073152
 20
3.4745126553
 30
0.0
 10
9.0515438108
 20
3.4680577984
 30
0.0
 10
9.0519255681
 20
3.4634733517
 30
0.0
 10
9.0521997154
 20
3.4604730418
 30
0.0
 10
9.0524735337
 20
3.4577679194
 30
0.0
 10
9.0527469526
 20
3.4553595789
 30
0.0
 10
9.0530197704
 20
3.4532493441
 30
0.0
 10
9.0532918487
 20
3.451438344
 30
0.0
 10
9.0535280555
 20
3.4501182568
 30
0.0
 10
9.0537208157
 20
3.4492138741
 30
0.0
 10
9.0538575764
 20
3.4486470971
 30
0.0
 10
9.0539940716
 20
3.4481556781
 30
0.0
 10
9.0541302382
 20
3.4477394317
 30
0.0
 10
9.0542659538
 20
3.4473982265
 30
0.0
 10
9.0543661476
 20
3.4472002934
 30
0.0
 10
9.0544177959
 20
3.4471156698
 30
0.0
  0
SPLINE
  5
31E
100
AcDbEntity
  8
0
100
AcDbSpline
 62
7
  6
CONTINUOUS
 70
0
 71
3
 72
75
 73
71
 74
0
 42
0.0000001
 43
0.0000001
 44
0.0000000001
 40
0.0
 40
0.0
 40
0.0
 40
0.0
 40
0.0000670477
 40
0.0001385398
 40
0.0002185432
 40
0.000309993
 40
0.000534204
 40
0.0008207316
 40
0.0011737968
 40
0.0015956063
 40
0.002087424
 40
0.0026500256
 40
0.0032838807
 40
0.0039892498
 40
0.0056150216
 40
0.0075278968
 40
0.00972777
 40
0.0122139678
 40
0.014985281
 40
0.0180403613
 40
0.0213777672
 40
0.0288919429
 40
0.0375109136
 40
0.0472151461
 40
0.0579821359
 40
0.069786896
 40
0.0826018947
 40
0.0963971137
 40
0.1111403466
 40
0.1267968972
 40
0.1433301998
 40
0.1788695498
 40
0.2174248927
 40
0.2586342868
 40
0.3021108685
 40
0.3474464412
 40
0.3942154232
 40
0.4419787692
 40
0.4902881793
 40
0.5386902829
 40
0.5867308832
 40
0.6339593028
 40
0.679932499
 40
0.7242193661
 40
0.7664046692
 40
0.8060930274
 40
0.8429126236
 40
0.8765186779
 40
0.892017131
 40
0.9065968338
 40
0.9202237719
 40
0.9328660706
 40
0.9444944281
 40
0.9550816636
 40
0.9646035234
 40
0.9730378915
 40
0.9803659757
 40
0.9836098766
 40
0.9865713548
 40
0.9892490122
 40
0.9916415354
 40
0.9937478454
 40
0.9955675041
 40
0.9971005562
 40
0.9977598379
 40
0.9983478599
 40
0.9988650046
 40
0.9993119242
 40
0.9996896644
 40
1.0
 40
1.0
 40
1.0
 40
1.0
 10
9.0636413605
 20
3.4469928698
 30
0.0
 10
9.06361825
 20
3.4469923106
 30
0.0
 10
9.0635701032
 20
3.4469979917
 30
0.0
 10
9.0634995706
 20
3.4470264224
 30
0.0
 10
9.0634299578
 20
3.4470739181
 30
0.0
 10
9.0633312497
 20
3.447168751
 30
0.0
 10
9.0632112351
 20
3.4473400713
 30
0.0
 10
9.0630758676
 20
3.4476057733
 30
0.0
 10
9.0629400303
 20
3.4479460355
 30
0.0
 10
9.0628037824
 20
3.4483611589
 30
0.0
 10
9.0626671849
 20
3.4488516174
 30
0.0
 10
9.0625303443
 20
3.4494174878
 30
0.0
 10
9.0623933074
 20
3.4500588002
 30
0.0
 10
9.0622011931
 20
3.4510629441
 30
0.0
 10
9.0619650453
 20
3.4525072962
 30
0.0
 10
9.0616923245
 20
3.454467099
 30
0.0
 10
9.0614189947
 20
3.4567259595
 30
0.0
 10
9.0611451577
 20
3.4592826148
 30
0.0
 10
9.0608709733
 20
3.4621355996
 30
0.0
 10
9.0605965059
 20
3.4652832599
 30
0.0
 10
9.0602150626
 20
3.4700629514
 30
0.0
 10
9.0597442999
 20
3.4767597853
 30
0.0
 10
9.0591978657
 20
3.4856515104
 30
0.0
 10
9.0586505255
 20
3.4956665843
 30
0.0
 10
9.0581024345
 20
3.5067814987
 30
0.0
 10
9.0575538366
 20
3.5189701245
 30
0.0
 10
9.0570048494
 20
3.5322037972
 30
0.0
 10
9.0564555615
 20
3.5464514133
 30
0.0
 10
9.0559060539
 20
3.561679432
 30
0.0
 10
9.0553563437
 20
3.5778520787
 30
0.0
 10
9.0546050093
 20
3.6011922319
 30
0.0
 10
9.0536732156
 20
3.632425846
 30
0.0
 10
9.052578918
 20
3.6721662994
 30
0.0
 10
9.0514837417
 20
3.7146443583
 30
0.0
 10
9.0503878946
 20
3.759460873
 30
0.0
 10
9.0492916022
 20
3.8061948033
 30
0.0
 10
9.048195014
 20
3.8544071441
 30
0.0
 10
9.0470982569
 20
3.9036450832
 30
0.0
 10
9.0460014375
 20
3.9534462393
 30
0.0
 10
9.0449046542
 20
4.0033430132
 30
0.0
 10
9.0438080031
 20
4.0528669871
 30
0.0
 10
9.0427115871
 20
4.1015533002
 30
0.0
 10
9.0416155215
 20
4.1489450433
 30
0.0
 10
9.0405199497
 20
4.1945975121
 30
0.0
 10
9.0394250435
 20
4.2380824094
 30
0.0
 10
9.0383310766
 20
4.2789918472
 30
0.0
 10
9.0372382947
 20
4.316942163
 30
0.0
 10
9.0363057741
 20
4.3465531606
 30
0.0
 10
9.03555309
 20
4.3684978366
 30
0.0
 10
9.0350041318
 20
4.3835568503
 30
0.0
 10
9.034455463
 20
4.397630411
 30
0.0
 10
9.0339071168
 20
4.4106855684
 30
0.0
 10
9.0333592213
 20
4.4226916967
 30
0.0
 10
9.0328118682
 20
4.4336207419
 30
0.0
 10
9.0322653528
 20
4.4434470731
 30
0.0
 10
9.0317198021
 20
4.4521477993
 30
0.0
 10
9.0312495116
 20
4.4586842236
 30
0.0
 10
9.0308682119
 20
4.4633348351
 30
0.0
 10
9.030594204
 20
4.4663853569
 30
0.0
 10
9.0303205146
 20
4.4691410716
 30
0.0
 10
9.0300472122
 20
4.4716003683
 30
0.0
 10
9.0297744782
 20
4.4737618839
 30
0.0
 10
9.029502442
 20
4.4756244556
 30
0.0
 10
9.0292665034
 20
4.4769877681
 30
0.0
 10
9.0290741964
 20
4.4779269905
 30
0.0
 10
9.0289374808
 20
4.4785198722
 30
0.0
 10
9.0288010023
 20
4.4790374227
 30
0.0
 10
9.028664826
 20
4.4794797689
 30
0.0
 10
9.0285290604
 20
4.4798470069
 30
0.0
 10
9.0284293901
 20
4.480062842
 30
0.0
 10
9.0283781222
 20
4.4801567601
 30
0.0
  0
SPLINE
  5
31F
100
AcDbEntity
  8
0
100
AcDbSpline
 62
7
  6
CONTINUOUS
 70
0
 71
3
 72
75
 73
71
 74
0
 42
0.0000001
 43
0.0000001
 44
0.0000000001
 40
0.0
 40
0.0
 40
0.0
 40
0.0
 40
0.0000668308
 40
0.0001381215
 40
0.0002179476
 40
0.0003092453
 40
0.0005332174
 40
0.0008195705
 40
0.0011725068
 40
0.0015942212
 40
0.0020859704
 40
0.002648525
 40
0.0032823514
 40
0.0039877073
 40
0.0056134939
 40
0.007526431
 40
0.0097264072
 40
0.0122127448
 40
0.0149842317
 40
0.0180395179
 40
0.0213771605
 40
0.0288918939
 40
0.0375115304
 40
0.047216527
 40
0.0579843757
 40
0.0697900801
 40
0.0826061061
 40
0.0964024256
 40
0.1111468298
 40
0.1268046126
 40
0.143339205
 40
0.1788812741
 40
0.2174394769
 40
0.2586518123
 40
0.3021313548
 40
0.3474698443
 40
0.3942416346
 40
0.4420076153
 40
0.4903194225
 40
0.5387236232
 40
0.5867659607
 40
0.6339957009
 40
0.6799697489
 40
0.7242569517
 40
0.7664420335
 40
0.8061295784
 40
0.8429477416
 40
0.8765517228
 40
0.8920488986
 40
0.9066271522
 40
0.9202524841
 40
0.9328930038
 40
0.9445194254
 40
0.9551045537
 40
0.9646241496
 40
0.973056085
 40
0.980381579
 40
0.9836241187
 40
0.9865842011
 40
0.9892604213
 40
0.9916514587
 40
0.9937562391
 40
0.9955743286
 40
0.9971057623
 40
0.9977642128
 40
0.9983513876
 40
0.998867672
 40
0.9993137174
 40
0.9996905683
 40
1.0
 40
1.0
 40
1.0
 40
1.0
 10
8.9922113605
 20
3.4452647246
 30
0.0
 10
8.9921882478
 20
3.4452641654
 30
0.0
 10
8.9921400843
 20
3.4452698733
 30
0.0
 10
8.9920695435
 20
3.4452984155
 30
0.0
 10
8.9919999303
 20
3.4453460839
 30
0.0
 10
8.9919012032
 20
3.4454412717
 30
0.0
 10
8.9917811907
 20
3.4456132017
 30
0.0
 10
8.9916458294
 20
3.44587981
 30
0.0
 10
8.9915099934
 20
3.4462212397
 30
0.0
 10
8.9913737432
 20
3.4466377901
 30
0.0
 10
8.9912371422
 20
3.4471299361
 30
0.0
 10
8.9911002973
 20
3.4476977537
 30
0.0
 10
8.9909632557
 20
3.4483412726
 30
0.0
 10
8.9907711324
 20
3.449348881
 30
0.0
 10
8.9905349753
 20
3.4507982047
 30
0.0
 10
8.9902622446
 20
3.4527647399
 30
0.0
 10
8.9899889044
 20
3.455031359
 30
0.0
 10
8.9897150567
 20
3.457596794
 30
0.0
 10
8.9894408615
 20
3.4604595741
 30
0.0
 10
8.9891663832
 20
3.4636180392
 30
0.0
 10
8.9887849243
 20
3.4684141408
 30
0.0
 10
8.9883141425
 20
3.4751339549
 30
0.0
 10
8.9877676865
 20
3.484056175
 30
0.0
 10
8.9872203242
 20
3.4941055877
 30
0.0
 10
8.9866722111
 20
3.5052586009
 30
0.0
 10
8.9861235908
 20
3.5174889948
 30
0.0
 10
8.9855745814
 20
3.530768003
 30
0.0
 10
8.9850252709
 20
3.5450644141
 30
0.0
 10
8.984475741
 20
3.5603445686
 30
0.0
 10
8.9839260081
 20
3.5765725675
 30
0.0
 10
8.9831746432
 20
3.5999925642
 30
0.0
 10
8.9822428115
 20
3.6313329589
 30
0.0
 10
8.9811484688
 20
3.6712091825
 30
0.0
 10
8.980053247
 20
3.7138322319
 30
0.0
 10
8.9789573544
 20
3.7588015619
 30
0.0
 10
8.9778610162
 20
3.8056946614
 30
0.0
 10
8.9767643821
 20
3.8540709935
 30
0.0
 10
8.9756675788
 20
3.9034761676
 30
0.0
 10
8.9745707132
 20
3.9534461928
 30
0.0
 10
8.9734738835
 20
4.0035118443
 30
0.0
 10
8.9723771861
 20
4.0532030789
 30
0.0
 10
8.9712807236
 20
4.1020534254
 30
0.0
 10
8.9701846114
 20
4.1496043957
 30
0.0
 10
8.969088993
 20
4.1954097525
 30
0.0
 10
8.9679940405
 20
4.2390397268
 30
0.0
 10
8.9669000275
 20
4.2800850335
 30
0.0
 10
8.9658072
 20
4.3181607019
 30
0.0
 10
8.964874635
 20
4.347869033
 30
0.0
 10
8.9641219134
 20
4.3698854218
 30
0.0
 10
8.963572931
 20
4.3849932945
 30
0.0
 10
8.9630242393
 20
4.3991122538
 30
0.0
 10
8.9624758693
 20
4.4122092453
 30
0.0
 10
8.9619279515
 20
4.4242535369
 30
0.0
 10
8.9613805753
 20
4.4352169877
 30
0.0
 10
8.960834039
 20
4.4450738786
 30
0.0
 10
8.960288467
 20
4.4538012496
 30
0.0
 10
8.9598181534
 20
4.4603574
 30
0.0
 10
8.9594368285
 20
4.4650217893
 30
0.0
 10
8.9591628102
 20
4.4680811232
 30
0.0
 10
8.9588891111
 20
4.4708446294
 30
0.0
 10
8.9586157994
 20
4.4733106896
 30
0.0
 10
8.9583430572
 20
4.4754779389
 30
0.0
 10
8.9580710154
 20
4.477345213
 30
0.0
 10
8.9578350637
 20
4.4787118008
 30
0.0
 10
8.9576427368
 20
4.4796531229
 30
0.0
 10
8.9575060172
 20
4.4802471876
 30
0.0
 10
8.9573695368
 20
4.4807656623
 30
0.0
 10
8.9572333612
 20
4.4812086763
 30
0.0
 10
8.9570975999
 20
4.4815763257
 30
0.0
 10
8.9569979078
 20
4.4817923435
 30
0.0
 10
8.9569466193
 20
4.4818863013
 30
0.0
  0
SPLINE
  5
320
100
AcDbEntity
  8
0
100
AcDbSpline
 62
7
  6
CONTINUOUS
 70
0
 71
3
 72
75
 73
71
 74
0
 42
0.0000001
 43
0.0000001
 44
0.0000000001
 40
0.0
 40
0.0
 40
0.0
 40
0.0
 40
0.0000671975
 40
0.0001396541
 40
0.0002212546
 40
0.0003147479
 40
0.0005438873
 40
0.0008359547
 40
0.0011948967
 40
0.0016227926
 40
0.0021208406
 40
0.0026897792
 40
0.0033300558
 40
0.0040419164
 40
0.0056808482
 40
0.0076070813
 40
0.0098204856
 40
0.0123203736
 40
0.0151055264
 40
0.0181745895
 40
0.021526117
 40
0.0290689408
 40
0.0377170837
 40
0.0474509983
 40
0.0582481654
 40
0.0700835815
 40
0.0829296954
 40
0.0967564635
 40
0.1115316507
 40
0.1272205237
 40
0.1437864758
 40
0.1793918972
 40
0.2180139218
 40
0.2592899885
 40
0.3028324781
 40
0.348232301
 40
0.3950628475
 40
0.4428839156
 40
0.4912459334
 40
0.5396941568
 40
0.5877729353
 40
0.6350300804
 40
0.6810210085
 40
0.7253130745
 40
0.7674895377
 40
0.8071535818
 40
0.843932059
 40
0.8774790052
 40
0.8929408465
 40
0.9074790616
 40
0.9210595856
 40
0.9336504296
 40
0.945222277
 40
0.955747871
 40
0.9652029813
 40
0.9735654679
 40
0.9808166066
 40
0.984020141
 40
0.9869400369
 40
0.989574898
 40
0.9919234187
 40
0.9939845815
 40
0.9957580254
 40
0.9972438787
 40
0.9978792466
 40
0.9984431955
 40
0.9989361895
 40
0.9993589971
 40
0.9997128712
 40
1.0
 40
1.0
 40
1.0
 40
1.0
 10
8.9476887587
 20
4.4825174488
 30
0.0
 10
8.9477120096
 20
4.4825168863
 30
0.0
 10
8.94776037
 20
4.4825087194
 30
0.0
 10
8.947830675
 20
4.4824767436
 30
0.0
 10
8.9479001087
 20
4.4824257408
 30
0.0
 10
8.9479986518
 20
4.4823258224
 30
0.0
 10
8.948118442
 20
4.482148256
 30
0.0
 10
8.9482537581
 20
4.4818749397
 30
0.0
 10
8.9483895482
 20
4.4815266631
 30
0.0
 10
8.948525756
 20
4.4811031528
 30
0.0
 10
8.9486623062
 20
4.4806039661
 30
0.0
 10
8.9487990967
 20
4.480029034
 30
0.0
 10
8.9489360804
 20
4.4793783328
 30
0.0
 10
8.9491280431
 20
4.4783609886
 30
0.0
 10
8.9493640636
 20
4.4768993667
 30
0.0
 10
8.9496367023
 20
4.4749179067
 30
0.0
 10
8.9499099477
 20
4.4726361096
 30
0.0
 10
8.9501836995
 20
4.4700552446
 30
0.0
 10
8.950457801
 20
4.4671767852
 30
0.0
 10
8.9507321893
 20
4.4640023927
 30
0.0
 10
8.9511134731
 20
4.459184551
 30
0.0
 10
8.9515840956
 20
4.4524369582
 30
0.0
 10
8.9521304435
 20
4.4434806824
 30
0.0
 10
8.9526777182
 20
4.4333962499
 30
0.0
 10
8.9532257662
 20
4.4222072684
 30
0.0
 10
8.9537743459
 20
4.4099399804
 30
0.0
 10
8.9543233406
 20
4.3966231784
 30
0.0
 10
8.9548726625
 20
4.3822881083
 30
0.0
 10
8.955422231
 20
4.3669684691
 30
0.0
 10
8.9559720295
 20
4.3507002082
 30
0.0
 10
8.9567234919
 20
4.3272251402
 30
0.0
 10
8.9576555332
 20
4.2958144563
 30
0.0
 10
8.9587502648
 20
4.2558525509
 30
0.0
 10
8.9598459834
 20
4.2131426174
 30
0.0
 10
8.9609424819
 20
4.1680861177
 30
0.0
 10
8.9620395355
 20
4.1211066302
 30
0.0
 10
8.963136995
 20
4.0726459064
 30
0.0
 10
8.9642347335
 20
4.0231596888
 30
0.0
 10
8.9653326441
 20
3.9731134462
 30
0.0
 10
8.9664306284
 20
3.9229779879
 30
0.0
 10
8.9675285892
 20
3.8732250279
 30
0.0
 10
8.9686264232
 20
3.8243227679
 30
0.0
 10
8.9697240136
 20
3.7767314568
 30
0.0
 10
8.970821215
 20
3.7308990909
 30
0.0
 10
8.9719178529
 20
3.6872571599
 30
0.0
 10
8.9730136485
 20
3.6462165945
 30
0.0
 10
8.9741083512
 20
3.6081638963
 30
0.0
 10
8.9750427471
 20
3.5784867488
 30
0.0
 10
8.9757970759
 20
3.5565054468
 30
0.0
 10
8.976347144
 20
3.541431809
 30
0.0
 10
8.9768969417
 20
3.5273525443
 30
0.0
 10
8.9774464398
 20
3.5143007936
 30
0.0
 10
8.9779955003
 20
3.5023073736
 30
0.0
 10
8.9785440336
 20
3.4914004738
 30
0.0
 10
8.9790917257
 20
3.4816058553
 30
0.0
 10
8.9796384508
 20
3.4729464854
 30
0.0
 10
8.9801099653
 20
3.4664506155
 30
0.0
 10
8.9804924233
 20
3.4618373358
 30
0.0
 10
8.9807670656
 20
3.4588184355
 30
0.0
 10
8.9810413774
 20
3.45609677
 30
0.0
 10
8.9813152877
 20
3.4536739492
 30
0.0
 10
8.9815885934
 20
3.4515513105
 30
0.0
 10
8.9818611555
 20
3.4497299947
 30
0.0
 10
8.9820977934
 20
3.4484026188
 30
0.0
 10
8.9822909191
 20
3.4474934584
 30
0.0
 10
8.9824279227
 20
3.4469238877
 30
0.0
 10
8.9825646581
 20
3.446430202
 30
0.0
 10
8.9827010605
 20
3.4460122134
 30
0.0
 10
8.9828370056
 20
3.4456697893
 30
0.0
 10
8.9829374094
 20
3.4454712351
 30
0.0
 10
8.9829891815
 20
3.445386408
 30
0.0
  0
SPLINE
  5
321
100
AcDbEntity
  8
0
100
AcDbSpline
 62
7
  6
CONTINUOUS
 70
0
 71
3
 72
75
 73
71
 74
0
 42
0.0000001
 43
0.0000001
 44
0.0000000001
 40
0.0
 40
0.0
 40
0.0
 40
0.0
 40
0.0000666152
 40
0.000137706
 40
0.0002173562
 40
0.0003085031
 40
0.0005322385
 40
0.0008184189
 40
0.0011712276
 40
0.0015928481
 40
0.0020845294
 40
0.0026470376
 40
0.0032808356
 40
0.0039861788
 40
0.005611981
 40
0.00752498
 40
0.0097250586
 40
0.0122115355
 40
0.0149831957
 40
0.0180386868
 40
0.0213765641
 40
0.0288918531
 40
0.0375121505
 40
0.0472179081
 40
0.0579866092
 40
0.0697932538
 40
0.0826102992
 40
0.0964077142
 40
0.1111532809
 40
0.1268122896
 40
0.1433481625
 40
0.1788929342
 40
0.2174539792
 40
0.2586692379
 40
0.3021517228
 40
0.3474931107
 40
0.3942676915
 40
0.4420362897
 40
0.4903504789
 40
0.5387567628
 40
0.5868008261
 40
0.6340318783
 40
0.6800067725
 40
0.7242943095
 40
0.7664791713
 40
0.8061659084
 40
0.8429826475
 40
0.8765845685
 40
0.8920804685
 40
0.9066572884
 40
0.9202810171
 40
0.9329197756
 40
0.9445442668
 40
0.955127307
 40
0.9646446476
 40
0.9730741706
 40
0.9803970873
 40
0.983638281
 40
0.9865969717
 40
0.9892717586
 40
0.9916613252
 40
0.9937645911
 40
0.9955811162
 40
0.9971109371
 40
0.9977685631
 40
0.9983549007
 40
0.9988703315
 40
0.9993155062
 40
0.9996914697
 40
1.0
 40
1.0
 40
1.0
 40
1.0
 10
8.9207813605
 20
3.4435365794
 30
0.0
 10
8.9207582457
 20
3.4435360202
 30
0.0
 10
8.9207100654
 20
3.443541755
 30
0.0
 10
8.9206395164
 20
3.4435704088
 30
0.0
 10
8.920569903
 20
3.4436182498
 30
0.0
 10
8.9204711571
 20
3.4437137926
 30
0.0
 10
8.9203511467
 20
3.4438863323
 30
0.0
 10
8.9202157915
 20
3.4441538469
 30
0.0
 10
8.9200799568
 20
3.4444964441
 30
0.0
 10
8.9199437044
 20
3.4449144215
 30
0.0
 10
8.9198070999
 20
3.4454082549
 30
0.0
 10
8.9196702507
 20
3.4459780196
 30
0.0
 10
8.9195332043
 20
3.4466237451
 30
0.0
 10
8.9193410721
 20
3.4476348181
 30
0.0
 10
8.9191049057
 20
3.4490891137
 30
0.0
 10
8.9188321651
 20
3.4510623813
 30
0.0
 10
8.9185588147
 20
3.4533367589
 30
0.0
 10
8.9182849564
 20
3.4559109737
 30
0.0
 10
8.9180107505
 20
3.4587835493
 30
0.0
 10
8.9177362613
 20
3.4619528194
 30
0.0
 10
8.9173547867
 20
3.4667653313
 30
0.0
 10
8.9168839861
 20
3.4735081253
 30
0.0
 10
8.9163375084
 20
3.4824608412
 30
0.0
 10
8.9157901243
 20
3.4925445926
 30
0.0
 10
8.915241989
 20
3.5037357055
 30
0.0
 10
8.9146933467
 20
3.5160078673
 30
0.0
 10
8.9141443149
 20
3.529332212
 30
0.0
 10
8.9135949823
 20
3.5436774181
 30
0.0
 10
8.9130454298
 20
3.5590097092
 30
0.0
 10
8.9124956746
 20
3.5752930602
 30
0.0
 10
8.9117442794
 20
3.5987929013
 30
0.0
 10
8.9108124101
 20
3.630240077
 30
0.0
 10
8.9097180224
 20
3.6702520722
 30
0.0
 10
8.9086227556
 20
3.7130201133
 30
0.0
 10
8.9075268176
 20
3.7581422596
 30
0.0
 10
8.9064304339
 20
3.8051945293
 30
0.0
 10
8.9053337541
 20
3.8537348533
 30
0.0
 10
8.9042369051
 20
3.903307263
 30
0.0
 10
8.9031399935
 20
3.9534461574
 30
0.0
 10
8.9020431178
 20
4.0036806868
 30
0.0
 10
8.9009463742
 20
4.053539182
 30
0.0
 10
8.8998498654
 20
4.102553562
 30
0.0
 10
8.898753707
 20
4.1502637598
 30
0.0
 10
8.8976580425
 20
4.1962220047
 30
0.0
 10
8.8965630438
 20
4.239997056
 30
0.0
 10
8.895468985
 20
4.2811782312
 30
0.0
 10
8.894376112
 20
4.3193792515
 30
0.0
 10
8.8934435035
 20
4.349184913
 30
0.0
 10
8.8926907438
 20
4.3712730138
 30
0.0
 10
8.8921417383
 20
4.3864297424
 30
0.0
 10
8.8915930229
 20
4.4005941016
 30
0.0
 10
8.8910446302
 20
4.4137329238
 30
0.0
 10
8.8904966892
 20
4.4258153797
 30
0.0
 10
8.8899492912
 20
4.4368132329
 30
0.0
 10
8.8894027329
 20
4.4467006844
 30
0.0
 10
8.888857141
 20
4.4554546976
 30
0.0
 10
8.8883868031
 20
4.4620305758
 30
0.0
 10
8.8880054547
 20
4.4667087417
 30
0.0
 10
8.8877314254
 20
4.4697768859
 30
0.0
 10
8.8874577159
 20
4.4725481813
 30
0.0
 10
8.8871843949
 20
4.4750210064
 30
0.0
 10
8.8869116454
 20
4.4771939908
 30
0.0
 10
8.8866395976
 20
4.4790659651
 30
0.0
 10
8.8864036331
 20
4.4804358246
 30
0.0
 10
8.8862112872
 20
4.4813792466
 30
0.0
 10
8.8860745654
 20
4.4819744969
 30
0.0
 10
8.8859380837
 20
4.4824938969
 30
0.0
 10
8.8858019087
 20
4.4829375768
 30
0.0
 10
8.8856661508
 20
4.4833056336
 30
0.0
 10
8.8855664359
 20
4.4835218308
 30
0.0
 10
8.8855151264
 20
4.4836158266
 30
0.0
  0
SPLINE
  5
322
100
AcDbEntity
  8
0
100
AcDbSpline
 62
7
  6
CONTINUOUS
 70
0
 71
3
 72
75
 73
71
 74
0
 42
0.0000001
 43
0.0000001
 44
0.0000000001
 40
0.0
 40
0.0
 40
0.0
 40
0.0
 40
0.0000669824
 40
0.0001392391
 40
0.0002206624
 40
0.0003140018
 40
0.0005428942
 40
0.0008347745
 40
0.0011935725
 40
0.0016213566
 40
0.002119318
 40
0.0026881908
 40
0.0033284191
 40
0.0040402468
 40
0.0056791526
 40
0.0076054055
 40
0.0098188695
 40
0.0123188534
 40
0.0151041356
 40
0.0181733594
 40
0.0215250773
 40
0.0290683661
 40
0.0377170789
 40
0.0474516609
 40
0.0582495871
 40
0.0700858473
 40
0.0829328851
 40
0.0967606506
 40
0.1115369027
 40
0.1272269017
 40
0.1437940351
 40
0.1794019572
 40
0.2180266211
 40
0.2593054087
 40
0.3028506413
 40
0.3482531685
 40
0.3950863198
 40
0.4429098315
 40
0.4912740728
 40
0.5397242406
 40
0.5878046299
 40
0.6350630004
 40
0.6810547213
 40
0.7253471056
 40
0.7675233756
 40
0.8071866856
 40
0.8439638638
 40
0.8775089298
 40
0.8929696103
 40
0.9075065151
 40
0.921085581
 40
0.9336748177
 40
0.9452449108
 40
0.9557686024
 40
0.9652216643
 40
0.9735819561
 40
0.9808307546
 40
0.9840330632
 40
0.9869516968
 40
0.9895852578
 40
0.9919324387
 40
0.9939922217
 40
0.9957642437
 40
0.9972486285
 40
0.9978832426
 40
0.9984464236
 40
0.9989386348
 40
0.9993606436
 40
0.999713702
 40
1.0
 40
1.0
 40
1.0
 40
1.0
 10
8.8762587587
 20
4.484245594
 30
0.0
 10
8.8762820122
 20
4.4842450314
 30
0.0
 10
8.8763303898
 20
4.4842368361
 30
0.0
 10
8.8764007017
 20
4.4842047489
 30
0.0
 10
8.8764701356
 20
4.4841535742
 30
0.0
 10
8.876568697
 20
4.4840533014
 30
0.0
 10
8.8766884861
 20
4.4838751262
 30
0.0
 10
8.876823797
 20
4.4836009029
 30
0.0
 10
8.8769595863
 20
4.4832514582
 30
0.0
 10
8.8770957966
 20
4.4828265205
 30
0.0
 10
8.8772323506
 20
4.4823256459
 30
0.0
 10
8.8773691456
 20
4.4817487663
 30
0.0
 10
8.8775061342
 20
4.4810958582
 30
0.0
 10
8.8776981064
 20
4.4800750493
 30
0.0
 10
8.8779341365
 20
4.4786084553
 30
0.0
 10
8.8782067854
 20
4.4766202623
 30
0.0
 10
8.8784800415
 20
4.4743307061
 30
0.0
 10
8.8787538041
 20
4.4717410608
 30
0.0
 10
8.8790279167
 20
4.4688528056
 30
0.0
 10
8.879302316
 20
4.4656676077
 30
0.0
 10
8.879683616
 20
4.4608333554
 30
0.0
 10
8.880154258
 20
4.4540627819
 30
0.0
 10
8.8807006278
 20
4.4450760099
 30
0.0
 10
8.8812479248
 20
4.4349572379
 30
0.0
 10
8.881795995
 20
4.4237301564
 30
0.0
 10
8.882344597
 20
4.4114210998
 30
0.0
 10
8.8828936139
 20
4.3980589611
 30
0.0
 10
8.883442958
 20
4.3836750954
 30
0.0
 10
8.8839925487
 20
4.3683033195
 30
0.0
 10
8.8845423694
 20
4.3519797059
 30
0.0
 10
8.8852938619
 20
4.3284247933
 30
0.0
 10
8.8862259401
 20
4.2969073281
 30
0.0
 10
8.8873207153
 20
4.2568096511
 30
0.0
 10
8.8884164774
 20
4.2139547263
 30
0.0
 10
8.8895130192
 20
4.168745411
 30
0.0
 10
8.8906101159
 20
4.1216067545
 30
0.0
 10
8.8917076183
 20
4.0729820404
 30
0.0
 10
8.8928053996
 20
4.0233285899
 30
0.0
 10
8.8939033527
 20
3.9731134814
 30
0.0
 10
8.8950013793
 20
3.9228091499
 30
0.0
 10
8.8960993822
 20
3.8728889352
 30
0.0
 10
8.8971972579
 20
3.8238226491
 30
0.0
 10
8.8982948897
 20
3.77607212
 30
0.0
 10
8.8993921321
 20
3.7300868772
 30
0.0
 10
8.9004888106
 20
3.6862998824
 30
0.0
 10
8.9015846462
 20
3.6451234636
 30
0.0
 10
8.9026793882
 20
3.6069454305
 30
0.0
 10
8.903613822
 20
3.577170967
 30
0.0
 10
8.9043681832
 20
3.5551179662
 30
0.0
 10
8.9049182713
 20
3.539995482
 30
0.0
 10
8.9054680887
 20
3.5258708297
 30
0.0
 10
8.9060176063
 20
3.5127772586
 30
0.0
 10
8.9065666856
 20
3.5007456871
 30
0.0
 10
8.9071152375
 20
3.4898043962
 30
0.0
 10
8.9076629472
 20
3.4799792308
 30
0.0
 10
8.9082096889
 20
3.4712932311
 30
0.0
 10
8.9086812232
 20
3.4647776456
 30
0.0
 10
8.9090637019
 20
3.4601505978
 30
0.0
 10
8.9093383527
 20
3.4571228933
 30
0.0
 10
8.9096126724
 20
3.4543934447
 30
0.0
 10
8.9098865899
 20
3.4519638668
 30
0.0
 10
8.9101599012
 20
3.4498355009
 30
0.0
 10
8.9104324668
 20
3.4480094912
 30
0.0
 10
8.9106691152
 20
3.4466788476
 30
0.0
 10
8.9108622583
 20
3.4457675918
 30
0.0
 10
8.9109992638
 20
3.4451968405
 30
0.0
 10
8.9111359993
 20
3.4447022335
 30
0.0
 10
8.9112723993
 20
3.4442835811
 30
0.0
 10
8.9114083383
 20
3.4439407503
 30
0.0
 10
8.9115087642
 20
3.4437420165
 30
0.0
 10
8.911560558
 20
3.4436571533
 30
0.0
  0
SPLINE
  5
323
100
AcDbEntity
  8
0
100
AcDbSpline
 62
7
  6
CONTINUOUS
 70
0
 71
3
 72
75
 73
71
 74
0
 42
0.0000001
 43
0.0000001
 44
0.0000000001
 40
0.0
 40
0.0
 40
0.0
 40
0.0
 40
0.000066401
 40
0.0001372933
 40
0.000216769
 40
0.0003077664
 40
0.0005312672
 40
0.0008172764
 40
0.0011699589
 40
0.0015914865
 40
0.0020831009
 40
0.0026455633
 40
0.0032793334
 40
0.0039846643
 40
0.0056104822
 40
0.007523543
 40
0.0097237238
 40
0.0122103393
 40
0.0149821717
 40
0.0180378665
 40
0.0213759775
 40
0.0288918182
 40
0.0375127728
 40
0.0472192858
 40
0.0579888343
 40
0.0697964121
 40
0.082614471
 40
0.0964129732
 40
0.1111596954
 40
0.1268199212
 40
0.1433570667
 40
0.1789045223
 40
0.2174683902
 40
0.2586865518
 40
0.3021719589
 40
0.3475162255
 40
0.3942935774
 40
0.4420647756
 40
0.4903813298
 40
0.5387896828
 40
0.5868354597
 40
0.6340678143
 40
0.6800435484
 40
0.724331416
 40
0.7665160588
 40
0.8062019924
 40
0.8430173164
 40
0.8766171902
 40
0.8921118258
 40
0.9066872183
 40
0.9203093578
 40
0.9329463634
 40
0.9445689402
 40
0.9551499032
 40
0.9646650064
 40
0.9730921307
 40
0.980412489
 40
0.9836523424
 40
0.9866096531
 40
0.9892830191
 40
0.991671122
 40
0.9937728811
 40
0.9955878549
 40
0.9971160762
 40
0.9977728826
 40
0.9983583864
 40
0.9988729687
 40
0.9993172797
 40
0.9996923636
 40
1.0
 40
1.0
 40
1.0
 40
1.0
 10
8.8493513605
 20
3.4418084343
 30
0.0
 10
8.8493282436
 20
3.441807875
 30
0.0
 10
8.8492800465
 20
3.4418136367
 30
0.0
 10
8.8492094894
 20
3.4418424021
 30
0.0
 10
8.8491398757
 20
3.4418904158
 30
0.0
 10
8.8490411111
 20
3.4419863136
 30
0.0
 10
8.8489211029
 20
3.4421594628
 30
0.0
 10
8.8487857538
 20
3.4424278836
 30
0.0
 10
8.8486499204
 20
3.4427716484
 30
0.0
 10
8.8485136659
 20
3.4431910527
 30
0.0
 10
8.8483770579
 20
3.4436865736
 30
0.0
 10
8.8482402043
 20
3.4442582854
 30
0.0
 10
8.8481031533
 20
3.4449062176
 30
0.0
 10
8.8479110122
 20
3.4459207551
 30
0.0
 10
8.8476748366
 20
3.4473800223
 30
0.0
 10
8.8474020862
 20
3.4493600224
 30
0.0
 10
8.8471287256
 20
3.4516421585
 30
0.0
 10
8.8468548568
 20
3.4542251532
 30
0.0
 10
8.8465806402
 20
3.4571075241
 30
0.0
 10
8.8463061403
 20
3.4602875993
 30
0.0
 10
8.8459246502
 20
3.4651165213
 30
0.0
 10
8.8454538308
 20
3.4718822954
 30
0.0
 10
8.8449073315
 20
3.4808655067
 30
0.0
 10
8.8443599256
 20
3.4909835969
 30
0.0
 10
8.8438117685
 20
3.5022128091
 30
0.0
 10
8.8432631041
 20
3.514526739
 30
0.0
 10
8.8427140503
 20
3.5278964197
 30
0.0
 10
8.8421646955
 20
3.5422904208
 30
0.0
 10
8.8416151209
 20
3.5576748482
 30
0.0
 10
8.8410653434
 20
3.5740135515
 30
0.0
 10
8.840313918
 20
3.5975932365
 30
0.0
 10
8.8393820113
 20
3.6291471931
 30
0.0
 10
8.838287579
 20
3.6692949592
 30
0.0
 10
8.8371922674
 20
3.7122079914
 30
0.0
 10
8.8360962844
 20
3.7574829534
 30
0.0
 10
8.8349998556
 20
3.8046943928
 30
0.0
 10
8.8339031304
 20
3.8533987084
 30
0.0
 10
8.8328062359
 20
3.9031383531
 30
0.0
 10
8.8317092787
 20
3.9534461165
 30
0.0
 10
8.8306123572
 20
4.0038495232
 30
0.0
 10
8.8295155678
 20
4.0538752787
 30
0.0
 10
8.8284190131
 20
4.1030536917
 30
0.0
 10
8.8273228087
 20
4.1509231162
 30
0.0
 10
8.8262270983
 20
4.1970342486
 30
0.0
 10
8.8251320539
 20
4.240954376
 30
0.0
 10
8.8240379496
 20
4.2822714193
 30
0.0
 10
8.8229450315
 20
4.3205977909
 30
0.0
 10
8.8220123794
 20
4.3505007836
 30
0.0
 10
8.8212595823
 20
4.3726605959
 30
0.0
 10
8.8207105535
 20
4.3878661814
 30
0.0
 10
8.820161815
 20
4.4020759394
 30
0.0
 10
8.8196133993
 20
4.4152565934
 30
0.0
 10
8.8190654357
 20
4.4273772126
 30
0.0
 10
8.8185180154
 20
4.4384094692
 30
0.0
 10
8.8179714359
 20
4.4483274804
 30
0.0
 10
8.8174258237
 20
4.4571081365
 30
0.0
 10
8.8169554622
 20
4.4637037411
 30
0.0
 10
8.8165740898
 20
4.4683956837
 30
0.0
 10
8.8163000499
 20
4.4714726389
 30
0.0
 10
8.8160263304
 20
4.4742517243
 30
0.0
 10
8.8157530003
 20
4.4767313134
 30
0.0
 10
8.8154802431
 20
4.4789100319
 30
0.0
 10
8.8152081897
 20
4.4807867072
 30
0.0
 10
8.8149722123
 20
4.48215984
 30
0.0
 10
8.8147798471
 20
4.4831053616
 30
0.0
 10
8.8146431223
 20
4.483701796
 30
0.0
 10
8.814506639
 20
4.4842221207
 30
0.0
 10
8.8143704646
 20
4.4846664672
 30
0.0
 10
8.8142347107
 20
4.4850349333
 30
0.0
 10
8.8141349736
 20
4.4852513116
 30
0.0
 10
8.8140836433
 20
4.4853453462
 30
0.0
  0
SPLINE
  5
324
100
AcDbEntity
  8
0
100
AcDbSpline
 62
7
  6
CONTINUOUS
 70
0
 71
3
 72
75
 73
71
 74
0
 42
0.0000001
 43
0.0000001
 44
0.0000000001
 40
0.0
 40
0.0
 40
0.0
 40
0.0
 40
0.0000667688
 40
0.0001388269
 40
0.0002200743
 40
0.0003132611
 40
0.0005419086
 40
0.0008336037
 40
0.0011922591
 40
0.0016199325
 40
0.0021178083
 40
0.002686616
 40
0.0033267966
 40
0.0040385918
 40
0.0056774722
 40
0.0076037451
 40
0.0098172688
 40
0.0123173482
 40
0.0151027592
 40
0.0181721428
 40
0.0215240502
 40
0.0290678011
 40
0.0377170804
 40
0.0474523257
 40
0.0582510061
 40
0.0700881051
 40
0.0829360609
 40
0.0967648171
 40
0.1115421273
 40
0.127233245
 40
0.1438015517
 40
0.1794119582
 40
0.218039244
 40
0.2593207344
 40
0.3028686916
 40
0.3482739051
 40
0.3951096435
 40
0.4429355826
 40
0.4913020321
 40
0.5397541311
 40
0.5878361201
 40
0.6350957074
 40
0.6810882152
 40
0.7253809151
 40
0.7675569927
 40
0.8072195729
 40
0.84399546
 40
0.8775386578
 40
0.8929981847
 40
0.9075337877
 40
0.921111405
 40
0.9336990448
 40
0.945267395
 40
0.9557891965
 40
0.9652402236
 40
0.973598335
 40
0.9808448086
 40
0.9840458995
 40
0.9869632792
 40
0.9895955487
 40
0.9919413988
 40
0.9939998112
 40
0.9957704208
 40
0.9972533469
 40
0.9978872122
 40
0.9984496304
 40
0.9989410641
 40
0.9993622794
 40
0.9997145275
 40
1.0
 40
1.0
 40
1.0
 40
1.0
 10
8.8048287587
 20
4.4859737392
 30
0.0
 10
8.8048520149
 20
4.4859731765
 30
0.0
 10
8.8049004095
 20
4.4859649527
 30
0.0
 10
8.8049707284
 20
4.4859327541
 30
0.0
 10
8.8050401624
 20
4.4858814076
 30
0.0
 10
8.8051387419
 20
4.4857807803
 30
0.0
 10
8.8052585299
 20
4.4856019965
 30
0.0
 10
8.8053938356
 20
4.4853268661
 30
0.0
 10
8.8055296242
 20
4.4849762534
 30
0.0
 10
8.805665837
 20
4.4845498882
 30
0.0
 10
8.8058023946
 20
4.4840473258
 30
0.0
 10
8.8059391941
 20
4.4834684987
 30
0.0
 10
8.8060761877
 20
4.4828133837
 30
0.0
 10
8.8062681692
 20
4.48178911
 30
0.0
 10
8.806504209
 20
4.480317544
 30
0.0
 10
8.806776868
 20
4.4783226179
 30
0.0
 10
8.8070501346
 20
4.4760253027
 30
0.0
 10
8.807323908
 20
4.4734268771
 30
0.0
 10
8.8075980316
 20
4.4705288261
 30
0.0
 10
8.807872442
 20
4.4673328227
 30
0.0
 10
8.808253758
 20
4.4624821597
 30
0.0
 10
8.8087244193
 20
4.4556886056
 30
0.0
 10
8.809270811
 20
4.4466713373
 30
0.0
 10
8.8098181299
 20
4.4365182258
 30
0.0
 10
8.8103662223
 20
4.4252530443
 30
0.0
 10
8.8109148464
 20
4.4129022189
 30
0.0
 10
8.8114638853
 20
4.3994947436
 30
0.0
 10
8.8120132516
 20
4.3850620823
 30
0.0
 10
8.8125628644
 20
4.3696381695
 30
0.0
 10
8.8131127071
 20
4.3532592033
 30
0.0
 10
8.8138642294
 20
4.3296244461
 30
0.0
 10
8.8147963443
 20
4.2980001993
 30
0.0
 10
8.8158911628
 20
4.2577667508
 30
0.0
 10
8.8169869681
 20
4.2147668345
 30
0.0
 10
8.8180835529
 20
4.1694047036
 30
0.0
 10
8.8191806925
 20
4.1221068781
 30
0.0
 10
8.8202782376
 20
4.0733181739
 30
0.0
 10
8.8213760612
 20
4.0234974904
 30
0.0
 10
8.8224740567
 20
3.9731135163
 30
0.0
 10
8.8235721252
 20
3.9226403117
 30
0.0
 10
8.8246701698
 20
3.8725528425
 30
0.0
 10
8.825768087
 20
3.8233225308
 30
0.0
 10
8.82686576
 20
3.7754127839
 30
0.0
 10
8.8279630432
 20
3.7292746646
 30
0.0
 10
8.829059762
 20
3.6853426065
 30
0.0
 10
8.8301556373
 20
3.6440303346
 30
0.0
 10
8.8312504183
 20
3.6057269673
 30
0.0
 10
8.8321848897
 20
3.5758551881
 30
0.0
 10
8.8329392832
 20
3.5537304891
 30
0.0
 10
8.8334893912
 20
3.5385591588
 30
0.0
 10
8.834039228
 20
3.524389119
 30
0.0
 10
8.834588765
 20
3.5112537278
 30
0.0
 10
8.8351378632
 20
3.4991840053
 30
0.0
 10
8.8356864335
 20
3.4882083236
 30
0.0
 10
8.8362341605
 20
3.4783526116
 30
0.0
 10
8.8367809188
 20
3.4696399823
 30
0.0
 10
8.8372524728
 20
3.4631046815
 30
0.0
 10
8.837634972
 20
3.4584638658
 30
0.0
 10
8.8379096314
 20
3.4554273573
 30
0.0
 10
8.8381839589
 20
3.4526901256
 30
0.0
 10
8.8384578835
 20
3.4502537909
 30
0.0
 10
8.8387312003
 20
3.448119698
 30
0.0
 10
8.8390037694
 20
3.4462889944
 30
0.0
 10
8.8392404281
 20
3.4449550833
 30
0.0
 10
8.8394335888
 20
3.4440417323
 30
0.0
 10
8.839570596
 20
3.4434698003
 30
0.0
 10
8.8397073315
 20
3.4429742721
 30
0.0
 10
8.839843729
 20
3.4425549561
 30
0.0
 10
8.839979662
 20
3.4422117186
 30
0.0
 10
8.8400801099
 20
3.4420128053
 30
0.0
 10
8.8401319253
 20
3.4419279061
 30
0.0
  0
SPLINE
  5
325
100
AcDbEntity
  8
0
100
AcDbSpline
 62
7
  6
CONTINUOUS
 70
0
 71
3
 72
69
 73
65
 74
0
 42
0.0000001
 43
0.0000001
 44
0.0000000001
 40
0.0
 40
0.0
 40
0.0
 40
0.0
 40
0.0000707024
 40
0.000145356
 40
0.0002277136
 40
0.0003205953
 40
0.0005449323
 40
0.0008282713
 40
0.0011751775
 40
0.0015880886
 40
0.0020684181
 40
0.0026170401
 40
0.003234522
 40
0.0039212127
 40
0.0055028399
 40
0.0073626612
 40
0.009500668
 40
0.011916461
 40
0.0146090565
 40
0.0175771281
 40
0.0208192616
 40
0.0281192272
 40
0.0364930578
 40
0.045922712
 40
0.0563868122
 40
0.0678621888
 40
0.0803225993
 40
0.0937401679
 40
0.1080841487
 40
0.139419637
 40
0.1740443365
 40
0.2116434199
 40
0.2518748112
 40
0.2943725023
 40
0.3387497986
 40
0.3846029337
 40
0.4315147721
 40
0.4790585257
 40
0.5268018055
 40
0.5743103791
 40
0.6211523039
 40
0.6669017363
 40
0.7111428618
 40
0.7534737192
 40
0.7935097584
 40
0.8308875034
 40
0.8652677268
 40
0.8963387074
 40
0.9105439637
 40
0.9238190929
 40
0.9361337565
 40
0.9474605751
 40
0.9577737372
 40
0.9670505861
 40
0.9752701823
 40
0.9824150257
 40
0.985579429
 40
0.9884697055
 40
0.9910845621
 40
0.9934228004
 40
0.9954834705
 40
0.9972662796
 40
0.9987714532
 40
1.0
 40
1.0
 40
1.0
 40
1.0
 10
8.8707301435
 20
3.480996984
 30
0.0
 10
8.8707074109
 20
3.4809964298
 30
0.0
 10
8.8706603305
 20
3.4810014007
 30
0.0
 10
8.8705910078
 20
3.4810268196
 30
0.0
 10
8.8705224183
 20
3.4810695877
 30
0.0
 10
8.8704256096
 20
3.4811547644
 30
0.0
 10
8.8703073075
 20
3.4813093421
 30
0.0
 10
8.8701737474
 20
3.4815500324
 30
0.0
 10
8.8700398562
 20
3.4818581124
 30
0.0
 10
8.86990565
 20
3.4822339078
 30
0.0
 10
8.8697711333
 20
3.4826778523
 30
0.0
 10
8.8696363903
 20
3.4831900411
 30
0.0
 10
8.8695014592
 20
3.4837705287
 30
0.0
 10
8.8693123549
 20
3.4846792584
 30
0.0
 10
8.8690798567
 20
3.4859866994
 30
0.0
 10
8.8688113249
 20
3.487761083
 30
0.0
 10
8.8685421894
 20
3.4898063081
 30
0.0
 10
8.8682725753
 20
3.4921213148
 30
0.0
 10
8.8680026361
 20
3.4947048555
 30
0.0
 10
8.8677324197
 20
3.4975554363
 30
0.0
 10
8.8673568601
 20
3.501884361
 30
0.0
 10
8.8668933823
 20
3.5079505855
 30
0.0
 10
8.8663553772
 20
3.5160065063
 30
0.0
 10
8.8658165143
 20
3.5250820262
 30
0.0
 10
8.865276887
 20
3.5351565847
 30
0.0
 10
8.8647367884
 20
3.5462071372
 30
0.0
 10
8.8641962848
 20
3.5582086026
 30
0.0
 10
8.8636554942
 20
3.5711335209
 30
0.0
 10
8.8629120337
 20
3.5901258144
 30
0.0
 10
8.8619919022
 20
3.6159369654
 30
0.0
 10
8.8609157792
 20
3.6492264053
 30
0.0
 10
8.8598384321
 20
3.6853782803
 30
0.0
 10
8.8587601314
 20
3.7240632821
 30
0.0
 10
8.8576811915
 20
3.7649290746
 30
0.0
 10
8.8566018001
 20
3.8076035225
 30
0.0
 10
8.8555221114
 20
3.85169808
 30
0.0
 10
8.8544422453
 20
3.8968113273
 30
0.0
 10
8.8533623037
 20
3.942532653
 30
0.0
 10
8.8522823791
 20
3.9884459544
 30
0.0
 10
8.8512025601
 20
4.0341334733
 30
0.0
 10
8.8501229393
 20
4.0791795542
 30
0.0
 10
8.8490436197
 20
4.1231744571
 30
0.0
 10
8.8479647226
 20
4.1657180704
 30
0.0
 10
8.8468864047
 20
4.206423542
 30
0.0
 10
8.8458088569
 20
4.2449208188
 30
0.0
 10
8.8447324011
 20
4.2808599817
 30
0.0
 10
8.843657313
 20
4.3139144463
 30
0.0
 10
8.8427378809
 20
4.3395171753
 30
0.0
 10
8.8419949214
 20
4.3583338544
 30
0.0
 10
8.8414547686
 20
4.3711213757
 30
0.0
 10
8.8409149397
 20
4.3829822626
 30
0.0
 10
8.8403755624
 20
4.3938894797
 30
0.0
 10
8.8398367015
 20
4.4038184006
 30
0.0
 10
8.8392986713
 20
4.4127464155
 30
0.0
 10
8.8387615651
 20
4.4206534231
 30
0.0
 10
8.838298612
 20
4.4265948332
 30
0.0
 10
8.8379233027
 20
4.4308234879
 30
0.0
 10
8.8376535513
 20
4.4335987494
 30
0.0
 10
8.8373841
 20
4.4361069583
 30
0.0
 10
8.8371150298
 20
4.4383467016
 30
0.0
 10
8.8368464518
 20
4.4403167425
 30
0.0
 10
8.836578663
 20
4.4420162021
 30
0.0
 10
8.8363119383
 20
4.4434442982
 30
0.0
 10
8.8361158049
 20
4.4443018786
 30
0.0
 10
8.8360140995
 20
4.4446836907
 30
0.0
  0
LINE
  5
326
100
AcDbEntity
  8
0
100
AcDbLine
 62
7
  6
CONTINUOUS
 10
8.8360140995
 20
4.4446836907
 11
8.8354986601
 21
4.4461233316
  0
SPLINE
  5
327
100
AcDbEntity
  8
0
100
AcDbSpline
 62
7
  6
CONTINUOUS
 70
0
 71
3
 72
68
 73
64
 74
0
 42
0.0000001
 43
0.0000001
 44
0.0000000001
 40
0.0
 40
0.0
 40
0.0
 40
0.0
 40
0.0000709261
 40
0.0001457853
 40
0.0002283156
 40
0.0003213319
 40
0.0005458264
 40
0.0008291941
 40
0.0011760221
 40
0.0015887648
 40
0.0020688474
 40
0.0026171536
 40
0.0032342539
 40
0.0039204842
 40
0.005500968
 40
0.0073593814
 40
0.0094957505
 40
0.0119096761
 40
0.0146001386
 40
0.0175658389
 40
0.0208053923
 40
0.0280995298
 40
0.036466656
 40
0.0458888012
 40
0.0563445933
 40
0.0678109365
 40
0.0802616048
 40
0.0936688003
 40
0.1080018014
 40
0.1393137808
 40
0.1739132912
 40
0.2114860152
 40
0.2516904218
 40
0.294161078
 40
0.3385118731
 40
0.3843396481
 40
0.4312278632
 40
0.4787503282
 40
0.5264752316
 40
0.5739688924
 40
0.6207998927
 40
0.6665428609
 40
0.7107824182
 40
0.7531169724
 40
0.793162285
 40
0.8305551213
 40
0.8649564189
 40
0.8960545479
 40
0.9102756601
 40
0.9235681596
 40
0.935901695
 40
0.9472488703
 40
0.9575838486
 40
0.9668839452
 40
0.9751281843
 40
0.9822990245
 40
0.9883809477
 40
0.9910099214
 40
0.9933625737
 40
0.9954379416
 40
0.9972357135
 40
0.9987560828
 40
1.0
 40
1.0
 40
1.0
 40
1.0
 10
8.9421601435
 20
3.4827251226
 30
0.0
 10
8.9421374217
 20
3.4827245708
 30
0.0
 10
8.9420903764
 20
3.482729518
 30
0.0
 10
8.9420210921
 20
3.4827548155
 30
0.0
 10
8.9419525319
 20
3.4827973846
 30
0.0
 10
8.9418557858
 20
3.4828821483
 30
0.0
 10
8.94173753
 20
3.4830360035
 30
0.0
 10
8.9416040131
 20
3.4832756174
 30
0.0
 10
8.941470172
 20
3.4835823134
 30
0.0
 10
8.9413360203
 20
3.4839564219
 30
0.0
 10
8.9412015601
 20
3.484398378
 30
0.0
 10
8.9410668753
 20
3.4849082797
 30
0.0
 10
8.9409320048
 20
3.4854861774
 30
0.0
 10
8.9407429857
 20
3.48639083
 30
0.0
 10
8.9405105885
 20
3.4876924092
 30
0.0
 10
8.940242172
 20
3.489458858
 30
0.0
 10
8.9399731551
 20
3.4914949509
 30
0.0
 10
8.9397036621
 20
3.4937996269
 30
0.0
 10
8.9394338397
 20
3.4963716368
 30
0.0
 10
8.9391637412
 20
3.4992094973
 30
0.0
 10
8.9387883488
 20
3.5035191211
 30
0.0
 10
8.9383250754
 20
3.5095583337
 30
0.0
 10
8.9377873058
 20
3.5175784309
 30
0.0
 10
8.9372486818
 20
3.5266136418
 30
0.0
 10
8.9367092911
 20
3.5366435257
 30
0.0
 10
8.936169432
 20
3.5476451506
 30
0.0
 10
8.9356291658
 20
3.5595935787
 30
0.0
 10
8.9350886148
 20
3.5724614869
 30
0.0
 10
8.9343454779
 20
3.5913702887
 30
0.0
 10
8.933425748
 20
3.6170684102
 30
0.0
 10
8.9323500988
 20
3.6502127116
 30
0.0
 10
8.9312732263
 20
3.686207943
 30
0.0
 10
8.9301954006
 20
3.7247265129
 30
0.0
 10
8.929116936
 20
3.7654179099
 30
0.0
 10
8.92803802
 20
3.8079119154
 30
0.0
 10
8.9269588068
 20
3.8518219672
 30
0.0
 10
8.925879416
 20
3.8967486803
 30
0.0
 10
8.9247999495
 20
3.9422835021
 30
0.0
 10
8.9237204996
 20
3.9880123944
 30
0.0
 10
8.9226411547
 20
4.0335196463
 30
0.0
 10
8.9215620071
 20
4.0783916081
 30
0.0
 10
8.9204831596
 20
4.122220487
 30
0.0
 10
8.9194047328
 20
4.1646080338
 30
0.0
 10
8.9183268829
 20
4.2051691591
 30
0.0
 10
8.9172497996
 20
4.243535449
 30
0.0
 10
8.916173803
 20
4.2793584851
 30
0.0
 10
8.9150991674
 20
4.3123130283
 30
0.0
 10
8.9141801766
 20
4.3378431687
 30
0.0
 10
8.9134376018
 20
4.3566107452
 30
0.0
 10
8.912897681
 20
4.3693684375
 30
0.0
 10
8.912358083
 20
4.3812043034
 30
0.0
 10
8.9118189282
 20
4.3920913863
 30
0.0
 10
8.9112803012
 20
4.4020051327
 30
0.0
 10
8.9107424445
 20
4.4109229691
 30
0.0
 10
8.9102056657
 20
4.4188248893
 30
0.0
 10
8.9096703009
 20
4.4256929317
 30
0.0
 10
8.9092065609
 20
4.4307613695
 30
0.0
 10
8.9088288044
 20
4.4342865923
 30
0.0
 10
8.9085598059
 20
4.4365320399
 30
0.0
 10
8.9082913163
 20
4.438509054
 30
0.0
 10
8.90802359
 20
4.4402167414
 30
0.0
 10
8.9077569029
 20
4.441654313
 30
0.0
 10
8.9075609955
 20
4.4425186945
 30
0.0
 10
8.9074594978
 20
4.4429041717
 30
0.0
  0
LINE
  5
328
100
AcDbEntity
  8
0
100
AcDbLine
 62
7
  6
CONTINUOUS
 10
8.9074594978
 20
4.4429041717
 11
8.9069303935
 21
4.4443935799
  0
SPLINE
  5
329
100
AcDbEntity
  8
0
100
AcDbSpline
 62
7
  6
CONTINUOUS
 70
0
 71
3
 72
23
 73
19
 74
0
 42
0.0000001
 43
0.0000001
 44
0.0000000001
 40
0.0
 40
0.0
 40
0.0
 40
0.0
 40
0.0640677747
 40
0.1281066004
 40
0.1920078399
 40
0.2557393328
 40
0.3192566714
 40
0.3825159002
 40
0.4454880281
 40
0.5081548881
 40
0.5705083324
 40
0.63255257
 40
0.6943048722
 40
0.7557939141
 40
0.8170541324
 40
0.878135685
 40
0.9391137557
 40
1.0
 40
1.0
 40
1.0
 40
1.0
 10
8.0430404476
 20
4.7133525069
 30
0.0
 10
8.0430404473
 20
4.7117174503
 30
0.0
 10
8.0431933026
 20
4.7084460431
 30
0.0
 10
8.0438774011
 20
4.7035869992
 30
0.0
 10
8.045011151
 20
4.6988211121
 30
0.0
 10
8.0465831555
 20
4.6941954444
 30
0.0
 10
8.0485779616
 20
4.689753594
 30
0.0
 10
8.0509771803
 20
4.6855386661
 30
0.0
 10
8.0537574863
 20
4.6815911958
 30
0.0
 10
8.0568920885
 20
4.6779490257
 30
0.0
 10
8.0603513376
 20
4.6746476888
 30
0.0
 10
8.0641015997
 20
4.6717186807
 30
0.0
 10
8.0681070273
 20
4.6691904599
 30
0.0
 10
8.0723291466
 20
4.6670878772
 30
0.0
 10
8.0767268573
 20
4.6654306105
 30
0.0
 10
8.0812586526
 20
4.664235166
 30
0.0
 10
8.0858794644
 20
4.663513759
 30
0.0
 10
8.0889918961
 20
4.6633525069
 30
0.0
 10
8.0905457576
 20
4.6633525069
 30
0.0
  0
SPLINE
  5
32A
100
AcDbEntity
  8
0
100
AcDbSpline
 62
7
  6
CONTINUOUS
 70
0
 71
3
 72
27
 73
23
 74
0
 42
0.0000001
 43
0.0000001
 44
0.0000000001
 40
0.0
 40
0.0
 40
0.0
 40
0.0
 40
0.1774939639
 40
0.3504715173
 40
0.4334448302
 40
0.5131331104
 40
0.5888597625
 40
0.6599790465
 40
0.7258816103
 40
0.786000047
 40
0.8398140807
 40
0.8868553535
 40
0.9077053961
 40
0.9267121287
 40
0.9438343473
 40
0.9590334515
 40
0.9722765548
 40
0.9835337648
 40
0.9884101156
 40
0.9927814544
 40
0.9966453169
 40
1.0
 40
1.0
 40
1.0
 40
1.0
 10
9.3086991886
 20
3.4915983292
 30
0.0
 10
9.3091298332
 20
3.4620051241
 30
0.0
 10
9.309978014
 20
3.4035716951
 30
0.0
 10
9.3110561467
 20
3.3313047094
 30
0.0
 10
9.3119320914
 20
3.2753452091
 30
0.0
 10
9.312580561
 20
3.235600303
 30
0.0
 10
9.313229531
 20
3.1978322873
 30
0.0
 10
9.3138788783
 20
3.1623633437
 30
0.0
 10
9.3145284195
 20
3.1294974714
 30
0.0
 10
9.3151778007
 20
3.0995177768
 30
0.0
 10
9.3158267422
 20
3.072683927
 30
0.0
 10
9.3163864601
 20
3.0523977466
 30
0.0
 10
9.3168415357
 20
3.0379150095
 30
0.0
 10
9.3171688875
 20
3.0284196354
 30
0.0
 10
9.3174959924
 20
3.0198671368
 30
0.0
 10
9.3178226969
 20
3.012276456
 30
0.0
 10
9.3181487951
 20
3.0056647432
 30
0.0
 10
9.3184313394
 20
3.0007743649
 30
0.0
 10
9.3186615437
 20
2.9973629958
 30
0.0
 10
9.3188256528
 20
2.9951828408
 30
0.0
 10
9.3189895125
 20
2.9932572052
 30
0.0
 10
9.3191067522
 20
2.992059212
 30
0.0
 10
9.3191664126
 20
2.991503024
 30
0.0
  0
LINE
  5
32B
100
AcDbEntity
  8
0
100
AcDbLine
 62
7
  6
CONTINUOUS
 10
9.3191664126
 20
2.991503024
 11
9.3195817493
 21
2.9884438552
  0
LINE
  5
32C
100
AcDbEntity
  8
0
100
AcDbLine
 62
7
  6
CONTINUOUS
 10
9.3195817493
 20
2.9884438552
 11
9.3199800518
 21
2.9870412377
  0
SPLINE
  5
32D
100
AcDbEntity
  8
0
100
AcDbSpline
 62
7
  6
CONTINUOUS
 70
0
 71
3
 72
44
 73
40
 74
0
 42
0.0000001
 43
0.0000001
 44
0.0000000001
 40
0.0
 40
0.0
 40
0.0
 40
0.0
 40
0.0001350254
 40
0.0002792304
 40
0.0004409694
 40
0.0006262336
 40
0.0010814703
 40
0.0016642263
 40
0.0023829626
 40
0.0032420886
 40
0.0042441245
 40
0.0053906145
 40
0.0066824914
 40
0.0081202681
 40
0.0114344773
 40
0.0153343009
 40
0.0198194814
 40
0.0248886237
 40
0.0305392453
 40
0.0367685845
 40
0.043573695
 40
0.0588957096
 40
0.0764708274
 40
0.0962592501
 40
0.1182151132
 40
0.1422875267
 40
0.1684203939
 40
0.1965525836
 40
0.2266184804
 40
0.2585474268
 40
0.2922649296
 40
0.3647447966
 40
0.4433787612
 40
0.5274295518
 40
0.6161091004
 40
0.7085858409
 40
0.8039927389
 40
0.9014352742
 40
1.0
 40
1.0
 40
1.0
 40
1.0
 10
8.7779213605
 20
2.9400802891
 30
0.0
 10
8.7778982601
 20
2.9400797302
 30
0.0
 10
8.7778500882
 20
2.9400855079
 30
0.0
 10
8.7777795805
 20
2.9401143357
 30
0.0
 10
8.7777100214
 20
2.940162443
 30
0.0
 10
8.7776113205
 20
2.9402585356
 30
0.0
 10
8.7774914085
 20
2.9404320124
 30
0.0
 10
8.7773561705
 20
2.9407009119
 30
0.0
 10
8.7772204451
 20
2.941045295
 30
0.0
 10
8.7770842961
 20
2.9414654558
 30
0.0
 10
8.776947793
 20
2.9419618716
 30
0.0
 10
8.7768110438
 20
2.9425346165
 30
0.0
 10
8.776674097
 20
2.9431837198
 30
0.0
 10
8.7764821003
 20
2.9442000997
 30
0.0
 10
8.7762461035
 20
2.9456620103
 30
0.0
 10
8.7759735604
 20
2.9476455894
 30
0.0
 10
8.775700407
 20
2.9499318547
 30
0.0
 10
8.7754267458
 20
2.9525195282
 30
0.0
 10
8.775152737
 20
2.9554071272
 30
0.0
 10
8.7748784448
 20
2.9585929782
 30
0.0
 10
8.7744972421
 20
2.9634307
 30
0.0
 10
8.7740267782
 20
2.9702088366
 30
0.0
 10
8.7734806919
 20
2.979208515
 30
0.0
 10
8.7729337002
 20
2.9893452467
 30
0.0
 10
8.7723859571
 20
3.0005952691
 30
0.0
 10
8.7718377076
 20
3.0129321665
 30
0.0
 10
8.7712890684
 20
3.0263269643
 30
0.0
 10
8.7707401288
 20
3.0407482179
 30
0.0
 10
8.770190969
 20
3.0561620234
 30
0.0
 10
8.7696416068
 20
3.0725322132
 30
0.0
 10
8.7688907401
 20
3.0961580548
 30
0.0
 10
8.7679595258
 20
3.1277748459
 30
0.0
 10
8.7668659164
 20
3.1680040763
 30
0.0
 10
8.765771428
 20
3.2110065116
 30
0.0
 10
8.764676268
 20
3.2563785849
 30
0.0
 10
8.7635806618
 20
3.3036945742
 30
0.0
 10
8.762484759
 20
3.3525105665
 30
0.0
 10
8.7613886848
 20
3.4023686563
 30
0.0
 10
8.7606598119
 20
3.4359037485
 30
0.0
 10
8.7602936596
 20
3.452767301
 30
0.0
  0
SPLINE
  5
32E
100
AcDbEntity
  8
0
100
AcDbSpline
 62
7
  6
CONTINUOUS
 70
0
 71
3
 72
43
 73
39
 74
0
 42
0.0000001
 43
0.0000001
 44
0.0000000001
 40
0.0
 40
0.0
 40
0.0
 40
0.0
 40
0.0001472789
 40
0.0003028084
 40
0.0004744185
 40
0.0006679906
 40
0.001135615
 40
0.00172632
 40
0.0024496146
 40
0.003310577
 40
0.0043121518
 40
0.0054561616
 40
0.0067437878
 40
0.0081757453
 40
0.0114739467
 40
0.0153523254
 40
0.0198108878
 40
0.0248488079
 40
0.0304640171
 40
0.0366537777
 40
0.0434151723
 40
0.0586393768
 40
0.0761036189
 40
0.0957704886
 40
0.1175955946
 40
0.1415308738
 40
0.1675218394
 40
0.1955106523
 40
0.2254334748
 40
0.2908077662
 40
0.3630536162
 40
0.4415173486
 40
0.5254886029
 40
0.6142071966
 40
0.7068698131
 40
0.8026375052
 40
0.9006433176
 40
1.0
 40
1.0
 40
1.0
 40
1.0
 10
8.7993001435
 20
2.9792688359
 30
0.0
 10
8.7992774664
 20
2.9792682838
 30
0.0
 10
8.7992304976
 20
2.9792732521
 30
0.0
 10
8.7991613441
 20
2.9792986438
 30
0.0
 10
8.7990929239
 20
2.9793413587
 30
0.0
 10
8.7989963485
 20
2.9794264303
 30
0.0
 10
8.7988783391
 20
2.9795808061
 30
0.0
 10
8.7987451114
 20
2.979821168
 30
0.0
 10
8.7986115521
 20
2.9801288298
 30
0.0
 10
8.7984776772
 20
2.9805041175
 30
0.0
 10
8.7983434923
 20
2.9809474655
 30
0.0
 10
8.7982090814
 20
2.9814589696
 30
0.0
 10
8.7980744835
 20
2.9820386831
 30
0.0
 10
8.797885844
 20
2.9829462039
 30
0.0
 10
8.7976539173
 20
2.9842519031
 30
0.0
 10
8.7973860462
 20
2.9860239267
 30
0.0
 10
8.7971175734
 20
2.9880664481
 30
0.0
 10
8.7968486239
 20
2.9903784124
 30
0.0
 10
8.7965793484
 20
2.9929585769
 30
0.0
 10
8.7963097966
 20
2.9958054571
 30
0.0
 10
8.7959351589
 20
3.0001288391
 30
0.0
 10
8.7954728186
 20
3.0061874096
 30
0.0
 10
8.794936136
 20
3.0142333356
 30
0.0
 10
8.7943985984
 20
3.023297869
 30
0.0
 10
8.7938602973
 20
3.0333605791
 30
0.0
 10
8.7933215267
 20
3.0443985578
 30
0.0
 10
8.7927823513
 20
3.0563868793
 30
0.0
 10
8.7922428901
 20
3.0692982457
 30
0.0
 10
8.7915012338
 20
3.0882721765
 30
0.0
 10
8.7905833337
 20
3.1140607585
 30
0.0
 10
8.7895098465
 20
3.1473245504
 30
0.0
 10
8.788435137
 20
3.1834539588
 30
0.0
 10
8.7873594751
 20
3.2221214954
 30
0.0
 10
8.7862831741
 20
3.2629767106
 30
0.0
 10
8.7852064209
 20
3.3056493911
 30
0.0
 10
8.7841293695
 20
3.349752912
 30
0.0
 10
8.7830521375
 20
3.3948877418
 30
0.0
 10
8.7823366579
 20
3.4252769374
 30
0.0
 10
8.7819772819
 20
3.4405755554
 30
0.0
  0
SPLINE
  5
32F
100
AcDbEntity
  8
0
100
AcDbSpline
 62
7
  6
CONTINUOUS
 70
0
 71
3
 72
38
 73
34
 74
0
 42
0.0000001
 43
0.0000001
 44
0.0000000001
 40
0.0
 40
0.0
 40
0.0
 40
0.0
 40
0.0927347815
 40
0.1848575328
 40
0.2755378179
 40
0.3639583539
 40
0.4493220236
 40
0.530859386
 40
0.6078356279
 40
0.6795574491
 40
0.7453795525
 40
0.7758912748
 40
0.8047110362
 40
0.8317743705
 40
0.857021189
 40
0.8803953421
 40
0.9018458768
 40
0.9213259039
 40
0.9387946673
 40
0.9542160288
 40
0.9611499446
 40
0.9675617999
 40
0.9734490537
 40
0.9788102676
 40
0.9836446688
 40
0.9858643414
 40
0.9879524296
 40
0.9917350416
 40
0.9949970714
 40
0.996435401
 40
0.9977471067
 40
0.9989343113
 40
1.0
 40
1.0
 40
1.0
 40
1.0
 10
8.7311915439
 20
3.4772463881
 30
0.0
 10
8.7319431916
 20
3.4606422089
 30
0.0
 10
8.7334397999
 20
3.4275433565
 30
0.0
 10
8.7356854871
 20
3.37820882
 30
0.0
 10
8.737931077
 20
3.3296483449
 30
0.0
 10
8.7401763571
 20
3.2823006285
 30
0.0
 10
8.7424210641
 20
3.2365934958
 30
0.0
 10
8.7446648851
 20
3.1929400885
 30
0.0
 10
8.7469073332
 20
3.1517350666
 30
0.0
 10
8.7491479708
 20
3.1133510848
 30
0.0
 10
8.7510578262
 20
3.0832902757
 30
0.0
 10
8.7525983525
 20
3.0609114669
 30
0.0
 10
8.7537240585
 20
3.0454675404
 30
0.0
 10
8.754849372
 20
3.0309698837
 30
0.0
 10
8.7559741971
 20
3.0174513509
 30
0.0
 10
8.7570984131
 20
3.0049424933
 30
0.0
 10
8.7582217718
 20
2.9934716615
 30
0.0
 10
8.7593440061
 20
2.98306466
 30
0.0
 10
8.7604647494
 20
2.9737450573
 30
0.0
 10
8.7614278467
 20
2.9666720628
 30
0.0
 10
8.7622064151
 20
2.9615750407
 30
0.0
 10
8.7627691782
 20
2.9581739795
 30
0.0
 10
8.763331612
 20
2.9550588859
 30
0.0
 10
8.7638936501
 20
2.9522314507
 30
0.0
 10
8.7643742255
 20
2.950058478
 30
0.0
 10
8.7647611858
 20
2.9484661831
 30
0.0
 10
8.7651252279
 20
2.9470625085
 30
0.0
 10
8.7655756815
 20
2.9454884335
 30
0.0
 10
8.7660592782
 20
2.9440460674
 30
0.0
 10
8.7664512003
 20
2.9430420875
 30
0.0
 10
8.7667325834
 20
2.9423946978
 30
0.0
 10
8.7670138459
 20
2.9418207778
 30
0.0
 10
8.7672117969
 20
2.9414684555
 30
0.0
 10
8.7673114914
 20
2.9413055299
 30
0.0
  0
SPLINE
  5
330
100
AcDbEntity
  8
0
100
AcDbSpline
 62
7
  6
CONTINUOUS
 70
0
 71
3
 72
43
 73
39
 74
0
 42
0.0000001
 43
0.0000001
 44
0.0000000001
 40
0.0
 40
0.0
 40
0.0
 40
0.0
 40
0.0001476052
 40
0.0003034555
 40
0.0004753829
 40
0.0006692734
 40
0.0011375582
 40
0.0017289857
 40
0.002453087
 40
0.0033149525
 40
0.0043175332
 40
0.0054626545
 40
0.0067515012
 40
0.0081848023
 40
0.0114860614
 40
0.0153679776
 40
0.0198305344
 40
0.0248728997
 40
0.0304930236
 40
0.0366881383
 40
0.0434552933
 40
0.0586921929
 40
0.0761705621
 40
0.0958527605
 40
0.1176941895
 40
0.1416465082
 40
0.1676549676
 40
0.1956614072
 40
0.2256016819
 40
0.291008936
 40
0.3632826758
 40
0.4417660399
 40
0.5257453043
 40
0.6144568001
 40
0.7070936821
 40
0.8028134679
 40
0.9007457609
 40
1.0
 40
1.0
 40
1.0
 40
1.0
 10
8.8707301435
 20
2.980996984
 30
0.0
 10
8.870707416
 20
2.98099643
 30
0.0
 10
8.8706603469
 20
2.9810013982
 30
0.0
 10
8.8705910399
 20
2.981026805
 30
0.0
 10
8.8705224655
 20
2.9810695535
 30
0.0
 10
8.8704256794
 20
2.9811546905
 30
0.0
 10
8.8703074032
 20
2.9813091981
 30
0.0
 10
8.8701738719
 20
2.9815497819
 30
0.0
 10
8.87004001
 20
2.9818577252
 30
0.0
 10
8.8699058332
 20
2.9822333538
 30
0.0
 10
8.8697713463
 20
2.9826771012
 30
0.0
 10
8.8696366331
 20
2.9831890625
 30
0.0
 10
8.8695017319
 20
2.9837692926
 30
0.0
 10
8.8693126696
 20
2.9846776186
 30
0.0
 10
8.8690802228
 20
2.9859844802
 30
0.0
 10
8.8688117505
 20
2.9877580792
 30
0.0
 10
8.8685426746
 20
2.989802401
 30
0.0
 10
8.8682731203
 20
2.9921163869
 30
0.0
 10
8.8680032409
 20
2.9946987906
 30
0.0
 10
8.8677330844
 20
2.9975481194
 30
0.0
 10
8.8673576079
 20
3.0018751489
 30
0.0
 10
8.8668942325
 20
3.0079387288
 30
0.0
 10
8.8663563467
 20
3.015991154
 30
0.0
 10
8.8658176031
 20
3.0250627613
 30
0.0
 10
8.8652780954
 20
3.035133008
 30
0.0
 10
8.8647381164
 20
3.0461788696
 30
0.0
 10
8.8641977326
 20
3.0581752868
 30
0.0
 10
8.8636570617
 20
3.0710948235
 30
0.0
 10
8.8629137639
 20
3.0900793491
 30
0.0
 10
8.8619938335
 20
3.1158801597
 30
0.0
 10
8.8609179482
 20
3.1491565767
 30
0.0
 10
8.8598408388
 20
3.1852947961
 30
0.0
 10
8.858762776
 20
3.2239657798
 30
0.0
 10
8.8576840741
 20
3.2648174753
 30
0.0
 10
8.8566049205
 20
3.3074780402
 30
0.0
 10
8.8555254698
 20
3.3515592274
 30
0.0
 10
8.8544458404
 20
3.3966599162
 30
0.0
 10
8.8537286603
 20
3.4270222361
 30
0.0
 10
8.8533684245
 20
3.4423051889
 30
0.0
  0
SPLINE
  5
331
100
AcDbEntity
  8
0
100
AcDbSpline
 62
7
  6
CONTINUOUS
 70
0
 71
3
 72
38
 73
34
 74
0
 42
0.0000001
 43
0.0000001
 44
0.0000000001
 40
0.0
 40
0.0
 40
0.0
 40
0.0
 40
0.0005970704
 40
0.0013250249
 40
0.0021881017
 40
0.003188783
 40
0.0043286164
 40
0.005608591
 40
0.0085908074
 40
0.0121376352
 40
0.016249342
 40
0.0209252914
 40
0.0261636702
 40
0.0319617978
 40
0.038316783
 40
0.0526840817
 40
0.0692329504
 40
0.0879260367
 40
0.1087189932
 40
0.1315636067
 40
0.1564051703
 40
0.183185503
 40
0.2118403405
 40
0.2423022182
 40
0.3083516797
 40
0.3807053321
 40
0.4586741569
 40
0.5415155445
 40
0.6284404011
 40
0.7186207155
 40
0.8111976096
 40
0.9052893408
 40
1.0
 40
1.0
 40
1.0
 40
1.0
 10
8.8168506273
 20
2.9800627644
 30
0.0
 10
8.8167988907
 20
2.9801475155
 30
0.0
 10
8.8166982101
 20
2.9803441712
 30
0.0
 10
8.8165612285
 20
2.9806815358
 30
0.0
 10
8.8164238542
 20
2.9810903009
 30
0.0
 10
8.8162861879
 20
2.9815705814
 30
0.0
 10
8.8161482728
 20
2.9821225395
 30
0.0
 10
8.8159541429
 20
2.9829997718
 30
0.0
 10
8.8157160621
 20
2.9842767554
 30
0.0
 10
8.8154416635
 20
2.9860250816
 30
0.0
 10
8.8151665463
 20
2.9880579357
 30
0.0
 10
8.8148908526
 20
2.9903742315
 30
0.0
 10
8.8146147852
 20
2.9929726922
 30
0.0
 10
8.8143383975
 20
2.9958517537
 30
0.0
 10
8.8139536733
 20
3.0002454073
 30
0.0
 10
8.8134792655
 20
3.0064256988
 30
0.0
 10
8.8129290427
 20
3.0146575852
 30
0.0
 10
8.8123778751
 20
3.0239601184
 30
0.0
 10
8.8118258703
 20
3.0343112321
 30
0.0
 10
8.8112733544
 20
3.0456861423
 30
0.0
 10
8.8107203938
 20
3.0580578211
 30
0.0
 10
8.8101671509
 20
3.0713966345
 30
0.0
 10
8.809613626
 20
3.0856708588
 30
0.0
 10
8.8088547482
 20
3.1064725478
 30
0.0
 10
8.8079146623
 20
3.1345396265
 30
0.0
 10
8.8068131169
 20
3.1705060998
 30
0.0
 10
8.805710486
 20
3.2092662966
 30
0.0
 10
8.8046070232
 20
3.2504506184
 30
0.0
 10
8.8035030063
 20
3.2936664227
 30
0.0
 10
8.8023986105
 20
3.338501767
 30
0.0
 10
8.8012939827
 20
3.3845293282
 30
0.0
 10
8.8001892397
 20
3.4313105088
 30
0.0
 10
8.7994528107
 20
3.4627002776
 30
0.0
 10
8.7990828478
 20
3.4784466
 30
0.0
  0
SPLINE
  5
332
100
AcDbEntity
  8
0
100
AcDbSpline
 62
7
  6
CONTINUOUS
 70
0
 71
3
 72
75
 73
71
 74
0
 42
0.0000001
 43
0.0000001
 44
0.0000000001
 40
0.0
 40
0.0
 40
0.0
 40
0.0
 40
0.0003050058
 40
0.0006764339
 40
0.0011164324
 40
0.0016262631
 40
0.0022067146
 40
0.0028582931
 40
0.0043757839
 40
0.0061798776
 40
0.0082707273
 40
0.0106480289
 40
0.0133108996
 40
0.0162579975
 40
0.0194878699
 40
0.0267893388
 40
0.035199009
 40
0.0446981639
 40
0.0552646138
 40
0.0668741922
 40
0.0794995059
 40
0.0931113947
 40
0.107677658
 40
0.1231644876
 40
0.156751746
 40
0.1935580146
 40
0.2332377014
 40
0.2754181575
 40
0.3197032211
 40
0.3656769402
 40
0.4129075767
 40
0.4609515722
 40
0.5093578458
 40
0.5576719328
 40
0.6054403422
 40
0.6522147849
 40
0.697556374
 40
0.7410398227
 40
0.7822573358
 40
0.8208225798
 40
0.8563742149
 40
0.8729146865
 40
0.8885794338
 40
0.9033316547
 40
0.9171370772
 40
0.9299632822
 40
0.9417806447
 40
0.9525614789
 40
0.9622811496
 40
0.9709170649
 40
0.9784500127
 40
0.9817974662
 40
0.9848631308
 40
0.9876455834
 40
0.9901434879
 40
0.9923556769
 40
0.9942815828
 40
0.9959211945
 40
0.9966338322
 40
0.9972752198
 40
0.9978456518
 40
0.9983456446
 40
0.9987760388
 40
0.9991381854
 40
0.9994344
 40
0.9996689961
 40
0.9997658682
 40
0.9998513424
 40
0.999928145
 40
1.0
 40
1.0
 40
1.0
 40
1.0
 10
8.8168506273
 20
3.4800627644
 30
0.0
 10
8.8167992923
 20
3.4801468575
 30
0.0
 10
8.8166993567
 20
3.480341801
 30
0.0
 10
8.8165633155
 20
3.4806760317
 30
0.0
 10
8.8164268908
 20
3.481080667
 30
0.0
 10
8.8162901807
 20
3.4815558199
 30
0.0
 10
8.8161532265
 20
3.4821016495
 30
0.0
 10
8.8159604803
 20
3.4829687239
 30
0.0
 10
8.8157240739
 20
3.4842305117
 30
0.0
 10
8.8154515873
 20
3.4859576255
 30
0.0
 10
8.8151783909
 20
3.487965323
 30
0.0
 10
8.8149046241
 20
3.4902525504
 30
0.0
 10
8.8146304894
 20
3.4928180692
 30
0.0
 10
8.814356038
 20
3.4956603567
 30
0.0
 10
8.8139740202
 20
3.4999974443
 30
0.0
 10
8.813502937
 20
3.5060978221
 30
0.0
 10
8.8129565649
 20
3.51422305
 30
0.0
 10
8.8124092542
 20
3.5234049784
 30
0.0
 10
8.8118611161
 20
3.5336221272
 30
0.0
 10
8.8113124695
 20
3.5448503809
 30
0.0
 10
8.8107633831
 20
3.5570634296
 30
0.0
 10
8.810214016
 20
3.5702324308
 30
0.0
 10
8.8096643694
 20
3.5843265018
 30
0.0
 10
8.8089107483
 20
3.6048699612
 30
0.0
 10
8.8079771616
 20
3.6325955934
 30
0.0
 10
8.8068833053
 20
3.6681349172
 30
0.0
 10
8.8057883695
 20
3.7064512166
 30
0.0
 10
8.8046926048
 20
3.7471842297
 30
0.0
 10
8.8035962862
 20
3.7899510376
 30
0.0
 10
8.8024995867
 20
3.8343496699
 30
0.0
 10
8.8014026506
 20
3.8799628741
 30
0.0
 10
8.8003055938
 20
3.9263620671
 30
0.0
 10
8.7992085192
 20
3.973111335
 30
0.0
 10
8.7981115232
 20
4.0197715599
 30
0.0
 10
8.7970147042
 20
4.0659045244
 30
0.0
 10
8.7959181686
 20
4.111077037
 30
0.0
 10
8.794822043
 20
4.1548650037
 30
0.0
 10
8.793726476
 20
4.1968573897
 30
0.0
 10
8.7926316928
 20
4.2366601079
 30
0.0
 10
8.7915378973
 20
4.2738996723
 30
0.0
 10
8.7906066564
 20
4.3031692682
 30
0.0
 10
8.7898558308
 20
4.3250433827
 30
0.0
 10
8.7893065191
 20
4.3402017515
 30
0.0
 10
8.7887574185
 20
4.3544760333
 30
0.0
 10
8.7882085856
 20
4.3678326928
 30
0.0
 10
8.7876600592
 20
4.3802404851
 30
0.0
 10
8.7871119685
 20
4.3916702613
 30
0.0
 10
8.7865643886
 20
4.4020953302
 30
0.0
 10
8.786017601
 20
4.4114912184
 30
0.0
 10
8.7854717156
 20
4.41983604
 30
0.0
 10
8.7850015187
 20
4.42612284
 30
0.0
 10
8.7846205798
 20
4.4306116336
 30
0.0
 10
8.7843464343
 20
4.4335693671
 30
0.0
 10
8.7840725725
 20
4.4362514221
 30
0.0
 10
8.7837990545
 20
4.4386562413
 30
0.0
 10
8.7835260258
 20
4.4407824625
 30
0.0
 10
8.7832535957
 20
4.4426289205
 30
0.0
 10
8.7830177811
 20
4.4439908468
 30
0.0
 10
8.7828260263
 20
4.4449387199
 30
0.0
 10
8.7826891566
 20
4.445545174
 30
0.0
 10
8.7825524771
 20
4.4460810581
 30
0.0
 10
8.7824160244
 20
4.4465464015
 30
0.0
 10
8.7822798869
 20
4.4469412868
 30
0.0
 10
8.7821440943
 20
4.4472661379
 30
0.0
 10
8.7820086717
 20
4.4475212568
 30
0.0
 10
8.7818888755
 20
4.4476865972
 30
0.0
 10
8.7817907167
 20
4.4477794149
 30
0.0
 10
8.7817212879
 20
4.4478269699
 30
0.0
 10
8.781651118
 20
4.4478567254
 30
0.0
 10
8.7816030818
 20
4.4478643345
 30
0.0
 10
8.7815798778
 20
4.4478648979
 30
0.0
  0
SPLINE
  5
333
100
AcDbEntity
  8
0
100
AcDbSpline
 62
7
  6
CONTINUOUS
 70
0
 71
3
 72
43
 73
39
 74
0
 42
0.0000001
 43
0.0000001
 44
0.0000000001
 40
0.0
 40
0.0
 40
0.0
 40
0.0
 40
0.0001496169
 40
0.0003074555
 40
0.0004813511
 40
0.0006772135
 40
0.0011495743
 40
0.0017454476
 40
0.0024745127
 40
0.0033419501
 40
0.0043507666
 40
0.0055028233
 40
0.0067993271
 40
0.0082410103
 40
0.0115612281
 40
0.0154650517
 40
0.0199524641
 40
0.0250225753
 40
0.0306732007
 40
0.036901514
 40
0.0437045061
 40
0.0590203822
 40
0.0765865204
 40
0.0963640629
 40
0.1183069009
 40
0.1423651504
 40
0.1684822739
 40
0.1965982806
 40
0.2266469537
 40
0.2922588897
 40
0.3647057481
 40
0.443310814
 40
0.5273395226
 40
0.6160066261
 40
0.7084833483
 40
0.8039055014
 40
0.9013813119
 40
1.0
 40
1.0
 40
1.0
 40
1.0
 10
9.2993101435
 20
2.991365856
 30
0.0
 10
9.2992871054
 20
2.9913652942
 30
0.0
 10
9.2992394182
 20
2.9913702746
 30
0.0
 10
9.2991691706
 20
2.9913957935
 30
0.0
 10
9.2990996498
 20
2.9914387583
 30
0.0
 10
9.2990015702
 20
2.9915243049
 30
0.0
 10
9.2988816547
 20
2.9916796216
 30
0.0
 10
9.298746255
 20
2.9919215649
 30
0.0
 10
9.298610533
 20
2.9922312338
 30
0.0
 10
9.2984745002
 20
2.9926089601
 30
0.0
 10
9.2983381565
 20
2.9930551798
 30
0.0
 10
9.2982015857
 20
2.9935699895
 30
0.0
 10
9.298064826
 20
2.9941534421
 30
0.0
 10
9.2978731663
 20
2.9950667666
 30
0.0
 10
9.2976375208
 20
2.9963808148
 30
0.0
 10
9.2973653496
 20
2.9981641563
 30
0.0
 10
9.297092569
 20
3.000219639
 30
0.0
 10
9.2968193059
 20
3.0025461612
 30
0.0
 10
9.2965457105
 20
3.005142429
 30
0.0
 10
9.296271835
 20
3.0080069049
 30
0.0
 10
9.295891208
 20
3.012356522
 30
0.0
 10
9.2954214737
 20
3.0184511234
 30
0.0
 10
9.2948761902
 20
3.0265437942
 30
0.0
 10
9.29433004
 20
3.0356591788
 30
0.0
 10
9.2937831138
 20
3.0457760664
 30
0.0
 10
9.2932357128
 20
3.0568706801
 30
0.0
 10
9.2926879002
 20
3.0689171593
 30
0.0
 10
9.2921397989
 20
3.0818871872
 30
0.0
 10
9.2913864149
 20
3.1009371255
 30
0.0
 10
9.2904540144
 20
3.1268133225
 30
0.0
 10
9.2893633946
 20
3.1601673944
 30
0.0
 10
9.2882715398
 20
3.1963594773
 30
0.0
 10
9.2871787263
 20
3.2350509219
 30
0.0
 10
9.2860852733
 20
3.2758797454
 30
0.0
 10
9.2849913725
 20
3.318464042
 30
0.0
 10
9.2838971825
 20
3.3624055315
 30
0.0
 10
9.2828028253
 20
3.4072933244
 30
0.0
 10
9.2820751788
 20
3.4374882001
 30
0.0
 10
9.2817096484
 20
3.4526736387
 30
0.0
  0
SPLINE
  5
334
100
AcDbEntity
  8
0
100
AcDbSpline
 62
7
  6
CONTINUOUS
 70
0
 71
3
 72
75
 73
71
 74
0
 42
0.0000001
 43
0.0000001
 44
0.0000000001
 40
0.0
 40
0.0
 40
0.0
 40
0.0
 40
0.0003059675
 40
0.000678341
 40
0.0011192653
 40
0.0016300014
 40
0.0022113376
 40
0.0028637836
 40
0.0043829754
 40
0.0061887218
 40
0.0082811694
 40
0.0106600112
 40
0.0133243876
 40
0.0162729523
 40
0.0195042421
 40
0.0268084087
 40
0.0352206203
 40
0.0447221336
 40
0.0552907837
 40
0.0669023812
 40
0.0795295517
 40
0.0931431163
 40
0.10771089
 40
0.1231990531
 40
0.156788472
 40
0.1935962268
 40
0.2332767486
 40
0.2754574116
 40
0.3197420937
 40
0.3657148822
 40
0.4129440882
 40
0.4609862105
 40
0.5093902231
 40
0.5577017315
 40
0.6054673046
 40
0.6522387297
 40
0.6975771861
 40
0.7410574586
 40
0.7822718244
 40
0.8208340143
 40
0.8563827607
 40
0.8729218843
 40
0.8885853134
 40
0.9033363235
 40
0.9171405791
 40
0.9299657388
 40
0.9417821108
 40
0.952562091
 40
0.9622809784
 40
0.9709162613
 40
0.9784486633
 40
0.9817959248
 40
0.9848614032
 40
0.987643696
 40
0.9901414978
 40
0.9923536496
 40
0.9942795346
 40
0.995919171
 40
0.9966318508
 40
0.9972733074
 40
0.9978438388
 40
0.9983439478
 40
0.9987744795
 40
0.999136797
 40
0.9994332322
 40
0.9996681212
 40
0.9997651756
 40
0.999850859
 40
0.9999278957
 40
1.0
 40
1.0
 40
1.0
 40
1.0
 10
8.8882790359
 20
3.4817921885
 30
0.0
 10
8.8882277228
 20
3.4818762462
 30
0.0
 10
8.8881278114
 20
3.4820710125
 30
0.0
 10
8.8879917652
 20
3.4824048376
 30
0.0
 10
8.8878553391
 20
3.4828088092
 30
0.0
 10
8.8877186297
 20
3.4832830385
 30
0.0
 10
8.8875816774
 20
3.4838276826
 30
0.0
 10
8.8873889498
 20
3.4846926566
 30
0.0
 10
8.8871525566
 20
3.485951175
 30
0.0
 10
8.8868800751
 20
3.4876735946
 30
0.0
 10
8.8866068856
 20
3.4896755612
 30
0.0
 10
8.8863331257
 20
3.491956026
 30
0.0
 10
8.886059001
 20
3.4945137584
 30
0.0
 10
8.88578456
 20
3.4973472414
 30
0.0
 10
8.8854025658
 20
3.5016705564
 30
0.0
 10
8.8849315047
 20
3.5077512126
 30
0.0
 10
8.8843851531
 20
3.515849802
 30
0.0
 10
8.8838378617
 20
3.5250011782
 30
0.0
 10
8.883289746
 20
3.5351839273
 30
0.0
 10
8.8827411205
 20
3.5463740243
 30
0.0
 10
8.8821920573
 20
3.5585452445
 30
0.0
 10
8.8816427125
 20
3.571668852
 30
0.0
 10
8.8810930894
 20
3.5857140686
 30
0.0
 10
8.8803395055
 20
3.6061858207
 30
0.0
 10
8.8794059628
 20
3.6338141255
 30
0.0
 10
8.8783121518
 20
3.669228103
 30
0.0
 10
8.8772172623
 20
3.7074085376
 30
0.0
 10
8.8761215446
 20
3.7479964769
 30
0.0
 10
8.8750252734
 20
3.7906103984
 30
0.0
 10
8.8739286218
 20
3.8348498046
 30
0.0
 10
8.872831734
 20
3.8802989759
 30
0.0
 10
8.8717347257
 20
3.9265309076
 30
0.0
 10
8.8706377
 20
3.9731112976
 30
0.0
 10
8.8695407532
 20
4.0196026516
 30
0.0
 10
8.8684439836
 20
4.0655683801
 30
0.0
 10
8.8673474977
 20
4.1105768996
 30
0.0
 10
8.8662514219
 20
4.1542056957
 30
0.0
 10
8.865155905
 20
4.1960452652
 30
0.0
 10
8.864061172
 20
4.2357029911
 30
0.0
 10
8.8629674272
 20
4.2728067844
 30
0.0
 10
8.8620362278
 20
4.3019696043
 30
0.0
 10
8.8612854387
 20
4.3237638743
 30
0.0
 10
8.8607361508
 20
4.3388668961
 30
0.0
 10
8.8601870781
 20
4.3530890361
 30
0.0
 10
8.8596382683
 20
4.3663969071
 30
0.0
 10
8.8590897704
 20
4.3787593579
 30
0.0
 10
8.8585417024
 20
4.3901473719
 30
0.0
 10
8.8579941515
 20
4.4005343354
 30
0.0
 10
8.8574473857
 20
4.4098958906
 30
0.0
 10
8.8569015304
 20
4.4182102116
 30
0.0
 10
8.8564313503
 20
4.4244740383
 30
0.0
 10
8.8560504347
 20
4.4289464212
 30
0.0
 10
8.8557763011
 20
4.4318933493
 30
0.0
 10
8.8555024508
 20
4.4345656013
 30
0.0
 10
8.8552289441
 20
4.4369616426
 30
0.0
 10
8.8549559319
 20
4.439080111
 30
0.0
 10
8.8546835121
 20
4.4409198358
 30
0.0
 10
8.854447707
 20
4.4422767803
 30
0.0
 10
8.8542559631
 20
4.4432211837
 30
0.0
 10
8.8541190984
 20
4.4438254369
 30
0.0
 10
8.8539824265
 20
4.4443593837
 30
0.0
 10
8.8538459784
 20
4.4448230462
 30
0.0
 10
8.8537098435
 20
4.4452165033
 30
0.0
 10
8.8535740497
 20
4.4455401799
 30
0.0
 10
8.8534386204
 20
4.4457943825
 30
0.0
 10
8.8533188245
 20
4.4459591053
 30
0.0
 10
8.8532206871
 20
4.4460515658
 30
0.0
 10
8.8531512599
 20
4.4460989484
 30
0.0
 10
8.8530810987
 20
4.4461285953
 30
0.0
 10
8.8530330792
 20
4.4461361804
 30
0.0
 10
8.8530098778
 20
4.4461367459
 30
0.0
  0
SPLINE
  5
335
100
AcDbEntity
  8
0
100
AcDbSpline
 62
7
  6
CONTINUOUS
 70
0
 71
3
 72
39
 73
35
 74
0
 42
0.0000001
 43
0.0000001
 44
0.0000000001
 40
0.0
 40
0.0
 40
0.0
 40
0.0
 40
0.0838213127
 40
0.1695212629
 40
0.2560192645
 40
0.3422190052
 40
0.427029524
 40
0.5093769829
 40
0.5882185848
 40
0.6625560136
 40
0.7314482782
 40
0.7635773771
 40
0.7940244759
 40
0.8226937834
 40
0.8494949077
 40
0.8743436094
 40
0.8971625333
 40
0.9178806292
 40
0.9364346171
 40
0.9448824942
 40
0.952769263
 40
0.9600891225
 40
0.966837411
 40
0.9730099433
 40
0.9786030481
 40
0.9836145294
 40
0.9880433679
 40
0.991889934
 40
0.9935959254
 40
0.9951580169
 40
0.996577386
 40
0.9978557064
 40
0.9989953889
 40
1.0
 40
1.0
 40
1.0
 40
1.0
 10
8.7245010949
 20
4.1225872703
 30
0.0
 10
8.7254061042
 20
4.1035199573
 30
0.0
 10
8.727203684
 20
4.0649564331
 30
0.0
 10
8.7298600193
 20
4.0067132452
 30
0.0
 10
8.7325169673
 20
3.947927886
 30
0.0
 10
8.7351741322
 20
3.8893452948
 30
0.0
 10
8.7378310608
 20
3.8317088821
 30
0.0
 10
8.7404872778
 20
3.7757499354
 30
0.0
 10
8.7431421173
 20
3.7221787483
 30
0.0
 10
8.7457949554
 20
3.6716755904
 30
0.0
 10
8.7480521043
 20
3.631804474
 30
0.0
 10
8.7498736634
 20
3.6019203433
 30
0.0
 10
8.7512075568
 20
3.5811836511
 30
0.0
 10
8.7525409523
 20
3.5616629237
 30
0.0
 10
8.7538737567
 20
3.5434202431
 30
0.0
 10
8.7552057968
 20
3.5265136256
 30
0.0
 10
8.7565367161
 20
3.5109968365
 30
0.0
 10
8.7578663062
 20
3.4969191936
 30
0.0
 10
8.7590052593
 20
3.4861113625
 30
0.0
 10
8.7599244632
 20
3.4782193885
 30
0.0
 10
8.7605918867
 20
3.4728739394
 30
0.0
 10
8.7612590367
 20
3.4679187263
 30
0.0
 10
8.7619258312
 20
3.4633576462
 30
0.0
 10
8.7625921425
 20
3.4591942619
 30
0.0
 10
8.7632579032
 20
3.4554318242
 30
0.0
 10
8.7639228309
 20
3.452073111
 30
0.0
 10
8.7645867199
 20
3.4491206159
 30
0.0
 10
8.7651592362
 20
3.4469201035
 30
0.0
 10
8.7656228602
 20
3.4453674501
 30
0.0
 10
8.7659563595
 20
3.4443532303
 30
0.0
 10
8.7662896561
 20
3.4434419769
 30
0.0
 10
8.7666227699
 20
3.4426337335
 30
0.0
 10
8.7669556662
 20
3.4419285716
 30
0.0
 10
8.7671920807
 20
3.4415006766
 30
0.0
 10
8.7673114914
 20
3.4413055299
 30
0.0
  0
SPLINE
  5
336
100
AcDbEntity
  8
0
100
AcDbSpline
 62
7
  6
CONTINUOUS
 70
0
 71
3
 72
75
 73
71
 74
0
 42
0.0000001
 43
0.0000001
 44
0.0000000001
 40
0.0
 40
0.0
 40
0.0
 40
0.0
 40
0.0000661883
 40
0.0001368835
 40
0.000216186
 40
0.000307035
 40
0.0005303033
 40
0.0008161432
 40
0.0011687007
 40
0.0015901363
 40
0.0020816846
 40
0.0026441019
 40
0.0032778446
 40
0.0039831635
 40
0.0056089975
 40
0.0075221201
 40
0.0097224028
 40
0.0122091562
 40
0.0149811599
 40
0.0180370573
 40
0.0213754006
 40
0.0288917898
 40
0.0375133976
 40
0.0472206612
 40
0.0579910519
 40
0.0697995569
 40
0.0826186227
 40
0.0964182052
 40
0.1111660754
 40
0.1268275103
 40
0.1433659201
 40
0.1789160421
 40
0.2174827142
 40
0.2587037596
 40
0.3021920697
 40
0.3475391958
 40
0.3943193003
 40
0.442093081
 40
0.4904119844
 40
0.5388223925
 40
0.5868698712
 40
0.6341035193
 40
0.6800800872
 40
0.7243682826
 40
0.7665527072
 40
0.806237842
 40
0.8430517596
 40
0.8766495992
 40
0.8921429785
 40
0.9067169525
 40
0.9203375131
 40
0.932972777
 40
0.9445934518
 40
0.955172351
 40
0.9646852315
 40
0.9731099727
 40
0.9804277893
 40
0.9836663113
 40
0.9866222511
 40
0.9892942054
 40
0.9916808543
 40
0.9937811165
 40
0.9955945493
 40
0.9971211817
 40
0.9977771738
 40
0.9983618492
 40
0.9988755888
 40
0.9993190416
 40
0.9996932516
 40
1.0
 40
1.0
 40
1.0
 40
1.0
 10
8.7779213605
 20
3.4400802891
 30
0.0
 10
8.7778982414
 20
3.4400797298
 30
0.0
 10
8.7778500276
 20
3.4400855184
 30
0.0
 10
8.7777794624
 20
3.4401143956
 30
0.0
 10
8.7777098485
 20
3.4401625818
 30
0.0
 10
8.7776110654
 20
3.4402588347
 30
0.0
 10
8.7774910595
 20
3.4404325933
 30
0.0
 10
8.7773557164
 20
3.4407019203
 30
0.0
 10
8.7772198843
 20
3.4410468526
 30
0.0
 10
8.7770836276
 20
3.4414676839
 30
0.0
 10
8.7769470161
 20
3.4419648922
 30
0.0
 10
8.7768101583
 20
3.4425385513
 30
0.0
 10
8.7766731026
 20
3.44318869
 30
0.0
 10
8.7764809527
 20
3.444206692
 30
0.0
 10
8.776244768
 20
3.445670931
 30
0.0
 10
8.7759720079
 20
3.4476576635
 30
0.0
 10
8.7756986371
 20
3.4499475582
 30
0.0
 10
8.7754247578
 20
3.4525393327
 30
0.0
 10
8.7751505307
 20
3.455431499
 30
0.0
 10
8.77487602
 20
3.4586223791
 30
0.0
 10
8.7744945145
 20
3.4634677113
 30
0.0
 10
8.7740236765
 20
3.4702564655
 30
0.0
 10
8.7734771558
 20
3.4792701723
 30
0.0
 10
8.7729297283
 20
3.4894226013
 30
0.0
 10
8.7723815495
 20
3.5006899129
 30
0.0
 10
8.7718328632
 20
3.5130456109
 30
0.0
 10
8.7712837875
 20
3.5264606277
 30
0.0
 10
8.7707344107
 20
3.5409034238
 30
0.0
 10
8.770184814
 20
3.5563399875
 30
0.0
 10
8.7696350143
 20
3.5727340431
 30
0.0
 10
8.768883559
 20
3.5963935722
 30
0.0
 10
8.7679516152
 20
3.6280543097
 30
0.0
 10
8.7668571386
 20
3.6683378468
 30
0.0
 10
8.7657617825
 20
3.7113958701
 30
0.0
 10
8.7646657548
 20
3.7568236479
 30
0.0
 10
8.7635692811
 20
3.804194257
 30
0.0
 10
8.7624725109
 20
3.8530625641
 30
0.0
 10
8.7613755711
 20
3.9029694438
 30
0.0
 10
8.7602785686
 20
3.953446076
 30
0.0
 10
8.7591816017
 20
4.0040183599
 30
0.0
 10
8.7580847667
 20
4.0542113753
 30
0.0
 10
8.7569881664
 20
4.1035538211
 30
0.0
 10
8.7558919164
 20
4.1515824718
 30
0.0
 10
8.7547961604
 20
4.1978464912
 30
0.0
 10
8.7537010705
 20
4.2419116942
 30
0.0
 10
8.752606921
 20
4.2833646049
 30
0.0
 10
8.7515139581
 20
4.3218163272
 30
0.0
 10
8.7505812628
 20
4.3518166505
 30
0.0
 10
8.7498284285
 20
4.3740481739
 30
0.0
 10
8.7492793764
 20
4.3893026161
 30
0.0
 10
8.748730615
 20
4.4035577724
 30
0.0
 10
8.7481821764
 20
4.4167802579
 30
0.0
 10
8.7476341904
 20
4.4289390399
 30
0.0
 10
8.7470867481
 20
4.4400056996
 30
0.0
 10
8.7465401475
 20
4.44995427
 30
0.0
 10
8.7459945151
 20
4.4587615686
 30
0.0
 10
8.7455241302
 20
4.4653768993
 30
0.0
 10
8.7451427339
 20
4.4700826184
 30
0.0
 10
8.7448686834
 20
4.4731683843
 30
0.0
 10
8.7445949541
 20
4.4759552596
 30
0.0
 10
8.7443216148
 20
4.4784416125
 30
0.0
 10
8.74404885
 20
4.4806260648
 30
0.0
 10
8.743776791
 20
4.4825074411
 30
0.0
 10
8.7435408009
 20
4.4838838469
 30
0.0
 10
8.7433484165
 20
4.484831468
 30
0.0
 10
8.7432116886
 20
4.4854290864
 30
0.0
 10
8.7430752038
 20
4.4859503357
 30
0.0
 10
8.7429390302
 20
4.4863953488
 30
0.0
 10
8.7428032803
 20
4.486764224
 30
0.0
 10
8.742703521
 20
4.4869807833
 30
0.0
 10
8.74265217
 20
4.4870748567
 30
0.0
  0
SPLINE
  5
337
100
AcDbEntity
  8
0
100
AcDbSpline
 62
7
  6
CONTINUOUS
 70
0
 71
3
 72
74
 73
70
 74
0
 42
0.0000001
 43
0.0000001
 44
0.0000000001
 40
0.0
 40
0.0
 40
0.0
 40
0.0
 40
0.0003069257
 40
0.0006802398
 40
0.0011220888
 40
0.0016337377
 40
0.0022159798
 40
0.002869317
 40
0.0043902186
 40
0.0061976062
 40
0.0082916591
 40
0.0106720851
 40
0.0133379719
 40
0.0162879905
 40
0.019520706
 40
0.0268276122
 40
0.0352423624
 40
0.0447462713
 40
0.0553171206
 40
0.0669307655
 40
0.0795597926
 40
0.0931750567
 40
0.1077443445
 40
0.1232338568
 40
0.1568254479
 40
0.1936347005
 40
0.2333160595
 40
0.2754969333
 40
0.3197812291
 40
0.3657530804
 40
0.4129808475
 40
0.4610210813
 40
0.5094228212
 40
0.5577317306
 40
0.6054944528
 40
0.6522628386
 40
0.697598142
 40
0.7410752188
 40
0.782286415
 40
0.8208455336
 40
0.8563913701
 40
0.8885912267
 40
0.9033409907
 40
0.9171440976
 40
0.9299681767
 40
0.9417835801
 40
0.9525626743
 40
0.9622808
 40
0.9709154195
 40
0.978447298
 40
0.9817943348
 40
0.9848596341
 40
0.9876417897
 40
0.9901394885
 40
0.9923515715
 40
0.994277446
 40
0.9959171308
 40
0.9966298572
 40
0.9972713764
 40
0.9978419883
 40
0.9983422049
 40
0.998772878
 40
0.9991353774
 40
0.9994320466
 40
0.9996672395
 40
0.9997644798
 40
0.9998503743
 40
0.9999276456
 40
1.0
 40
1.0
 40
1.0
 40
1.0
 10
8.9597074331
 20
3.4835216348
 30
0.0
 10
8.9596561421
 20
3.4836056533
 30
0.0
 10
8.9595562544
 20
3.4838002344
 30
0.0
 10
8.9594202028
 20
3.4841336432
 30
0.0
 10
8.9592837748
 20
3.4845369448
 30
0.0
 10
8.9591470659
 20
3.4850102529
 30
0.0
 10
8.9590101173
 20
3.4855537229
 30
0.0
 10
8.9588174121
 20
3.4864166067
 30
0.0
 10
8.9585810292
 20
3.4876718517
 30
0.0
 10
8.9583085505
 20
3.4893895663
 30
0.0
 10
8.958035367
 20
3.4913858035
 30
0.0
 10
8.9577616195
 20
3.4936595134
 30
0.0
 10
8.9574875024
 20
3.4962094597
 30
0.0
 10
8.9572130703
 20
3.4990341278
 30
0.0
 10
8.9568311004
 20
3.503343669
 30
0.0
 10
8.9563600645
 20
3.5094046035
 30
0.0
 10
8.9558137293
 20
3.5174765605
 30
0.0
 10
8.9552664609
 20
3.5265973788
 30
0.0
 10
8.9547183647
 20
3.5367457332
 30
0.0
 10
8.9541697631
 20
3.5478976682
 30
0.0
 10
8.9536207212
 20
3.5600270633
 30
0.0
 10
8.9530714003
 20
3.573105274
 30
0.0
 10
8.9525217997
 20
3.5871016393
 30
0.0
 10
8.9517682543
 20
3.6075016822
 30
0.0
 10
8.9508347553
 20
3.6350326603
 30
0.0
 10
8.9497409902
 20
3.6703212889
 30
0.0
 10
8.9486461472
 20
3.7083658581
 30
0.0
 10
8.9475504767
 20
3.7488087222
 30
0.0
 10
8.9464542533
 20
3.7912697572
 30
0.0
 10
8.94535765
 20
3.8353499368
 30
0.0
 10
8.9442608108
 20
3.8806350747
 30
0.0
 10
8.9431638514
 20
3.9266997464
 30
0.0
 10
8.942066875
 20
3.9731112584
 30
0.0
 10
8.9409699777
 20
4.019433744
 30
0.0
 10
8.9398732578
 20
4.0652322373
 30
0.0
 10
8.9387768223
 20
4.1100767659
 30
0.0
 10
8.9376807951
 20
4.1535463925
 30
0.0
 10
8.9365853345
 20
4.1952331475
 30
0.0
 10
8.935490632
 20
4.2347458816
 30
0.0
 10
8.9343970055
 20
4.2717139113
 30
0.0
 10
8.9333047324
 20
4.3057905076
 30
0.0
 10
8.9323710634
 20
4.3322320304
 30
0.0
 10
8.9316167464
 20
4.3517020446
 30
0.0
 10
8.9310679477
 20
4.3649611174
 30
0.0
 10
8.9305194782
 20
4.3772782354
 30
0.0
 10
8.9299714367
 20
4.388624479
 30
0.0
 10
8.9294239102
 20
4.3989733463
 30
0.0
 10
8.9288771719
 20
4.4083005604
 30
0.0
 10
8.9283313403
 20
4.4165843885
 30
0.0
 10
8.927861185
 20
4.422825232
 30
0.0
 10
8.9274802865
 20
4.4272812041
 30
0.0
 10
8.9272061662
 20
4.4302173269
 30
0.0
 10
8.9269323291
 20
4.4328797863
 30
0.0
 10
8.9266588356
 20
4.4352670473
 30
0.0
 10
8.9263858342
 20
4.437377755
 30
0.0
 10
8.9261134265
 20
4.4392107471
 30
0.0
 10
8.9258776334
 20
4.4405627224
 30
0.0
 10
8.9256859006
 20
4.4415036624
 30
0.0
 10
8.9255490419
 20
4.4421057073
 30
0.0
 10
8.9254123745
 20
4.4426377035
 30
0.0
 10
8.9252759304
 20
4.4430996758
 30
0.0
 10
8.9251397984
 20
4.4434917054
 30
0.0
 10
8.925004004
 20
4.4438142154
 30
0.0
 10
8.9248685688
 20
4.4440675125
 30
0.0
 10
8.9247487743
 20
4.4442316267
 30
0.0
 10
8.924650658
 20
4.4443237347
 30
0.0
 10
8.9245812325
 20
4.4443709453
 30
0.0
 10
8.9245110795
 20
4.4444004816
 30
0.0
 10
8.9244630764
 20
4.4444080383
 30
0.0
 10
8.9244398778
 20
4.4444086032
 30
0.0
  0
SPLINE
  5
338
100
AcDbEntity
  8
0
100
AcDbSpline
 62
7
  6
CONTINUOUS
 70
0
 71
3
 72
63
 73
59
 74
0
 42
0.0000001
 43
0.0000001
 44
0.0000000001
 40
0.0
 40
0.0
 40
0.0
 40
0.0
 40
0.0000659499
 40
0.0001455932
 40
0.0003494037
 40
0.0006157372
 40
0.0009463021
 40
0.0013419562
 40
0.0018031776
 40
0.0029233106
 40
0.0043079337
 40
0.0059570992
 40
0.0078703974
 40
0.0100472512
 40
0.0124869535
 40
0.0151883919
 40
0.0181502215
 40
0.0213710704
 40
0.0285838762
 40
0.0368123824
 40
0.0460404498
 40
0.0562492019
 40
0.0674180508
 40
0.0795239404
 40
0.0925420646
 40
0.1064453868
 40
0.1212050804
 40
0.1367903376
 40
0.170305379
 40
0.2067089761
 40
0.2456936023
 40
0.2869283395
 40
0.3300614834
 40
0.3747234868
 40
0.4205300617
 40
0.4670853359
 40
0.5139853242
 40
0.5608213089
 40
0.607183437
 40
0.6526643134
 40
0.696862553
 40
0.7393864559
 40
0.7798574552
 40
0.8179136347
 40
0.8532130689
 40
0.8854369947
 40
0.9142929252
 40
0.9395174287
 40
0.9506942842
 40
0.96087889
 40
0.9700479784
 40
0.9781799552
 40
0.9852562513
 40
0.9912601754
 40
0.9938557324
 40
0.9961784027
 40
0.9982268136
 40
1.0
 40
1.0
 40
1.0
 40
1.0
 10
9.2979587167
 20
4.4625991731
 30
0.0
 10
9.2979736342
 20
4.4625838903
 30
0.0
 10
9.2980030375
 20
4.4625467183
 30
0.0
 10
9.2980613553
 20
4.4624495672
 30
0.0
 10
9.2981312191
 20
4.4622850843
 30
0.0
 10
9.2982104266
 20
4.4620380923
 30
0.0
 10
9.2982900973
 20
4.4617265295
 30
0.0
 10
9.298370204
 20
4.461350384
 30
0.0
 10
9.2984848873
 20
4.4607204546
 30
0.0
 10
9.2986241641
 20
4.4597699099
 30
0.0
 10
9.298783774
 20
4.4584341858
 30
0.0
 10
9.2989440773
 20
4.4568401522
 30
0.0
 10
9.2991049881
 20
4.4549885494
 30
0.0
 10
9.2992662755
 20
4.4528801393
 30
0.0
 10
9.2994278537
 20
4.4505158734
 30
0.0
 10
9.2995896583
 20
4.4478968951
 30
0.0
 10
9.2997516626
 20
4.445024536
 30
0.0
 10
9.2999764518
 20
4.4406925396
 30
0.0
 10
9.3002543092
 20
4.4346555784
 30
0.0
 10
9.3005774421
 20
4.4266734901
 30
0.0
 10
9.3009012688
 20
4.417720556
 30
0.0
 10
9.3012257325
 20
4.4078149269
 30
0.0
 10
9.3015506872
 20
4.3969769441
 30
0.0
 10
9.3018760884
 20
4.3852288503
 30
0.0
 10
9.3022018738
 20
4.3725949577
 30
0.0
 10
9.3025280157
 20
4.3591014356
 30
0.0
 10
9.3028544922
 20
4.3447763877
 30
0.0
 10
9.3033010917
 20
4.3241016485
 30
0.0
 10
9.3038557142
 20
4.2964187588
 30
0.0
 10
9.3045078571
 20
4.2611590157
 30
0.0
 10
9.3051614198
 20
4.2233990581
 30
0.0
 10
9.3058162932
 20
4.1834596108
 30
0.0
 10
9.306472356
 20
4.1416814623
 30
0.0
 10
9.3071295298
 20
4.0984226733
 30
0.0
 10
9.3077877487
 20
4.0540555993
 30
0.0
 10
9.3084469589
 20
4.0089637429
 30
0.0
 10
9.3091071118
 20
3.9635385149
 30
0.0
 10
9.3097681612
 20
3.9181758522
 30
0.0
 10
9.3104300591
 20
3.8732727971
 30
0.0
 10
9.3110927524
 20
3.8292240197
 30
0.0
 10
9.3117561784
 20
3.7864183164
 30
0.0
 10
9.3124202579
 20
3.7452351557
 30
0.0
 10
9.3130848888
 20
3.7060412356
 30
0.0
 10
9.3137499229
 20
3.6691871513
 30
0.0
 10
9.3144151738
 20
3.6350041564
 30
0.0
 10
9.3150802713
 20
3.6038010495
 30
0.0
 10
9.315744924
 20
3.5758612831
 30
0.0
 10
9.3163182223
 20
3.5547369516
 30
0.0
 10
9.3167844414
 20
3.5396583695
 30
0.0
 10
9.3171197688
 20
3.5297774379
 30
0.0
 10
9.3174548433
 20
3.5208831339
 30
0.0
 10
9.3177894887
 20
3.5129961528
 30
0.0
 10
9.3181235007
 20
3.5061351591
 30
0.0
 10
9.3184130008
 20
3.5010670804
 30
0.0
 10
9.3186489889
 20
3.497538053
 30
0.0
 10
9.3188170902
 20
3.4952883117
 30
0.0
 10
9.3189849204
 20
3.4933056917
 30
0.0
 10
9.3191051709
 20
3.4920739536
 30
0.0
 10
9.3191664126
 20
3.491503024
 30
0.0
  0
LINE
  5
339
100
AcDbEntity
  8
0
100
AcDbLine
 62
7
  6
CONTINUOUS
 10
9.3191664126
 20
3.491503024
 11
9.3195817493
 21
3.4884438552
  0
LINE
  5
33A
100
AcDbEntity
  8
0
100
AcDbLine
 62
7
  6
CONTINUOUS
 10
9.3195817493
 20
3.4884438552
 11
9.3199800518
 21
3.4870412377
  0
SPLINE
  5
33B
100
AcDbEntity
  8
0
100
AcDbSpline
 62
7
  6
CONTINUOUS
 70
0
 71
3
 72
43
 73
39
 74
0
 42
0.0000001
 43
0.0000001
 44
0.0000000001
 40
0.0
 40
0.0
 40
0.0
 40
0.0
 40
0.0001482728
 40
0.0003047891
 40
0.0004773704
 40
0.0006719049
 40
0.0011414865
 40
0.0017343013
 40
0.0024599573
 40
0.0033236058
 40
0.0043282479
 40
0.005475734
 40
0.0067671626
 40
0.0082032023
 40
0.0115105178
 40
0.0153994694
 40
0.0198702611
 40
0.0249217512
 40
0.03055169
 40
0.0367575203
 40
0.0435364831
 40
0.0587990678
 40
0.0763060732
 40
0.0960192913
 40
0.1178937994
 40
0.1418805817
 40
0.1679244906
 40
0.1959665922
 40
0.2259422389
 40
0.2914161968
 40
0.363746387
 40
0.4422694543
 40
0.5262648896
 40
0.6149619879
 40
0.7075467177
 40
0.8031695385
 40
0.9009530181
 40
1.0
 40
1.0
 40
1.0
 40
1.0
 10
9.0135901434
 20
2.984453281
 30
0.0
 10
9.013567313
 20
2.9844527338
 30
0.0
 10
9.0135200411
 20
2.9844577255
 30
0.0
 10
9.0134504285
 20
2.984483184
 30
0.0
 10
9.0133815443
 20
2.9845260071
 30
0.0
 10
9.0132843358
 20
2.9846112694
 30
0.0
 10
9.0131655198
 20
2.9847660147
 30
0.0
 10
9.0130313726
 20
2.9850070064
 30
0.0
 10
9.0128968988
 20
2.9853154782
 30
0.0
 10
9.0127621124
 20
2.985691772
 30
0.0
 10
9.0126270166
 20
2.9861363334
 30
0.0
 10
9.0124917011
 20
2.986649251
 30
0.0
 10
9.0123561927
 20
2.9872305531
 30
0.0
 10
9.0121662783
 20
2.9881404884
 30
0.0
 10
9.0119327765
 20
2.9894496355
 30
0.0
 10
9.0116630841
 20
2.9912263663
 30
0.0
 10
9.0113928056
 20
2.9932743127
 30
0.0
 10
9.0111220375
 20
2.9955923627
 30
0.0
 10
9.0108509328
 20
2.9981792214
 30
0.0
 10
9.0105795521
 20
3.001033427
 30
0.0
 10
9.0102024004
 20
3.0053677485
 30
0.0
 10
9.0097369275
 20
3.0114413617
 30
0.0
 10
9.0091966229
 20
3.0195067701
 30
0.0
 10
9.0086554454
 20
3.0285925083
 30
0.0
 10
9.0081135091
 20
3.0386777908
 30
0.0
 10
9.0075710927
 20
3.0497393751
 30
0.0
 10
9.0070282761
 20
3.0617519164
 30
0.0
 10
9.0064851657
 20
3.0746877191
 30
0.0
 10
9.0057385623
 20
3.0936932769
 30
0.0
 10
9.0048145401
 20
3.1195182799
 30
0.0
 10
9.0037338233
 20
3.1528195164
 30
0.0
 10
9.002651878
 20
3.1889747684
 30
0.0
 10
9.0015689777
 20
3.2276518674
 30
0.0
 10
9.0004854381
 20
3.2684955248
 30
0.0
 10
8.999401448
 20
3.3111306198
 30
0.0
 10
8.9983171633
 20
3.3551656273
 30
0.0
 10
8.9972327035
 20
3.4001962401
 30
0.0
 10
8.9965120944
 20
3.4305035113
 30
0.0
 10
8.9961501245
 20
3.445754437
 30
0.0
  0
SPLINE
  5
33C
100
AcDbEntity
  8
0
100
AcDbSpline
 62
7
  6
CONTINUOUS
 70
0
 71
3
 72
75
 73
71
 74
0
 42
0.0000001
 43
0.0000001
 44
0.0000000001
 40
0.0
 40
0.0
 40
0.0
 40
0.0
 40
0.0003130894
 40
0.0006935396
 40
0.0011431205
 40
0.0016628789
 40
0.0022534695
 40
0.0029152771
 40
0.0044532609
 40
0.0062777019
 40
0.0083886528
 40
0.0107856848
 40
0.0134677244
 40
0.0164334569
 40
0.019681482
 40
0.0270174521
 40
0.0354592043
 40
0.0449879645
 40
0.0555815894
 40
0.0672158514
 40
0.079863538
 40
0.0934953845
 40
0.1080794699
 40
0.123581827
 40
0.1571941821
 40
0.194018133
 40
0.2337089529
 40
0.2758949322
 40
0.3201807587
 40
0.3661513683
 40
0.4133757589
 40
0.4614110757
 40
0.5098068052
 40
0.558108916
 40
0.6058642614
 40
0.6526246876
 40
0.6979513985
 40
0.7414189635
 40
0.7826194139
 40
0.8211660528
 40
0.8566971263
 40
0.8732265392
 40
0.8888793065
 40
0.90361901
 40
0.9174108385
 40
0.9302227689
 40
0.9420246024
 40
0.9527890393
 40
0.9624908802
 40
0.9711078922
 40
0.9786203102
 40
0.9819570504
 40
0.9850115189
 40
0.9877822588
 40
0.9902680117
 40
0.9924676349
 40
0.9943803227
 40
0.9960060055
 40
0.9967114021
 40
0.9973453529
 40
0.9979081321
 40
0.9984001858
 40
0.9988222825
 40
0.9991757206
 40
0.9994627561
 40
0.9996876813
 40
0.9997795961
 40
0.9998601483
 40
0.99993227
 40
1.0
 40
1.0
 40
1.0
 40
1.0
 10
9.2426726916
 20
4.4749680875
 30
0.0
 10
9.242723897
 20
4.4748742857
 30
0.0
 10
9.2428234996
 20
4.4746589935
 30
0.0
 10
9.2429592764
 20
4.4742929841
 30
0.0
 10
9.2430954545
 20
4.473852639
 30
0.0
 10
9.2432319282
 20
4.4733378642
 30
0.0
 10
9.2433686347
 20
4.4727485363
 30
0.0
 10
9.2435608827
 20
4.4718156136
 30
0.0
 10
9.2437967817
 20
4.4704621208
 30
0.0
 10
9.2440688
 20
4.4686136536
 30
0.0
 10
9.2443415106
 20
4.4664693428
 30
0.0
 10
9.2446147844
 20
4.4640303401
 30
0.0
 10
9.2448884427
 20
4.4612979957
 30
0.0
 10
9.2451624177
 20
4.4582739083
 30
0.0
 10
9.2455436445
 20
4.4536646296
 30
0.0
 10
9.246013861
 20
4.4471873903
 30
0.0
 10
9.2465593503
 20
4.4385665943
 30
0.0
 10
9.2471057989
 20
4.428831948
 30
0.0
 10
9.2476530849
 20
4.4180061143
 30
0.0
 10
9.2482009094
 20
4.4061144832
 30
0.0
 10
9.2487491862
 20
4.3931848209
 30
0.0
 10
9.2492977823
 20
4.3792474632
 30
0.0
 10
9.2498466701
 20
4.3643350197
 30
0.0
 10
9.2505992372
 20
4.3426054839
 30
0.0
 10
9.2515316247
 20
4.3132864813
 30
0.0
 10
9.2526242673
 20
4.2757122281
 30
0.0
 10
9.2537180941
 20
4.2352103997
 30
0.0
 10
9.2548128591
 20
4.1921607413
 30
0.0
 10
9.2559082896
 20
4.1469669398
 30
0.0
 10
9.2570042137
 20
4.100052887
 30
0.0
 10
9.2581004882
 20
4.051858677
 30
0.0
 10
9.259196998
 20
4.0028364878
 30
0.0
 10
9.2602936403
 20
3.9534463486
 30
0.0
 10
9.2613903191
 20
3.9041517972
 30
0.0
 10
9.262486936
 20
3.8554155675
 30
0.0
 10
9.2635833845
 20
3.8076951992
 30
0.0
 10
9.2646795376
 20
3.7614387837
 30
0.0
 10
9.265775246
 20
3.7170807162
 30
0.0
 10
9.2668702844
 20
3.6750376359
 30
0.0
 10
9.267964444
 20
3.6357044991
 30
0.0
 10
9.2688961245
 20
3.6047912215
 30
0.0
 10
9.2696473631
 20
3.5816906038
 30
0.0
 10
9.2701970082
 20
3.5656840048
 30
0.0
 10
9.2707464425
 20
3.5506124103
 30
0.0
 10
9.271295668
 20
3.5365111654
 30
0.0
 10
9.27184458
 20
3.5234135148
 30
0.0
 10
9.2723931192
 20
3.5113501746
 30
0.0
 10
9.2729411318
 20
3.5003495796
 30
0.0
 10
9.2734884169
 20
3.4904375049
 30
0.0
 10
9.2740347713
 20
3.4816372877
 30
0.0
 10
9.2745054924
 20
3.4750093773
 30
0.0
 10
9.2748868768
 20
3.4702789147
 30
0.0
 10
9.2751613066
 20
3.4671636626
 30
0.0
 10
9.27543546
 20
3.4643400826
 30
0.0
 10
9.2757092721
 20
3.4618097696
 30
0.0
 10
9.2759825672
 20
3.4595741712
 30
0.0
 10
9.2762552682
 20
3.4576345624
 30
0.0
 10
9.2764913971
 20
3.4562051487
 30
0.0
 10
9.2766834805
 20
3.4552114166
 30
0.0
 10
9.2768204973
 20
3.454576714
 30
0.0
 10
9.2769573071
 20
3.4540166586
 30
0.0
 10
9.277093872
 20
3.4535312372
 30
0.0
 10
9.2772300963
 20
3.4531203894
 30
0.0
 10
9.2773659245
 20
3.4527836435
 30
0.0
 10
9.277501306
 20
3.4525206819
 30
0.0
 10
9.2776213322
 20
3.4523512119
 30
0.0
 10
9.2777199923
 20
3.4522574568
 30
0.0
 10
9.2777896163
 20
3.452210482
 30
0.0
 10
9.27786014
 20
3.4521823831
 30
0.0
 10
9.2779082485
 20
3.4521767745
 30
0.0
 10
9.2779313604
 20
3.4521773277
 30
0.0
  0
SPLINE
  5
33D
100
AcDbEntity
  8
0
100
AcDbSpline
 62
7
  6
CONTINUOUS
 70
0
 71
3
 72
43
 73
39
 74
0
 42
0.0000001
 43
0.0000001
 44
0.0000000001
 40
0.0
 40
0.0
 40
0.0
 40
0.0
 40
0.0001486062
 40
0.0003054433
 40
0.0004783299
 40
0.0006731601
 40
0.0011433416
 40
0.0017368372
 40
0.0024633247
 40
0.0033280006
 40
0.0043338006
 40
0.0054824748
 40
0.0067751247
 40
0.0082124601
 40
0.0115227532
 40
0.015415453
 40
0.0198905159
 40
0.024946447
 40
0.0305812702
 40
0.0367927178
 40
0.0435777577
 40
0.0588531033
 40
0.0763748986
 40
0.0961035825
 40
0.117995111
 40
0.1419991227
 40
0.1680612557
 40
0.196121208
 40
0.2261150022
 40
0.291622762
 40
0.3639815616
 40
0.4425247074
 40
0.5265283292
 40
0.6152180721
 40
0.7077763495
 40
0.8033499941
 40
0.9010580241
 40
1.0
 40
1.0
 40
1.0
 40
1.0
 10
9.0850201434
 20
2.9861814956
 30
0.0
 10
9.0849972618
 20
2.9861809469
 30
0.0
 10
9.0849498895
 20
2.9861859357
 30
0.0
 10
9.0848801214
 20
2.986211397
 30
0.0
 10
9.0848110797
 20
2.9862542352
 30
0.0
 10
9.0847136557
 20
2.9863395321
 30
0.0
 10
9.0845945636
 20
2.9864943747
 30
0.0
 10
9.084460105
 20
2.986735566
 30
0.0
 10
9.084325323
 20
2.9870443293
 30
0.0
 10
9.0841902375
 20
2.9874210075
 30
0.0
 10
9.0840548409
 20
2.9878660175
 30
0.0
 10
9.0839192156
 20
2.9883794182
 30
0.0
 10
9.0837833968
 20
2.98896123
 30
0.0
 10
9.0835930487
 20
2.9898719332
 30
0.0
 10
9.0833590069
 20
2.9911822311
 30
0.0
 10
9.0830887157
 20
2.9929605726
 30
0.0
 10
9.0828178337
 20
2.9950103615
 30
0.0
 10
9.0825464406
 20
2.9973304315
 30
0.0
 10
9.0822747146
 20
2.999919522
 30
0.0
 10
9.0820027265
 20
3.0027762159
 30
0.0
 10
9.0816247334
 20
3.0071142161
 30
0.0
 10
9.0811581806
 20
3.013192901
 30
0.0
 10
9.0806166825
 20
3.0212648163
 30
0.0
 10
9.080074252
 20
3.0303577139
 30
0.0
 10
9.0795311123
 20
3.040450533
 30
0.0
 10
9.0789874464
 20
3.0515200743
 30
0.0
 10
9.0784434192
 20
3.0635406994
 30
0.0
 10
9.0778990628
 20
3.0764847225
 30
0.0
 10
9.077150805
 20
3.0955008481
 30
0.0
 10
9.0762247096
 20
3.1213380211
 30
0.0
 10
9.0751415574
 20
3.1546516693
 30
0.0
 10
9.074057171
 20
3.190815372
 30
0.0
 10
9.0729718301
 20
3.2294953678
 30
0.0
 10
9.0718858492
 20
3.2703347418
 30
0.0
 10
9.0707994186
 20
3.3129567067
 30
0.0
 10
9.0697126947
 20
3.356968086
 30
0.0
 10
9.0686257977
 20
3.4019629634
 30
0.0
 10
9.0679034568
 20
3.4322421909
 30
0.0
 10
9.0675406111
 20
3.4474768172
 30
0.0
  0
ENDSEC
  0
SECTION
  2
OBJECTS
  0
DICTIONARY
  5
C
100
AcDbDictionary
280
0
281
1
  3
ACAD_GROUP
350
D
  3
ACAD_MLINESTYLE
350
17
  3
ACAD_LAYOUT
350
1A
  3
ACAD_PLOTSETTINGS
350
19
  3
ACAD_PLOTSTYLENAME
350
E
  0
DICTIONARY
  5
D
102
{ACAD_REACTORS
330
C
102
}
100
AcDbDictionary
280
0
281
1
  0
ACDBDICTIONARYWDFLT
  5
E
102
{ACAD_REACTORS
330
C
102
}
100
AcDbDictionary
281
1
  3
Normal
350
F
100
AcDbDictionaryWithDefault
340
F
  0
DICTIONARY
  5
17
102
{ACAD_REACTORS
330
C
102
}
100
AcDbDictionary
280
0
281
1
  3
Standard
350
18
  0
DICTIONARY
  5
19
102
{ACAD_REACTORS
330
C
102
}
100
AcDbDictionary
281
1
  0
DICTIONARY
  5
1A
102
{ACAD_REACTORS
330
C
102
}
100
AcDbDictionary
281
1
  3
Model
350
33E
  3
Layout1
350
33F
  0
ACDBPLACEHOLDER
  5
F
102
{ACAD_REACTORS
330
E
102
}
  0
MLINESTYLE
  5
18
102
{ACAD_REACTORS
330
17
102
}
100
AcDbMlineStyle
  2
STANDARD
 70
0
  3

 62
256
 51
90.0
 52
90.0
 71
2
 49
0.5
 62
256
  6
BYLAYER
 49
-0.5
 62
256
  6
BYLAYER
  0
LAYOUT
  5
33E
102
{ACAD_REACTORS
330
1A
102
}
100
AcDbPlotSettings
  1

  2
none_device
  4
ANSI_A_(11.00_x_8.50_Inches)
  6

 40
0.0
 41
0.0
 42
0.0
 43
0.0
 44
279.4
 45
215.9
 46
0.0
 47
0.0
 48
0.0
 49
0.0
140
0.0
141
0.0
142
1.0
143
1.0
 70
1024
 72
0
 73
0
 74
0
  7

 75
0
147
1.0
148
0.0
149
0.0
100
AcDbLayout
  1
Model
 70
0
 71
0
 10
0.0
 20
0.0
 11
11.0
 21
8.5
 12
0.0
 22
0.0
 32
0.0
 14
0.0
 24
0.0
 34
0.0
 15
0.0
 25
0.0
 35
0.0
146
0.0
 13
0.0
 23
0.0
 33
0.0
 16
1.0
 26
0.0
 36
0.0
 17
0.0
 27
1.0
 37
0.0
 76
0
330
203
345
0
346
0
  0
LAYOUT
  5
33F
102
{ACAD_REACTORS
330
1A
102
}
100
AcDbPlotSettings
  1

  2
none_device
  4
ANSI_A_(11.00_x_8.50_Inches)
  6

 40
0.0
 41
0.0
 42
0.0
 43
0.0
 44
279.4
 45
215.9
 46
0.0
 47
0.0
 48
0.0
 49
0.0
140
0.0
141
0.0
142
1.0
143
1.0
 70
0
 72
0
 73
0
 74
0
  7

 75
0
147
1.0
148
0.0
149
0.0
100
AcDbLayout
  1
Layout1
 70
0
 71
1
 10
0.0
 20
0.0
 11
11.0
 21
8.5
 12
0.0
 22
0.0
 32
0.0
 14
0.0
 24
0.0
 34
0.0
 15
0.0
 25
0.0
 35
0.0
146
0.0
 13
0.0
 23
0.0
 33
0.0
 16
1.0
 26
0.0
 36
0.0
 17
0.0
 27
1.0
 37
0.0
 76
0
330
204
345
0
346
0
  0
ENDSEC
  0
EOF
