999
DXF file: 1-483_TOp.dxf
999
Pro/ENGINEER 2023134 by Parametric Technology Corporation
  0
SECTION
  2
HEADER
  9
$ACADVER
  1
AC1032
  9
$DWGCODEPAGE
  3
ANSI_1252
  9
$EXTMAX
 10
11.0
 20
8.5
 30
0.0
  9
$EXTMIN
 10
0.0
 20
0.0
 30
0.0
  9
$LIMMIN
 10
0.0
 20
0.0
  9
$LIMMAX
 10
11.0
 20
8.5
  9
$VIEWCTR
 10
5.5
 20
4.25
  9
$VIEWSIZE
 40
8.5
  9
$CLAYER
  8
0
  9
$LTSCALE
 40
0.605
  9
$CELTYPE
  6
BYLAYER
  9
$DIMSCALE
 40
1.0
  9
$DIMASZ
 40
0.1
  9
$DIMEXO
 40
0.0625
  9
$DIMDLI
 40
0.418
  9
$DIMEXE
 40
0.125
  9
$DIMCEN
 40
0.099
  9
$DIMLFAC
 40
1.0
  9
$DIMBLK
  1
_FILLED
  9
$DIMALT
 70
1
  9
$DIMALTD
 70
2
  9
$DIMALTTD
 70
2
  9
$DIMALTF
 40
25.4
  9
$DIMTXT
 40
0.08
  9
$DIMTOL
 70
1
  9
$DIMLIM
 70
0
  9
$DIMTFAC
 40
1.0
  9
$DIMTP
 40
0.001
  9
$DIMTM
 40
0.001
  9
$DIMGAP
 40
0.09
  9
$DIMDSEP
 70
46
  9
$AUNITS
 70
0
  9
$PDMODE
 70
3
  9
$PDSIZE
 40
0.3125
  9
$HANDSEED
  5
2DB
  9
$TILEMODE
 70
1
  9
$MEASUREMENT
 70
0
  9
$INSUNITS
 70
1
  0
ENDSEC
  0
SECTION
  2
CLASSES
  0
CLASS
  1
ACDBDICTIONARYWDFLT
  2
AcDbDictionaryWithDefault
  3
AutoCAD 2000
 90
0
 91
1
280
0
281
0
  0
CLASS
  1
ACDBPLACEHOLDER
  2
AcDbPlaceHolder
  3
AutoCAD 2000
 90
0
 91
1
280
0
281
0
  0
CLASS
  1
LAYOUT
  2
AcDbLayout
  3
AutoCAD 2000
 90
0
 91
0
280
0
281
0
  0
ENDSEC
  0
SECTION
  2
TABLES
  0
TABLE
  2
VPORT
  5
8
100
AcDbSymbolTable
 70
2
  0
VPORT
  5
1F4
100
AcDbSymbolTableRecord
100
AcDbViewportTableRecord
  2
*ACTIVE
 70
0
 10
0.0
 20
0.0
 11
1.0
 21
1.0
 12
5.5
 22
4.25
 13
0.0
 23
0.0
 14
1.0
 24
1.0
 15
0.0
 25
0.0
 16
0.0
 26
0.0
 36
1.0
 17
0.0
 27
0.0
 37
0.0
 40
8.5
 41
1.2941176471
 42
50.0
 43
0.0
 44
0.0
 50
0.0
 51
0.0
 71
0
 72
100
 73
1
 74
1
 75
0
 76
0
 77
0
 78
0
  0
ENDTAB
  0
TABLE
  2
LTYPE
  5
5
100
AcDbSymbolTable
 70
6
  0
LTYPE
  5
14
100
AcDbSymbolTableRecord
100
AcDbLinetypeTableRecord
  2
BYBLOCK
 70
0
  3

 72
65
 73
0
 40
0.0
  0
LTYPE
  5
15
100
AcDbSymbolTableRecord
100
AcDbLinetypeTableRecord
  2
BYLAYER
 70
0
  3

 72
65
 73
0
 40
0.0
  0
LTYPE
  5
16
100
AcDbSymbolTableRecord
100
AcDbLinetypeTableRecord
  2
CONTINUOUS
 70
64
  3
Solid line
 72
65
 73
0
 40
0.0
  0
LTYPE
  5
1F5
100
AcDbSymbolTableRecord
100
AcDbLinetypeTableRecord
  2
CENTER
 70
64
  3
____ _ ____ _ ____ _ ____ _ ____ _ ____ _ ____
 72
65
 73
4
 40
0.6
 49
0.375
 74
0
 49
-0.075
 74
0
 49
0.075
 74
0
 49
-0.075
 74
0
  0
LTYPE
  5
1F6
100
AcDbSymbolTableRecord
100
AcDbLinetypeTableRecord
  2
HIDDEN
 70
64
  3
- - - - - - - - - - - - - - - - - - - -
 72
65
 73
2
 40
0.2
 49
0.1
 74
0
 49
-0.1
 74
0
  0
LTYPE
  5
1F7
100
AcDbSymbolTableRecord
100
AcDbLinetypeTableRecord
  2
PHANTOM
 70
64
  3
_____ _ _ _____ _ _ _____ _ _ _____
 72
65
 73
6
 40
0.8
 49
0.45
 74
0
 49
-0.05
 74
0
 49
0.1
 74
0
 49
-0.05
 74
0
 49
0.1
 74
0
 49
-0.05
 74
0
  0
LTYPE
  5
1F8
100
AcDbSymbolTableRecord
100
AcDbLinetypeTableRecord
  2
DOT
 70
64
  3
. . . . . . . . . . . . . . . . . . . .
 72
65
 73
2
 40
0.2
 49
0.1
 74
0
 49
-0.1
 74
0
  0
LTYPE
  5
1F9
100
AcDbSymbolTableRecord
100
AcDbLinetypeTableRecord
  2
DASHED
 70
64
  3
- - - - - - - - - - - - - - - - - - - -
 72
65
 73
2
 40
0.2
 49
0.1
 74
0
 49
-0.1
 74
0
  0
ENDTAB
  0
TABLE
  2
LAYER
  5
2
100
AcDbSymbolTable
 70
36
  0
LAYER
  5
10
100
AcDbSymbolTableRecord
100
AcDbLayerTableRecord
  2
0
 70
0
 62
7
  6
CONTINUOUS
370
-3
390
F
  0
LAYER
  5
1FA
100
AcDbSymbolTableRecord
100
AcDbLayerTableRecord
  2
DEFAULT_1
 70
0
 62
7
  6
CENTER
370
-3
390
F
  0
LAYER
  5
1FB
100
AcDbSymbolTableRecord
100
AcDbLayerTableRecord
  2
DEFAULT_2
 70
0
 62
8
  6
HIDDEN
370
-3
390
F
  0
LAYER
  5
1FC
100
AcDbSymbolTableRecord
100
AcDbLayerTableRecord
  2
DEFAULT_3
 70
0
 62
7
  6
PHANTOM
370
-3
390
F
  0
LAYER
  5
1FD
100
AcDbSymbolTableRecord
100
AcDbLayerTableRecord
  2
DEFAULT_COORDINATE_SYSTEM
 70
0
 62
7
  6
CONTINUOUS
370
-3
390
F
  0
LAYER
  5
1FE
100
AcDbSymbolTableRecord
100
AcDbLayerTableRecord
  2
DEFAULT_DATUM_AXES
 70
0
 62
7
  6
CONTINUOUS
370
-3
390
F
  0
LAYER
  5
1FF
100
AcDbSymbolTableRecord
100
AcDbLayerTableRecord
  2
DEFAULT_DATUM_CURVES
 70
0
 62
7
  6
CONTINUOUS
370
-3
390
F
  0
LAYER
  5
200
100
AcDbSymbolTableRecord
100
AcDbLayerTableRecord
  2
DEFAULT_DATUM_PLANES
 70
0
 62
7
  6
CONTINUOUS
370
-3
390
F
  0
ENDTAB
  0
TABLE
  2
STYLE
  5
3
100
AcDbSymbolTable
 70
1
  0
STYLE
  5
11
100
AcDbSymbolTableRecord
100
AcDbTextStyleTableRecord
  2
STANDARD
 70
0
 40
0.0
 41
0.8
 50
0.0
 71
0
 42
0.2
  3
txt
  4

  0
STYLE
  5
201
100
AcDbSymbolTableRecord
100
AcDbTextStyleTableRecord
  2
TEXTSTYLE_1
 70
0
 40
0.0
 41
0.8
 50
0.0
 71
0
 42
0.2
  3
gdt
  4

  0
ENDTAB
  0
TABLE
  2
VIEW
  5
6
100
AcDbSymbolTable
 70
0
  0
ENDTAB
  0
TABLE
  2
UCS
  5
7
100
AcDbSymbolTable
 70
0
  0
ENDTAB
  0
TABLE
  2
APPID
  5
9
100
AcDbSymbolTable
 70
1
  0
APPID
  5
202
100
AcDbSymbolTableRecord
100
AcDbRegAppTableRecord
  2
ACAD
 70
0
  0
ENDTAB
  0
TABLE
  2
BLOCK_RECORD
  5
1
100
AcDbSymbolTable
 70
0
  0
BLOCK_RECORD
  5
203
100
AcDbSymbolTableRecord
100
AcDbBlockTableRecord
  2
*Model_Space
  0
BLOCK_RECORD
  5
204
100
AcDbSymbolTableRecord
100
AcDbBlockTableRecord
  2
*Paper_Space
  0
BLOCK_RECORD
  5
205
100
AcDbSymbolTableRecord
100
AcDbBlockTableRecord
  2
_FILLED
  0
ENDTAB
  0
TABLE
  2
DIMSTYLE
  5
A
100
AcDbSymbolTable
 70
1
100
AcDbDimStyleTable
 71
0
  0
DIMSTYLE
105
206
100
AcDbSymbolTableRecord
100
AcDbDimStyleTableRecord
  2
STANDARD
 70
0
  3

  4

 40
1.0
 41
0.1
 42
0.0625
 43
0.38
 44
0.125
 45
0.0
 46
0.0
 47
0.001
 48
0.001
140
0.08
141
0.09
142
0.0
143
25.4
144
1.0
145
0.0
146
1.0
147
0.09
 71
1
 72
0
 73
1
 74
1
 75
0
 76
0
 77
0
 78
4
 79
1
170
1
171
2
172
0
173
0
174
0
175
0
176
0
177
0
178
0
270
2
179
3
271
3
272
3
273
2
274
2
275
0
280
0
281
0
282
0
283
1
284
4
285
0
286
0
287
3
288
0
340
11
278
46
341
205
342
205
343
205
344
205
  0
ENDTAB
  0
ENDSEC
  0
SECTION
  2
BLOCKS
  0
BLOCK
  5
20
100
AcDbEntity
  8
0
100
AcDbBlockBegin
  2
*Model_Space
 70
0
 10
0.0
 20
0.0
 30
0.0
  3
*Model_Space
  1

  0
ENDBLK
  5
21
100
AcDbEntity
  8
0
100
AcDbBlockEnd
  0
BLOCK
  5
1C
100
AcDbEntity
  8
0
100
AcDbBlockBegin
  2
*Paper_Space
 70
0
 10
0.0
 20
0.0
 30
0.0
  3
*Paper_Space
  1

  0
ENDBLK
  5
1D
100
AcDbEntity
  8
0
100
AcDbBlockEnd
  0
BLOCK
  5
207
100
AcDbEntity
  8
0
100
AcDbBlockBegin
  2
_FILLED
 70
64
 10
0.0
 20
0.0
  3
_FILLED
  1

  0
SOLID
  5
208
100
AcDbEntity
  8
0
  6
BYBLOCK
 62
0
100
AcDbTrace
 10
0.0
 20
0.0
 11
-1.0
 21
0.2
 12
-1.0
 22
-0.2
 13
-1.0
 23
-0.2
  0
ENDBLK
  5
209
100
AcDbEntity
  8
0
  6
BYBLOCK
 62
0
100
AcDbBlockEnd
  0
ENDSEC
  0
SECTION
  2
ENTITIES
  0
MTEXT
  5
20A
100
AcDbEntity
  8
0
100
AcDbMText
 62
2
  6
CONTINUOUS
  7
STANDARD
 71
2
 72
1
 10
5.5599083534
 20
0.9738976648
 30
0.0
 11
1.0
 21
0.0
 31
0.0
 73
2
 44
0.9
  1
SCALE 0.500
 40
0.08
 41
0.704
  0
LINE
  5
20B
100
AcDbEntity
  8
0
100
AcDbLine
 62
7
  6
CONTINUOUS
 10
0.0
 20
0.0
 11
0.0
 21
8.5
  0
LINE
  5
20C
100
AcDbEntity
  8
0
100
AcDbLine
 62
7
  6
CONTINUOUS
 10
0.0
 20
0.0
 11
11.0
 21
0.0
  0
LINE
  5
20D
100
AcDbEntity
  8
0
100
AcDbLine
 62
7
  6
CONTINUOUS
 10
0.0
 20
8.5
 11
11.0
 21
8.5
  0
LINE
  5
20E
100
AcDbEntity
  8
0
100
AcDbLine
 62
7
  6
CONTINUOUS
 10
11.0
 20
0.0
 11
11.0
 21
8.5
  0
LINE
  5
20F
100
AcDbEntity
  8
0
100
AcDbLine
 62
7
  6
CONTINUOUS
 10
4.9724931319
 20
2.1813186813
 11
4.9254931319
 21
2.1813186813
  0
LINE
  5
210
100
AcDbEntity
  8
0
100
AcDbLine
 62
7
  6
CONTINUOUS
 10
4.5724931319
 20
6.3595686813
 11
4.6009131347
 21
6.3879886842
  0
LWPOLYLINE
  5
211
100
AcDbEntity
  8
0
100
AcDbPolyline
 62
7
  6
CONTINUOUS
 90
14
 70
0
 10
5.1663876774
 20
2.4555686841
 10
5.1639464064
 20
2.4554932732
 10
5.1612505813
 20
2.4552336552
 10
5.1585814967
 20
2.4547906398
 10
5.1559573794
 20
2.4541683572
 10
5.1533961087
 20
2.4533734298
 10
5.1509151998
 20
2.4524151054
 10
5.1485310322
 20
2.4513051101
 10
5.1462606221
 20
2.4500587477
 10
5.1441283174
 20
2.4487004376
 10
5.1421563929
 20
2.4472608533
 10
5.1403611502
 20
2.4457740805
 10
5.1387499732
 20
2.444273343
 10
5.137321895
 20
2.4427883022
  0
LWPOLYLINE
  5
212
100
AcDbEntity
  8
0
100
AcDbPolyline
 62
7
  6
CONTINUOUS
 90
19
 70
0
 10
5.099290966
 20
2.4230686841
 10
5.1010997944
 20
2.4231072085
 10
5.1039112836
 20
2.4233202714
 10
5.1066594398
 20
2.4237103715
 10
5.1093258627
 20
2.4242642229
 10
5.1118951318
 20
2.4249662632
 10
5.1143545868
 20
2.4257991629
 10
5.1166952768
 20
2.4267447325
 10
5.1189136141
 20
2.4277855531
 10
5.1210188125
 20
2.4289105568
 10
5.1230486439
 20
2.4301288158
 10
5.1250296838
 20
2.4314509148
 10
5.1269565952
 20
2.4328691042
 10
5.1288198038
 20
2.4343690587
 10
5.1306071946
 20
2.4359292476
 10
5.1323173458
 20
2.4375327336
 10
5.1339808954
 20
2.439192712
 10
5.1356424463
 20
2.440941945
 10
5.137321895
 20
2.4427883022
  0
LINE
  5
213
100
AcDbEntity
  8
0
100
AcDbLine
 62
7
  6
CONTINUOUS
 10
6.0858827422
 20
2.4078186813
 11
5.8149931319
 21
2.4078186813
  0
LINE
  5
214
100
AcDbEntity
  8
0
100
AcDbLine
 62
7
  6
CONTINUOUS
 10
5.7949931319
 20
2.4078186813
 11
5.4849931319
 21
2.4078186813
  0
LINE
  5
215
100
AcDbEntity
  8
0
100
AcDbLine
 62
7
  6
CONTINUOUS
 10
5.4649931319
 20
2.4078186813
 11
5.3464931319
 21
2.4078186813
  0
LINE
  5
216
100
AcDbEntity
  8
0
100
AcDbLine
 62
7
  6
CONTINUOUS
 10
5.4649931319
 20
2.4228186813
 11
5.4849931319
 21
2.4228186813
  0
LINE
  5
217
100
AcDbEntity
  8
0
100
AcDbLine
 62
7
  6
CONTINUOUS
 10
5.7949931319
 20
2.4228186813
 11
5.8149931319
 21
2.4228186813
  0
LINE
  5
218
100
AcDbEntity
  8
0
100
AcDbLine
 62
7
  6
CONTINUOUS
 10
4.9874931319
 20
2.4230686813
 11
5.099290943
 21
2.4230686813
  0
LINE
  5
219
100
AcDbEntity
  8
0
100
AcDbLine
 62
7
  6
CONTINUOUS
 10
6.118559149
 20
2.4280686813
 11
6.5824931319
 21
2.4280686813
  0
LINE
  5
21A
100
AcDbEntity
  8
0
100
AcDbLine
 62
7
  6
CONTINUOUS
 10
6.118559149
 20
2.4344100896
 11
6.5824931319
 21
2.4344100896
  0
LINE
  5
21B
100
AcDbEntity
  8
0
100
AcDbLine
 62
7
  6
CONTINUOUS
 10
5.1663877071
 20
2.4555686813
 11
5.3314931319
 21
2.4555686813
  0
LINE
  5
21C
100
AcDbEntity
  8
0
100
AcDbLine
 62
7
  6
CONTINUOUS
 10
5.1395728581
 20
2.4695571092
 11
5.1112279806
 21
2.4695571092
  0
LINE
  5
21D
100
AcDbEntity
  8
0
100
AcDbLine
 62
7
  6
CONTINUOUS
 10
5.1258781846
 20
2.4792127677
 11
5.1617607945
 21
2.4792127677
  0
LINE
  5
21E
100
AcDbEntity
  8
0
100
AcDbLine
 62
7
  6
CONTINUOUS
 10
4.6009131347
 20
2.4746486785
 11
4.9254921281
 21
2.4645334305
  0
LINE
  5
21F
100
AcDbEntity
  8
0
100
AcDbLine
 62
7
  6
CONTINUOUS
 10
4.5724931319
 20
2.5030686813
 11
4.6009131347
 21
2.4746486785
  0
LINE
  5
220
100
AcDbEntity
  8
0
100
AcDbLine
 62
7
  6
CONTINUOUS
 10
6.118559149
 20
2.505777865
 11
6.5824931319
 21
2.505777865
  0
LINE
  5
221
100
AcDbEntity
  8
0
100
AcDbLine
 62
7
  6
CONTINUOUS
 10
6.118559149
 20
2.6017009059
 11
6.5824931319
 21
2.6017009059
  0
LINE
  5
222
100
AcDbEntity
  8
0
100
AcDbLine
 62
7
  6
CONTINUOUS
 10
6.118559149
 20
2.7444364568
 11
6.5824931319
 21
2.7444364568
  0
LINE
  5
223
100
AcDbEntity
  8
0
100
AcDbLine
 62
7
  6
CONTINUOUS
 10
4.6009131347
 20
2.8714886842
 11
4.9254931319
 21
2.8816039634
  0
LINE
  5
224
100
AcDbEntity
  8
0
100
AcDbLine
 62
7
  6
CONTINUOUS
 10
6.118559149
 20
2.8403594976
 11
6.5824931319
 21
2.8403594976
  0
LINE
  5
225
100
AcDbEntity
  8
0
100
AcDbLine
 62
7
  6
CONTINUOUS
 10
5.1617607945
 20
2.8669245949
 11
5.1258781846
 21
2.8669245949
  0
LINE
  5
226
100
AcDbEntity
  8
0
100
AcDbLine
 62
7
  6
CONTINUOUS
 10
5.1395728573
 20
2.8765802535
 11
5.1112290864
 21
2.8765802535
  0
LINE
  5
227
100
AcDbEntity
  8
0
100
AcDbLine
 62
7
  6
CONTINUOUS
 10
5.1663877072
 20
2.8905686813
 11
5.3314931319
 21
2.8905686813
  0
LINE
  5
228
100
AcDbEntity
  8
0
100
AcDbLine
 62
7
  6
CONTINUOUS
 10
6.118559149
 20
2.9117272731
 11
6.5824931319
 21
2.9117272731
  0
LINE
  5
229
100
AcDbEntity
  8
0
100
AcDbLine
 62
7
  6
CONTINUOUS
 10
6.118559149
 20
2.9180686813
 11
6.5824931319
 21
2.9180686813
  0
LINE
  5
22A
100
AcDbEntity
  8
0
100
AcDbLine
 62
7
  6
CONTINUOUS
 10
4.9874931319
 20
2.9230686813
 11
5.0992909416
 21
2.9230686813
  0
LINE
  5
22B
100
AcDbEntity
  8
0
100
AcDbLine
 62
7
  6
CONTINUOUS
 10
5.4649931319
 20
2.9233186813
 11
5.4849931319
 21
2.9233186813
  0
LINE
  5
22C
100
AcDbEntity
  8
0
100
AcDbLine
 62
7
  6
CONTINUOUS
 10
5.7949931319
 20
2.9233186813
 11
5.8149931319
 21
2.9233186813
  0
LINE
  5
22D
100
AcDbEntity
  8
0
100
AcDbLine
 62
7
  6
CONTINUOUS
 10
6.0858827422
 20
2.9383186813
 11
5.8149931319
 21
2.9383186813
  0
LINE
  5
22E
100
AcDbEntity
  8
0
100
AcDbLine
 62
7
  6
CONTINUOUS
 10
5.7949931319
 20
2.9383186813
 11
5.4849931319
 21
2.9383186813
  0
LINE
  5
22F
100
AcDbEntity
  8
0
100
AcDbLine
 62
7
  6
CONTINUOUS
 10
5.4649931319
 20
2.9383186813
 11
5.3464931319
 21
2.9383186813
  0
LWPOLYLINE
  5
230
100
AcDbEntity
  8
0
100
AcDbPolyline
 62
7
  6
CONTINUOUS
 90
18
 70
0
 10
5.1356418335
 20
2.905196081
 10
5.1339799452
 20
2.9069456226
 10
5.1323155946
 20
2.9086063281
 10
5.1306049295
 20
2.9102101642
 10
5.1288169336
 20
2.9117707153
 10
5.1269529442
 20
2.9132710718
 10
5.1250258086
 20
2.9146891655
 10
5.1230441847
 20
2.9160113734
 10
5.1210131819
 20
2.9172300012
 10
5.1189072658
 20
2.9183549951
 10
5.1166895326
 20
2.9193951384
 10
5.1143500995
 20
2.9203398673
 10
5.1118913773
 20
2.9211722501
 10
5.1093221268
 20
2.9218740395
 10
5.1066555735
 20
2.922427667
 10
5.1039075656
 20
2.9228174957
 10
5.1010966179
 20
2.9230302889
 10
5.0992909473
 20
2.9230686785
  0
LWPOLYLINE
  5
231
100
AcDbEntity
  8
0
100
AcDbPolyline
 62
7
  6
CONTINUOUS
 90
15
 70
0
 10
5.1356418335
 20
2.905196081
 10
5.1374399641
 20
2.9032201201
 10
5.1388755642
 20
2.9017407601
 10
5.140493373
 20
2.9002474693
 10
5.1422915514
 20
2.8987716924
 10
5.1442612263
 20
2.8973465087
 10
5.146386613
 20
2.8960042642
 10
5.1486464601
 20
2.8947739848
 10
5.1510179768
 20
2.8936786907
 10
5.1534847662
 20
2.8927331962
 10
5.1560305559
 20
2.8919490668
 10
5.1586379459
 20
2.8913353988
 10
5.1612891803
 20
2.8908986705
 10
5.1639661462
 20
2.8906428739
 10
5.1663876765
 20
2.8905686788
  0
LINE
  5
232
100
AcDbEntity
  8
0
100
AcDbLine
 62
7
  6
CONTINUOUS
 10
4.5724931319
 20
6.3595686813
 11
4.5724931319
 21
6.0195686813
  0
LINE
  5
233
100
AcDbEntity
  8
0
100
AcDbLine
 62
7
  6
CONTINUOUS
 10
4.5724931319
 20
2.8430686813
 11
4.5724931319
 21
2.5030686813
  0
LINE
  5
234
100
AcDbEntity
  8
0
100
AcDbLine
 62
7
  6
CONTINUOUS
 10
4.6009131347
 20
6.3879886842
 11
4.6009131347
 21
5.9911486785
  0
LINE
  5
235
100
AcDbEntity
  8
0
100
AcDbLine
 62
7
  6
CONTINUOUS
 10
4.6009131347
 20
2.8714886842
 11
4.6009131347
 21
2.4746486785
  0
LINE
  5
236
100
AcDbEntity
  8
0
100
AcDbLine
 62
7
  6
CONTINUOUS
 10
4.9254931319
 20
6.6813186813
 11
4.9254931319
 21
2.1813186813
  0
LINE
  5
237
100
AcDbEntity
  8
0
100
AcDbLine
 62
7
  6
CONTINUOUS
 10
6.1079525473
 20
5.940175283
 11
6.0964893439
 21
5.9287120796
  0
LINE
  5
238
100
AcDbEntity
  8
0
100
AcDbLine
 62
7
  6
CONTINUOUS
 10
6.1079525473
 20
2.9224620796
 11
6.0964893439
 21
2.933925283
  0
LINE
  5
239
100
AcDbEntity
  8
0
100
AcDbLine
 62
7
  6
CONTINUOUS
 10
4.9724931319
 20
6.6813186813
 11
4.9724931319
 21
2.1813186813
  0
LINE
  5
23A
100
AcDbEntity
  8
0
100
AcDbLine
 62
7
  6
CONTINUOUS
 10
4.9874931319
 20
6.4395686813
 11
4.9874931319
 21
5.9395686813
  0
LINE
  5
23B
100
AcDbEntity
  8
0
100
AcDbLine
 62
7
  6
CONTINUOUS
 10
4.9874931319
 20
2.9230686813
 11
4.9874931319
 21
2.4230686813
  0
LINE
  5
23C
100
AcDbEntity
  8
0
100
AcDbLine
 62
7
  6
CONTINUOUS
 10
5.3314931319
 20
2.4228186813
 11
5.3314931319
 21
2.9233186813
  0
LINE
  5
23D
100
AcDbEntity
  8
0
100
AcDbLine
 62
7
  6
CONTINUOUS
 10
5.3314931319
 20
5.9393186813
 11
5.3314931319
 21
6.4398186813
  0
LINE
  5
23E
100
AcDbEntity
  8
0
100
AcDbLine
 62
7
  6
CONTINUOUS
 10
5.3464931319
 20
2.4078186813
 11
5.3464931319
 21
2.9383186813
  0
LINE
  5
23F
100
AcDbEntity
  8
0
100
AcDbLine
 62
7
  6
CONTINUOUS
 10
5.3464931319
 20
5.9243186813
 11
5.3464931319
 21
6.4548186813
  0
LINE
  5
240
100
AcDbEntity
  8
0
100
AcDbLine
 62
7
  6
CONTINUOUS
 10
5.4649931319
 20
6.4548186813
 11
5.4649931319
 21
5.9243186813
  0
LINE
  5
241
100
AcDbEntity
  8
0
100
AcDbLine
 62
7
  6
CONTINUOUS
 10
5.4649931319
 20
2.9383186813
 11
5.4649931319
 21
2.4078186813
  0
LINE
  5
242
100
AcDbEntity
  8
0
100
AcDbLine
 62
7
  6
CONTINUOUS
 10
5.4849931319
 20
6.4548186813
 11
5.4849931319
 21
5.9243186813
  0
LINE
  5
243
100
AcDbEntity
  8
0
100
AcDbLine
 62
7
  6
CONTINUOUS
 10
5.4849931319
 20
2.9383186813
 11
5.4849931319
 21
2.4078186813
  0
LINE
  5
244
100
AcDbEntity
  8
0
100
AcDbLine
 62
7
  6
CONTINUOUS
 10
5.7949931319
 20
6.4548186813
 11
5.7949931319
 21
5.9243186813
  0
LINE
  5
245
100
AcDbEntity
  8
0
100
AcDbLine
 62
7
  6
CONTINUOUS
 10
5.7949931319
 20
2.9383186813
 11
5.7949931319
 21
2.4078186813
  0
LINE
  5
246
100
AcDbEntity
  8
0
100
AcDbLine
 62
7
  6
CONTINUOUS
 10
5.8149931319
 20
6.4548186813
 11
5.8149931319
 21
5.9243186813
  0
LINE
  5
247
100
AcDbEntity
  8
0
100
AcDbLine
 62
7
  6
CONTINUOUS
 10
5.8149931319
 20
2.9383186813
 11
5.8149931319
 21
2.4078186813
  0
LINE
  5
248
100
AcDbEntity
  8
0
100
AcDbLine
 62
7
  6
CONTINUOUS
 10
6.0858827422
 20
2.4078186813
 11
6.0858827422
 21
2.9383186813
  0
LINE
  5
249
100
AcDbEntity
  8
0
100
AcDbLine
 62
7
  6
CONTINUOUS
 10
6.0858827422
 20
5.9243186813
 11
6.0858827422
 21
6.4548186813
  0
LINE
  5
24A
100
AcDbEntity
  8
0
100
AcDbLine
 62
7
  6
CONTINUOUS
 10
6.0964893439
 20
2.4122120796
 11
6.0964893439
 21
2.933925283
  0
LINE
  5
24B
100
AcDbEntity
  8
0
100
AcDbLine
 62
7
  6
CONTINUOUS
 10
6.0964893439
 20
5.9287120796
 11
6.0964893439
 21
6.450425283
  0
LINE
  5
24C
100
AcDbEntity
  8
0
100
AcDbLine
 62
7
  6
CONTINUOUS
 10
4.5724931319
 20
2.8430686813
 11
4.6009131347
 21
2.8714886842
  0
LINE
  5
24D
100
AcDbEntity
  8
0
100
AcDbLine
 62
7
  6
CONTINUOUS
 10
4.5724931319
 20
6.0195686813
 11
4.6009131347
 21
5.9911486785
  0
LINE
  5
24E
100
AcDbEntity
  8
0
100
AcDbLine
 62
7
  6
CONTINUOUS
 10
6.1079525473
 20
6.4389620796
 11
6.1079525473
 21
5.940175283
  0
LINE
  5
24F
100
AcDbEntity
  8
0
100
AcDbLine
 62
7
  6
CONTINUOUS
 10
6.1079525473
 20
2.9224620796
 11
6.1079525473
 21
2.423675283
  0
LINE
  5
250
100
AcDbEntity
  8
0
100
AcDbLine
 62
7
  6
CONTINUOUS
 10
6.118559149
 20
6.4345686813
 11
6.118559149
 21
5.9445686813
  0
LINE
  5
251
100
AcDbEntity
  8
0
100
AcDbLine
 62
7
  6
CONTINUOUS
 10
6.118559149
 20
2.9180686813
 11
6.118559149
 21
2.4280686813
  0
LINE
  5
252
100
AcDbEntity
  8
0
100
AcDbLine
 62
7
  6
CONTINUOUS
 10
6.5824931319
 20
2.4280686813
 11
6.5824931319
 21
2.4344100896
  0
LINE
  5
253
100
AcDbEntity
  8
0
100
AcDbLine
 62
7
  6
CONTINUOUS
 10
6.5824931319
 20
2.505777865
 11
6.5824931319
 21
2.6017009059
  0
LINE
  5
254
100
AcDbEntity
  8
0
100
AcDbLine
 62
7
  6
CONTINUOUS
 10
6.5824931319
 20
2.7444364568
 11
6.5824931319
 21
2.8403594976
  0
LINE
  5
255
100
AcDbEntity
  8
0
100
AcDbLine
 62
7
  6
CONTINUOUS
 10
6.5824931319
 20
2.9117272731
 11
6.5824931319
 21
2.9180686813
  0
LINE
  5
256
100
AcDbEntity
  8
0
100
AcDbLine
 62
7
  6
CONTINUOUS
 10
6.5824931319
 20
5.9445686813
 11
6.5824931319
 21
5.9509100896
  0
LINE
  5
257
100
AcDbEntity
  8
0
100
AcDbLine
 62
7
  6
CONTINUOUS
 10
6.5824931319
 20
6.022277865
 11
6.5824931319
 21
6.1182009059
  0
LINE
  5
258
100
AcDbEntity
  8
0
100
AcDbLine
 62
7
  6
CONTINUOUS
 10
6.5824931319
 20
6.2609364568
 11
6.5824931319
 21
6.3568594976
  0
LINE
  5
259
100
AcDbEntity
  8
0
100
AcDbLine
 62
7
  6
CONTINUOUS
 10
6.5824931319
 20
6.4282272731
 11
6.5824931319
 21
6.4345686813
  0
LWPOLYLINE
  5
25A
100
AcDbEntity
  8
0
100
AcDbPolyline
 62
7
  6
CONTINUOUS
 90
15
 70
0
 10
5.1356418456
 20
6.421696068
 10
5.1374399641
 20
6.4197201201
 10
5.1388755642
 20
6.4182407601
 10
5.140493373
 20
6.4167474693
 10
5.1422915514
 20
6.4152716924
 10
5.1442612263
 20
6.4138465087
 10
5.1463866131
 20
6.4125042642
 10
5.1486464601
 20
6.4112739848
 10
5.1510179768
 20
6.4101786907
 10
5.1534847662
 20
6.4092331962
 10
5.1560305559
 20
6.4084490668
 10
5.1586379459
 20
6.4078353988
 10
5.1612891803
 20
6.4073986705
 10
5.1639661462
 20
6.4071428739
 10
5.1663876765
 20
6.4070686788
  0
LINE
  5
25B
100
AcDbEntity
  8
0
100
AcDbLine
 62
7
  6
CONTINUOUS
 10
6.5974931319
 20
2.4430686813
 11
6.5974931319
 21
2.9030686813
  0
LINE
  5
25C
100
AcDbEntity
  8
0
100
AcDbLine
 62
7
  6
CONTINUOUS
 10
6.5974931319
 20
5.9595686813
 11
6.5974931319
 21
6.4195686813
  0
LWPOLYLINE
  5
25D
100
AcDbEntity
  8
0
100
AcDbPolyline
 62
7
  6
CONTINUOUS
 90
18
 70
0
 10
5.1356418456
 20
6.421696068
 10
5.1339799565
 20
6.423445611
 10
5.1323156052
 20
6.4251063178
 10
5.1306049395
 20
6.4267101551
 10
5.1288169433
 20
6.4282707072
 10
5.1269529535
 20
6.4297710646
 10
5.1250258175
 20
6.4311891592
 10
5.1230441932
 20
6.4325113681
 10
5.12101319
 20
6.4337299965
 10
5.1189072737
 20
6.4348549911
 10
5.1166895402
 20
6.435895135
 10
5.1143501069
 20
6.4368398645
 10
5.1118913842
 20
6.437672248
 10
5.1093221332
 20
6.438374038
 10
5.1066555793
 20
6.438927666
 10
5.1039075707
 20
6.4393174952
 10
5.1010966222
 20
6.4395302887
 10
5.099290947
 20
6.4395686785
  0
LINE
  5
25E
100
AcDbEntity
  8
0
100
AcDbLine
 62
7
  6
CONTINUOUS
 10
6.0858827422
 20
5.9243186813
 11
5.8149931319
 21
5.9243186813
  0
LINE
  5
25F
100
AcDbEntity
  8
0
100
AcDbLine
 62
7
  6
CONTINUOUS
 10
5.7949931319
 20
5.9243186813
 11
5.4849931319
 21
5.9243186813
  0
LINE
  5
260
100
AcDbEntity
  8
0
100
AcDbLine
 62
7
  6
CONTINUOUS
 10
5.4649931319
 20
5.9243186813
 11
5.3464931319
 21
5.9243186813
  0
LWPOLYLINE
  5
261
100
AcDbEntity
  8
0
100
AcDbPolyline
 62
7
  6
CONTINUOUS
 90
14
 70
0
 10
5.1663876774
 20
5.9720686841
 10
5.1639464064
 20
5.9719932732
 10
5.1612505813
 20
5.9717336552
 10
5.1585814967
 20
5.9712906398
 10
5.1559573794
 20
5.9706683572
 10
5.1533961088
 20
5.9698734299
 10
5.1509151998
 20
5.9689151054
 10
5.1485310322
 20
5.9678051101
 10
5.1462606221
 20
5.9665587477
 10
5.1441283174
 20
5.9652004376
 10
5.1421563929
 20
5.9637608533
 10
5.1403611502
 20
5.9622740805
 10
5.1387499732
 20
5.960773343
 10
5.137321895
 20
5.9592883022
  0
LWPOLYLINE
  5
262
100
AcDbEntity
  8
0
100
AcDbPolyline
 62
7
  6
CONTINUOUS
 90
19
 70
0
 10
5.0992909657
 20
5.9395686841
 10
5.1010997947
 20
5.9396072085
 10
5.1039112839
 20
5.9398202714
 10
5.1066594401
 20
5.9402103716
 10
5.1093258631
 20
5.940764223
 10
5.1118951322
 20
5.9414662633
 10
5.1143545872
 20
5.9422991631
 10
5.1166952772
 20
5.9432447327
 10
5.1189136145
 20
5.9442855533
 10
5.1210188129
 20
5.945410557
 10
5.1230486443
 20
5.9466288161
 10
5.1250296842
 20
5.9479509152
 10
5.1269565957
 20
5.9493691045
 10
5.1288198043
 20
5.9508690591
 10
5.1306071952
 20
5.9524292481
 10
5.1323173464
 20
5.9540327342
 10
5.133980896
 20
5.9556927126
 10
5.135642447
 20
5.9574419457
 10
5.137321895
 20
5.9592883022
  0
LINE
  5
263
100
AcDbEntity
  8
0
100
AcDbLine
 62
7
  6
CONTINUOUS
 10
5.4649931319
 20
5.9393186813
 11
5.4849931319
 21
5.9393186813
  0
LINE
  5
264
100
AcDbEntity
  8
0
100
AcDbLine
 62
7
  6
CONTINUOUS
 10
5.7949931319
 20
5.9393186813
 11
5.8149931319
 21
5.9393186813
  0
LINE
  5
265
100
AcDbEntity
  8
0
100
AcDbLine
 62
7
  6
CONTINUOUS
 10
4.9874931319
 20
5.9395686813
 11
5.099290943
 21
5.9395686813
  0
LINE
  5
266
100
AcDbEntity
  8
0
100
AcDbLine
 62
7
  6
CONTINUOUS
 10
6.118559149
 20
5.9445686813
 11
6.5824931319
 21
5.9445686813
  0
LINE
  5
267
100
AcDbEntity
  8
0
100
AcDbLine
 62
7
  6
CONTINUOUS
 10
6.118559149
 20
5.9509100896
 11
6.5824931319
 21
5.9509100896
  0
LINE
  5
268
100
AcDbEntity
  8
0
100
AcDbLine
 62
7
  6
CONTINUOUS
 10
5.1663877071
 20
5.9720686813
 11
5.3314931319
 21
5.9720686813
  0
LINE
  5
269
100
AcDbEntity
  8
0
100
AcDbLine
 62
7
  6
CONTINUOUS
 10
5.1395728581
 20
5.9860571092
 11
5.1112279806
 21
5.9860571092
  0
LINE
  5
26A
100
AcDbEntity
  8
0
100
AcDbLine
 62
7
  6
CONTINUOUS
 10
5.1258781846
 20
5.9957127677
 11
5.1617607945
 21
5.9957127677
  0
LINE
  5
26B
100
AcDbEntity
  8
0
100
AcDbLine
 62
7
  6
CONTINUOUS
 10
6.118559149
 20
6.022277865
 11
6.5824931319
 21
6.022277865
  0
LINE
  5
26C
100
AcDbEntity
  8
0
100
AcDbLine
 62
7
  6
CONTINUOUS
 10
4.6009131347
 20
5.9911486785
 11
4.9254921281
 21
5.9810334305
  0
LINE
  5
26D
100
AcDbEntity
  8
0
100
AcDbLine
 62
7
  6
CONTINUOUS
 10
6.1079525473
 20
2.423675283
 11
6.0964893439
 21
2.4122120796
  0
LINE
  5
26E
100
AcDbEntity
  8
0
100
AcDbLine
 62
7
  6
CONTINUOUS
 10
6.118559149
 20
6.1182009059
 11
6.5824931319
 21
6.1182009059
  0
LINE
  5
26F
100
AcDbEntity
  8
0
100
AcDbLine
 62
7
  6
CONTINUOUS
 10
6.118559149
 20
6.2609364568
 11
6.5824931319
 21
6.2609364568
  0
LINE
  5
270
100
AcDbEntity
  8
0
100
AcDbLine
 62
7
  6
CONTINUOUS
 10
6.1079525473
 20
6.4389620796
 11
6.0964893439
 21
6.450425283
  0
LINE
  5
271
100
AcDbEntity
  8
0
100
AcDbLine
 62
7
  6
CONTINUOUS
 10
4.6009131347
 20
6.3879886842
 11
4.9254931319
 21
6.3981039634
  0
LINE
  5
272
100
AcDbEntity
  8
0
100
AcDbLine
 62
7
  6
CONTINUOUS
 10
6.118559149
 20
6.3568594976
 11
6.5824931319
 21
6.3568594976
  0
LINE
  5
273
100
AcDbEntity
  8
0
100
AcDbLine
 62
7
  6
CONTINUOUS
 10
5.1617607945
 20
6.3834245949
 11
5.1258781846
 21
6.3834245949
  0
LINE
  5
274
100
AcDbEntity
  8
0
100
AcDbLine
 62
7
  6
CONTINUOUS
 10
5.1395728573
 20
6.3930802535
 11
5.1112290864
 21
6.3930802535
  0
LINE
  5
275
100
AcDbEntity
  8
0
100
AcDbLine
 62
7
  6
CONTINUOUS
 10
5.1663877072
 20
6.4070686813
 11
5.3314931319
 21
6.4070686813
  0
LINE
  5
276
100
AcDbEntity
  8
0
100
AcDbLine
 62
7
  6
CONTINUOUS
 10
6.118559149
 20
6.4282272731
 11
6.5824931319
 21
6.4282272731
  0
LINE
  5
277
100
AcDbEntity
  8
0
100
AcDbLine
 62
7
  6
CONTINUOUS
 10
6.118559149
 20
6.4345686813
 11
6.5824931319
 21
6.4345686813
  0
LINE
  5
278
100
AcDbEntity
  8
0
100
AcDbLine
 62
7
  6
CONTINUOUS
 10
4.9874931319
 20
6.4395686813
 11
5.0992909416
 21
6.4395686813
  0
LINE
  5
279
100
AcDbEntity
  8
0
100
AcDbLine
 62
7
  6
CONTINUOUS
 10
5.4649931319
 20
6.4398186813
 11
5.4849931319
 21
6.4398186813
  0
LINE
  5
27A
100
AcDbEntity
  8
0
100
AcDbLine
 62
7
  6
CONTINUOUS
 10
5.7949931319
 20
6.4398186813
 11
5.8149931319
 21
6.4398186813
  0
LINE
  5
27B
100
AcDbEntity
  8
0
100
AcDbLine
 62
7
  6
CONTINUOUS
 10
6.0858827422
 20
6.4548186813
 11
5.8149931319
 21
6.4548186813
  0
LINE
  5
27C
100
AcDbEntity
  8
0
100
AcDbLine
 62
7
  6
CONTINUOUS
 10
5.7949931319
 20
6.4548186813
 11
5.4849931319
 21
6.4548186813
  0
LINE
  5
27D
100
AcDbEntity
  8
0
100
AcDbLine
 62
7
  6
CONTINUOUS
 10
5.4649931319
 20
6.4548186813
 11
5.3464931319
 21
6.4548186813
  0
LINE
  5
27E
100
AcDbEntity
  8
0
100
AcDbLine
 62
7
  6
CONTINUOUS
 10
4.9724931319
 20
6.6813186813
 11
4.9254931319
 21
6.6813186813
  0
ARC
  5
27F
100
AcDbEntity
  8
0
100
AcDbCircle
 62
7
  6
CONTINUOUS
 10
4.9874931319
 20
5.9545686813
 40
0.015
100
AcDbArc
 50
180.0
 51
270.0
  0
ARC
  5
280
100
AcDbEntity
  8
0
100
AcDbCircle
 62
7
  6
CONTINUOUS
 10
4.9874931319
 20
6.4245686813
 40
0.015
100
AcDbArc
 50
90.0
 51
180.0
  0
ARC
  5
281
100
AcDbEntity
  8
0
100
AcDbCircle
 62
7
  6
CONTINUOUS
 10
4.9874931319
 20
2.4380686813
 40
0.015
100
AcDbArc
 50
180.0
 51
270.0
  0
ARC
  5
282
100
AcDbEntity
  8
0
100
AcDbCircle
 62
7
  6
CONTINUOUS
 10
4.9874931319
 20
2.9080686813
 40
0.015
100
AcDbArc
 50
90.0
 51
180.0
  0
ARC
  5
283
100
AcDbEntity
  8
0
100
AcDbCircle
 62
7
  6
CONTINUOUS
 10
6.118559149
 20
2.4130686813
 40
0.015
100
AcDbArc
 50
90.0
 51
135.0000000012
  0
ARC
  5
284
100
AcDbEntity
  8
0
100
AcDbCircle
 62
7
  6
CONTINUOUS
 10
6.118559149
 20
2.9330686813
 40
0.015
100
AcDbArc
 50
224.9999999988
 51
270.0
  0
ARC
  5
285
100
AcDbEntity
  8
0
100
AcDbCircle
 62
7
  6
CONTINUOUS
 10
6.0858827422
 20
2.9233186813
 40
0.015
100
AcDbArc
 50
44.9999999993
 51
90.0
  0
ARC
  5
286
100
AcDbEntity
  8
0
100
AcDbCircle
 62
7
  6
CONTINUOUS
 10
6.0858827422
 20
2.4228186813
 40
0.015
100
AcDbArc
 50
270.0
 51
315.0000000007
  0
ARC
  5
287
100
AcDbEntity
  8
0
100
AcDbCircle
 62
7
  6
CONTINUOUS
 10
6.5824931319
 20
2.9030686813
 40
0.015
100
AcDbArc
 50
0.0
 51
90.0
  0
ARC
  5
288
100
AcDbEntity
  8
0
100
AcDbCircle
 62
7
  6
CONTINUOUS
 10
6.5824931319
 20
2.4430686813
 40
0.015
100
AcDbArc
 50
270.0
 51
360.0
  0
ARC
  5
289
100
AcDbEntity
  8
0
100
AcDbCircle
 62
7
  6
CONTINUOUS
 10
5.3464931319
 20
2.9233186813
 40
0.015
100
AcDbArc
 50
90.0
 51
180.0
  0
ARC
  5
28A
100
AcDbEntity
  8
0
100
AcDbCircle
 62
7
  6
CONTINUOUS
 10
5.3464931319
 20
2.4228186813
 40
0.015
100
AcDbArc
 50
180.0
 51
270.0
  0
ARC
  5
28B
100
AcDbEntity
  8
0
100
AcDbCircle
 62
7
  6
CONTINUOUS
 10
6.118559149
 20
5.9295686813
 40
0.015
100
AcDbArc
 50
90.0
 51
135.0000000012
  0
ARC
  5
28C
100
AcDbEntity
  8
0
100
AcDbCircle
 62
7
  6
CONTINUOUS
 10
6.118559149
 20
6.4495686813
 40
0.015
100
AcDbArc
 50
224.9999999988
 51
270.0
  0
ARC
  5
28D
100
AcDbEntity
  8
0
100
AcDbCircle
 62
7
  6
CONTINUOUS
 10
6.0858827422
 20
6.4398186813
 40
0.015
100
AcDbArc
 50
44.9999999993
 51
90.0
  0
ARC
  5
28E
100
AcDbEntity
  8
0
100
AcDbCircle
 62
7
  6
CONTINUOUS
 10
6.0858827422
 20
5.9393186813
 40
0.015
100
AcDbArc
 50
270.0
 51
315.0000000007
  0
ARC
  5
28F
100
AcDbEntity
  8
0
100
AcDbCircle
 62
7
  6
CONTINUOUS
 10
6.5824931319
 20
6.4195686813
 40
0.015
100
AcDbArc
 50
0.0
 51
90.0
  0
ARC
  5
290
100
AcDbEntity
  8
0
100
AcDbCircle
 62
7
  6
CONTINUOUS
 10
6.5824931319
 20
5.9595686813
 40
0.015
100
AcDbArc
 50
270.0
 51
360.0
  0
ARC
  5
291
100
AcDbEntity
  8
0
100
AcDbCircle
 62
7
  6
CONTINUOUS
 10
5.3464931319
 20
6.4398186813
 40
0.015
100
AcDbArc
 50
90.0
 51
180.0
  0
ARC
  5
292
100
AcDbEntity
  8
0
100
AcDbCircle
 62
7
  6
CONTINUOUS
 10
5.3464931319
 20
5.9393186813
 40
0.015
100
AcDbArc
 50
180.0
 51
270.0
  0
SPLINE
  5
293
100
AcDbEntity
  8
0
100
AcDbSpline
 62
7
  6
CONTINUOUS
 70
0
 71
3
 72
9
 73
5
 74
0
 42
0.0000001
 43
0.0000001
 44
0.0000000001
 40
0.0
 40
0.0
 40
0.0
 40
0.0
 40
0.4915905205
 40
1.0
 40
1.0
 40
1.0
 40
1.0
 10
5.1258781846
 20
6.3834245949
 30
0.0
 10
5.1240303563
 20
6.3829507213
 30
0.0
 10
5.120341165
 20
6.3816980907
 30
0.0
 10
5.116864148
 20
6.3799460356
 30
0.0
 10
5.1151632113
 20
6.3789464826
 30
0.0
  0
LINE
  5
294
100
AcDbEntity
  8
0
100
AcDbLine
 62
7
  6
CONTINUOUS
 10
5.1112274421
 20
6.3930806502
 11
5.1151632347
 21
6.3789464963
  0
SPLINE
  5
295
100
AcDbEntity
  8
0
100
AcDbSpline
 62
7
  6
CONTINUOUS
 70
0
 71
3
 72
12
 73
8
 74
0
 42
0.0000001
 43
0.0000001
 44
0.0000000001
 40
0.0
 40
0.0
 40
0.0
 40
0.0
 40
0.2328469094
 40
0.4764156287
 40
0.7316595357
 40
0.8640867334
 40
1.0
 40
1.0
 40
1.0
 40
1.0
 10
5.1284113867
 20
6.4039585653
 30
0.0
 10
5.1292083511
 20
6.403046415
 30
0.0
 10
5.1308662604
 20
6.4012036583
 30
0.0
 10
5.1335101155
 20
6.3984645151
 30
0.0
 10
5.1358920872
 20
6.3962020716
 30
0.0
 10
5.1379412446
 20
6.3944073306
 30
0.0
 10
5.1390192732
 20
6.393520051
 30
0.0
 10
5.1395728573
 20
6.3930802535
 30
0.0
  0
SPLINE
  5
296
100
AcDbEntity
  8
0
100
AcDbSpline
 62
7
  6
CONTINUOUS
 70
0
 71
3
 72
11
 73
7
 74
0
 42
0.0000001
 43
0.0000001
 44
0.0000000001
 40
0.0
 40
0.0
 40
0.0
 40
0.0
 40
0.2741982109
 40
0.5308285376
 40
0.7723160727
 40
1.0
 40
1.0
 40
1.0
 40
1.0
 10
5.151260415
 20
6.3964449871
 30
0.0
 10
5.1507250895
 20
6.3971093219
 30
0.0
 10
5.149731342
 20
6.3984300959
 30
0.0
 10
5.1483834597
 20
6.4004202951
 30
0.0
 10
5.1471836491
 20
6.4023339925
 30
0.0
 10
5.1464408735
 20
6.4035909061
 30
0.0
 10
5.1460865819
 20
6.4042044008
 30
0.0
  0
LINE
  5
297
100
AcDbEntity
  8
0
100
AcDbLine
 62
7
  6
CONTINUOUS
 10
5.1112274421
 20
2.8765806502
 11
5.1151632347
 21
2.8624464963
  0
SPLINE
  5
298
100
AcDbEntity
  8
0
100
AcDbSpline
 62
7
  6
CONTINUOUS
 70
0
 71
3
 72
23
 73
19
 74
0
 42
0.0000001
 43
0.0000001
 44
0.0000000001
 40
0.0
 40
0.0
 40
0.0
 40
0.0
 40
0.0974416479
 40
0.1899055178
 40
0.2775056604
 40
0.3603356932
 40
0.4384769505
 40
0.5119824009
 40
0.5808942249
 40
0.6452469226
 40
0.7050711349
 40
0.7603964936
 40
0.811251323
 40
0.8576693563
 40
0.8996905344
 40
0.937367527
 40
0.9707706863
 40
1.0
 40
1.0
 40
1.0
 40
1.0
 10
5.1460865819
 20
6.4042044008
 30
0.0
 10
5.1457895583
 20
6.4047188941
 30
0.0
 10
5.1452187211
 20
6.4057262548
 30
0.0
 10
5.1444040974
 20
6.4072091395
 30
0.0
 10
5.1436454568
 20
6.4086210435
 30
0.0
 10
5.1429371506
 20
6.4099608136
 30
0.0
 10
5.1422735089
 20
6.4112269791
 30
0.0
 10
5.1416507013
 20
6.4124187398
 30
0.0
 10
5.1410651452
 20
6.4135351157
 30
0.0
 10
5.1405140208
 20
6.4145753565
 30
0.0
 10
5.1399949309
 20
6.4155388074
 30
0.0
 10
5.1395056831
 20
6.4164248104
 30
0.0
 10
5.1390446092
 20
6.4172329181
 30
0.0
 10
5.1386100049
 20
6.4179625996
 30
0.0
 10
5.1382005894
 20
6.4186135415
 30
0.0
 10
5.1378150326
 20
6.41918542
 30
0.0
 10
5.1374522725
 20
6.4196780106
 30
0.0
 10
5.1372090294
 20
6.4199727982
 30
0.0
 10
5.1370901703
 20
6.4201055723
 30
0.0
  0
SPLINE
  5
299
100
AcDbEntity
  8
0
100
AcDbSpline
 62
7
  6
CONTINUOUS
 70
0
 71
3
 72
11
 73
7
 74
0
 42
0.0000001
 43
0.0000001
 44
0.0000000001
 40
0.0
 40
0.0
 40
0.0
 40
0.0
 40
0.2522632757
 40
0.5031625964
 40
0.7524913548
 40
1.0
 40
1.0
 40
1.0
 40
1.0
 10
5.1395728573
 20
6.3930802535
 30
0.0
 10
5.1413895084
 20
6.3921616224
 30
0.0
 10
5.1450426167
 20
6.3903873737
 30
0.0
 10
5.1505815988
 20
6.3878966938
 30
0.0
 10
5.1561510309
 20
6.3855729911
 30
0.0
 10
5.1598898428
 20
6.3841238095
 30
0.0
 10
5.1617607945
 20
6.3834245949
 30
0.0
  0
SPLINE
  5
29A
100
AcDbEntity
  8
0
100
AcDbSpline
 62
7
  6
CONTINUOUS
 70
0
 71
3
 72
11
 73
7
 74
0
 42
0.0000001
 43
0.0000001
 44
0.0000000001
 40
0.0
 40
0.0
 40
0.0
 40
0.0
 40
0.2317585207
 40
0.4754564416
 40
0.7315555599
 40
1.0
 40
1.0
 40
1.0
 40
1.0
 10
5.151260415
 20
6.3964449871
 30
0.0
 10
5.1503158257
 20
6.3963958305
 30
0.0
 10
5.148382973
 20
6.396169879
 30
0.0
 10
5.1454707546
 20
6.3954873279
 30
0.0
 10
5.1425029238
 20
6.3944608958
 30
0.0
 10
5.1405506902
 20
6.3935743845
 30
0.0
 10
5.1395728573
 20
6.3930802535
 30
0.0
  0
LINE
  5
29B
100
AcDbEntity
  8
0
100
AcDbLine
 62
7
  6
CONTINUOUS
 10
5.1617607945
 20
6.3834245949
 11
5.151260415
 21
6.3964449871
  0
SPLINE
  5
29C
100
AcDbEntity
  8
0
100
AcDbSpline
 62
7
  6
CONTINUOUS
 70
0
 71
3
 72
12
 73
8
 74
0
 42
0.0000001
 43
0.0000001
 44
0.0000000001
 40
0.0
 40
0.0
 40
0.0
 40
0.0
 40
0.1359118038
 40
0.2683381899
 40
0.5235826749
 40
0.7671525887
 40
1.0
 40
1.0
 40
1.0
 40
1.0
 10
5.1395728581
 20
5.9860571092
 30
0.0
 10
5.1390192923
 20
5.9856173015
 30
0.0
 10
5.1379412885
 20
5.9847300114
 30
0.0
 10
5.1358921611
 20
5.9829352515
 30
0.0
 10
5.1335101712
 20
5.9806728237
 30
0.0
 10
5.1308662715
 20
5.9779337083
 30
0.0
 10
5.129208364
 20
5.9760909394
 30
0.0
 10
5.1284113867
 20
5.9751787976
 30
0.0
  0
SPLINE
  5
29D
100
AcDbEntity
  8
0
100
AcDbSpline
 62
7
  6
CONTINUOUS
 70
0
 71
3
 72
11
 73
7
 74
0
 42
0.0000001
 43
0.0000001
 44
0.0000000001
 40
0.0
 40
0.0
 40
0.0
 40
0.0
 40
0.2317585281
 40
0.475456451
 40
0.7315555666
 40
1.0
 40
1.0
 40
1.0
 40
1.0
 10
5.1512604154
 20
5.9826923757
 30
0.0
 10
5.1503158261
 20
5.9827415323
 30
0.0
 10
5.1483829734
 20
5.9829674837
 30
0.0
 10
5.1454707551
 20
5.9836500347
 30
0.0
 10
5.1425029244
 20
5.9846764668
 30
0.0
 10
5.140550691
 20
5.9855629782
 30
0.0
 10
5.1395728581
 20
5.9860571092
 30
0.0
  0
SPLINE
  5
29E
100
AcDbEntity
  8
0
100
AcDbSpline
 62
7
  6
CONTINUOUS
 70
0
 71
3
 72
11
 73
7
 74
0
 42
0.0000001
 43
0.0000001
 44
0.0000000001
 40
0.0
 40
0.0
 40
0.0
 40
0.0
 40
0.2276806885
 40
0.4691677442
 40
0.7258063421
 40
1.0
 40
1.0
 40
1.0
 40
1.0
 10
5.1460865817
 20
5.9749329631
 30
0.0
 10
5.1464408432
 20
5.9755464636
 30
0.0
 10
5.1471836323
 20
5.9768033551
 30
0.0
 10
5.1483833859
 20
5.9787171079
 30
0.0
 10
5.1497314394
 20
5.9807071979
 30
0.0
 10
5.1507250381
 20
5.9820281008
 30
0.0
 10
5.1512604154
 20
5.9826923757
 30
0.0
  0
SPLINE
  5
29F
100
AcDbEntity
  8
0
100
AcDbSpline
 62
7
  6
CONTINUOUS
 70
0
 71
3
 72
11
 73
7
 74
0
 42
0.0000001
 43
0.0000001
 44
0.0000000001
 40
0.0
 40
0.0
 40
0.0
 40
0.0
 40
0.2475086256
 40
0.4968369899
 40
0.7477364738
 40
1.0
 40
1.0
 40
1.0
 40
1.0
 10
5.1617607945
 20
5.9957127677
 30
0.0
 10
5.1598898411
 20
5.9950135585
 30
0.0
 10
5.1561510328
 20
5.9935643769
 30
0.0
 10
5.1505816124
 20
5.9912406524
 30
0.0
 10
5.1450426288
 20
5.9887499778
 30
0.0
 10
5.1413895051
 20
5.9869757527
 30
0.0
 10
5.1395728581
 20
5.9860571092
 30
0.0
  0
LINE
  5
2A0
100
AcDbEntity
  8
0
100
AcDbLine
 62
7
  6
CONTINUOUS
 10
5.1512604154
 20
5.9826923757
 11
5.1617607945
 21
5.9957127677
  0
SPLINE
  5
2A1
100
AcDbEntity
  8
0
100
AcDbSpline
 62
7
  6
CONTINUOUS
 70
0
 71
3
 72
11
 73
7
 74
0
 42
0.0000001
 43
0.0000001
 44
0.0000000001
 40
0.0
 40
0.0
 40
0.0
 40
0.0
 40
0.2328499326
 40
0.4764283678
 40
0.7316809663
 40
1.0
 40
1.0
 40
1.0
 40
1.0
 10
5.1284113867
 20
2.8874585653
 30
0.0
 10
5.1292083358
 20
2.8865464325
 30
0.0
 10
5.1308662038
 20
2.8847036875
 30
0.0
 10
5.1335101127
 20
2.8819644594
 30
0.0
 10
5.1364047374
 20
2.8792154757
 30
0.0
 10
5.1384800105
 20
2.8774484708
 30
0.0
 10
5.1395728573
 20
2.8765802535
 30
0.0
  0
SPLINE
  5
2A2
100
AcDbEntity
  8
0
100
AcDbSpline
 62
7
  6
CONTINUOUS
 70
0
 71
3
 72
15
 73
11
 74
0
 42
0.0000001
 43
0.0000001
 44
0.0000000001
 40
0.0
 40
0.0
 40
0.0
 40
0.0
 40
0.1394877852
 40
0.2742027599
 40
0.4045560953
 40
0.5308637512
 40
0.6533839418
 40
0.7723318534
 40
0.8878364484
 40
1.0
 40
1.0
 40
1.0
 40
1.0
 10
5.151260415
 20
2.8799449871
 30
0.0
 10
5.1509880737
 20
2.8802829606
 30
0.0
 10
5.150463766
 20
2.8809563266
 30
0.0
 10
5.1497202839
 20
2.8819723613
 30
0.0
 10
5.14902531
 20
2.8829725723
 30
0.0
 10
5.1483724284
 20
2.883955473
 30
0.0
 10
5.1477566682
 20
2.8849201683
 30
0.0
 10
5.1471729503
 20
2.8858652722
 30
0.0
 10
5.1466183808
 20
2.8867903797
 30
0.0
 10
5.1462611256
 20
2.8874021592
 30
0.0
 10
5.1460865819
 20
2.8877044008
 30
0.0
  0
SPLINE
  5
2A3
100
AcDbEntity
  8
0
100
AcDbSpline
 62
7
  6
CONTINUOUS
 70
0
 71
3
 72
46
 73
42
 74
0
 42
0.0000001
 43
0.0000001
 44
0.0000000001
 40
0.0
 40
0.0
 40
0.0
 40
0.0
 40
0.0763926591
 40
0.1524180141
 40
0.2277124156
 40
0.30191403
 40
0.3384936269
 40
0.3746671359
 40
0.4103912618
 40
0.4456232696
 40
0.4803211511
 40
0.5144436617
 40
0.5479504238
 40
0.5808021381
 40
0.612960671
 40
0.6443893133
 40
0.6750531296
 40
0.7049192532
 40
0.7339574735
 40
0.7621410928
 40
0.7894479415
 40
0.8027675548
 40
0.8158626377
 40
0.8287326267
 40
0.841377606
 40
0.8659970725
 40
0.8779786462
 40
0.8897478097
 40
0.9013123216
 40
0.9126825593
 40
0.9238731877
 40
0.9349031924
 40
0.9457985739
 40
0.9512064427
 40
0.9565942822
 40
0.9673350294
 40
0.9780840534
 40
0.9834892932
 40
0.988932141
 40
0.9944291956
 40
1.0
 40
1.0
 40
1.0
 40
1.0
 10
5.1442842742
 20
2.6730686813
 30
0.0
 10
5.1442842661
 20
2.6680492847
 30
0.0
 10
5.1442783134
 20
2.6580346241
 30
0.0
 10
5.1442494039
 20
2.6430727514
 30
0.0
 10
5.1441944295
 20
2.6282549122
 30
0.0
 10
5.1441179841
 20
2.6160289892
 30
0.0
 10
5.1440307458
 20
2.6063736844
 30
0.0
 10
5.1439504295
 20
2.5992466093
 30
0.0
 10
5.1438523503
 20
2.5922083058
 30
0.0
 10
5.1437336596
 20
2.5852672864
 30
0.0
 10
5.1435911212
 20
2.5784319675
 30
0.0
 10
5.1434210999
 20
2.5717106632
 30
0.0
 10
5.1432195507
 20
2.5651115794
 30
0.0
 10
5.1429820418
 20
2.5586428082
 30
0.0
 10
5.1427036368
 20
2.5523123237
 30
0.0
 10
5.1423788051
 20
2.5461279785
 30
0.0
 10
5.1420011474
 20
2.5400975131
 30
0.0
 10
5.1415635935
 20
2.5342285453
 30
0.0
 10
5.1410583916
 20
2.5285285312
 30
0.0
 10
5.1404760527
 20
2.5230048814
 30
0.0
 10
5.1399129233
 20
2.5185185009
 30
0.0
 10
5.1394103005
 20
2.5150245985
 30
0.0
 10
5.1390093547
 20
2.51247464
 30
0.0
 10
5.1385791712
 20
2.5099743851
 30
0.0
 10
5.1379694031
 20
2.5067371403
 30
0.0
 10
5.1372880069
 20
2.503572977
 30
0.0
 10
5.1365187639
 20
2.5004890575
 30
0.0
 10
5.1359034526
 20
2.4982514677
 30
0.0
 10
5.135240329
 20
2.4960694831
 30
0.0
 10
5.1345250892
 20
2.4939440148
 30
0.0
 10
5.133751312
 20
2.4918765076
 30
0.0
 10
5.1329129356
 20
2.4898680187
 30
0.0
 10
5.132151274
 20
2.4882408504
 30
0.0
 10
5.131501155
 20
2.4869723989
 30
0.0
 10
5.1308240636
 20
2.4857296961
 30
0.0
 10
5.1299162147
 20
2.4842137638
 30
0.0
 10
5.128916816
 20
2.4827546911
 30
0.0
 10
5.1280543961
 20
2.4816274458
 30
0.0
 10
5.1273706031
 20
2.4807989499
 30
0.0
 10
5.1266471311
 20
2.4799901906
 30
0.0
 10
5.1261394119
 20
2.4794691637
 30
0.0
 10
5.1258781846
 20
2.4792127677
 30
0.0
  0
SPLINE
  5
2A4
100
AcDbEntity
  8
0
100
AcDbSpline
 62
7
  6
CONTINUOUS
 70
0
 71
3
 72
22
 73
18
 74
0
 42
0.0000001
 43
0.0000001
 44
0.0000000001
 40
0.0
 40
0.0
 40
0.0
 40
0.0
 40
0.0974398874
 40
0.1899036397
 40
0.3603375478
 40
0.4384750759
 40
0.5119810933
 40
0.5808934918
 40
0.645246956
 40
0.7050717535
 40
0.760395973
 40
0.8112512743
 40
0.8576699028
 40
0.89969152
 40
0.9373685225
 40
0.9707710411
 40
1.0
 40
1.0
 40
1.0
 40
1.0
 10
5.1460865819
 20
2.8877044008
 30
0.0
 10
5.145789564
 20
2.8882188842
 30
0.0
 10
5.1452186629
 20
2.8892261941
 30
0.0
 10
5.1441609076
 20
2.8911517126
 30
0.0
 10
5.1431848304
 20
2.892987646
 30
0.0
 10
5.1422736259
 20
2.8947270384
 30
0.0
 10
5.1416506518
 20
2.895918694
 30
0.0
 10
5.1410651574
 20
2.8970351135
 30
0.0
 10
5.1405140399
 20
2.8980753705
 30
0.0
 10
5.1399948711
 20
2.8990387786
 30
0.0
 10
5.1395057251
 20
2.8999248363
 30
0.0
 10
5.1390445825
 20
2.9007329035
 30
0.0
 10
5.1386099979
 20
2.9014626058
 30
0.0
 10
5.1382005832
 20
2.9021135555
 30
0.0
 10
5.1378150097
 20
2.9026854201
 30
0.0
 10
5.1374522706
 20
2.9031780178
 30
0.0
 10
5.1372090297
 20
2.9034727991
 30
0.0
 10
5.1370901709
 20
2.9036055704
 30
0.0
  0
SPLINE
  5
2A5
100
AcDbEntity
  8
0
100
AcDbSpline
 62
7
  6
CONTINUOUS
 70
0
 71
3
 72
11
 73
7
 74
0
 42
0.0000001
 43
0.0000001
 44
0.0000000001
 40
0.0
 40
0.0
 40
0.0
 40
0.0
 40
0.2522632757
 40
0.5031625964
 40
0.7524913548
 40
1.0
 40
1.0
 40
1.0
 40
1.0
 10
5.1395728573
 20
2.8765802535
 30
0.0
 10
5.1413895084
 20
2.8756616224
 30
0.0
 10
5.1450426167
 20
2.8738873737
 30
0.0
 10
5.1505815988
 20
2.8713966938
 30
0.0
 10
5.1561510309
 20
2.8690729911
 30
0.0
 10
5.1598898428
 20
2.8676238095
 30
0.0
 10
5.1617607945
 20
2.8669245949
 30
0.0
  0
SPLINE
  5
2A6
100
AcDbEntity
  8
0
100
AcDbSpline
 62
7
  6
CONTINUOUS
 70
0
 71
3
 72
11
 73
7
 74
0
 42
0.0000001
 43
0.0000001
 44
0.0000000001
 40
0.0
 40
0.0
 40
0.0
 40
0.0
 40
0.2317592036
 40
0.4754566907
 40
0.7315547085
 40
1.0
 40
1.0
 40
1.0
 40
1.0
 10
5.151260415
 20
2.8799449871
 30
0.0
 10
5.150315823
 20
2.8798958303
 30
0.0
 10
5.1483829682
 20
2.8796698838
 30
0.0
 10
5.1454707577
 20
2.8789873157
 30
0.0
 10
5.1425029241
 20
2.8779609021
 30
0.0
 10
5.1405506933
 20
2.877074386
 30
0.0
 10
5.1395728573
 20
2.8765802535
 30
0.0
  0
LINE
  5
2A7
100
AcDbEntity
  8
0
100
AcDbLine
 62
7
  6
CONTINUOUS
 10
5.1617607945
 20
2.8669245949
 11
5.151260415
 21
2.8799449871
  0
SPLINE
  5
2A8
100
AcDbEntity
  8
0
100
AcDbSpline
 62
7
  6
CONTINUOUS
 70
0
 71
3
 72
11
 73
7
 74
0
 42
0.0000001
 43
0.0000001
 44
0.0000000001
 40
0.0
 40
0.0
 40
0.0
 40
0.0
 40
0.2683205217
 40
0.5235727548
 40
0.7671497393
 40
1.0
 40
1.0
 40
1.0
 40
1.0
 10
5.1395728581
 20
2.4695571092
 30
0.0
 10
5.1384800288
 20
2.468688857
 30
0.0
 10
5.1364046755
 20
2.4669219394
 30
0.0
 10
5.1335100813
 20
2.4641729188
 30
0.0
 10
5.1308662168
 20
2.4614336591
 30
0.0
 10
5.1292083487
 20
2.4595909219
 30
0.0
 10
5.1284113867
 20
2.4586787976
 30
0.0
  0
SPLINE
  5
2A9
100
AcDbEntity
  8
0
100
AcDbSpline
 62
7
  6
CONTINUOUS
 70
0
 71
3
 72
11
 73
7
 74
0
 42
0.0000001
 43
0.0000001
 44
0.0000000001
 40
0.0
 40
0.0
 40
0.0
 40
0.0
 40
0.231759211
 40
0.4754567001
 40
0.7315547151
 40
1.0
 40
1.0
 40
1.0
 40
1.0
 10
5.1512604154
 20
2.4661923757
 30
0.0
 10
5.1503158233
 20
2.4662415324
 30
0.0
 10
5.1483829686
 20
2.466467479
 30
0.0
 10
5.1454707582
 20
2.467150047
 30
0.0
 10
5.1425029247
 20
2.4681764605
 30
0.0
 10
5.1405506941
 20
2.4690629766
 30
0.0
 10
5.1395728581
 20
2.4695571092
 30
0.0
  0
SPLINE
  5
2AA
100
AcDbEntity
  8
0
100
AcDbSpline
 62
7
  6
CONTINUOUS
 70
0
 71
3
 72
15
 73
11
 74
0
 42
0.0000001
 43
0.0000001
 44
0.0000000001
 40
0.0
 40
0.0
 40
0.0
 40
0.0
 40
0.1121612145
 40
0.2276677001
 40
0.3466177105
 40
0.4691370486
 40
0.5954415495
 40
0.7257910701
 40
0.8605047998
 40
1.0
 40
1.0
 40
1.0
 40
1.0
 10
5.1460865817
 20
2.4584329631
 30
0.0
 10
5.1462611095
 20
2.4587352057
 30
0.0
 10
5.1466183564
 20
2.4593469889
 30
0.0
 10
5.1471729418
 20
2.4602720932
 30
0.0
 10
5.1477566802
 20
2.4612171962
 30
0.0
 10
5.1483724347
 20
2.4621818884
 30
0.0
 10
5.1490252878
 20
2.4631647791
 30
0.0
 10
5.1497202179
 20
2.4641649897
 30
0.0
 10
5.1504636808
 20
2.4651810484
 30
0.0
 10
5.1509880286
 20
2.465854409
 30
0.0
 10
5.1512604154
 20
2.4661923757
 30
0.0
  0
SPLINE
  5
2AB
100
AcDbEntity
  8
0
100
AcDbSpline
 62
7
  6
CONTINUOUS
 70
0
 71
3
 72
9
 73
5
 74
0
 42
0.0000001
 43
0.0000001
 44
0.0000000001
 40
0.0
 40
0.0
 40
0.0
 40
0.0
 40
0.5069765023
 40
1.0
 40
1.0
 40
1.0
 40
1.0
 10
5.1044482296
 20
6.3796991622
 30
0.0
 10
5.106236851
 20
6.3793729941
 30
0.0
 10
5.1098019564
 20
6.3789167953
 30
0.0
 10
5.1133970383
 20
6.3788643955
 30
0.0
 10
5.1151632113
 20
6.3789464826
 30
0.0
  0
SPLINE
  5
2AC
100
AcDbEntity
  8
0
100
AcDbSpline
 62
7
  6
CONTINUOUS
 70
0
 71
3
 72
9
 73
5
 74
0
 42
0.0000001
 43
0.0000001
 44
0.0000000001
 40
0.0
 40
0.0
 40
0.0
 40
0.0
 40
0.5069765738
 40
1.0
 40
1.0
 40
1.0
 40
1.0
 10
5.1044482254
 20
5.9994382088
 30
0.0
 10
5.1062368534
 20
5.9997643782
 30
0.0
 10
5.1098019692
 20
6.0002206024
 30
0.0
 10
5.1133970634
 20
6.0002729843
 30
0.0
 10
5.115163243
 20
6.0001909121
 30
0.0
  0
SPLINE
  5
2AD
100
AcDbEntity
  8
0
100
AcDbSpline
 62
7
  6
CONTINUOUS
 70
0
 71
3
 72
11
 73
7
 74
0
 42
0.0000001
 43
0.0000001
 44
0.0000000001
 40
0.0
 40
0.0
 40
0.0
 40
0.0
 40
0.2475086256
 40
0.4968369899
 40
0.7477364738
 40
1.0
 40
1.0
 40
1.0
 40
1.0
 10
5.1617607945
 20
2.4792127677
 30
0.0
 10
5.1598898411
 20
2.4785135585
 30
0.0
 10
5.1561510328
 20
2.4770643769
 30
0.0
 10
5.1505816124
 20
2.4747406524
 30
0.0
 10
5.1450426288
 20
2.4722499778
 30
0.0
 10
5.1413895051
 20
2.4704757527
 30
0.0
 10
5.1395728581
 20
2.4695571092
 30
0.0
  0
LINE
  5
2AE
100
AcDbEntity
  8
0
100
AcDbLine
 62
7
  6
CONTINUOUS
 10
5.1512604154
 20
2.4661923757
 11
5.1617607945
 21
2.4792127677
  0
SPLINE
  5
2AF
100
AcDbEntity
  8
0
100
AcDbSpline
 62
7
  6
CONTINUOUS
 70
0
 71
3
 72
22
 73
18
 74
0
 42
0.0000001
 43
0.0000001
 44
0.0000000001
 40
0.0
 40
0.0
 40
0.0
 40
0.0
 40
0.0292291444
 40
0.0626318812
 40
0.1003090329
 40
0.1423306524
 40
0.1887491881
 40
0.2396043982
 40
0.2949285914
 40
0.3547533264
 40
0.4191065618
 40
0.4880186649
 40
0.5615246114
 40
0.6396624811
 40
0.8100942534
 40
0.9025558179
 40
1.0
 40
1.0
 40
1.0
 40
1.0
 10
5.1370901966
 20
2.4425318176
 30
0.0
 10
5.1372090551
 20
2.4426645902
 30
0.0
 10
5.1374522956
 20
2.4429593742
 30
0.0
 10
5.1378150347
 20
2.4434519747
 30
0.0
 10
5.1382006069
 20
2.4440238413
 30
0.0
 10
5.138610017
 20
2.4446747927
 30
0.0
 10
5.1390445963
 20
2.445404495
 30
0.0
 10
5.1395057349
 20
2.4462125611
 30
0.0
 10
5.1399948813
 20
2.4470986151
 30
0.0
 10
5.1405140508
 20
2.4480620183
 30
0.0
 10
5.1410651626
 20
2.4491022719
 30
0.0
 10
5.1416506498
 20
2.4502186884
 30
0.0
 10
5.1422736205
 20
2.4514103428
 30
0.0
 10
5.1431848346
 20
2.4531497133
 30
0.0
 10
5.1441608833
 20
2.4549856295
 30
0.0
 10
5.1452185716
 20
2.4569111801
 30
0.0
 10
5.1457895095
 20
2.4579184821
 30
0.0
 10
5.1460865817
 20
2.4584329631
 30
0.0
  0
SPLINE
  5
2B0
100
AcDbEntity
  8
0
100
AcDbSpline
 62
7
  6
CONTINUOUS
 70
0
 71
3
 72
38
 73
34
 74
0
 42
0.0000001
 43
0.0000001
 44
0.0000000001
 40
0.0
 40
0.0
 40
0.0
 40
0.0
 40
0.0122166668
 40
0.0183392609
 40
0.0244788581
 40
0.0306395096
 40
0.0368240363
 40
0.0492737947
 40
0.0745395984
 40
0.0873711466
 40
0.1003401602
 40
0.1134487428
 40
0.1266982082
 40
0.1400889177
 40
0.1536207922
 40
0.1811055766
 40
0.2091448282
 40
0.237727111
 40
0.2668382854
 40
0.2964625534
 40
0.3265827023
 40
0.357180381
 40
0.3882362601
 40
0.4197301622
 40
0.4516412481
 40
0.5166278324
 40
0.5830178386
 40
0.6506249013
 40
0.7192562053
 40
0.7887134859
 40
0.8587942963
 40
0.9292923241
 40
1.0
 40
1.0
 40
1.0
 40
1.0
 10
5.1044482296
 20
2.8631991622
 30
0.0
 10
5.1040970552
 20
2.8624989664
 30
0.0
 10
5.1035998513
 20
2.8614326199
 30
0.0
 10
5.1029842022
 20
2.8599887911
 30
0.0
 10
5.1025412879
 20
2.8588936321
 30
0.0
 10
5.1021145784
 20
2.8577878312
 30
0.0
 10
5.1015643899
 20
2.8562961751
 30
0.0
 10
5.1006439673
 20
2.8536357692
 30
0.0
 10
5.0996854484
 20
2.8505387474
 30
0.0
 10
5.0987923066
 20
2.8473885188
 30
0.0
 10
5.0981457351
 20
2.8449788377
 30
0.0
 10
5.097523255
 20
2.8425351935
 30
0.0
 10
5.0969219597
 20
2.8400584237
 30
0.0
 10
5.096340254
 20
2.8375491177
 30
0.0
 10
5.0955847031
 20
2.8341433106
 30
0.0
 10
5.0946820346
 20
2.8298082573
 30
0.0
 10
5.0936624414
 20
2.824512503
 30
0.0
 10
5.0926946877
 20
2.8191010847
 30
0.0
 10
5.091775097
 20
2.8135782442
 30
0.0
 10
5.0909003998
 20
2.8079483222
 30
0.0
 10
5.0900685946
 20
2.8022155875
 30
0.0
 10
5.0892780383
 20
2.7963843819
 30
0.0
 10
5.088527676
 20
2.790459078
 30
0.0
 10
5.0878167907
 20
2.7844441022
 30
0.0
 10
5.0869155722
 20
2.776261124
 30
0.0
 10
5.0858893137
 20
2.7658412198
 30
0.0
 10
5.0848203755
 20
2.7531269744
 30
0.0
 10
5.0839085881
 20
2.7401662143
 30
0.0
 10
5.0831569068
 20
2.7269982064
 30
0.0
 10
5.0825682896
 20
2.7136631408
 30
0.0
 10
5.0821455525
 20
2.7002020334
 30
0.0
 10
5.0818909585
 20
2.6866565326
 30
0.0
 10
5.081834287
 20
2.6776024116
 30
0.0
 10
5.0818342941
 20
2.6730686813
 30
0.0
  0
SPLINE
  5
2B1
100
AcDbEntity
  8
0
100
AcDbSpline
 62
7
  6
CONTINUOUS
 70
0
 71
3
 72
35
 73
31
 74
0
 42
0.0000001
 43
0.0000001
 44
0.0000000001
 40
0.0
 40
0.0
 40
0.0
 40
0.0
 40
0.008706231
 40
0.0181636503
 40
0.0286006124
 40
0.0401882074
 40
0.0530520836
 40
0.0672840602
 40
0.0829518678
 40
0.100106023
 40
0.118784625
 40
0.1390168513
 40
0.160825212
 40
0.1842272297
 40
0.2092367454
 40
0.2358647025
 40
0.2641198058
 40
0.2940092175
 40
0.3587132878
 40
0.4300165882
 40
0.4681539941
 40
0.5079553482
 40
0.5925740565
 40
0.6374083675
 40
0.6839401656
 40
0.7821593608
 40
0.8338915012
 40
0.887413978
 40
0.942767007
 40
1.0
 40
1.0
 40
1.0
 40
1.0
 10
5.0992909544
 20
2.9230686813
 30
0.0
 10
5.0994256453
 20
2.9230686807
 30
0.0
 10
5.0997070719
 20
2.923040794
 30
0.0
 10
5.1001356181
 20
2.9229246441
 30
0.0
 10
5.1005852429
 20
2.9227342316
 30
0.0
 10
5.1010569695
 20
2.9224702006
 30
0.0
 10
5.1015520922
 20
2.9221329529
 30
0.0
 10
5.1020716553
 20
2.9217226847
 30
0.0
 10
5.1026166197
 20
2.9212395798
 30
0.0
 10
5.1031879479
 20
2.9206839234
 30
0.0
 10
5.1037865283
 20
2.9200559832
 30
0.0
 10
5.1044132765
 20
2.9193561086
 30
0.0
 10
5.1050692029
 20
2.9185847616
 30
0.0
 10
5.1057552659
 20
2.9177423775
 30
0.0
 10
5.1064725411
 20
2.9168295051
 30
0.0
 10
5.1072222158
 20
2.9158467842
 30
0.0
 10
5.1080054274
 20
2.9147948186
 30
0.0
 10
5.1091261658
 20
2.9132598595
 30
0.0
 10
5.1106166778
 20
2.9111704216
 30
0.0
 10
5.112165601
 20
2.9089660696
 30
0.0
 10
5.113491271
 20
2.9070757048
 30
0.0
 10
5.1149369817
 20
2.9050179229
 30
0.0
 10
5.1164493952
 20
2.9028803672
 30
0.0
 10
5.1180386711
 20
2.9006697487
 30
0.0
 10
5.119765949
 20
2.8982992883
 30
0.0
 10
5.1215866803
 20
2.8958648995
 30
0.0
 10
5.1235146699
 20
2.8933764455
 30
0.0
 10
5.1250633992
 20
2.8914333445
 30
0.0
 10
5.1266966044
 20
2.8894491245
 30
0.0
 10
5.1278287902
 20
2.8881253252
 30
0.0
 10
5.1284113867
 20
2.8874585653
 30
0.0
  0
SPLINE
  5
2B2
100
AcDbEntity
  8
0
100
AcDbSpline
 62
7
  6
CONTINUOUS
 70
0
 71
3
 72
46
 73
42
 74
0
 42
0.0000001
 43
0.0000001
 44
0.0000000001
 40
0.0
 40
0.0
 40
0.0
 40
0.0
 40
0.005570803
 40
0.0110678541
 40
0.016510693
 40
0.021915919
 40
0.0326649379
 40
0.0434057194
 40
0.0487935708
 40
0.0542014384
 40
0.0650967874
 40
0.076126767
 40
0.0873173945
 40
0.0986876453
 40
0.1102521741
 40
0.1220213499
 40
0.1340029288
 40
0.1586223864
 40
0.1712673608
 40
0.1841373467
 40
0.1972324285
 40
0.210552043
 40
0.2378588959
 40
0.2660425162
 40
0.2950807359
 40
0.3249468592
 40
0.3556106766
 40
0.3870393197
 40
0.4191978526
 40
0.4520495674
 40
0.48555633
 40
0.5196788411
 40
0.5543767232
 40
0.5896087315
 40
0.625332858
 40
0.6615063676
 40
0.6980859651
 40
0.7722875807
 40
0.8475819834
 40
0.9236073396
 40
1.0
 40
1.0
 40
1.0
 40
1.0
 10
5.1258781846
 20
2.8669245949
 30
0.0
 10
5.1261394117
 20
2.8666681988
 30
0.0
 10
5.1266471304
 20
2.866147172
 30
0.0
 10
5.1273706013
 20
2.8653384128
 30
0.0
 10
5.1280543917
 20
2.864509917
 30
0.0
 10
5.1289168046
 20
2.8633826687
 30
0.0
 10
5.1299161999
 20
2.8619235929
 30
0.0
 10
5.1308240665
 20
2.8604076683
 30
0.0
 10
5.131501168
 20
2.8591649676
 30
0.0
 10
5.132151287
 20
2.8578965176
 30
0.0
 10
5.1329129267
 20
2.8562693431
 30
0.0
 10
5.1337512825
 20
2.8542608501
 30
0.0
 10
5.1345250603
 20
2.8521933442
 30
0.0
 10
5.1352403133
 20
2.8500678785
 30
0.0
 10
5.1359034551
 20
2.8478858965
 30
0.0
 10
5.13651878
 20
2.8456483081
 30
0.0
 10
5.1372880321
 20
2.8425643903
 30
0.0
 10
5.1379694125
 20
2.8394002238
 30
0.0
 10
5.1385791679
 20
2.8361629779
 30
0.0
 10
5.1390093445
 20
2.8336627225
 30
0.0
 10
5.1394102872
 20
2.8311127637
 30
0.0
 10
5.1399129139
 20
2.8276188617
 30
0.0
 10
5.1404760575
 20
2.8231324826
 30
0.0
 10
5.1410583984
 20
2.8176088326
 30
0.0
 10
5.1415635922
 20
2.8119088179
 30
0.0
 10
5.1420011412
 20
2.8060398498
 30
0.0
 10
5.1423788055
 20
2.8000093848
 30
0.0
 10
5.1427036441
 20
2.7938250399
 30
0.0
 10
5.142982041
 20
2.7874945549
 30
0.0
 10
5.1432195473
 20
2.7810257837
 30
0.0
 10
5.1434210998
 20
2.7744267
 30
0.0
 10
5.1435911223
 20
2.7677053957
 30
0.0
 10
5.1437336601
 20
2.7608700768
 30
0.0
 10
5.1438523492
 20
2.7539290572
 30
0.0
 10
5.1439504292
 20
2.7468907538
 30
0.0
 10
5.1440307465
 20
2.7397636786
 30
0.0
 10
5.1441179841
 20
2.7301083738
 30
0.0
 10
5.1441944293
 20
2.7178824507
 30
0.0
 10
5.1442494041
 20
2.7030646114
 30
0.0
 10
5.1442783134
 20
2.6881027386
 30
0.0
 10
5.1442842661
 20
2.678088078
 30
0.0
 10
5.1442842742
 20
2.6730686813
 30
0.0
  0
LINE
  5
2B3
100
AcDbEntity
  8
0
100
AcDbLine
 62
7
  6
CONTINUOUS
 10
5.1044482254
 20
2.4829382088
 11
5.111227418
 21
2.4695571092
  0
SPLINE
  5
2B4
100
AcDbEntity
  8
0
100
AcDbSpline
 62
7
  6
CONTINUOUS
 70
0
 71
3
 72
23
 73
19
 74
0
 42
0.0000001
 43
0.0000001
 44
0.0000000001
 40
0.0
 40
0.0
 40
0.0
 40
0.0
 40
0.0292295283
 40
0.0626328773
 40
0.1003100983
 40
0.1423315197
 40
0.1887496021
 40
0.2396041629
 40
0.29492925
 40
0.3547535934
 40
0.4191068248
 40
0.4880192591
 40
0.5615251351
 40
0.6396663719
 40
0.7224956481
 40
0.8100936132
 40
0.9025546508
 40
1.0
 40
1.0
 40
1.0
 40
1.0
 10
5.1370901973
 20
5.9590318166
 30
0.0
 10
5.1372090559
 20
5.9591645923
 30
0.0
 10
5.1374522978
 20
5.9594593831
 30
0.0
 10
5.1378150568
 20
5.9599519778
 30
0.0
 10
5.1382006138
 20
5.9605238594
 30
0.0
 10
5.1386100314
 20
5.961174802
 30
0.0
 10
5.1390446349
 20
5.9619044823
 30
0.0
 10
5.1395057027
 20
5.9627125879
 30
0.0
 10
5.1399949446
 20
5.9635985891
 30
0.0
 10
5.1405140348
 20
5.9645620402
 30
0.0
 10
5.1410651677
 20
5.9656022827
 30
0.0
 10
5.1416507327
 20
5.966718662
 30
0.0
 10
5.1422735486
 20
5.9679104225
 30
0.0
 10
5.1429371874
 20
5.9691765838
 30
0.0
 10
5.1436454775
 20
5.9705163388
 30
0.0
 10
5.144404074
 20
5.971928223
 30
0.0
 10
5.1452186407
 20
5.9734111262
 30
0.0
 10
5.1457895057
 20
5.9744184755
 30
0.0
 10
5.1460865817
 20
5.9749329631
 30
0.0
  0
SPLINE
  5
2B5
100
AcDbEntity
  8
0
100
AcDbSpline
 62
7
  6
CONTINUOUS
 70
0
 71
3
 72
16
 73
12
 74
0
 42
0.0000001
 43
0.0000001
 44
0.0000000001
 40
0.0
 40
0.0
 40
0.0
 40
0.0
 40
0.1191901113
 40
0.240311294
 40
0.3632167605
 40
0.4877542583
 40
0.6137678417
 40
0.6772816847
 40
0.741124549
 40
0.8698401035
 40
1.0
 40
1.0
 40
1.0
 40
1.0
 10
5.1258781846
 20
2.4792127677
 30
0.0
 10
5.1252822265
 20
2.4788507901
 30
0.0
 10
5.1240834782
 20
2.4781163089
 30
0.0
 10
5.1222806787
 20
2.4769915678
 30
0.0
 10
5.1204609821
 20
2.4758349444
 30
0.0
 10
5.1186279628
 20
2.4746460879
 30
0.0
 10
5.1170969025
 20
2.4736303429
 30
0.0
 10
5.115868911
 20
2.4728002156
 30
0.0
 10
5.1146326523
 20
2.4719541379
 30
0.0
 10
5.1130830396
 20
2.47087565
 30
0.0
 10
5.1118475965
 20
2.4699996961
 30
0.0
 10
5.1112279806
 20
2.4695571092
 30
0.0
  0
SPLINE
  5
2B6
100
AcDbEntity
  8
0
100
AcDbSpline
 62
7
  6
CONTINUOUS
 70
0
 71
3
 72
31
 73
27
 74
0
 42
0.0000001
 43
0.0000001
 44
0.0000000001
 40
0.0
 40
0.0
 40
0.0
 40
0.0
 40
0.0032216721
 40
0.0065087115
 40
0.0135244058
 40
0.0215030425
 40
0.0307466018
 40
0.0414493812
 40
0.0537357507
 40
0.0676869989
 40
0.0833571235
 40
0.1007826808
 40
0.1199892022
 40
0.1409946345
 40
0.1638108574
 40
0.1884457939
 40
0.2149046946
 40
0.2733016533
 40
0.3390033434
 40
0.4119889803
 40
0.4922215528
 40
0.5796509923
 40
0.6742161878
 40
0.7758498882
 40
0.8844774385
 40
1.0
 40
1.0
 40
1.0
 40
1.0
 10
5.1663876863
 20
2.8905686788
 30
0.0
 10
5.1663613904
 20
2.8905686771
 30
0.0
 10
5.1663081805
 20
2.8905646583
 30
0.0
 10
5.1662001881
 20
2.8905401735
 30
0.0
 10
5.1660633542
 20
2.8904763141
 30
0.0
 10
5.1659061659
 20
2.890354342
 30
0.0
 10
5.1657508817
 20
2.8901864536
 30
0.0
 10
5.1655968302
 20
2.889972599
 30
0.0
 10
5.1654435774
 20
2.8897125661
 30
0.0
 10
5.1652910073
 20
2.8894061739
 30
0.0
 10
5.1651390808
 20
2.8890533306
 30
0.0
 10
5.1649878096
 20
2.8886540083
 30
0.0
 10
5.1648372245
 20
2.8882082211
 30
0.0
 10
5.1646873635
 20
2.8877160157
 30
0.0
 10
5.16453826
 20
2.8871774681
 30
0.0
 10
5.1643899401
 20
2.8865926742
 30
0.0
 10
5.1641865298
 20
2.8857224012
 30
0.0
 10
5.1639368786
 20
2.8845189486
 30
0.0
 10
5.1636496046
 20
2.8829360443
 30
0.0
 10
5.1633659625
 20
2.8811717297
 30
0.0
 10
5.1630861754
 20
2.8792274717
 30
0.0
 10
5.1628104861
 20
2.8771048929
 30
0.0
 10
5.1625391001
 20
2.8748057792
 30
0.0
 10
5.1622722086
 20
2.8723320446
 30
0.0
 10
5.1620100046
 20
2.8696858629
 30
0.0
 10
5.1618435137
 20
2.8678638777
 30
0.0
 10
5.1617607945
 20
2.8669245949
 30
0.0
  0
SPLINE
  5
2B7
100
AcDbEntity
  8
0
100
AcDbSpline
 62
7
  6
CONTINUOUS
 70
0
 71
3
 72
31
 73
27
 74
0
 42
0.0000001
 43
0.0000001
 44
0.0000000001
 40
0.0
 40
0.0
 40
0.0
 40
0.0
 40
0.0087063835
 40
0.0181638542
 40
0.0286009071
 40
0.0401886251
 40
0.0530526248
 40
0.06728475
 40
0.0829527392
 40
0.1001070852
 40
0.1187859224
 40
0.1390184005
 40
0.1608270112
 40
0.1842293236
 40
0.2092391102
 40
0.2358673134
 40
0.26412271
 40
0.2940123703
 40
0.3587170793
 40
0.4300209984
 40
0.5079604647
 40
0.5925801708
 40
0.6839462384
 40
0.7821664544
 40
0.8874182566
 40
1.0
 40
1.0
 40
1.0
 40
1.0
 10
5.0992909552
 20
6.4395686792
 30
0.0
 10
5.0994256474
 20
6.4395686796
 30
0.0
 10
5.0997070761
 20
6.4395408027
 30
0.0
 10
5.1001356218
 20
6.4394246435
 30
0.0
 10
5.1005852454
 20
6.4392342292
 30
0.0
 10
5.1010569759
 20
6.4389702032
 30
0.0
 10
5.1015520989
 20
6.4386329529
 30
0.0
 10
5.1020716578
 20
6.4382226769
 30
0.0
 10
5.1026166318
 20
6.4377395797
 30
0.0
 10
5.1031879625
 20
6.4371839208
 30
0.0
 10
5.1037865328
 20
6.4365559663
 30
0.0
 10
5.1044133093
 20
6.4358561119
 30
0.0
 10
5.105069218
 20
6.4350847436
 30
0.0
 10
5.1057552888
 20
6.4342423612
 30
0.0
 10
5.1064725894
 20
6.4333295041
 30
0.0
 10
5.1072222252
 20
6.43234675
 30
0.0
 10
5.1080054739
 20
6.4312948101
 30
0.0
 10
5.1091261875
 20
6.4297598285
 30
0.0
 10
5.1106167362
 20
6.4276704135
 30
0.0
 10
5.1125195818
 20
6.424962181
 30
0.0
 10
5.1145961621
 20
6.4219994788
 30
0.0
 10
5.1168653368
 20
6.4187927588
 30
0.0
 10
5.1193506778
 20
6.4153548102
 30
0.0
 10
5.1220825523
 20
6.4117017242
 30
0.0
 10
5.1251012352
 20
6.4078546621
 30
0.0
 10
5.1272653833
 20
6.4052701234
 30
0.0
 10
5.1284113867
 20
6.4039585653
 30
0.0
  0
SPLINE
  5
2B8
100
AcDbEntity
  8
0
100
AcDbSpline
 62
7
  6
CONTINUOUS
 70
0
 71
3
 72
16
 73
12
 74
0
 42
0.0000001
 43
0.0000001
 44
0.0000000001
 40
0.0
 40
0.0
 40
0.0
 40
0.0
 40
0.1301592569
 40
0.2588750666
 40
0.3227181493
 40
0.3862321394
 40
0.5122457464
 40
0.6367831114
 40
0.7596885414
 40
0.8808098256
 40
1.0
 40
1.0
 40
1.0
 40
1.0
 10
5.1112279929
 20
2.8765802535
 30
0.0
 10
5.111847597
 20
2.8761376573
 30
0.0
 10
5.1130830313
 20
2.8752616961
 30
0.0
 10
5.1146326475
 20
2.8741832167
 30
0.0
 10
5.1158689136
 20
2.8733371449
 30
0.0
 10
5.1170969095
 20
2.8725070215
 30
0.0
 10
5.1186279685
 20
2.8714912762
 30
0.0
 10
5.1204609831
 20
2.8703024161
 30
0.0
 10
5.1222806771
 20
2.8691457917
 30
0.0
 10
5.1240834775
 20
2.8680210529
 30
0.0
 10
5.1252822266
 20
2.8672865727
 30
0.0
 10
5.1258781846
 20
2.8669245949
 30
0.0
  0
SPLINE
  5
2B9
100
AcDbEntity
  8
0
100
AcDbSpline
 62
7
  6
CONTINUOUS
 70
0
 71
3
 72
61
 73
57
 74
0
 42
0.0000001
 43
0.0000001
 44
0.0000000001
 40
0.0
 40
0.0
 40
0.0
 40
0.0
 40
0.0070373056
 40
0.0139819724
 40
0.0207598385
 40
0.0273231854
 40
0.039735762
 40
0.0512466896
 40
0.0619904078
 40
0.0721120366
 40
0.0909461313
 40
0.1084642678
 40
0.1250913526
 40
0.1410930947
 40
0.1566429192
 40
0.1718586082
 40
0.1868228601
 40
0.2015953524
 40
0.2162201239
 40
0.2451470209
 40
0.2737900035
 40
0.3022574535
 40
0.3306161292
 40
0.3589077035
 40
0.3871582932
 40
0.4153842535
 40
0.4435958828
 40
0.4717996807
 40
0.5000000624
 40
0.5282004366
 40
0.5564042362
 40
0.5846158584
 40
0.6128418183
 40
0.6410924072
 40
0.6693839762
 40
0.6977426469
 40
0.7262100921
 40
0.7548530697
 40
0.7837799611
 40
0.7984047274
 40
0.813177216
 40
0.8281414659
 40
0.8433571509
 40
0.8589069693
 40
0.8749087035
 40
0.8915357779
 40
0.909053903
 40
0.9278879875
 40
0.9380096138
 40
0.9487533322
 40
0.9602642603
 40
0.9726768377
 40
0.9792401788
 40
0.9860180375
 40
0.9929626975
 40
1.0
 40
1.0
 40
1.0
 40
1.0
 10
6.5824931319
 20
2.9117272731
 30
0.0
 10
6.5826902149
 20
2.9117272731
 30
0.0
 10
6.5830819173
 20
2.9117140103
 30
0.0
 10
6.5836607485
 20
2.9116553994
 30
0.0
 10
6.5842214439
 20
2.9115613754
 30
0.0
 10
6.5849242853
 20
2.9113978041
 30
0.0
 10
6.5857376741
 20
2.911131824
 30
0.0
 10
6.5866250504
 20
2.9107342411
 30
0.0
 10
6.5874157863
 20
2.9102881624
 30
0.0
 10
6.5883372564
 20
2.909664364
 30
0.0
 10
6.5893348351
 20
2.9088221057
 30
0.0
 10
6.5903510446
 20
2.9077374996
 30
0.0
 10
6.5912096112
 20
2.906623816
 30
0.0
 10
6.5919452165
 20
2.9054912471
 30
0.0
 10
6.592581822
 20
2.9043456164
 30
0.0
 10
6.5931366261
 20
2.9031906235
 30
0.0
 10
6.5936225277
 20
2.9020287326
 30
0.0
 10
6.5940495358
 20
2.900861651
 30
0.0
 10
6.5945491579
 20
2.8993061771
 30
0.0
 10
6.5950652547
 20
2.8973497452
 30
0.0
 10
6.595548751
 20
2.8949882921
 30
0.0
 10
6.5959235135
 20
2.8926235491
 30
0.0
 10
6.5962116792
 20
2.8902568604
 30
0.0
 10
6.5964303136
 20
2.887888974
 30
0.0
 10
6.5965926206
 20
2.8855203781
 30
0.0
 10
6.5967088623
 20
2.8831513741
 30
0.0
 10
6.5967867475
 20
2.8807821429
 30
0.0
 10
6.5968311908
 20
2.8784127857
 30
0.0
 10
6.5968459254
 20
2.8760433806
 30
0.0
 10
6.5968311895
 20
2.8736739754
 30
0.0
 10
6.596786749
 20
2.8713046185
 30
0.0
 10
6.5967088496
 20
2.868935388
 30
0.0
 10
6.596592632
 20
2.866566383
 30
0.0
 10
6.5964303099
 20
2.8641977883
 30
0.0
 10
6.5962116748
 20
2.8618299024
 30
0.0
 10
6.5959235098
 20
2.859463214
 30
0.0
 10
6.5955487486
 20
2.8570984712
 30
0.0
 10
6.5950652514
 20
2.8547370186
 30
0.0
 10
6.5945491534
 20
2.8527805876
 30
0.0
 10
6.5940495342
 20
2.8512251133
 30
0.0
 10
6.5936225269
 20
2.8500580316
 30
0.0
 10
6.593136623
 20
2.8488961419
 30
0.0
 10
6.5925818184
 20
2.8477411497
 30
0.0
 10
6.5919452129
 20
2.8465955196
 30
0.0
 10
6.5912096078
 20
2.8454629514
 30
0.0
 10
6.5903510423
 20
2.8443492679
 30
0.0
 10
6.5893348328
 20
2.8432646631
 30
0.0
 10
6.5883372547
 20
2.8424224052
 30
0.0
 10
6.5874157847
 20
2.8417986072
 30
0.0
 10
6.5866250488
 20
2.8413525287
 30
0.0
 10
6.5857376723
 20
2.840954946
 30
0.0
 10
6.5849242836
 20
2.8406889661
 30
0.0
 10
6.5842214425
 20
2.840525395
 30
0.0
 10
6.5836607476
 20
2.8404313712
 30
0.0
 10
6.583081917
 20
2.8403727603
 30
0.0
 10
6.5826902149
 20
2.8403594976
 30
0.0
 10
6.5824931319
 20
2.8403594976
 30
0.0
  0
SPLINE
  5
2BA
100
AcDbEntity
  8
0
100
AcDbSpline
 62
7
  6
CONTINUOUS
 70
0
 71
3
 72
61
 73
57
 74
0
 42
0.0000001
 43
0.0000001
 44
0.0000000001
 40
0.0
 40
0.0
 40
0.0
 40
0.0
 40
0.0070373226
 40
0.0139820108
 40
0.0207598918
 40
0.0273232481
 40
0.0397358212
 40
0.0512467469
 40
0.0619904581
 40
0.0721120825
 40
0.0909461709
 40
0.1084643029
 40
0.1250913855
 40
0.1410931255
 40
0.1566429481
 40
0.1718586351
 40
0.1868228851
 40
0.2015953764
 40
0.2162201472
 40
0.245147042
 40
0.2737900223
 40
0.30225747
 40
0.3306161433
 40
0.3589077154
 40
0.3871583025
 40
0.4153842602
 40
0.4435958873
 40
0.4717996824
 40
0.5000000596
 40
0.5282004304
 40
0.5564042272
 40
0.584615849
 40
0.6128418071
 40
0.6410923942
 40
0.6693839618
 40
0.6977426311
 40
0.7262100745
 40
0.7548530503
 40
0.7837799397
 40
0.7984047054
 40
0.8131771928
 40
0.8281414408
 40
0.8433571238
 40
0.8589069403
 40
0.8749086722
 40
0.8915357443
 40
0.909053865
 40
0.9278879427
 40
0.9380095646
 40
0.9487532758
 40
0.9602642016
 40
0.9726767748
 40
0.979240125
 40
0.9860179986
 40
0.9929626802
 40
1.0
 40
1.0
 40
1.0
 40
1.0
 10
6.5824931319
 20
2.505777865
 30
0.0
 10
6.5826902154
 20
2.505777865
 30
0.0
 10
6.5830819189
 20
2.5057646022
 30
0.0
 10
6.5836607515
 20
2.505705991
 30
0.0
 10
6.5842214481
 20
2.5056119666
 30
0.0
 10
6.58492429
 20
2.5054483947
 30
0.0
 10
6.5857376789
 20
2.5051824144
 30
0.0
 10
6.5866250545
 20
2.5047848307
 30
0.0
 10
6.5874157898
 20
2.5043387519
 30
0.0
 10
6.5883372592
 20
2.5037149532
 30
0.0
 10
6.5893348378
 20
2.5028726955
 30
0.0
 10
6.5903510462
 20
2.5017880889
 30
0.0
 10
6.5912096131
 20
2.5006744059
 30
0.0
 10
6.5919452181
 20
2.499541837
 30
0.0
 10
6.5925818234
 20
2.4983962063
 30
0.0
 10
6.5931366271
 20
2.4972412135
 30
0.0
 10
6.593622528
 20
2.4960793223
 30
0.0
 10
6.5940495365
 20
2.494912241
 30
0.0
 10
6.5945491588
 20
2.4933567673
 30
0.0
 10
6.5950652555
 20
2.4914003355
 30
0.0
 10
6.5955487514
 20
2.4890388825
 30
0.0
 10
6.5959235141
 20
2.4866741397
 30
0.0
 10
6.5962116796
 20
2.4843074512
 30
0.0
 10
6.5964303136
 20
2.481939565
 30
0.0
 10
6.5965926197
 20
2.4795709693
 30
0.0
 10
6.5967088629
 20
2.4772019655
 30
0.0
 10
6.5967867466
 20
2.4748327345
 30
0.0
 10
6.5968311924
 20
2.4724633776
 30
0.0
 10
6.5968459205
 20
2.4700939727
 30
0.0
 10
6.5968311899
 20
2.4677245679
 30
0.0
 10
6.5967867495
 20
2.4653552111
 30
0.0
 10
6.5967088508
 20
2.4629859808
 30
0.0
 10
6.5965926306
 20
2.460616976
 30
0.0
 10
6.5964303104
 20
2.4582483813
 30
0.0
 10
6.5962116753
 20
2.4558804955
 30
0.0
 10
6.5959235103
 20
2.4535138072
 30
0.0
 10
6.595548749
 20
2.4511490646
 30
0.0
 10
6.595065252
 20
2.4487876122
 30
0.0
 10
6.5945491544
 20
2.4468311811
 30
0.0
 10
6.5940495346
 20
2.4452757071
 30
0.0
 10
6.5936225273
 20
2.4441086256
 30
0.0
 10
6.593136624
 20
2.4429467358
 30
0.0
 10
6.5925818197
 20
2.4417917436
 30
0.0
 10
6.5919452145
 20
2.4406461135
 30
0.0
 10
6.5912096096
 20
2.4395135454
 30
0.0
 10
6.590351044
 20
2.4383998624
 30
0.0
 10
6.5893348354
 20
2.4373152572
 30
0.0
 10
6.5883372574
 20
2.4364729998
 30
0.0
 10
6.5874157882
 20
2.4358492016
 30
0.0
 10
6.5866250528
 20
2.435403123
 30
0.0
 10
6.585737677
 20
2.4350055396
 30
0.0
 10
6.5849242884
 20
2.4347395595
 30
0.0
 10
6.5842214468
 20
2.4345759878
 30
0.0
 10
6.5836607507
 20
2.4344819635
 30
0.0
 10
6.5830819185
 20
2.4344233524
 30
0.0
 10
6.5826902153
 20
2.4344100896
 30
0.0
 10
6.5824931319
 20
2.4344100896
 30
0.0
  0
SPLINE
  5
2BB
100
AcDbEntity
  8
0
100
AcDbSpline
 62
7
  6
CONTINUOUS
 70
0
 71
3
 72
74
 73
70
 74
0
 42
0.0000001
 43
0.0000001
 44
0.0000000001
 40
0.0
 40
0.0
 40
0.0
 40
0.0
 40
0.003905947
 40
0.007811928
 40
0.0117182146
 40
0.0156247203
 40
0.0195314295
 40
0.0234382753
 40
0.0312481631
 40
0.0390596934
 40
0.0468720661
 40
0.0546848129
 40
0.0624977032
 40
0.0703106139
 40
0.0781235946
 40
0.0859366063
 40
0.0937495082
 40
0.1015624793
 40
0.109375352
 40
0.1250003566
 40
0.1406255039
 40
0.1562507344
 40
0.1718759827
 40
0.1875011885
 40
0.2031264356
 40
0.2187516486
 40
0.2500013636
 40
0.2812512255
 40
0.312501148
 40
0.3281262433
 40
0.3437512742
 40
0.3750012417
 40
0.4062511615
 40
0.4375010931
 40
0.4531260716
 40
0.4687510639
 40
0.5000009969
 40
0.5312509125
 40
0.5625008501
 40
0.5937507624
 40
0.6250007015
 40
0.6562506621
 40
0.6875005998
 40
0.7187505169
 40
0.7500003784
 40
0.7812500841
 40
0.7968753217
 40
0.8125005399
 40
0.8281257561
 40
0.8437510145
 40
0.8593762264
 40
0.8750013553
 40
0.8906263479
 40
0.9062510658
 40
0.9140639828
 40
0.9218769933
 40
0.9296899343
 40
0.9375028545
 40
0.9453157639
 40
0.9531285083
 40
0.9609408686
 40
0.9687523635
 40
0.9765621961
 40
0.9804690401
 40
0.9843757714
 40
0.9882822677
 40
0.9921884727
 40
0.9960942769
 40
1.0
 40
1.0
 40
1.0
 40
1.0
 10
6.5824931319
 20
2.7444364568
 30
0.0
 10
6.5826905554
 20
2.7444364568
 30
0.0
 10
6.583085914
 20
2.7444095074
 30
0.0
 10
6.5836678021
 20
2.7442908784
 30
0.0
 10
6.5842303891
 20
2.7441011181
 30
0.0
 10
6.5847679278
 20
2.7438496608
 30
0.0
 10
6.5852777795
 20
2.7435463676
 30
0.0
 10
6.5859196858
 20
2.7430850725
 30
0.0
 10
6.5866539937
 20
2.7424207073
 30
0.0
 10
6.5874379223
 20
2.7415304488
 30
0.0
 10
6.5881403681
 20
2.7405750714
 30
0.0
 10
6.5887739628
 20
2.7395731773
 30
0.0
 10
6.5893491603
 20
2.73853689
 30
0.0
 10
6.5898742896
 20
2.7374745167
 30
0.0
 10
6.5903559812
 20
2.7363918573
 30
0.0
 10
6.5907995931
 20
2.7352931208
 30
0.0
 10
6.5912096456
 20
2.7341814754
 30
0.0
 10
6.5915896366
 20
2.7330592381
 30
0.0
 10
6.5920604282
 20
2.7315513502
 30
0.0
 10
6.5925881821
 20
2.7296481964
 30
0.0
 10
6.5931409025
 20
2.7273438937
 30
0.0
 10
6.5936254319
 20
2.7250243668
 30
0.0
 10
6.5940515275
 20
2.722693481
 30
0.0
 10
6.5944270621
 20
2.7203539679
 30
0.0
 10
6.5947583503
 20
2.7180078177
 30
0.0
 10
6.5951482442
 20
2.7148728243
 30
0.0
 10
6.5955500054
 20
2.7109440468
 30
0.0
 10
6.5959241156
 20
2.7062200325
 30
0.0
 10
6.5961640279
 20
2.7022783664
 30
0.0
 10
6.5963211522
 20
2.6991232353
 30
0.0
 10
6.5964575148
 20
2.6959671329
 30
0.0
 10
6.5965926541
 20
2.6920205881
 30
0.0
 10
6.5967089122
 20
2.6872834347
 30
0.0
 10
6.5967737443
 20
2.6833351587
 30
0.0
 10
6.596809018
 20
2.6801763345
 30
0.0
 10
6.5968336352
 20
2.6770174089
 30
0.0
 10
6.5968459159
 20
2.6730686316
 30
0.0
 10
6.5968312008
 20
2.6683301039
 30
0.0
 10
6.5967867562
 20
2.6635917577
 30
0.0
 10
6.596708862
 20
2.6588538323
 30
0.0
 10
6.5965926989
 20
2.654116673
 30
0.0
 10
6.5964304361
 20
2.6493808376
 30
0.0
 10
6.5962119527
 20
2.6446472205
 30
0.0
 10
6.5959241101
 20
2.6399172387
 30
0.0
 10
6.5955499959
 20
2.6351932212
 30
0.0
 10
6.5951482135
 20
2.6312644465
 30
0.0
 10
6.5947583544
 20
2.6281294493
 30
0.0
 10
6.5944270331
 20
2.6257833033
 30
0.0
 10
6.5940515153
 20
2.6234437888
 30
0.0
 10
6.5936254234
 20
2.6211128994
 30
0.0
 10
6.5931408778
 20
2.6187933869
 30
0.0
 10
6.5925881619
 20
2.6164890501
 30
0.0
 10
6.591954823
 20
2.6142054482
 30
0.0
 10
6.5913462316
 20
2.6123262952
 30
0.0
 10
6.5907995731
 20
2.6108441568
 30
0.0
 10
6.5903559501
 20
2.6097454216
 30
0.0
 10
6.5898742422
 20
2.6086627726
 30
0.0
 10
6.589349121
 20
2.6076003959
 30
0.0
 10
6.5887739252
 20
2.6065641059
 30
0.0
 10
6.5881403235
 20
2.6055622159
 30
0.0
 10
6.5874378734
 20
2.604606845
 30
0.0
 10
6.5866539416
 20
2.6037165955
 30
0.0
 10
6.5859196255
 20
2.6030522469
 30
0.0
 10
6.5852777198
 20
2.602590954
 30
0.0
 10
6.5847678638
 20
2.6022876667
 30
0.0
 10
6.5842303243
 20
2.6020362192
 30
0.0
 10
6.5836677473
 20
2.6018464723
 30
0.0
 10
6.5830858824
 20
2.6017278525
 30
0.0
 10
6.5826905441
 20
2.6017009059
 30
0.0
 10
6.5824931319
 20
2.6017009059
 30
0.0
  0
SPLINE
  5
2BC
100
AcDbEntity
  8
0
100
AcDbSpline
 62
7
  6
CONTINUOUS
 70
0
 71
3
 72
9
 73
5
 74
0
 42
0.0000001
 43
0.0000001
 44
0.0000000001
 40
0.0
 40
0.0
 40
0.0
 40
0.0
 40
0.5069765292
 40
1.0
 40
1.0
 40
1.0
 40
1.0
 10
5.1044482296
 20
2.8631991622
 30
0.0
 10
5.1062368513
 20
2.8628729946
 30
0.0
 10
5.1098019563
 20
2.8624167898
 30
0.0
 10
5.1133970382
 20
2.8623643986
 30
0.0
 10
5.1151632113
 20
2.8624464826
 30
0.0
  0
SPLINE
  5
2BD
100
AcDbEntity
  8
0
100
AcDbSpline
 62
7
  6
CONTINUOUS
 70
0
 71
3
 72
9
 73
5
 74
0
 42
0.0000001
 43
0.0000001
 44
0.0000000001
 40
0.0
 40
0.0
 40
0.0
 40
0.0
 40
0.5069766181
 40
1.0
 40
1.0
 40
1.0
 40
1.0
 10
5.1044482254
 20
2.4829382088
 30
0.0
 10
5.1062368534
 20
2.4832643788
 30
0.0
 10
5.1098019692
 20
2.4837206029
 30
0.0
 10
5.1133970637
 20
2.4837729878
 30
0.0
 10
5.115163243
 20
2.4836909121
 30
0.0
  0
SPLINE
  5
2BE
100
AcDbEntity
  8
0
100
AcDbSpline
 62
7
  6
CONTINUOUS
 70
0
 71
3
 72
31
 73
27
 74
0
 42
0.0000001
 43
0.0000001
 44
0.0000000001
 40
0.0
 40
0.0
 40
0.0
 40
0.0
 40
0.0032216685
 40
0.0065086974
 40
0.0135244123
 40
0.021503134
 40
0.0307465766
 40
0.0414493009
 40
0.053735855
 40
0.0676870647
 40
0.0833570223
 40
0.100782697
 40
0.1199893229
 40
0.1409946017
 40
0.163810821
 40
0.1884458452
 40
0.214904739
 40
0.2733015794
 40
0.3390034451
 40
0.4119889826
 40
0.492221329
 40
0.5796509008
 40
0.6742169096
 40
0.7758498439
 40
0.8844751475
 40
1.0
 40
1.0
 40
1.0
 40
1.0
 10
5.1663876865
 20
6.4070686793
 30
0.0
 10
5.1663613906
 20
6.4070686782
 30
0.0
 10
5.1663081807
 20
6.4070646604
 30
0.0
 10
5.1662001877
 20
6.4070401776
 30
0.0
 10
5.1660633535
 20
6.4069763158
 30
0.0
 10
5.1659061687
 20
6.40685434
 30
0.0
 10
5.1657508809
 20
6.4066864564
 30
0.0
 10
5.1655968284
 20
6.4064726019
 30
0.0
 10
5.1654435794
 20
6.4062125659
 30
0.0
 10
5.1652910077
 20
6.4059061748
 30
0.0
 10
5.1651390787
 20
6.4055533332
 30
0.0
 10
5.1649878096
 20
6.4051540096
 30
0.0
 10
5.1648372255
 20
6.4047082215
 30
0.0
 10
5.1646873623
 20
6.4042160172
 30
0.0
 10
5.1645382595
 20
6.4036774699
 30
0.0
 10
5.1643899402
 20
6.4030926752
 30
0.0
 10
5.1641865299
 20
6.4022224024
 30
0.0
 10
5.1639368778
 20
6.4010189495
 30
0.0
 10
5.1636496058
 20
6.399436045
 30
0.0
 10
5.1633659625
 20
6.3976717317
 30
0.0
 10
5.1630861759
 20
6.3957274752
 30
0.0
 10
5.1628104862
 20
6.3936048903
 30
0.0
 10
5.1625390999
 20
6.3913057749
 30
0.0
 10
5.1622722107
 20
6.388832058
 30
0.0
 10
5.1620100048
 20
6.3861858822
 30
0.0
 10
5.1618435153
 20
6.3843638964
 30
0.0
 10
5.1617607945
 20
6.3834245949
 30
0.0
  0
SPLINE
  5
2BF
100
AcDbEntity
  8
0
100
AcDbSpline
 62
7
  6
CONTINUOUS
 70
0
 71
3
 72
39
 73
35
 74
0
 42
0.0000001
 43
0.0000001
 44
0.0000000001
 40
0.0
 40
0.0
 40
0.0
 40
0.0
 40
0.0061065209
 40
0.0122175332
 40
0.0183400961
 40
0.0244797421
 40
0.0368243263
 40
0.0430352087
 40
0.0492745738
 40
0.0555438411
 40
0.0618442168
 40
0.0681767414
 40
0.0745422246
 40
0.0873740686
 40
0.1003433054
 40
0.1267013481
 40
0.1536241354
 40
0.1811091622
 40
0.2091485001
 40
0.2377306989
 40
0.2668417737
 40
0.2964659585
 40
0.3265860161
 40
0.357183586
 40
0.3882393673
 40
0.4516436118
 40
0.5166299487
 40
0.583019692
 40
0.6506264754
 40
0.7192574722
 40
0.788714469
 40
0.858794935
 40
0.9292925965
 40
1.0
 40
1.0
 40
1.0
 40
1.0
 10
5.1044482296
 20
6.3796991622
 30
0.0
 10
5.1042726943
 20
6.3793491678
 30
0.0
 10
5.1039315802
 20
6.378643825
 30
0.0
 10
5.1034466325
 20
6.3775724064
 30
0.0
 10
5.1029844973
 20
6.3764886642
 30
0.0
 10
5.1023922413
 20
6.3750261966
 30
0.0
 10
5.1018345051
 20
6.3735439317
 30
0.0
 10
5.1013046179
 20
6.3720449823
 30
0.0
 10
5.1009181847
 20
6.3709085732
 30
0.0
 10
5.1005426831
 20
6.3697624745
 30
0.0
 10
5.1001771408
 20
6.3686068967
 30
0.0
 10
5.0998205875
 20
6.3674420636
 30
0.0
 10
5.0993548091
 20
6.365872752
 30
0.0
 10
5.0987920174
 20
6.3638884262
 30
0.0
 10
5.0979253761
 20
6.3606581616
 30
0.0
 10
5.0969028181
 20
6.3565347292
 30
0.0
 10
5.0957594919
 20
6.351483567
 30
0.0
 10
5.094682113
 20
6.346307815
 30
0.0
 10
5.0936624275
 20
6.3410120514
 30
0.0
 10
5.0926947441
 20
6.3356006228
 30
0.0
 10
5.0917750397
 20
6.330077813
 30
0.0
 10
5.0909003453
 20
6.3244479021
 30
0.0
 10
5.0900685547
 20
6.3187151784
 30
0.0
 10
5.0892780358
 20
6.312883979
 30
0.0
 10
5.0882705195
 20
6.3049288213
 30
0.0
 10
5.0871135608
 20
6.2947704068
 30
0.0
 10
5.0858892502
 20
6.2823409255
 30
0.0
 10
5.0848203692
 20
6.2696266938
 30
0.0
 10
5.0839085681
 20
6.2566659819
 30
0.0
 10
5.0831568992
 20
6.2434980145
 30
0.0
 10
5.0825682856
 20
6.230162996
 30
0.0
 10
5.0821455508
 20
6.2167019388
 30
0.0
 10
5.0818909592
 20
6.2031564877
 30
0.0
 10
5.081834287
 20
6.1941023987
 30
0.0
 10
5.0818342941
 20
6.1895686813
 30
0.0
  0
SPLINE
  5
2C0
100
AcDbEntity
  8
0
100
AcDbSpline
 62
7
  6
CONTINUOUS
 70
0
 71
3
 72
35
 73
31
 74
0
 42
0.0000001
 43
0.0000001
 44
0.0000000001
 40
0.0
 40
0.0
 40
0.0
 40
0.0
 40
0.0572329992
 40
0.1125863511
 40
0.1661087312
 40
0.2178405215
 40
0.3160595339
 40
0.3625914303
 40
0.4074258083
 40
0.492044512
 40
0.5318458161
 40
0.5699831829
 40
0.6412865118
 40
0.7059905921
 40
0.7358799774
 40
0.7641350562
 40
0.7907630031
 40
0.8157725213
 40
0.8391745511
 40
0.8609829312
 40
0.8812151819
 40
0.8998938106
 40
0.9170479932
 40
0.9327158277
 40
0.9469478292
 40
0.9598117281
 40
0.9713993439
 40
0.9818363247
 40
0.9912937596
 40
1.0
 40
1.0
 40
1.0
 40
1.0
 10
5.1284113867
 20
2.4586787976
 30
0.0
 10
5.1278288007
 20
2.4580120286
 30
0.0
 10
5.1266966053
 20
2.4566882318
 30
0.0
 10
5.1250633621
 20
2.4547040388
 30
0.0
 10
5.1235146417
 20
2.4527609333
 30
0.0
 10
5.1215866991
 20
2.4502724559
 30
0.0
 10
5.1197659764
 20
2.4478380702
 30
0.0
 10
5.118038683
 20
2.4454676219
 30
0.0
 10
5.1164493984
 20
2.4432570072
 30
0.0
 10
5.1149369848
 20
2.4411194518
 30
0.0
 10
5.113491279
 20
2.4390616688
 30
0.0
 10
5.1121656129
 20
2.4371713028
 30
0.0
 10
5.1106166857
 20
2.4349669541
 30
0.0
 10
5.1091261728
 20
2.4328775173
 30
0.0
 10
5.1080054375
 20
2.431342557
 30
0.0
 10
5.1072222286
 20
2.430290591
 30
0.0
 10
5.1064725552
 20
2.4293078699
 30
0.0
 10
5.1057552804
 20
2.4283949973
 30
0.0
 10
5.1050692175
 20
2.4275526128
 30
0.0
 10
5.1044132904
 20
2.4267812653
 30
0.0
 10
5.1037865414
 20
2.4260813903
 30
0.0
 10
5.1031879603
 20
2.4254534492
 30
0.0
 10
5.1026166313
 20
2.424897792
 30
0.0
 10
5.1020716662
 20
2.4244146863
 30
0.0
 10
5.1015521027
 20
2.4240044169
 30
0.0
 10
5.1010569796
 20
2.4236671681
 30
0.0
 10
5.1005852528
 20
2.4234031358
 30
0.0
 10
5.1001356278
 20
2.4232127218
 30
0.0
 10
5.0997070813
 20
2.4230965705
 30
0.0
 10
5.0994256545
 20
2.4230686825
 30
0.0
 10
5.0992909635
 20
2.4230686813
 30
0.0
  0
LINE
  5
2C1
100
AcDbEntity
  8
0
100
AcDbLine
 62
7
  6
CONTINUOUS
 10
5.1112290864
 20
6.3930802535
 11
5.1044482296
 21
6.3796991622
  0
SPLINE
  5
2C2
100
AcDbEntity
  8
0
100
AcDbSpline
 62
7
  6
CONTINUOUS
 70
0
 71
3
 72
40
 73
36
 74
0
 42
0.0000001
 43
0.0000001
 44
0.0000000001
 40
0.0
 40
0.0
 40
0.0
 40
0.0
 40
0.0707076448
 40
0.1412056596
 40
0.2112864428
 40
0.2807436992
 40
0.3493749775
 40
0.416982013
 40
0.4833719913
 40
0.5483585444
 40
0.5802696178
 40
0.6117635
 40
0.6428193694
 40
0.6734170252
 40
0.7035371619
 40
0.7331613965
 40
0.7622725636
 40
0.7766307895
 40
0.7908549529
 40
0.8188941242
 40
0.846378762
 40
0.8733009397
 40
0.8865503662
 40
0.8996589197
 40
0.9126278789
 40
0.9254593892
 40
0.9381568626
 40
0.9507261995
 40
0.9569653845
 40
0.9631761839
 40
0.9693606843
 40
0.9755212984
 40
0.9816608429
 40
0.9877833535
 40
1.0
 40
1.0
 40
1.0
 40
1.0
 10
5.0818342944
 20
2.6730686813
 30
0.0
 10
5.0818342872
 20
2.6685349477
 30
0.0
 10
5.0818909585
 20
2.6594808191
 30
0.0
 10
5.0821455529
 20
2.6459353071
 30
0.0
 10
5.08256829
 20
2.6324741881
 30
0.0
 10
5.08315691
 20
2.6191391121
 30
0.0
 10
5.0839085889
 20
2.6059710937
 30
0.0
 10
5.0848203744
 20
2.5930103233
 30
0.0
 10
5.0858893367
 20
2.5802960708
 30
0.0
 10
5.0869155676
 20
2.5698761562
 30
0.0
 10
5.0878167876
 20
2.5616931727
 30
0.0
 10
5.0885276769
 20
2.555678193
 30
0.0
 10
5.0892780624
 20
2.5497528884
 30
0.0
 10
5.0900686023
 20
2.5439216768
 30
0.0
 10
5.0909004302
 20
2.5381889421
 30
0.0
 10
5.0917750936
 20
2.5325590151
 30
0.0
 10
5.0925449224
 20
2.527935838
 30
0.0
 10
5.0931853288
 20
2.524292392
 30
0.0
 10
5.0938364761
 20
2.5207207006
 30
0.0
 10
5.0946820132
 20
2.5163289943
 30
0.0
 10
5.0957597149
 20
2.5111534083
 30
0.0
 10
5.0967172435
 20
2.5069220251
 30
0.0
 10
5.0975232382
 20
2.5036021096
 30
0.0
 10
5.0981457744
 20
2.5011584797
 30
0.0
 10
5.0987923045
 20
2.498748808
 30
0.0
 10
5.099465736
 20
2.4963738829
 30
0.0
 10
5.1001694975
 20
2.4940344881
 30
0.0
 10
5.1007881625
 20
2.4921112399
 30
0.0
 10
5.1013045329
 20
2.4905923594
 30
0.0
 10
5.1017028471
 20
2.4894658384
 30
0.0
 10
5.1021146094
 20
2.4883495226
 30
0.0
 10
5.1025413271
 20
2.4872437317
 30
0.0
 10
5.1029842558
 20
2.4861485891
 30
0.0
 10
5.1035998225
 20
2.4847047353
 30
0.0
 10
5.1040969887
 20
2.483638373
 30
0.0
 10
5.1044482254
 20
2.4829382088
 30
0.0
  0
LINE
  5
2C3
100
AcDbEntity
  8
0
100
AcDbLine
 62
7
  6
CONTINUOUS
 10
5.1044482254
 20
5.9994382088
 11
5.111227418
 21
5.9860571092
  0
SPLINE
  5
2C4
100
AcDbEntity
  8
0
100
AcDbSpline
 62
7
  6
CONTINUOUS
 70
0
 71
3
 72
31
 73
27
 74
0
 42
0.0000001
 43
0.0000001
 44
0.0000000001
 40
0.0
 40
0.0
 40
0.0
 40
0.0
 40
0.1125819469
 40
0.2178335447
 40
0.3160535536
 40
0.4074198173
 40
0.4920392977
 40
0.5699787864
 40
0.6412827377
 40
0.7059874182
 40
0.7358770799
 40
0.7641325029
 40
0.7907607428
 40
0.8157705577
 40
0.8391728853
 40
0.8609815008
 40
0.8812139776
 40
0.8998928136
 40
0.9170471636
 40
0.9327151618
 40
0.9469472985
 40
0.9598113114
 40
0.9713990449
 40
0.9818361155
 40
0.9912936034
 40
1.0
 40
1.0
 40
1.0
 40
1.0
 10
5.1284113867
 20
5.9751787976
 30
0.0
 10
5.127265402
 20
5.9738672194
 30
0.0
 10
5.1251011979
 20
5.9712827295
 30
0.0
 10
5.1220825513
 20
5.9674356423
 30
0.0
 10
5.1193506984
 20
5.9637825464
 30
0.0
 10
5.1168653232
 20
5.9603446278
 30
0.0
 10
5.1145961802
 20
5.9571378862
 30
0.0
 10
5.1125195917
 20
5.9541751939
 30
0.0
 10
5.1106167436
 20
5.9514669635
 30
0.0
 10
5.109126198
 20
5.9493775467
 30
0.0
 10
5.1080054852
 20
5.9478425651
 30
0.0
 10
5.1072222348
 20
5.9467906254
 30
0.0
 10
5.1064725966
 20
5.9458078717
 30
0.0
 10
5.1057552947
 20
5.9448950143
 30
0.0
 10
5.1050692236
 20
5.9440526315
 30
0.0
 10
5.1044133155
 20
5.9432812625
 30
0.0
 10
5.10378654
 20
5.9425814074
 30
0.0
 10
5.1031879709
 20
5.941953452
 30
0.0
 10
5.102616641
 20
5.9413977922
 30
0.0
 10
5.1020716675
 20
5.940914694
 30
0.0
 10
5.1015521089
 20
5.9405044169
 30
0.0
 10
5.1010569861
 20
5.9401671654
 30
0.0
 10
5.1005852557
 20
5.9399031381
 30
0.0
 10
5.100135632
 20
5.9397127224
 30
0.0
 10
5.099707086
 20
5.9395965618
 30
0.0
 10
5.099425657
 20
5.9395686836
 30
0.0
 10
5.0992909646
 20
5.9395686834
 30
0.0
  0
SPLINE
  5
2C5
100
AcDbEntity
  8
0
100
AcDbSpline
 62
7
  6
CONTINUOUS
 70
0
 71
3
 72
40
 73
36
 74
0
 42
0.0000001
 43
0.0000001
 44
0.0000000001
 40
0.0
 40
0.0
 40
0.0
 40
0.0
 40
0.0707073756
 40
0.1412050474
 40
0.2112854802
 40
0.2807424637
 40
0.3493734477
 40
0.4169802206
 40
0.4833699444
 40
0.5483562626
 40
0.6117605045
 40
0.6428162562
 40
0.6734138404
 40
0.7035339103
 40
0.7331580673
 40
0.7622691097
 40
0.7766272744
 40
0.7908514077
 40
0.8188907761
 40
0.846375859
 40
0.8599079527
 40
0.8732988934
 40
0.8865485052
 40
0.8996572636
 40
0.9126264476
 40
0.9254581922
 40
0.9381561457
 40
0.9444565691
 40
0.9507258464
 40
0.9631759294
 40
0.9755203373
 40
0.9816599002
 40
0.9877824233
 40
0.9938934025
 40
1.0
 40
1.0
 40
1.0
 40
1.0
 10
5.0818342944
 20
6.1895686813
 30
0.0
 10
5.0818342872
 20
6.1850349636
 30
0.0
 10
5.0818909589
 20
6.1759808714
 30
0.0
 10
5.082145551
 20
6.162435417
 30
0.0
 10
5.0825682844
 20
6.1489743556
 30
0.0
 10
5.0831568999
 20
6.1356393346
 30
0.0
 10
5.0839085687
 20
6.1224713633
 30
0.0
 10
5.0848203567
 20
6.1095106467
 30
0.0
 10
5.0858892896
 20
6.0967964169
 30
0.0
 10
5.0871135232
 20
6.0843669238
 30
0.0
 10
5.0882705906
 20
6.074208521
 30
0.0
 10
5.0892779377
 20
6.0662533392
 30
0.0
 10
5.0900685394
 20
6.0604221478
 30
0.0
 10
5.0909004958
 20
6.0546894449
 30
0.0
 10
5.0917751013
 20
6.0490595249
 30
0.0
 10
5.0925448815
 20
6.0444363551
 30
0.0
 10
5.093185267
 20
6.0407929187
 30
0.0
 10
5.0938363742
 20
6.0372212104
 30
0.0
 10
5.0946819794
 20
6.0328294869
 30
0.0
 10
5.0955846258
 20
6.0284943836
 30
0.0
 10
5.0963402727
 20
6.0250885425
 30
0.0
 10
5.0969220553
 20
6.0225792119
 30
0.0
 10
5.097523102
 20
6.0201023427
 30
0.0
 10
5.0981455192
 20
6.0176586414
 30
0.0
 10
5.0987920262
 20
6.015248918
 30
0.0
 10
5.0994653967
 20
6.0128739138
 30
0.0
 10
5.1000540452
 20
6.0109195982
 30
0.0
 10
5.1005427482
 20
6.0093748892
 30
0.0
 10
5.1010422184
 20
6.0078503429
 30
0.0
 10
5.1016938161
 20
6.0059679494
 30
0.0
 10
5.1023921339
 20
6.0041111154
 30
0.0
 10
5.102984457
 20
6.002648689
 30
0.0
 10
5.1034466445
 20
6.0015649811
 30
0.0
 10
5.103931533
 20
6.0004935351
 30
0.0
 10
5.1042726566
 20
5.9997881921
 30
0.0
 10
5.1044482254
 20
5.9994382088
 30
0.0
  0
LINE
  5
2C6
100
AcDbEntity
  8
0
100
AcDbLine
 62
7
  6
CONTINUOUS
 10
5.1112290864
 20
2.8765802535
 11
5.1044482296
 21
2.8631991622
  0
SPLINE
  5
2C7
100
AcDbEntity
  8
0
100
AcDbSpline
 62
7
  6
CONTINUOUS
 70
0
 71
3
 72
31
 73
27
 74
0
 42
0.0000001
 43
0.0000001
 44
0.0000000001
 40
0.0
 40
0.0
 40
0.0
 40
0.0
 40
0.1155248604
 40
0.2241501692
 40
0.3257831089
 40
0.4203491219
 40
0.5077786968
 40
0.5880110452
 40
0.6609965836
 40
0.7266984491
 40
0.7850952881
 40
0.8115541807
 40
0.8361892035
 40
0.859005421
 40
0.8800106977
 40
0.8992173212
 40
0.9166429934
 40
0.9323129483
 40
0.9462641552
 40
0.9585507065
 40
0.9692534283
 40
0.9784968686
 40
0.9864755886
 40
0.9934913025
 40
0.9967783313
 40
1.0
 40
1.0
 40
1.0
 40
1.0
 10
5.1617607945
 20
5.9957127677
 30
0.0
 10
5.1618435154
 20
5.9947734661
 30
0.0
 10
5.1620100049
 20
5.9929514802
 30
0.0
 10
5.1622722107
 20
5.9903053042
 30
0.0
 10
5.1625390999
 20
5.9878315871
 30
0.0
 10
5.1628104862
 20
5.9855324716
 30
0.0
 10
5.163086176
 20
5.9834098866
 30
0.0
 10
5.1633659627
 20
5.98146563
 30
0.0
 10
5.163649606
 20
5.9797013167
 30
0.0
 10
5.163936878
 20
5.9781184121
 30
0.0
 10
5.1641865302
 20
5.9769149592
 30
0.0
 10
5.1643899405
 20
5.9760446865
 30
0.0
 10
5.1645382597
 20
5.9754598918
 30
0.0
 10
5.1646873626
 20
5.9749213445
 30
0.0
 10
5.1648372257
 20
5.9744291403
 30
0.0
 10
5.1649878099
 20
5.9739833522
 30
0.0
 10
5.1651390789
 20
5.9735840287
 30
0.0
 10
5.165291008
 20
5.9732311872
 30
0.0
 10
5.1654435797
 20
5.9729247961
 30
0.0
 10
5.1655968287
 20
5.9726647602
 30
0.0
 10
5.1657508812
 20
5.9724509057
 30
0.0
 10
5.1659061691
 20
5.9722830223
 30
0.0
 10
5.1660633539
 20
5.9721610466
 30
0.0
 10
5.1662001882
 20
5.9720971849
 30
0.0
 10
5.1663081812
 20
5.9720727022
 30
0.0
 10
5.166361391
 20
5.9720686845
 30
0.0
 10
5.1663876869
 20
5.9720686833
 30
0.0
  0
SPLINE
  5
2C8
100
AcDbEntity
  8
0
100
AcDbSpline
 62
7
  6
CONTINUOUS
 70
0
 71
3
 72
41
 73
37
 74
0
 42
0.0000001
 43
0.0000001
 44
0.0000000001
 40
0.0
 40
0.0
 40
0.0
 40
0.0
 40
0.076393129
 40
0.152419369
 40
0.2277143003
 40
0.3019165394
 40
0.3746702139
 40
0.4456268426
 40
0.4803250152
 40
0.5144478033
 40
0.5479548509
 40
0.5808068289
 40
0.6129656209
 40
0.6443945365
 40
0.675058588
 40
0.7049249524
 40
0.7339634013
 40
0.7621472524
 40
0.7759117612
 40
0.7894547341
 40
0.8158689905
 40
0.8413833498
 40
0.8660029965
 40
0.8779846475
 40
0.8897539124
 40
0.9013186084
 40
0.9126893144
 40
0.92388015
 40
0.9349101513
 40
0.9565944823
 40
0.9673352307
 40
0.9727048949
 40
0.9780863585
 40
0.9889325461
 40
0.9944293037
 40
1.0
 40
1.0
 40
1.0
 40
1.0
 10
5.1442842742
 20
6.1895686813
 30
0.0
 10
5.1442842661
 20
6.1845492974
 30
0.0
 10
5.1442783119
 20
6.1745346346
 30
0.0
 10
5.1442494011
 20
6.1595727682
 30
0.0
 10
5.1441944321
 20
6.1447549226
 30
0.0
 10
5.1441031107
 20
6.1301522701
 30
0.0
 10
5.1439608121
 20
6.1158350698
 30
0.0
 10
5.143782593
 20
6.1041140671
 30
0.0
 10
5.1435910989
 20
6.0949320019
 30
0.0
 10
5.1434211189
 20
6.0882106984
 30
0.0
 10
5.1432194904
 20
6.0816116202
 30
0.0
 10
5.1429820954
 20
6.075142848
 30
0.0
 10
5.1427036564
 20
6.068812367
 30
0.0
 10
5.1423787095
 20
6.0626280317
 30
0.0
 10
5.1420012284
 20
6.0565975594
 30
0.0
 10
5.1415635581
 20
6.0507286003
 30
0.0
 10
5.1410584734
 20
6.0450285961
 30
0.0
 10
5.1405693768
 20
6.0403898565
 30
0.0
 10
5.1401325515
 20
6.0367700139
 30
0.0
 10
5.139671712
 20
6.0332704066
 30
0.0
 10
5.1390347666
 20
6.0290155007
 30
0.0
 10
5.138147392
 20
6.0240640449
 30
0.0
 10
5.1372880076
 20
6.0200730845
 30
0.0
 10
5.1365187692
 20
6.0169891559
 30
0.0
 10
5.1359034586
 20
6.0147515672
 30
0.0
 10
5.1352403846
 20
6.0125695265
 30
0.0
 10
5.1345247602
 20
6.0104441705
 30
0.0
 10
5.1337511077
 20
6.0083765179
 30
0.0
 10
5.1326399647
 20
6.0057139153
 30
0.0
 10
5.1313741347
 20
6.0031488507
 30
0.0
 10
5.1300981163
 20
6.0010169213
 30
0.0
 10
5.1293176354
 20
5.9998397977
 30
0.0
 10
5.128495242
 20
5.9986831405
 30
0.0
 10
5.1276070774
 20
5.9975637008
 30
0.0
 10
5.1266470421
 20
5.9964902364
 30
0.0
 10
5.1261394046
 20
5.9959691565
 30
0.0
 10
5.1258781846
 20
5.9957127677
 30
0.0
  0
SPLINE
  5
2C9
100
AcDbEntity
  8
0
100
AcDbSpline
 62
7
  6
CONTINUOUS
 70
0
 71
3
 72
31
 73
27
 74
0
 42
0.0000001
 43
0.0000001
 44
0.0000000001
 40
0.0
 40
0.0
 40
0.0
 40
0.0
 40
0.11552257
 40
0.2241501254
 40
0.325783831
 40
0.420349031
 40
0.5077784737
 40
0.5880110481
 40
0.6609966859
 40
0.7266983758
 40
0.7850953332
 40
0.8115542328
 40
0.836189168
 40
0.8590053893
 40
0.8800108197
 40
0.8992173391
 40
0.916642894
 40
0.9323130161
 40
0.9462642617
 40
0.9585506283
 40
0.969253405
 40
0.9784969616
 40
0.986475596
 40
0.9934912888
 40
0.9967783279
 40
1.0
 40
1.0
 40
1.0
 40
1.0
 10
5.1617607945
 20
2.4792127677
 30
0.0
 10
5.1618435137
 20
2.4782734848
 30
0.0
 10
5.1620100046
 20
2.4764514995
 30
0.0
 10
5.1622722087
 20
2.4738053176
 30
0.0
 10
5.1625391002
 20
2.4713315829
 30
0.0
 10
5.1628104862
 20
2.469032469
 30
0.0
 10
5.1630861755
 20
2.4669098901
 30
0.0
 10
5.1633659627
 20
2.4649656321
 30
0.0
 10
5.1636496048
 20
2.4632013174
 30
0.0
 10
5.1639368789
 20
2.461618413
 30
0.0
 10
5.16418653
 20
2.4604149604
 30
0.0
 10
5.1643899403
 20
2.4595446874
 30
0.0
 10
5.1645382603
 20
2.4589598936
 30
0.0
 10
5.1646873638
 20
2.458421346
 30
0.0
 10
5.1648372248
 20
2.4579291407
 30
0.0
 10
5.16498781
 20
2.4574833535
 30
0.0
 10
5.1651390811
 20
2.4570840313
 30
0.0
 10
5.1652910076
 20
2.456731188
 30
0.0
 10
5.1654435778
 20
2.4564247959
 30
0.0
 10
5.1655968306
 20
2.4561647631
 30
0.0
 10
5.1657508821
 20
2.4559509085
 30
0.0
 10
5.1659061663
 20
2.4557830203
 30
0.0
 10
5.1660633546
 20
2.4556610483
 30
0.0
 10
5.1662001885
 20
2.455597189
 30
0.0
 10
5.1663081809
 20
2.4555727043
 30
0.0
 10
5.1663613908
 20
2.4555686855
 30
0.0
 10
5.1663876868
 20
2.4555686839
 30
0.0
  0
SPLINE
  5
2CA
100
AcDbEntity
  8
0
100
AcDbSpline
 62
7
  6
CONTINUOUS
 70
0
 71
3
 72
40
 73
36
 74
0
 42
0.0000001
 43
0.0000001
 44
0.0000000001
 40
0.0
 40
0.0
 40
0.0
 40
0.0
 40
0.0055706953
 40
0.0110674566
 40
0.0219137056
 40
0.0326633908
 40
0.0434041109
 40
0.0650885212
 40
0.0761185362
 40
0.0873093698
 40
0.0986800766
 40
0.1102447987
 40
0.1220141006
 40
0.1339957732
 40
0.1586154329
 40
0.1841298364
 40
0.21054413
 40
0.2240871213
 40
0.2378516499
 40
0.2660355423
 40
0.2950740331
 40
0.32494044
 40
0.3556045359
 40
0.3870334966
 40
0.4191923348
 40
0.4520443601
 40
0.4855514558
 40
0.5196742931
 40
0.5543725156
 40
0.6253292464
 40
0.6980830257
 40
0.7722853717
 40
0.8475804114
 40
0.9236067609
 40
1.0
 40
1.0
 40
1.0
 40
1.0
 10
5.1258781846
 20
6.3834245949
 30
0.0
 10
5.126139404
 20
6.3831682064
 30
0.0
 10
5.126647036
 20
6.3826471274
 30
0.0
 10
5.1276070877
 20
6.3815736463
 30
0.0
 10
5.1287146096
 20
6.3801776935
 30
0.0
 10
5.1299164845
 20
6.3784238315
 30
0.0
 10
5.1313741028
 20
6.3759885494
 30
0.0
 10
5.1326399826
 20
6.3734234479
 30
0.0
 10
5.1337511196
 20
6.3707608502
 30
0.0
 10
5.134524757
 20
6.3686931924
 30
0.0
 10
5.1352403617
 20
6.3665678321
 30
0.0
 10
5.1359034466
 20
6.3643857939
 30
0.0
 10
5.136518787
 20
6.3621482111
 30
0.0
 10
5.1372880359
 20
6.3590642845
 30
0.0
 10
5.1381473585
 20
6.3550733116
 30
0.0
 10
5.1390347768
 20
6.3501218655
 30
0.0
 10
5.1396717134
 20
6.3458669572
 30
0.0
 10
5.1401325462
 20
6.3423673493
 30
0.0
 10
5.1405693733
 20
6.3387475069
 30
0.0
 10
5.1410584748
 20
6.3341087677
 30
0.0
 10
5.1415635596
 20
6.3284087634
 30
0.0
 10
5.1420012257
 20
6.322539804
 30
0.0
 10
5.1423787119
 20
6.316509332
 30
0.0
 10
5.142703657
 20
6.3103249965
 30
0.0
 10
5.1429820942
 20
6.3039945154
 30
0.0
 10
5.1432194922
 20
6.2975257434
 30
0.0
 10
5.1434211168
 20
6.290926665
 30
0.0
 10
5.1435910998
 20
6.2842053615
 30
0.0
 10
5.1437825924
 20
6.2750232962
 30
0.0
 10
5.1439608131
 20
6.2633022935
 30
0.0
 10
5.1441031105
 20
6.248985093
 30
0.0
 10
5.1441944319
 20
6.2343824404
 30
0.0
 10
5.1442494011
 20
6.2195645947
 30
0.0
 10
5.1442783119
 20
6.2046027282
 30
0.0
 10
5.1442842661
 20
6.1945880653
 30
0.0
 10
5.1442842742
 20
6.1895686813
 30
0.0
  0
SPLINE
  5
2CB
100
AcDbEntity
  8
0
100
AcDbSpline
 62
7
  6
CONTINUOUS
 70
0
 71
3
 72
16
 73
12
 74
0
 42
0.0000001
 43
0.0000001
 44
0.0000000001
 40
0.0
 40
0.0
 40
0.0
 40
0.0
 40
0.1191901113
 40
0.240311294
 40
0.3632167605
 40
0.4877542583
 40
0.6137678417
 40
0.6772816847
 40
0.741124549
 40
0.8698401035
 40
1.0
 40
1.0
 40
1.0
 40
1.0
 10
5.1258781846
 20
5.9957127677
 30
0.0
 10
5.1252822265
 20
5.9953507901
 30
0.0
 10
5.1240834782
 20
5.9946163089
 30
0.0
 10
5.1222806787
 20
5.9934915678
 30
0.0
 10
5.1204609821
 20
5.9923349444
 30
0.0
 10
5.1186279628
 20
5.9911460879
 30
0.0
 10
5.1170969025
 20
5.9901303429
 30
0.0
 10
5.115868911
 20
5.9893002156
 30
0.0
 10
5.1146326523
 20
5.9884541379
 30
0.0
 10
5.1130830396
 20
5.98737565
 30
0.0
 10
5.1118475965
 20
5.9864996961
 30
0.0
 10
5.1112279806
 20
5.9860571092
 30
0.0
  0
SPLINE
  5
2CC
100
AcDbEntity
  8
0
100
AcDbSpline
 62
7
  6
CONTINUOUS
 70
0
 71
3
 72
16
 73
12
 74
0
 42
0.0000001
 43
0.0000001
 44
0.0000000001
 40
0.0
 40
0.0
 40
0.0
 40
0.0
 40
0.1301592569
 40
0.2588750666
 40
0.3227181493
 40
0.3862321394
 40
0.5122457464
 40
0.6367831114
 40
0.7596885414
 40
0.8808098256
 40
1.0
 40
1.0
 40
1.0
 40
1.0
 10
5.1112279929
 20
6.3930802535
 30
0.0
 10
5.111847597
 20
6.3926376573
 30
0.0
 10
5.1130830313
 20
6.3917616961
 30
0.0
 10
5.1146326475
 20
6.3906832167
 30
0.0
 10
5.1158689136
 20
6.3898371449
 30
0.0
 10
5.1170969095
 20
6.3890070215
 30
0.0
 10
5.1186279685
 20
6.3879912762
 30
0.0
 10
5.1204609831
 20
6.3868024161
 30
0.0
 10
5.1222806771
 20
6.3856457917
 30
0.0
 10
5.1240834775
 20
6.3845210529
 30
0.0
 10
5.1252822266
 20
6.3837865727
 30
0.0
 10
5.1258781846
 20
6.3834245949
 30
0.0
  0
SPLINE
  5
2CD
100
AcDbEntity
  8
0
100
AcDbSpline
 62
7
  6
CONTINUOUS
 70
0
 71
3
 72
61
 73
57
 74
0
 42
0.0000001
 43
0.0000001
 44
0.0000000001
 40
0.0
 40
0.0
 40
0.0
 40
0.0
 40
0.0070373022
 40
0.0139819644
 40
0.0207598268
 40
0.0273231709
 40
0.0397357452
 40
0.0512466709
 40
0.0619903889
 40
0.0721120185
 40
0.0909461149
 40
0.1084642527
 40
0.1250913384
 40
0.1410930815
 40
0.1566429069
 40
0.1718585969
 40
0.1868228499
 40
0.2015953428
 40
0.2162201149
 40
0.2451470131
 40
0.2737899968
 40
0.3022574477
 40
0.3306161244
 40
0.3589076995
 40
0.3871582901
 40
0.4153842512
 40
0.4435958813
 40
0.47179968
 40
0.5000000624
 40
0.5282004374
 40
0.5564042378
 40
0.5846158608
 40
0.6128418214
 40
0.6410924112
 40
0.669383981
 40
0.6977426527
 40
0.7262100988
 40
0.7548530775
 40
0.7837799701
 40
0.7984047369
 40
0.8131772262
 40
0.8281414772
 40
0.8433571632
 40
0.8589069825
 40
0.8749087177
 40
0.8915357929
 40
0.9090539193
 40
0.9278880055
 40
0.9380096326
 40
0.948753351
 40
0.9602642771
 40
0.9726768522
 40
0.9792401904
 40
0.9860180455
 40
0.9929627008
 40
1.0
 40
1.0
 40
1.0
 40
1.0
 10
6.5824931319
 20
6.4282272731
 30
0.0
 10
6.5826902149
 20
6.4282272731
 30
0.0
 10
6.583081917
 20
6.4282140103
 30
0.0
 10
6.5836607478
 20
6.4281553994
 30
0.0
 10
6.5842214429
 20
6.4280613756
 30
0.0
 10
6.5849242842
 20
6.4278978044
 30
0.0
 10
6.5857376727
 20
6.4276318245
 30
0.0
 10
6.5866250491
 20
6.4272342418
 30
0.0
 10
6.587415785
 20
6.4267881633
 30
0.0
 10
6.5883372553
 20
6.426164365
 30
0.0
 10
6.589334834
 20
6.4253221066
 30
0.0
 10
6.5903510439
 20
6.4242375007
 30
0.0
 10
6.5912096103
 20
6.4231238169
 30
0.0
 10
6.5919452158
 20
6.421991248
 30
0.0
 10
6.5925818214
 20
6.4208456173
 30
0.0
 10
6.5931366257
 20
6.4196906244
 30
0.0
 10
6.5936225276
 20
6.4185287335
 30
0.0
 10
6.5940495355
 20
6.4173616517
 30
0.0
 10
6.5945491576
 20
6.4158061778
 30
0.0
 10
6.5950652544
 20
6.4138497458
 30
0.0
 10
6.5955487508
 20
6.4114882926
 30
0.0
 10
6.5959235133
 20
6.4091235495
 30
0.0
 10
6.5962116791
 20
6.4067568608
 30
0.0
 10
6.5964303136
 20
6.4043889743
 30
0.0
 10
6.5965926208
 20
6.4020203784
 30
0.0
 10
6.5967088621
 20
6.3996513743
 30
0.0
 10
6.5967867477
 20
6.397282143
 30
0.0
 10
6.5968311906
 20
6.3949127858
 30
0.0
 10
6.5968459257
 20
6.3925433806
 30
0.0
 10
6.5968311894
 20
6.3901739754
 30
0.0
 10
6.5967867492
 20
6.3878046183
 30
0.0
 10
6.5967088494
 20
6.3854353879
 30
0.0
 10
6.5965926322
 20
6.3830663827
 30
0.0
 10
6.5964303099
 20
6.3806977879
 30
0.0
 10
6.5962116746
 20
6.378329902
 30
0.0
 10
6.5959235097
 20
6.3759632135
 30
0.0
 10
6.5955487485
 20
6.3735984706
 30
0.0
 10
6.5950652512
 20
6.371237018
 30
0.0
 10
6.594549153
 20
6.3692805869
 30
0.0
 10
6.594049534
 20
6.3677251125
 30
0.0
 10
6.5936225268
 20
6.3665580307
 30
0.0
 10
6.5931366226
 20
6.365396141
 30
0.0
 10
6.5925818178
 20
6.3642411488
 30
0.0
 10
6.5919452122
 20
6.3630955187
 30
0.0
 10
6.591209607
 20
6.3619629505
 30
0.0
 10
6.5903510416
 20
6.3608492668
 30
0.0
 10
6.5893348318
 20
6.3597646622
 30
0.0
 10
6.5883372536
 20
6.3589224042
 30
0.0
 10
6.5874157834
 20
6.3582986063
 30
0.0
 10
6.5866250475
 20
6.3578525279
 30
0.0
 10
6.5857376709
 20
6.3574549456
 30
0.0
 10
6.5849242825
 20
6.3571889657
 30
0.0
 10
6.5842214415
 20
6.3570253948
 30
0.0
 10
6.583660747
 20
6.3569313711
 30
0.0
 10
6.5830819166
 20
6.3568727603
 30
0.0
 10
6.5826902148
 20
6.3568594976
 30
0.0
 10
6.5824931319
 20
6.3568594976
 30
0.0
  0
SPLINE
  5
2CE
100
AcDbEntity
  8
0
100
AcDbSpline
 62
7
  6
CONTINUOUS
 70
0
 71
3
 72
61
 73
57
 74
0
 42
0.0000001
 43
0.0000001
 44
0.0000000001
 40
0.0
 40
0.0
 40
0.0
 40
0.0
 40
0.0070373193
 40
0.0139820028
 40
0.0207598802
 40
0.0273232336
 40
0.0397358043
 40
0.0512467281
 40
0.0619904392
 40
0.0721120645
 40
0.0909461544
 40
0.1084642878
 40
0.1250913713
 40
0.1410931122
 40
0.1566429358
 40
0.1718586239
 40
0.1868228749
 40
0.2015953668
 40
0.2162201381
 40
0.2451470342
 40
0.2737900156
 40
0.3022574642
 40
0.3306161385
 40
0.3589077114
 40
0.3871582994
 40
0.4153842579
 40
0.4435958858
 40
0.4717996817
 40
0.5000000596
 40
0.5282004312
 40
0.5564042288
 40
0.5846158513
 40
0.6128418102
 40
0.6410923982
 40
0.6693839667
 40
0.6977426368
 40
0.7262100813
 40
0.7548530582
 40
0.7837799488
 40
0.7984047149
 40
0.8131772031
 40
0.8281414521
 40
0.8433571361
 40
0.8589069535
 40
0.8749086865
 40
0.8915357593
 40
0.9090538814
 40
0.9278879607
 40
0.9380095834
 40
0.9487532945
 40
0.9602642184
 40
0.9726767893
 40
0.9792401366
 40
0.9860180066
 40
0.9929626835
 40
1.0
 40
1.0
 40
1.0
 40
1.0
 10
6.5824931319
 20
6.022277865
 30
0.0
 10
6.5826902153
 20
6.022277865
 30
0.0
 10
6.5830819186
 20
6.0222646022
 30
0.0
 10
6.5836607508
 20
6.0222059911
 30
0.0
 10
6.5842214472
 20
6.0221119668
 30
0.0
 10
6.5849242889
 20
6.021948395
 30
0.0
 10
6.5857376775
 20
6.0216824149
 30
0.0
 10
6.5866250532
 20
6.0212848315
 30
0.0
 10
6.5874157885
 20
6.0208387528
 30
0.0
 10
6.5883372581
 20
6.0202149543
 30
0.0
 10
6.5893348367
 20
6.0193726964
 30
0.0
 10
6.5903510455
 20
6.0182880901
 30
0.0
 10
6.5912096123
 20
6.0171744068
 30
0.0
 10
6.5919452174
 20
6.0160418379
 30
0.0
 10
6.5925818228
 20
6.0148962072
 30
0.0
 10
6.5931366267
 20
6.0137412143
 30
0.0
 10
6.5936225279
 20
6.0125793233
 30
0.0
 10
6.5940495362
 20
6.0114122418
 30
0.0
 10
6.5945491585
 20
6.009856768
 30
0.0
 10
6.5950652552
 20
6.0079003361
 30
0.0
 10
6.5955487513
 20
6.0055388831
 30
0.0
 10
6.5959235139
 20
6.0031741402
 30
0.0
 10
6.5962116794
 20
6.0008074516
 30
0.0
 10
6.5964303137
 20
5.9984395653
 30
0.0
 10
6.5965926199
 20
5.9960709696
 30
0.0
 10
6.5967088627
 20
5.9937019657
 30
0.0
 10
6.5967867469
 20
5.9913327347
 30
0.0
 10
6.5968311923
 20
5.9889633777
 30
0.0
 10
6.5968459208
 20
5.9865939727
 30
0.0
 10
6.5968311898
 20
5.9842245678
 30
0.0
 10
6.5967867497
 20
5.9818552109
 30
0.0
 10
6.5967088505
 20
5.9794859806
 30
0.0
 10
6.5965926308
 20
5.9771169757
 30
0.0
 10
6.5964303104
 20
5.9747483809
 30
0.0
 10
6.5962116752
 20
5.9723804951
 30
0.0
 10
6.5959235102
 20
5.9700138068
 30
0.0
 10
6.5955487489
 20
5.9676490641
 30
0.0
 10
6.5950652518
 20
5.9652876115
 30
0.0
 10
6.594549154
 20
5.9633311805
 30
0.0
 10
6.5940495344
 20
5.9617757063
 30
0.0
 10
6.5936225271
 20
5.9606086247
 30
0.0
 10
6.5931366236
 20
5.9594467349
 30
0.0
 10
6.5925818191
 20
5.9582917427
 30
0.0
 10
6.5919452138
 20
5.9571461126
 30
0.0
 10
6.5912096088
 20
5.9560135445
 30
0.0
 10
6.5903510433
 20
5.9548998613
 30
0.0
 10
6.5893348343
 20
5.9538152563
 30
0.0
 10
6.5883372563
 20
5.9529729988
 30
0.0
 10
6.5874157869
 20
5.9523492007
 30
0.0
 10
6.5866250515
 20
5.9519031222
 30
0.0
 10
6.5857376757
 20
5.9515055391
 30
0.0
 10
6.5849242872
 20
5.9512395591
 30
0.0
 10
6.5842214458
 20
5.9510759876
 30
0.0
 10
6.58366075
 20
5.9509819634
 30
0.0
 10
6.5830819182
 20
5.9509233524
 30
0.0
 10
6.5826902153
 20
5.9509100896
 30
0.0
 10
6.5824931319
 20
5.9509100896
 30
0.0
  0
SPLINE
  5
2CF
100
AcDbEntity
  8
0
100
AcDbSpline
 62
7
  6
CONTINUOUS
 70
0
 71
3
 72
74
 73
70
 74
0
 42
0.0000001
 43
0.0000001
 44
0.0000000001
 40
0.0
 40
0.0
 40
0.0
 40
0.0
 40
0.0039058551
 40
0.0078117273
 40
0.011717928
 40
0.0156243546
 40
0.0195310135
 40
0.0234378072
 40
0.0312475411
 40
0.0390589694
 40
0.0468712739
 40
0.054683965
 40
0.0624968392
 40
0.0703097526
 40
0.0781226494
 40
0.085935615
 40
0.0937485445
 40
0.1093732203
 40
0.1249981802
 40
0.1406232761
 40
0.1562484437
 40
0.1718736682
 40
0.1874989045
 40
0.2187482256
 40
0.249997904
 40
0.281247757
 40
0.3124976829
 40
0.3437476134
 40
0.3749975393
 40
0.4062474843
 40
0.4374974007
 40
0.4687473249
 40
0.4999972437
 40
0.5312471761
 40
0.5624970826
 40
0.5937470142
 40
0.6249969444
 40
0.6562468644
 40
0.6874968111
 40
0.7187467381
 40
0.7343718397
 40
0.7499969993
 40
0.765622138
 40
0.7812473326
 40
0.7968725248
 40
0.8124977169
 40
0.8281229577
 40
0.8437481586
 40
0.8593733137
 40
0.874998414
 40
0.8906233719
 40
0.9062480262
 40
0.914060985
 40
0.9218739129
 40
0.9296868076
 40
0.937499747
 40
0.9453126088
 40
0.9531252859
 40
0.9570320999
 40
0.9609390962
 40
0.9648459871
 40
0.9687529793
 40
0.9765626445
 40
0.9804694562
 40
0.9843761266
 40
0.988282538
 40
0.9921886566
 40
0.9960943636
 40
1.0
 40
1.0
 40
1.0
 40
1.0
 10
6.5824931319
 20
6.2609364568
 30
0.0
 10
6.5826905513
 20
6.2609364568
 30
0.0
 10
6.5830859008
 20
6.2609095087
 30
0.0
 10
6.5836677764
 20
6.2607908837
 30
0.0
 10
6.5842303532
 20
6.2606011321
 30
0.0
 10
6.5847678856
 20
6.2603496834
 30
0.0
 10
6.5852777339
 20
6.2600463992
 30
0.0
 10
6.5859196311
 20
6.2595851102
 30
0.0
 10
6.5866539416
 20
6.258920768
 30
0.0
 10
6.5874378684
 20
6.2580305248
 30
0.0
 10
6.5881403158
 20
6.2570751591
 30
0.0
 10
6.5887739177
 20
6.2560732743
 30
0.0
 10
6.5893491169
 20
6.2550369878
 30
0.0
 10
6.5898742255
 20
6.2539746063
 30
0.0
 10
6.5903559369
 20
6.252891961
 30
0.0
 10
6.5907995758
 20
6.2517932328
 30
0.0
 10
6.5913462064
 20
6.2503110836
 30
0.0
 10
6.5919548142
 20
6.2484319344
 30
0.0
 10
6.5925881474
 20
6.2461483297
 30
0.0
 10
6.5931408652
 20
6.2438439926
 30
0.0
 10
6.5936254171
 20
6.2415244819
 30
0.0
 10
6.5940515359
 20
6.2391935904
 30
0.0
 10
6.5945521377
 20
6.2360742897
 30
0.0
 10
6.5950678302
 20
6.2321585329
 30
0.0
 10
6.5955500171
 20
6.2274441654
 30
0.0
 10
6.5959241192
 20
6.2227201024
 30
0.0
 10
6.5962119476
 20
6.2179901165
 30
0.0
 10
6.5964304088
 20
6.2132564852
 30
0.0
 10
6.596592706
 20
6.2085206413
 30
0.0
 10
6.5967089147
 20
6.203783471
 30
0.0
 10
6.5967866481
 20
6.1990455312
 30
0.0
 10
6.596831359
 20
6.1943071751
 30
0.0
 10
6.5968457285
 20
6.1895686338
 30
0.0
 10
6.5968313661
 20
6.1848300932
 30
0.0
 10
6.5967866171
 20
6.1800917371
 30
0.0
 10
6.5967089475
 20
6.1753537969
 30
0.0
 10
6.5965926793
 20
6.170616629
 30
0.0
 10
6.596430401
 20
6.1658807823
 30
0.0
 10
6.5962119463
 20
6.1611471596
 30
0.0
 10
6.5959721223
 20
6.1572054622
 30
0.0
 10
6.595737012
 20
6.1540551394
 30
0.0
 10
6.5955365316
 20
6.1516942967
 30
0.0
 10
6.5953088585
 20
6.1493359053
 30
0.0
 10
6.59505078
 20
6.1469806296
 30
0.0
 10
6.5947583255
 20
6.1446293512
 30
0.0
 10
6.5944270059
 20
6.1422832038
 30
0.0
 10
6.5940515224
 20
6.1399436796
 30
0.0
 10
6.5936253946
 20
6.137612795
 30
0.0
 10
6.5931408378
 20
6.135293286
 30
0.0
 10
6.5925881236
 20
6.132988949
 30
0.0
 10
6.5919547947
 20
6.1307053434
 30
0.0
 10
6.591346163
 20
6.1288262024
 30
0.0
 10
6.5907995578
 20
6.1273440454
 30
0.0
 10
6.5903558936
 20
6.1262453271
 30
0.0
 10
6.5898741881
 20
6.1251626833
 30
0.0
 10
6.5893490845
 20
6.1241002877
 30
0.0
 10
6.5887738834
 20
6.1230640421
 30
0.0
 10
6.5882458305
 20
6.1222289969
 30
0.0
 10
6.5877889937
 20
6.1215844819
 30
0.0
 10
6.5874276198
 20
6.1211148434
 30
0.0
 10
6.5870457151
 20
6.1206616078
 30
0.0
 10
6.5865072037
 20
6.1200837897
 30
0.0
 10
6.585919551
 20
6.1195521971
 30
0.0
 10
6.5852776801
 20
6.119090925
 30
0.0
 10
6.5847678214
 20
6.1187876449
 30
0.0
 10
6.5842302906
 20
6.1185362069
 30
0.0
 10
6.5836677234
 20
6.1183464673
 30
0.0
 10
6.5830858703
 20
6.1182278516
 30
0.0
 10
6.5826905402
 20
6.1182009059
 30
0.0
 10
6.5824931319
 20
6.1182009059
 30
0.0
  0
LINE
  5
2D0
100
AcDbEntity
  8
0
100
AcDbLine
 62
7
  6
CONTINUOUS
 10
5.1151632312
 20
2.4836908684
 11
5.1112271621
 21
2.4695565213
  0
SPLINE
  5
2D1
100
AcDbEntity
  8
0
100
AcDbSpline
 62
7
  6
CONTINUOUS
 70
0
 71
3
 72
9
 73
5
 74
0
 42
0.0000001
 43
0.0000001
 44
0.0000000001
 40
0.0
 40
0.0
 40
0.0
 40
0.0
 40
0.4915904827
 40
1.0
 40
1.0
 40
1.0
 40
1.0
 10
5.1258781846
 20
2.4792127677
 30
0.0
 10
5.12403036
 20
2.4796866404
 30
0.0
 10
5.120341174
 20
2.4809392632
 30
0.0
 10
5.1168641652
 20
2.4826913181
 30
0.0
 10
5.1151632312
 20
2.4836908684
 30
0.0
  0
SPLINE
  5
2D2
100
AcDbEntity
  8
0
100
AcDbSpline
 62
7
  6
CONTINUOUS
 70
0
 71
3
 72
35
 73
31
 74
0
 42
0.0000001
 43
0.0000001
 44
0.0000000001
 40
0.0
 40
0.0
 40
0.0
 40
0.0
 40
0.0733446735
 40
0.1464213932
 40
0.2189646461
 40
0.2907094859
 40
0.3613946871
 40
0.4307626702
 40
0.4985605984
 40
0.5645412507
 40
0.6284633128
 40
0.6595789044
 40
0.6900927222
 40
0.7199767118
 40
0.7492033119
 40
0.7777455681
 40
0.8055771844
 40
0.8326728238
 40
0.8459369972
 40
0.8590081086
 40
0.8718832979
 40
0.8845597942
 40
0.9093061359
 40
0.9213713918
 40
0.9332287648
 40
0.9448770964
 40
0.9563157243
 40
0.9675448286
 40
0.9785658426
 40
1.0
 40
1.0
 40
1.0
 40
1.0
 10
5.1130592843
 20
2.6730687453
 30
0.0
 10
5.1130592762
 20
2.6684365617
 30
0.0
 10
5.1130839129
 20
2.6591890988
 30
0.0
 10
5.1131935755
 20
2.6453604616
 30
0.0
 10
5.1133723565
 20
2.6316335953
 30
0.0
 10
5.1136142934
 20
2.6180587698
 30
0.0
 10
5.1139110541
 20
2.6046856295
 30
0.0
 10
5.1142520931
 20
2.591562912
 30
0.0
 10
5.1146245094
 20
2.5787383037
 30
0.0
 10
5.1150130241
 20
2.56625829
 30
0.0
 10
5.1153380386
 20
2.556094153
 30
0.0
 10
5.1155867936
 20
2.5481686798
 30
0.0
 10
5.1157627964
 20
2.5423917045
 30
0.0
 10
5.1159265967
 20
2.5367337194
 30
0.0
 10
5.1160744743
 20
2.5311998528
 30
0.0
 10
5.1162021662
 20
2.525795134
 30
0.0
 10
5.1163051265
 20
2.5205244901
 30
0.0
 10
5.1163659772
 20
2.5162181659
 30
0.0
 10
5.1163959985
 20
2.5128437887
 30
0.0
 10
5.1164081161
 20
2.5103674198
 30
0.0
 10
5.1164089263
 20
2.5079281329
 30
0.0
 10
5.1163937131
 20
2.5047515219
 30
0.0
 10
5.1163514333
 20
2.5016262019
 30
0.0
 10
5.1162737526
 20
2.4985533963
 30
0.0
 10
5.1161969857
 20
2.4963081404
 30
0.0
 10
5.1160987042
 20
2.494103327
 30
0.0
 10
5.1159767676
 20
2.4919394287
 30
0.0
 10
5.1158275298
 20
2.4898169104
 30
0.0
 10
5.1155878719
 20
2.4870683274
 30
0.0
 10
5.1153507325
 20
2.4850315348
 30
0.0
 10
5.1151632065
 20
2.4836908829
 30
0.0
  0
SPLINE
  5
2D3
100
AcDbEntity
  8
0
100
AcDbSpline
 62
7
  6
CONTINUOUS
 70
0
 71
3
 72
35
 73
31
 74
0
 42
0.0000001
 43
0.0000001
 44
0.0000000001
 40
0.0
 40
0.0
 40
0.0
 40
0.0
 40
0.0106201373
 40
0.0214370645
 40
0.0324574118
 40
0.043686308
 40
0.0551253268
 40
0.0667744107
 40
0.0786326607
 40
0.0906985609
 40
0.1029702503
 40
0.1154455981
 40
0.1409973621
 40
0.1540685384
 40
0.1673327938
 40
0.1944285672
 40
0.2222602328
 40
0.2508022699
 40
0.2800284904
 40
0.3099121109
 40
0.37154124
 40
0.4354630093
 40
0.5014431376
 40
0.5692406296
 40
0.6386081142
 40
0.7092927794
 40
0.7810370795
 40
0.8535797599
 40
0.9266558816
 40
1.0
 40
1.0
 40
1.0
 40
1.0
 10
5.1151632113
 20
2.8624464826
 30
0.0
 10
5.1152553769
 20
2.8617821153
 30
0.0
 10
5.1154264883
 20
2.8604389616
 30
0.0
 10
5.1156442493
 20
2.8584005464
 30
0.0
 10
5.1158274891
 20
2.8563201475
 30
0.0
 10
5.1159783027
 20
2.854197782
 30
0.0
 10
5.1161005297
 20
2.8520338283
 30
0.0
 10
5.1161979135
 20
2.8498288465
 30
0.0
 10
5.1162743642
 20
2.8475834373
 30
0.0
 10
5.1163319397
 20
2.8452981369
 30
0.0
 10
5.11637241
 20
2.8429734957
 30
0.0
 10
5.1164063875
 20
2.8397969673
 30
0.0
 10
5.1164122681
 20
2.8365697178
 30
0.0
 10
5.1163961119
 20
2.8332927443
 30
0.0
 10
5.1163661372
 20
2.8299183458
 30
0.0
 10
5.116305033
 20
2.8256120062
 30
0.0
 10
5.1162020445
 20
2.8203413623
 30
0.0
 10
5.1160741938
 20
2.814936679
 30
0.0
 10
5.1159264302
 20
2.8094028676
 30
0.0
 10
5.1157058979
 20
2.8017806129
 30
0.0
 10
5.1153996852
 20
2.7919686967
 30
0.0
 10
5.1150129345
 20
2.7798784712
 30
0.0
 10
5.1146244979
 20
2.7673985266
 30
0.0
 10
5.1142521124
 20
2.7545740026
 30
0.0
 10
5.1139110325
 20
2.7414513717
 30
0.0
 10
5.1136142835
 20
2.7280783229
 30
0.0
 10
5.1133723599
 20
2.7145035937
 30
0.0
 10
5.1131935733
 20
2.7007768277
 30
0.0
 10
5.1130839132
 20
2.6869482916
 30
0.0
 10
5.1130592764
 20
2.6777008964
 30
0.0
 10
5.1130592842
 20
2.6730687453
 30
0.0
  0
SPLINE
  5
2D4
100
AcDbEntity
  8
0
100
AcDbSpline
 62
7
  6
CONTINUOUS
 70
0
 71
3
 72
9
 73
5
 74
0
 42
0.0000001
 43
0.0000001
 44
0.0000000001
 40
0.0
 40
0.0
 40
0.0
 40
0.0
 40
0.4915904687
 40
1.0
 40
1.0
 40
1.0
 40
1.0
 10
5.1258781846
 20
2.8669245949
 30
0.0
 10
5.1240303564
 20
2.8664507213
 30
0.0
 10
5.1203411632
 20
2.8651980955
 30
0.0
 10
5.1168641482
 20
2.8634460357
 30
0.0
 10
5.1151632113
 20
2.8624464826
 30
0.0
  0
LINE
  5
2D5
100
AcDbEntity
  8
0
100
AcDbLine
 62
7
  6
CONTINUOUS
 10
5.1151632312
 20
6.0001908684
 11
5.1112271621
 21
5.9860565213
  0
SPLINE
  5
2D6
100
AcDbEntity
  8
0
100
AcDbSpline
 62
7
  6
CONTINUOUS
 70
0
 71
3
 72
9
 73
5
 74
0
 42
0.0000001
 43
0.0000001
 44
0.0000000001
 40
0.0
 40
0.0
 40
0.0
 40
0.0
 40
0.4915905343
 40
1.0
 40
1.0
 40
1.0
 40
1.0
 10
5.1258781846
 20
5.9957127677
 30
0.0
 10
5.1240303599
 20
5.9961866404
 30
0.0
 10
5.1203411757
 20
5.997439268
 30
0.0
 10
5.116864165
 20
5.9991913182
 30
0.0
 10
5.1151632312
 20
6.0001908684
 30
0.0
  0
SPLINE
  5
2D7
100
AcDbEntity
  8
0
100
AcDbSpline
 62
7
  6
CONTINUOUS
 70
0
 71
3
 72
33
 73
29
 74
0
 42
0.0000001
 43
0.0000001
 44
0.0000000001
 40
0.0
 40
0.0
 40
0.0
 40
0.0
 40
0.0733444024
 40
0.146420934
 40
0.2189638519
 40
0.2907084824
 40
0.3613934362
 40
0.4307612133
 40
0.4985589241
 40
0.5645393879
 40
0.5967724256
 40
0.6284612792
 40
0.6900906261
 40
0.7199742935
 40
0.7492006853
 40
0.7777431157
 40
0.8055747719
 40
0.8326701991
 40
0.8590052461
 40
0.8845567879
 40
0.8970321664
 40
0.9093040378
 40
0.9332279408
 40
0.9563145116
 40
0.9675429871
 40
0.978563654
 40
0.9893806117
 40
1.0
 40
1.0
 40
1.0
 40
1.0
 10
5.1130592843
 20
6.1895687453
 30
0.0
 10
5.1130592762
 20
6.1849365762
 30
0.0
 10
5.1130839078
 20
6.1756891371
 30
0.0
 10
5.11319358
 20
6.1618605423
 30
0.0
 10
5.1133723483
 20
6.1481337143
 30
0.0
 10
5.1136142912
 20
6.1345589313
 30
0.0
 10
5.1139110295
 20
6.1211858247
 30
0.0
 10
5.1142521344
 20
6.108063144
 30
0.0
 10
5.1146244391
 20
6.0952385638
 30
0.0
 10
5.1149507921
 20
6.0847589687
 30
0.0
 10
5.1152111836
 20
6.0765589358
 30
0.0
 10
5.1154631641
 20
6.0686335761
 30
0.0
 10
5.1157059148
 20
6.0608563699
 30
0.0
 10
5.1159264131
 20
6.0532340869
 30
0.0
 10
5.1160742806
 20
6.0477002396
 30
0.0
 10
5.1162022342
 20
6.0422955238
 30
0.0
 10
5.1163051143
 20
6.0370248738
 30
0.0
 10
5.1163775602
 20
6.0318931283
 30
0.0
 10
5.116413431
 20
6.0269049898
 30
0.0
 10
5.1164060422
 20
6.022840044
 30
0.0
 10
5.1163720708
 20
6.0196635134
 30
0.0
 10
5.1163188001
 20
6.0165900617
 30
0.0
 10
5.1162110331
 20
6.0128473648
 30
0.0
 10
5.1160286228
 20
6.0091733202
 30
0.0
 10
5.115826907
 20
6.0063170953
 30
0.0
 10
5.1156457752
 20
6.0042365132
 30
0.0
 10
5.1154283233
 20
6.0021980757
 30
0.0
 10
5.1152561149
 20
6.0008550989
 30
0.0
 10
5.1151632065
 20
6.0001908829
 30
0.0
  0
SPLINE
  5
2D8
100
AcDbEntity
  8
0
100
AcDbSpline
 62
7
  6
CONTINUOUS
 70
0
 71
3
 72
34
 73
30
 74
0
 42
0.0000001
 43
0.0000001
 44
0.0000000001
 40
0.0
 40
0.0
 40
0.0
 40
0.0
 40
0.0106200629
 40
0.021436665
 40
0.0324573792
 40
0.0436870135
 40
0.0551265914
 40
0.0667758377
 40
0.0786338614
 40
0.0906994375
 40
0.1154460289
 40
0.1281225036
 40
0.1409975773
 40
0.1673325297
 40
0.194428135
 40
0.2222599221
 40
0.2508021244
 40
0.2800282746
 40
0.3099119238
 40
0.3715411825
 40
0.4354628561
 40
0.5014430762
 40
0.5692405447
 40
0.6386080466
 40
0.7092927207
 40
0.7810370569
 40
0.85357968
 40
0.9266558973
 40
1.0
 40
1.0
 40
1.0
 40
1.0
 10
5.1151632113
 20
6.3789464826
 30
0.0
 10
5.1152553762
 20
6.3782821201
 30
0.0
 10
5.1154268276
 20
6.3769390395
 30
0.0
 10
5.1156452558
 20
6.3749006938
 30
0.0
 10
5.1158280969
 20
6.3728202042
 30
0.0
 10
5.1159778659
 20
6.3706976589
 30
0.0
 10
5.1160993324
 20
6.3685335746
 30
0.0
 10
5.1161970685
 20
6.3663285799
 30
0.0
 10
5.1162737794
 20
6.3640832024
 30
0.0
 10
5.1163512348
 20
6.3610103129
 30
0.0
 10
5.1163936506
 20
6.3578849602
 30
0.0
 10
5.116408852
 20
6.3547083402
 30
0.0
 10
5.1164077509
 20
6.3514313619
 30
0.0
 10
5.1163776822
 20
6.3472437955
 30
0.0
 10
5.1163051886
 20
6.3421120411
 30
0.0
 10
5.116202127
 20
6.3368413895
 30
0.0
 10
5.1160741897
 20
6.3314366963
 30
0.0
 10
5.1159264484
 20
6.3259028774
 30
0.0
 10
5.1157059852
 20
6.3182806165
 30
0.0
 10
5.1153995212
 20
6.3084687058
 30
0.0
 10
5.1150130532
 20
6.2963784656
 30
0.0
 10
5.1146244291
 20
6.2838985308
 30
0.0
 10
5.1142521324
 20
6.271074001
 30
0.0
 10
5.1139110254
 20
6.257951373
 30
0.0
 10
5.1136142892
 20
6.2445783224
 30
0.0
 10
5.1133723483
 20
6.2310035966
 30
0.0
 10
5.11319358
 20
6.2172768282
 30
0.0
 10
5.1130839085
 20
6.2034482932
 30
0.0
 10
5.1130592764
 20
6.1942008946
 30
0.0
 10
5.1130592842
 20
6.1895687453
 30
0.0
  0
ENDSEC
  0
SECTION
  2
OBJECTS
  0
DICTIONARY
  5
C
100
AcDbDictionary
280
0
281
1
  3
ACAD_GROUP
350
D
  3
ACAD_MLINESTYLE
350
17
  3
ACAD_LAYOUT
350
1A
  3
ACAD_PLOTSETTINGS
350
19
  3
ACAD_PLOTSTYLENAME
350
E
  0
DICTIONARY
  5
D
102
{ACAD_REACTORS
330
C
102
}
100
AcDbDictionary
280
0
281
1
  0
ACDBDICTIONARYWDFLT
  5
E
102
{ACAD_REACTORS
330
C
102
}
100
AcDbDictionary
281
1
  3
Normal
350
F
100
AcDbDictionaryWithDefault
340
F
  0
DICTIONARY
  5
17
102
{ACAD_REACTORS
330
C
102
}
100
AcDbDictionary
280
0
281
1
  3
Standard
350
18
  0
DICTIONARY
  5
19
102
{ACAD_REACTORS
330
C
102
}
100
AcDbDictionary
281
1
  0
DICTIONARY
  5
1A
102
{ACAD_REACTORS
330
C
102
}
100
AcDbDictionary
281
1
  3
Model
350
2D9
  3
Layout1
350
2DA
  0
ACDBPLACEHOLDER
  5
F
102
{ACAD_REACTORS
330
E
102
}
  0
MLINESTYLE
  5
18
102
{ACAD_REACTORS
330
17
102
}
100
AcDbMlineStyle
  2
STANDARD
 70
0
  3

 62
256
 51
90.0
 52
90.0
 71
2
 49
0.5
 62
256
  6
BYLAYER
 49
-0.5
 62
256
  6
BYLAYER
  0
LAYOUT
  5
2D9
102
{ACAD_REACTORS
330
1A
102
}
100
AcDbPlotSettings
  1

  2
none_device
  4
ANSI_A_(11.00_x_8.50_Inches)
  6

 40
0.0
 41
0.0
 42
0.0
 43
0.0
 44
279.4
 45
215.9
 46
0.0
 47
0.0
 48
0.0
 49
0.0
140
0.0
141
0.0
142
1.0
143
1.0
 70
1024
 72
0
 73
0
 74
0
  7

 75
0
147
1.0
148
0.0
149
0.0
100
AcDbLayout
  1
Model
 70
0
 71
0
 10
0.0
 20
0.0
 11
11.0
 21
8.5
 12
0.0
 22
0.0
 32
0.0
 14
0.0
 24
0.0
 34
0.0
 15
0.0
 25
0.0
 35
0.0
146
0.0
 13
0.0
 23
0.0
 33
0.0
 16
1.0
 26
0.0
 36
0.0
 17
0.0
 27
1.0
 37
0.0
 76
0
330
203
345
0
346
0
  0
LAYOUT
  5
2DA
102
{ACAD_REACTORS
330
1A
102
}
100
AcDbPlotSettings
  1

  2
none_device
  4
ANSI_A_(11.00_x_8.50_Inches)
  6

 40
0.0
 41
0.0
 42
0.0
 43
0.0
 44
279.4
 45
215.9
 46
0.0
 47
0.0
 48
0.0
 49
0.0
140
0.0
141
0.0
142
1.0
143
1.0
 70
0
 72
0
 73
0
 74
0
  7

 75
0
147
1.0
148
0.0
149
0.0
100
AcDbLayout
  1
Layout1
 70
0
 71
1
 10
0.0
 20
0.0
 11
11.0
 21
8.5
 12
0.0
 22
0.0
 32
0.0
 14
0.0
 24
0.0
 34
0.0
 15
0.0
 25
0.0
 35
0.0
146
0.0
 13
0.0
 23
0.0
 33
0.0
 16
1.0
 26
0.0
 36
0.0
 17
0.0
 27
1.0
 37
0.0
 76
0
330
204
345
0
346
0
  0
ENDSEC
  0
EOF
